  0
SECTION
  2
HEADER
  9
$ACADVER
  1
AC1009
  9
$EXTMIN
 10
-3.24715517
 20
-3.25234768
 30
0.0
  9
$EXTMAX
 10
3.24715517
 20
3.25234768
 30
0.0
  0
ENDSEC
  0
SECTION
  2
TABLES
  0
TABLE
  2
LAYER
 70
1
 0
LAYER
 2
Default_Layer
 70
0
 62
1
 6
CONTINUOUS
 0
ENDTAB
 0
ENDSEC
  0
SECTION
  2
ENTITIES
  0
POLYLINE
  8
Default_Layer
 66
   1
 39
0.000000
 70
    1
  0
VERTEX
  8
0
 10
3.22712467
 20
-1.38690063
  0
VERTEX
  8
0
 10
3.22171407
 20
-1.35789908
  0
VERTEX
  8
0
 10
3.21521279
 20
-1.32909158
  0
VERTEX
  8
0
 10
3.20764170
 20
-1.30050182
  0
VERTEX
  8
0
 10
3.19902168
 20
-1.27215351
  0
VERTEX
  8
0
 10
3.18937360
 20
-1.24407033
  0
VERTEX
  8
0
 10
3.17871833
 20
-1.21627598
  0
VERTEX
  8
0
 10
3.16707676
 20
-1.18879416
  0
VERTEX
  8
0
 10
3.15446976
 20
-1.16164857
  0
VERTEX
  8
0
 10
3.14091821
 20
-1.13486289
  0
VERTEX
  8
0
 10
3.12644297
 20
-1.10846084
  0
VERTEX
  8
0
 10
3.11106494
 20
-1.08246610
  0
VERTEX
  8
0
 10
3.09480497
 20
-1.05690237
  0
VERTEX
  8
0
 10
3.07768396
 20
-1.03179335
  0
VERTEX
  8
0
 10
3.05972276
 20
-1.00716273
  0
VERTEX
  8
0
 10
3.04094227
 20
-0.98303422
  0
VERTEX
  8
0
 10
3.02136335
 20
-0.95943149
  0
VERTEX
  8
0
 10
3.00680878
 20
-0.94229392
  0
VERTEX
  8
0
 10
2.99151959
 20
-0.92623246
  0
VERTEX
  8
0
 10
2.97553901
 20
-0.91120029
  0
VERTEX
  8
0
 10
2.95891029
 20
-0.89715057
  0
VERTEX
  8
0
 10
2.94167669
 20
-0.88403645
  0
VERTEX
  8
0
 10
2.92388144
 20
-0.87181110
  0
VERTEX
  8
0
 10
2.90556779
 20
-0.86042768
  0
VERTEX
  8
0
 10
2.88677899
 20
-0.84983935
  0
VERTEX
  8
0
 10
2.86755829
 20
-0.83999926
  0
VERTEX
  8
0
 10
2.84794892
 20
-0.83086059
  0
VERTEX
  8
0
 10
2.80773720
 20
-0.81450012
  0
VERTEX
  8
0
 10
2.76648978
 20
-0.80038323
  0
VERTEX
  8
0
 10
2.72455265
 20
-0.78813520
  0
VERTEX
  8
0
 10
2.68810649
 20
-0.78604373
  0
VERTEX
  8
0
 10
2.65212506
 20
-0.78534658
  0
VERTEX
  8
0
 10
2.61660639
 20
-0.78604373
  0
VERTEX
  8
0
 10
2.58154854
 20
-0.78813520
  0
VERTEX
  8
0
 10
2.54252483
 20
-0.79674995
  0
VERTEX
  8
0
 10
2.50381305
 20
-0.80606784
  0
VERTEX
  8
0
 10
2.42719674
 20
-0.82652653
  0
VERTEX
  8
0
 10
2.35144263
 20
-0.84893819
  0
VERTEX
  8
0
 10
2.27629372
 20
-0.87272976
  0
VERTEX
  8
0
 10
2.12678353
 20
-0.92216040
  0
VERTEX
  8
0
 10
2.05190828
 20
-0.94665335
  0
VERTEX
  8
0
 10
1.97661027
 20
-0.97023396
  0
VERTEX
  8
0
 10
1.93592542
 20
-0.97997877
  0
VERTEX
  8
0
 10
1.89626126
 20
-0.99144629
  0
VERTEX
  8
0
 10
1.85737137
 20
-1.00406406
  0
VERTEX
  8
0
 10
1.81900930
 20
-1.01725960
  0
VERTEX
  8
0
 10
1.74288292
 20
-1.04309404
  0
VERTEX
  8
0
 10
1.70462574
 20
-1.05458798
  0
VERTEX
  8
0
 10
1.66591068
 20
-1.06436977
  0
VERTEX
  8
0
 10
1.62928901
 20
-1.04720903
  0
VERTEX
  8
0
 10
1.59091455
 20
-1.03059469
  0
VERTEX
  8
0
 10
1.55097973
 20
-1.01450050
  0
VERTEX
  8
0
 10
1.50967696
 20
-0.99890021
  0
VERTEX
  8
0
 10
1.46719868
 20
-0.98376756
  0
VERTEX
  8
0
 10
1.42373731
 20
-0.96907631
  0
VERTEX
  8
0
 10
1.33463496
 20
-0.94091298
  0
VERTEX
  8
0
 10
1.38675929
 20
-0.90568575
  0
VERTEX
  8
0
 10
1.43897382
 20
-0.87142903
  0
VERTEX
  8
0
 10
1.54348126
 20
-0.80523304
  0
VERTEX
  8
0
 10
1.64777281
 20
-0.74113677
  0
VERTEX
  8
0
 10
1.75146401
 20
-0.67795199
  0
VERTEX
  8
0
 10
1.85417041
 20
-0.61449047
  0
VERTEX
  8
0
 10
1.95550754
 20
-0.54956398
  0
VERTEX
  8
0
 10
2.00554249
 20
-0.51618005
  0
VERTEX
  8
0
 10
2.05509096
 20
-0.48198430
  0
VERTEX
  8
0
 10
2.10410487
 20
-0.44682818
  0
VERTEX
  8
0
 10
2.15253619
 20
-0.41056318
  0
VERTEX
  8
0
 10
2.18219832
 20
-0.38542401
  0
VERTEX
  8
0
 10
2.21244946
 20
-0.36087627
  0
VERTEX
  8
0
 10
2.27432555
 20
-0.31315448
  0
VERTEX
  8
0
 10
2.33737806
 20
-0.26659649
  0
VERTEX
  8
0
 10
2.40082058
 20
-0.22040099
  0
VERTEX
  8
0
 10
2.46386670
 20
-0.17376666
  0
VERTEX
  8
0
 10
2.52573000
 20
-0.12589218
  0
VERTEX
  8
0
 10
2.55597234
 20
-0.10123947
  0
VERTEX
  8
0
 10
2.58562408
 20
-0.07597623
  0
VERTEX
  8
0
 10
2.61458691
 20
-0.05000230
  0
VERTEX
  8
0
 10
2.64276253
 20
-0.02321750
  0
VERTEX
  8
0
 10
2.67397011
 20
0.00959490
  0
VERTEX
  8
0
 10
2.70435440
 20
0.04290155
  0
VERTEX
  8
0
 10
2.73390060
 20
0.07670403
  0
VERTEX
  8
0
 10
2.76259395
 20
0.11100393
  0
VERTEX
  8
0
 10
2.79041965
 20
0.14580282
  0
VERTEX
  8
0
 10
2.81736293
 20
0.18110229
  0
VERTEX
  8
0
 10
2.84340901
 20
0.21690391
  0
VERTEX
  8
0
 10
2.86854311
 20
0.25320926
  0
VERTEX
  8
0
 10
2.89275045
 20
0.29001992
  0
VERTEX
  8
0
 10
2.91601624
 20
0.32733748
  0
VERTEX
  8
0
 10
2.93832571
 20
0.36516352
  0
VERTEX
  8
0
 10
2.95966407
 20
0.40349961
  0
VERTEX
  8
0
 10
2.98001655
 20
0.44234733
  0
VERTEX
  8
0
 10
2.99936837
 20
0.48170826
  0
VERTEX
  8
0
 10
3.01770474
 20
0.52158399
  0
VERTEX
  8
0
 10
3.03501089
 20
0.56197610
  0
VERTEX
  8
0
 10
3.05127203
 20
0.60288616
  0
VERTEX
  8
0
 10
3.06647339
 20
0.64431575
  0
VERTEX
  8
0
 10
3.08060018
 20
0.68626646
  0
VERTEX
  8
0
 10
3.09363762
 20
0.72873986
  0
VERTEX
  8
0
 10
3.10557093
 20
0.77173754
  0
VERTEX
  8
0
 10
3.11638534
 20
0.81526107
  0
VERTEX
  8
0
 10
3.12606606
 20
0.85931204
  0
VERTEX
  8
0
 10
3.13459832
 20
0.90389202
  0
VERTEX
  8
0
 10
3.14196732
 20
0.94900260
  0
VERTEX
  8
0
 10
3.14815829
 20
0.99464535
  0
VERTEX
  8
0
 10
3.15315646
 20
1.04082186
  0
VERTEX
  8
0
 10
3.15694704
 20
1.08753371
  0
VERTEX
  8
0
 10
3.15951524
 20
1.13478247
  0
VERTEX
  8
0
 10
3.16084630
 20
1.18256972
  0
VERTEX
  8
0
 10
3.16092542
 20
1.23089705
  0
VERTEX
  8
0
 10
3.15973784
 20
1.27976604
  0
VERTEX
  8
0
 10
3.16087899
 20
1.30340807
  0
VERTEX
  8
0
 10
3.16116071
 20
1.32662571
  0
VERTEX
  8
0
 10
3.16063811
 20
1.34945722
  0
VERTEX
  8
0
 10
3.15936629
 20
1.37194084
  0
VERTEX
  8
0
 10
3.15479546
 20
1.41601740
  0
VERTEX
  8
0
 10
3.14788907
 20
1.45916139
  0
VERTEX
  8
0
 10
3.13908801
 20
1.50167880
  0
VERTEX
  8
0
 10
3.12883315
 20
1.54387562
  0
VERTEX
  8
0
 10
3.10572549
 20
1.62853147
  0
VERTEX
  8
0
 10
3.06560649
 20
1.72103240
  0
VERTEX
  8
0
 10
3.04455653
 20
1.76716274
  0
VERTEX
  8
0
 10
3.02277942
 20
1.81309833
  0
VERTEX
  8
0
 10
3.00022503
 20
1.85875318
  0
VERTEX
  8
0
 10
2.97684321
 20
1.90404128
  0
VERTEX
  8
0
 10
2.95258383
 20
1.94887664
  0
VERTEX
  8
0
 10
2.92739676
 20
1.99317326
  0
VERTEX
  8
0
 10
2.90123185
 20
2.03684515
  0
VERTEX
  8
0
 10
2.87403898
 20
2.07980630
  0
VERTEX
  8
0
 10
2.84576800
 20
2.12197072
  0
VERTEX
  8
0
 10
2.81636879
 20
2.16325240
  0
VERTEX
  8
0
 10
2.78579120
 20
2.20356536
  0
VERTEX
  8
0
 10
2.75398509
 20
2.24282359
  0
VERTEX
  8
0
 10
2.72090034
 20
2.28094110
  0
VERTEX
  8
0
 10
2.68648681
 20
2.31783188
  0
VERTEX
  8
0
 10
2.66290907
 20
2.34407853
  0
VERTEX
  8
0
 10
2.63868007
 20
2.36925378
  0
VERTEX
  8
0
 10
2.61382270
 20
2.39338785
  0
VERTEX
  8
0
 10
2.58835984
 20
2.41651095
  0
VERTEX
  8
0
 10
2.56231438
 20
2.43865328
  0
VERTEX
  8
0
 10
2.53570921
 20
2.45984507
  0
VERTEX
  8
0
 10
2.50856721
 20
2.48011652
  0
VERTEX
  8
0
 10
2.48091128
 20
2.49949785
  0
VERTEX
  8
0
 10
2.45276430
 20
2.51801927
  0
VERTEX
  8
0
 10
2.42414915
 20
2.53571099
  0
VERTEX
  8
0
 10
2.39508873
 20
2.55260323
  0
VERTEX
  8
0
 10
2.36560593
 20
2.56872619
  0
VERTEX
  8
0
 10
2.33572362
 20
2.58411010
  0
VERTEX
  8
0
 10
2.30546470
 20
2.59878515
  0
VERTEX
  8
0
 10
2.24390857
 20
2.62612956
  0
VERTEX
  8
0
 10
2.18112065
 20
2.65100113
  0
VERTEX
  8
0
 10
2.11728402
 20
2.67364156
  0
VERTEX
  8
0
 10
2.05258178
 20
2.69429254
  0
VERTEX
  8
0
 10
1.98719705
 20
2.71319577
  0
VERTEX
  8
0
 10
1.92131290
 20
2.73059295
  0
VERTEX
  8
0
 10
1.85511245
 20
2.74672579
  0
VERTEX
  8
0
 10
1.78877880
 20
2.76183598
  0
VERTEX
  8
0
 10
1.72249504
 20
2.77616521
  0
VERTEX
  8
0
 10
1.69059276
 20
2.78287422
  0
VERTEX
  8
0
 10
1.65825613
 20
2.78853011
  0
VERTEX
  8
0
 10
1.62556196
 20
2.79330650
  0
VERTEX
  8
0
 10
1.59258706
 20
2.79737698
  0
VERTEX
  8
0
 10
1.52610227
 20
2.80409466
  0
VERTEX
  8
0
 10
1.45941619
 20
2.81007198
  0
VERTEX
  8
0
 10
1.39314326
 20
2.81669778
  0
VERTEX
  8
0
 10
1.36035373
 20
2.82068788
  0
VERTEX
  8
0
 10
1.32789791
 20
2.82536092
  0
VERTEX
  8
0
 10
1.29585259
 20
2.83089049
  0
VERTEX
  8
0
 10
1.26429459
 20
2.83745021
  0
VERTEX
  8
0
 10
1.23330069
 20
2.84521369
  0
VERTEX
  8
0
 10
1.20294771
 20
2.85435451
  0
VERTEX
  8
0
 10
1.19197818
 20
2.85702149
  0
VERTEX
  8
0
 10
1.17581640
 20
2.86324726
  0
VERTEX
  8
0
 10
1.15611785
 20
2.87291987
  0
VERTEX
  8
0
 10
1.13453803
 20
2.88592734
  0
VERTEX
  8
0
 10
1.12355998
 20
2.89364666
  0
VERTEX
  8
0
 10
1.11273241
 20
2.90215770
  0
VERTEX
  8
0
 10
1.10226227
 20
2.91144648
  0
VERTEX
  8
0
 10
1.09235648
 20
2.92149899
  0
VERTEX
  8
0
 10
1.08322199
 20
2.93230124
  0
VERTEX
  8
0
 10
1.07506572
 20
2.94383923
  0
VERTEX
  8
0
 10
1.06809462
 20
2.95609896
  0
VERTEX
  8
0
 10
1.06251562
 20
2.96906645
  0
VERTEX
  8
0
 10
1.04221894
 20
2.98516291
  0
VERTEX
  8
0
 10
1.02170839
 20
3.00244466
  0
VERTEX
  8
0
 10
0.97985902
 20
3.03877401
  0
VERTEX
  8
0
 10
0.95842687
 20
3.05692660
  0
VERTEX
  8
0
 10
0.93659419
 20
3.07447447
  0
VERTEX
  8
0
 10
0.91431432
 20
3.09097013
  0
VERTEX
  8
0
 10
0.89154060
 20
3.10596606
  0
VERTEX
  8
0
 10
0.86822635
 20
3.11901476
  0
VERTEX
  8
0
 10
0.84432493
 20
3.12966875
  0
VERTEX
  8
0
 10
0.83213944
 20
3.13395787
  0
VERTEX
  8
0
 10
0.81978966
 20
3.13748050
  0
VERTEX
  8
0
 10
0.80726975
 20
3.14018070
  0
VERTEX
  8
0
 10
0.79457388
 20
3.14200254
  0
VERTEX
  8
0
 10
0.78169622
 20
3.14289006
  0
VERTEX
  8
0
 10
0.76863093
 20
3.14278734
  0
VERTEX
  8
0
 10
0.75537219
 20
3.14163844
  0
VERTEX
  8
0
 10
0.74191415
 20
3.13938742
  0
VERTEX
  8
0
 10
0.72825098
 20
3.13597835
  0
VERTEX
  8
0
 10
0.71437686
 20
3.13135528
  0
VERTEX
  8
0
 10
0.70028594
 20
3.12546228
  0
VERTEX
  8
0
 10
0.68597241
 20
3.11824340
  0
VERTEX
  8
0
 10
0.68382388
 20
3.11773550
  0
VERTEX
  8
0
 10
0.67886397
 20
3.11476681
  0
VERTEX
  8
0
 10
0.66342901
 20
3.10349896
  0
VERTEX
  8
0
 10
0.64550546
 20
3.08854367
  0
VERTEX
  8
0
 10
0.63093125
 20
3.07400472
  0
VERTEX
  8
0
 10
0.44626047
 20
3.13676192
  0
VERTEX
  8
0
 10
0.44132110
 20
3.14981820
  0
VERTEX
  8
0
 10
0.43684457
 20
3.16330301
  0
VERTEX
  8
0
 10
0.43193196
 20
3.17663456
  0
VERTEX
  8
0
 10
0.42568434
 20
3.18923106
  0
VERTEX
  8
0
 10
0.41992960
 20
3.19836150
  0
VERTEX
  8
0
 10
0.41297062
 20
3.20737638
  0
VERTEX
  8
0
 10
0.40496398
 20
3.21603040
  0
VERTEX
  8
0
 10
0.39606628
 20
3.22407821
  0
VERTEX
  8
0
 10
0.38643412
 20
3.23127450
  0
VERTEX
  8
0
 10
0.37622407
 20
3.23737395
  0
VERTEX
  8
0
 10
0.36559273
 20
3.24213123
  0
VERTEX
  8
0
 10
0.35469669
 20
3.24530102
  0
VERTEX
  8
0
 10
0.33233574
 20
3.24895340
  0
VERTEX
  8
0
 10
0.30975934
 20
3.25127014
  0
VERTEX
  8
0
 10
0.28700862
 20
3.25234768
  0
VERTEX
  8
0
 10
0.26412470
 20
3.25228243
  0
VERTEX
  8
0
 10
0.24114872
 20
3.25117082
  0
VERTEX
  8
0
 10
0.21812181
 20
3.24910928
  0
VERTEX
  8
0
 10
0.19508509
 20
3.24619424
  0
VERTEX
  8
0
 10
0.17207970
 20
3.24252212
  0
VERTEX
  8
0
 10
0.12632742
 20
3.23329235
  0
VERTEX
  8
0
 10
0.08119401
 20
3.22219138
  0
VERTEX
  8
0
 10
0.03700852
 20
3.20999063
  0
VERTEX
  8
0
 10
-0.00590002
 20
3.19746151
  0
VERTEX
  8
0
 10
-0.04980306
 20
3.18605223
  0
VERTEX
  8
0
 10
-0.09353534
 20
3.17299379
  0
VERTEX
  8
0
 10
-0.13715670
 20
3.15860040
  0
VERTEX
  8
0
 10
-0.18072698
 20
3.14318623
  0
VERTEX
  8
0
 10
-0.26795370
 20
3.11055231
  0
VERTEX
  8
0
 10
-0.35569426
 20
3.07760554
  0
VERTEX
  8
0
 10
-0.40588124
 20
3.08156342
  0
VERTEX
  8
0
 10
-0.45581237
 20
3.08746278
  0
VERTEX
  8
0
 10
-0.50555581
 20
3.09486059
  0
VERTEX
  8
0
 10
-0.55517968
 20
3.10331379
  0
VERTEX
  8
0
 10
-0.65434131
 20
3.12161417
  0
VERTEX
  8
0
 10
-0.70401535
 20
3.13057525
  0
VERTEX
  8
0
 10
-0.75384241
 20
3.13881953
  0
VERTEX
  8
0
 10
-0.77805510
 20
3.13690480
  0
VERTEX
  8
0
 10
-0.80252049
 20
3.13353364
  0
VERTEX
  8
0
 10
-0.82658354
 20
3.12829318
  0
VERTEX
  8
0
 10
-0.84958919
 20
3.12077057
  0
VERTEX
  8
0
 10
-0.86049080
 20
3.11602444
  0
VERTEX
  8
0
 10
-0.87088242
 20
3.11055295
  0
VERTEX
  8
0
 10
-0.88068217
 20
3.10430449
  0
VERTEX
  8
0
 10
-0.88980816
 20
3.09722746
  0
VERTEX
  8
0
 10
-0.89817853
 20
3.08927024
  0
VERTEX
  8
0
 10
-0.90571139
 20
3.08038123
  0
VERTEX
  8
0
 10
-0.91232486
 20
3.07050883
  0
VERTEX
  8
0
 10
-0.91793706
 20
3.05960143
  0
VERTEX
  8
0
 10
-0.92050222
 20
3.04626706
  0
VERTEX
  8
0
 10
-0.92036449
 20
3.03377189
  0
VERTEX
  8
0
 10
-0.91789340
 20
3.02203046
  0
VERTEX
  8
0
 10
-0.91345852
 20
3.01095731
  0
VERTEX
  8
0
 10
-0.90742940
 20
3.00046699
  0
VERTEX
  8
0
 10
-0.90017557
 20
2.99047405
  0
VERTEX
  8
0
 10
-0.88347204
 20
2.97163846
  0
VERTEX
  8
0
 10
-0.88783833
 20
2.96507519
  0
VERTEX
  8
0
 10
-0.89134680
 20
2.95828401
  0
VERTEX
  8
0
 10
-0.89405650
 20
2.95129186
  0
VERTEX
  8
0
 10
-0.89602651
 20
2.94412566
  0
VERTEX
  8
0
 10
-0.89798373
 20
2.92937878
  0
VERTEX
  8
0
 10
-0.89769102
 20
2.91425874
  0
VERTEX
  8
0
 10
-0.89562094
 20
2.89898092
  0
VERTEX
  8
0
 10
-0.89224604
 20
2.88376069
  0
VERTEX
  8
0
 10
-0.88347204
 20
2.85435451
  0
VERTEX
  8
0
 10
-0.89421234
 20
2.84124395
  0
VERTEX
  8
0
 10
-0.90517560
 20
2.82897476
  0
VERTEX
  8
0
 10
-0.91109782
 20
2.82368351
  0
VERTEX
  8
0
 10
-0.91750416
 20
2.81923599
  0
VERTEX
  8
0
 10
-0.92453740
 20
2.81584333
  0
VERTEX
  8
0
 10
-0.93234035
 20
2.81371665
  0
VERTEX
  8
0
 10
-0.96484262
 20
2.81578155
  0
VERTEX
  8
0
 10
-0.99725713
 20
2.81942614
  0
VERTEX
  8
0
 10
-1.06194415
 20
2.82773970
  0
VERTEX
  8
0
 10
-1.09427734
 20
2.83055133
  0
VERTEX
  8
0
 10
-1.12664409
 20
2.83122795
  0
VERTEX
  8
0
 10
-1.14284953
 20
2.83047543
  0
VERTEX
  8
0
 10
-1.15907474
 20
2.82884090
  0
VERTEX
  8
0
 10
-1.17532350
 20
2.82620829
  0
VERTEX
  8
0
 10
-1.19159961
 20
2.82246151
  0
VERTEX
  8
0
 10
-1.20674129
 20
2.81604919
  0
VERTEX
  8
0
 10
-1.22186735
 20
2.80875577
  0
VERTEX
  8
0
 10
-1.23684522
 20
2.80058675
  0
VERTEX
  8
0
 10
-1.25154232
 20
2.79154765
  0
VERTEX
  8
0
 10
-1.26582608
 20
2.78164395
  0
VERTEX
  8
0
 10
-1.27956393
 20
2.77088117
  0
VERTEX
  8
0
 10
-1.29262331
 20
2.75926481
  0
VERTEX
  8
0
 10
-1.30487163
 20
2.74680038
  0
VERTEX
  8
0
 10
-1.31617634
 20
2.73349337
  0
VERTEX
  8
0
 10
-1.32640485
 20
2.71934929
  0
VERTEX
  8
0
 10
-1.33542459
 20
2.70437365
  0
VERTEX
  8
0
 10
-1.34310300
 20
2.68857195
  0
VERTEX
  8
0
 10
-1.34930751
 20
2.67194969
  0
VERTEX
  8
0
 10
-1.35390554
 20
2.65451237
  0
VERTEX
  8
0
 10
-1.35676451
 20
2.63626551
  0
VERTEX
  8
0
 10
-1.35775187
 20
2.61721460
  0
VERTEX
  8
0
 10
-1.35312558
 20
2.60660132
  0
VERTEX
  8
0
 10
-1.35021475
 20
2.59520932
  0
VERTEX
  8
0
 10
-1.34888626
 20
2.58311729
  0
VERTEX
  8
0
 10
-1.34900702
 20
2.57040390
  0
VERTEX
  8
0
 10
-1.35856222
 20
2.55618285
  0
VERTEX
  8
0
 10
-1.36879274
 20
2.54314758
  0
VERTEX
  8
0
 10
-1.37963266
 20
2.53117105
  0
VERTEX
  8
0
 10
-1.39101609
 20
2.52012624
  0
VERTEX
  8
0
 10
-1.40287714
 20
2.50988613
  0
VERTEX
  8
0
 10
-1.41514989
 20
2.50032368
  0
VERTEX
  8
0
 10
-1.44066693
 20
2.48272368
  0
VERTEX
  8
0
 10
-1.49374192
 20
2.45006658
  0
VERTEX
  8
0
 10
-1.52024548
 20
2.43297706
  0
VERTEX
  8
0
 10
-1.54602348
 20
2.41402530
  0
VERTEX
  8
0
 10
-1.59876046
 20
2.39095709
  0
VERTEX
  8
0
 10
-1.65147232
 20
2.36699373
  0
VERTEX
  8
0
 10
-1.70398868
 20
2.34201702
  0
VERTEX
  8
0
 10
-1.75613918
 20
2.31590878
  0
VERTEX
  8
0
 10
-1.80775344
 20
2.28855082
  0
VERTEX
  8
0
 10
-1.85866111
 20
2.25982494
  0
VERTEX
  8
0
 10
-1.90869181
 20
2.22961297
  0
VERTEX
  8
0
 10
-1.95767518
 20
2.19779671
  0
VERTEX
  8
0
 10
-2.00544084
 20
2.16425798
  0
VERTEX
  8
0
 10
-2.05181843
 20
2.12887859
  0
VERTEX
  8
0
 10
-2.09663758
 20
2.09154035
  0
VERTEX
  8
0
 10
-2.13972792
 20
2.05212507
  0
VERTEX
  8
0
 10
-2.16057155
 20
2.03160161
  0
VERTEX
  8
0
 10
-2.18091909
 20
2.01051457
  0
VERTEX
  8
0
 10
-2.20074924
 20
1.98884917
  0
VERTEX
  8
0
 10
-2.22004071
 20
1.96659065
  0
VERTEX
  8
0
 10
-2.23877220
 20
1.94372423
  0
VERTEX
  8
0
 10
-2.25692242
 20
1.92023513
  0
VERTEX
  8
0
 10
-2.27447007
 20
1.89610859
  0
VERTEX
  8
0
 10
-2.29139385
 20
1.87132982
  0
VERTEX
  8
0
 10
-2.31219935
 20
1.82355985
  0
VERTEX
  8
0
 10
-2.33225589
 20
1.77424248
  0
VERTEX
  8
0
 10
-2.35133251
 20
1.72352449
  0
VERTEX
  8
0
 10
-2.36919829
 20
1.67155271
  0
VERTEX
  8
0
 10
-2.38562226
 20
1.61847392
  0
VERTEX
  8
0
 10
-2.40037350
 20
1.56443495
  0
VERTEX
  8
0
 10
-2.41322104
 20
1.50958258
  0
VERTEX
  8
0
 10
-2.42393395
 20
1.45406363
  0
VERTEX
  8
0
 10
-2.43228128
 20
1.39802490
  0
VERTEX
  8
0
 10
-2.43803208
 20
1.34161319
  0
VERTEX
  8
0
 10
-2.44095542
 20
1.28497531
  0
VERTEX
  8
0
 10
-2.44128461
 20
1.25661743
  0
VERTEX
  8
0
 10
-2.44082034
 20
1.22825806
  0
VERTEX
  8
0
 10
-2.43953372
 20
1.19991555
  0
VERTEX
  8
0
 10
-2.43739590
 20
1.17160825
  0
VERTEX
  8
0
 10
-2.43437800
 20
1.14335451
  0
VERTEX
  8
0
 10
-2.43045116
 20
1.11517268
  0
VERTEX
  8
0
 10
-2.42558650
 20
1.08708111
  0
VERTEX
  8
0
 10
-2.41975516
 20
1.05909815
  0
VERTEX
  8
0
 10
-2.41292828
 20
1.03124215
  0
VERTEX
  8
0
 10
-2.40507698
 20
1.00353147
  0
VERTEX
  8
0
 10
-2.38293519
 20
0.93751445
  0
VERTEX
  8
0
 10
-2.35975482
 20
0.87102743
  0
VERTEX
  8
0
 10
-2.33450597
 20
0.80499156
  0
VERTEX
  8
0
 10
-2.32078403
 20
0.77243065
  0
VERTEX
  8
0
 10
-2.30615875
 20
0.74032797
  0
VERTEX
  8
0
 10
-2.29050140
 20
0.70879865
  0
VERTEX
  8
0
 10
-2.27368325
 20
0.67795783
  0
VERTEX
  8
0
 10
-2.25557555
 20
0.64792065
  0
VERTEX
  8
0
 10
-2.23604957
 20
0.61880227
  0
VERTEX
  8
0
 10
-2.21497657
 20
0.59071783
  0
VERTEX
  8
0
 10
-2.19222781
 20
0.56378246
  0
VERTEX
  8
0
 10
-2.16767457
 20
0.53811131
  0
VERTEX
  8
0
 10
-2.14118809
 20
0.51381953
  0
VERTEX
  8
0
 10
-2.10311882
 20
0.47397940
  0
VERTEX
  8
0
 10
-2.06410798
 20
0.43562118
  0
VERTEX
  8
0
 10
-2.02418750
 20
0.39867458
  0
VERTEX
  8
0
 10
-1.98338930
 20
0.36306933
  0
VERTEX
  8
0
 10
-1.94174532
 20
0.32873514
  0
VERTEX
  8
0
 10
-1.89928747
 20
0.29560173
  0
VERTEX
  8
0
 10
-1.85604768
 20
0.26359882
  0
VERTEX
  8
0
 10
-1.81205787
 20
0.23265612
  0
VERTEX
  8
0
 10
-1.76734998
 20
0.20270335
  0
VERTEX
  8
0
 10
-1.72195592
 20
0.17367024
  0
VERTEX
  8
0
 10
-1.67590763
 20
0.14548648
  0
VERTEX
  8
0
 10
-1.62923702
 20
0.11808182
  0
VERTEX
  8
0
 10
-1.58197603
 20
0.09138595
  0
VERTEX
  8
0
 10
-1.53415658
 20
0.06532861
  0
VERTEX
  8
0
 10
-1.43696998
 20
0.01484834
  0
VERTEX
  8
0
 10
-1.41425943
 20
0.00712644
  0
VERTEX
  8
0
 10
-1.39315401
 20
-0.00221406
  0
VERTEX
  8
0
 10
-1.37348743
 20
-0.01301354
  0
VERTEX
  8
0
 10
-1.35509336
 20
-0.02511238
  0
VERTEX
  8
0
 10
-1.33780548
 20
-0.03835096
  0
VERTEX
  8
0
 10
-1.32145748
 20
-0.05256966
  0
VERTEX
  8
0
 10
-1.30588305
 20
-0.06760886
  0
VERTEX
  8
0
 10
-1.29091585
 20
-0.08330893
  0
VERTEX
  8
0
 10
-1.26213793
 20
-0.11605324
  0
VERTEX
  8
0
 10
-1.23379319
 20
-0.14952561
  0
VERTEX
  8
0
 10
-1.20455108
 20
-0.18244909
  0
VERTEX
  8
0
 10
-1.18917773
 20
-0.19830595
  0
VERTEX
  8
0
 10
-1.17308109
 20
-0.21354672
  0
VERTEX
  8
0
 10
-1.15406559
 20
-0.23922102
  0
VERTEX
  8
0
 10
-1.13616279
 20
-0.26645866
  0
VERTEX
  8
0
 10
-1.12798576
 20
-0.28058826
  0
VERTEX
  8
0
 10
-1.12051543
 20
-0.29501811
  0
VERTEX
  8
0
 10
-1.11389466
 20
-0.30971803
  0
VERTEX
  8
0
 10
-1.10826628
 20
-0.32465783
  0
VERTEX
  8
0
 10
-1.09799185
 20
-0.33825801
  0
VERTEX
  8
0
 10
-1.08977244
 20
-0.35308769
  0
VERTEX
  8
0
 10
-1.08326751
 20
-0.36890405
  0
VERTEX
  8
0
 10
-1.07813654
 20
-0.38546428
  0
VERTEX
  8
0
 10
-1.07403903
 20
-0.40252554
  0
VERTEX
  8
0
 10
-1.07063445
 20
-0.41984504
  0
VERTEX
  8
0
 10
-1.06454200
 20
-0.45428746
  0
VERTEX
  8
0
 10
-1.06971263
 20
-0.48353184
  0
VERTEX
  8
0
 10
-1.07698132
 20
-0.51204844
  0
VERTEX
  8
0
 10
-1.08626514
 20
-0.53977126
  0
VERTEX
  8
0
 10
-1.09748119
 20
-0.56663432
  0
VERTEX
  8
0
 10
-1.11054656
 20
-0.59257162
  0
VERTEX
  8
0
 10
-1.12537833
 20
-0.61751718
  0
VERTEX
  8
0
 10
-1.14189360
 20
-0.64140500
  0
VERTEX
  8
0
 10
-1.16000945
 20
-0.66416909
  0
VERTEX
  8
0
 10
-1.17964297
 20
-0.68574347
  0
VERTEX
  8
0
 10
-1.20071125
 20
-0.70606214
  0
VERTEX
  8
0
 10
-1.22313138
 20
-0.72505911
  0
VERTEX
  8
0
 10
-1.24682044
 20
-0.74266840
  0
VERTEX
  8
0
 10
-1.27169553
 20
-0.75882401
  0
VERTEX
  8
0
 10
-1.29767374
 20
-0.77345995
  0
VERTEX
  8
0
 10
-1.32467214
 20
-0.78651023
  0
VERTEX
  8
0
 10
-1.35260784
 20
-0.79790886
  0
VERTEX
  8
0
 10
-1.36681126
 20
-0.80273782
  0
VERTEX
  8
0
 10
-1.38092409
 20
-0.80588307
  0
VERTEX
  8
0
 10
-1.39494667
 20
-0.80749303
  0
VERTEX
  8
0
 10
-1.40887930
 20
-0.80771613
  0
VERTEX
  8
0
 10
-1.42272231
 20
-0.80670078
  0
VERTEX
  8
0
 10
-1.43647602
 20
-0.80459540
  0
VERTEX
  8
0
 10
-1.45014074
 20
-0.80154841
  0
VERTEX
  8
0
 10
-1.46371680
 20
-0.79770822
  0
VERTEX
  8
0
 10
-1.49060419
 20
-0.78824196
  0
VERTEX
  8
0
 10
-1.51714076
 20
-0.77738397
  0
VERTEX
  8
0
 10
-1.54332905
 20
-0.76632160
  0
VERTEX
  8
0
 10
-1.56917163
 20
-0.75624219
  0
VERTEX
  8
0
 10
-1.61224150
 20
-0.72939997
  0
VERTEX
  8
0
 10
-1.65438216
 20
-0.70157350
  0
VERTEX
  8
0
 10
-1.69560933
 20
-0.67278253
  0
VERTEX
  8
0
 10
-1.73593875
 20
-0.64304683
  0
VERTEX
  8
0
 10
-1.77538613
 20
-0.61238615
  0
VERTEX
  8
0
 10
-1.81396722
 20
-0.58082024
  0
VERTEX
  8
0
 10
-1.85169773
 20
-0.54836885
  0
VERTEX
  8
0
 10
-1.88859339
 20
-0.51505175
  0
VERTEX
  8
0
 10
-1.92466992
 20
-0.48088868
  0
VERTEX
  8
0
 10
-1.95994307
 20
-0.44589940
  0
VERTEX
  8
0
 10
-1.99442855
 20
-0.41010367
  0
VERTEX
  8
0
 10
-2.02814208
 20
-0.37352123
  0
VERTEX
  8
0
 10
-2.06109941
 20
-0.33617185
  0
VERTEX
  8
0
 10
-2.09331625
 20
-0.29807527
  0
VERTEX
  8
0
 10
-2.12480833
 20
-0.25925126
  0
VERTEX
  8
0
 10
-2.15559138
 20
-0.21971956
  0
VERTEX
  8
0
 10
-2.22341116
 20
-0.11894970
  0
VERTEX
  8
0
 10
-2.25673083
 20
-0.06785457
  0
VERTEX
  8
0
 10
-2.28950712
 20
-0.01622839
  0
VERTEX
  8
0
 10
-2.32162763
 20
0.03597201
  0
VERTEX
  8
0
 10
-2.35297995
 20
0.08878981
  0
VERTEX
  8
0
 10
-2.38345165
 20
0.14226819
  0
VERTEX
  8
0
 10
-2.41293034
 20
0.19645033
  0
VERTEX
  8
0
 10
-2.44130359
 20
0.25137942
  0
VERTEX
  8
0
 10
-2.46845899
 20
0.30709863
  0
VERTEX
  8
0
 10
-2.49428413
 20
0.36365113
  0
VERTEX
  8
0
 10
-2.51866659
 20
0.42108012
  0
VERTEX
  8
0
 10
-2.54149396
 20
0.47942877
  0
VERTEX
  8
0
 10
-2.56265384
 20
0.53874026
  0
VERTEX
  8
0
 10
-2.58203379
 20
0.59905777
  0
VERTEX
  8
0
 10
-2.59952142
 20
0.66042447
  0
VERTEX
  8
0
 10
-2.60543508
 20
0.69161592
  0
VERTEX
  8
0
 10
-2.61297618
 20
0.72262633
  0
VERTEX
  8
0
 10
-2.61772003
 20
0.73784530
  0
VERTEX
  8
0
 10
-2.62330636
 20
0.75275700
  0
VERTEX
  8
0
 10
-2.62988037
 20
0.76727410
  0
VERTEX
  8
0
 10
-2.63758726
 20
0.78130925
  0
VERTEX
  8
0
 10
-2.64279354
 20
0.78416796
  0
VERTEX
  8
0
 10
-2.64755987
 20
0.78477952
  0
VERTEX
  8
0
 10
-2.65188606
 20
0.78352843
  0
VERTEX
  8
0
 10
-2.65577193
 20
0.78079920
  0
VERTEX
  8
0
 10
-2.65921728
 20
0.77697631
  0
VERTEX
  8
0
 10
-2.66222191
 20
0.77244426
  0
VERTEX
  8
0
 10
-2.66690825
 20
0.76279073
  0
VERTEX
  8
0
 10
-2.66631320
 20
0.72017262
  0
VERTEX
  8
0
 10
-2.66463544
 20
0.67795975
  0
VERTEX
  8
0
 10
-2.66193383
 20
0.63613106
  0
VERTEX
  8
0
 10
-2.65826725
 20
0.59466547
  0
VERTEX
  8
0
 10
-2.65369455
 20
0.55354190
  0
VERTEX
  8
0
 10
-2.64827461
 20
0.51273929
  0
VERTEX
  8
0
 10
-2.64206628
 20
0.47223654
  0
VERTEX
  8
0
 10
-2.63512843
 20
0.43201260
  0
VERTEX
  8
0
 10
-2.61929964
 20
0.35231683
  0
VERTEX
  8
0
 10
-2.60125915
 20
0.27348336
  0
VERTEX
  8
0
 10
-2.58147789
 20
0.19534362
  0
VERTEX
  8
0
 10
-2.56042677
 20
0.11772900
  0
VERTEX
  8
0
 10
-2.54871479
 20
0.08132783
  0
VERTEX
  8
0
 10
-2.53609433
 20
0.04505684
  0
VERTEX
  8
0
 10
-2.52262990
 20
0.00892875
  0
VERTEX
  8
0
 10
-2.50838599
 20
-0.02704371
  0
VERTEX
  8
0
 10
-2.47781777
 20
-0.09847083
  0
VERTEX
  8
0
 10
-2.44490567
 20
-0.16912271
  0
VERTEX
  8
0
 10
-2.41016571
 20
-0.23889756
  0
VERTEX
  8
0
 10
-2.37411389
 20
-0.30769356
  0
VERTEX
  8
0
 10
-2.33726622
 20
-0.37540890
  0
VERTEX
  8
0
 10
-2.30013871
 20
-0.44194178
  0
VERTEX
  8
0
 10
-2.28465160
 20
-0.46815570
  0
VERTEX
  8
0
 10
-2.26850938
 20
-0.49400789
  0
VERTEX
  8
0
 10
-2.23449673
 20
-0.54469330
  0
VERTEX
  8
0
 10
-2.19857500
 20
-0.59413049
  0
VERTEX
  8
0
 10
-2.16121843
 20
-0.64245194
  0
VERTEX
  8
0
 10
-2.12290128
 20
-0.68979012
  0
VERTEX
  8
0
 10
-2.08409780
 20
-0.73627752
  0
VERTEX
  8
0
 10
-2.00692883
 20
-0.82722985
  0
VERTEX
  8
0
 10
-2.00964760
 20
-0.83022318
  0
VERTEX
  8
0
 10
-2.01280272
 20
-0.83241669
  0
VERTEX
  8
0
 10
-2.02020022
 20
-0.83486894
  0
VERTEX
  8
0
 10
-2.02867781
 20
-0.83551605
  0
VERTEX
  8
0
 10
-2.03779197
 20
-0.83528747
  0
VERTEX
  8
0
 10
-2.04709915
 20
-0.83511264
  0
VERTEX
  8
0
 10
-2.05615585
 20
-0.83592102
  0
VERTEX
  8
0
 10
-2.06451852
 20
-0.83864204
  0
VERTEX
  8
0
 10
-2.06830100
 20
-0.84101025
  0
VERTEX
  8
0
 10
-2.07174364
 20
-0.84420516
  0
VERTEX
  8
0
 10
-2.12159274
 20
-0.84890469
  0
VERTEX
  8
0
 10
-2.17087269
 20
-0.85511494
  0
VERTEX
  8
0
 10
-2.21961039
 20
-0.86274442
  0
VERTEX
  8
0
 10
-2.26783270
 20
-0.87170164
  0
VERTEX
  8
0
 10
-2.31556652
 20
-0.88189512
  0
VERTEX
  8
0
 10
-2.36283872
 20
-0.89323337
  0
VERTEX
  8
0
 10
-2.40967618
 20
-0.90562491
  0
VERTEX
  8
0
 10
-2.45610578
 20
-0.91897827
  0
VERTEX
  8
0
 10
-2.50215440
 20
-0.93320194
  0
VERTEX
  8
0
 10
-2.54784892
 20
-0.94820446
  0
VERTEX
  8
0
 10
-2.63828318
 20
-0.98018007
  0
VERTEX
  8
0
 10
-2.72762360
 20
-1.01417323
  0
VERTEX
  8
0
 10
-2.81608521
 20
-1.04945207
  0
VERTEX
  8
0
 10
-2.83779046
 20
-1.05493495
  0
VERTEX
  8
0
 10
-2.85856679
 20
-1.06206817
  0
VERTEX
  8
0
 10
-2.87845332
 20
-1.07072998
  0
VERTEX
  8
0
 10
-2.89748916
 20
-1.08079866
  0
VERTEX
  8
0
 10
-2.91571341
 20
-1.09215245
  0
VERTEX
  8
0
 10
-2.93316519
 20
-1.10466963
  0
VERTEX
  8
0
 10
-2.94988361
 20
-1.11822844
  0
VERTEX
  8
0
 10
-2.96590778
 20
-1.13270716
  0
VERTEX
  8
0
 10
-2.98127680
 20
-1.14798405
  0
VERTEX
  8
0
 10
-2.99602979
 20
-1.16393735
  0
VERTEX
  8
0
 10
-3.02384412
 20
-1.19738627
  0
VERTEX
  8
0
 10
-3.04966365
 20
-1.23208001
  0
VERTEX
  8
0
 10
-3.07380126
 20
-1.26704466
  0
VERTEX
  8
0
 10
-3.09205310
 20
-1.30668075
  0
VERTEX
  8
0
 10
-3.10925887
 20
-1.34711907
  0
VERTEX
  8
0
 10
-3.12543081
 20
-1.38830636
  0
VERTEX
  8
0
 10
-3.14058115
 20
-1.43018936
  0
VERTEX
  8
0
 10
-3.15472213
 20
-1.47271479
  0
VERTEX
  8
0
 10
-3.16786600
 20
-1.51582940
  0
VERTEX
  8
0
 10
-3.18002498
 20
-1.55947992
  0
VERTEX
  8
0
 10
-3.19121131
 20
-1.60361309
  0
VERTEX
  8
0
 10
-3.20143724
 20
-1.64817563
  0
VERTEX
  8
0
 10
-3.21071499
 20
-1.69311430
  0
VERTEX
  8
0
 10
-3.21905681
 20
-1.73837582
  0
VERTEX
  8
0
 10
-3.22647493
 20
-1.78390692
  0
VERTEX
  8
0
 10
-3.23298158
 20
-1.82965436
  0
VERTEX
  8
0
 10
-3.23858902
 20
-1.87556485
  0
VERTEX
  8
0
 10
-3.24330947
 20
-1.92158513
  0
VERTEX
  8
0
 10
-3.24715517
 20
-1.96766195
  0
VERTEX
  8
0
 10
-3.24367436
 20
-2.00351982
  0
VERTEX
  8
0
 10
-3.23784311
 20
-2.03826830
  0
VERTEX
  8
0
 10
-3.22977769
 20
-2.07191244
  0
VERTEX
  8
0
 10
-3.21959438
 20
-2.10445724
  0
VERTEX
  8
0
 10
-3.20740944
 20
-2.13590775
  0
VERTEX
  8
0
 10
-3.19333915
 20
-2.16626899
  0
VERTEX
  8
0
 10
-3.17749977
 20
-2.19554598
  0
VERTEX
  8
0
 10
-3.16000758
 20
-2.22374376
  0
VERTEX
  8
0
 10
-3.14097886
 20
-2.25086736
  0
VERTEX
  8
0
 10
-3.12052986
 20
-2.27692179
  0
VERTEX
  8
0
 10
-3.09877686
 20
-2.30191209
  0
VERTEX
  8
0
 10
-3.07583614
 20
-2.32584328
  0
VERTEX
  8
0
 10
-3.05182397
 20
-2.34872040
  0
VERTEX
  8
0
 10
-3.02685661
 20
-2.37054848
  0
VERTEX
  8
0
 10
-3.00105033
 20
-2.39133253
  0
VERTEX
  8
0
 10
-2.97452142
 20
-2.41107759
  0
VERTEX
  8
0
 10
-2.89423093
 20
-2.45182570
  0
VERTEX
  8
0
 10
-2.81256118
 20
-2.49158715
  0
VERTEX
  8
0
 10
-2.77114236
 20
-2.51072181
  0
VERTEX
  8
0
 10
-2.72929864
 20
-2.52915852
  0
VERTEX
  8
0
 10
-2.68700335
 20
-2.54674686
  0
VERTEX
  8
0
 10
-2.64422977
 20
-2.56333639
  0
VERTEX
  8
0
 10
-2.60095123
 20
-2.57877670
  0
VERTEX
  8
0
 10
-2.55714103
 20
-2.59291736
  0
VERTEX
  8
0
 10
-2.51277248
 20
-2.60560793
  0
VERTEX
  8
0
 10
-2.46781888
 20
-2.61669800
  0
VERTEX
  8
0
 10
-2.42225355
 20
-2.62603713
  0
VERTEX
  8
0
 10
-2.37604978
 20
-2.63347491
  0
VERTEX
  8
0
 10
-2.32918089
 20
-2.63886089
  0
VERTEX
  8
0
 10
-2.28162019
 20
-2.64204466
  0
VERTEX
  8
0
 10
-2.27593368
 20
-2.64342001
  0
VERTEX
  8
0
 10
-2.27051199
 20
-2.64593662
  0
VERTEX
  8
0
 10
-2.26532766
 20
-2.64952180
  0
VERTEX
  8
0
 10
-2.26035326
 20
-2.65410284
  0
VERTEX
  8
0
 10
-2.25092448
 20
-2.66596171
  0
VERTEX
  8
0
 10
-2.24200611
 20
-2.68093163
  0
VERTEX
  8
0
 10
-2.23337865
 20
-2.69843101
  0
VERTEX
  8
0
 10
-2.22482255
 20
-2.71787824
  0
VERTEX
  8
0
 10
-2.20704638
 20
-2.76028985
  0
VERTEX
  8
0
 10
-2.19738726
 20
-2.78209104
  0
VERTEX
  8
0
 10
-2.18692141
 20
-2.80351367
  0
VERTEX
  8
0
 10
-2.17542932
 20
-2.82397615
  0
VERTEX
  8
0
 10
-2.16269145
 20
-2.84289688
  0
VERTEX
  8
0
 10
-2.14848829
 20
-2.85969425
  0
VERTEX
  8
0
 10
-2.14076862
 20
-2.86711493
  0
VERTEX
  8
0
 10
-2.13260031
 20
-2.87378668
  0
VERTEX
  8
0
 10
-2.12395591
 20
-2.87963678
  0
VERTEX
  8
0
 10
-2.11480799
 20
-2.88459255
  0
VERTEX
  8
0
 10
-2.10512909
 20
-2.88858127
  0
VERTEX
  8
0
 10
-2.09489179
 20
-2.89153026
  0
VERTEX
  8
0
 10
-2.07546034
 20
-2.90846107
  0
VERTEX
  8
0
 10
-2.05529484
 20
-2.92442013
  0
VERTEX
  8
0
 10
-2.03443078
 20
-2.93940935
  0
VERTEX
  8
0
 10
-2.01290366
 20
-2.95343063
  0
VERTEX
  8
0
 10
-1.99074896
 20
-2.96648589
  0
VERTEX
  8
0
 10
-1.96800217
 20
-2.97857701
  0
VERTEX
  8
0
 10
-1.94469877
 20
-2.98970591
  0
VERTEX
  8
0
 10
-1.92087426
 20
-2.99987449
  0
VERTEX
  8
0
 10
-1.89656412
 20
-3.00908465
  0
VERTEX
  8
0
 10
-1.87180385
 20
-3.01733830
  0
VERTEX
  8
0
 10
-1.84662892
 20
-3.02463734
  0
VERTEX
  8
0
 10
-1.82107482
 20
-3.03098367
  0
VERTEX
  8
0
 10
-1.79517705
 20
-3.03637921
  0
VERTEX
  8
0
 10
-1.76897109
 20
-3.04082585
  0
VERTEX
  8
0
 10
-1.74249244
 20
-3.04432550
  0
VERTEX
  8
0
 10
-1.71577657
 20
-3.04688005
  0
VERTEX
  8
0
 10
-1.68267291
 20
-3.06867809
  0
VERTEX
  8
0
 10
-1.64876001
 20
-3.09152777
  0
VERTEX
  8
0
 10
-1.63125307
 20
-3.10223104
  0
VERTEX
  8
0
 10
-1.61324737
 20
-3.11185811
  0
VERTEX
  8
0
 10
-1.59464411
 20
-3.11996261
  0
VERTEX
  8
0
 10
-1.57534447
 20
-3.12609816
  0
VERTEX
  8
0
 10
-1.49981084
 20
-3.14589787
  0
VERTEX
  8
0
 10
-1.42429506
 20
-3.16739516
  0
VERTEX
  8
0
 10
-1.34846394
 20
-3.18886011
  0
VERTEX
  8
0
 10
-1.31032600
 20
-3.19903984
  0
VERTEX
  8
0
 10
-1.27198427
 20
-3.20856276
  0
VERTEX
  8
0
 10
-1.23339712
 20
-3.21721262
  0
VERTEX
  8
0
 10
-1.19452289
 20
-3.22477318
  0
VERTEX
  8
0
 10
-1.15531993
 20
-3.23102820
  0
VERTEX
  8
0
 10
-1.11574659
 20
-3.23576143
  0
VERTEX
  8
0
 10
-1.07576122
 20
-3.23875663
  0
VERTEX
  8
0
 10
-1.03532218
 20
-3.23979757
  0
VERTEX
  8
0
 10
-0.99438782
 20
-3.23866799
  0
VERTEX
  8
0
 10
-0.95291648
 20
-3.23515166
  0
VERTEX
  8
0
 10
-0.92576198
 20
-3.23440210
  0
VERTEX
  8
0
 10
-0.89904389
 20
-3.23177811
  0
VERTEX
  8
0
 10
-0.87264786
 20
-3.22791064
  0
VERTEX
  8
0
 10
-0.84645956
 20
-3.22343061
  0
VERTEX
  8
0
 10
-0.82036464
 20
-3.21896896
  0
VERTEX
  8
0
 10
-0.79424875
 20
-3.21515660
  0
VERTEX
  8
0
 10
-0.76799757
 20
-3.21262448
  0
VERTEX
  8
0
 10
-0.74149673
 20
-3.21200351
  0
VERTEX
  8
0
 10
-0.72128277
 20
-3.21810843
  0
VERTEX
  8
0
 10
-0.70089937
 20
-3.22328392
  0
VERTEX
  8
0
 10
-0.68035412
 20
-3.22762638
  0
VERTEX
  8
0
 10
-0.65965460
 20
-3.23123219
  0
VERTEX
  8
0
 10
-0.61782313
 20
-3.23661939
  0
VERTEX
  8
0
 10
-0.57546569
 20
-3.24021659
  0
VERTEX
  8
0
 10
-0.48941576
 20
-3.24512531
  0
VERTEX
  8
0
 10
-0.44584471
 20
-3.24797899
  0
VERTEX
  8
0
 10
-0.40199056
 20
-3.25212697
  0
VERTEX
  8
0
 10
-0.37373235
 20
-3.25234768
  0
VERTEX
  8
0
 10
-0.34580674
 20
-3.25168285
  0
VERTEX
  8
0
 10
-0.31820118
 20
-3.25019193
  0
VERTEX
  8
0
 10
-0.29090315
 20
-3.24793436
  0
VERTEX
  8
0
 10
-0.23717952
 20
-3.24135705
  0
VERTEX
  8
0
 10
-0.18453561
 20
-3.23242647
  0
VERTEX
  8
0
 10
-0.13287114
 20
-3.22161817
  0
VERTEX
  8
0
 10
-0.08208587
 20
-3.20940771
  0
VERTEX
  8
0
 10
-0.03207953
 20
-3.19627065
  0
VERTEX
  8
0
 10
0.01724813
 20
-3.18268252
  0
VERTEX
  8
0
 10
0.04042595
 20
-3.18840106
  0
VERTEX
  8
0
 10
0.06365251
 20
-3.19324756
  0
VERTEX
  8
0
 10
0.08691955
 20
-3.19725085
  0
VERTEX
  8
0
 10
0.11021877
 20
-3.20043978
  0
VERTEX
  8
0
 10
0.13354189
 20
-3.20284320
  0
VERTEX
  8
0
 10
0.15688063
 20
-3.20448995
  0
VERTEX
  8
0
 10
0.20357187
 20
-3.20562879
  0
VERTEX
  8
0
 10
0.25022622
 20
-3.20408705
  0
VERTEX
  8
0
 10
0.29677745
 20
-3.20009546
  0
VERTEX
  8
0
 10
0.34315928
 20
-3.19388478
  0
VERTEX
  8
0
 10
0.38930549
 20
-3.18568573
  0
VERTEX
  8
0
 10
0.43514981
 20
-3.17572905
  0
VERTEX
  8
0
 10
0.48062600
 20
-3.16424549
  0
VERTEX
  8
0
 10
0.52566781
 20
-3.15146579
  0
VERTEX
  8
0
 10
0.57020898
 20
-3.13762069
  0
VERTEX
  8
0
 10
0.61418328
 20
-3.12294092
  0
VERTEX
  8
0
 10
0.65752444
 20
-3.10765723
  0
VERTEX
  8
0
 10
0.74204236
 20
-3.07620104
  0
VERTEX
  8
0
 10
0.83873186
 20
-3.06589428
  0
VERTEX
  8
0
 10
0.93498865
 20
-3.05376320
  0
VERTEX
  8
0
 10
0.98278496
 20
-3.04676262
  0
VERTEX
  8
0
 10
1.03026930
 20
-3.03900488
  0
VERTEX
  8
0
 10
1.07737374
 20
-3.03038960
  0
VERTEX
  8
0
 10
1.12403034
 20
-3.02081642
  0
VERTEX
  8
0
 10
1.17017118
 20
-3.01018498
  0
VERTEX
  8
0
 10
1.21572833
 20
-2.99839492
  0
VERTEX
  8
0
 10
1.26063385
 20
-2.98534587
  0
VERTEX
  8
0
 10
1.30481981
 20
-2.97093747
  0
VERTEX
  8
0
 10
1.34821828
 20
-2.95506936
  0
VERTEX
  8
0
 10
1.39076133
 20
-2.93764117
  0
VERTEX
  8
0
 10
1.43238103
 20
-2.91855253
  0
VERTEX
  8
0
 10
1.47300944
 20
-2.89770310
  0
VERTEX
  8
0
 10
1.49619587
 20
-2.89934882
  0
VERTEX
  8
0
 10
1.51902995
 20
-2.90020454
  0
VERTEX
  8
0
 10
1.56371822
 20
-2.89970436
  0
VERTEX
  8
0
 10
1.60722863
 20
-2.89651930
  0
VERTEX
  8
0
 10
1.64971554
 20
-2.89096610
  0
VERTEX
  8
0
 10
1.69133332
 20
-2.88336151
  0
VERTEX
  8
0
 10
1.73223635
 20
-2.87402227
  0
VERTEX
  8
0
 10
1.77257899
 20
-2.86326512
  0
VERTEX
  8
0
 10
1.81251562
 20
-2.85140680
  0
VERTEX
  8
0
 10
1.87196804
 20
-2.83331145
  0
VERTEX
  8
0
 10
1.93106230
 20
-2.81439111
  0
VERTEX
  8
0
 10
1.98978951
 20
-2.79464695
  0
VERTEX
  8
0
 10
2.04814082
 20
-2.77408018
  0
VERTEX
  8
0
 10
2.10610735
 20
-2.75269197
  0
VERTEX
  8
0
 10
2.16368023
 20
-2.73048351
  0
VERTEX
  8
0
 10
2.22085061
 20
-2.70745600
  0
VERTEX
  8
0
 10
2.27760960
 20
-2.68361062
  0
VERTEX
  8
0
 10
2.33394835
 20
-2.65894855
  0
VERTEX
  8
0
 10
2.38985799
 20
-2.63347099
  0
VERTEX
  8
0
 10
2.44532964
 20
-2.60717912
  0
VERTEX
  8
0
 10
2.50035444
 20
-2.58007413
  0
VERTEX
  8
0
 10
2.55492352
 20
-2.55215721
  0
VERTEX
  8
0
 10
2.60902802
 20
-2.52342954
  0
VERTEX
  8
0
 10
2.66265907
 20
-2.49389231
  0
VERTEX
  8
0
 10
2.71580780
 20
-2.46354672
  0
VERTEX
  8
0
 10
2.76391427
 20
-2.43130122
  0
VERTEX
  8
0
 10
2.81313608
 20
-2.40063168
  0
VERTEX
  8
0
 10
2.86265696
 20
-2.37049734
  0
VERTEX
  8
0
 10
2.91166065
 20
-2.33985746
  0
VERTEX
  8
0
 10
2.95933088
 20
-2.30767128
  0
VERTEX
  8
0
 10
2.98241087
 20
-2.29067309
  0
VERTEX
  8
0
 10
3.00485139
 20
-2.27289804
  0
VERTEX
  8
0
 10
3.02655041
 20
-2.25421604
  0
VERTEX
  8
0
 10
3.04740590
 20
-2.23449699
  0
VERTEX
  8
0
 10
3.06731583
 20
-2.21361080
  0
VERTEX
  8
0
 10
3.08617817
 20
-2.19142738
  0
VERTEX
  8
0
 10
3.11387416
 20
-2.15012260
  0
VERTEX
  8
0
 10
3.12585462
 20
-2.13024176
  0
VERTEX
  8
0
 10
3.13670534
 20
-2.11026123
  0
VERTEX
  8
0
 10
3.14651280
 20
-2.08972045
  0
VERTEX
  8
0
 10
3.15536347
 20
-2.06815887
  0
VERTEX
  8
0
 10
3.16334381
 20
-2.04511593
  0
VERTEX
  8
0
 10
3.17054031
 20
-2.02013108
  0
VERTEX
  8
0
 10
3.18334542
 20
-1.98391521
  0
VERTEX
  8
0
 10
3.19510452
 20
-1.94684268
  0
VERTEX
  8
0
 10
3.20577694
 20
-1.90900102
  0
VERTEX
  8
0
 10
3.21532201
 20
-1.87047779
  0
VERTEX
  8
0
 10
3.22369905
 20
-1.83136051
  0
VERTEX
  8
0
 10
3.23086740
 20
-1.79173674
  0
VERTEX
  8
0
 10
3.23678638
 20
-1.75169401
  0
VERTEX
  8
0
 10
3.24141532
 20
-1.71131987
  0
VERTEX
  8
0
 10
3.24471355
 20
-1.67070185
  0
VERTEX
  8
0
 10
3.24664038
 20
-1.62992750
  0
VERTEX
  8
0
 10
3.24715517
 20
-1.58908435
  0
VERTEX
  8
0
 10
3.24621722
 20
-1.54825995
  0
VERTEX
  8
0
 10
3.24378586
 20
-1.50754183
  0
VERTEX
  8
0
 10
3.23982044
 20
-1.46701755
  0
VERTEX
  8
0
 10
3.23428026
 20
-1.42677463
  0
VERTEX
  8
0
 10
3.22712467
 20
-1.38690063
  0
SEQEND
  0
POLYLINE
  8
Default_Layer
 66
   1
 39
0.000000
 70
    1
  0
VERTEX
  8
0
 10
-0.29705229
 20
3.02513641
  0
VERTEX
  8
0
 10
-0.23125455
 20
3.05448598
  0
VERTEX
  8
0
 10
-0.16487355
 20
3.08316224
  0
VERTEX
  8
0
 10
-0.09753300
 20
3.11027605
  0
VERTEX
  8
0
 10
-0.06338529
 20
3.12296918
  0
VERTEX
  8
0
 10
-0.02885658
 20
3.13493827
  0
VERTEX
  8
0
 10
0.00610017
 20
3.14607219
  0
VERTEX
  8
0
 10
0.04153200
 20
3.15625978
  0
VERTEX
  8
0
 10
0.07748594
 20
3.16538991
  0
VERTEX
  8
0
 10
0.11400904
 20
3.17335144
  0
VERTEX
  8
0
 10
0.15114833
 20
3.18003322
  0
VERTEX
  8
0
 10
0.18895085
 20
3.18532411
  0
VERTEX
  8
0
 10
0.22746363
 20
3.18911298
  0
VERTEX
  8
0
 10
0.26673372
 20
3.19128867
  0
VERTEX
  8
0
 10
0.28315858
 20
3.18819932
  0
VERTEX
  8
0
 10
0.29934845
 20
3.18420594
  0
VERTEX
  8
0
 10
0.31505856
 20
3.17922819
  0
VERTEX
  8
0
 10
0.33004410
 20
3.17318573
  0
VERTEX
  8
0
 10
0.34406029
 20
3.16599822
  0
VERTEX
  8
0
 10
0.35686234
 20
3.15758531
  0
VERTEX
  8
0
 10
0.36820545
 20
3.14786665
  0
VERTEX
  8
0
 10
0.37784483
 20
3.13676192
  0
VERTEX
  8
0
 10
0.37571140
 20
3.12090277
  0
VERTEX
  8
0
 10
0.37267480
 20
3.10481849
  0
VERTEX
  8
0
 10
0.36966591
 20
3.08871941
  0
VERTEX
  8
0
 10
0.36761564
 20
3.07281582
  0
VERTEX
  8
0
 10
0.36745486
 20
3.05731805
  0
VERTEX
  8
0
 10
0.36837395
 20
3.04978707
  0
VERTEX
  8
0
 10
0.37011449
 20
3.04243641
  0
VERTEX
  8
0
 10
0.37279285
 20
3.03529235
  0
VERTEX
  8
0
 10
0.37652540
 20
3.02838120
  0
VERTEX
  8
0
 10
0.38142850
 20
3.02172923
  0
VERTEX
  8
0
 10
0.38761850
 20
3.01536274
  0
VERTEX
  8
0
 10
0.38914526
 20
3.01159239
  0
VERTEX
  8
0
 10
0.39173530
 20
3.00841514
  0
VERTEX
  8
0
 10
0.39920306
 20
3.00347590
  0
VERTEX
  8
0
 10
0.40821748
 20
2.99981686
  0
VERTEX
  8
0
 10
0.41697424
 20
2.99670987
  0
VERTEX
  8
0
 10
0.42366904
 20
2.99342677
  0
VERTEX
  8
0
 10
0.42567936
 20
2.99149164
  0
VERTEX
  8
0
 10
0.42649758
 20
2.98923941
  0
VERTEX
  8
0
 10
0.42589816
 20
2.98657909
  0
VERTEX
  8
0
 10
0.42365556
 20
2.98341964
  0
VERTEX
  8
0
 10
0.41954424
 20
2.97967004
  0
VERTEX
  8
0
 10
0.41333866
 20
2.97523929
  0
VERTEX
  8
0
 10
0.39971022
 20
2.98572230
  0
VERTEX
  8
0
 10
0.38552784
 20
2.99529533
  0
VERTEX
  8
0
 10
0.37092105
 20
3.00407322
  0
VERTEX
  8
0
 10
0.35601939
 20
3.01217077
  0
VERTEX
  8
0
 10
0.32584959
 20
3.02678417
  0
VERTEX
  8
0
 10
0.29605471
 20
3.04005410
  0
VERTEX
  8
0
 10
0.28561463
 20
3.03990259
  0
VERTEX
  8
0
 10
0.27610431
 20
3.03829216
  0
VERTEX
  8
0
 10
0.25798887
 20
3.03388126
  0
VERTEX
  8
0
 10
0.25798887
 20
3.10126809
  0
VERTEX
  8
0
 10
0.27295415
 20
3.10663022
  0
VERTEX
  8
0
 10
0.28569691
 20
3.11375001
  0
VERTEX
  8
0
 10
0.29770294
 20
3.12247348
  0
VERTEX
  8
0
 10
0.31045800
 20
3.13264669
  0
VERTEX
  8
0
 10
0.31292470
 20
3.13752454
  0
VERTEX
  8
0
 10
0.31435763
 20
3.14200571
  0
VERTEX
  8
0
 10
0.31484447
 20
3.14609921
  0
VERTEX
  8
0
 10
0.31447286
 20
3.14981407
  0
VERTEX
  8
0
 10
0.31333048
 20
3.15315930
  0
VERTEX
  8
0
 10
0.31150498
 20
3.15614391
  0
VERTEX
  8
0
 10
0.30615528
 20
3.16106739
  0
VERTEX
  8
0
 10
0.29912506
 20
3.16465665
  0
VERTEX
  8
0
 10
0.29111561
 20
3.16698383
  0
VERTEX
  8
0
 10
0.28282821
 20
3.16812107
  0
VERTEX
  8
0
 10
0.27496418
 20
3.16814052
  0
VERTEX
  8
0
 10
0.24864741
 20
3.16661327
  0
VERTEX
  8
0
 10
0.22277142
 20
3.16303600
  0
VERTEX
  8
0
 10
0.19732403
 20
3.15762525
  0
VERTEX
  8
0
 10
0.17229305
 20
3.15059757
  0
VERTEX
  8
0
 10
0.14766628
 20
3.14216947
  0
VERTEX
  8
0
 10
0.12343154
 20
3.13255751
  0
VERTEX
  8
0
 10
0.09957664
 20
3.12197823
  0
VERTEX
  8
0
 10
0.07608939
 20
3.11064815
  0
VERTEX
  8
0
 10
0.03016909
 20
3.08660177
  0
VERTEX
  8
0
 10
-0.01442688
 20
3.06215068
  0
VERTEX
  8
0
 10
-0.05779601
 20
3.03902718
  0
VERTEX
  8
0
 10
-0.07905099
 20
3.02850462
  0
VERTEX
  8
0
 10
-0.10003582
 20
3.01896357
  0
VERTEX
  8
0
 10
-0.11414034
 20
3.01413638
  0
VERTEX
  8
0
 10
-0.12847933
 20
3.01007619
  0
VERTEX
  8
0
 10
-0.15776736
 20
3.00402246
  0
VERTEX
  8
0
 10
-0.18771324
 20
3.00033368
  0
VERTEX
  8
0
 10
-0.21813029
 20
2.99854114
  0
VERTEX
  8
0
 10
-0.24883183
 20
2.99817615
  0
VERTEX
  8
0
 10
-0.27963117
 20
2.99877001
  0
VERTEX
  8
0
 10
-0.34077657
 20
3.00095945
  0
VERTEX
  8
0
 10
-0.33764728
 20
3.00673430
  0
VERTEX
  8
0
 10
-0.33307049
 20
3.01072642
  0
VERTEX
  8
0
 10
-0.32743621
 20
3.01343392
  0
VERTEX
  8
0
 10
-0.32113443
 20
3.01535493
  0
VERTEX
  8
0
 10
-0.30808836
 20
3.01882995
  0
VERTEX
  8
0
 10
-0.30212408
 20
3.02138019
  0
VERTEX
  8
0
 10
-0.29705229
 20
3.02513641
  0
SEQEND
  0
POLYLINE
  8
Default_Layer
 66
   1
 39
0.000000
 70
    1
  0
VERTEX
  8
0
 10
0.22249504
 20
3.03388126
  0
VERTEX
  8
0
 10
0.21852681
 20
3.02421876
  0
VERTEX
  8
0
 10
0.21352430
 20
3.01619872
  0
VERTEX
  8
0
 10
0.20760204
 20
3.00962950
  0
VERTEX
  8
0
 10
0.20087461
 20
3.00431949
  0
VERTEX
  8
0
 10
0.19345654
 20
3.00007705
  0
VERTEX
  8
0
 10
0.18546239
 20
2.99671058
  0
VERTEX
  8
0
 10
0.16820407
 20
2.99183902
  0
VERTEX
  8
0
 10
0.15001607
 20
2.98817181
  0
VERTEX
  8
0
 10
0.13181482
 20
2.98417597
  0
VERTEX
  8
0
 10
0.12299560
 20
2.98157575
  0
VERTEX
  8
0
 10
0.11451674
 20
2.97831851
  0
VERTEX
  8
0
 10
0.10649277
 20
2.97421262
  0
VERTEX
  8
0
 10
0.09903825
 20
2.96906645
  0
VERTEX
  8
0
 10
0.09604080
 20
2.96635542
  0
VERTEX
  8
0
 10
0.09257441
 20
2.96545175
  0
VERTEX
  8
0
 10
0.09028233
 20
2.96635542
  0
VERTEX
  8
0
 10
0.09009017
 20
2.96748502
  0
VERTEX
  8
0
 10
0.09080780
 20
2.96906645
  0
VERTEX
  8
0
 10
0.09610621
 20
2.97952100
  0
VERTEX
  8
0
 10
0.10031508
 20
2.99059249
  0
VERTEX
  8
0
 10
0.10358969
 20
3.00209565
  0
VERTEX
  8
0
 10
0.10608533
 20
3.01384518
  0
VERTEX
  8
0
 10
0.10936085
 20
3.03734225
  0
VERTEX
  8
0
 10
0.11138393
 20
3.05960143
  0
VERTEX
  8
0
 10
0.12358709
 20
3.06675463
  0
VERTEX
  8
0
 10
0.13630604
 20
3.07278415
  0
VERTEX
  8
0
 10
0.14948695
 20
3.07781784
  0
VERTEX
  8
0
 10
0.16307601
 20
3.08198353
  0
VERTEX
  8
0
 10
0.19126332
 20
3.08822231
  0
VERTEX
  8
0
 10
0.22043743
 20
3.09252324
  0
VERTEX
  8
0
 10
0.22273322
 20
3.07836711
  0
VERTEX
  8
0
 10
0.22325501
 20
3.06364507
  0
VERTEX
  8
0
 10
0.22249504
 20
3.03388126
  0
SEQEND
  0
POLYLINE
  8
Default_Layer
 66
   1
 39
0.000000
 70
    1
  0
VERTEX
  8
0
 10
0.07331808
 20
2.96906645
  0
VERTEX
  8
0
 10
0.05078787
 20
2.97506586
  0
VERTEX
  8
0
 10
0.02888212
 20
2.98313837
  0
VERTEX
  8
0
 10
-0.01207286
 20
3.00095945
  0
VERTEX
  8
0
 10
0.00267126
 20
3.01011929
  0
VERTEX
  8
0
 10
0.01773548
 20
3.01874689
  0
VERTEX
  8
0
 10
0.03345623
 20
3.02581102
  0
VERTEX
  8
0
 10
0.04166793
 20
3.02843452
  0
VERTEX
  8
0
 10
0.05016994
 20
3.03028044
  0
VERTEX
  8
0
 10
0.05347435
 20
3.02730648
  0
VERTEX
  8
0
 10
0.05607215
 20
3.02396066
  0
VERTEX
  8
0
 10
0.05954124
 20
3.01637480
  0
VERTEX
  8
0
 10
0.06136396
 20
3.00796563
  0
VERTEX
  8
0
 10
0.06232705
 20
2.99917589
  0
VERTEX
  8
0
 10
0.06321727
 20
2.99044835
  0
VERTEX
  8
0
 10
0.06482135
 20
2.98222576
  0
VERTEX
  8
0
 10
0.06792604
 20
2.97495087
  0
VERTEX
  8
0
 10
0.07028697
 20
2.97180718
  0
VERTEX
  8
0
 10
0.07331808
 20
2.96906645
  0
SEQEND
  0
POLYLINE
  8
Default_Layer
 66
   1
 39
0.000000
 70
    1
  0
VERTEX
  8
0
 10
-0.82740208
 20
3.08377838
  0
VERTEX
  8
0
 10
-0.80475507
 20
3.08611888
  0
VERTEX
  8
0
 10
-0.78195038
 20
3.08678613
  0
VERTEX
  8
0
 10
-0.75916059
 20
3.08607114
  0
VERTEX
  8
0
 10
-0.73655831
 20
3.08426489
  0
VERTEX
  8
0
 10
-0.69260664
 20
3.07854257
  0
VERTEX
  8
0
 10
-0.65147615
 20
3.07194711
  0
VERTEX
  8
0
 10
-0.62153263
 20
3.06546250
  0
VERTEX
  8
0
 10
-0.59226390
 20
3.05740408
  0
VERTEX
  8
0
 10
-0.56352256
 20
3.04812565
  0
VERTEX
  8
0
 10
-0.53516118
 20
3.03798097
  0
VERTEX
  8
0
 10
-0.47898857
 20
3.01650801
  0
VERTEX
  8
0
 10
-0.42256669
 20
2.99581542
  0
VERTEX
  8
0
 10
-0.42287570
 20
2.98923054
  0
VERTEX
  8
0
 10
-0.42414687
 20
2.98314554
  0
VERTEX
  8
0
 10
-0.42628553
 20
2.97751927
  0
VERTEX
  8
0
 10
-0.42919701
 20
2.97231059
  0
VERTEX
  8
0
 10
-0.43695972
 20
2.96298137
  0
VERTEX
  8
0
 10
-0.44667762
 20
2.95482870
  0
VERTEX
  8
0
 10
-0.45759333
 20
2.94752340
  0
VERTEX
  8
0
 10
-0.46894947
 20
2.94073627
  0
VERTEX
  8
0
 10
-0.47998866
 20
2.93413812
  0
VERTEX
  8
0
 10
-0.48995352
 20
2.92739978
  0
VERTEX
  8
0
 10
-0.49595711
 20
2.92388177
  0
VERTEX
  8
0
 10
-0.50162973
 20
2.92187933
  0
VERTEX
  8
0
 10
-0.50701222
 20
2.92122058
  0
VERTEX
  8
0
 10
-0.51214545
 20
2.92173362
  0
VERTEX
  8
0
 10
-0.51707026
 20
2.92324655
  0
VERTEX
  8
0
 10
-0.52182750
 20
2.92558750
  0
VERTEX
  8
0
 10
-0.53100272
 20
2.93206583
  0
VERTEX
  8
0
 10
-0.54913991
 20
2.94739527
  0
VERTEX
  8
0
 10
-0.55875554
 20
2.95349608
  0
VERTEX
  8
0
 10
-0.56384310
 20
2.95555389
  0
VERTEX
  8
0
 10
-0.56917163
 20
2.95672077
  0
VERTEX
  8
0
 10
-0.57764828
 20
2.97319125
  0
VERTEX
  8
0
 10
-0.58778387
 20
2.98780047
  0
VERTEX
  8
0
 10
-0.59943725
 20
3.00066685
  0
VERTEX
  8
0
 10
-0.61246728
 20
3.01190878
  0
VERTEX
  8
0
 10
-0.62673282
 20
3.02164466
  0
VERTEX
  8
0
 10
-0.64209272
 20
3.02999289
  0
VERTEX
  8
0
 10
-0.65840584
 20
3.03707187
  0
VERTEX
  8
0
 10
-0.67553103
 20
3.04299999
  0
VERTEX
  8
0
 10
-0.69332716
 20
3.04789567
  0
VERTEX
  8
0
 10
-0.71165307
 20
3.05187729
  0
VERTEX
  8
0
 10
-0.73036763
 20
3.05506325
  0
VERTEX
  8
0
 10
-0.74932969
 20
3.05757196
  0
VERTEX
  8
0
 10
-0.78743174
 20
3.06103122
  0
VERTEX
  8
0
 10
-0.82483006
 20
3.06320225
  0
VERTEX
  8
0
 10
-0.82869926
 20
3.06110236
  0
VERTEX
  8
0
 10
-0.83219827
 20
3.05791455
  0
VERTEX
  8
0
 10
-0.83889319
 20
3.05032818
  0
VERTEX
  8
0
 10
-0.84249285
 20
3.04695614
  0
VERTEX
  8
0
 10
-0.84652980
 20
3.04454921
  0
VERTEX
  8
0
 10
-0.85120592
 20
3.04362066
  0
VERTEX
  8
0
 10
-0.85672307
 20
3.04468373
  0
VERTEX
  8
0
 10
-0.85722691
 20
3.05062923
  0
VERTEX
  8
0
 10
-0.85550788
 20
3.05638732
  0
VERTEX
  8
0
 10
-0.85208185
 20
3.06190046
  0
VERTEX
  8
0
 10
-0.84746470
 20
3.06711113
  0
VERTEX
  8
0
 10
-0.83672045
 20
3.07639491
  0
VERTEX
  8
0
 10
-0.82740208
 20
3.08377838
  0
SEQEND
  0
POLYLINE
  8
Default_Layer
 66
   1
 39
0.000000
 70
    1
  0
VERTEX
  8
0
 10
-0.77493294
 20
2.92739978
  0
VERTEX
  8
0
 10
-0.77399276
 20
2.92345994
  0
VERTEX
  8
0
 10
-0.77231351
 20
2.92063008
  0
VERTEX
  8
0
 10
-0.76997649
 20
2.91877106
  0
VERTEX
  8
0
 10
-0.76706301
 20
2.91774378
  0
VERTEX
  8
0
 10
-0.75983184
 20
2.91762786
  0
VERTEX
  8
0
 10
-0.75127039
 20
2.91916933
  0
VERTEX
  8
0
 10
-0.74642606
 20
2.92031400
  0
VERTEX
  8
0
 10
-0.74270476
 20
2.92237146
  0
VERTEX
  8
0
 10
-0.73994548
 20
2.92521811
  0
VERTEX
  8
0
 10
-0.73798717
 20
2.92873039
  0
VERTEX
  8
0
 10
-0.73582936
 20
2.93725745
  0
VERTEX
  8
0
 10
-0.73494309
 20
2.94696397
  0
VERTEX
  8
0
 10
-0.73404012
 20
2.95686128
  0
VERTEX
  8
0
 10
-0.73183221
 20
2.96596072
  0
VERTEX
  8
0
 10
-0.72983633
 20
2.96990228
  0
VERTEX
  8
0
 10
-0.72703111
 20
2.97327362
  0
VERTEX
  8
0
 10
-0.72325554
 20
2.97595115
  0
VERTEX
  8
0
 10
-0.71834858
 20
2.97781130
  0
VERTEX
  8
0
 10
-0.70639740
 20
2.97413751
  0
VERTEX
  8
0
 10
-0.69441899
 20
2.96965988
  0
VERTEX
  8
0
 10
-0.68262781
 20
2.96435902
  0
VERTEX
  8
0
 10
-0.67123833
 20
2.95821554
  0
VERTEX
  8
0
 10
-0.66046499
 20
2.95121007
  0
VERTEX
  8
0
 10
-0.65052226
 20
2.94332320
  0
VERTEX
  8
0
 10
-0.64162459
 20
2.93453557
  0
VERTEX
  8
0
 10
-0.63398644
 20
2.92482776
  0
VERTEX
  8
0
 10
-0.65548205
 20
2.91634646
  0
VERTEX
  8
0
 10
-0.67750644
 20
2.90873560
  0
VERTEX
  8
0
 10
-0.72210974
 20
2.89419698
  0
VERTEX
  8
0
 10
-0.74417272
 20
2.88630511
  0
VERTEX
  8
0
 10
-0.76573266
 20
2.87735545
  0
VERTEX
  8
0
 10
-0.78653158
 20
2.86686594
  0
VERTEX
  8
0
 10
-0.80631154
 20
2.85435451
  0
VERTEX
  8
0
 10
-0.81493677
 20
2.87285809
  0
VERTEX
  8
0
 10
-0.82133039
 20
2.89320756
  0
VERTEX
  8
0
 10
-0.82533930
 20
2.91471174
  0
VERTEX
  8
0
 10
-0.82681036
 20
2.93667948
  0
VERTEX
  8
0
 10
-0.82559047
 20
2.95841962
  0
VERTEX
  8
0
 10
-0.82392358
 20
2.96898834
  0
VERTEX
  8
0
 10
-0.82152652
 20
2.97924098
  0
VERTEX
  8
0
 10
-0.81838017
 20
2.98909113
  0
VERTEX
  8
0
 10
-0.81446538
 20
2.99845241
  0
VERTEX
  8
0
 10
-0.80976301
 20
3.00723841
  0
VERTEX
  8
0
 10
-0.80425393
 20
3.01536274
  0
VERTEX
  8
0
 10
-0.79154690
 20
3.02361193
  0
VERTEX
  8
0
 10
-0.78171845
 20
3.02837367
  0
VERTEX
  8
0
 10
-0.77446245
 20
3.03000252
  0
VERTEX
  8
0
 10
-0.77170345
 20
3.02975290
  0
VERTEX
  8
0
 10
-0.76947275
 20
3.02885301
  0
VERTEX
  8
0
 10
-0.76644322
 20
3.02527969
  0
VERTEX
  8
0
 10
-0.76506770
 20
3.01963709
  0
VERTEX
  8
0
 10
-0.76504007
 20
3.01227975
  0
VERTEX
  8
0
 10
-0.76605418
 20
3.00356222
  0
VERTEX
  8
0
 10
-0.76998307
 20
2.98346474
  0
VERTEX
  8
0
 10
-0.77440524
 20
2.96218095
  0
VERTEX
  8
0
 10
-0.77603596
 20
2.95198055
  0
VERTEX
  8
0
 10
-0.77687157
 20
2.94254719
  0
VERTEX
  8
0
 10
-0.77660595
 20
2.93423542
  0
VERTEX
  8
0
 10
-0.77493294
 20
2.92739978
  0
SEQEND
  0
POLYLINE
  8
Default_Layer
 66
   1
 39
0.000000
 70
    1
  0
VERTEX
  8
0
 10
-1.29036504
 20
2.63418990
  0
VERTEX
  8
0
 10
-1.28012322
 20
2.65933022
  0
VERTEX
  8
0
 10
-1.26912814
 20
2.68318143
  0
VERTEX
  8
0
 10
-1.25686799
 20
2.70536864
  0
VERTEX
  8
0
 10
-1.25010358
 20
2.71572109
  0
VERTEX
  8
0
 10
-1.24283097
 20
2.72551694
  0
VERTEX
  8
0
 10
-1.23498619
 20
2.73470933
  0
VERTEX
  8
0
 10
-1.22650525
 20
2.74325141
  0
VERTEX
  8
0
 10
-1.21732419
 20
2.75109630
  0
VERTEX
  8
0
 10
-1.20737903
 20
2.75819715
  0
VERTEX
  8
0
 10
-1.19660578
 20
2.76450709
  0
VERTEX
  8
0
 10
-1.18494048
 20
2.76997926
  0
VERTEX
  8
0
 10
-1.17231914
 20
2.77456679
  0
VERTEX
  8
0
 10
-1.15867780
 20
2.77822283
  0
VERTEX
  8
0
 10
-1.10446273
 20
2.77369316
  0
VERTEX
  8
0
 10
-1.05099065
 20
2.76660262
  0
VERTEX
  8
0
 10
-0.99818541
 20
2.75727122
  0
VERTEX
  8
0
 10
-0.94597087
 20
2.74601900
  0
VERTEX
  8
0
 10
-0.89427087
 20
2.73316597
  0
VERTEX
  8
0
 10
-0.84300928
 20
2.71903215
  0
VERTEX
  8
0
 10
-0.79210995
 20
2.70393757
  0
VERTEX
  8
0
 10
-0.74149673
 20
2.68820225
  0
VERTEX
  8
0
 10
-0.74353917
 20
2.68219927
  0
VERTEX
  8
0
 10
-0.74478965
 20
2.67484218
  0
VERTEX
  8
0
 10
-0.74504925
 20
2.66670110
  0
VERTEX
  8
0
 10
-0.74411903
 20
2.65834614
  0
VERTEX
  8
0
 10
-0.74180007
 20
2.65034742
  0
VERTEX
  8
0
 10
-0.73789343
 20
2.64327506
  0
VERTEX
  8
0
 10
-0.73220019
 20
2.63769918
  0
VERTEX
  8
0
 10
-0.72862143
 20
2.63565059
  0
VERTEX
  8
0
 10
-0.72452142
 20
2.63418990
  0
VERTEX
  8
0
 10
-0.71490203
 20
2.63503383
  0
VERTEX
  8
0
 10
-0.70569128
 20
2.63660502
  0
VERTEX
  8
0
 10
-0.68830417
 20
2.64162826
  0
VERTEX
  8
0
 10
-0.67197704
 20
2.64865772
  0
VERTEX
  8
0
 10
-0.65632684
 20
2.65709151
  0
VERTEX
  8
0
 10
-0.62552498
 20
2.67576445
  0
VERTEX
  8
0
 10
-0.60960722
 20
2.68479980
  0
VERTEX
  8
0
 10
-0.59283418
 20
2.69283188
  0
VERTEX
  8
0
 10
-0.58923368
 20
2.69878449
  0
VERTEX
  8
0
 10
-0.58833612
 20
2.70383020
  0
VERTEX
  8
0
 10
-0.58960752
 20
2.70801302
  0
VERTEX
  8
0
 10
-0.59251389
 20
2.71137692
  0
VERTEX
  8
0
 10
-0.59652125
 20
2.71396591
  0
VERTEX
  8
0
 10
-0.60109562
 20
2.71582396
  0
VERTEX
  8
0
 10
-0.60980949
 20
2.71752324
  0
VERTEX
  8
0
 10
-0.63953140
 20
2.71945721
  0
VERTEX
  8
0
 10
-0.66904368
 20
2.72271116
  0
VERTEX
  8
0
 10
-0.69812748
 20
2.72732250
  0
VERTEX
  8
0
 10
-0.72656395
 20
2.73332866
  0
VERTEX
  8
0
 10
-0.75413425
 20
2.74076707
  0
VERTEX
  8
0
 10
-0.78061954
 20
2.74967515
  0
VERTEX
  8
0
 10
-0.80580097
 20
2.76009031
  0
VERTEX
  8
0
 10
-0.82945969
 20
2.77204999
  0
VERTEX
  8
0
 10
-0.83040823
 20
2.77560187
  0
VERTEX
  8
0
 10
-0.83047767
 20
2.77843995
  0
VERTEX
  8
0
 10
-0.82976866
 20
2.78065794
  0
VERTEX
  8
0
 10
-0.82838184
 20
2.78234959
  0
VERTEX
  8
0
 10
-0.82397742
 20
2.78452876
  0
VERTEX
  8
0
 10
-0.81806963
 20
2.78572733
  0
VERTEX
  8
0
 10
-0.81146368
 20
2.78669513
  0
VERTEX
  8
0
 10
-0.80496479
 20
2.78818203
  0
VERTEX
  8
0
 10
-0.79937819
 20
2.79093788
  0
VERTEX
  8
0
 10
-0.79717862
 20
2.79302599
  0
VERTEX
  8
0
 10
-0.79550908
 20
2.79571254
  0
VERTEX
  8
0
 10
-0.76849005
 20
2.80814977
  0
VERTEX
  8
0
 10
-0.74142767
 20
2.82252450
  0
VERTEX
  8
0
 10
-0.71416174
 20
2.83720271
  0
VERTEX
  8
0
 10
-0.68653206
 20
2.85055039
  0
VERTEX
  8
0
 10
-0.67253074
 20
2.85621465
  0
VERTEX
  8
0
 10
-0.65837841
 20
2.86093351
  0
VERTEX
  8
0
 10
-0.64405503
 20
2.86450273
  0
VERTEX
  8
0
 10
-0.62954059
 20
2.86671806
  0
VERTEX
  8
0
 10
-0.61481505
 20
2.86737523
  0
VERTEX
  8
0
 10
-0.59985839
 20
2.86627001
  0
VERTEX
  8
0
 10
-0.58465060
 20
2.86319812
  0
VERTEX
  8
0
 10
-0.56917163
 20
2.85795534
  0
VERTEX
  8
0
 10
-0.57590502
 20
2.85024442
  0
VERTEX
  8
0
 10
-0.58206180
 20
2.84186705
  0
VERTEX
  8
0
 10
-0.58742764
 20
2.83283420
  0
VERTEX
  8
0
 10
-0.59178823
 20
2.82315689
  0
VERTEX
  8
0
 10
-0.59492925
 20
2.81284609
  0
VERTEX
  8
0
 10
-0.59663640
 20
2.80191282
  0
VERTEX
  8
0
 10
-0.59669535
 20
2.79036807
  0
VERTEX
  8
0
 10
-0.59489179
 20
2.77822283
  0
VERTEX
  8
0
 10
-0.59100510
 20
2.77183508
  0
VERTEX
  8
0
 10
-0.58829804
 20
2.76942776
  0
VERTEX
  8
0
 10
-0.58523577
 20
2.76770266
  0
VERTEX
  8
0
 10
-0.58193375
 20
2.76677818
  0
VERTEX
  8
0
 10
-0.57850742
 20
2.76677271
  0
VERTEX
  8
0
 10
-0.57507223
 20
2.76780464
  0
VERTEX
  8
0
 10
-0.57174364
 20
2.76999237
  0
VERTEX
  8
0
 10
-0.52484074
 20
2.80353972
  0
VERTEX
  8
0
 10
-0.47733024
 20
2.83517702
  0
VERTEX
  8
0
 10
-0.45323091
 20
2.85010786
  0
VERTEX
  8
0
 10
-0.42884019
 20
2.86435533
  0
VERTEX
  8
0
 10
-0.40411159
 20
2.87785081
  0
VERTEX
  8
0
 10
-0.37899861
 20
2.89052569
  0
VERTEX
  8
0
 10
-0.35345476
 20
2.90231135
  0
VERTEX
  8
0
 10
-0.32743354
 20
2.91313917
  0
VERTEX
  8
0
 10
-0.30088846
 20
2.92294052
  0
VERTEX
  8
0
 10
-0.27377303
 20
2.93164680
  0
VERTEX
  8
0
 10
-0.24604074
 20
2.93918938
  0
VERTEX
  8
0
 10
-0.21764510
 20
2.94549965
  0
VERTEX
  8
0
 10
-0.18853962
 20
2.95050898
  0
VERTEX
  8
0
 10
-0.15867780
 20
2.95414875
  0
VERTEX
  8
0
 10
-0.14062457
 20
2.95535639
  0
VERTEX
  8
0
 10
-0.12305438
 20
2.95526872
  0
VERTEX
  8
0
 10
-0.10587970
 20
2.95410369
  0
VERTEX
  8
0
 10
-0.08901298
 20
2.95207920
  0
VERTEX
  8
0
 10
-0.05585338
 20
2.94632364
  0
VERTEX
  8
0
 10
-0.02287533
 20
2.93974546
  0
VERTEX
  8
0
 10
-0.04387378
 20
2.93686855
  0
VERTEX
  8
0
 10
-0.06464471
 20
2.93290001
  0
VERTEX
  8
0
 10
-0.08519358
 20
2.92795112
  0
VERTEX
  8
0
 10
-0.10552585
 20
2.92213316
  0
VERTEX
  8
0
 10
-0.14556240
 20
2.90833511
  0
VERTEX
  8
0
 10
-0.18479800
 20
2.89239605
  0
VERTEX
  8
0
 10
-0.22327628
 20
2.87520617
  0
VERTEX
  8
0
 10
-0.26104091
 20
2.85765566
  0
VERTEX
  8
0
 10
-0.29813550
 20
2.84063471
  0
VERTEX
  8
0
 10
-0.33460373
 20
2.82503353
  0
VERTEX
  8
0
 10
-0.35783564
 20
2.81423705
  0
VERTEX
  8
0
 10
-0.38160032
 20
2.80481811
  0
VERTEX
  8
0
 10
-0.40586743
 20
2.79664741
  0
VERTEX
  8
0
 10
-0.43060664
 20
2.78959567
  0
VERTEX
  8
0
 10
-0.45578761
 20
2.78353358
  0
VERTEX
  8
0
 10
-0.48138002
 20
2.77833186
  0
VERTEX
  8
0
 10
-0.53367780
 20
2.76999237
  0
VERTEX
  8
0
 10
-0.53561348
 20
2.76094995
  0
VERTEX
  8
0
 10
-0.53512084
 20
2.75226590
  0
VERTEX
  8
0
 10
-0.53265986
 20
2.74394133
  0
VERTEX
  8
0
 10
-0.52869051
 20
2.73597736
  0
VERTEX
  8
0
 10
-0.52367275
 20
2.72837509
  0
VERTEX
  8
0
 10
-0.51806657
 20
2.72113562
  0
VERTEX
  8
0
 10
-0.50692883
 20
2.70774958
  0
VERTEX
  8
0
 10
-0.47818716
 20
2.71456339
  0
VERTEX
  8
0
 10
-0.45006789
 20
2.72218436
  0
VERTEX
  8
0
 10
-0.39533200
 20
2.73938767
  0
VERTEX
  8
0
 10
-0.34199209
 20
2.75843920
  0
VERTEX
  8
0
 10
-0.28931909
 20
2.77841869
  0
VERTEX
  8
0
 10
-0.23658394
 20
2.79840584
  0
VERTEX
  8
0
 10
-0.18305756
 20
2.81748038
  0
VERTEX
  8
0
 10
-0.12801088
 20
2.83472202
  0
VERTEX
  8
0
 10
-0.09968960
 20
2.84236791
  0
VERTEX
  8
0
 10
-0.07071484
 20
2.84921048
  0
VERTEX
  8
0
 10
-0.03821923
 20
2.85160628
  0
VERTEX
  8
0
 10
-0.02087196
 20
2.85204950
  0
VERTEX
  8
0
 10
-0.00330412
 20
2.85159255
  0
VERTEX
  8
0
 10
0.01409999
 20
2.84993764
  0
VERTEX
  8
0
 10
0.03095605
 20
2.84678697
  0
VERTEX
  8
0
 10
0.04687976
 20
2.84184275
  0
VERTEX
  8
0
 10
0.06148681
 20
2.83480719
  0
VERTEX
  8
0
 10
0.06799586
 20
2.82861088
  0
VERTEX
  8
0
 10
0.07268436
 20
2.82084125
  0
VERTEX
  8
0
 10
0.07587586
 20
2.81181133
  0
VERTEX
  8
0
 10
0.07789392
 20
2.80183412
  0
VERTEX
  8
0
 10
0.07970399
 20
2.78028983
  0
VERTEX
  8
0
 10
0.08070306
 20
2.75871244
  0
VERTEX
  8
0
 10
0.08170737
 20
2.74869384
  0
VERTEX
  8
0
 10
0.08347962
 20
2.73960599
  0
VERTEX
  8
0
 10
0.08634337
 20
2.73176189
  0
VERTEX
  8
0
 10
0.09062218
 20
2.72547455
  0
VERTEX
  8
0
 10
0.09663960
 20
2.72105697
  0
VERTEX
  8
0
 10
0.10471922
 20
2.71882216
  0
VERTEX
  8
0
 10
0.11518457
 20
2.71908312
  0
VERTEX
  8
0
 10
0.12835924
 20
2.72215287
  0
VERTEX
  8
0
 10
0.13576594
 20
2.72773434
  0
VERTEX
  8
0
 10
0.14194072
 20
2.73388981
  0
VERTEX
  8
0
 10
0.14697360
 20
2.74056368
  0
VERTEX
  8
0
 10
0.15095460
 20
2.74770038
  0
VERTEX
  8
0
 10
0.15397376
 20
2.75524433
  0
VERTEX
  8
0
 10
0.15612110
 20
2.76313996
  0
VERTEX
  8
0
 10
0.15816041
 20
2.77976389
  0
VERTEX
  8
0
 10
0.15779273
 20
2.79712755
  0
VERTEX
  8
0
 10
0.15573826
 20
2.81478629
  0
VERTEX
  8
0
 10
0.14944977
 20
2.84921048
  0
VERTEX
  8
0
 10
0.14539341
 20
2.86430459
  0
VERTEX
  8
0
 10
0.14048289
 20
2.88075409
  0
VERTEX
  8
0
 10
0.13426878
 20
2.89673528
  0
VERTEX
  8
0
 10
0.13053242
 20
2.90398036
  0
VERTEX
  8
0
 10
0.12630162
 20
2.91042447
  0
VERTEX
  8
0
 10
0.13890543
 20
2.91402350
  0
VERTEX
  8
0
 10
0.15117012
 20
2.91873161
  0
VERTEX
  8
0
 10
0.16315271
 20
2.92433969
  0
VERTEX
  8
0
 10
0.17491023
 20
2.93063858
  0
VERTEX
  8
0
 10
0.19797817
 20
2.94447228
  0
VERTEX
  8
0
 10
0.22083015
 20
2.95855965
  0
VERTEX
  8
0
 10
0.24392240
 20
2.97122760
  0
VERTEX
  8
0
 10
0.25570119
 20
2.97650646
  0
VERTEX
  8
0
 10
0.26771112
 20
2.98080305
  0
VERTEX
  8
0
 10
0.28000923
 20
2.98390825
  0
VERTEX
  8
0
 10
0.29265254
 20
2.98561293
  0
VERTEX
  8
0
 10
0.30569807
 20
2.98570793
  0
VERTEX
  8
0
 10
0.31920286
 20
2.98398414
  0
VERTEX
  8
0
 10
0.33125873
 20
2.97675622
  0
VERTEX
  8
0
 10
0.34417366
 20
2.97045434
  0
VERTEX
  8
0
 10
0.37051380
 20
2.95827724
  0
VERTEX
  8
0
 10
0.38290554
 20
2.95122628
  0
VERTEX
  8
0
 10
0.39408942
 20
2.94274988
  0
VERTEX
  8
0
 10
0.39906693
 20
2.93779344
  0
VERTEX
  8
0
 10
0.40354870
 20
2.93226019
  0
VERTEX
  8
0
 10
0.40747013
 20
2.92607665
  0
VERTEX
  8
0
 10
0.41076664
 20
2.91916933
  0
VERTEX
  8
0
 10
0.40138533
 20
2.90441038
  0
VERTEX
  8
0
 10
0.39005904
 20
2.89045660
  0
VERTEX
  8
0
 10
0.37737353
 20
2.87717666
  0
VERTEX
  8
0
 10
0.36391455
 20
2.86443926
  0
VERTEX
  8
0
 10
0.33701915
 20
2.84006680
  0
VERTEX
  8
0
 10
0.32475423
 20
2.82816910
  0
VERTEX
  8
0
 10
0.31405883
 20
2.81628867
  0
VERTEX
  8
0
 10
0.31915652
 20
2.81323213
  0
VERTEX
  8
0
 10
0.32427441
 20
2.81131573
  0
VERTEX
  8
0
 10
0.32940949
 20
2.81041923
  0
VERTEX
  8
0
 10
0.33455874
 20
2.81042239
  0
VERTEX
  8
0
 10
0.34488781
 20
2.81264670
  0
VERTEX
  8
0
 10
0.35523757
 20
2.81702672
  0
VERTEX
  8
0
 10
0.37590316
 20
2.82840605
  0
VERTEX
  8
0
 10
0.38617094
 20
2.83348148
  0
VERTEX
  8
0
 10
0.39636335
 20
2.83686480
  0
VERTEX
  8
0
 10
0.43007697
 20
2.85757815
  0
VERTEX
  8
0
 10
0.46340220
 20
2.87703151
  0
VERTEX
  8
0
 10
0.49616290
 20
2.89604654
  0
VERTEX
  8
0
 10
0.52818298
 20
2.91544492
  0
VERTEX
  8
0
 10
0.55928630
 20
2.93604830
  0
VERTEX
  8
0
 10
0.58929674
 20
2.95867836
  0
VERTEX
  8
0
 10
0.60383710
 20
2.97101016
  0
VERTEX
  8
0
 10
0.61803820
 20
2.98415675
  0
VERTEX
  8
0
 10
0.63187802
 20
2.99822083
  0
VERTEX
  8
0
 10
0.64533455
 20
3.01330513
  0
VERTEX
  8
0
 10
0.66290534
 20
3.02738088
  0
VERTEX
  8
0
 10
0.68228931
 20
3.04019903
  0
VERTEX
  8
0
 10
0.70322047
 20
3.05137880
  0
VERTEX
  8
0
 10
0.72543285
 20
3.06053944
  0
VERTEX
  8
0
 10
0.74866047
 20
3.06730015
  0
VERTEX
  8
0
 10
0.76057187
 20
3.06966155
  0
VERTEX
  8
0
 10
0.77263733
 20
3.07128018
  0
VERTEX
  8
0
 10
0.78482361
 20
3.07210845
  0
VERTEX
  8
0
 10
0.79709746
 20
3.07209875
  0
VERTEX
  8
0
 10
0.80942563
 20
3.07120350
  0
VERTEX
  8
0
 10
0.82177488
 20
3.06937509
  0
VERTEX
  8
0
 10
0.83663187
 20
3.06390097
  0
VERTEX
  8
0
 10
0.85106297
 20
3.05763684
  0
VERTEX
  8
0
 10
0.86509502
 20
3.05065028
  0
VERTEX
  8
0
 10
0.87875489
 20
3.04300886
  0
VERTEX
  8
0
 10
0.90506554
 20
3.02603169
  0
VERTEX
  8
0
 10
0.93020980
 20
3.00724591
  0
VERTEX
  8
0
 10
0.95440258
 20
2.98719207
  0
VERTEX
  8
0
 10
0.97785877
 20
2.96641072
  0
VERTEX
  8
0
 10
1.02342097
 20
2.92482776
  0
VERTEX
  8
0
 10
1.03551033
 20
2.91428595
  0
VERTEX
  8
0
 10
1.04624764
 20
2.90279712
  0
VERTEX
  8
0
 10
1.05570764
 20
2.89045111
  0
VERTEX
  8
0
 10
1.06396508
 20
2.87733778
  0
VERTEX
  8
0
 10
1.07109473
 20
2.86354698
  0
VERTEX
  8
0
 10
1.07717134
 20
2.84916855
  0
VERTEX
  8
0
 10
1.08226966
 20
2.83429235
  0
VERTEX
  8
0
 10
1.08646445
 20
2.81900822
  0
VERTEX
  8
0
 10
1.08983047
 20
2.80340601
  0
VERTEX
  8
0
 10
1.09244246
 20
2.78757559
  0
VERTEX
  8
0
 10
1.09570339
 20
2.75558945
  0
VERTEX
  8
0
 10
1.09684531
 20
2.72376862
  0
VERTEX
  8
0
 10
1.09646623
 20
2.69283188
  0
VERTEX
  8
0
 10
1.08995536
 20
2.66386226
  0
VERTEX
  8
0
 10
1.08149535
 20
2.63603069
  0
VERTEX
  8
0
 10
1.07122970
 20
2.60927251
  0
VERTEX
  8
0
 10
1.05930190
 20
2.58352302
  0
VERTEX
  8
0
 10
1.04585543
 20
2.55871754
  0
VERTEX
  8
0
 10
1.03103379
 20
2.53479139
  0
VERTEX
  8
0
 10
1.01498046
 20
2.51167990
  0
VERTEX
  8
0
 10
0.99783894
 20
2.48931837
  0
VERTEX
  8
0
 10
0.97975270
 20
2.46764213
  0
VERTEX
  8
0
 10
0.96086524
 20
2.44658649
  0
VERTEX
  8
0
 10
0.94132005
 20
2.42608677
  0
VERTEX
  8
0
 10
0.92126061
 20
2.40607830
  0
VERTEX
  8
0
 10
0.88017296
 20
2.36727634
  0
VERTEX
  8
0
 10
0.83875018
 20
2.32966316
  0
VERTEX
  8
0
 10
0.82851510
 20
2.32843513
  0
VERTEX
  8
0
 10
0.82017677
 20
2.32612391
  0
VERTEX
  8
0
 10
0.81353849
 20
2.32282491
  0
VERTEX
  8
0
 10
0.80840358
 20
2.31863358
  0
VERTEX
  8
0
 10
0.80457536
 20
2.31364532
  0
VERTEX
  8
0
 10
0.80185714
 20
2.30795558
  0
VERTEX
  8
0
 10
0.80005224
 20
2.30165976
  0
VERTEX
  8
0
 10
0.79896396
 20
2.29485331
  0
VERTEX
  8
0
 10
0.79815053
 20
2.28009019
  0
VERTEX
  8
0
 10
0.79784337
 20
2.26442961
  0
VERTEX
  8
0
 10
0.79646899
 20
2.24863499
  0
VERTEX
  8
0
 10
0.79488987
 20
2.24092598
  0
VERTEX
  8
0
 10
0.79245389
 20
2.23346974
  0
VERTEX
  8
0
 10
0.78955045
 20
2.21510092
  0
VERTEX
  8
0
 10
0.78595764
 20
2.19714002
  0
VERTEX
  8
0
 10
0.77686205
 20
2.16235044
  0
VERTEX
  8
0
 10
0.76548352
 20
2.12891794
  0
VERTEX
  8
0
 10
0.75213842
 20
2.09665946
  0
VERTEX
  8
0
 10
0.73714315
 20
2.06539195
  0
VERTEX
  8
0
 10
0.72081409
 20
2.03493234
  0
VERTEX
  8
0
 10
0.70346764
 20
2.00509758
  0
VERTEX
  8
0
 10
0.68542017
 20
1.97570461
  0
VERTEX
  8
0
 10
0.64848778
 20
1.91751182
  0
VERTEX
  8
0
 10
0.63023562
 20
1.88834589
  0
VERTEX
  8
0
 10
0.61254801
 20
1.85888952
  0
VERTEX
  8
0
 10
0.59574133
 20
1.82895966
  0
VERTEX
  8
0
 10
0.58013196
 20
1.79837325
  0
VERTEX
  8
0
 10
0.56603631
 20
1.76694723
  0
VERTEX
  8
0
 10
0.55377076
 20
1.73449855
  0
VERTEX
  8
0
 10
0.53649844
 20
1.69440386
  0
VERTEX
  8
0
 10
0.52038088
 20
1.65299431
  0
VERTEX
  8
0
 10
0.50543426
 20
1.61045475
  0
VERTEX
  8
0
 10
0.49167479
 20
1.56697002
  0
VERTEX
  8
0
 10
0.47911868
 20
1.52272496
  0
VERTEX
  8
0
 10
0.46778212
 20
1.47790443
  0
VERTEX
  8
0
 10
0.45768133
 20
1.43269327
  0
VERTEX
  8
0
 10
0.44883249
 20
1.38727632
  0
VERTEX
  8
0
 10
0.44086110
 20
1.36975796
  0
VERTEX
  8
0
 10
0.43425083
 20
1.35156350
  0
VERTEX
  8
0
 10
0.42878529
 20
1.33279549
  0
VERTEX
  8
0
 10
0.42424807
 20
1.31355643
  0
VERTEX
  8
0
 10
0.41709302
 20
1.27407526
  0
VERTEX
  8
0
 10
0.41105447
 20
1.23394017
  0
VERTEX
  8
0
 10
0.40440124
 20
1.19397134
  0
VERTEX
  8
0
 10
0.40030313
 20
1.17430556
  0
VERTEX
  8
0
 10
0.39540214
 20
1.15498891
  0
VERTEX
  8
0
 10
0.38948189
 20
1.13612391
  0
VERTEX
  8
0
 10
0.38232597
 20
1.11781307
  0
VERTEX
  8
0
 10
0.37371799
 20
1.10015892
  0
VERTEX
  8
0
 10
0.36344154
 20
1.08326398
  0
VERTEX
  8
0
 10
0.33978553
 20
1.07001505
  0
VERTEX
  8
0
 10
0.31699767
 20
1.05598810
  0
VERTEX
  8
0
 10
0.29502403
 20
1.04120479
  0
VERTEX
  8
0
 10
0.27381066
 20
1.02568681
  0
VERTEX
  8
0
 10
0.25330360
 20
1.00945581
  0
VERTEX
  8
0
 10
0.23344892
 20
0.99253347
  0
VERTEX
  8
0
 10
0.21419267
 20
0.97494146
  0
VERTEX
  8
0
 10
0.19548091
 20
0.95670146
  0
VERTEX
  8
0
 10
0.17725968
 20
0.93783513
  0
VERTEX
  8
0
 10
0.15947505
 20
0.91836415
  0
VERTEX
  8
0
 10
0.12499979
 20
0.87769490
  0
VERTEX
  8
0
 10
0.09162356
 20
0.83486710
  0
VERTEX
  8
0
 10
0.05891479
 20
0.79005410
  0
VERTEX
  8
0
 10
0.05462316
 20
0.77604912
  0
VERTEX
  8
0
 10
0.04957212
 20
0.76213521
  0
VERTEX
  8
0
 10
0.04377419
 20
0.74839815
  0
VERTEX
  8
0
 10
0.03724191
 20
0.73492368
  0
VERTEX
  8
0
 10
0.02998781
 20
0.72179758
  0
VERTEX
  8
0
 10
0.02202442
 20
0.70910560
  0
VERTEX
  8
0
 10
0.01336428
 20
0.69693352
  0
VERTEX
  8
0
 10
0.00401992
 20
0.68536708
  0
VERTEX
  8
0
 10
-0.00599612
 20
0.67449207
  0
VERTEX
  8
0
 10
-0.01667133
 20
0.66439423
  0
VERTEX
  8
0
 10
-0.02799315
 20
0.65515933
  0
VERTEX
  8
0
 10
-0.03994907
 20
0.64687313
  0
VERTEX
  8
0
 10
-0.05252654
 20
0.63962141
  0
VERTEX
  8
0
 10
-0.06571304
 20
0.63348991
  0
VERTEX
  8
0
 10
-0.07949603
 20
0.62856440
  0
VERTEX
  8
0
 10
-0.09386298
 20
0.62493065
  0
VERTEX
  8
0
 10
-0.11241163
 20
0.62317721
  0
VERTEX
  8
0
 10
-0.13052267
 20
0.62395018
  0
VERTEX
  8
0
 10
-0.14833712
 20
0.62655834
  0
VERTEX
  8
0
 10
-0.16599600
 20
0.63031050
  0
VERTEX
  8
0
 10
-0.20141105
 20
0.63848193
  0
VERTEX
  8
0
 10
-0.21944924
 20
0.64151877
  0
VERTEX
  8
0
 10
-0.23789591
 20
0.64293476
  0
VERTEX
  8
0
 10
-0.24845363
 20
0.64570138
  0
VERTEX
  8
0
 10
-0.25942594
 20
0.64781683
  0
VERTEX
  8
0
 10
-0.28244528
 20
0.65035922
  0
VERTEX
  8
0
 10
-0.30661582
 20
0.65109191
  0
VERTEX
  8
0
 10
-0.33159942
 20
0.65054485
  0
VERTEX
  8
0
 10
-0.38265329
 20
0.64773143
  0
VERTEX
  8
0
 10
-0.40804732
 20
0.64652500
  0
VERTEX
  8
0
 10
-0.43290191
 20
0.64615872
  0
VERTEX
  8
0
 10
-0.45687893
 20
0.64716256
  0
VERTEX
  8
0
 10
-0.47964026
 20
0.65006650
  0
VERTEX
  8
0
 10
-0.49045938
 20
0.65239662
  0
VERTEX
  8
0
 10
-0.50084777
 20
0.65540051
  0
VERTEX
  8
0
 10
-0.51076318
 20
0.65914440
  0
VERTEX
  8
0
 10
-0.52016334
 20
0.66369455
  0
VERTEX
  8
0
 10
-0.52900598
 20
0.66911721
  0
VERTEX
  8
0
 10
-0.53724884
 20
0.67547861
  0
VERTEX
  8
0
 10
-0.54484964
 20
0.68284501
  0
VERTEX
  8
0
 10
-0.55176614
 20
0.69128265
  0
VERTEX
  8
0
 10
-0.55795605
 20
0.70085778
  0
VERTEX
  8
0
 10
-0.56337711
 20
0.71163664
  0
VERTEX
  8
0
 10
-0.56798707
 20
0.72368549
  0
VERTEX
  8
0
 10
-0.57174364
 20
0.73707056
  0
VERTEX
  8
0
 10
-0.57102409
 20
0.74288773
  0
VERTEX
  8
0
 10
-0.57132777
 20
0.74835939
  0
VERTEX
  8
0
 10
-0.57362673
 20
0.75879303
  0
VERTEX
  8
0
 10
-0.57588436
 20
0.76942511
  0
VERTEX
  8
0
 10
-0.57613636
 20
0.77514482
  0
VERTEX
  8
0
 10
-0.57534447
 20
0.78130925
  0
VERTEX
  8
0
 10
-0.56142659
 20
0.78083005
  0
VERTEX
  8
0
 10
-0.55525464
 20
0.78011169
  0
VERTEX
  8
0
 10
-0.55287734
 20
0.77918469
  0
VERTEX
  8
0
 10
-0.55116751
 20
0.77770842
  0
VERTEX
  8
0
 10
-0.54525362
 20
0.78129390
  0
VERTEX
  8
0
 10
-0.53865496
 20
0.78312868
  0
VERTEX
  8
0
 10
-0.53151455
 20
0.78352222
  0
VERTEX
  8
0
 10
-0.52397538
 20
0.78278396
  0
VERTEX
  8
0
 10
-0.50827287
 20
0.77914986
  0
VERTEX
  8
0
 10
-0.49269152
 20
0.77470197
  0
VERTEX
  8
0
 10
-0.47837542
 20
0.77191589
  0
VERTEX
  8
0
 10
-0.47204938
 20
0.77191966
  0
VERTEX
  8
0
 10
-0.46646869
 20
0.77326723
  0
VERTEX
  8
0
 10
-0.46177636
 20
0.77626806
  0
VERTEX
  8
0
 10
-0.45811541
 20
0.78123159
  0
VERTEX
  8
0
 10
-0.45562885
 20
0.78846727
  0
VERTEX
  8
0
 10
-0.45445969
 20
0.79828455
  0
VERTEX
  8
0
 10
-0.45532931
 20
0.80493132
  0
VERTEX
  8
0
 10
-0.45518242
 20
0.81184478
  0
VERTEX
  8
0
 10
-0.45403562
 20
0.81884224
  0
VERTEX
  8
0
 10
-0.45190550
 20
0.82574105
  0
VERTEX
  8
0
 10
-0.44880865
 20
0.83235851
  0
VERTEX
  8
0
 10
-0.44476165
 20
0.83851196
  0
VERTEX
  8
0
 10
-0.43978109
 20
0.84401870
  0
VERTEX
  8
0
 10
-0.43388356
 20
0.84869608
  0
VERTEX
  8
0
 10
-0.43023670
 20
0.84945230
  0
VERTEX
  8
0
 10
-0.42684690
 20
0.84920756
  0
VERTEX
  8
0
 10
-0.42384022
 20
0.84808792
  0
VERTEX
  8
0
 10
-0.42134273
 20
0.84621944
  0
VERTEX
  8
0
 10
-0.41948049
 20
0.84372819
  0
VERTEX
  8
0
 10
-0.41837955
 20
0.84074022
  0
VERTEX
  8
0
 10
-0.41816599
 20
0.83738160
  0
VERTEX
  8
0
 10
-0.41896587
 20
0.83377838
  0
VERTEX
  8
0
 10
-0.42399350
 20
0.80908982
  0
VERTEX
  8
0
 10
-0.42553663
 20
0.79551698
  0
VERTEX
  8
0
 10
-0.42591990
 20
0.78184855
  0
VERTEX
  8
0
 10
-0.42475876
 20
0.76862710
  0
VERTEX
  8
0
 10
-0.42166867
 20
0.75639524
  0
VERTEX
  8
0
 10
-0.41928009
 20
0.75081995
  0
VERTEX
  8
0
 10
-0.41626506
 20
0.74569553
  0
VERTEX
  8
0
 10
-0.41257552
 20
0.74108979
  0
VERTEX
  8
0
 10
-0.40816340
 20
0.73707056
  0
VERTEX
  8
0
 10
-0.39941854
 20
0.73707056
  0
VERTEX
  8
0
 10
-0.39435007
 20
0.74894182
  0
VERTEX
  8
0
 10
-0.39128112
 20
0.76128277
  0
VERTEX
  8
0
 10
-0.38724654
 20
0.78611757
  0
VERTEX
  8
0
 10
-0.38433329
 20
0.79798333
  0
VERTEX
  8
0
 10
-0.37952431
 20
0.80906261
  0
VERTEX
  8
0
 10
-0.37610460
 20
0.81420918
  0
VERTEX
  8
0
 10
-0.37184578
 20
0.81904136
  0
VERTEX
  8
0
 10
-0.36662612
 20
0.82351990
  0
VERTEX
  8
0
 10
-0.36032389
 20
0.82760554
  0
VERTEX
  8
0
 10
-0.35454304
 20
0.82147368
  0
VERTEX
  8
0
 10
-0.34988939
 20
0.81458393
  0
VERTEX
  8
0
 10
-0.34617359
 20
0.80706905
  0
VERTEX
  8
0
 10
-0.34320628
 20
0.79906179
  0
VERTEX
  8
0
 10
-0.33875965
 20
0.78210119
  0
VERTEX
  8
0
 10
-0.33503462
 20
0.76476420
  0
VERTEX
  8
0
 10
-0.33051626
 20
0.74811287
  0
VERTEX
  8
0
 10
-0.32748618
 20
0.74037623
  0
VERTEX
  8
0
 10
-0.32368969
 20
0.73320929
  0
VERTEX
  8
0
 10
-0.31893741
 20
0.72674480
  0
VERTEX
  8
0
 10
-0.31304000
 20
0.72111551
  0
VERTEX
  8
0
 10
-0.30580808
 20
0.71645420
  0
VERTEX
  8
0
 10
-0.29705229
 20
0.71289361
  0
VERTEX
  8
0
 10
-0.29229960
 20
0.71737553
  0
VERTEX
  8
0
 10
-0.28977454
 20
0.72253941
  0
VERTEX
  8
0
 10
-0.28893203
 20
0.72825827
  0
VERTEX
  8
0
 10
-0.28922698
 20
0.73440514
  0
VERTEX
  8
0
 10
-0.29104886
 20
0.74747499
  0
VERTEX
  8
0
 10
-0.29148561
 20
0.75414401
  0
VERTEX
  8
0
 10
-0.29087945
 20
0.76073311
  0
VERTEX
  8
0
 10
-0.28756803
 20
0.77114045
  0
VERTEX
  8
0
 10
-0.28560615
 20
0.78215670
  0
VERTEX
  8
0
 10
-0.28327071
 20
0.80469322
  0
VERTEX
  8
0
 10
-0.28166702
 20
0.81555213
  0
VERTEX
  8
0
 10
-0.27895260
 20
0.82569722
  0
VERTEX
  8
0
 10
-0.27451238
 20
0.83479782
  0
VERTEX
  8
0
 10
-0.27145289
 20
0.83885309
  0
VERTEX
  8
0
 10
-0.26773130
 20
0.84252324
  0
VERTEX
  8
0
 10
-0.25961726
 20
0.83522933
  0
VERTEX
  8
0
 10
-0.25264199
 20
0.82683943
  0
VERTEX
  8
0
 10
-0.24659213
 20
0.81757174
  0
VERTEX
  8
0
 10
-0.24125432
 20
0.80764447
  0
VERTEX
  8
0
 10
-0.23186140
 20
0.78668395
  0
VERTEX
  8
0
 10
-0.22275634
 20
0.76570349
  0
VERTEX
  8
0
 10
-0.21777835
 20
0.75575129
  0
VERTEX
  8
0
 10
-0.21223225
 20
0.74644870
  0
VERTEX
  8
0
 10
-0.20590467
 20
0.73801393
  0
VERTEX
  8
0
 10
-0.19858225
 20
0.73066519
  0
VERTEX
  8
0
 10
-0.19005163
 20
0.72462066
  0
VERTEX
  8
0
 10
-0.18009946
 20
0.72009856
  0
VERTEX
  8
0
 10
-0.16851236
 20
0.71731708
  0
VERTEX
  8
0
 10
-0.15507698
 20
0.71649443
  0
VERTEX
  8
0
 10
-0.15154941
 20
0.71900002
  0
VERTEX
  8
0
 10
-0.14985743
 20
0.72187892
  0
VERTEX
  8
0
 10
-0.14954124
 20
0.72504583
  0
VERTEX
  8
0
 10
-0.15014106
 20
0.72841543
  0
VERTEX
  8
0
 10
-0.15224965
 20
0.73542149
  0
VERTEX
  8
0
 10
-0.15283886
 20
0.73888731
  0
VERTEX
  8
0
 10
-0.15250496
 20
0.74221460
  0
VERTEX
  8
0
 10
-0.15585439
 20
0.74771970
  0
VERTEX
  8
0
 10
-0.15780670
 20
0.75405922
  0
VERTEX
  8
0
 10
-0.15869219
 20
0.76103076
  0
VERTEX
  8
0
 10
-0.15884117
 20
0.76843191
  0
VERTEX
  8
0
 10
-0.15825074
 20
0.78371342
  0
VERTEX
  8
0
 10
-0.15867780
 20
0.79828455
  0
VERTEX
  8
0
 10
-0.15730812
 20
0.80002042
  0
VERTEX
  8
0
 10
-0.15592070
 20
0.80074479
  0
VERTEX
  8
0
 10
-0.15302894
 20
0.80019013
  0
VERTEX
  8
0
 10
-0.14987519
 20
0.79868268
  0
VERTEX
  8
0
 10
-0.14633212
 20
0.79828455
  0
VERTEX
  8
0
 10
-0.13022575
 20
0.77471198
  0
VERTEX
  8
0
 10
-0.12195718
 20
0.76313174
  0
VERTEX
  8
0
 10
-0.11316680
 20
0.75235574
  0
VERTEX
  8
0
 10
-0.10357095
 20
0.74288410
  0
VERTEX
  8
0
 10
-0.09288598
 20
0.73521699
  0
VERTEX
  8
0
 10
-0.08704642
 20
0.73221642
  0
VERTEX
  8
0
 10
-0.08082822
 20
0.72985454
  0
VERTEX
  8
0
 10
-0.07419590
 20
0.72819386
  0
VERTEX
  8
0
 10
-0.06711401
 20
0.72729690
  0
VERTEX
  8
0
 10
-0.05938014
 20
0.74360278
  0
VERTEX
  8
0
 10
-0.05215315
 20
0.76201278
  0
VERTEX
  8
0
 10
-0.04455752
 20
0.78098259
  0
VERTEX
  8
0
 10
-0.03571772
 20
0.79896788
  0
VERTEX
  8
0
 10
-0.03055766
 20
0.80710874
  0
VERTEX
  8
0
 10
-0.02475822
 20
0.81442434
  0
VERTEX
  8
0
 10
-0.01820998
 20
0.82072166
  0
VERTEX
  8
0
 10
-0.01080349
 20
0.82580766
  0
VERTEX
  8
0
 10
-0.00242931
 20
0.82948928
  0
VERTEX
  8
0
 10
0.00702201
 20
0.83157350
  0
VERTEX
  8
0
 10
0.01765990
 20
0.83186727
  0
VERTEX
  8
0
 10
0.02959381
 20
0.83017756
  0
VERTEX
  8
0
 10
0.05947636
 20
0.85727062
  0
VERTEX
  8
0
 10
0.08859611
 20
0.88537919
  0
VERTEX
  8
0
 10
0.11687634
 20
0.91448711
  0
VERTEX
  8
0
 10
0.14424033
 20
0.94457820
  0
VERTEX
  8
0
 10
0.17061136
 20
0.97563629
  0
VERTEX
  8
0
 10
0.19591270
 20
1.00764522
  0
VERTEX
  8
0
 10
0.22006765
 20
1.04058883
  0
VERTEX
  8
0
 10
0.24299947
 20
1.07445094
  0
VERTEX
  8
0
 10
0.26463145
 20
1.10921538
  0
VERTEX
  8
0
 10
0.28488687
 20
1.14486600
  0
VERTEX
  8
0
 10
0.30368900
 20
1.18138662
  0
VERTEX
  8
0
 10
0.32096113
 20
1.21876107
  0
VERTEX
  8
0
 10
0.33662654
 20
1.25697318
  0
VERTEX
  8
0
 10
0.35060850
 20
1.29600680
  0
VERTEX
  8
0
 10
0.36283029
 20
1.33584574
  0
VERTEX
  8
0
 10
0.37321520
 20
1.37647386
  0
VERTEX
  8
0
 10
0.37784483
 20
1.37647386
  0
VERTEX
  8
0
 10
0.40037381
 20
1.46733646
  0
VERTEX
  8
0
 10
0.42141920
 20
1.55878432
  0
VERTEX
  8
0
 10
0.43106884
 20
1.60491362
  0
VERTEX
  8
0
 10
0.43996753
 20
1.65141233
  0
VERTEX
  8
0
 10
0.44798858
 20
1.69835481
  0
VERTEX
  8
0
 10
0.45500533
 20
1.74581542
  0
VERTEX
  8
0
 10
0.49370461
 20
1.86629831
  0
VERTEX
  8
0
 10
0.51275375
 20
1.92606795
  0
VERTEX
  8
0
 10
0.53234708
 20
1.98534815
  0
VERTEX
  8
0
 10
0.55304302
 20
2.04400776
  0
VERTEX
  8
0
 10
0.57539996
 20
2.10191559
  0
VERTEX
  8
0
 10
0.59997630
 20
2.15894046
  0
VERTEX
  8
0
 10
0.61327124
 20
2.18708081
  0
VERTEX
  8
0
 10
0.62733043
 20
2.21495122
  0
VERTEX
  8
0
 10
0.64312940
 20
2.26338694
  0
VERTEX
  8
0
 10
0.66048342
 20
2.31093478
  0
VERTEX
  8
0
 10
0.67818593
 20
2.35808211
  0
VERTEX
  8
0
 10
0.69503038
 20
2.40531630
  0
VERTEX
  8
0
 10
0.70275379
 20
2.42911827
  0
VERTEX
  8
0
 10
0.70981023
 20
2.45312471
  0
VERTEX
  8
0
 10
0.71604888
 20
2.47739655
  0
VERTEX
  8
0
 10
0.72131893
 20
2.50199470
  0
VERTEX
  8
0
 10
0.72546955
 20
2.52698010
  0
VERTEX
  8
0
 10
0.72834993
 20
2.55241365
  0
VERTEX
  8
0
 10
0.72980925
 20
2.57835628
  0
VERTEX
  8
0
 10
0.72969669
 20
2.60486892
  0
VERTEX
  8
0
 10
0.72701328
 20
2.61528090
  0
VERTEX
  8
0
 10
0.72348718
 20
2.62542540
  0
VERTEX
  8
0
 10
0.71920658
 20
2.63526231
  0
VERTEX
  8
0
 10
0.71425969
 20
2.64475149
  0
VERTEX
  8
0
 10
0.70271983
 20
2.66252621
  0
VERTEX
  8
0
 10
0.68957323
 20
2.67842859
  0
VERTEX
  8
0
 10
0.66335246
 20
2.68336009
  0
VERTEX
  8
0
 10
0.63741588
 20
2.68641335
  0
VERTEX
  8
0
 10
0.61176009
 20
2.68770939
  0
VERTEX
  8
0
 10
0.58638164
 20
2.68736927
  0
VERTEX
  8
0
 10
0.56127713
 20
2.68551402
  0
VERTEX
  8
0
 10
0.53644312
 20
2.68226467
  0
VERTEX
  8
0
 10
0.51187619
 20
2.67774227
  0
VERTEX
  8
0
 10
0.48757292
 20
2.67206786
  0
VERTEX
  8
0
 10
0.46352988
 20
2.66536248
  0
VERTEX
  8
0
 10
0.43974365
 20
2.65774716
  0
VERTEX
  8
0
 10
0.41621081
 20
2.64934295
  0
VERTEX
  8
0
 10
0.39292793
 20
2.64027089
  0
VERTEX
  8
0
 10
0.34709836
 20
2.62060736
  0
VERTEX
  8
0
 10
0.30222755
 20
2.59972488
  0
VERTEX
  8
0
 10
0.29104597
 20
2.58678766
  0
VERTEX
  8
0
 10
0.28036733
 20
2.57281283
  0
VERTEX
  8
0
 10
0.25988122
 20
2.54277717
  0
VERTEX
  8
0
 10
0.23949401
 20
2.51167147
  0
VERTEX
  8
0
 10
0.22893898
 20
2.49635910
  0
VERTEX
  8
0
 10
0.21793047
 20
2.48154931
  0
VERTEX
  8
0
 10
0.20630907
 20
2.46749881
  0
VERTEX
  8
0
 10
0.19391538
 20
2.45446428
  0
VERTEX
  8
0
 10
0.18059000
 20
2.44270242
  0
VERTEX
  8
0
 10
0.16617353
 20
2.43246994
  0
VERTEX
  8
0
 10
0.15050655
 20
2.42402353
  0
VERTEX
  8
0
 10
0.13342968
 20
2.41761989
  0
VERTEX
  8
0
 10
0.11478350
 20
2.41351570
  0
VERTEX
  8
0
 10
0.09440862
 20
2.41196768
  0
VERTEX
  8
0
 10
0.06403267
 20
2.41264013
  0
VERTEX
  8
0
 10
0.03387774
 20
2.41170674
  0
VERTEX
  8
0
 10
0.00390458
 20
2.40941802
  0
VERTEX
  8
0
 10
-0.02592609
 20
2.40602445
  0
VERTEX
  8
0
 10
-0.08531701
 20
2.39692471
  0
VERTEX
  8
0
 10
-0.14460917
 20
2.38641143
  0
VERTEX
  8
0
 10
-0.20411669
 20
2.37648852
  0
VERTEX
  8
0
 10
-0.23404938
 20
2.37237466
  0
VERTEX
  8
0
 10
-0.26415372
 20
2.36915987
  0
VERTEX
  8
0
 10
-0.29446897
 20
2.36709462
  0
VERTEX
  8
0
 10
-0.32503440
 20
2.36642940
  0
VERTEX
  8
0
 10
-0.35588927
 20
2.36741470
  0
VERTEX
  8
0
 10
-0.38707286
 20
2.37030102
  0
VERTEX
  8
0
 10
-0.42859340
 20
2.37407910
  0
VERTEX
  8
0
 10
-0.46951011
 20
2.37994311
  0
VERTEX
  8
0
 10
-0.50969568
 20
2.38778927
  0
VERTEX
  8
0
 10
-0.54902280
 20
2.39751380
  0
VERTEX
  8
0
 10
-0.58736414
 20
2.40901291
  0
VERTEX
  8
0
 10
-0.62459241
 20
2.42218283
  0
VERTEX
  8
0
 10
-0.66058028
 20
2.43691977
  0
VERTEX
  8
0
 10
-0.69520043
 20
2.45311995
  0
VERTEX
  8
0
 10
-0.70004590
 20
2.46356172
  0
VERTEX
  8
0
 10
-0.70587496
 20
2.47306191
  0
VERTEX
  8
0
 10
-0.71802589
 20
2.49103288
  0
VERTEX
  8
0
 10
-0.72311880
 20
2.50040132
  0
VERTEX
  8
0
 10
-0.72673735
 20
2.51062351
  0
VERTEX
  8
0
 10
-0.72826706
 20
2.52214829
  0
VERTEX
  8
0
 10
-0.72709344
 20
2.53542447
  0
VERTEX
  8
0
 10
-0.73307312
 20
2.53872192
  0
VERTEX
  8
0
 10
-0.73837129
 20
2.53917565
  0
VERTEX
  8
0
 10
-0.74321850
 20
2.53747006
  0
VERTEX
  8
0
 10
-0.74784533
 20
2.53428956
  0
VERTEX
  8
0
 10
-0.75736009
 20
2.52624151
  0
VERTEX
  8
0
 10
-0.76270916
 20
2.52274277
  0
VERTEX
  8
0
 10
-0.76876010
 20
2.52050678
  0
VERTEX
  8
0
 10
-0.77816979
 20
2.50752659
  0
VERTEX
  8
0
 10
-0.78807940
 20
2.49581463
  0
VERTEX
  8
0
 10
-0.79846513
 20
2.48530707
  0
VERTEX
  8
0
 10
-0.80930320
 20
2.47594008
  0
VERTEX
  8
0
 10
-0.82056981
 20
2.46764985
  0
VERTEX
  8
0
 10
-0.83224119
 20
2.46037256
  0
VERTEX
  8
0
 10
-0.84429353
 20
2.45404438
  0
VERTEX
  8
0
 10
-0.85670304
 20
2.44860149
  0
VERTEX
  8
0
 10
-0.86944595
 20
2.44398008
  0
VERTEX
  8
0
 10
-0.88249845
 20
2.44011632
  0
VERTEX
  8
0
 10
-0.90943707
 20
2.43440648
  0
VERTEX
  8
0
 10
-0.93732861
 20
2.43096139
  0
VERTEX
  8
0
 10
-0.96598272
 20
2.42927050
  0
VERTEX
  8
0
 10
-0.99520909
 20
2.42882323
  0
VERTEX
  8
0
 10
-1.02481741
 20
2.42910901
  0
VERTEX
  8
0
 10
-1.08441858
 20
2.42983748
  0
VERTEX
  8
0
 10
-1.11403078
 20
2.42925903
  0
VERTEX
  8
0
 10
-1.14326365
 20
2.42737136
  0
VERTEX
  8
0
 10
-1.17192685
 20
2.42366391
  0
VERTEX
  8
0
 10
-1.19983006
 20
2.41762612
  0
VERTEX
  8
0
 10
-1.20253497
 20
2.41795922
  0
VERTEX
  8
0
 10
-1.20507326
 20
2.41948400
  0
VERTEX
  8
0
 10
-1.20781917
 20
2.42072285
  0
VERTEX
  8
0
 10
-1.21114694
 20
2.42019813
  0
VERTEX
  8
0
 10
-1.22218686
 20
2.42994737
  0
VERTEX
  8
0
 10
-1.23242484
 20
2.44034629
  0
VERTEX
  8
0
 10
-1.24185877
 20
2.45135925
  0
VERTEX
  8
0
 10
-1.25048651
 20
2.46295060
  0
VERTEX
  8
0
 10
-1.25830596
 20
2.47508472
  0
VERTEX
  8
0
 10
-1.26531498
 20
2.48772597
  0
VERTEX
  8
0
 10
-1.27151145
 20
2.50083871
  0
VERTEX
  8
0
 10
-1.27689326
 20
2.51438729
  0
VERTEX
  8
0
 10
-1.28145827
 20
2.52833608
  0
VERTEX
  8
0
 10
-1.28520438
 20
2.54264944
  0
VERTEX
  8
0
 10
-1.28812945
 20
2.55729174
  0
VERTEX
  8
0
 10
-1.29023137
 20
2.57222734
  0
VERTEX
  8
0
 10
-1.29150801
 20
2.58742059
  0
VERTEX
  8
0
 10
-1.29195725
 20
2.60283586
  0
VERTEX
  8
0
 10
-1.29157697
 20
2.61843751
  0
VERTEX
  8
0
 10
-1.29036504
 20
2.63418990
  0
SEQEND
  0
POLYLINE
  8
Default_Layer
 66
   1
 39
0.000000
 70
    1
  0
VERTEX
  8
0
 10
0.89121932
 20
-0.11683890
  0
VERTEX
  8
0
 10
0.86728259
 20
-0.12968957
  0
VERTEX
  8
0
 10
0.84259473
 20
-0.14143702
  0
VERTEX
  8
0
 10
0.81719972
 20
-0.15211635
  0
VERTEX
  8
0
 10
0.79114159
 20
-0.16176264
  0
VERTEX
  8
0
 10
0.76446434
 20
-0.17041099
  0
VERTEX
  8
0
 10
0.73721197
 20
-0.17809648
  0
VERTEX
  8
0
 10
0.70942849
 20
-0.18485420
  0
VERTEX
  8
0
 10
0.68115791
 20
-0.19071924
  0
VERTEX
  8
0
 10
0.65244424
 20
-0.19572668
  0
VERTEX
  8
0
 10
0.62333148
 20
-0.19991161
  0
VERTEX
  8
0
 10
0.59386364
 20
-0.20330913
  0
VERTEX
  8
0
 10
0.56408473
 20
-0.20595432
  0
VERTEX
  8
0
 10
0.50376971
 20
-0.20912806
  0
VERTEX
  8
0
 10
0.44273849
 20
-0.20971355
  0
VERTEX
  8
0
 10
0.38134311
 20
-0.20799148
  0
VERTEX
  8
0
 10
0.31993563
 20
-0.20424256
  0
VERTEX
  8
0
 10
0.25886811
 20
-0.19874750
  0
VERTEX
  8
0
 10
0.19849261
 20
-0.19178700
  0
VERTEX
  8
0
 10
0.13916117
 20
-0.18364177
  0
VERTEX
  8
0
 10
0.08122586
 20
-0.17459251
  0
VERTEX
  8
0
 10
0.02503872
 20
-0.16491994
  0
VERTEX
  8
0
 10
-0.02904817
 20
-0.15490475
  0
VERTEX
  8
0
 10
-0.04921816
 20
-0.15223142
  0
VERTEX
  8
0
 10
-0.06851888
 20
-0.14875425
  0
VERTEX
  8
0
 10
-0.08712148
 20
-0.14447627
  0
VERTEX
  8
0
 10
-0.10519713
 20
-0.13940051
  0
VERTEX
  8
0
 10
-0.12291696
 20
-0.13353002
  0
VERTEX
  8
0
 10
-0.14045213
 20
-0.12686782
  0
VERTEX
  8
0
 10
-0.17565311
 20
-0.11118047
  0
VERTEX
  8
0
 10
-0.13660081
 20
-0.07825810
  0
VERTEX
  8
0
 10
-0.09918282
 20
-0.04463596
  0
VERTEX
  8
0
 10
-0.06355881
 20
-0.01016800
  0
VERTEX
  8
0
 10
-0.02988845
 20
0.02529187
  0
VERTEX
  8
0
 10
0.00166858
 20
0.06188971
  0
VERTEX
  8
0
 10
0.03095261
 20
0.09977160
  0
VERTEX
  8
0
 10
0.05780395
 20
0.13908360
  0
VERTEX
  8
0
 10
0.07026747
 20
0.15932155
  0
VERTEX
  8
0
 10
0.08206294
 20
0.17997180
  0
VERTEX
  8
0
 10
0.09403207
 20
0.17117177
  0
VERTEX
  8
0
 10
0.10632139
 20
0.16308989
  0
VERTEX
  8
0
 10
0.13179537
 20
0.14894449
  0
VERTEX
  8
0
 10
0.15835434
 20
0.13726344
  0
VERTEX
  8
0
 10
0.18586778
 20
0.12777459
  0
VERTEX
  8
0
 10
0.21420519
 20
0.12020578
  0
VERTEX
  8
0
 10
0.24323602
 20
0.11428486
  0
VERTEX
  8
0
 10
0.27282976
 20
0.10973968
  0
VERTEX
  8
0
 10
0.30285589
 20
0.10629809
  0
VERTEX
  8
0
 10
0.36368323
 20
0.10163704
  0
VERTEX
  8
0
 10
0.42467386
 20
0.09812450
  0
VERTEX
  8
0
 10
0.48478361
 20
0.09358322
  0
VERTEX
  8
0
 10
0.51418184
 20
0.09024643
  0
VERTEX
  8
0
 10
0.54296829
 20
0.08583600
  0
VERTEX
  8
0
 10
0.59957804
 20
0.09231654
  0
VERTEX
  8
0
 10
0.66179598
 20
0.10065122
  0
VERTEX
  8
0
 10
0.72758598
 20
0.11065899
  0
VERTEX
  8
0
 10
0.79491195
 20
0.12215879
  0
VERTEX
  8
0
 10
0.86173776
 20
0.13496958
  0
VERTEX
  8
0
 10
0.92602729
 20
0.14891031
  0
VERTEX
  8
0
 10
0.98574443
 20
0.16379993
  0
VERTEX
  8
0
 10
1.03885306
 20
0.17945739
  0
VERTEX
  8
0
 10
1.03981684
 20
0.17516723
  0
VERTEX
  8
0
 10
1.03996737
 20
0.16668801
  0
VERTEX
  8
0
 10
1.03918776
 20
0.15451086
  0
VERTEX
  8
0
 10
1.03736109
 20
0.13912691
  0
VERTEX
  8
0
 10
1.03437048
 20
0.12102730
  0
VERTEX
  8
0
 10
1.03009902
 20
0.10070315
  0
VERTEX
  8
0
 10
1.02442980
 20
0.07864560
  0
VERTEX
  8
0
 10
1.01724593
 20
0.05534578
  0
VERTEX
  8
0
 10
1.00843051
 20
0.03129482
  0
VERTEX
  8
0
 10
0.99786663
 20
0.00698384
  0
VERTEX
  8
0
 10
0.98543740
 20
-0.01709601
  0
VERTEX
  8
0
 10
0.97102590
 20
-0.04045362
  0
VERTEX
  8
0
 10
0.95451525
 20
-0.06259784
  0
VERTEX
  8
0
 10
0.94543621
 20
-0.07306145
  0
VERTEX
  8
0
 10
0.93578853
 20
-0.08303755
  0
VERTEX
  8
0
 10
0.92555762
 20
-0.09246473
  0
VERTEX
  8
0
 10
0.91472886
 20
-0.10128161
  0
VERTEX
  8
0
 10
0.90328763
 20
-0.10942680
  0
VERTEX
  8
0
 10
0.89121932
 20
-0.11683890
  0
SEQEND
  0
POLYLINE
  8
Default_Layer
 66
   1
 39
0.000000
 70
    1
  0
VERTEX
  8
0
 10
-0.13192883
 20
-0.39564549
  0
VERTEX
  8
0
 10
-0.23534779
 20
-0.38428493
  0
VERTEX
  8
0
 10
-0.33545899
 20
-0.37498439
  0
VERTEX
  8
0
 10
-0.53985064
 20
-0.35809405
  0
VERTEX
  8
0
 10
-0.53814048
 20
-0.35507077
  0
VERTEX
  8
0
 10
-0.53232262
 20
-0.35032868
  0
VERTEX
  8
0
 10
-0.51016946
 20
-0.33635311
  0
VERTEX
  8
0
 10
-0.43643331
 20
-0.29509180
  0
VERTEX
  8
0
 10
-0.39207313
 20
-0.27046626
  0
VERTEX
  8
0
 10
-0.34753340
 20
-0.24495095
  0
VERTEX
  8
0
 10
-0.30642553
 20
-0.21987596
  0
VERTEX
  8
0
 10
-0.28828711
 20
-0.20791925
  0
VERTEX
  8
0
 10
-0.27236093
 20
-0.19657141
  0
VERTEX
  8
0
 10
-0.19971719
 20
-0.21719101
  0
VERTEX
  8
0
 10
-0.11834733
 20
-0.23887586
  0
VERTEX
  8
0
 10
-0.02287533
 20
-0.26395824
  0
VERTEX
  8
0
 10
0.07906463
 20
-0.26946382
  0
VERTEX
  8
0
 10
0.19656446
 20
-0.27412741
  0
VERTEX
  8
0
 10
0.25918495
 20
-0.27566755
  0
VERTEX
  8
0
 10
0.32333813
 20
-0.27642610
  0
VERTEX
  8
0
 10
0.38823824
 20
-0.27621269
  0
VERTEX
  8
0
 10
0.45309955
 20
-0.27483695
  0
VERTEX
  8
0
 10
0.51713627
 20
-0.27210852
  0
VERTEX
  8
0
 10
0.57956267
 20
-0.26783703
  0
VERTEX
  8
0
 10
0.63959297
 20
-0.26183212
  0
VERTEX
  8
0
 10
0.69644143
 20
-0.25390343
  0
VERTEX
  8
0
 10
0.72342692
 20
-0.24915817
  0
VERTEX
  8
0
 10
0.74932228
 20
-0.24386057
  0
VERTEX
  8
0
 10
0.77402931
 20
-0.23798685
  0
VERTEX
  8
0
 10
0.79744977
 20
-0.23151320
  0
VERTEX
  8
0
 10
0.81948545
 20
-0.22441583
  0
VERTEX
  8
0
 10
0.84003814
 20
-0.21667094
  0
VERTEX
  8
0
 10
0.85900960
 20
-0.20825474
  0
VERTEX
  8
0
 10
0.87630162
 20
-0.19914343
  0
VERTEX
  8
0
 10
0.86913328
 20
-0.20911182
  0
VERTEX
  8
0
 10
0.86291427
 20
-0.22190541
  0
VERTEX
  8
0
 10
0.85732817
 20
-0.23719433
  0
VERTEX
  8
0
 10
0.85205851
 20
-0.25464868
  0
VERTEX
  8
0
 10
0.84120275
 20
-0.29473419
  0
VERTEX
  8
0
 10
0.83498375
 20
-0.31670560
  0
VERTEX
  8
0
 10
0.82781539
 20
-0.33952293
  0
VERTEX
  8
0
 10
0.81938124
 20
-0.36285631
  0
VERTEX
  8
0
 10
0.80936484
 20
-0.38637585
  0
VERTEX
  8
0
 10
0.79744974
 20
-0.40975169
  0
VERTEX
  8
0
 10
0.78331950
 20
-0.43265393
  0
VERTEX
  8
0
 10
0.76665766
 20
-0.45475271
  0
VERTEX
  8
0
 10
0.75727850
 20
-0.46539771
  0
VERTEX
  8
0
 10
0.74714778
 20
-0.47571814
  0
VERTEX
  8
0
 10
0.73622593
 20
-0.48567276
  0
VERTEX
  8
0
 10
0.72447340
 20
-0.49522034
  0
VERTEX
  8
0
 10
0.71185064
 20
-0.50431964
  0
VERTEX
  8
0
 10
0.69831808
 20
-0.51292944
  0
VERTEX
  8
0
 10
0.67112842
 20
-0.51771942
  0
VERTEX
  8
0
 10
0.64413602
 20
-0.52133272
  0
VERTEX
  8
0
 10
0.61732920
 20
-0.52383247
  0
VERTEX
  8
0
 10
0.59069625
 20
-0.52528177
  0
VERTEX
  8
0
 10
0.56422547
 20
-0.52574376
  0
VERTEX
  8
0
 10
0.53790517
 20
-0.52528154
  0
VERTEX
  8
0
 10
0.51172366
 20
-0.52395824
  0
VERTEX
  8
0
 10
0.48566922
 20
-0.52183697
  0
VERTEX
  8
0
 10
0.43389479
 20
-0.51545302
  0
VERTEX
  8
0
 10
0.38248831
 20
-0.50663463
  0
VERTEX
  8
0
 10
0.33135618
 20
-0.49588675
  0
VERTEX
  8
0
 10
0.28040481
 20
-0.48371433
  0
VERTEX
  8
0
 10
0.17867005
 20
-0.45711568
  0
VERTEX
  8
0
 10
0.12769947
 20
-0.44369934
  0
VERTEX
  8
0
 10
0.07653532
 20
-0.43087826
  0
VERTEX
  8
0
 10
0.02508399
 20
-0.41915738
  0
VERTEX
  8
0
 10
-0.02674808
 20
-0.40904166
  0
VERTEX
  8
0
 10
-0.07905449
 20
-0.40103605
  0
VERTEX
  8
0
 10
-0.10541482
 20
-0.39798233
  0
VERTEX
  8
0
 10
-0.13192883
 20
-0.39564549
  0
SEQEND
  0
POLYLINE
  8
Default_Layer
 66
   1
 39
0.000000
 70
    1
  0
VERTEX
  8
0
 10
0.40253619
 20
-0.82980187
  0
VERTEX
  8
0
 10
0.38978692
 20
-0.84012375
  0
VERTEX
  8
0
 10
0.37680071
 20
-0.84938007
  0
VERTEX
  8
0
 10
0.36358987
 20
-0.85761422
  0
VERTEX
  8
0
 10
0.35016670
 20
-0.86486956
  0
VERTEX
  8
0
 10
0.33654348
 20
-0.87118951
  0
VERTEX
  8
0
 10
0.32273251
 20
-0.87661743
  0
VERTEX
  8
0
 10
0.30874610
 20
-0.88119672
  0
VERTEX
  8
0
 10
0.29459653
 20
-0.88497076
  0
VERTEX
  8
0
 10
0.26585711
 20
-0.89027664
  0
VERTEX
  8
0
 10
0.23661263
 20
-0.89288216
  0
VERTEX
  8
0
 10
0.20696144
 20
-0.89313440
  0
VERTEX
  8
0
 10
0.17700193
 20
-0.89138047
  0
VERTEX
  8
0
 10
0.14683246
 20
-0.88796745
  0
VERTEX
  8
0
 10
0.11655139
 20
-0.88324242
  0
VERTEX
  8
0
 10
0.05604793
 20
-0.87124471
  0
VERTEX
  8
0
 10
-0.00372151
 20
-0.85816406
  0
VERTEX
  8
0
 10
-0.03308505
 20
-0.85208535
  0
VERTEX
  8
0
 10
-0.06196998
 20
-0.84677717
  0
VERTEX
  8
0
 10
-0.10151880
 20
-0.83429125
  0
VERTEX
  8
0
 10
-0.14195510
 20
-0.82395472
  0
VERTEX
  8
0
 10
-0.18303665
 20
-0.81516302
  0
VERTEX
  8
0
 10
-0.22452122
 20
-0.80731159
  0
VERTEX
  8
0
 10
-0.30773045
 20
-0.79201134
  0
VERTEX
  8
0
 10
-0.34897063
 20
-0.78335340
  0
VERTEX
  8
0
 10
-0.38964488
 20
-0.77321750
  0
VERTEX
  8
0
 10
-0.46689341
 20
-0.75990559
  0
VERTEX
  8
0
 10
-0.54390773
 20
-0.74537474
  0
VERTEX
  8
0
 10
-0.62103119
 20
-0.73083173
  0
VERTEX
  8
0
 10
-0.69860716
 20
-0.71748337
  0
VERTEX
  8
0
 10
-0.73767213
 20
-0.71163431
  0
VERTEX
  8
0
 10
-0.77697900
 20
-0.70653645
  0
VERTEX
  8
0
 10
-0.81657066
 20
-0.70234065
  0
VERTEX
  8
0
 10
-0.85649006
 20
-0.69919775
  0
VERTEX
  8
0
 10
-0.89678010
 20
-0.69725862
  0
VERTEX
  8
0
 10
-0.93748371
 20
-0.69667409
  0
VERTEX
  8
0
 10
-0.97864381
 20
-0.69759501
  0
VERTEX
  8
0
 10
-1.02030331
 20
-0.70017224
  0
VERTEX
  8
0
 10
-1.02256224
 20
-0.69798015
  0
VERTEX
  8
0
 10
-1.02525023
 20
-0.69762898
  0
VERTEX
  8
0
 10
-1.02790818
 20
-0.69726343
  0
VERTEX
  8
0
 10
-1.03007698
 20
-0.69502820
  0
VERTEX
  8
0
 10
-1.01471423
 20
-0.68051433
  0
VERTEX
  8
0
 10
-0.99887148
 20
-0.66708750
  0
VERTEX
  8
0
 10
-0.98258622
 20
-0.65463553
  0
VERTEX
  8
0
 10
-0.96589594
 20
-0.64304620
  0
VERTEX
  8
0
 10
-0.94883814
 20
-0.63220731
  0
VERTEX
  8
0
 10
-0.93145031
 20
-0.62200667
  0
VERTEX
  8
0
 10
-0.89583456
 20
-0.60307130
  0
VERTEX
  8
0
 10
-0.85934865
 20
-0.58534248
  0
VERTEX
  8
0
 10
-0.82229254
 20
-0.56792260
  0
VERTEX
  8
0
 10
-0.78496619
 20
-0.54991402
  0
VERTEX
  8
0
 10
-0.74766957
 20
-0.53041915
  0
VERTEX
  8
0
 10
-0.71856575
 20
-0.51741205
  0
VERTEX
  8
0
 10
-0.68892081
 20
-0.50589716
  0
VERTEX
  8
0
 10
-0.65878139
 20
-0.49562703
  0
VERTEX
  8
0
 10
-0.62819411
 20
-0.48635423
  0
VERTEX
  8
0
 10
-0.56586254
 20
-0.46981084
  0
VERTEX
  8
0
 10
-0.50229920
 20
-0.45428746
  0
VERTEX
  8
0
 10
-0.43997547
 20
-0.45807804
  0
VERTEX
  8
0
 10
-0.37815834
 20
-0.46294960
  0
VERTEX
  8
0
 10
-0.31680680
 20
-0.46883961
  0
VERTEX
  8
0
 10
-0.25587980
 20
-0.47568554
  0
VERTEX
  8
0
 10
-0.19533634
 20
-0.48342486
  0
VERTEX
  8
0
 10
-0.13513537
 20
-0.49199504
  0
VERTEX
  8
0
 10
-0.07523587
 20
-0.50133355
  0
VERTEX
  8
0
 10
-0.01559681
 20
-0.51137785
  0
VERTEX
  8
0
 10
0.10306408
 20
-0.53333372
  0
VERTEX
  8
0
 10
0.22117552
 20
-0.55736241
  0
VERTEX
  8
0
 10
0.33906573
 20
-0.58296367
  0
VERTEX
  8
0
 10
0.45706294
 20
-0.60963726
  0
VERTEX
  8
0
 10
0.46616238
 20
-0.61248339
  0
VERTEX
  8
0
 10
0.47414112
 20
-0.61637407
  0
VERTEX
  8
0
 10
0.48115981
 20
-0.62120715
  0
VERTEX
  8
0
 10
0.48737906
 20
-0.62688049
  0
VERTEX
  8
0
 10
0.49295952
 20
-0.63329194
  0
VERTEX
  8
0
 10
0.49806182
 20
-0.64033936
  0
VERTEX
  8
0
 10
0.50747446
 20
-0.65593355
  0
VERTEX
  8
0
 10
0.50879529
 20
-0.67139020
  0
VERTEX
  8
0
 10
0.50830392
 20
-0.68569774
  0
VERTEX
  8
0
 10
0.50616355
 20
-0.69897128
  0
VERTEX
  8
0
 10
0.50253738
 20
-0.71132592
  0
VERTEX
  8
0
 10
0.49758861
 20
-0.72287674
  0
VERTEX
  8
0
 10
0.49148045
 20
-0.73373885
  0
VERTEX
  8
0
 10
0.48437609
 20
-0.74402734
  0
VERTEX
  8
0
 10
0.47643874
 20
-0.75385731
  0
VERTEX
  8
0
 10
0.45871785
 20
-0.77260207
  0
VERTEX
  8
0
 10
0.43962339
 20
-0.79089390
  0
VERTEX
  8
0
 10
0.42046097
 20
-0.80965358
  0
VERTEX
  8
0
 10
0.40253619
 20
-0.82980187
  0
SEQEND
  0
POLYLINE
  8
Default_Layer
 66
   1
 39
0.000000
 70
    1
  0
VERTEX
  8
0
 10
0.98278311
 20
0.23501295
  0
VERTEX
  8
0
 10
0.91338024
 20
0.21651999
  0
VERTEX
  8
0
 10
0.87761625
 20
0.20803518
  0
VERTEX
  8
0
 10
0.84126624
 20
0.20021083
  0
VERTEX
  8
0
 10
0.80442199
 20
0.19316146
  0
VERTEX
  8
0
 10
0.76717528
 20
0.18700159
  0
VERTEX
  8
0
 10
0.72961788
 20
0.18184574
  0
VERTEX
  8
0
 10
0.69184155
 20
0.17780842
  0
VERTEX
  8
0
 10
0.65393807
 20
0.17500415
  0
VERTEX
  8
0
 10
0.61599922
 20
0.17354745
  0
VERTEX
  8
0
 10
0.57811677
 20
0.17355283
  0
VERTEX
  8
0
 10
0.54038249
 20
0.17513482
  0
VERTEX
  8
0
 10
0.50288815
 20
0.17840792
  0
VERTEX
  8
0
 10
0.46572553
 20
0.18348666
  0
VERTEX
  8
0
 10
0.42898640
 20
0.19048556
  0
VERTEX
  8
0
 10
0.39276253
 20
0.19951912
  0
VERTEX
  8
0
 10
0.35990862
 20
0.20352236
  0
VERTEX
  8
0
 10
0.32750295
 20
0.20824172
  0
VERTEX
  8
0
 10
0.29551378
 20
0.21370257
  0
VERTEX
  8
0
 10
0.26390938
 20
0.21993029
  0
VERTEX
  8
0
 10
0.23265802
 20
0.22695022
  0
VERTEX
  8
0
 10
0.20172798
 20
0.23478776
  0
VERTEX
  8
0
 10
0.17108752
 20
0.24346825
  0
VERTEX
  8
0
 10
0.14070492
 20
0.25301706
  0
VERTEX
  8
0
 10
0.13771285
 20
0.25889905
  0
VERTEX
  8
0
 10
0.13597478
 20
0.26497252
  0
VERTEX
  8
0
 10
0.13537088
 20
0.27120567
  0
VERTEX
  8
0
 10
0.13578128
 20
0.27756671
  0
VERTEX
  8
0
 10
0.13708615
 20
0.28402382
  0
VERTEX
  8
0
 10
0.13916565
 20
0.29054520
  0
VERTEX
  8
0
 10
0.14516911
 20
0.30365355
  0
VERTEX
  8
0
 10
0.15283292
 20
0.31663733
  0
VERTEX
  8
0
 10
0.16119830
 20
0.32924211
  0
VERTEX
  8
0
 10
0.16930650
 20
0.34121344
  0
VERTEX
  8
0
 10
0.17619874
 20
0.35229690
  0
VERTEX
  8
0
 10
0.19227065
 20
0.37190201
  0
VERTEX
  8
0
 10
0.20762818
 20
0.39209957
  0
VERTEX
  8
0
 10
0.23700607
 20
0.43342157
  0
VERTEX
  8
0
 10
0.26594428
 20
0.47456189
  0
VERTEX
  8
0
 10
0.28075223
 20
0.49453236
  0
VERTEX
  8
0
 10
0.29605471
 20
0.51381953
  0
VERTEX
  8
0
 10
0.31049659
 20
0.51187568
  0
VERTEX
  8
0
 10
0.32577560
 20
0.50826006
  0
VERTEX
  8
0
 10
0.34085466
 20
0.50305174
  0
VERTEX
  8
0
 10
0.35469669
 20
0.49632982
  0
VERTEX
  8
0
 10
0.38053090
 20
0.49091907
  0
VERTEX
  8
0
 10
0.40690763
 20
0.48633164
  0
VERTEX
  8
0
 10
0.43377916
 20
0.48254852
  0
VERTEX
  8
0
 10
0.46109775
 20
0.47955070
  0
VERTEX
  8
0
 10
0.48881567
 20
0.47731918
  0
VERTEX
  8
0
 10
0.51688521
 20
0.47583494
  0
VERTEX
  8
0
 10
0.57388818
 20
0.47503231
  0
VERTEX
  8
0
 10
0.63172485
 20
0.47699075
  0
VERTEX
  8
0
 10
0.69001339
 20
0.48155821
  0
VERTEX
  8
0
 10
0.74837198
 20
0.48858263
  0
VERTEX
  8
0
 10
0.80641879
 20
0.49791195
  0
VERTEX
  8
0
 10
0.86377199
 20
0.50939411
  0
VERTEX
  8
0
 10
0.92004976
 20
0.52287707
  0
VERTEX
  8
0
 10
0.97487027
 20
0.53820877
  0
VERTEX
  8
0
 10
1.02785171
 20
0.55523714
  0
VERTEX
  8
0
 10
1.07861225
 20
0.57381014
  0
VERTEX
  8
0
 10
1.12677005
 20
0.59377571
  0
VERTEX
  8
0
 10
1.17194331
 20
0.61498179
  0
VERTEX
  8
0
 10
1.21375018
 20
0.63727632
  0
VERTEX
  8
0
 10
1.21503850
 20
0.63402043
  0
VERTEX
  8
0
 10
1.21571182
 20
0.62916082
  0
VERTEX
  8
0
 10
1.21523998
 20
0.61503152
  0
VERTEX
  8
0
 10
1.21238763
 20
0.59569064
  0
VERTEX
  8
0
 10
1.20720775
 20
0.57194039
  0
VERTEX
  8
0
 10
1.19975330
 20
0.54458300
  0
VERTEX
  8
0
 10
1.19007726
 20
0.51442067
  0
VERTEX
  8
0
 10
1.17823260
 20
0.48225561
  0
VERTEX
  8
0
 10
1.16427230
 20
0.44889005
  0
VERTEX
  8
0
 10
1.14824931
 20
0.41512619
  0
VERTEX
  8
0
 10
1.13021662
 20
0.38176625
  0
VERTEX
  8
0
 10
1.11022720
 20
0.34961245
  0
VERTEX
  8
0
 10
1.09951527
 20
0.33423854
  0
VERTEX
  8
0
 10
1.08833402
 20
0.31946699
  0
VERTEX
  8
0
 10
1.07669007
 20
0.30539809
  0
VERTEX
  8
0
 10
1.06459004
 20
0.29213210
  0
VERTEX
  8
0
 10
1.05204056
 20
0.27976931
  0
VERTEX
  8
0
 10
1.03904825
 20
0.26840999
  0
VERTEX
  8
0
 10
1.02561973
 20
0.25815441
  0
VERTEX
  8
0
 10
1.01176162
 20
0.24910287
  0
VERTEX
  8
0
 10
0.99748053
 20
0.24135562
  0
VERTEX
  8
0
 10
0.98278311
 20
0.23501295
  0
SEQEND
  0
POLYLINE
  8
Default_Layer
 66
   1
 39
0.000000
 70
    1
  0
VERTEX
  8
0
 10
1.20912055
 20
0.78130925
  0
VERTEX
  8
0
 10
1.18948056
 20
0.75768689
  0
VERTEX
  8
0
 10
1.16828798
 20
0.73623009
  0
VERTEX
  8
0
 10
1.14567700
 20
0.71678320
  0
VERTEX
  8
0
 10
1.12178179
 20
0.69919060
  0
VERTEX
  8
0
 10
1.09673652
 20
0.68329665
  0
VERTEX
  8
0
 10
1.07067538
 20
0.66894571
  0
VERTEX
  8
0
 10
1.04373253
 20
0.65598215
  0
VERTEX
  8
0
 10
1.01604215
 20
0.64425033
  0
VERTEX
  8
0
 10
0.98773841
 20
0.63359462
  0
VERTEX
  8
0
 10
0.95895550
 20
0.62385939
  0
VERTEX
  8
0
 10
0.90048883
 20
0.60652779
  0
VERTEX
  8
0
 10
0.84171554
 20
0.59101047
  0
VERTEX
  8
0
 10
0.78370903
 20
0.57606233
  0
VERTEX
  8
0
 10
0.68066335
 20
0.56420600
  0
VERTEX
  8
0
 10
0.62859550
 20
0.55931797
  0
VERTEX
  8
0
 10
0.57651127
 20
0.55594370
  0
VERTEX
  8
0
 10
0.52467090
 20
0.55469846
  0
VERTEX
  8
0
 10
0.49892348
 20
0.55506649
  0
VERTEX
  8
0
 10
0.47333461
 20
0.55619750
  0
VERTEX
  8
0
 10
0.44793682
 20
0.55816840
  0
VERTEX
  8
0
 10
0.42276264
 20
0.56105610
  0
VERTEX
  8
0
 10
0.39784459
 20
0.56493749
  0
VERTEX
  8
0
 10
0.37321520
 20
0.56988949
  0
VERTEX
  8
0
 10
0.36901637
 20
0.57290838
  0
VERTEX
  8
0
 10
0.36557149
 20
0.57630457
  0
VERTEX
  8
0
 10
0.35974067
 20
0.58296172
  0
VERTEX
  8
0
 10
0.35675326
 20
0.58558908
  0
VERTEX
  8
0
 10
0.35331687
 20
0.58732657
  0
VERTEX
  8
0
 10
0.34913077
 20
0.58785741
  0
VERTEX
  8
0
 10
0.34389422
 20
0.58686480
  0
VERTEX
  8
0
 10
0.34722458
 20
0.61271240
  0
VERTEX
  8
0
 10
0.35250719
 20
0.63880916
  0
VERTEX
  8
0
 10
0.35926386
 20
0.66506742
  0
VERTEX
  8
0
 10
0.36701639
 20
0.69139949
  0
VERTEX
  8
0
 10
0.38359618
 20
0.74393441
  0
VERTEX
  8
0
 10
0.39146705
 20
0.76996191
  0
VERTEX
  8
0
 10
0.39842097
 20
0.79571254
  0
VERTEX
  8
0
 10
0.40863124
 20
0.82008885
  0
VERTEX
  8
0
 10
0.41733183
 20
0.84450510
  0
VERTEX
  8
0
 10
0.42486614
 20
0.86902307
  0
VERTEX
  8
0
 10
0.43157758
 20
0.89370454
  0
VERTEX
  8
0
 10
0.44390552
 20
0.94380510
  0
VERTEX
  8
0
 10
0.45706294
 20
0.99530102
  0
VERTEX
  8
0
 10
0.47990723
 20
0.99081091
  0
VERTEX
  8
0
 10
0.50322539
 20
0.98720022
  0
VERTEX
  8
0
 10
0.52698155
 20
0.98443809
  0
VERTEX
  8
0
 10
0.55113980
 20
0.98249363
  0
VERTEX
  8
0
 10
0.57566428
 20
0.98133599
  0
VERTEX
  8
0
 10
0.60051909
 20
0.98093430
  0
VERTEX
  8
0
 10
0.65107615
 20
0.98227529
  0
VERTEX
  8
0
 10
0.70252392
 20
0.98626964
  0
VERTEX
  8
0
 10
0.75457529
 20
0.99267043
  0
VERTEX
  8
0
 10
0.80694320
 20
1.00123070
  0
VERTEX
  8
0
 10
0.85934054
 20
1.01170351
  0
VERTEX
  8
0
 10
0.91148024
 20
1.02384192
  0
VERTEX
  8
0
 10
0.96307520
 20
1.03739899
  0
VERTEX
  8
0
 10
1.01383835
 20
1.05212776
  0
VERTEX
  8
0
 10
1.06348259
 20
1.06778131
  0
VERTEX
  8
0
 10
1.11172084
 20
1.08411268
  0
VERTEX
  8
0
 10
1.15826601
 20
1.10087493
  0
VERTEX
  8
0
 10
1.20283102
 20
1.11782112
  0
VERTEX
  8
0
 10
1.24512878
 20
1.13470431
  0
VERTEX
  8
0
 10
1.24719159
 20
1.13265532
  0
VERTEX
  8
0
 10
1.24928676
 20
1.12912896
  0
VERTEX
  8
0
 10
1.25347893
 20
1.11800290
  0
VERTEX
  8
0
 10
1.25751489
 20
1.10204380
  0
VERTEX
  8
0
 10
1.26120419
 20
1.08196933
  0
VERTEX
  8
0
 10
1.26435641
 20
1.05849717
  0
VERTEX
  8
0
 10
1.26678112
 20
1.03234498
  0
VERTEX
  8
0
 10
1.26828789
 20
1.00423043
  0
VERTEX
  8
0
 10
1.26868628
 20
0.97487121
  0
VERTEX
  8
0
 10
1.26778588
 20
0.94498496
  0
VERTEX
  8
0
 10
1.26539624
 20
0.91528938
  0
VERTEX
  8
0
 10
1.26132695
 20
0.88650212
  0
VERTEX
  8
0
 10
1.25538757
 20
0.85934087
  0
VERTEX
  8
0
 10
1.24738766
 20
0.83452328
  0
VERTEX
  8
0
 10
1.24255551
 20
0.82321764
  0
VERTEX
  8
0
 10
1.23713682
 20
0.81276703
  0
VERTEX
  8
0
 10
1.23110778
 20
0.80326119
  0
VERTEX
  8
0
 10
1.22444459
 20
0.79478980
  0
VERTEX
  8
0
 10
1.21712345
 20
0.78744258
  0
VERTEX
  8
0
 10
1.20912055
 20
0.78130925
  0
SEQEND
  0
POLYLINE
  8
Default_Layer
 66
   1
 39
0.000000
 70
    1
  0
VERTEX
  8
0
 10
1.22609586
 20
1.21135040
  0
VERTEX
  8
0
 10
1.20329455
 20
1.19255228
  0
VERTEX
  8
0
 10
1.17941879
 20
1.17584937
  0
VERTEX
  8
0
 10
1.15456857
 20
1.16104868
  0
VERTEX
  8
0
 10
1.12884391
 20
1.14795727
  0
VERTEX
  8
0
 10
1.10234478
 20
1.13638216
  0
VERTEX
  8
0
 10
1.07517118
 20
1.12613037
  0
VERTEX
  8
0
 10
1.04742312
 20
1.11700896
  0
VERTEX
  8
0
 10
1.01920058
 20
1.10882494
  0
VERTEX
  8
0
 10
0.96173206
 20
1.09449722
  0
VERTEX
  8
0
 10
0.90356559
 20
1.08160348
  0
VERTEX
  8
0
 10
0.84550114
 20
1.06859998
  0
VERTEX
  8
0
 10
0.78833866
 20
1.05394299
  0
VERTEX
  8
0
 10
0.72948347
 20
1.04694078
  0
VERTEX
  8
0
 10
0.66967592
 20
1.04144940
  0
VERTEX
  8
0
 10
0.63928506
 20
1.03958482
  0
VERTEX
  8
0
 10
0.60850016
 20
1.03847539
  0
VERTEX
  8
0
 10
0.57726923
 20
1.03824694
  0
VERTEX
  8
0
 10
0.54554031
 20
1.03902530
  0
VERTEX
  8
0
 10
0.57585325
 20
1.05510472
  0
VERTEX
  8
0
 10
0.60724208
 20
1.07319068
  0
VERTEX
  8
0
 10
0.63812694
 20
1.09358368
  0
VERTEX
  8
0
 10
0.65288667
 20
1.10473922
  0
VERTEX
  8
0
 10
0.66692797
 20
1.11658420
  0
VERTEX
  8
0
 10
0.68005334
 20
1.12915619
  0
VERTEX
  8
0
 10
0.69206532
 20
1.14249274
  0
VERTEX
  8
0
 10
0.70276640
 20
1.15663142
  0
VERTEX
  8
0
 10
0.71195912
 20
1.17160979
  0
VERTEX
  8
0
 10
0.71944599
 20
1.18746541
  0
VERTEX
  8
0
 10
0.72502953
 20
1.20423584
  0
VERTEX
  8
0
 10
0.72851226
 20
1.22195865
  0
VERTEX
  8
0
 10
0.72969669
 20
1.24067139
  0
VERTEX
  8
0
 10
0.76541563
 20
1.25412192
  0
VERTEX
  8
0
 10
0.81435419
 20
1.27370520
  0
VERTEX
  8
0
 10
0.93333227
 20
1.32285581
  0
VERTEX
  8
0
 10
1.04951519
 20
1.37129487
  0
VERTEX
  8
0
 10
1.12578722
 20
1.40219402
  0
VERTEX
  8
0
 10
1.13845563
 20
1.41661222
  0
VERTEX
  8
0
 10
1.15228131
 20
1.42982939
  0
VERTEX
  8
0
 10
1.16682323
 20
1.44213158
  0
VERTEX
  8
0
 10
1.18164038
 20
1.45380489
  0
VERTEX
  8
0
 10
1.21033624
 20
1.47640911
  0
VERTEX
  8
0
 10
1.22333292
 20
1.48791218
  0
VERTEX
  8
0
 10
1.23484072
 20
1.49993065
  0
VERTEX
  8
0
 10
1.24193509
 20
1.48334661
  0
VERTEX
  8
0
 10
1.24774446
 20
1.46618539
  0
VERTEX
  8
0
 10
1.25232587
 20
1.44852919
  0
VERTEX
  8
0
 10
1.25573638
 20
1.43046019
  0
VERTEX
  8
0
 10
1.25803302
 20
1.41206057
  0
VERTEX
  8
0
 10
1.25927284
 20
1.39341254
  0
VERTEX
  8
0
 10
1.25951289
 20
1.37459827
  0
VERTEX
  8
0
 10
1.25881021
 20
1.35569995
  0
VERTEX
  8
0
 10
1.25722184
 20
1.33679978
  0
VERTEX
  8
0
 10
1.25480483
 20
1.31797994
  0
VERTEX
  8
0
 10
1.25161623
 20
1.29932262
  0
VERTEX
  8
0
 10
1.24771308
 20
1.28091001
  0
VERTEX
  8
0
 10
1.23799130
 20
1.24514766
  0
VERTEX
  8
0
 10
1.22609586
 20
1.21135040
  0
SEQEND
  0
POLYLINE
  8
Default_Layer
 66
   1
 39
0.000000
 70
    1
  0
VERTEX
  8
0
 10
0.78833866
 20
1.37030102
  0
VERTEX
  8
0
 10
0.77452362
 20
1.37056113
  0
VERTEX
  8
0
 10
0.76051797
 20
1.37022773
  0
VERTEX
  8
0
 10
0.74666237
 20
1.37057398
  0
VERTEX
  8
0
 10
0.73329751
 20
1.37287303
  0
VERTEX
  8
0
 10
0.73620086
 20
1.37978908
  0
VERTEX
  8
0
 10
0.73845839
 20
1.38722377
  0
VERTEX
  8
0
 10
0.74133856
 20
1.40342823
  0
VERTEX
  8
0
 10
0.74254318
 20
1.42104473
  0
VERTEX
  8
0
 10
0.74267743
 20
1.43963156
  0
VERTEX
  8
0
 10
0.74215557
 20
1.47794945
  0
VERTEX
  8
0
 10
0.74270980
 20
1.49679712
  0
VERTEX
  8
0
 10
0.74461438
 20
1.51484834
  0
VERTEX
  8
0
 10
0.74713249
 20
1.51925512
  0
VERTEX
  8
0
 10
0.74886675
 20
1.52423652
  0
VERTEX
  8
0
 10
0.75062136
 20
1.53544879
  0
VERTEX
  8
0
 10
0.75173815
 20
1.55955028
  0
VERTEX
  8
0
 10
0.75365077
 20
1.57054182
  0
VERTEX
  8
0
 10
0.75550355
 20
1.57535767
  0
VERTEX
  8
0
 10
0.75816651
 20
1.57956211
  0
VERTEX
  8
0
 10
0.76179905
 20
1.58303652
  0
VERTEX
  8
0
 10
0.76656058
 20
1.58566232
  0
VERTEX
  8
0
 10
0.77261050
 20
1.58732088
  0
VERTEX
  8
0
 10
0.78010821
 20
1.58789361
  0
VERTEX
  8
0
 10
0.82579717
 20
1.59882982
  0
VERTEX
  8
0
 10
0.87044023
 20
1.61225366
  0
VERTEX
  8
0
 10
0.91412351
 20
1.62802289
  0
VERTEX
  8
0
 10
0.95693313
 20
1.64599524
  0
VERTEX
  8
0
 10
0.99895523
 20
1.66602844
  0
VERTEX
  8
0
 10
1.04027592
 20
1.68798024
  0
VERTEX
  8
0
 10
1.08098133
 20
1.71170837
  0
VERTEX
  8
0
 10
1.12115759
 20
1.73707056
  0
VERTEX
  8
0
 10
1.13640703
 20
1.75320023
  0
VERTEX
  8
0
 10
1.15034768
 20
1.76991244
  0
VERTEX
  8
0
 10
1.16435377
 20
1.78640742
  0
VERTEX
  8
0
 10
1.17979957
 20
1.80188538
  0
VERTEX
  8
0
 10
1.19337490
 20
1.77686296
  0
VERTEX
  8
0
 10
1.20545523
 20
1.74842194
  0
VERTEX
  8
0
 10
1.21551929
 20
1.71769429
  0
VERTEX
  8
0
 10
1.22304581
 20
1.68581197
  0
VERTEX
  8
0
 10
1.22569459
 20
1.66979154
  0
VERTEX
  8
0
 10
1.22751351
 20
1.65390692
  0
VERTEX
  8
0
 10
1.22843741
 20
1.63829962
  0
VERTEX
  8
0
 10
1.22840113
 20
1.62311112
  0
VERTEX
  8
0
 10
1.22733951
 20
1.60848293
  0
VERTEX
  8
0
 10
1.22518738
 20
1.59455653
  0
VERTEX
  8
0
 10
1.22187960
 20
1.58147341
  0
VERTEX
  8
0
 10
1.21735101
 20
1.56937509
  0
VERTEX
  8
0
 10
1.17155492
 20
1.53487428
  0
VERTEX
  8
0
 10
1.14764370
 20
1.51824546
  0
VERTEX
  8
0
 10
1.12309276
 20
1.50211488
  0
VERTEX
  8
0
 10
1.09792889
 20
1.48654543
  0
VERTEX
  8
0
 10
1.07217891
 20
1.47159998
  0
VERTEX
  8
0
 10
1.04586960
 20
1.45734144
  0
VERTEX
  8
0
 10
1.01902778
 20
1.44383267
  0
VERTEX
  8
0
 10
0.99168024
 20
1.43113657
  0
VERTEX
  8
0
 10
0.96385379
 20
1.41931603
  0
VERTEX
  8
0
 10
0.93557522
 20
1.40843393
  0
VERTEX
  8
0
 10
0.90687133
 20
1.39855315
  0
VERTEX
  8
0
 10
0.87776893
 20
1.38973658
  0
VERTEX
  8
0
 10
0.84829482
 20
1.38204712
  0
VERTEX
  8
0
 10
0.81847580
 20
1.37554763
  0
VERTEX
  8
0
 10
0.78833866
 20
1.37030102
  0
SEQEND
  0
POLYLINE
  8
Default_Layer
 66
   1
 39
0.000000
 70
    1
  0
VERTEX
  8
0
 10
0.83000533
 20
1.71392241
  0
VERTEX
  8
0
 10
0.83830072
 20
1.75116845
  0
VERTEX
  8
0
 10
0.84842326
 20
1.78673136
  0
VERTEX
  8
0
 10
0.86039651
 20
1.82164082
  0
VERTEX
  8
0
 10
0.87424401
 20
1.85692653
  0
VERTEX
  8
0
 10
0.94854432
 20
1.88099351
  0
VERTEX
  8
0
 10
0.98562506
 20
1.89434918
  0
VERTEX
  8
0
 10
1.02187763
 20
1.90955905
  0
VERTEX
  8
0
 10
1.03951009
 20
1.91808730
  0
VERTEX
  8
0
 10
1.05671560
 20
1.92735267
  0
VERTEX
  8
0
 10
1.07342086
 20
1.93744636
  0
VERTEX
  8
0
 10
1.08955256
 20
1.94845957
  0
VERTEX
  8
0
 10
1.10503740
 20
1.96048350
  0
VERTEX
  8
0
 10
1.11980209
 20
1.97360932
  0
VERTEX
  8
0
 10
1.13377330
 20
1.98792825
  0
VERTEX
  8
0
 10
1.14687776
 20
2.00353147
  0
VERTEX
  8
0
 10
1.15234789
 20
1.99687398
  0
VERTEX
  8
0
 10
1.15698239
 20
1.98977830
  0
VERTEX
  8
0
 10
1.16085639
 20
1.98229246
  0
VERTEX
  8
0
 10
1.16404502
 20
1.97446451
  0
VERTEX
  8
0
 10
1.16866671
 20
1.95797440
  0
VERTEX
  8
0
 10
1.17144853
 20
1.94069228
  0
VERTEX
  8
0
 10
1.17299157
 20
1.92300245
  0
VERTEX
  8
0
 10
1.17389690
 20
1.90528923
  0
VERTEX
  8
0
 10
1.17476560
 20
1.88793692
  0
VERTEX
  8
0
 10
1.17619874
 20
1.87132982
  0
VERTEX
  8
0
 10
1.13710014
 20
1.84426015
  0
VERTEX
  8
0
 10
1.09692976
 20
1.81895296
  0
VERTEX
  8
0
 10
1.05562696
 20
1.79558325
  0
VERTEX
  8
0
 10
1.01313114
 20
1.77432604
  0
VERTEX
  8
0
 10
0.96938169
 20
1.75535634
  0
VERTEX
  8
0
 10
0.92431798
 20
1.73884917
  0
VERTEX
  8
0
 10
0.90127433
 20
1.73157371
  0
VERTEX
  8
0
 10
0.87787940
 20
1.72497952
  0
VERTEX
  8
0
 10
0.85412559
 20
1.71908846
  0
VERTEX
  8
0
 10
0.83000533
 20
1.71392241
  0
SEQEND
  0
POLYLINE
  8
Default_Layer
 66
   1
 39
0.000000
 70
    1
  0
VERTEX
  8
0
 10
0.95603413
 20
2.00095945
  0
VERTEX
  8
0
 10
0.95376815
 20
2.02461943
  0
VERTEX
  8
0
 10
0.94913574
 20
2.06519385
  0
VERTEX
  8
0
 10
0.94525191
 20
2.11030230
  0
VERTEX
  8
0
 10
0.94456415
 20
2.13068791
  0
VERTEX
  8
0
 10
0.94523167
 20
2.14756439
  0
VERTEX
  8
0
 10
0.96353120
 20
2.15777056
  0
VERTEX
  8
0
 10
0.98467636
 20
2.17158612
  0
VERTEX
  8
0
 10
1.02982719
 20
2.20346134
  0
VERTEX
  8
0
 10
1.05099470
 20
2.21822893
  0
VERTEX
  8
0
 10
1.06933149
 20
2.23002182
  0
VERTEX
  8
0
 10
1.08341849
 20
2.23719397
  0
VERTEX
  8
0
 10
1.08842485
 20
2.23853289
  0
VERTEX
  8
0
 10
1.09183660
 20
2.23809937
  0
VERTEX
  8
0
 10
1.10003872
 20
2.20454746
  0
VERTEX
  8
0
 10
1.10865897
 20
2.17109044
  0
VERTEX
  8
0
 10
1.11237613
 20
2.15414807
  0
VERTEX
  8
0
 10
1.11529808
 20
2.13693007
  0
VERTEX
  8
0
 10
1.11712493
 20
2.11933667
  0
VERTEX
  8
0
 10
1.11755677
 20
2.10126809
  0
VERTEX
  8
0
 10
1.10156896
 20
2.08408240
  0
VERTEX
  8
0
 10
1.08412734
 20
2.06756753
  0
VERTEX
  8
0
 10
1.06535847
 20
2.05205194
  0
VERTEX
  8
0
 10
1.04538887
 20
2.03786410
  0
VERTEX
  8
0
 10
1.02434510
 20
2.02533247
  0
VERTEX
  8
0
 10
1.00235369
 20
2.01478551
  0
VERTEX
  8
0
 10
0.97954119
 20
2.00655168
  0
VERTEX
  8
0
 10
0.95603413
 20
2.00095945
  0
SEQEND
  0
POLYLINE
  8
Default_Layer
 66
   1
 39
0.000000
 70
    1
  0
VERTEX
  8
0
 10
-0.59283418
 20
0.87441624
  0
VERTEX
  8
0
 10
-0.59529065
 20
0.90854206
  0
VERTEX
  8
0
 10
-0.59876898
 20
0.94170185
  0
VERTEX
  8
0
 10
-0.60637259
 20
1.00666135
  0
VERTEX
  8
0
 10
-0.60928858
 20
1.03923005
  0
VERTEX
  8
0
 10
-0.61080782
 20
1.07237072
  0
VERTEX
  8
0
 10
-0.61032567
 20
1.10646785
  0
VERTEX
  8
0
 10
-0.60723747
 20
1.14190595
  0
VERTEX
  8
0
 10
-0.60109617
 20
1.13287803
  0
VERTEX
  8
0
 10
-0.59701665
 20
1.12255550
  0
VERTEX
  8
0
 10
-0.59454223
 20
1.11124030
  0
VERTEX
  8
0
 10
-0.59321619
 20
1.09923438
  0
VERTEX
  8
0
 10
-0.59218254
 20
1.07435810
  0
VERTEX
  8
0
 10
-0.59156154
 20
1.06209162
  0
VERTEX
  8
0
 10
-0.59026216
 20
1.05034217
  0
VERTEX
  8
0
 10
-0.58276026
 20
1.01843836
  0
VERTEX
  8
0
 10
-0.57333455
 20
0.98706664
  0
VERTEX
  8
0
 10
-0.56222741
 20
0.95628400
  0
VERTEX
  8
0
 10
-0.54968122
 20
0.92614746
  0
VERTEX
  8
0
 10
-0.53593836
 20
0.89671401
  0
VERTEX
  8
0
 10
-0.52124120
 20
0.86804066
  0
VERTEX
  8
0
 10
-0.50583213
 20
0.84018440
  0
VERTEX
  8
0
 10
-0.48995352
 20
0.81320225
  0
VERTEX
  8
0
 10
-0.49392889
 20
0.80960358
  0
VERTEX
  8
0
 10
-0.49806391
 20
0.80703606
  0
VERTEX
  8
0
 10
-0.50234581
 20
0.80538153
  0
VERTEX
  8
0
 10
-0.50676184
 20
0.80452187
  0
VERTEX
  8
0
 10
-0.51594523
 20
0.80471457
  0
VERTEX
  8
0
 10
-0.52551199
 20
0.80666903
  0
VERTEX
  8
0
 10
-0.54538722
 20
0.81208281
  0
VERTEX
  8
0
 10
-0.55549152
 20
0.81365188
  0
VERTEX
  8
0
 10
-0.56557080
 20
0.81320225
  0
VERTEX
  8
0
 10
-0.57248596
 20
0.81963627
  0
VERTEX
  8
0
 10
-0.57707247
 20
0.82696056
  0
VERTEX
  8
0
 10
-0.57999361
 20
0.83490395
  0
VERTEX
  8
0
 10
-0.58191270
 20
0.84319526
  0
VERTEX
  8
0
 10
-0.58539782
 20
0.85973695
  0
VERTEX
  8
0
 10
-0.58829045
 20
0.86744498
  0
VERTEX
  8
0
 10
-0.59283418
 20
0.87441624
  0
SEQEND
  0
POLYLINE
  8
Default_Layer
 66
   1
 39
0.000000
 70
    1
  0
VERTEX
  8
0
 10
-0.27596175
 20
1.51073311
  0
VERTEX
  8
0
 10
-0.27719475
 20
1.51837059
  0
VERTEX
  8
0
 10
-0.27581481
 20
1.52487442
  0
VERTEX
  8
0
 10
-0.27253890
 20
1.53062055
  0
VERTEX
  8
0
 10
-0.26808399
 20
1.53598496
  0
VERTEX
  8
0
 10
-0.25850502
 20
1.54707246
  0
VERTEX
  8
0
 10
-0.25481488
 20
1.55354748
  0
VERTEX
  8
0
 10
-0.25281360
 20
1.56114464
  0
VERTEX
  8
0
 10
-0.24228328
 20
1.57818402
  0
VERTEX
  8
0
 10
-0.23262524
 20
1.59540783
  0
VERTEX
  8
0
 10
-0.21551837
 20
1.63033518
  0
VERTEX
  8
0
 10
-0.20067763
 20
1.66577960
  0
VERTEX
  8
0
 10
-0.18728769
 20
1.70159401
  0
VERTEX
  8
0
 10
-0.16159877
 20
1.77374441
  0
VERTEX
  8
0
 10
-0.14766910
 20
1.80978622
  0
VERTEX
  8
0
 10
-0.13192883
 20
1.84560966
  0
VERTEX
  8
0
 10
-0.12936864
 20
1.83578099
  0
VERTEX
  8
0
 10
-0.12761289
 20
1.82591885
  0
VERTEX
  8
0
 10
-0.12605534
 20
1.80609607
  0
VERTEX
  8
0
 10
-0.12633738
 20
1.78614514
  0
VERTEX
  8
0
 10
-0.12754024
 20
1.76606986
  0
VERTEX
  8
0
 10
-0.12874511
 20
1.74587403
  0
VERTEX
  8
0
 10
-0.12903321
 20
1.72556148
  0
VERTEX
  8
0
 10
-0.12748576
 20
1.70513601
  0
VERTEX
  8
0
 10
-0.12573658
 20
1.69488212
  0
VERTEX
  8
0
 10
-0.12318397
 20
1.68460143
  0
VERTEX
  8
0
 10
-0.12756883
 20
1.68043679
  0
VERTEX
  8
0
 10
-0.12923993
 20
1.67625285
  0
VERTEX
  8
0
 10
-0.12892775
 20
1.67202041
  0
VERTEX
  8
0
 10
-0.12736275
 20
1.66771022
  0
VERTEX
  8
0
 10
-0.12339618
 20
1.65873974
  0
VERTEX
  8
0
 10
-0.12245555
 20
1.65402099
  0
VERTEX
  8
0
 10
-0.12318397
 20
1.64910760
  0
VERTEX
  8
0
 10
-0.12292050
 20
1.59726266
  0
VERTEX
  8
0
 10
-0.12392584
 20
1.57035764
  0
VERTEX
  8
0
 10
-0.12630104
 20
1.54346129
  0
VERTEX
  8
0
 10
-0.13050498
 20
1.51707140
  0
VERTEX
  8
0
 10
-0.13699651
 20
1.49168575
  0
VERTEX
  8
0
 10
-0.14124352
 20
1.47952508
  0
VERTEX
  8
0
 10
-0.14623449
 20
1.46780213
  0
VERTEX
  8
0
 10
-0.15202680
 20
1.45657913
  0
VERTEX
  8
0
 10
-0.15867780
 20
1.44591830
  0
VERTEX
  8
0
 10
-0.15984964
 20
1.43648590
  0
VERTEX
  8
0
 10
-0.16189236
 20
1.42731458
  0
VERTEX
  8
0
 10
-0.16806648
 20
1.40956221
  0
VERTEX
  8
0
 10
-0.17615218
 20
1.39227525
  0
VERTEX
  8
0
 10
-0.18510148
 20
1.37506774
  0
VERTEX
  8
0
 10
-0.19386638
 20
1.35755374
  0
VERTEX
  8
0
 10
-0.20139891
 20
1.33934731
  0
VERTEX
  8
0
 10
-0.20437554
 20
1.32986383
  0
VERTEX
  8
0
 10
-0.20665108
 20
1.32006250
  0
VERTEX
  8
0
 10
-0.20809454
 20
1.30989509
  0
VERTEX
  8
0
 10
-0.20857492
 20
1.29931336
  0
VERTEX
  8
0
 10
-0.21738378
 20
1.28045451
  0
VERTEX
  8
0
 10
-0.22469540
 20
1.26059305
  0
VERTEX
  8
0
 10
-0.23098287
 20
1.24000333
  0
VERTEX
  8
0
 10
-0.23671928
 20
1.21895970
  0
VERTEX
  8
0
 10
-0.24843126
 20
1.17660811
  0
VERTEX
  8
0
 10
-0.25535302
 20
1.15584886
  0
VERTEX
  8
0
 10
-0.26361607
 20
1.13573311
  0
VERTEX
  8
0
 10
-0.28527301
 20
1.07865956
  0
VERTEX
  8
0
 10
-0.29711138
 20
1.04977596
  0
VERTEX
  8
0
 10
-0.30962617
 20
1.02111711
  0
VERTEX
  8
0
 10
-0.32281974
 20
0.99302497
  0
VERTEX
  8
0
 10
-0.33669445
 20
0.96584151
  0
VERTEX
  8
0
 10
-0.35125266
 20
0.93990870
  0
VERTEX
  8
0
 10
-0.36649673
 20
0.91556851
  0
VERTEX
  8
0
 10
-0.35923819
 20
0.90942736
  0
VERTEX
  8
0
 10
-0.35131025
 20
0.90532517
  0
VERTEX
  8
0
 10
-0.34284445
 20
0.90290849
  0
VERTEX
  8
0
 10
-0.33397237
 20
0.90182387
  0
VERTEX
  8
0
 10
-0.31553555
 20
0.90223707
  0
VERTEX
  8
0
 10
-0.29705229
 20
0.90373723
  0
VERTEX
  8
0
 10
-0.27809543
 20
0.92611373
  0
VERTEX
  8
0
 10
-0.26063880
 20
0.94929417
  0
VERTEX
  8
0
 10
-0.24454431
 20
0.97321744
  0
VERTEX
  8
0
 10
-0.22967385
 20
0.99782241
  0
VERTEX
  8
0
 10
-0.21588932
 20
1.02304794
  0
VERTEX
  8
0
 10
-0.20305264
 20
1.04883293
  0
VERTEX
  8
0
 10
-0.19102569
 20
1.07511623
  0
VERTEX
  8
0
 10
-0.17967038
 20
1.10183673
  0
VERTEX
  8
0
 10
-0.15842228
 20
1.15634482
  0
VERTEX
  8
0
 10
-0.13820354
 20
1.21186818
  0
VERTEX
  8
0
 10
-0.11790938
 20
1.26791782
  0
VERTEX
  8
0
 10
-0.09643500
 20
1.32400472
  0
VERTEX
  8
0
 10
-0.09005394
 20
1.34452370
  0
VERTEX
  8
0
 10
-0.08218633
 20
1.36338611
  0
VERTEX
  8
0
 10
-0.07317345
 20
1.38110689
  0
VERTEX
  8
0
 10
-0.06335659
 20
1.39820100
  0
VERTEX
  8
0
 10
-0.04267615
 20
1.43256898
  0
VERTEX
  8
0
 10
-0.03249514
 20
1.45087275
  0
VERTEX
  8
0
 10
-0.02287533
 20
1.47060966
  0
VERTEX
  8
0
 10
0.00128281
 20
1.50815798
  0
VERTEX
  8
0
 10
0.01373354
 20
1.52720837
  0
VERTEX
  8
0
 10
0.02707652
 20
1.54549011
  0
VERTEX
  8
0
 10
0.04179512
 20
1.56228859
  0
VERTEX
  8
0
 10
0.04982133
 20
1.56990830
  0
VERTEX
  8
0
 10
0.05837270
 20
1.57688921
  0
VERTEX
  8
0
 10
0.06750966
 20
1.58314201
  0
VERTEX
  8
0
 10
0.07729262
 20
1.58857737
  0
VERTEX
  8
0
 10
0.08778201
 20
1.59310596
  0
VERTEX
  8
0
 10
0.09903825
 20
1.59663846
  0
VERTEX
  8
0
 10
0.10136407
 20
1.59662676
  0
VERTEX
  8
0
 10
0.10288696
 20
1.59590928
  0
VERTEX
  8
0
 10
0.10449888
 20
1.59315060
  0
VERTEX
  8
0
 10
0.10582391
 20
1.58994965
  0
VERTEX
  8
0
 10
0.10698817
 20
1.58867931
  0
VERTEX
  8
0
 10
0.10881191
 20
1.58789361
  0
VERTEX
  8
0
 10
0.10994565
 20
1.56542101
  0
VERTEX
  8
0
 10
0.11016136
 20
1.54332857
  0
VERTEX
  8
0
 10
0.10830496
 20
1.50009056
  0
VERTEX
  8
0
 10
0.10417521
 20
1.45779233
  0
VERTEX
  8
0
 10
0.09870458
 20
1.41604664
  0
VERTEX
  8
0
 10
0.09282555
 20
1.37446623
  0
VERTEX
  8
0
 10
0.08747061
 20
1.33266386
  0
VERTEX
  8
0
 10
0.08357225
 20
1.29025227
  0
VERTEX
  8
0
 10
0.08246068
 20
1.26869701
  0
VERTEX
  8
0
 10
0.08206294
 20
1.24684423
  0
VERTEX
  8
0
 10
0.07922018
 20
1.23719056
  0
VERTEX
  8
0
 10
0.07717958
 20
1.22671265
  0
VERTEX
  8
0
 10
0.07605640
 20
1.21574117
  0
VERTEX
  8
0
 10
0.07596589
 20
1.20460680
  0
VERTEX
  8
0
 10
0.07702332
 20
1.19364023
  0
VERTEX
  8
0
 10
0.07934394
 20
1.18317213
  0
VERTEX
  8
0
 10
0.08304301
 20
1.17353320
  0
VERTEX
  8
0
 10
0.08823578
 20
1.16505410
  0
VERTEX
  8
0
 10
0.09243174
 20
1.16374039
  0
VERTEX
  8
0
 10
0.09668973
 20
1.16417133
  0
VERTEX
  8
0
 10
0.10083860
 20
1.16602970
  0
VERTEX
  8
0
 10
0.10470721
 20
1.16899828
  0
VERTEX
  8
0
 10
0.10812439
 20
1.17275985
  0
VERTEX
  8
0
 10
0.11091901
 20
1.17699718
  0
VERTEX
  8
0
 10
0.11291991
 20
1.18139305
  0
VERTEX
  8
0
 10
0.11395595
 20
1.18563023
  0
VERTEX
  8
0
 10
0.12158833
 20
1.20850560
  0
VERTEX
  8
0
 10
0.13020221
 20
1.23040618
  0
VERTEX
  8
0
 10
0.13963099
 20
1.25147884
  0
VERTEX
  8
0
 10
0.14970808
 20
1.27187045
  0
VERTEX
  8
0
 10
0.17114080
 20
1.31119796
  0
VERTEX
  8
0
 10
0.19316763
 20
1.34956362
  0
VERTEX
  8
0
 10
0.21445581
 20
1.38814234
  0
VERTEX
  8
0
 10
0.22440642
 20
1.40787875
  0
VERTEX
  8
0
 10
0.23367258
 20
1.42810902
  0
VERTEX
  8
0
 10
0.24208770
 20
1.44898002
  0
VERTEX
  8
0
 10
0.24948519
 20
1.47063859
  0
VERTEX
  8
0
 10
0.25569845
 20
1.49323162
  0
VERTEX
  8
0
 10
0.26056088
 20
1.51690595
  0
VERTEX
  8
0
 10
0.26335161
 20
1.52706862
  0
VERTEX
  8
0
 10
0.26665649
 20
1.53473909
  0
VERTEX
  8
0
 10
0.27041605
 20
1.54015002
  0
VERTEX
  8
0
 10
0.27457083
 20
1.54353407
  0
VERTEX
  8
0
 10
0.27906134
 20
1.54512390
  0
VERTEX
  8
0
 10
0.28382811
 20
1.54515216
  0
VERTEX
  8
0
 10
0.28881168
 20
1.54385151
  0
VERTEX
  8
0
 10
0.29395256
 20
1.54145460
  0
VERTEX
  8
0
 10
0.30446837
 20
1.53430267
  0
VERTEX
  8
0
 10
0.31489976
 20
1.52555760
  0
VERTEX
  8
0
 10
0.32477095
 20
1.51708067
  0
VERTEX
  8
0
 10
0.33360615
 20
1.51073311
  0
VERTEX
  8
0
 10
0.33826705
 20
1.50375713
  0
VERTEX
  8
0
 10
0.34169253
 20
1.49652073
  0
VERTEX
  8
0
 10
0.34399945
 20
1.48905490
  0
VERTEX
  8
0
 10
0.34530468
 20
1.48139061
  0
VERTEX
  8
0
 10
0.34572509
 20
1.47355887
  0
VERTEX
  8
0
 10
0.34537755
 20
1.46559064
  0
VERTEX
  8
0
 10
0.34284607
 20
1.44936870
  0
VERTEX
  8
0
 10
0.33864521
 20
1.43297265
  0
VERTEX
  8
0
 10
0.33370989
 20
1.41665039
  0
VERTEX
  8
0
 10
0.32897507
 20
1.40064978
  0
VERTEX
  8
0
 10
0.32537570
 20
1.38521871
  0
VERTEX
  8
0
 10
0.32024784
 20
1.37796122
  0
VERTEX
  8
0
 10
0.31582862
 20
1.37047454
  0
VERTEX
  8
0
 10
0.30873463
 20
1.35491357
  0
VERTEX
  8
0
 10
0.30333084
 20
1.33873569
  0
VERTEX
  8
0
 10
0.29885437
 20
1.32214080
  0
VERTEX
  8
0
 10
0.29454235
 20
1.30532880
  0
VERTEX
  8
0
 10
0.28963190
 20
1.28849958
  0
VERTEX
  8
0
 10
0.28336013
 20
1.27185304
  0
VERTEX
  8
0
 10
0.27496418
 20
1.25558908
  0
VERTEX
  8
0
 10
0.26579420
 20
1.23439116
  0
VERTEX
  8
0
 10
0.25567221
 20
1.21386847
  0
VERTEX
  8
0
 10
0.24468301
 20
1.19394921
  0
VERTEX
  8
0
 10
0.23291137
 20
1.17456155
  0
VERTEX
  8
0
 10
0.22044209
 20
1.15563370
  0
VERTEX
  8
0
 10
0.20735998
 20
1.13709382
  0
VERTEX
  8
0
 10
0.17969638
 20
1.10089077
  0
VERTEX
  8
0
 10
0.15059893
 20
1.06537789
  0
VERTEX
  8
0
 10
0.12074595
 20
1.02998067
  0
VERTEX
  8
0
 10
0.09081580
 20
0.99412460
  0
VERTEX
  8
0
 10
0.06148681
 20
0.95723517
  0
VERTEX
  8
0
 10
0.05739158
 20
0.95776027
  0
VERTEX
  8
0
 10
0.05432749
 20
0.95998792
  0
VERTEX
  8
0
 10
0.05216190
 20
0.96356135
  0
VERTEX
  8
0
 10
0.05076221
 20
0.96812378
  0
VERTEX
  8
0
 10
0.04973001
 20
0.97878859
  0
VERTEX
  8
0
 10
0.05016994
 20
0.98912818
  0
VERTEX
  8
0
 10
0.04539176
 20
1.01567236
  0
VERTEX
  8
0
 10
0.04153593
 20
1.04258200
  0
VERTEX
  8
0
 10
0.03858265
 20
1.06979108
  0
VERTEX
  8
0
 10
0.03651214
 20
1.09723355
  0
VERTEX
  8
0
 10
0.03530460
 20
1.12484339
  0
VERTEX
  8
0
 10
0.03494025
 20
1.15255457
  0
VERTEX
  8
0
 10
0.03539930
 20
1.18030104
  0
VERTEX
  8
0
 10
0.03666195
 20
1.20801679
  0
VERTEX
  8
0
 10
0.03870842
 20
1.23563577
  0
VERTEX
  8
0
 10
0.04151890
 20
1.26309196
  0
VERTEX
  8
0
 10
0.04507363
 20
1.29031931
  0
VERTEX
  8
0
 10
0.04935279
 20
1.31725181
  0
VERTEX
  8
0
 10
0.05433661
 20
1.34382341
  0
VERTEX
  8
0
 10
0.06000529
 20
1.36996809
  0
VERTEX
  8
0
 10
0.06633905
 20
1.39561981
  0
VERTEX
  8
0
 10
0.07331808
 20
1.42071254
  0
VERTEX
  8
0
 10
0.07362711
 20
1.42802484
  0
VERTEX
  8
0
 10
0.07492131
 20
1.43611648
  0
VERTEX
  8
0
 10
0.07806110
 20
1.45308935
  0
VERTEX
  8
0
 10
0.07870462
 20
1.46119637
  0
VERTEX
  8
0
 10
0.07792917
 20
1.46853431
  0
VERTEX
  8
0
 10
0.07513373
 20
1.47471606
  0
VERTEX
  8
0
 10
0.07279069
 20
1.47725239
  0
VERTEX
  8
0
 10
0.06971726
 20
1.47935451
  0
VERTEX
  8
0
 10
0.06112414
 20
1.47514364
  0
VERTEX
  8
0
 10
0.05312779
 20
1.46999322
  0
VERTEX
  8
0
 10
0.04566946
 20
1.46401915
  0
VERTEX
  8
0
 10
0.03869044
 20
1.45733729
  0
VERTEX
  8
0
 10
0.02593542
 20
1.44231375
  0
VERTEX
  8
0
 10
0.01439292
 20
1.42584964
  0
VERTEX
  8
0
 10
-0.00693379
 20
1.39230784
  0
VERTEX
  8
0
 10
-0.01765762
 20
1.37708422
  0
VERTEX
  8
0
 10
-0.02904817
 20
1.36412818
  0
VERTEX
  8
0
 10
-0.04017440
 20
1.33512204
  0
VERTEX
  8
0
 10
-0.05057900
 20
1.30580302
  0
VERTEX
  8
0
 10
-0.06023007
 20
1.27617682
  0
VERTEX
  8
0
 10
-0.06909571
 20
1.24624912
  0
VERTEX
  8
0
 10
-0.07714402
 20
1.21602561
  0
VERTEX
  8
0
 10
-0.08434310
 20
1.18551199
  0
VERTEX
  8
0
 10
-0.09066104
 20
1.15471395
  0
VERTEX
  8
0
 10
-0.09606595
 20
1.12363717
  0
VERTEX
  8
0
 10
-0.10052592
 20
1.09228734
  0
VERTEX
  8
0
 10
-0.10400906
 20
1.06067017
  0
VERTEX
  8
0
 10
-0.10648346
 20
1.02879133
  0
VERTEX
  8
0
 10
-0.10791722
 20
0.99665652
  0
VERTEX
  8
0
 10
-0.10827844
 20
0.96427143
  0
VERTEX
  8
0
 10
-0.10753521
 20
0.93164175
  0
VERTEX
  8
0
 10
-0.10565565
 20
0.89877317
  0
VERTEX
  8
0
 10
-0.10260784
 20
0.86567139
  0
VERTEX
  8
0
 10
-0.10844467
 20
0.86935213
  0
VERTEX
  8
0
 10
-0.11404935
 20
0.87394375
  0
VERTEX
  8
0
 10
-0.11929202
 20
0.87931925
  0
VERTEX
  8
0
 10
-0.12404280
 20
0.88535167
  0
VERTEX
  8
0
 10
-0.12817183
 20
0.89191402
  0
VERTEX
  8
0
 10
-0.13154923
 20
0.89887933
  0
VERTEX
  8
0
 10
-0.13404512
 20
0.90612061
  0
VERTEX
  8
0
 10
-0.13552965
 20
0.91351089
  0
VERTEX
  8
0
 10
-0.13365247
 20
0.91451372
  0
VERTEX
  8
0
 10
-0.13252494
 20
0.91583644
  0
VERTEX
  8
0
 10
-0.13183501
 20
0.91925754
  0
VERTEX
  8
0
 10
-0.13209219
 20
0.92340614
  0
VERTEX
  8
0
 10
-0.13192883
 20
0.92791418
  0
VERTEX
  8
0
 10
-0.13627162
 20
0.93020273
  0
VERTEX
  8
0
 10
-0.14101239
 20
0.93082657
  0
VERTEX
  8
0
 10
-0.14596557
 20
0.93007066
  0
VERTEX
  8
0
 10
-0.15094559
 20
0.92821995
  0
VERTEX
  8
0
 10
-0.16024387
 20
0.92237403
  0
VERTEX
  8
0
 10
-0.16742266
 20
0.91556851
  0
VERTEX
  8
0
 10
-0.17212370
 20
0.90906611
  0
VERTEX
  8
0
 10
-0.17581456
 20
0.90235276
  0
VERTEX
  8
0
 10
-0.17859851
 20
0.89545002
  0
VERTEX
  8
0
 10
-0.18057883
 20
0.88837943
  0
VERTEX
  8
0
 10
-0.18254172
 20
0.87382090
  0
VERTEX
  8
0
 10
-0.18252946
 20
0.85884958
  0
VERTEX
  8
0
 10
-0.17988450
 20
0.82835821
  0
VERTEX
  8
0
 10
-0.17890430
 20
0.81318297
  0
VERTEX
  8
0
 10
-0.17925393
 20
0.79828455
  0
VERTEX
  8
0
 10
-0.18502149
 20
0.79367782
  0
VERTEX
  8
0
 10
-0.19101527
 20
0.79148398
  0
VERTEX
  8
0
 10
-0.19702391
 20
0.79137515
  0
VERTEX
  8
0
 10
-0.20283602
 20
0.79302344
  0
VERTEX
  8
0
 10
-0.20824023
 20
0.79610098
  0
VERTEX
  8
0
 10
-0.21302518
 20
0.80027988
  0
VERTEX
  8
0
 10
-0.21697949
 20
0.80523226
  0
VERTEX
  8
0
 10
-0.21989179
 20
0.81063023
  0
VERTEX
  8
0
 10
-0.24664076
 20
0.91556851
  0
VERTEX
  8
0
 10
-0.25216151
 20
0.91754265
  0
VERTEX
  8
0
 10
-0.25849139
 20
0.92072101
  0
VERTEX
  8
0
 10
-0.26150294
 20
0.92158038
  0
VERTEX
  8
0
 10
-0.26416860
 20
0.92132312
  0
VERTEX
  8
0
 10
-0.26630563
 20
0.91947668
  0
VERTEX
  8
0
 10
-0.26773130
 20
0.91556851
  0
VERTEX
  8
0
 10
-0.27164330
 20
0.91080566
  0
VERTEX
  8
0
 10
-0.27483392
 20
0.90566884
  0
VERTEX
  8
0
 10
-0.27946475
 20
0.89450983
  0
VERTEX
  8
0
 10
-0.28245128
 20
0.88256463
  0
VERTEX
  8
0
 10
-0.28462102
 20
0.87030637
  0
VERTEX
  8
0
 10
-0.28680145
 20
0.85820819
  0
VERTEX
  8
0
 10
-0.28982008
 20
0.84674324
  0
VERTEX
  8
0
 10
-0.29450440
 20
0.83638464
  0
VERTEX
  8
0
 10
-0.29772979
 20
0.83176808
  0
VERTEX
  8
0
 10
-0.30168192
 20
0.82760554
  0
VERTEX
  8
0
 10
-0.31145558
 20
0.82760554
  0
VERTEX
  8
0
 10
-0.31761774
 20
0.83615074
  0
VERTEX
  8
0
 10
-0.32264823
 20
0.84510300
  0
VERTEX
  8
0
 10
-0.33121622
 20
0.86360217
  0
VERTEX
  8
0
 10
-0.33570472
 20
0.87283580
  0
VERTEX
  8
0
 10
-0.34096356
 20
0.88184994
  0
VERTEX
  8
0
 10
-0.34746824
 20
0.89048795
  0
VERTEX
  8
0
 10
-0.35569426
 20
0.89859320
  0
VERTEX
  8
0
 10
-0.36412533
 20
0.89438905
  0
VERTEX
  8
0
 10
-0.37064011
 20
0.88922674
  0
VERTEX
  8
0
 10
-0.37570880
 20
0.88329492
  0
VERTEX
  8
0
 10
-0.37980159
 20
0.87678223
  0
VERTEX
  8
0
 10
-0.38694027
 20
0.86276893
  0
VERTEX
  8
0
 10
-0.39092655
 20
0.85564562
  0
VERTEX
  8
0
 10
-0.39581772
 20
0.84869608
  0
VERTEX
  8
0
 10
-0.39771302
 20
0.85106784
  0
VERTEX
  8
0
 10
-0.39889249
 20
0.85408501
  0
VERTEX
  8
0
 10
-0.39956341
 20
0.86175308
  0
VERTEX
  8
0
 10
-0.39736898
 20
0.88150648
  0
VERTEX
  8
0
 10
-0.39634132
 20
0.89238174
  0
VERTEX
  8
0
 10
-0.39658514
 20
0.90311600
  0
VERTEX
  8
0
 10
-0.39901928
 20
0.91310421
  0
VERTEX
  8
0
 10
-0.40134486
 20
0.91762948
  0
VERTEX
  8
0
 10
-0.40456257
 20
0.92174134
  0
VERTEX
  8
0
 10
-0.42334369
 20
0.90361157
  0
VERTEX
  8
0
 10
-0.44093946
 20
0.88271483
  0
VERTEX
  8
0
 10
-0.45655049
 20
0.85998361
  0
VERTEX
  8
0
 10
-0.46336192
 20
0.84822147
  0
VERTEX
  8
0
 10
-0.46937739
 20
0.83635040
  0
VERTEX
  8
0
 10
-0.47573929
 20
0.84411740
  0
VERTEX
  8
0
 10
-0.47899964
 20
0.84882745
  0
VERTEX
  8
0
 10
-0.48169668
 20
0.85388097
  0
VERTEX
  8
0
 10
-0.48336822
 20
0.85912228
  0
VERTEX
  8
0
 10
-0.48355205
 20
0.86439571
  0
VERTEX
  8
0
 10
-0.48178599
 20
0.86954559
  0
VERTEX
  8
0
 10
-0.47760784
 20
0.87441624
  0
VERTEX
  8
0
 10
-0.46723470
 20
0.88773840
  0
VERTEX
  8
0
 10
-0.45799647
 20
0.90163343
  0
VERTEX
  8
0
 10
-0.44976995
 20
0.91603793
  0
VERTEX
  8
0
 10
-0.44243197
 20
0.93088852
  0
VERTEX
  8
0
 10
-0.43585934
 20
0.94612181
  0
VERTEX
  8
0
 10
-0.42992887
 20
0.96167439
  0
VERTEX
  8
0
 10
-0.41950169
 20
0.99348389
  0
VERTEX
  8
0
 10
-0.40093312
 20
1.05814522
  0
VERTEX
  8
0
 10
-0.39082078
 20
1.08998278
  0
VERTEX
  8
0
 10
-0.37884241
 20
1.12081542
  0
VERTEX
  8
0
 10
-0.35854367
 20
1.16521760
  0
VERTEX
  8
0
 10
-0.34003162
 20
1.21108787
  0
VERTEX
  8
0
 10
-0.32347559
 20
1.25831182
  0
VERTEX
  8
0
 10
-0.30904488
 20
1.30677506
  0
VERTEX
  8
0
 10
-0.29690883
 20
1.35636320
  0
VERTEX
  8
0
 10
-0.28723674
 20
1.40696185
  0
VERTEX
  8
0
 10
-0.28019795
 20
1.45845662
  0
VERTEX
  8
0
 10
-0.27596175
 20
1.51073311
  0
SEQEND
  0
POLYLINE
  8
Default_Layer
 66
   1
 39
0.000000
 70
    1
  0
VERTEX
  8
0
 10
-0.28470661
 20
1.86670019
  0
VERTEX
  8
0
 10
-0.28990620
 20
1.88134289
  0
VERTEX
  8
0
 10
-0.29399537
 20
1.89671090
  0
VERTEX
  8
0
 10
-0.30077432
 20
1.92836614
  0
VERTEX
  8
0
 10
-0.30443006
 20
1.94402498
  0
VERTEX
  8
0
 10
-0.30890728
 20
1.95915239
  0
VERTEX
  8
0
 10
-0.31468895
 20
1.97343418
  0
VERTEX
  8
0
 10
-0.32225805
 20
1.98655616
  0
VERTEX
  8
0
 10
-0.34077657
 20
2.04725575
  0
VERTEX
  8
0
 10
-0.32183493
 20
2.04094659
  0
VERTEX
  8
0
 10
-0.30260402
 20
2.03546361
  0
VERTEX
  8
0
 10
-0.26350681
 20
2.02624681
  0
VERTEX
  8
0
 10
-0.22394982
 20
2.01814662
  0
VERTEX
  8
0
 10
-0.18439796
 20
2.00970431
  0
VERTEX
  8
0
 10
-0.19855923
 20
1.99315211
  0
VERTEX
  8
0
 10
-0.21180658
 20
1.97647974
  0
VERTEX
  8
0
 10
-0.22425491
 20
1.95955822
  0
VERTEX
  8
0
 10
-0.23601916
 20
1.94225862
  0
VERTEX
  8
0
 10
-0.25795510
 20
1.90600931
  0
VERTEX
  8
0
 10
-0.27853377
 20
1.86670019
  0
VERTEX
  8
0
 10
-0.28470661
 20
1.86670019
  0
SEQEND
  0
POLYLINE
  8
Default_Layer
 66
   1
 39
0.000000
 70
    1
  0
VERTEX
  8
0
 10
0.06508763
 20
2.18563023
  0
VERTEX
  8
0
 10
0.07206931
 20
2.20258696
  0
VERTEX
  8
0
 10
0.08109394
 20
2.21932843
  0
VERTEX
  8
0
 10
0.09201657
 20
2.23552400
  0
VERTEX
  8
0
 10
0.10469222
 20
2.25084304
  0
VERTEX
  8
0
 10
0.11897595
 20
2.26495493
  0
VERTEX
  8
0
 10
0.13472277
 20
2.27752903
  0
VERTEX
  8
0
 10
0.15178775
 20
2.28823471
  0
VERTEX
  8
0
 10
0.17002590
 20
2.29674134
  0
VERTEX
  8
0
 10
0.17915807
 20
2.29908387
  0
VERTEX
  8
0
 10
0.18241853
 20
2.29828183
  0
VERTEX
  8
0
 10
0.18494360
 20
2.29416933
  0
VERTEX
  8
0
 10
0.19023118
 20
2.24263537
  0
VERTEX
  8
0
 10
0.19443230
 20
2.19057970
  0
VERTEX
  8
0
 10
0.19770227
 20
2.13807446
  0
VERTEX
  8
0
 10
0.20019636
 20
2.08519180
  0
VERTEX
  8
0
 10
0.20347808
 20
1.97858279
  0
VERTEX
  8
0
 10
0.20551973
 20
1.87132982
  0
VERTEX
  8
0
 10
0.21136028
 20
1.87614748
  0
VERTEX
  8
0
 10
0.21831975
 20
1.88063724
  0
VERTEX
  8
0
 10
0.22568405
 20
1.88517502
  0
VERTEX
  8
0
 10
0.23273911
 20
1.89013674
  0
VERTEX
  8
0
 10
0.23877087
 20
1.89589832
  0
VERTEX
  8
0
 10
0.24306525
 20
1.90283567
  0
VERTEX
  8
0
 10
0.24433777
 20
1.90686273
  0
VERTEX
  8
0
 10
0.24490817
 20
1.91132470
  0
VERTEX
  8
0
 10
0.24468719
 20
1.91626858
  0
VERTEX
  8
0
 10
0.24358557
 20
1.92174134
  0
VERTEX
  8
0
 10
0.24656150
 20
1.92260883
  0
VERTEX
  8
0
 10
0.24915044
 20
1.92257285
  0
VERTEX
  8
0
 10
0.25137326
 20
1.92172965
  0
VERTEX
  8
0
 10
0.25325081
 20
1.92017549
  0
VERTEX
  8
0
 10
0.25605358
 20
1.91531924
  0
VERTEX
  8
0
 10
0.25772569
 20
1.90877407
  0
VERTEX
  8
0
 10
0.25843403
 20
1.90130995
  0
VERTEX
  8
0
 10
0.25834553
 20
1.89369683
  0
VERTEX
  8
0
 10
0.25644566
 20
1.88110348
  0
VERTEX
  8
0
 10
0.25635013
 20
1.85173720
  0
VERTEX
  8
0
 10
0.25454384
 20
1.82296032
  0
VERTEX
  8
0
 10
0.25144571
 20
1.79457647
  0
VERTEX
  8
0
 10
0.24747466
 20
1.76638927
  0
VERTEX
  8
0
 10
0.23858954
 20
1.70981937
  0
VERTEX
  8
0
 10
0.23451332
 20
1.68104391
  0
VERTEX
  8
0
 10
0.23123990
 20
1.65167962
  0
VERTEX
  8
0
 10
0.22566647
 20
1.61933399
  0
VERTEX
  8
0
 10
0.21906391
 20
1.58670016
  0
VERTEX
  8
0
 10
0.21142943
 20
1.55393178
  0
VERTEX
  8
0
 10
0.20276023
 20
1.52118248
  0
VERTEX
  8
0
 10
0.19305351
 20
1.48860593
  0
VERTEX
  8
0
 10
0.18230647
 20
1.45635576
  0
VERTEX
  8
0
 10
0.17051631
 20
1.42458562
  0
VERTEX
  8
0
 10
0.15768022
 20
1.39344916
  0
VERTEX
  8
0
 10
0.15951573
 20
1.44571618
  0
VERTEX
  8
0
 10
0.15996511
 20
1.49751436
  0
VERTEX
  8
0
 10
0.15910760
 20
1.54886543
  0
VERTEX
  8
0
 10
0.15702245
 20
1.59979112
  0
VERTEX
  8
0
 10
0.15378889
 20
1.65031317
  0
VERTEX
  8
0
 10
0.14948616
 20
1.70045330
  0
VERTEX
  8
0
 10
0.14419350
 20
1.75023325
  0
VERTEX
  8
0
 10
0.13799016
 20
1.79967475
  0
VERTEX
  8
0
 10
0.13095537
 20
1.84879953
  0
VERTEX
  8
0
 10
0.12316838
 20
1.89762932
  0
VERTEX
  8
0
 10
0.10565475
 20
1.99449085
  0
VERTEX
  8
0
 10
0.08608320
 20
2.09043321
  0
VERTEX
  8
0
 10
0.06508763
 20
2.18563023
  0
SEQEND
  0
POLYLINE
  8
Default_Layer
 66
   1
 39
0.000000
 70
    1
  0
VERTEX
  8
0
 10
0.25130162
 20
2.16762612
  0
VERTEX
  8
0
 10
0.24815846
 20
2.19962349
  0
VERTEX
  8
0
 10
0.24340353
 20
2.23075132
  0
VERTEX
  8
0
 10
0.23123990
 20
2.29211172
  0
VERTEX
  8
0
 10
0.22828774
 20
2.29419750
  0
VERTEX
  8
0
 10
0.22307394
 20
2.29606742
  0
VERTEX
  8
0
 10
0.21100611
 20
2.29961206
  0
VERTEX
  8
0
 10
0.20672440
 20
2.30151296
  0
VERTEX
  8
0
 10
0.20558431
 20
2.30254503
  0
VERTEX
  8
0
 10
0.20532574
 20
2.30365036
  0
VERTEX
  8
0
 10
0.20610947
 20
2.30484309
  0
VERTEX
  8
0
 10
0.20809628
 20
2.30613735
  0
VERTEX
  8
0
 10
0.21632220
 20
2.30908702
  0
VERTEX
  8
0
 10
0.22744078
 20
2.31125385
  0
VERTEX
  8
0
 10
0.23680858
 20
2.31065733
  0
VERTEX
  8
0
 10
0.24441074
 20
2.30762555
  0
VERTEX
  8
0
 10
0.25023239
 20
2.30248658
  0
VERTEX
  8
0
 10
0.25425869
 20
2.29556850
  0
VERTEX
  8
0
 10
0.25647477
 20
2.28719939
  0
VERTEX
  8
0
 10
0.25686577
 20
2.27770731
  0
VERTEX
  8
0
 10
0.25541685
 20
2.26742036
  0
VERTEX
  8
0
 10
0.25787650
 20
2.25506908
  0
VERTEX
  8
0
 10
0.25960090
 20
2.24255030
  0
VERTEX
  8
0
 10
0.26120290
 20
2.21716471
  0
VERTEX
  8
0
 10
0.26094068
 20
2.19157259
  0
VERTEX
  8
0
 10
0.25953208
 20
2.16608291
  0
VERTEX
  8
0
 10
0.25755782
 20
2.15137893
  0
VERTEX
  8
0
 10
0.25639877
 20
2.14787819
  0
VERTEX
  8
0
 10
0.25520568
 20
2.14690293
  0
VERTEX
  8
0
 10
0.25403899
 20
2.14842162
  0
VERTEX
  8
0
 10
0.25295912
 20
2.15240273
  0
VERTEX
  8
0
 10
0.25130162
 20
2.16762612
  0
SEQEND
  0
POLYLINE
  8
Default_Layer
 66
   1
 39
0.000000
 70
    1
  0
VERTEX
  8
0
 10
0.24564319
 20
2.36155616
  0
VERTEX
  8
0
 10
0.19682009
 20
2.34635132
  0
VERTEX
  8
0
 10
0.17248449
 20
2.33835242
  0
VERTEX
  8
0
 10
0.14853022
 20
2.32951589
  0
VERTEX
  8
0
 10
0.12520529
 20
2.31941176
  0
VERTEX
  8
0
 10
0.10275774
 20
2.30761006
  0
VERTEX
  8
0
 10
0.08143557
 20
2.29368080
  0
VERTEX
  8
0
 10
0.07127401
 20
2.28578398
  0
VERTEX
  8
0
 10
0.06148681
 20
2.27719402
  0
VERTEX
  8
0
 10
0.05427444
 20
2.27656977
  0
VERTEX
  8
0
 10
0.04735634
 20
2.27725733
  0
VERTEX
  8
0
 10
0.04070742
 20
2.27902374
  0
VERTEX
  8
0
 10
0.03430258
 20
2.28163605
  0
VERTEX
  8
0
 10
0.02212482
 20
2.28846656
  0
VERTEX
  8
0
 10
0.01062234
 20
2.29588524
  0
VERTEX
  8
0
 10
-0.00040557
 20
2.30202848
  0
VERTEX
  8
0
 10
-0.00580428
 20
2.30403943
  0
VERTEX
  8
0
 10
-0.01115962
 20
2.30503266
  0
VERTEX
  8
0
 10
-0.01649667
 20
2.30477521
  0
VERTEX
  8
0
 10
-0.02184052
 20
2.30303414
  0
VERTEX
  8
0
 10
-0.02721627
 20
2.29957650
  0
VERTEX
  8
0
 10
-0.03264899
 20
2.29416933
  0
VERTEX
  8
0
 10
-0.03627985
 20
2.28472697
  0
VERTEX
  8
0
 10
-0.03912428
 20
2.27476535
  0
VERTEX
  8
0
 10
-0.04441370
 20
2.25450098
  0
VERTEX
  8
0
 10
-0.04783864
 20
2.24480653
  0
VERTEX
  8
0
 10
-0.05243702
 20
2.23580946
  0
VERTEX
  8
0
 10
-0.05869882
 20
2.22781392
  0
VERTEX
  8
0
 10
-0.06711401
 20
2.22112406
  0
VERTEX
  8
0
 10
-0.06750851
 20
2.24308845
  0
VERTEX
  8
0
 10
-0.06690854
 20
2.26507350
  0
VERTEX
  8
0
 10
-0.06706075
 20
2.27607233
  0
VERTEX
  8
0
 10
-0.06795451
 20
2.28707457
  0
VERTEX
  8
0
 10
-0.06991986
 20
2.29807967
  0
VERTEX
  8
0
 10
-0.07328685
 20
2.30908702
  0
VERTEX
  8
0
 10
-0.06867650
 20
2.31741709
  0
VERTEX
  8
0
 10
-0.06606861
 20
2.32009506
  0
VERTEX
  8
0
 10
-0.06327820
 20
2.32192763
  0
VERTEX
  8
0
 10
-0.05720760
 20
2.32349454
  0
VERTEX
  8
0
 10
-0.05058035
 20
2.32299375
  0
VERTEX
  8
0
 10
-0.03611847
 20
2.31929272
  0
VERTEX
  8
0
 10
-0.02851513
 20
2.31784432
  0
VERTEX
  8
0
 10
-0.02081772
 20
2.31783188
  0
VERTEX
  8
0
 10
-0.00550666
 20
2.31749815
  0
VERTEX
  8
0
 10
0.00963443
 20
2.31791403
  0
VERTEX
  8
0
 10
0.03943764
 20
2.32076501
  0
VERTEX
  8
0
 10
0.06865375
 20
2.32592562
  0
VERTEX
  8
0
 10
0.09734458
 20
2.33293664
  0
VERTEX
  8
0
 10
0.12557196
 20
2.34133890
  0
VERTEX
  8
0
 10
0.15339773
 20
2.35067318
  0
VERTEX
  8
0
 10
0.20809175
 20
2.37030102
  0
VERTEX
  8
0
 10
0.22330686
 20
2.37805154
  0
VERTEX
  8
0
 10
0.23633993
 20
2.38741743
  0
VERTEX
  8
0
 10
0.24763322
 20
2.39805456
  0
VERTEX
  8
0
 10
0.25762900
 20
2.40961878
  0
VERTEX
  8
0
 10
0.27549719
 20
2.43415199
  0
VERTEX
  8
0
 10
0.28425414
 20
2.44643271
  0
VERTEX
  8
0
 10
0.29348269
 20
2.45826398
  0
VERTEX
  8
0
 10
0.29310260
 20
2.44521108
  0
VERTEX
  8
0
 10
0.29172787
 20
2.43126281
  0
VERTEX
  8
0
 10
0.28905585
 20
2.41700465
  0
VERTEX
  8
0
 10
0.28478387
 20
2.40302203
  0
VERTEX
  8
0
 10
0.27860927
 20
2.38990042
  0
VERTEX
  8
0
 10
0.27471391
 20
2.38384544
  0
VERTEX
  8
0
 10
0.27022940
 20
2.37822526
  0
VERTEX
  8
0
 10
0.26511791
 20
2.37311306
  0
VERTEX
  8
0
 10
0.25934159
 20
2.36858203
  0
VERTEX
  8
0
 10
0.25286263
 20
2.36470533
  0
VERTEX
  8
0
 10
0.24564319
 20
2.36155616
  0
SEQEND
  0
POLYLINE
  8
Default_Layer
 66
   1
 39
0.000000
 70
    1
  0
VERTEX
  8
0
 10
0.06508763
 20
2.02770842
  0
VERTEX
  8
0
 10
0.06669802
 20
2.02500389
  0
VERTEX
  8
0
 10
0.06796998
 20
2.01996534
  0
VERTEX
  8
0
 10
0.06958593
 20
2.00590300
  0
VERTEX
  8
0
 10
0.07011014
 20
1.99155510
  0
VERTEX
  8
0
 10
0.06971726
 20
1.98295534
  0
VERTEX
  8
0
 10
0.05966950
 20
1.98942210
  0
VERTEX
  8
0
 10
0.04931252
 20
1.99504478
  0
VERTEX
  8
0
 10
0.03866988
 20
1.99981855
  0
VERTEX
  8
0
 10
0.02776516
 20
2.00373862
  0
VERTEX
  8
0
 10
0.01662194
 20
2.00680018
  0
VERTEX
  8
0
 10
0.00526378
 20
2.00899841
  0
VERTEX
  8
0
 10
-0.00628575
 20
2.01032853
  0
VERTEX
  8
0
 10
-0.01800306
 20
2.01078571
  0
VERTEX
  8
0
 10
-0.02986460
 20
2.01036516
  0
VERTEX
  8
0
 10
-0.04184679
 20
2.00906206
  0
VERTEX
  8
0
 10
-0.05392605
 20
2.00687162
  0
VERTEX
  8
0
 10
-0.06607882
 20
2.00378902
  0
VERTEX
  8
0
 10
-0.07828153
 20
1.99980945
  0
VERTEX
  8
0
 10
-0.09051059
 20
1.99492812
  0
VERTEX
  8
0
 10
-0.10274245
 20
1.98914022
  0
VERTEX
  8
0
 10
-0.11495352
 20
1.98244093
  0
VERTEX
  8
0
 10
-0.11645100
 20
1.98197794
  0
VERTEX
  8
0
 10
-0.11776465
 20
1.98235995
  0
VERTEX
  8
0
 10
-0.11979747
 20
1.98522647
  0
VERTEX
  8
0
 10
-0.12096605
 20
1.99017537
  0
VERTEX
  8
0
 10
-0.12118449
 20
1.99634156
  0
VERTEX
  8
0
 10
-0.12036685
 20
2.00285994
  0
VERTEX
  8
0
 10
-0.11842722
 20
2.00886540
  0
VERTEX
  8
0
 10
-0.11527967
 20
2.01349283
  0
VERTEX
  8
0
 10
-0.11322608
 20
2.01501945
  0
VERTEX
  8
0
 10
-0.11083829
 20
2.01587715
  0
VERTEX
  8
0
 10
-0.09150982
 20
2.02637926
  0
VERTEX
  8
0
 10
-0.07038790
 20
2.03488520
  0
VERTEX
  8
0
 10
-0.04798895
 20
2.04110403
  0
VERTEX
  8
0
 10
-0.02482934
 20
2.04474479
  0
VERTEX
  8
0
 10
-0.01312567
 20
2.04550748
  0
VERTEX
  8
0
 10
-0.00142549
 20
2.04551656
  0
VERTEX
  8
0
 10
0.01020666
 20
2.04473564
  0
VERTEX
  8
0
 10
0.02170622
 20
2.04312838
  0
VERTEX
  8
0
 10
0.03300865
 20
2.04065839
  0
VERTEX
  8
0
 10
0.04404940
 20
2.03728931
  0
VERTEX
  8
0
 10
0.05476391
 20
2.03298478
  0
VERTEX
  8
0
 10
0.06508763
 20
2.02770842
  0
SEQEND
  0
POLYLINE
  8
Default_Layer
 66
   1
 39
0.000000
 70
    1
  0
VERTEX
  8
0
 10
0.02342097
 20
0.89242036
  0
VERTEX
  8
0
 10
0.02041989
 20
0.88623275
  0
VERTEX
  8
0
 10
0.01616053
 20
0.88127083
  0
VERTEX
  8
0
 10
0.01087403
 20
0.87739235
  0
VERTEX
  8
0
 10
0.00479155
 20
0.87445504
  0
VERTEX
  8
0
 10
-0.00185578
 20
0.87231663
  0
VERTEX
  8
0
 10
-0.00883680
 20
0.87083487
  0
VERTEX
  8
0
 10
-0.02287533
 20
0.86927221
  0
VERTEX
  8
0
 10
-0.02422166
 20
0.87220906
  0
VERTEX
  8
0
 10
-0.02621569
 20
0.87466154
  0
VERTEX
  8
0
 10
-0.03158858
 20
0.87846946
  0
VERTEX
  8
0
 10
-0.04396587
 20
0.88418990
  0
VERTEX
  8
0
 10
-0.04616442
 20
0.92203580
  0
VERTEX
  8
0
 10
-0.04720317
 20
0.96106122
  0
VERTEX
  8
0
 10
-0.04682435
 20
1.00058842
  0
VERTEX
  8
0
 10
-0.04477019
 20
1.03993963
  0
VERTEX
  8
0
 10
-0.04078293
 20
1.07843710
  0
VERTEX
  8
0
 10
-0.03460480
 20
1.11540306
  0
VERTEX
  8
0
 10
-0.03061361
 20
1.13309992
  0
VERTEX
  8
0
 10
-0.02597804
 20
1.15015975
  0
VERTEX
  8
0
 10
-0.02066587
 20
1.16649782
  0
VERTEX
  8
0
 10
-0.01464488
 20
1.18202941
  0
VERTEX
  8
0
 10
-0.01129051
 20
1.16439195
  0
VERTEX
  8
0
 10
-0.00895294
 20
1.14631636
  0
VERTEX
  8
0
 10
-0.00656809
 20
1.10917345
  0
VERTEX
  8
0
 10
-0.00597017
 20
1.07124588
  0
VERTEX
  8
0
 10
-0.00563902
 20
1.03317886
  0
VERTEX
  8
0
 10
-0.00405449
 20
0.99561759
  0
VERTEX
  8
0
 10
-0.00231716
 20
0.97722824
  0
VERTEX
  8
0
 10
0.00030358
 20
0.95920728
  0
VERTEX
  8
0
 10
0.00399774
 20
0.94163536
  0
VERTEX
  8
0
 10
0.00895535
 20
0.92459313
  0
VERTEX
  8
0
 10
0.01536642
 20
0.90816125
  0
VERTEX
  8
0
 10
0.02342097
 20
0.89242036
  0
SEQEND
  0
POLYLINE
  8
Default_Layer
 66
   1
 39
0.000000
 70
    1
  0
VERTEX
  8
0
 10
0.57846212
 20
2.59406645
  0
VERTEX
  8
0
 10
0.58461929
 20
2.59383338
  0
VERTEX
  8
0
 10
0.59156589
 20
2.59444822
  0
VERTEX
  8
0
 10
0.60707536
 20
2.59735249
  0
VERTEX
  8
0
 10
0.62348647
 20
2.60104092
  0
VERTEX
  8
0
 10
0.63929518
 20
2.60377518
  0
VERTEX
  8
0
 10
0.64650362
 20
2.60424127
  0
VERTEX
  8
0
 10
0.65299745
 20
2.60381694
  0
VERTEX
  8
0
 10
0.65858865
 20
2.60228490
  0
VERTEX
  8
0
 10
0.66308922
 20
2.59942786
  0
VERTEX
  8
0
 10
0.66631115
 20
2.59502854
  0
VERTEX
  8
0
 10
0.66806644
 20
2.58886963
  0
VERTEX
  8
0
 10
0.66816709
 20
2.58073384
  0
VERTEX
  8
0
 10
0.66642508
 20
2.57040390
  0
VERTEX
  8
0
 10
0.64893660
 20
2.47822861
  0
VERTEX
  8
0
 10
0.63900032
 20
2.43265297
  0
VERTEX
  8
0
 10
0.62780755
 20
2.38770723
  0
VERTEX
  8
0
 10
0.61501193
 20
2.34360784
  0
VERTEX
  8
0
 10
0.60026711
 20
2.30057122
  0
VERTEX
  8
0
 10
0.58322672
 20
2.25881381
  0
VERTEX
  8
0
 10
0.57373746
 20
2.23848245
  0
VERTEX
  8
0
 10
0.56354442
 20
2.21855204
  0
VERTEX
  8
0
 10
0.56221169
 20
2.21709081
  0
VERTEX
  8
0
 10
0.56092545
 20
2.21704528
  0
VERTEX
  8
0
 10
0.55872014
 20
2.22001328
  0
VERTEX
  8
0
 10
0.55738375
 20
2.22507987
  0
VERTEX
  8
0
 10
0.55737158
 20
2.22986892
  0
VERTEX
  8
0
 10
0.56894272
 20
2.27325813
  0
VERTEX
  8
0
 10
0.57858442
 20
2.31808908
  0
VERTEX
  8
0
 10
0.58598500
 20
2.36394597
  0
VERTEX
  8
0
 10
0.59083276
 20
2.41041299
  0
VERTEX
  8
0
 10
0.59220195
 20
2.43374537
  0
VERTEX
  8
0
 10
0.59281604
 20
2.45707436
  0
VERTEX
  8
0
 10
0.59263610
 20
2.48034797
  0
VERTEX
  8
0
 10
0.59162315
 20
2.50351425
  0
VERTEX
  8
0
 10
0.58973824
 20
2.52652121
  0
VERTEX
  8
0
 10
0.58694240
 20
2.54931688
  0
VERTEX
  8
0
 10
0.58319668
 20
2.57184929
  0
VERTEX
  8
0
 10
0.57846212
 20
2.59406645
  0
SEQEND
  0
POLYLINE
  8
Default_Layer
 66
   1
 39
0.000000
 70
    1
  0
VERTEX
  8
0
 10
-0.95908932
 20
1.47935451
  0
VERTEX
  8
0
 10
-0.97224986
 20
1.49522404
  0
VERTEX
  8
0
 10
-0.98466144
 20
1.51169754
  0
VERTEX
  8
0
 10
-0.99638137
 20
1.52871578
  0
VERTEX
  8
0
 10
-1.00746693
 20
1.54621950
  0
VERTEX
  8
0
 10
-1.02796411
 20
1.58244637
  0
VERTEX
  8
0
 10
-1.04661131
 20
1.61990417
  0
VERTEX
  8
0
 10
-1.06386688
 20
1.65811887
  0
VERTEX
  8
0
 10
-1.08018915
 20
1.69661648
  0
VERTEX
  8
0
 10
-1.11186710
 20
1.77256439
  0
VERTEX
  8
0
 10
-1.13228675
 20
1.83213723
  0
VERTEX
  8
0
 10
-1.14149934
 20
1.86256660
  0
VERTEX
  8
0
 10
-1.14995409
 20
1.89337681
  0
VERTEX
  8
0
 10
-1.15758126
 20
1.92453207
  0
VERTEX
  8
0
 10
-1.16431107
 20
1.95599653
  0
VERTEX
  8
0
 10
-1.17007378
 20
1.98773437
  0
VERTEX
  8
0
 10
-1.17479962
 20
2.01970977
  0
VERTEX
  8
0
 10
-1.17841883
 20
2.05188691
  0
VERTEX
  8
0
 10
-1.18086167
 20
2.08422995
  0
VERTEX
  8
0
 10
-1.18205837
 20
2.11670307
  0
VERTEX
  8
0
 10
-1.18193917
 20
2.14927045
  0
VERTEX
  8
0
 10
-1.18043432
 20
2.18189626
  0
VERTEX
  8
0
 10
-1.17747405
 20
2.21454468
  0
VERTEX
  8
0
 10
-1.17298862
 20
2.24717988
  0
VERTEX
  8
0
 10
-1.16690825
 20
2.27976604
  0
VERTEX
  8
0
 10
-1.16462215
 20
2.28337627
  0
VERTEX
  8
0
 10
-1.16369054
 20
2.28678131
  0
VERTEX
  8
0
 10
-1.16231017
 20
2.28976514
  0
VERTEX
  8
0
 10
-1.15867780
 20
2.29211172
  0
VERTEX
  8
0
 10
-1.14232393
 20
2.29128749
  0
VERTEX
  8
0
 10
-1.12562628
 20
2.29135220
  0
VERTEX
  8
0
 10
-1.09204652
 20
2.29214344
  0
VERTEX
  8
0
 10
-1.07558783
 20
2.29186746
  0
VERTEX
  8
0
 10
-1.05963220
 20
2.29047540
  0
VERTEX
  8
0
 10
-1.04439134
 20
2.28746602
  0
VERTEX
  8
0
 10
-1.03007698
 20
2.28233805
  0
VERTEX
  8
0
 10
-1.04038578
 20
2.23054999
  0
VERTEX
  8
0
 10
-1.04801074
 20
2.17884992
  0
VERTEX
  8
0
 10
-1.05310567
 20
2.12726475
  0
VERTEX
  8
0
 10
-1.05582437
 20
2.07582138
  0
VERTEX
  8
0
 10
-1.05632065
 20
2.02454672
  0
VERTEX
  8
0
 10
-1.05474832
 20
1.97346766
  0
VERTEX
  8
0
 10
-1.05126119
 20
1.92261112
  0
VERTEX
  8
0
 10
-1.04601307
 20
1.87200400
  0
VERTEX
  8
0
 10
-1.03915776
 20
1.82167320
  0
VERTEX
  8
0
 10
-1.03084907
 20
1.77164562
  0
VERTEX
  8
0
 10
-1.02124082
 20
1.72194817
  0
VERTEX
  8
0
 10
-1.01048681
 20
1.67260776
  0
VERTEX
  8
0
 10
-0.99874084
 20
1.62365128
  0
VERTEX
  8
0
 10
-0.98615673
 20
1.57510564
  0
VERTEX
  8
0
 10
-0.95908932
 20
1.47935451
  0
SEQEND
  0
POLYLINE
  8
Default_Layer
 66
   1
 39
0.000000
 70
    1
  0
VERTEX
  8
0
 10
-1.08511813
 20
2.33223517
  0
VERTEX
  8
0
 10
-1.13390196
 20
2.33703079
  0
VERTEX
  8
0
 10
-1.18182595
 20
2.34098003
  0
VERTEX
  8
0
 10
-1.18448325
 20
2.34817691
  0
VERTEX
  8
0
 10
-1.18542677
 20
2.35538332
  0
VERTEX
  8
0
 10
-1.16330735
 20
2.36194622
  0
VERTEX
  8
0
 10
-1.14098113
 20
2.36581901
  0
VERTEX
  8
0
 10
-1.11846947
 20
2.36740807
  0
VERTEX
  8
0
 10
-1.09579370
 20
2.36711982
  0
VERTEX
  8
0
 10
-1.07297520
 20
2.36536063
  0
VERTEX
  8
0
 10
-1.05003530
 20
2.36253690
  0
VERTEX
  8
0
 10
-1.00387674
 20
2.35532142
  0
VERTEX
  8
0
 10
-0.95748883
 20
2.34872454
  0
VERTEX
  8
0
 10
-0.93426226
 20
2.34667405
  0
VERTEX
  8
0
 10
-0.91104240
 20
2.34599740
  0
VERTEX
  8
0
 10
-0.88785062
 20
2.34710097
  0
VERTEX
  8
0
 10
-0.86470826
 20
2.35039116
  0
VERTEX
  8
0
 10
-0.84163668
 20
2.35627437
  0
VERTEX
  8
0
 10
-0.83013410
 20
2.36031535
  0
VERTEX
  8
0
 10
-0.81865722
 20
2.36515698
  0
VERTEX
  8
0
 10
-0.80586017
 20
2.37731153
  0
VERTEX
  8
0
 10
-0.79311242
 20
2.38600075
  0
VERTEX
  8
0
 10
-0.78040712
 20
2.39157219
  0
VERTEX
  8
0
 10
-0.76773741
 20
2.39437337
  0
VERTEX
  8
0
 10
-0.75509644
 20
2.39475182
  0
VERTEX
  8
0
 10
-0.74247736
 20
2.39305506
  0
VERTEX
  8
0
 10
-0.72987331
 20
2.38963064
  0
VERTEX
  8
0
 10
-0.71727743
 20
2.38482607
  0
VERTEX
  8
0
 10
-0.69208280
 20
2.37246664
  0
VERTEX
  8
0
 10
-0.66683863
 20
2.35875699
  0
VERTEX
  8
0
 10
-0.65418083
 20
2.35226466
  0
VERTEX
  8
0
 10
-0.64149008
 20
2.34647737
  0
VERTEX
  8
0
 10
-0.62875953
 20
2.34174264
  0
VERTEX
  8
0
 10
-0.61598233
 20
2.33840801
  0
VERTEX
  8
0
 10
-0.62176990
 20
2.32999599
  0
VERTEX
  8
0
 10
-0.62824648
 20
2.32292886
  0
VERTEX
  8
0
 10
-0.63539816
 20
2.31694593
  0
VERTEX
  8
0
 10
-0.64321107
 20
2.31178647
  0
VERTEX
  8
0
 10
-0.66076499
 20
2.30289518
  0
VERTEX
  8
0
 10
-0.68079714
 20
2.29416933
  0
VERTEX
  8
0
 10
-0.68731869
 20
2.29694872
  0
VERTEX
  8
0
 10
-0.69285452
 20
2.30092415
  0
VERTEX
  8
0
 10
-0.69755996
 20
2.30586463
  0
VERTEX
  8
0
 10
-0.70159035
 20
2.31153918
  0
VERTEX
  8
0
 10
-0.70824731
 20
2.32416650
  0
VERTEX
  8
0
 10
-0.71406806
 20
2.33695824
  0
VERTEX
  8
0
 10
-0.72029528
 20
2.34806648
  0
VERTEX
  8
0
 10
-0.72394964
 20
2.35241183
  0
VERTEX
  8
0
 10
-0.72817163
 20
2.35564334
  0
VERTEX
  8
0
 10
-0.73311656
 20
2.35753003
  0
VERTEX
  8
0
 10
-0.73893978
 20
2.35784091
  0
VERTEX
  8
0
 10
-0.74579662
 20
2.35634500
  0
VERTEX
  8
0
 10
-0.75384241
 20
2.35281130
  0
VERTEX
  8
0
 10
-0.77528367
 20
2.34296751
  0
VERTEX
  8
0
 10
-0.78622389
 20
2.33724826
  0
VERTEX
  8
0
 10
-0.79670082
 20
2.33086620
  0
VERTEX
  8
0
 10
-0.80625717
 20
2.32372290
  0
VERTEX
  8
0
 10
-0.81443568
 20
2.31571995
  0
VERTEX
  8
0
 10
-0.82077907
 20
2.30675890
  0
VERTEX
  8
0
 10
-0.82483006
 20
2.29674134
  0
VERTEX
  8
0
 10
-0.83357492
 20
2.28851089
  0
VERTEX
  8
0
 10
-0.84107672
 20
2.29784601
  0
VERTEX
  8
0
 10
-0.84976964
 20
2.30636771
  0
VERTEX
  8
0
 10
-0.85933674
 20
2.31347060
  0
VERTEX
  8
0
 10
-0.86946109
 20
2.31854931
  0
VERTEX
  8
0
 10
-0.87982574
 20
2.32099848
  0
VERTEX
  8
0
 10
-0.88499914
 20
2.32104781
  0
VERTEX
  8
0
 10
-0.89011377
 20
2.32021274
  0
VERTEX
  8
0
 10
-0.89513001
 20
2.31841759
  0
VERTEX
  8
0
 10
-0.90000824
 20
2.31558670
  0
VERTEX
  8
0
 10
-0.90470884
 20
2.31164440
  0
VERTEX
  8
0
 10
-0.90919220
 20
2.30651501
  0
VERTEX
  8
0
 10
-1.08511813
 20
2.33223517
  0
SEQEND
  0
POLYLINE
  8
Default_Layer
 66
   1
 39
0.000000
 70
    1
  0
VERTEX
  8
0
 10
-1.18542677
 20
-0.08751791
  0
VERTEX
  8
0
 10
-1.20985826
 20
-0.05882647
  0
VERTEX
  8
0
 10
-1.23586428
 20
-0.03128454
  0
VERTEX
  8
0
 10
-1.26329948
 20
-0.00481518
  0
VERTEX
  8
0
 10
-1.29201853
 20
0.02065852
  0
VERTEX
  8
0
 10
-1.32187608
 20
0.04521346
  0
VERTEX
  8
0
 10
-1.35272680
 20
0.06892659
  0
VERTEX
  8
0
 10
-1.38442535
 20
0.09187481
  0
VERTEX
  8
0
 10
-1.41682639
 20
0.11413504
  0
VERTEX
  8
0
 10
-1.48315457
 20
0.15689921
  0
VERTEX
  8
0
 10
-1.55054863
 20
0.19783447
  0
VERTEX
  8
0
 10
-1.68388356
 20
0.27667962
  0
VERTEX
  8
0
 10
-1.69584192
 20
0.28178572
  0
VERTEX
  8
0
 10
-1.70649874
 20
0.28708360
  0
VERTEX
  8
0
 10
-1.71690764
 20
0.29360954
  0
VERTEX
  8
0
 10
-1.72812224
 20
0.30239978
  0
VERTEX
  8
0
 10
-1.75940048
 20
0.31918422
  0
VERTEX
  8
0
 10
-1.79042439
 20
0.33680595
  0
VERTEX
  8
0
 10
-1.82114694
 20
0.35525578
  0
VERTEX
  8
0
 10
-1.85152109
 20
0.37452454
  0
VERTEX
  8
0
 10
-1.88149980
 20
0.39460306
  0
VERTEX
  8
0
 10
-1.91103604
 20
0.41548217
  0
VERTEX
  8
0
 10
-1.94008278
 20
0.43715269
  0
VERTEX
  8
0
 10
-1.96859298
 20
0.45960544
  0
VERTEX
  8
0
 10
-1.99651960
 20
0.48283127
  0
VERTEX
  8
0
 10
-2.02381561
 20
0.50682099
  0
VERTEX
  8
0
 10
-2.05043397
 20
0.53156542
  0
VERTEX
  8
0
 10
-2.07632765
 20
0.55705541
  0
VERTEX
  8
0
 10
-2.10144961
 20
0.58328176
  0
VERTEX
  8
0
 10
-2.12575282
 20
0.61023532
  0
VERTEX
  8
0
 10
-2.14919024
 20
0.63790690
  0
VERTEX
  8
0
 10
-2.17171483
 20
0.66628733
  0
VERTEX
  8
0
 10
-2.19327956
 20
0.69536745
  0
VERTEX
  8
0
 10
-2.21383740
 20
0.72513806
  0
VERTEX
  8
0
 10
-2.23334130
 20
0.75559002
  0
VERTEX
  8
0
 10
-2.25174424
 20
0.78671413
  0
VERTEX
  8
0
 10
-2.26899918
 20
0.81850122
  0
VERTEX
  8
0
 10
-2.28505907
 20
0.85094213
  0
VERTEX
  8
0
 10
-2.29987690
 20
0.88402768
  0
VERTEX
  8
0
 10
-2.31340561
 20
0.91774870
  0
VERTEX
  8
0
 10
-2.32559818
 20
0.95209600
  0
VERTEX
  8
0
 10
-2.33640757
 20
0.98706043
  0
VERTEX
  8
0
 10
-2.34578675
 20
1.02263280
  0
VERTEX
  8
0
 10
-2.35368867
 20
1.05880395
  0
VERTEX
  8
0
 10
-2.36006631
 20
1.09556469
  0
VERTEX
  8
0
 10
-2.36487263
 20
1.13290586
  0
VERTEX
  8
0
 10
-2.36806058
 20
1.17081828
  0
VERTEX
  8
0
 10
-2.36958315
 20
1.20929279
  0
VERTEX
  8
0
 10
-2.36744062
 20
1.28430704
  0
VERTEX
  8
0
 10
-2.36533197
 20
1.32196236
  0
VERTEX
  8
0
 10
-2.36246233
 20
1.35958486
  0
VERTEX
  8
0
 10
-2.35877967
 20
1.39707584
  0
VERTEX
  8
0
 10
-2.35423195
 20
1.43433658
  0
VERTEX
  8
0
 10
-2.34876713
 20
1.47126836
  0
VERTEX
  8
0
 10
-2.34233316
 20
1.50777249
  0
VERTEX
  8
0
 10
-2.33487800
 20
1.54375025
  0
VERTEX
  8
0
 10
-2.32634961
 20
1.57910292
  0
VERTEX
  8
0
 10
-2.31669595
 20
1.61373180
  0
VERTEX
  8
0
 10
-2.30586499
 20
1.64753817
  0
VERTEX
  8
0
 10
-2.29380467
 20
1.68042333
  0
VERTEX
  8
0
 10
-2.28046295
 20
1.71228856
  0
VERTEX
  8
0
 10
-2.26578781
 20
1.74303515
  0
VERTEX
  8
0
 10
-2.24972718
 20
1.77256439
  0
VERTEX
  8
0
 10
-2.24180982
 20
1.79312381
  0
VERTEX
  8
0
 10
-2.23313023
 20
1.81272491
  0
VERTEX
  8
0
 10
-2.22373349
 20
1.83146789
  0
VERTEX
  8
0
 10
-2.21366468
 20
1.84945295
  0
VERTEX
  8
0
 10
-2.20296887
 20
1.86678027
  0
VERTEX
  8
0
 10
-2.19169115
 20
1.88355006
  0
VERTEX
  8
0
 10
-2.16757028
 20
1.91581780
  0
VERTEX
  8
0
 10
-2.14166269
 20
1.94705773
  0
VERTEX
  8
0
 10
-2.11432902
 20
1.97807139
  0
VERTEX
  8
0
 10
-2.05682595
 20
2.04262612
  0
VERTEX
  8
0
 10
-2.02011669
 20
2.07532363
  0
VERTEX
  8
0
 10
-1.98245796
 20
2.10615953
  0
VERTEX
  8
0
 10
-1.94393180
 20
2.13530582
  0
VERTEX
  8
0
 10
-1.90462021
 20
2.16293451
  0
VERTEX
  8
0
 10
-1.86460524
 20
2.18921760
  0
VERTEX
  8
0
 10
-1.82396891
 20
2.21432711
  0
VERTEX
  8
0
 10
-1.78279324
 20
2.23843504
  0
VERTEX
  8
0
 10
-1.74116025
 20
2.26171340
  0
VERTEX
  8
0
 10
-1.65685044
 20
2.30646944
  0
VERTEX
  8
0
 10
-1.57169569
 20
2.34997129
  0
VERTEX
  8
0
 10
-1.48635219
 20
2.39359500
  0
VERTEX
  8
0
 10
-1.40147615
 20
2.43871665
  0
VERTEX
  8
0
 10
-1.39631322
 20
2.44083897
  0
VERTEX
  8
0
 10
-1.39153107
 20
2.44421755
  0
VERTEX
  8
0
 10
-1.38243183
 20
2.45285536
  0
VERTEX
  8
0
 10
-1.37777610
 20
2.45717054
  0
VERTEX
  8
0
 10
-1.37282388
 20
2.46085386
  0
VERTEX
  8
0
 10
-1.36740585
 20
2.46343330
  0
VERTEX
  8
0
 10
-1.36135270
 20
2.46443682
  0
VERTEX
  8
0
 10
-1.35861794
 20
2.45863105
  0
VERTEX
  8
0
 10
-1.35660936
 20
2.45244835
  0
VERTEX
  8
0
 10
-1.35355835
 20
2.43967998
  0
VERTEX
  8
0
 10
-1.34977488
 20
2.42758736
  0
VERTEX
  8
0
 10
-1.34685073
 20
2.42224934
  0
VERTEX
  8
0
 10
-1.34283418
 20
2.41762612
  0
VERTEX
  8
0
 10
-1.33868557
 20
2.40962339
  0
VERTEX
  8
0
 10
-1.33359255
 20
2.40241279
  0
VERTEX
  8
0
 10
-1.32770425
 20
2.39587503
  0
VERTEX
  8
0
 10
-1.32116981
 20
2.38989080
  0
VERTEX
  8
0
 10
-1.30675902
 20
2.37910577
  0
VERTEX
  8
0
 10
-1.29155321
 20
2.36910332
  0
VERTEX
  8
0
 10
-1.27674544
 20
2.35892909
  0
VERTEX
  8
0
 10
-1.26352874
 20
2.34762869
  0
VERTEX
  8
0
 10
-1.25788987
 20
2.34125793
  0
VERTEX
  8
0
 10
-1.25309617
 20
2.33424774
  0
VERTEX
  8
0
 10
-1.24929675
 20
2.32647882
  0
VERTEX
  8
0
 10
-1.24664076
 20
2.31783188
  0
VERTEX
  8
0
 10
-1.25139489
 20
2.30531729
  0
VERTEX
  8
0
 10
-1.25426987
 20
2.29194571
  0
VERTEX
  8
0
 10
-1.25589355
 20
2.27798607
  0
VERTEX
  8
0
 10
-1.25689376
 20
2.26370725
  0
VERTEX
  8
0
 10
-1.25789835
 20
2.24937817
  0
VERTEX
  8
0
 10
-1.25953518
 20
2.23526773
  0
VERTEX
  8
0
 10
-1.26243208
 20
2.22164483
  0
VERTEX
  8
0
 10
-1.26721689
 20
2.20877838
  0
VERTEX
  8
0
 10
-1.28710377
 20
2.19681416
  0
VERTEX
  8
0
 10
-1.30727043
 20
2.18627702
  0
VERTEX
  8
0
 10
-1.32765709
 20
2.17676637
  0
VERTEX
  8
0
 10
-1.34820393
 20
2.16788159
  0
VERTEX
  8
0
 10
-1.38953897
 20
2.15038723
  0
VERTEX
  8
0
 10
-1.41020757
 20
2.14097643
  0
VERTEX
  8
0
 10
-1.43079714
 20
2.13058908
  0
VERTEX
  8
0
 10
-1.48104161
 20
2.11107058
  0
VERTEX
  8
0
 10
-1.53118436
 20
2.08922583
  0
VERTEX
  8
0
 10
-1.58104346
 20
2.06513543
  0
VERTEX
  8
0
 10
-1.63043694
 20
2.03888003
  0
VERTEX
  8
0
 10
-1.67918287
 20
2.01054025
  0
VERTEX
  8
0
 10
-1.72709929
 20
1.98019672
  0
VERTEX
  8
0
 10
-1.77400425
 20
1.94793005
  0
VERTEX
  8
0
 10
-1.81971581
 20
1.91382089
  0
VERTEX
  8
0
 10
-1.86405202
 20
1.87794985
  0
VERTEX
  8
0
 10
-1.90683093
 20
1.84039757
  0
VERTEX
  8
0
 10
-1.94787059
 20
1.80124467
  0
VERTEX
  8
0
 10
-1.98698905
 20
1.76057177
  0
VERTEX
  8
0
 10
-2.02400437
 20
1.71845951
  0
VERTEX
  8
0
 10
-2.05873459
 20
1.67498850
  0
VERTEX
  8
0
 10
-2.09099777
 20
1.63023939
  0
VERTEX
  8
0
 10
-2.12061196
 20
1.58429279
  0
VERTEX
  8
0
 10
-2.13380547
 20
1.55476810
  0
VERTEX
  8
0
 10
-2.14636660
 20
1.52445442
  0
VERTEX
  8
0
 10
-2.15820180
 20
1.49342190
  0
VERTEX
  8
0
 10
-2.16921751
 20
1.46174073
  0
VERTEX
  8
0
 10
-2.17932017
 20
1.42948108
  0
VERTEX
  8
0
 10
-2.18841623
 20
1.39671312
  0
VERTEX
  8
0
 10
-2.19641213
 20
1.36350703
  0
VERTEX
  8
0
 10
-2.20321430
 20
1.32993299
  0
VERTEX
  8
0
 10
-2.20872920
 20
1.29606115
  0
VERTEX
  8
0
 10
-2.21286326
 20
1.26196171
  0
VERTEX
  8
0
 10
-2.21552293
 20
1.22770483
  0
VERTEX
  8
0
 10
-2.21661465
 20
1.19336070
  0
VERTEX
  8
0
 10
-2.21604487
 20
1.15899947
  0
VERTEX
  8
0
 10
-2.21372002
 20
1.12469133
  0
VERTEX
  8
0
 10
-2.20954654
 20
1.09050645
  0
VERTEX
  8
0
 10
-2.20343089
 20
1.05651501
  0
VERTEX
  8
0
 10
-2.20042006
 20
1.05417676
  0
VERTEX
  8
0
 10
-2.19897563
 20
1.05357402
  0
VERTEX
  8
0
 10
-2.19725805
 20
1.05394299
  0
VERTEX
  8
0
 10
-2.18894903
 20
1.00850902
  0
VERTEX
  8
0
 10
-2.17840952
 20
0.96410386
  0
VERTEX
  8
0
 10
-2.16536976
 20
0.92094420
  0
VERTEX
  8
0
 10
-2.15782798
 20
0.89989914
  0
VERTEX
  8
0
 10
-2.14955997
 20
0.87924671
  0
VERTEX
  8
0
 10
-2.14053201
 20
0.85901400
  0
VERTEX
  8
0
 10
-2.13071038
 20
0.83922809
  0
VERTEX
  8
0
 10
-2.12006136
 20
0.81991605
  0
VERTEX
  8
0
 10
-2.10855123
 20
0.80110499
  0
VERTEX
  8
0
 10
-2.09614626
 20
0.78282198
  0
VERTEX
  8
0
 10
-2.08281273
 20
0.76509411
  0
VERTEX
  8
0
 10
-2.06851693
 20
0.74794847
  0
VERTEX
  8
0
 10
-2.05322512
 20
0.73141213
  0
VERTEX
  8
0
 10
-2.03924530
 20
0.71395949
  0
VERTEX
  8
0
 10
-2.02401232
 20
0.69750039
  0
VERTEX
  8
0
 10
-2.00764216
 20
0.68197368
  0
VERTEX
  8
0
 10
-1.99025080
 20
0.66731821
  0
VERTEX
  8
0
 10
-1.97195423
 20
0.65347284
  0
VERTEX
  8
0
 10
-1.95286842
 20
0.64037641
  0
VERTEX
  8
0
 10
-1.93310936
 20
0.62796777
  0
VERTEX
  8
0
 10
-1.91279303
 20
0.61618579
  0
VERTEX
  8
0
 10
-1.90830302
 20
0.61620768
  0
VERTEX
  8
0
 10
-1.90498851
 20
0.61779647
  0
VERTEX
  8
0
 10
-1.90274702
 20
0.62057894
  0
VERTEX
  8
0
 10
-1.90147608
 20
0.62418187
  0
VERTEX
  8
0
 10
-1.90107320
 20
0.62823205
  0
VERTEX
  8
0
 10
-1.90143591
 20
0.63235627
  0
VERTEX
  8
0
 10
-1.90246172
 20
0.63618130
  0
VERTEX
  8
0
 10
-1.90404817
 20
0.63933394
  0
VERTEX
  8
0
 10
-1.92140268
 20
0.65500370
  0
VERTEX
  8
0
 10
-1.93774745
 20
0.67164959
  0
VERTEX
  8
0
 10
-1.95313278
 20
0.68919160
  0
VERTEX
  8
0
 10
-1.96760897
 20
0.70754972
  0
VERTEX
  8
0
 10
-1.98122631
 20
0.72664393
  0
VERTEX
  8
0
 10
-1.99403511
 20
0.74639423
  0
VERTEX
  8
0
 10
-2.00608567
 20
0.76672060
  0
VERTEX
  8
0
 10
-2.01742828
 20
0.78754303
  0
VERTEX
  8
0
 10
-2.03819085
 20
0.83035602
  0
VERTEX
  8
0
 10
-2.05672522
 20
0.87419311
  0
VERTEX
  8
0
 10
-2.07343380
 20
0.91841420
  0
VERTEX
  8
0
 10
-2.08871895
 20
0.96237920
  0
VERTEX
  8
0
 10
-2.09902645
 20
1.01443243
  0
VERTEX
  8
0
 10
-2.11044302
 20
1.06850741
  0
VERTEX
  8
0
 10
-2.12108859
 20
1.12385477
  0
VERTEX
  8
0
 10
-2.12553474
 20
1.15177142
  0
VERTEX
  8
0
 10
-2.12908312
 20
1.17972514
  0
VERTEX
  8
0
 10
-2.13149871
 20
1.20762227
  0
VERTEX
  8
0
 10
-2.13254652
 20
1.23536914
  0
VERTEX
  8
0
 10
-2.13199154
 20
1.26287207
  0
VERTEX
  8
0
 10
-2.12959875
 20
1.29003739
  0
VERTEX
  8
0
 10
-2.12513315
 20
1.31677144
  0
VERTEX
  8
0
 10
-2.11835973
 20
1.34298053
  0
VERTEX
  8
0
 10
-2.10904348
 20
1.36857099
  0
VERTEX
  8
0
 10
-2.09694940
 20
1.39344916
  0
VERTEX
  8
0
 10
-2.08579358
 20
1.42429010
  0
VERTEX
  8
0
 10
-2.07339845
 20
1.45423498
  0
VERTEX
  8
0
 10
-2.05980787
 20
1.48330531
  0
VERTEX
  8
0
 10
-2.04506571
 20
1.51152262
  0
VERTEX
  8
0
 10
-2.02921583
 20
1.53890841
  0
VERTEX
  8
0
 10
-2.01230211
 20
1.56548420
  0
VERTEX
  8
0
 10
-1.99436839
 20
1.59127150
  0
VERTEX
  8
0
 10
-1.97545856
 20
1.61629184
  0
VERTEX
  8
0
 10
-1.95561646
 20
1.64056671
  0
VERTEX
  8
0
 10
-1.93488598
 20
1.66411765
  0
VERTEX
  8
0
 10
-1.91331097
 20
1.68696615
  0
VERTEX
  8
0
 10
-1.89093529
 20
1.70913375
  0
VERTEX
  8
0
 10
-1.86780282
 20
1.73064194
  0
VERTEX
  8
0
 10
-1.84395741
 20
1.75151225
  0
VERTEX
  8
0
 10
-1.81944293
 20
1.77176619
  0
VERTEX
  8
0
 10
-1.79430325
 20
1.79142528
  0
VERTEX
  8
0
 10
-1.76858223
 20
1.81051102
  0
VERTEX
  8
0
 10
-1.74232373
 20
1.82904494
  0
VERTEX
  8
0
 10
-1.68836978
 20
1.86454335
  0
VERTEX
  8
0
 10
-1.63279230
 20
1.89809263
  0
VERTEX
  8
0
 10
-1.57594221
 20
1.92986490
  0
VERTEX
  8
0
 10
-1.51817044
 20
1.96003226
  0
VERTEX
  8
0
 10
-1.45982790
 20
1.98876684
  0
VERTEX
  8
0
 10
-1.40126551
 20
2.01624076
  0
VERTEX
  8
0
 10
-1.34283418
 20
2.04262612
  0
VERTEX
  8
0
 10
-1.33174431
 20
2.04499118
  0
VERTEX
  8
0
 10
-1.32036592
 20
2.04827517
  0
VERTEX
  8
0
 10
-1.29704394
 20
2.05668871
  0
VERTEX
  8
0
 10
-1.27346893
 20
2.06604420
  0
VERTEX
  8
0
 10
-1.25024159
 20
2.07451912
  0
VERTEX
  8
0
 10
-1.24238355
 20
2.02704736
  0
VERTEX
  8
0
 10
-1.23266882
 20
1.98002224
  0
VERTEX
  8
0
 10
-1.22121547
 20
1.93345788
  0
VERTEX
  8
0
 10
-1.20814159
 20
1.88736839
  0
VERTEX
  8
0
 10
-1.19356524
 20
1.84176789
  0
VERTEX
  8
0
 10
-1.17760452
 20
1.79667051
  0
VERTEX
  8
0
 10
-1.16037751
 20
1.75209035
  0
VERTEX
  8
0
 10
-1.14200227
 20
1.70804155
  0
VERTEX
  8
0
 10
-1.12259690
 20
1.66453821
  0
VERTEX
  8
0
 10
-1.10227947
 20
1.62159446
  0
VERTEX
  8
0
 10
-1.08116807
 20
1.57922441
  0
VERTEX
  8
0
 10
-1.05938076
 20
1.53744218
  0
VERTEX
  8
0
 10
-1.01425079
 20
1.45569767
  0
VERTEX
  8
0
 10
-0.96783418
 20
1.37647386
  0
VERTEX
  8
0
 10
-0.94147134
 20
1.33899753
  0
VERTEX
  8
0
 10
-0.91282064
 20
1.30115519
  0
VERTEX
  8
0
 10
-0.88325593
 20
1.26213473
  0
VERTEX
  8
0
 10
-0.85415105
 20
1.22112406
  0
VERTEX
  8
0
 10
-0.80096725
 20
1.18154045
  0
VERTEX
  8
0
 10
-0.74766957
 20
1.14190595
  0
VERTEX
  8
0
 10
-0.74477780
 20
1.14150075
  0
VERTEX
  8
0
 10
-0.74233226
 20
1.14203153
  0
VERTEX
  8
0
 10
-0.73832734
 20
1.14503225
  0
VERTEX
  8
0
 10
-0.73474971
 20
1.14917043
  0
VERTEX
  8
0
 10
-0.73069426
 20
1.15270842
  0
VERTEX
  8
0
 10
-0.77424195
 20
1.25850856
  0
VERTEX
  8
0
 10
-0.81865722
 20
1.36772900
  0
VERTEX
  8
0
 10
-0.82602374
 20
1.40335040
  0
VERTEX
  8
0
 10
-0.83523372
 20
1.44199263
  0
VERTEX
  8
0
 10
-0.84631491
 20
1.48079729
  0
VERTEX
  8
0
 10
-0.85256589
 20
1.49936727
  0
VERTEX
  8
0
 10
-0.85929508
 20
1.51690595
  0
VERTEX
  8
0
 10
-0.87419329
 20
1.56735927
  0
VERTEX
  8
0
 10
-0.88710683
 20
1.61864344
  0
VERTEX
  8
0
 10
-0.89820409
 20
1.67068613
  0
VERTEX
  8
0
 10
-0.90765348
 20
1.72341500
  0
VERTEX
  8
0
 10
-0.91562340
 20
1.77675771
  0
VERTEX
  8
0
 10
-0.92228225
 20
1.83064191
  0
VERTEX
  8
0
 10
-0.92779843
 20
1.88499528
  0
VERTEX
  8
0
 10
-0.93234035
 20
1.93974546
  0
VERTEX
  8
0
 10
-0.93529328
 20
1.96380492
  0
VERTEX
  8
0
 10
-0.93617796
 20
1.98812320
  0
VERTEX
  8
0
 10
-0.93545052
 20
2.01263360
  0
VERTEX
  8
0
 10
-0.93356707
 20
2.03726944
  0
VERTEX
  8
0
 10
-0.92815661
 20
2.08665060
  0
VERTEX
  8
0
 10
-0.92554183
 20
2.11126254
  0
VERTEX
  8
0
 10
-0.92359550
 20
2.13573311
  0
VERTEX
  8
0
 10
-0.90092167
 20
2.14705216
  0
VERTEX
  8
0
 10
-0.87695397
 20
2.15663056
  0
VERTEX
  8
0
 10
-0.85202356
 20
2.16476881
  0
VERTEX
  8
0
 10
-0.82646158
 20
2.17176741
  0
VERTEX
  8
0
 10
-0.77476763
 20
2.18354761
  0
VERTEX
  8
0
 10
-0.72452142
 20
2.19437509
  0
VERTEX
  8
0
 10
-0.68306682
 20
2.20317660
  0
VERTEX
  8
0
 10
-0.64102485
 20
2.21146186
  0
VERTEX
  8
0
 10
-0.61975154
 20
2.21450993
  0
VERTEX
  8
0
 10
-0.59829291
 20
2.21634777
  0
VERTEX
  8
0
 10
-0.57663611
 20
2.21661499
  0
VERTEX
  8
0
 10
-0.55476833
 20
2.21495122
  0
VERTEX
  8
0
 10
-0.54923999
 20
2.21676790
  0
VERTEX
  8
0
 10
-0.54367290
 20
2.21779756
  0
VERTEX
  8
0
 10
-0.53224193
 20
2.21847267
  0
VERTEX
  8
0
 10
-0.52011428
 20
2.21893027
  0
VERTEX
  8
0
 10
-0.50692883
 20
2.22112406
  0
VERTEX
  8
0
 10
-0.48109029
 20
2.17899053
  0
VERTEX
  8
0
 10
-0.45606120
 20
2.13604631
  0
VERTEX
  8
0
 10
-0.43231722
 20
2.09227659
  0
VERTEX
  8
0
 10
-0.41033398
 20
2.04766656
  0
VERTEX
  8
0
 10
-0.39058714
 20
2.00220143
  0
VERTEX
  8
0
 10
-0.38170100
 20
1.97914358
  0
VERTEX
  8
0
 10
-0.37355233
 20
1.95586639
  0
VERTEX
  8
0
 10
-0.36620058
 20
1.93236803
  0
VERTEX
  8
0
 10
-0.35970521
 20
1.90864663
  0
VERTEX
  8
0
 10
-0.35412567
 20
1.88470036
  0
VERTEX
  8
0
 10
-0.34952142
 20
1.86052735
  0
VERTEX
  8
0
 10
-0.34157024
 20
1.83727086
  0
VERTEX
  8
0
 10
-0.33434785
 20
1.81340240
  0
VERTEX
  8
0
 10
-0.32788169
 20
1.78899541
  0
VERTEX
  8
0
 10
-0.32219920
 20
1.76412334
  0
VERTEX
  8
0
 10
-0.31732782
 20
1.73885965
  0
VERTEX
  8
0
 10
-0.31329499
 20
1.71327777
  0
VERTEX
  8
0
 10
-0.31012815
 20
1.68745117
  0
VERTEX
  8
0
 10
-0.30785475
 20
1.66145328
  0
VERTEX
  8
0
 10
-0.31898480
 20
1.63456139
  0
VERTEX
  8
0
 10
-0.32467157
 20
1.62040418
  0
VERTEX
  8
0
 10
-0.33105105
 20
1.60647982
  0
VERTEX
  8
0
 10
-0.33858192
 20
1.59331860
  0
VERTEX
  8
0
 10
-0.34772285
 20
1.58145081
  0
VERTEX
  8
0
 10
-0.35304043
 20
1.57616767
  0
VERTEX
  8
0
 10
-0.35893251
 20
1.57140674
  0
VERTEX
  8
0
 10
-0.36545645
 20
1.56723430
  0
VERTEX
  8
0
 10
-0.37266957
 20
1.56371665
  0
VERTEX
  8
0
 10
-0.38736789
 20
1.55242505
  0
VERTEX
  8
0
 10
-0.40310402
 20
1.54120671
  0
VERTEX
  8
0
 10
-0.41987725
 20
1.53080219
  0
VERTEX
  8
0
 10
-0.43768685
 20
1.52195203
  0
VERTEX
  8
0
 10
-0.45653210
 20
1.51539677
  0
VERTEX
  8
0
 10
-0.46634287
 20
1.51321116
  0
VERTEX
  8
0
 10
-0.47641228
 20
1.51187698
  0
VERTEX
  8
0
 10
-0.48674024
 20
1.51148680
  0
VERTEX
  8
0
 10
-0.49732665
 20
1.51213319
  0
VERTEX
  8
0
 10
-0.50817144
 20
1.51390872
  0
VERTEX
  8
0
 10
-0.51927451
 20
1.51690595
  0
VERTEX
  8
0
 10
-0.52959449
 20
1.52201938
  0
VERTEX
  8
0
 10
-0.53945648
 20
1.52809275
  0
VERTEX
  8
0
 10
-0.54883186
 20
1.53505812
  0
VERTEX
  8
0
 10
-0.55769202
 20
1.54284752
  0
VERTEX
  8
0
 10
-0.56600833
 20
1.55139299
  0
VERTEX
  8
0
 10
-0.57375220
 20
1.56062656
  0
VERTEX
  8
0
 10
-0.58089499
 20
1.57048028
  0
VERTEX
  8
0
 10
-0.58740809
 20
1.58088618
  0
VERTEX
  8
0
 10
-0.59326289
 20
1.59177630
  0
VERTEX
  8
0
 10
-0.59843078
 20
1.60308269
  0
VERTEX
  8
0
 10
-0.60288313
 20
1.61473737
  0
VERTEX
  8
0
 10
-0.60659133
 20
1.62667238
  0
VERTEX
  8
0
 10
-0.60952676
 20
1.63881977
  0
VERTEX
  8
0
 10
-0.61166081
 20
1.65111157
  0
VERTEX
  8
0
 10
-0.61296487
 20
1.66347983
  0
VERTEX
  8
0
 10
-0.61341031
 20
1.67585657
  0
VERTEX
  8
0
 10
-0.60821400
 20
1.69789531
  0
VERTEX
  8
0
 10
-0.60101629
 20
1.71906829
  0
VERTEX
  8
0
 10
-0.59198945
 20
1.73943410
  0
VERTEX
  8
0
 10
-0.58130574
 20
1.75905134
  0
VERTEX
  8
0
 10
-0.56913741
 20
1.77797859
  0
VERTEX
  8
0
 10
-0.55565673
 20
1.79627445
  0
VERTEX
  8
0
 10
-0.54103595
 20
1.81399751
  0
VERTEX
  8
0
 10
-0.52544735
 20
1.83120637
  0
VERTEX
  8
0
 10
-0.52939752
 20
1.85030084
  0
VERTEX
  8
0
 10
-0.53497371
 20
1.86900026
  0
VERTEX
  8
0
 10
-0.54230507
 20
1.88713511
  0
VERTEX
  8
0
 10
-0.55152074
 20
1.90453589
  0
VERTEX
  8
0
 10
-0.56274987
 20
1.92103308
  0
VERTEX
  8
0
 10
-0.57612161
 20
1.93645718
  0
VERTEX
  8
0
 10
-0.59176510
 20
1.95063866
  0
VERTEX
  8
0
 10
-0.60980949
 20
1.96340801
  0
VERTEX
  8
0
 10
-0.61650184
 20
1.96667628
  0
VERTEX
  8
0
 10
-0.62368949
 20
1.96850528
  0
VERTEX
  8
0
 10
-0.63117000
 20
1.96903753
  0
VERTEX
  8
0
 10
-0.63874090
 20
1.96841553
  0
VERTEX
  8
0
 10
-0.64619974
 20
1.96678179
  0
VERTEX
  8
0
 10
-0.65334409
 20
1.96427882
  0
VERTEX
  8
0
 10
-0.65997147
 20
1.96104911
  0
VERTEX
  8
0
 10
-0.66587945
 20
1.95723517
  0
VERTEX
  8
0
 10
-0.63917374
 20
1.91773650
  0
VERTEX
  8
0
 10
-0.62665100
 20
1.89753097
  0
VERTEX
  8
0
 10
-0.61613646
 20
1.87658117
  0
VERTEX
  8
0
 10
-0.61197324
 20
1.86572401
  0
VERTEX
  8
0
 10
-0.60872123
 20
1.85455700
  0
VERTEX
  8
0
 10
-0.60651682
 20
1.84303886
  0
VERTEX
  8
0
 10
-0.60549639
 20
1.83112835
  0
VERTEX
  8
0
 10
-0.60579635
 20
1.81878419
  0
VERTEX
  8
0
 10
-0.60755306
 20
1.80596513
  0
VERTEX
  8
0
 10
-0.61090293
 20
1.79262990
  0
VERTEX
  8
0
 10
-0.61598233
 20
1.77873723
  0
VERTEX
  8
0
 10
-0.62226709
 20
1.77144156
  0
VERTEX
  8
0
 10
-0.62786410
 20
1.76302309
  0
VERTEX
  8
0
 10
-0.63333089
 20
1.75429549
  0
VERTEX
  8
0
 10
-0.63922498
 20
1.74607242
  0
VERTEX
  8
0
 10
-0.64610392
 20
1.73916753
  0
VERTEX
  8
0
 10
-0.65008694
 20
1.73646367
  0
VERTEX
  8
0
 10
-0.65452524
 20
1.73439449
  0
VERTEX
  8
0
 10
-0.65948851
 20
1.73306167
  0
VERTEX
  8
0
 10
-0.66504646
 20
1.73256694
  0
VERTEX
  8
0
 10
-0.67126877
 20
1.73301199
  0
VERTEX
  8
0
 10
-0.67822512
 20
1.73449855
  0
VERTEX
  8
0
 10
-0.68635847
 20
1.74081186
  0
VERTEX
  8
0
 10
-0.69341430
 20
1.74775615
  0
VERTEX
  8
0
 10
-0.69945910
 20
1.75527762
  0
VERTEX
  8
0
 10
-0.70455936
 20
1.76332247
  0
VERTEX
  8
0
 10
-0.70878157
 20
1.77183692
  0
VERTEX
  8
0
 10
-0.71219222
 20
1.78076717
  0
VERTEX
  8
0
 10
-0.71485781
 20
1.79005942
  0
VERTEX
  8
0
 10
-0.71684481
 20
1.79965987
  0
VERTEX
  8
0
 10
-0.71904906
 20
1.81957021
  0
VERTEX
  8
0
 10
-0.71933689
 20
1.84006784
  0
VERTEX
  8
0
 10
-0.71824021
 20
1.86072238
  0
VERTEX
  8
0
 10
-0.71629097
 20
1.88110348
  0
VERTEX
  8
0
 10
-0.70494016
 20
1.90608663
  0
VERTEX
  8
0
 10
-0.69516788
 20
1.93363313
  0
VERTEX
  8
0
 10
-0.68708368
 20
1.96179237
  0
VERTEX
  8
0
 10
-0.68079714
 20
1.98861377
  0
VERTEX
  8
0
 10
-0.68477196
 20
1.99405048
  0
VERTEX
  8
0
 10
-0.68940569
 20
1.99681656
  0
VERTEX
  8
0
 10
-0.69453591
 20
1.99747065
  0
VERTEX
  8
0
 10
-0.70000018
 20
1.99657139
  0
VERTEX
  8
0
 10
-0.71128122
 20
1.99234742
  0
VERTEX
  8
0
 10
-0.72194940
 20
1.98861377
  0
VERTEX
  8
0
 10
-0.73337751
 20
1.98194724
  0
VERTEX
  8
0
 10
-0.74377179
 20
1.97428573
  0
VERTEX
  8
0
 10
-0.75316321
 20
1.96569946
  0
VERTEX
  8
0
 10
-0.76158273
 20
1.95625869
  0
VERTEX
  8
0
 10
-0.76906132
 20
1.94603365
  0
VERTEX
  8
0
 10
-0.77562995
 20
1.93509459
  0
VERTEX
  8
0
 10
-0.78131959
 20
1.92351174
  0
VERTEX
  8
0
 10
-0.78616120
 20
1.91135534
  0
VERTEX
  8
0
 10
-0.79018575
 20
1.89869564
  0
VERTEX
  8
0
 10
-0.79342420
 20
1.88560288
  0
VERTEX
  8
0
 10
-0.79590753
 20
1.87214728
  0
VERTEX
  8
0
 10
-0.79766669
 20
1.85839911
  0
VERTEX
  8
0
 10
-0.79913641
 20
1.83030597
  0
VERTEX
  8
0
 10
-0.79808109
 20
1.80188538
  0
VERTEX
  8
0
 10
-0.79159746
 20
1.77605871
  0
VERTEX
  8
0
 10
-0.78387695
 20
1.74960725
  0
VERTEX
  8
0
 10
-0.77447091
 20
1.72339137
  0
VERTEX
  8
0
 10
-0.76293072
 20
1.69827147
  0
VERTEX
  8
0
 10
-0.75622011
 20
1.68639138
  0
VERTEX
  8
0
 10
-0.74880773
 20
1.67510794
  0
VERTEX
  8
0
 10
-0.74063748
 20
1.66452868
  0
VERTEX
  8
0
 10
-0.73165330
 20
1.65476117
  0
VERTEX
  8
0
 10
-0.72179910
 20
1.64591294
  0
VERTEX
  8
0
 10
-0.71101880
 20
1.63809154
  0
VERTEX
  8
0
 10
-0.69925632
 20
1.63140453
  0
VERTEX
  8
0
 10
-0.68645558
 20
1.62595945
  0
VERTEX
  8
0
 10
-0.68351439
 20
1.61303466
  0
VERTEX
  8
0
 10
-0.67966913
 20
1.60044219
  0
VERTEX
  8
0
 10
-0.67496700
 20
1.58819628
  0
VERTEX
  8
0
 10
-0.66945520
 20
1.57631114
  0
VERTEX
  8
0
 10
-0.66318093
 20
1.56480102
  0
VERTEX
  8
0
 10
-0.65619139
 20
1.55368012
  0
VERTEX
  8
0
 10
-0.64853379
 20
1.54296269
  0
VERTEX
  8
0
 10
-0.64025531
 20
1.53266294
  0
VERTEX
  8
0
 10
-0.62202456
 20
1.51337341
  0
VERTEX
  8
0
 10
-0.60187675
 20
1.49592534
  0
VERTEX
  8
0
 10
-0.58018948
 20
1.48043255
  0
VERTEX
  8
0
 10
-0.55734035
 20
1.46700883
  0
VERTEX
  8
0
 10
-0.53384495
 20
1.46311425
  0
VERTEX
  8
0
 10
-0.50956353
 20
1.45707713
  0
VERTEX
  8
0
 10
-0.48483765
 20
1.45041488
  0
VERTEX
  8
0
 10
-0.46000890
 20
1.44464491
  0
VERTEX
  8
0
 10
-0.44766269
 20
1.44256872
  0
VERTEX
  8
0
 10
-0.43541885
 20
1.44128463
  0
VERTEX
  8
0
 10
-0.42332008
 20
1.44098231
  0
VERTEX
  8
0
 10
-0.41140909
 20
1.44185144
  0
VERTEX
  8
0
 10
-0.39972856
 20
1.44408170
  0
VERTEX
  8
0
 10
-0.38832119
 20
1.44786276
  0
VERTEX
  8
0
 10
-0.37722968
 20
1.45338430
  0
VERTEX
  8
0
 10
-0.36649673
 20
1.46083600
  0
VERTEX
  8
0
 10
-0.34772134
 20
1.47641551
  0
VERTEX
  8
0
 10
-0.33718796
 20
1.48420447
  0
VERTEX
  8
0
 10
-0.32637327
 20
1.49015698
  0
VERTEX
  8
0
 10
-0.32666109
 20
1.46675100
  0
VERTEX
  8
0
 10
-0.32914312
 20
1.44405971
  0
VERTEX
  8
0
 10
-0.33324146
 20
1.42188202
  0
VERTEX
  8
0
 10
-0.33837824
 20
1.40001683
  0
VERTEX
  8
0
 10
-0.34945552
 20
1.35641953
  0
VERTEX
  8
0
 10
-0.35424026
 20
1.33428524
  0
VERTEX
  8
0
 10
-0.35775187
 20
1.31165904
  0
VERTEX
  8
0
 10
-0.39021933
 20
1.22536982
  0
VERTEX
  8
0
 10
-0.42616785
 20
1.13720868
  0
VERTEX
  8
0
 10
-0.46455961
 20
1.05036737
  0
VERTEX
  8
0
 10
-0.48434740
 20
1.00843908
  0
VERTEX
  8
0
 10
-0.50435681
 20
0.96803764
  0
VERTEX
  8
0
 10
-0.51323164
 20
0.99463058
  0
VERTEX
  8
0
 10
-0.52101441
 20
1.02200244
  0
VERTEX
  8
0
 10
-0.52776456
 20
1.05004957
  0
VERTEX
  8
0
 10
-0.53354155
 20
1.07866829
  0
VERTEX
  8
0
 10
-0.53840480
 20
1.10775495
  0
VERTEX
  8
0
 10
-0.54241377
 20
1.13720587
  0
VERTEX
  8
0
 10
-0.54562790
 20
1.16691739
  0
VERTEX
  8
0
 10
-0.54810663
 20
1.19678584
  0
VERTEX
  8
0
 10
-0.55109569
 20
1.25657887
  0
VERTEX
  8
0
 10
-0.55185648
 20
1.31575562
  0
VERTEX
  8
0
 10
-0.55086457
 20
1.37348678
  0
VERTEX
  8
0
 10
-0.54859550
 20
1.42894299
  0
VERTEX
  8
0
 10
-0.55023869
 20
1.43199831
  0
VERTEX
  8
0
 10
-0.55235261
 20
1.43391271
  0
VERTEX
  8
0
 10
-0.55483458
 20
1.43493040
  0
VERTEX
  8
0
 10
-0.55758192
 20
1.43529561
  0
VERTEX
  8
0
 10
-0.56346205
 20
1.43504542
  0
VERTEX
  8
0
 10
-0.56917163
 20
1.43511583
  0
VERTEX
  8
0
 10
-0.58652354
 20
1.41599622
  0
VERTEX
  8
0
 10
-0.60149302
 20
1.39537742
  0
VERTEX
  8
0
 10
-0.61425192
 20
1.37339393
  0
VERTEX
  8
0
 10
-0.62497204
 20
1.35018025
  0
VERTEX
  8
0
 10
-0.63382522
 20
1.32587089
  0
VERTEX
  8
0
 10
-0.64098329
 20
1.30060037
  0
VERTEX
  8
0
 10
-0.64661807
 20
1.27450318
  0
VERTEX
  8
0
 10
-0.65090139
 20
1.24771382
  0
VERTEX
  8
0
 10
-0.65400508
 20
1.22036682
  0
VERTEX
  8
0
 10
-0.65610096
 20
1.19259667
  0
VERTEX
  8
0
 10
-0.65795660
 20
1.13632494
  0
VERTEX
  8
0
 10
-0.65784294
 20
1.07997471
  0
VERTEX
  8
0
 10
-0.65713459
 20
1.02462200
  0
VERTEX
  8
0
 10
-0.65245555
 20
1.00158650
  0
VERTEX
  8
0
 10
-0.64968847
 20
0.97695603
  0
VERTEX
  8
0
 10
-0.64813245
 20
0.95130071
  0
VERTEX
  8
0
 10
-0.64708658
 20
0.92519066
  0
VERTEX
  8
0
 10
-0.64584994
 20
0.89919600
  0
VERTEX
  8
0
 10
-0.64372165
 20
0.87388685
  0
VERTEX
  8
0
 10
-0.64000078
 20
0.84983332
  0
VERTEX
  8
0
 10
-0.63732410
 20
0.83845558
  0
VERTEX
  8
0
 10
-0.63398644
 20
0.82760554
  0
VERTEX
  8
0
 10
-0.63682035
 20
0.82184275
  0
VERTEX
  8
0
 10
-0.63849014
 20
0.81639473
  0
VERTEX
  8
0
 10
-0.63915327
 20
0.81120621
  0
VERTEX
  8
0
 10
-0.63896722
 20
0.80622189
  0
VERTEX
  8
0
 10
-0.63667738
 20
0.79664473
  0
VERTEX
  8
0
 10
-0.63288031
 20
0.78722099
  0
VERTEX
  8
0
 10
-0.62883570
 20
0.77750838
  0
VERTEX
  8
0
 10
-0.62580325
 20
0.76706463
  0
VERTEX
  8
0
 10
-0.62506024
 20
0.76143036
  0
VERTEX
  8
0
 10
-0.62504266
 20
0.75544746
  0
VERTEX
  8
0
 10
-0.62590796
 20
0.74906063
  0
VERTEX
  8
0
 10
-0.62781360
 20
0.74221460
  0
VERTEX
  8
0
 10
-0.61944473
 20
0.72369830
  0
VERTEX
  8
0
 10
-0.61195738
 20
0.70511222
  0
VERTEX
  8
0
 10
-0.60453557
 20
0.68683999
  0
VERTEX
  8
0
 10
-0.59636333
 20
0.66926525
  0
VERTEX
  8
0
 10
-0.58662469
 20
0.65277162
  0
VERTEX
  8
0
 10
-0.58091298
 20
0.64505011
  0
VERTEX
  8
0
 10
-0.57450368
 20
0.63774274
  0
VERTEX
  8
0
 10
-0.56729479
 20
0.63089747
  0
VERTEX
  8
0
 10
-0.55918432
 20
0.62456225
  0
VERTEX
  8
0
 10
-0.55007027
 20
0.61878503
  0
VERTEX
  8
0
 10
-0.53985064
 20
0.61361377
  0
VERTEX
  8
0
 10
-0.52180661
 20
0.61008896
  0
VERTEX
  8
0
 10
-0.50380866
 20
0.60758902
  0
VERTEX
  8
0
 10
-0.48584989
 20
0.60596933
  0
VERTEX
  8
0
 10
-0.46792340
 20
0.60508526
  0
VERTEX
  8
0
 10
-0.43213971
 20
0.60494547
  0
VERTEX
  8
0
 10
-0.39640239
 20
0.60601265
  0
VERTEX
  8
0
 10
-0.36065630
 20
0.60712976
  0
VERTEX
  8
0
 10
-0.32484625
 20
0.60713978
  0
VERTEX
  8
0
 10
-0.30690000
 20
0.60636806
  0
VERTEX
  8
0
 10
-0.28891707
 20
0.60488569
  0
VERTEX
  8
0
 10
-0.27089057
 20
0.60254804
  0
VERTEX
  8
0
 10
-0.25281360
 20
0.59921048
  0
VERTEX
  8
0
 10
-0.21666475
 20
0.59440253
  0
VERTEX
  8
0
 10
-0.17926748
 20
0.58835051
  0
VERTEX
  8
0
 10
-0.14132120
 20
0.58255620
  0
VERTEX
  8
0
 10
-0.10352534
 20
0.57852140
  0
VERTEX
  8
0
 10
-0.08490237
 20
0.57763312
  0
VERTEX
  8
0
 10
-0.06657929
 20
0.57774789
  0
VERTEX
  8
0
 10
-0.04864352
 20
0.57905342
  0
VERTEX
  8
0
 10
-0.03118248
 20
0.58173745
  0
VERTEX
  8
0
 10
-0.01428359
 20
0.58598769
  0
VERTEX
  8
0
 10
0.00196570
 20
0.59199187
  0
VERTEX
  8
0
 10
0.01747798
 20
0.59993772
  0
VERTEX
  8
0
 10
0.03216582
 20
0.61001295
  0
VERTEX
  8
0
 10
0.05062958
 20
0.63026057
  0
VERTEX
  8
0
 10
0.06734339
 20
0.65140883
  0
VERTEX
  8
0
 10
0.08261492
 20
0.67327321
  0
VERTEX
  8
0
 10
0.09675183
 20
0.69566919
  0
VERTEX
  8
0
 10
0.12285240
 20
0.74131779
  0
VERTEX
  8
0
 10
0.14810639
 20
0.78687842
  0
VERTEX
  8
0
 10
0.16118506
 20
0.80916442
  0
VERTEX
  8
0
 10
0.17497506
 20
0.83087485
  0
VERTEX
  8
0
 10
0.18978404
 20
0.85182516
  0
VERTEX
  8
0
 10
0.20591968
 20
0.87183085
  0
VERTEX
  8
0
 10
0.22368962
 20
0.89070736
  0
VERTEX
  8
0
 10
0.24340152
 20
0.90827019
  0
VERTEX
  8
0
 10
0.26536306
 20
0.92433480
  0
VERTEX
  8
0
 10
0.28988187
 20
0.93871665
  0
VERTEX
  8
0
 10
0.31721909
 20
0.95624294
  0
VERTEX
  8
0
 10
0.34457250
 20
0.97543243
  0
VERTEX
  8
0
 10
0.35754142
 20
0.98562339
  0
VERTEX
  8
0
 10
0.36965775
 20
0.99619716
  0
VERTEX
  8
0
 10
0.38063597
 20
1.00714275
  0
VERTEX
  8
0
 10
0.39019051
 20
1.01844916
  0
VERTEX
  8
0
 10
0.39127281
 20
1.00895955
  0
VERTEX
  8
0
 10
0.39037644
 20
0.99973130
  0
VERTEX
  8
0
 10
0.38803299
 20
0.99067583
  0
VERTEX
  8
0
 10
0.38477406
 20
0.98170455
  0
VERTEX
  8
0
 10
0.37763608
 20
0.96366019
  0
VERTEX
  8
0
 10
0.37482021
 20
0.95440993
  0
VERTEX
  8
0
 10
0.37321520
 20
0.94488949
  0
VERTEX
  8
0
 10
0.36000798
 20
0.87345793
  0
VERTEX
  8
0
 10
0.35274821
 20
0.83794235
  0
VERTEX
  8
0
 10
0.34458990
 20
0.80276986
  0
VERTEX
  8
0
 10
0.33518722
 20
0.76809765
  0
VERTEX
  8
0
 10
0.32419434
 20
0.73408295
  0
VERTEX
  8
0
 10
0.31126545
 20
0.70088297
  0
VERTEX
  8
0
 10
0.29605471
 20
0.66865493
  0
VERTEX
  8
0
 10
0.29241345
 20
0.65216778
  0
VERTEX
  8
0
 10
0.28796478
 20
0.63563927
  0
VERTEX
  8
0
 10
0.28269564
 20
0.61915812
  0
VERTEX
  8
0
 10
0.27659296
 20
0.60281307
  0
VERTEX
  8
0
 10
0.26964368
 20
0.58669285
  0
VERTEX
  8
0
 10
0.26183474
 20
0.57088619
  0
VERTEX
  8
0
 10
0.25315306
 20
0.55548183
  0
VERTEX
  8
0
 10
0.24358557
 20
0.54056851
  0
VERTEX
  8
0
 10
0.21304914
 20
0.50648628
  0
VERTEX
  8
0
 10
0.18183622
 20
0.47341137
  0
VERTEX
  8
0
 10
0.15097308
 20
0.44050985
  0
VERTEX
  8
0
 10
0.12148603
 20
0.40694781
  0
VERTEX
  8
0
 10
0.10757925
 20
0.38965850
  0
VERTEX
  8
0
 10
0.09440134
 20
0.37189135
  0
VERTEX
  8
0
 10
0.08208059
 20
0.35354211
  0
VERTEX
  8
0
 10
0.07074529
 20
0.33450654
  0
VERTEX
  8
0
 10
0.06052372
 20
0.31468041
  0
VERTEX
  8
0
 10
0.05154417
 20
0.29395948
  0
VERTEX
  8
0
 10
0.04393492
 20
0.27223950
  0
VERTEX
  8
0
 10
0.03782426
 20
0.24941624
  0
VERTEX
  8
0
 10
0.00655498
 20
0.21133637
  0
VERTEX
  8
0
 10
-0.02634196
 20
0.17495537
  0
VERTEX
  8
0
 10
-0.06079831
 20
0.14028621
  0
VERTEX
  8
0
 10
-0.09674582
 20
0.10734189
  0
VERTEX
  8
0
 10
-0.13411624
 20
0.07613535
  0
VERTEX
  8
0
 10
-0.17284132
 20
0.04667958
  0
VERTEX
  8
0
 10
-0.21285281
 20
0.01898756
  0
VERTEX
  8
0
 10
-0.25408246
 20
-0.00692776
  0
VERTEX
  8
0
 10
-0.29646201
 20
-0.03105339
  0
VERTEX
  8
0
 10
-0.33992321
 20
-0.05337636
  0
VERTEX
  8
0
 10
-0.38439782
 20
-0.07388370
  0
VERTEX
  8
0
 10
-0.42981758
 20
-0.09256244
  0
VERTEX
  8
0
 10
-0.47611425
 20
-0.10939960
  0
VERTEX
  8
0
 10
-0.52321956
 20
-0.12438222
  0
VERTEX
  8
0
 10
-0.57106528
 20
-0.13749731
  0
VERTEX
  8
0
 10
-0.61958315
 20
-0.14873191
  0
VERTEX
  8
0
 10
-0.65711388
 20
-0.15050355
  0
VERTEX
  8
0
 10
-0.69452370
 20
-0.15027606
  0
VERTEX
  8
0
 10
-0.73168311
 20
-0.14812536
  0
VERTEX
  8
0
 10
-0.76846264
 20
-0.14412735
  0
VERTEX
  8
0
 10
-0.80473279
 20
-0.13835794
  0
VERTEX
  8
0
 10
-0.84036410
 20
-0.13089305
  0
VERTEX
  8
0
 10
-0.87522706
 20
-0.12180859
  0
VERTEX
  8
0
 10
-0.90919220
 20
-0.11118047
  0
VERTEX
  8
0
 10
-0.91085576
 20
-0.11338144
  0
VERTEX
  8
0
 10
-0.91346677
 20
-0.11401781
  0
VERTEX
  8
0
 10
-0.91612672
 20
-0.11465011
  0
VERTEX
  8
0
 10
-0.91793706
 20
-0.11683890
  0
VERTEX
  8
0
 10
-0.90927546
 20
-0.13332040
  0
VERTEX
  8
0
 10
-0.89930301
 20
-0.14966955
  0
VERTEX
  8
0
 10
-0.87697086
 20
-0.18244421
  0
VERTEX
  8
0
 10
-0.85403128
 20
-0.21610963
  0
VERTEX
  8
0
 10
-0.84329953
 20
-0.23357224
  0
VERTEX
  8
0
 10
-0.83357492
 20
-0.25161256
  0
VERTEX
  8
0
 10
-0.82667556
 20
-0.31290263
  0
VERTEX
  8
0
 10
-0.82341960
 20
-0.34513414
  0
VERTEX
  8
0
 10
-0.82129800
 20
-0.37742987
  0
VERTEX
  8
0
 10
-0.82106467
 20
-0.40904473
  0
VERTEX
  8
0
 10
-0.82189170
 20
-0.42436399
  0
VERTEX
  8
0
 10
-0.82347352
 20
-0.43923364
  0
VERTEX
  8
0
 10
-0.82590435
 20
-0.45356053
  0
VERTEX
  8
0
 10
-0.82927844
 20
-0.46725152
  0
VERTEX
  8
0
 10
-0.83369003
 20
-0.48021349
  0
VERTEX
  8
0
 10
-0.83923336
 20
-0.49235331
  0
VERTEX
  8
0
 10
-0.85567216
 20
-0.50138217
  0
VERTEX
  8
0
 10
-0.87190449
 20
-0.51154915
  0
VERTEX
  8
0
 10
-0.90439577
 20
-0.53249150
  0
VERTEX
  8
0
 10
-0.92097773
 20
-0.54186389
  0
VERTEX
  8
0
 10
-0.93799926
 20
-0.54956845
  0
VERTEX
  8
0
 10
-0.95562185
 20
-0.55490369
  0
VERTEX
  8
0
 10
-0.96470902
 20
-0.55646360
  0
VERTEX
  8
0
 10
-0.97400702
 20
-0.55716812
  0
VERTEX
  8
0
 10
-0.97003115
 20
-0.53855220
  0
VERTEX
  8
0
 10
-0.96725061
 20
-0.52029846
  0
VERTEX
  8
0
 10
-0.96561415
 20
-0.50239612
  0
VERTEX
  8
0
 10
-0.96507051
 20
-0.48483436
  0
VERTEX
  8
0
 10
-0.96556843
 20
-0.46760238
  0
VERTEX
  8
0
 10
-0.96705664
 20
-0.45068938
  0
VERTEX
  8
0
 10
-0.96948391
 20
-0.43408454
  0
VERTEX
  8
0
 10
-0.97279896
 20
-0.41777708
  0
VERTEX
  8
0
 10
-0.97695054
 20
-0.40175618
  0
VERTEX
  8
0
 10
-0.98188739
 20
-0.38601104
  0
VERTEX
  8
0
 10
-0.99391188
 20
-0.35530483
  0
VERTEX
  8
0
 10
-1.00846237
 20
-0.32557200
  0
VERTEX
  8
0
 10
-1.02512880
 20
-0.29672614
  0
VERTEX
  8
0
 10
-1.04350110
 20
-0.26868080
  0
VERTEX
  8
0
 10
-1.06316923
 20
-0.24134956
  0
VERTEX
  8
0
 10
-1.08372311
 20
-0.21464598
  0
VERTEX
  8
0
 10
-1.10475268
 20
-0.18848364
  0
VERTEX
  8
0
 10
-1.14659869
 20
-0.13743691
  0
VERTEX
  8
0
 10
-1.16659500
 20
-0.11237966
  0
VERTEX
  8
0
 10
-1.18542677
 20
-0.08751791
  0
SEQEND
  0
POLYLINE
  8
Default_Layer
 66
   1
 39
0.000000
 70
    1
  0
VERTEX
  8
0
 10
-1.41639385
 20
-0.96766195
  0
VERTEX
  8
0
 10
-1.39632234
 20
-0.95309617
  0
VERTEX
  8
0
 10
-1.37576995
 20
-0.93938861
  0
VERTEX
  8
0
 10
-1.35475703
 20
-0.92651712
  0
VERTEX
  8
0
 10
-1.33330394
 20
-0.91445958
  0
VERTEX
  8
0
 10
-1.31143103
 20
-0.90319385
  0
VERTEX
  8
0
 10
-1.28915868
 20
-0.89269781
  0
VERTEX
  8
0
 10
-1.26650722
 20
-0.88294932
  0
VERTEX
  8
0
 10
-1.24349702
 20
-0.87392625
  0
VERTEX
  8
0
 10
-1.22014844
 20
-0.86560646
  0
VERTEX
  8
0
 10
-1.19648183
 20
-0.85796783
  0
VERTEX
  8
0
 10
-1.14827596
 20
-0.84464552
  0
VERTEX
  8
0
 10
-1.09904227
 20
-0.83378226
  0
VERTEX
  8
0
 10
-1.04894361
 20
-0.82520098
  0
VERTEX
  8
0
 10
-0.99814285
 20
-0.81872465
  0
VERTEX
  8
0
 10
-0.94680283
 20
-0.81417621
  0
VERTEX
  8
0
 10
-0.89508642
 20
-0.81137859
  0
VERTEX
  8
0
 10
-0.84315647
 20
-0.81015476
  0
VERTEX
  8
0
 10
-0.79117585
 20
-0.81032766
  0
VERTEX
  8
0
 10
-0.73930740
 20
-0.81172023
  0
VERTEX
  8
0
 10
-0.68771398
 20
-0.81415543
  0
VERTEX
  8
0
 10
-0.63655846
 20
-0.81745619
  0
VERTEX
  8
0
 10
-0.54277369
 20
-0.82924692
  0
VERTEX
  8
0
 10
-0.44789935
 20
-0.84287555
  0
VERTEX
  8
0
 10
-0.35256786
 20
-0.85868737
  0
VERTEX
  8
0
 10
-0.25741164
 20
-0.87702768
  0
VERTEX
  8
0
 10
-0.21009690
 20
-0.88725391
  0
VERTEX
  8
0
 10
-0.16306313
 20
-0.89824176
  0
VERTEX
  8
0
 10
-0.11638939
 20
-0.91003438
  0
VERTEX
  8
0
 10
-0.07015475
 20
-0.92267492
  0
VERTEX
  8
0
 10
-0.02443824
 20
-0.93620656
  0
VERTEX
  8
0
 10
0.02068108
 20
-0.95067245
  0
VERTEX
  8
0
 10
0.06512414
 20
-0.96611576
  0
VERTEX
  8
0
 10
0.10881191
 20
-0.98257964
  0
VERTEX
  8
0
 10
0.10377247
 20
-0.99334041
  0
VERTEX
  8
0
 10
0.09782911
 20
-1.00370778
  0
VERTEX
  8
0
 10
0.09108434
 20
-1.01371396
  0
VERTEX
  8
0
 10
0.08364069
 20
-1.02339117
  0
VERTEX
  8
0
 10
0.06706689
 20
-1.04188753
  0
VERTEX
  8
0
 10
0.04892792
 20
-1.05945456
  0
VERTEX
  8
0
 10
0.01123533
 20
-1.09283152
  0
VERTEX
  8
0
 10
-0.00667785
 20
-1.10915687
  0
VERTEX
  8
0
 10
-0.02287533
 20
-1.12558376
  0
VERTEX
  8
0
 10
-0.04975888
 20
-1.13939909
  0
VERTEX
  8
0
 10
-0.07559623
 20
-1.15487685
  0
VERTEX
  8
0
 10
-0.12596410
 20
-1.18823494
  0
VERTEX
  8
0
 10
-0.15141053
 20
-1.20482292
  0
VERTEX
  8
0
 10
-0.17764253
 20
-1.22048863
  0
VERTEX
  8
0
 10
-0.20511807
 20
-1.23458589
  0
VERTEX
  8
0
 10
-0.21946527
 20
-1.24084443
  0
VERTEX
  8
0
 10
-0.23429508
 20
-1.24646853
  0
VERTEX
  8
0
 10
-0.28040953
 20
-1.22053519
  0
VERTEX
  8
0
 10
-0.32787551
 20
-1.19666061
  0
VERTEX
  8
0
 10
-0.37651123
 20
-1.17476185
  0
VERTEX
  8
0
 10
-0.42613491
 20
-1.15475594
  0
VERTEX
  8
0
 10
-0.47656476
 20
-1.13655993
  0
VERTEX
  8
0
 10
-0.52761898
 20
-1.12009089
  0
VERTEX
  8
0
 10
-0.57911578
 20
-1.10526584
  0
VERTEX
  8
0
 10
-0.63087337
 20
-1.09200184
  0
VERTEX
  8
0
 10
-0.68270997
 20
-1.08021594
  0
VERTEX
  8
0
 10
-0.73444377
 20
-1.06982518
  0
VERTEX
  8
0
 10
-0.78589299
 20
-1.06074661
  0
VERTEX
  8
0
 10
-0.83687584
 20
-1.05289728
  0
VERTEX
  8
0
 10
-0.88721053
 20
-1.04619424
  0
VERTEX
  8
0
 10
-0.93671527
 20
-1.04055452
  0
VERTEX
  8
0
 10
-0.98520825
 20
-1.03589520
  0
VERTEX
  8
0
 10
-1.03250771
 20
-1.03213330
  0
VERTEX
  8
0
 10
-1.12279884
 20
-1.02696997
  0
VERTEX
  8
0
 10
-1.20613434
 20
-1.02440093
  0
VERTEX
  8
0
 10
-1.28105987
 20
-1.02376255
  0
VERTEX
  8
0
 10
-1.34612112
 20
-1.02439122
  0
VERTEX
  8
0
 10
-1.44083343
 20
-1.02679520
  0
VERTEX
  8
0
 10
-1.46757584
 20
-1.02724328
  0
VERTEX
  8
0
 10
-1.47515734
 20
-1.02698851
  0
VERTEX
  8
0
 10
-1.47863665
 20
-1.02630392
  0
VERTEX
  8
0
 10
-1.47664799
 20
-1.02100463
  0
VERTEX
  8
0
 10
-1.47392894
 20
-1.01644958
  0
VERTEX
  8
0
 10
-1.47058169
 20
-1.01252596
  0
VERTEX
  8
0
 10
-1.46670840
 20
-1.00912100
  0
VERTEX
  8
0
 10
-1.45779250
 20
-1.00341589
  0
VERTEX
  8
0
 10
-1.44799870
 20
-0.99843195
  0
VERTEX
  8
0
 10
-1.43814446
 20
-0.99326689
  0
VERTEX
  8
0
 10
-1.42904727
 20
-0.98701840
  0
VERTEX
  8
0
 10
-1.42503802
 20
-0.98320590
  0
VERTEX
  8
0
 10
-1.42152457
 20
-0.97878418
  0
VERTEX
  8
0
 10
-1.41860912
 20
-0.97364046
  0
VERTEX
  8
0
 10
-1.41639385
 20
-0.96766195
  0
SEQEND
  0
POLYLINE
  8
Default_Layer
 66
   1
 39
0.000000
 70
    1
  0
VERTEX
  8
0
 10
-0.38090002
 20
-1.47486359
  0
VERTEX
  8
0
 10
-0.38989980
 20
-1.50081023
  0
VERTEX
  8
0
 10
-0.39945041
 20
-1.52545637
  0
VERTEX
  8
0
 10
-0.40978197
 20
-1.54888713
  0
VERTEX
  8
0
 10
-0.42112462
 20
-1.57118765
  0
VERTEX
  8
0
 10
-0.43370848
 20
-1.59244303
  0
VERTEX
  8
0
 10
-0.44776369
 20
-1.61273838
  0
VERTEX
  8
0
 10
-0.46352037
 20
-1.63215884
  0
VERTEX
  8
0
 10
-0.48120866
 20
-1.65078952
  0
VERTEX
  8
0
 10
-0.53233792
 20
-1.63358464
  0
VERTEX
  8
0
 10
-0.58389339
 20
-1.61716340
  0
VERTEX
  8
0
 10
-0.63584683
 20
-1.60148293
  0
VERTEX
  8
0
 10
-0.68816999
 20
-1.58650036
  0
VERTEX
  8
0
 10
-0.79381248
 20
-1.55845747
  0
VERTEX
  8
0
 10
-0.90059487
 20
-1.53269180
  0
VERTEX
  8
0
 10
-1.00829118
 20
-1.50886040
  0
VERTEX
  8
0
 10
-1.11667541
 20
-1.48662036
  0
VERTEX
  8
0
 10
-1.22552159
 20
-1.46562874
  0
VERTEX
  8
0
 10
-1.33460373
 20
-1.44554261
  0
VERTEX
  8
0
 10
-1.39342191
 20
-1.43603096
  0
VERTEX
  8
0
 10
-1.46695763
 20
-1.42670215
  0
VERTEX
  8
0
 10
-1.55123487
 20
-1.41818975
  0
VERTEX
  8
0
 10
-1.64227762
 20
-1.41112733
  0
VERTEX
  8
0
 10
-1.73610984
 20
-1.40614845
  0
VERTEX
  8
0
 10
-1.78282950
 20
-1.40463833
  0
VERTEX
  8
0
 10
-1.82875552
 20
-1.40388669
  0
VERTEX
  8
0
 10
-1.87339090
 20
-1.40397272
  0
VERTEX
  8
0
 10
-1.91623863
 20
-1.40497561
  0
VERTEX
  8
0
 10
-1.95680171
 20
-1.40697456
  0
VERTEX
  8
0
 10
-1.99458315
 20
-1.41004878
  0
VERTEX
  8
0
 10
-1.98969357
 20
-1.40026893
  0
VERTEX
  8
0
 10
-1.98425793
 20
-1.39101222
  0
VERTEX
  8
0
 10
-1.97196327
 20
-1.37388142
  0
VERTEX
  8
0
 10
-1.95812889
 20
-1.35828272
  0
VERTEX
  8
0
 10
-1.94318445
 20
-1.34384246
  0
VERTEX
  8
0
 10
-1.91168419
 20
-1.31694267
  0
VERTEX
  8
0
 10
-1.89598775
 20
-1.30373582
  0
VERTEX
  8
0
 10
-1.88090002
 20
-1.29019281
  0
VERTEX
  8
0
 10
-1.81102034
 20
-1.24412488
  0
VERTEX
  8
0
 10
-1.77439171
 20
-1.22149944
  0
VERTEX
  8
0
 10
-1.73646426
 20
-1.20038978
  0
VERTEX
  8
0
 10
-1.71697293
 20
-1.19069481
  0
VERTEX
  8
0
 10
-1.69710825
 20
-1.18172850
  0
VERTEX
  8
0
 10
-1.67685400
 20
-1.17360743
  0
VERTEX
  8
0
 10
-1.65619396
 20
-1.16644817
  0
VERTEX
  8
0
 10
-1.63511192
 20
-1.16036730
  0
VERTEX
  8
0
 10
-1.61359166
 20
-1.15548138
  0
VERTEX
  8
0
 10
-1.59161697
 20
-1.15190700
  0
VERTEX
  8
0
 10
-1.56917163
 20
-1.14976071
  0
VERTEX
  8
0
 10
-1.51408618
 20
-1.14384675
  0
VERTEX
  8
0
 10
-1.45844810
 20
-1.13975341
  0
VERTEX
  8
0
 10
-1.40236329
 20
-1.13738448
  0
VERTEX
  8
0
 10
-1.34593767
 20
-1.13664371
  0
VERTEX
  8
0
 10
-1.28927713
 20
-1.13743485
  0
VERTEX
  8
0
 10
-1.23248759
 20
-1.13966167
  0
VERTEX
  8
0
 10
-1.17567496
 20
-1.14322794
  0
VERTEX
  8
0
 10
-1.11894515
 20
-1.14803740
  0
VERTEX
  8
0
 10
-1.06240406
 20
-1.15399382
  0
VERTEX
  8
0
 10
-1.00615761
 20
-1.16100096
  0
VERTEX
  8
0
 10
-0.95031170
 20
-1.16896259
  0
VERTEX
  8
0
 10
-0.89497225
 20
-1.17778246
  0
VERTEX
  8
0
 10
-0.84024516
 20
-1.18736433
  0
VERTEX
  8
0
 10
-0.78623634
 20
-1.19761196
  0
VERTEX
  8
0
 10
-0.68079714
 20
-1.21971956
  0
VERTEX
  8
0
 10
-0.61618775
 20
-1.23560951
  0
VERTEX
  8
0
 10
-0.55152020
 20
-1.25039235
  0
VERTEX
  8
0
 10
-0.51940900
 20
-1.25814636
  0
VERTEX
  8
0
 10
-0.48757651
 20
-1.26655690
  0
VERTEX
  8
0
 10
-0.45612050
 20
-1.27593508
  0
VERTEX
  8
0
 10
-0.42513871
 20
-1.28659199
  0
VERTEX
  8
0
 10
-0.41512669
 20
-1.29584943
  0
VERTEX
  8
0
 10
-0.40655874
 20
-1.30565846
  0
VERTEX
  8
0
 10
-0.39933247
 20
-1.31597258
  0
VERTEX
  8
0
 10
-0.39334550
 20
-1.32674528
  0
VERTEX
  8
0
 10
-0.38849545
 20
-1.33793009
  0
VERTEX
  8
0
 10
-0.38467992
 20
-1.34948049
  0
VERTEX
  8
0
 10
-0.38179655
 20
-1.36135000
  0
VERTEX
  8
0
 10
-0.37974296
 20
-1.37349212
  0
VERTEX
  8
0
 10
-0.37771554
 20
-1.39840821
  0
VERTEX
  8
0
 10
-0.37777861
 20
-1.42385680
  0
VERTEX
  8
0
 10
-0.38090002
 20
-1.47486359
  0
SEQEND
  0
POLYLINE
  8
Default_Layer
 66
   1
 39
0.000000
 70
    1
  0
VERTEX
  8
0
 10
-2.29139385
 20
-2.58134507
  0
VERTEX
  8
0
 10
-2.32000419
 20
-2.57419839
  0
VERTEX
  8
0
 10
-2.34954901
 20
-2.56890393
  0
VERTEX
  8
0
 10
-2.40972204
 20
-2.56065021
  0
VERTEX
  8
0
 10
-2.43949020
 20
-2.55608024
  0
VERTEX
  8
0
 10
-2.46847275
 20
-2.55014105
  0
VERTEX
  8
0
 10
-2.48253504
 20
-2.54640632
  0
VERTEX
  8
0
 10
-2.49623967
 20
-2.54202727
  0
VERTEX
  8
0
 10
-2.50953288
 20
-2.53690324
  0
VERTEX
  8
0
 10
-2.52236093
 20
-2.53093355
  0
VERTEX
  8
0
 10
-2.56667468
 20
-2.52066828
  0
VERTEX
  8
0
 10
-2.61051718
 20
-2.50830739
  0
VERTEX
  8
0
 10
-2.65377346
 20
-2.49405036
  0
VERTEX
  8
0
 10
-2.69632854
 20
-2.47809663
  0
VERTEX
  8
0
 10
-2.73806745
 20
-2.46064567
  0
VERTEX
  8
0
 10
-2.77887523
 20
-2.44189692
  0
VERTEX
  8
0
 10
-2.81863689
 20
-2.42204985
  0
VERTEX
  8
0
 10
-2.85723747
 20
-2.40130392
  0
VERTEX
  8
0
 10
-2.87823825
 20
-2.39105942
  0
VERTEX
  8
0
 10
-2.89897384
 20
-2.38000339
  0
VERTEX
  8
0
 10
-2.91938331
 20
-2.36815783
  0
VERTEX
  8
0
 10
-2.93940571
 20
-2.35554476
  0
VERTEX
  8
0
 10
-2.95898010
 20
-2.34218618
  0
VERTEX
  8
0
 10
-2.97804552
 20
-2.32810409
  0
VERTEX
  8
0
 10
-2.99654104
 20
-2.31332052
  0
VERTEX
  8
0
 10
-3.01440572
 20
-2.29785747
  0
VERTEX
  8
0
 10
-3.03157860
 20
-2.28173694
  0
VERTEX
  8
0
 10
-3.04799874
 20
-2.26498095
  0
VERTEX
  8
0
 10
-3.06360520
 20
-2.24761150
  0
VERTEX
  8
0
 10
-3.07833704
 20
-2.22965060
  0
VERTEX
  8
0
 10
-3.09213330
 20
-2.21112027
  0
VERTEX
  8
0
 10
-3.10493304
 20
-2.19204251
  0
VERTEX
  8
0
 10
-3.11667532
 20
-2.17243932
  0
VERTEX
  8
0
 10
-3.12729920
 20
-2.15233273
  0
VERTEX
  8
0
 10
-3.15058583
 20
-2.10774788
  0
VERTEX
  8
0
 10
-3.16164037
 20
-2.08448630
  0
VERTEX
  8
0
 10
-3.17163773
 20
-2.06059297
  0
VERTEX
  8
0
 10
-3.18007939
 20
-2.03607862
  0
VERTEX
  8
0
 10
-3.18646686
 20
-2.01095403
  0
VERTEX
  8
0
 10
-3.19030164
 20
-1.98522993
  0
VERTEX
  8
0
 10
-3.19110598
 20
-1.97214643
  0
VERTEX
  8
0
 10
-3.19108521
 20
-1.95891709
  0
VERTEX
  8
0
 10
-3.18719802
 20
-1.91353388
  0
VERTEX
  8
0
 10
-3.18134963
 20
-1.86889086
  0
VERTEX
  8
0
 10
-3.17398285
 20
-1.82481818
  0
VERTEX
  8
0
 10
-3.16554048
 20
-1.78114599
  0
VERTEX
  8
0
 10
-3.14720020
 20
-1.69432370
  0
VERTEX
  8
0
 10
-3.13818789
 20
-1.65083392
  0
VERTEX
  8
0
 10
-3.12987122
 20
-1.60706524
  0
VERTEX
  8
0
 10
-3.12589195
 20
-1.59907222
  0
VERTEX
  8
0
 10
-3.12285118
 20
-1.59005282
  0
VERTEX
  8
0
 10
-3.11832855
 20
-1.57030080
  0
VERTEX
  8
0
 10
-3.11379021
 20
-1.55054108
  0
VERTEX
  8
0
 10
-3.11072981
 20
-1.54151205
  0
VERTEX
  8
0
 10
-3.10672307
 20
-1.53350557
  0
VERTEX
  8
0
 10
-3.09824470
 20
-1.49389831
  0
VERTEX
  8
0
 10
-3.08745717
 20
-1.45538466
  0
VERTEX
  8
0
 10
-3.07434271
 20
-1.41773702
  0
VERTEX
  8
0
 10
-3.05888356
 20
-1.38072779
  0
VERTEX
  8
0
 10
-3.05139628
 20
-1.36144799
  0
VERTEX
  8
0
 10
-3.04307440
 20
-1.34212184
  0
VERTEX
  8
0
 10
-3.03391847
 20
-1.32284993
  0
VERTEX
  8
0
 10
-3.02392901
 20
-1.30373282
  0
VERTEX
  8
0
 10
-3.01310655
 20
-1.28487110
  0
VERTEX
  8
0
 10
-3.00145162
 20
-1.26636533
  0
VERTEX
  8
0
 10
-2.98896475
 20
-1.24831610
  0
VERTEX
  8
0
 10
-2.97564648
 20
-1.23082397
  0
VERTEX
  8
0
 10
-2.96149733
 20
-1.21398953
  0
VERTEX
  8
0
 10
-2.94651784
 20
-1.19791333
  0
VERTEX
  8
0
 10
-2.93070853
 20
-1.18269597
  0
VERTEX
  8
0
 10
-2.91406994
 20
-1.16843802
  0
VERTEX
  8
0
 10
-2.89660260
 20
-1.15524004
  0
VERTEX
  8
0
 10
-2.87830703
 20
-1.14320262
  0
VERTEX
  8
0
 10
-2.85918377
 20
-1.13242633
  0
VERTEX
  8
0
 10
-2.83923336
 20
-1.12301174
  0
VERTEX
  8
0
 10
-2.79284328
 20
-1.10297116
  0
VERTEX
  8
0
 10
-2.74558319
 20
-1.08477143
  0
VERTEX
  8
0
 10
-2.69743728
 20
-1.06794493
  0
VERTEX
  8
0
 10
-2.64838973
 20
-1.05202409
  0
VERTEX
  8
0
 10
-2.62353731
 20
-1.04736504
  0
VERTEX
  8
0
 10
-2.59852938
 20
-1.04168451
  0
VERTEX
  8
0
 10
-2.57343915
 20
-1.03511162
  0
VERTEX
  8
0
 10
-2.54833983
 20
-1.02777553
  0
VERTEX
  8
0
 10
-2.49840671
 20
-1.01133034
  0
VERTEX
  8
0
 10
-2.44931566
 20
-0.99338211
  0
VERTEX
  8
0
 10
-2.26161579
 20
-0.95129566
  0
VERTEX
  8
0
 10
-2.16714670
 20
-0.93147934
  0
VERTEX
  8
0
 10
-2.11970567
 20
-0.92242424
  0
VERTEX
  8
0
 10
-2.07210729
 20
-0.91414596
  0
VERTEX
  8
0
 10
-2.02433680
 20
-0.90680060
  0
VERTEX
  8
0
 10
-1.97637942
 20
-0.90054426
  0
VERTEX
  8
0
 10
-1.92822039
 20
-0.89553302
  0
VERTEX
  8
0
 10
-1.87984494
 20
-0.89192298
  0
VERTEX
  8
0
 10
-1.83123830
 20
-0.88987024
  0
VERTEX
  8
0
 10
-1.78238571
 20
-0.88953087
  0
VERTEX
  8
0
 10
-1.73327238
 20
-0.89106099
  0
VERTEX
  8
0
 10
-1.68388356
 20
-0.89461668
  0
VERTEX
  8
0
 10
-1.66264481
 20
-0.89375356
  0
VERTEX
  8
0
 10
-1.64104926
 20
-0.89384903
  0
VERTEX
  8
0
 10
-1.59725539
 20
-0.89563873
  0
VERTEX
  8
0
 10
-1.55343713
 20
-0.89743181
  0
VERTEX
  8
0
 10
-1.53181109
 20
-0.89753150
  0
VERTEX
  8
0
 10
-1.51052965
 20
-0.89667429
  0
VERTEX
  8
0
 10
-1.51611440
 20
-0.90845202
  0
VERTEX
  8
0
 10
-1.52310764
 20
-0.91908562
  0
VERTEX
  8
0
 10
-1.53128405
 20
-0.92875290
  0
VERTEX
  8
0
 10
-1.54041834
 20
-0.93763166
  0
VERTEX
  8
0
 10
-1.56065929
 20
-0.95373488
  0
VERTEX
  8
0
 10
-1.58202802
 20
-0.96881773
  0
VERTEX
  8
0
 10
-1.60272206
 20
-0.98430266
  0
VERTEX
  8
0
 10
-1.61225280
 20
-0.99264042
  0
VERTEX
  8
0
 10
-1.62093893
 20
-1.00161212
  0
VERTEX
  8
0
 10
-1.62855516
 20
-1.01139557
  0
VERTEX
  8
0
 10
-1.63487617
 20
-1.02216857
  0
VERTEX
  8
0
 10
-1.63967665
 20
-1.03410893
  0
VERTEX
  8
0
 10
-1.64273130
 20
-1.04739446
  0
VERTEX
  8
0
 10
-1.67516118
 20
-1.06179668
  0
VERTEX
  8
0
 10
-1.70740315
 20
-1.07711793
  0
VERTEX
  8
0
 10
-1.73937834
 20
-1.09335603
  0
VERTEX
  8
0
 10
-1.77100787
 20
-1.11050882
  0
VERTEX
  8
0
 10
-1.80221288
 20
-1.12857414
  0
VERTEX
  8
0
 10
-1.83291450
 20
-1.14754982
  0
VERTEX
  8
0
 10
-1.86303384
 20
-1.16743370
  0
VERTEX
  8
0
 10
-1.89249204
 20
-1.18822362
  0
VERTEX
  8
0
 10
-1.92121023
 20
-1.20991742
  0
VERTEX
  8
0
 10
-1.94910952
 20
-1.23251292
  0
VERTEX
  8
0
 10
-1.97611106
 20
-1.25600796
  0
VERTEX
  8
0
 10
-2.00213596
 20
-1.28040039
  0
VERTEX
  8
0
 10
-2.02710536
 20
-1.30568803
  0
VERTEX
  8
0
 10
-2.05094038
 20
-1.33186873
  0
VERTEX
  8
0
 10
-2.07356215
 20
-1.35894032
  0
VERTEX
  8
0
 10
-2.09489179
 20
-1.38690063
  0
VERTEX
  8
0
 10
-2.09235955
 20
-1.40053893
  0
VERTEX
  8
0
 10
-2.09200414
 20
-1.41308880
  0
VERTEX
  8
0
 10
-2.09359220
 20
-1.42466663
  0
VERTEX
  8
0
 10
-2.09689036
 20
-1.43538881
  0
VERTEX
  8
0
 10
-2.10166525
 20
-1.44537172
  0
VERTEX
  8
0
 10
-2.10768353
 20
-1.45473175
  0
VERTEX
  8
0
 10
-2.11471182
 20
-1.46358528
  0
VERTEX
  8
0
 10
-2.12251676
 20
-1.47204870
  0
VERTEX
  8
0
 10
-2.13952316
 20
-1.48827076
  0
VERTEX
  8
0
 10
-2.15683582
 20
-1.50432900
  0
VERTEX
  8
0
 10
-2.17258786
 20
-1.52115452
  0
VERTEX
  8
0
 10
-2.17929524
 20
-1.53014598
  0
VERTEX
  8
0
 10
-2.18491237
 20
-1.53967841
  0
VERTEX
  8
0
 10
-2.21701880
 20
-1.57760738
  0
VERTEX
  8
0
 10
-2.24919143
 20
-1.61792426
  0
VERTEX
  8
0
 10
-2.28037461
 20
-1.66050182
  0
VERTEX
  8
0
 10
-2.29526526
 20
-1.68259860
  0
VERTEX
  8
0
 10
-2.30951268
 20
-1.70521285
  0
VERTEX
  8
0
 10
-2.32298491
 20
-1.72832865
  0
VERTEX
  8
0
 10
-2.33554999
 20
-1.75193011
  0
VERTEX
  8
0
 10
-2.34707597
 20
-1.77600133
  0
VERTEX
  8
0
 10
-2.35743089
 20
-1.80052640
  0
VERTEX
  8
0
 10
-2.36648280
 20
-1.82548941
  0
VERTEX
  8
0
 10
-2.37409973
 20
-1.85087448
  0
VERTEX
  8
0
 10
-2.38014973
 20
-1.87666568
  0
VERTEX
  8
0
 10
-2.38450085
 20
-1.90284713
  0
VERTEX
  8
0
 10
-2.38410481
 20
-1.91071284
  0
VERTEX
  8
0
 10
-2.38299701
 20
-1.91831592
  0
VERTEX
  8
0
 10
-2.37888260
 20
-1.93282093
  0
VERTEX
  8
0
 10
-2.37263055
 20
-1.94653569
  0
VERTEX
  8
0
 10
-2.36471381
 20
-1.95963371
  0
VERTEX
  8
0
 10
-2.35560533
 20
-1.97228849
  0
VERTEX
  8
0
 10
-2.34577804
 20
-1.98467356
  0
VERTEX
  8
0
 10
-2.32585887
 20
-2.00932861
  0
VERTEX
  8
0
 10
-2.33237918
 20
-2.03400007
  0
VERTEX
  8
0
 10
-2.33773496
 20
-2.05939572
  0
VERTEX
  8
0
 10
-2.34712018
 20
-2.11103284
  0
VERTEX
  8
0
 10
-2.35223324
 20
-2.13661090
  0
VERTEX
  8
0
 10
-2.35834902
 20
-2.16158636
  0
VERTEX
  8
0
 10
-2.36600934
 20
-2.18562752
  0
VERTEX
  8
0
 10
-2.37575599
 20
-2.20840269
  0
VERTEX
  8
0
 10
-2.37849395
 20
-2.20111001
  0
VERTEX
  8
0
 10
-2.38184665
 20
-2.19456541
  0
VERTEX
  8
0
 10
-2.38576327
 20
-2.18871447
  0
VERTEX
  8
0
 10
-2.39019298
 20
-2.18350279
  0
VERTEX
  8
0
 10
-2.40038838
 20
-2.17477953
  0
VERTEX
  8
0
 10
-2.41202624
 20
-2.16796034
  0
VERTEX
  8
0
 10
-2.42469996
 20
-2.16260994
  0
VERTEX
  8
0
 10
-2.43800292
 20
-2.15829301
  0
VERTEX
  8
0
 10
-2.46487019
 20
-2.15101845
  0
VERTEX
  8
0
 10
-2.47762127
 20
-2.14719023
  0
VERTEX
  8
0
 10
-2.48937518
 20
-2.14265432
  0
VERTEX
  8
0
 10
-2.49972531
 20
-2.13697543
  0
VERTEX
  8
0
 10
-2.50826506
 20
-2.12971827
  0
VERTEX
  8
0
 10
-2.51172898
 20
-2.12536181
  0
VERTEX
  8
0
 10
-2.51458782
 20
-2.12044754
  0
VERTEX
  8
0
 10
-2.51679076
 20
-2.11492106
  0
VERTEX
  8
0
 10
-2.51828698
 20
-2.10872796
  0
VERTEX
  8
0
 10
-2.51902565
 20
-2.10181381
  0
VERTEX
  8
0
 10
-2.51895594
 20
-2.09412422
  0
VERTEX
  8
0
 10
-2.51802703
 20
-2.08560477
  0
VERTEX
  8
0
 10
-2.51618809
 20
-2.07620104
  0
VERTEX
  8
0
 10
-2.52160236
 20
-2.07453297
  0
VERTEX
  8
0
 10
-2.52679544
 20
-2.07396191
  0
VERTEX
  8
0
 10
-2.53180883
 20
-2.07432709
  0
VERTEX
  8
0
 10
-2.53668405
 20
-2.07546774
  0
VERTEX
  8
0
 10
-2.54618605
 20
-2.07943232
  0
VERTEX
  8
0
 10
-2.55563357
 20
-2.08456942
  0
VERTEX
  8
0
 10
-2.56535874
 20
-2.08959283
  0
VERTEX
  8
0
 10
-2.57569369
 20
-2.09321633
  0
VERTEX
  8
0
 10
-2.58119362
 20
-2.09410118
  0
VERTEX
  8
0
 10
-2.58697054
 20
-2.09415371
  0
VERTEX
  8
0
 10
-2.59306597
 20
-2.09321316
  0
VERTEX
  8
0
 10
-2.59952142
 20
-2.09111874
  0
VERTEX
  8
0
 10
-2.60758229
 20
-2.09086375
  0
VERTEX
  8
0
 10
-2.61522887
 20
-2.08937663
  0
VERTEX
  8
0
 10
-2.62238940
 20
-2.08678629
  0
VERTEX
  8
0
 10
-2.62899211
 20
-2.08322161
  0
VERTEX
  8
0
 10
-2.63496526
 20
-2.07881152
  0
VERTEX
  8
0
 10
-2.64023709
 20
-2.07368491
  0
VERTEX
  8
0
 10
-2.64473583
 20
-2.06797068
  0
VERTEX
  8
0
 10
-2.64838973
 20
-2.06179775
  0
VERTEX
  8
0
 10
-2.65164024
 20
-2.05639653
  0
VERTEX
  8
0
 10
-2.65352704
 20
-2.05053436
  0
VERTEX
  8
0
 10
-2.65554923
 20
-2.03827561
  0
VERTEX
  8
0
 10
-2.65685447
 20
-2.03230321
  0
VERTEX
  8
0
 10
-2.65913570
 20
-2.02671826
  0
VERTEX
  8
0
 10
-2.66297786
 20
-2.02173284
  0
VERTEX
  8
0
 10
-2.66896587
 20
-2.01755907
  0
VERTEX
  8
0
 10
-2.67510140
 20
-2.02251231
  0
VERTEX
  8
0
 10
-2.68142375
 20
-2.02561020
  0
VERTEX
  8
0
 10
-2.68790913
 20
-2.02718304
  0
VERTEX
  8
0
 10
-2.69453377
 20
-2.02756113
  0
VERTEX
  8
0
 10
-2.70810573
 20
-2.02605424
  0
VERTEX
  8
0
 10
-2.72194940
 20
-2.02373191
  0
VERTEX
  8
0
 10
-2.72848205
 20
-2.01953543
  0
VERTEX
  8
0
 10
-2.73360337
 20
-2.01477086
  0
VERTEX
  8
0
 10
-2.73747234
 20
-2.00950070
  0
VERTEX
  8
0
 10
-2.74024789
 20
-2.00378747
  0
VERTEX
  8
0
 10
-2.74208898
 20
-1.99769368
  0
VERTEX
  8
0
 10
-2.74315456
 20
-1.99128184
  0
VERTEX
  8
0
 10
-2.74359498
 20
-1.97775405
  0
VERTEX
  8
0
 10
-2.74216353
 20
-1.94963240
  0
VERTEX
  8
0
 10
-2.74283485
 20
-1.93603872
  0
VERTEX
  8
0
 10
-2.74407361
 20
-1.92957746
  0
VERTEX
  8
0
 10
-2.74612636
 20
-1.92342326
  0
VERTEX
  8
0
 10
-2.76826687
 20
-1.92144103
  0
VERTEX
  8
0
 10
-2.79016445
 20
-1.91817939
  0
VERTEX
  8
0
 10
-2.80080790
 20
-1.91568045
  0
VERTEX
  8
0
 10
-2.81113352
 20
-1.91239565
  0
VERTEX
  8
0
 10
-2.82105562
 20
-1.90816966
  0
VERTEX
  8
0
 10
-2.83048850
 20
-1.90284713
  0
VERTEX
  8
0
 10
-2.83723620
 20
-1.88879913
  0
VERTEX
  8
0
 10
-2.84295290
 20
-1.87428558
  0
VERTEX
  8
0
 10
-2.85221847
 20
-1.84425923
  0
VERTEX
  8
0
 10
-2.86013551
 20
-1.81356284
  0
VERTEX
  8
0
 10
-2.86855434
 20
-1.78299117
  0
VERTEX
  8
0
 10
-2.87629753
 20
-1.78452182
  0
VERTEX
  8
0
 10
-2.88248040
 20
-1.78793098
  0
VERTEX
  8
0
 10
-2.88747507
 20
-1.79280477
  0
VERTEX
  8
0
 10
-2.89165364
 20
-1.79872932
  0
VERTEX
  8
0
 10
-2.89905089
 20
-1.81207525
  0
VERTEX
  8
0
 10
-2.90301378
 20
-1.81866889
  0
VERTEX
  8
0
 10
-2.90764899
 20
-1.82465783
  0
VERTEX
  8
0
 10
-2.91517485
 20
-1.84113443
  0
VERTEX
  8
0
 10
-2.92117748
 20
-1.85840785
  0
VERTEX
  8
0
 10
-2.92538012
 20
-1.87623360
  0
VERTEX
  8
0
 10
-2.92750600
 20
-1.89436719
  0
VERTEX
  8
0
 10
-2.92727836
 20
-1.91256411
  0
VERTEX
  8
0
 10
-2.92442042
 20
-1.93057987
  0
VERTEX
  8
0
 10
-2.92191860
 20
-1.93944341
  0
VERTEX
  8
0
 10
-2.91865543
 20
-1.94816998
  0
VERTEX
  8
0
 10
-2.91459629
 20
-1.95672901
  0
VERTEX
  8
0
 10
-2.90970661
 20
-1.96508993
  0
VERTEX
  8
0
 10
-2.88920696
 20
-1.98793490
  0
VERTEX
  8
0
 10
-2.87872706
 20
-1.99912767
  0
VERTEX
  8
0
 10
-2.86762330
 20
-2.00940430
  0
VERTEX
  8
0
 10
-2.85554281
 20
-2.01819256
  0
VERTEX
  8
0
 10
-2.84213273
 20
-2.02492022
  0
VERTEX
  8
0
 10
-2.83481883
 20
-2.02733249
  0
VERTEX
  8
0
 10
-2.82704021
 20
-2.02901503
  0
VERTEX
  8
0
 10
-2.81875276
 20
-2.02989629
  0
VERTEX
  8
0
 10
-2.80991237
 20
-2.02990475
  0
VERTEX
  8
0
 10
-2.80923001
 20
-2.03758686
  0
VERTEX
  8
0
 10
-2.80774761
 20
-2.04505728
  0
VERTEX
  8
0
 10
-2.80260264
 20
-2.05931318
  0
VERTEX
  8
0
 10
-2.79491732
 20
-2.07257283
  0
VERTEX
  8
0
 10
-2.78513152
 20
-2.08473657
  0
VERTEX
  8
0
 10
-2.77368509
 20
-2.09570477
  0
VERTEX
  8
0
 10
-2.76101789
 20
-2.10537779
  0
VERTEX
  8
0
 10
-2.74756980
 20
-2.11365598
  0
VERTEX
  8
0
 10
-2.73378068
 20
-2.12043973
  0
VERTEX
  8
0
 10
-2.72181043
 20
-2.12015709
  0
VERTEX
  8
0
 10
-2.70978948
 20
-2.12048142
  0
VERTEX
  8
0
 10
-2.69819006
 20
-2.12014190
  0
VERTEX
  8
0
 10
-2.68748438
 20
-2.11786771
  0
VERTEX
  8
0
 10
-2.68411883
 20
-2.12954310
  0
VERTEX
  8
0
 10
-2.67953399
 20
-2.14067588
  0
VERTEX
  8
0
 10
-2.67377312
 20
-2.15118301
  0
VERTEX
  8
0
 10
-2.66687948
 20
-2.16098144
  0
VERTEX
  8
0
 10
-2.65889634
 20
-2.16998813
  0
VERTEX
  8
0
 10
-2.64986694
 20
-2.17812005
  0
VERTEX
  8
0
 10
-2.63983454
 20
-2.18529414
  0
VERTEX
  8
0
 10
-2.62884241
 20
-2.19142738
  0
VERTEX
  8
0
 10
-2.59629816
 20
-2.19029220
  0
VERTEX
  8
0
 10
-2.58158256
 20
-2.18905401
  0
VERTEX
  8
0
 10
-2.57020043
 20
-2.18731215
  0
VERTEX
  8
0
 10
-2.56321799
 20
-2.19669304
  0
VERTEX
  8
0
 10
-2.55519568
 20
-2.20528040
  0
VERTEX
  8
0
 10
-2.54623632
 20
-2.21287492
  0
VERTEX
  8
0
 10
-2.53644273
 20
-2.21927728
  0
VERTEX
  8
0
 10
-2.52591772
 20
-2.22428816
  0
VERTEX
  8
0
 10
-2.51476411
 20
-2.22770826
  0
VERTEX
  8
0
 10
-2.50308470
 20
-2.22933825
  0
VERTEX
  8
0
 10
-2.49098233
 20
-2.22897882
  0
VERTEX
  8
0
 10
-2.48409330
 20
-2.22544785
  0
VERTEX
  8
0
 10
-2.47768102
 20
-2.22382351
  0
VERTEX
  8
0
 10
-2.47167204
 20
-2.22386610
  0
VERTEX
  8
0
 10
-2.46599295
 20
-2.22533592
  0
VERTEX
  8
0
 10
-2.46057031
 20
-2.22799325
  0
VERTEX
  8
0
 10
-2.45533070
 20
-2.23159840
  0
VERTEX
  8
0
 10
-2.44510683
 20
-2.24069332
  0
VERTEX
  8
0
 10
-2.43473390
 20
-2.25070304
  0
VERTEX
  8
0
 10
-2.42362450
 20
-2.25970993
  0
VERTEX
  8
0
 10
-2.41761005
 20
-2.26323805
  0
VERTEX
  8
0
 10
-2.41119118
 20
-2.26579635
  0
VERTEX
  8
0
 10
-2.40429449
 20
-2.26714512
  0
VERTEX
  8
0
 10
-2.39684652
 20
-2.26704466
  0
VERTEX
  8
0
 10
-2.39622892
 20
-2.27737377
  0
VERTEX
  8
0
 10
-2.39422333
 20
-2.28814939
  0
VERTEX
  8
0
 10
-2.38734888
 20
-2.31064542
  0
VERTEX
  8
0
 10
-2.37882457
 20
-2.33374322
  0
VERTEX
  8
0
 10
-2.37125184
 20
-2.35665325
  0
VERTEX
  8
0
 10
-2.36863526
 20
-2.36779112
  0
VERTEX
  8
0
 10
-2.36723210
 20
-2.37858597
  0
VERTEX
  8
0
 10
-2.36736754
 20
-2.38893911
  0
VERTEX
  8
0
 10
-2.36936676
 20
-2.39875185
  0
VERTEX
  8
0
 10
-2.37355493
 20
-2.40792549
  0
VERTEX
  8
0
 10
-2.38025724
 20
-2.41636134
  0
VERTEX
  8
0
 10
-2.38979886
 20
-2.42396071
  0
VERTEX
  8
0
 10
-2.40250496
 20
-2.43062491
  0
VERTEX
  8
0
 10
-2.40966465
 20
-2.43285486
  0
VERTEX
  8
0
 10
-2.41623409
 20
-2.43385539
  0
VERTEX
  8
0
 10
-2.42225455
 20
-2.43372271
  0
VERTEX
  8
0
 10
-2.42776726
 20
-2.43255304
  0
VERTEX
  8
0
 10
-2.43281348
 20
-2.43044258
  0
VERTEX
  8
0
 10
-2.43743445
 20
-2.42748756
  0
VERTEX
  8
0
 10
-2.44556566
 20
-2.41942866
  0
VERTEX
  8
0
 10
-2.45249089
 20
-2.40914607
  0
VERTEX
  8
0
 10
-2.45854012
 20
-2.39740948
  0
VERTEX
  8
0
 10
-2.46933058
 20
-2.37265320
  0
VERTEX
  8
0
 10
-2.47473180
 20
-2.36117292
  0
VERTEX
  8
0
 10
-2.48057700
 20
-2.35131750
  0
VERTEX
  8
0
 10
-2.48719618
 20
-2.34385665
  0
VERTEX
  8
0
 10
-2.49089913
 20
-2.34126473
  0
VERTEX
  8
0
 10
-2.49491932
 20
-2.33956009
  0
VERTEX
  8
0
 10
-2.49929800
 20
-2.33883895
  0
VERTEX
  8
0
 10
-2.50407643
 20
-2.33919752
  0
VERTEX
  8
0
 10
-2.50929584
 20
-2.34073202
  0
VERTEX
  8
0
 10
-2.51499749
 20
-2.34353866
  0
VERTEX
  8
0
 10
-2.52122263
 20
-2.34771366
  0
VERTEX
  8
0
 10
-2.52801250
 20
-2.35335322
  0
VERTEX
  8
0
 10
-2.54345146
 20
-2.36941092
  0
VERTEX
  8
0
 10
-2.56500970
 20
-2.37388053
  0
VERTEX
  8
0
 10
-2.58731718
 20
-2.37770316
  0
VERTEX
  8
0
 10
-2.59853584
 20
-2.37847931
  0
VERTEX
  8
0
 10
-2.60968255
 20
-2.37802267
  0
VERTEX
  8
0
 10
-2.62067088
 20
-2.37597622
  0
VERTEX
  8
0
 10
-2.63141443
 20
-2.37198294
  0
VERTEX
  8
0
 10
-2.64021467
 20
-2.36526750
  0
VERTEX
  8
0
 10
-2.64753211
 20
-2.35795905
  0
VERTEX
  8
0
 10
-2.65354236
 20
-2.35012575
  0
VERTEX
  8
0
 10
-2.65842105
 20
-2.34183580
  0
VERTEX
  8
0
 10
-2.66234380
 20
-2.33315734
  0
VERTEX
  8
0
 10
-2.66548621
 20
-2.32415857
  0
VERTEX
  8
0
 10
-2.67013253
 20
-2.30547273
  0
VERTEX
  8
0
 10
-2.67376496
 20
-2.28632366
  0
VERTEX
  8
0
 10
-2.67778846
 20
-2.26725674
  0
VERTEX
  8
0
 10
-2.68360796
 20
-2.24881734
  0
VERTEX
  8
0
 10
-2.68763026
 20
-2.24000339
  0
VERTEX
  8
0
 10
-2.69262842
 20
-2.23155084
  0
VERTEX
  8
0
 10
-2.70032912
 20
-2.23024007
  0
VERTEX
  8
0
 10
-2.70710589
 20
-2.23030659
  0
VERTEX
  8
0
 10
-2.71308918
 20
-2.23155150
  0
VERTEX
  8
0
 10
-2.71840943
 20
-2.23377592
  0
VERTEX
  8
0
 10
-2.72319710
 20
-2.23678094
  0
VERTEX
  8
0
 10
-2.72758263
 20
-2.24036768
  0
VERTEX
  8
0
 10
-2.73566909
 20
-2.24849072
  0
VERTEX
  8
0
 10
-2.74371239
 20
-2.25655388
  0
VERTEX
  8
0
 10
-2.74804399
 20
-2.26006578
  0
VERTEX
  8
0
 10
-2.75275614
 20
-2.26296603
  0
VERTEX
  8
0
 10
-2.75797931
 20
-2.26505573
  0
VERTEX
  8
0
 10
-2.76384394
 20
-2.26613600
  0
VERTEX
  8
0
 10
-2.77048047
 20
-2.26600794
  0
VERTEX
  8
0
 10
-2.77801936
 20
-2.26447265
  0
VERTEX
  8
0
 10
-2.78400985
 20
-2.25881922
  0
VERTEX
  8
0
 10
-2.78923535
 20
-2.25285781
  0
VERTEX
  8
0
 10
-2.79776296
 20
-2.24016060
  0
VERTEX
  8
0
 10
-2.80434534
 20
-2.22668001
  0
VERTEX
  8
0
 10
-2.80972566
 20
-2.21271503
  0
VERTEX
  8
0
 10
-2.81985270
 20
-2.18452789
  0
VERTEX
  8
0
 10
-2.82608574
 20
-2.17090373
  0
VERTEX
  8
0
 10
-2.83408932
 20
-2.15799117
  0
VERTEX
  8
0
 10
-2.83800946
 20
-2.15703153
  0
VERTEX
  8
0
 10
-2.84076044
 20
-2.15744276
  0
VERTEX
  8
0
 10
-2.84266996
 20
-2.15889697
  0
VERTEX
  8
0
 10
-2.84406569
 20
-2.16106628
  0
VERTEX
  8
0
 10
-2.84662658
 20
-2.16623866
  0
VERTEX
  8
0
 10
-2.84844712
 20
-2.16858597
  0
VERTEX
  8
0
 10
-2.85106463
 20
-2.17033684
  0
VERTEX
  8
0
 10
-2.85713408
 20
-2.17468664
  0
VERTEX
  8
0
 10
-2.86478869
 20
-2.17907294
  0
VERTEX
  8
0
 10
-2.87357215
 20
-2.18296631
  0
VERTEX
  8
0
 10
-2.88302815
 20
-2.18583735
  0
VERTEX
  8
0
 10
-2.89270039
 20
-2.18715662
  0
VERTEX
  8
0
 10
-2.90213256
 20
-2.18639471
  0
VERTEX
  8
0
 10
-2.90661602
 20
-2.18506788
  0
VERTEX
  8
0
 10
-2.91086835
 20
-2.18302221
  0
VERTEX
  8
0
 10
-2.91483251
 20
-2.18019154
  0
VERTEX
  8
0
 10
-2.91845146
 20
-2.17650968
  0
VERTEX
  8
0
 10
-2.92661371
 20
-2.16695329
  0
VERTEX
  8
0
 10
-2.93437225
 20
-2.15660719
  0
VERTEX
  8
0
 10
-2.94144264
 20
-2.14548614
  0
VERTEX
  8
0
 10
-2.94754046
 20
-2.13360489
  0
VERTEX
  8
0
 10
-2.95238127
 20
-2.12097820
  0
VERTEX
  8
0
 10
-2.95568064
 20
-2.10762083
  0
VERTEX
  8
0
 10
-2.95715413
 20
-2.09354753
  0
VERTEX
  8
0
 10
-2.95651731
 20
-2.07877306
  0
VERTEX
  8
0
 10
-2.95656073
 20
-2.07022132
  0
VERTEX
  8
0
 10
-2.95528135
 20
-2.06195466
  0
VERTEX
  8
0
 10
-2.95075038
 20
-2.04603696
  0
VERTEX
  8
0
 10
-2.94849684
 20
-2.03826614
  0
VERTEX
  8
0
 10
-2.94691665
 20
-2.03054081
  0
VERTEX
  8
0
 10
-2.94650884
 20
-2.02280108
  0
VERTEX
  8
0
 10
-2.94777245
 20
-2.01498705
  0
VERTEX
  8
0
 10
-2.95228770
 20
-2.01165208
  0
VERTEX
  8
0
 10
-2.95739961
 20
-2.00964489
  0
VERTEX
  8
0
 10
-2.96290885
 20
-2.00882395
  0
VERTEX
  8
0
 10
-2.96861612
 20
-2.00904771
  0
VERTEX
  8
0
 10
-2.97432210
 20
-2.01017464
  0
VERTEX
  8
0
 10
-2.97982747
 20
-2.01206321
  0
VERTEX
  8
0
 10
-2.98943912
 20
-2.01755907
  0
VERTEX
  8
0
 10
-2.99383524
 20
-2.01809174
  0
VERTEX
  8
0
 10
-2.99789929
 20
-2.01994154
  0
VERTEX
  8
0
 10
-3.00167053
 20
-2.02285234
  0
VERTEX
  8
0
 10
-3.00518819
 20
-2.02656801
  0
VERTEX
  8
0
 10
-3.01161979
 20
-2.03538950
  0
VERTEX
  8
0
 10
-3.01750810
 20
-2.04435700
  0
VERTEX
  8
0
 10
-3.02316710
 20
-2.05142152
  0
VERTEX
  8
0
 10
-3.02600874
 20
-2.05359985
  0
VERTEX
  8
0
 10
-3.02891080
 20
-2.05453406
  0
VERTEX
  8
0
 10
-3.03191254
 20
-2.05396803
  0
VERTEX
  8
0
 10
-3.03505319
 20
-2.05164562
  0
VERTEX
  8
0
 10
-3.03837201
 20
-2.04731073
  0
VERTEX
  8
0
 10
-3.04190825
 20
-2.04070721
  0
VERTEX
  8
0
 10
-3.05067616
 20
-1.99426362
  0
VERTEX
  8
0
 10
-3.05872261
 20
-1.94630910
  0
VERTEX
  8
0
 10
-3.06168101
 20
-1.92259989
  0
VERTEX
  8
0
 10
-3.06350592
 20
-1.89951454
  0
VERTEX
  8
0
 10
-3.06387961
 20
-1.87738690
  0
VERTEX
  8
0
 10
-3.06248438
 20
-1.85655084
  0
VERTEX
  8
0
 10
-3.06584065
 20
-1.85408439
  0
VERTEX
  8
0
 10
-3.06895675
 20
-1.85266361
  0
VERTEX
  8
0
 10
-3.07185623
 20
-1.85218266
  0
VERTEX
  8
0
 10
-3.07456263
 20
-1.85253572
  0
VERTEX
  8
0
 10
-3.07949038
 20
-1.85532048
  0
VERTEX
  8
0
 10
-3.08392838
 20
-1.86017119
  0
VERTEX
  8
0
 10
-3.09208859
 20
-1.87268374
  0
VERTEX
  8
0
 10
-3.09618755
 20
-1.87865218
  0
VERTEX
  8
0
 10
-3.10055023
 20
-1.88329981
  0
VERTEX
  8
0
 10
-3.10824160
 20
-1.89445022
  0
VERTEX
  8
0
 10
-3.11483241
 20
-1.90568420
  0
VERTEX
  8
0
 10
-3.12036836
 20
-1.91699167
  0
VERTEX
  8
0
 10
-3.12489517
 20
-1.92836255
  0
VERTEX
  8
0
 10
-3.12845853
 20
-1.93978675
  0
VERTEX
  8
0
 10
-3.13110416
 20
-1.95125420
  0
VERTEX
  8
0
 10
-3.13287776
 20
-1.96275479
  0
VERTEX
  8
0
 10
-3.13382505
 20
-1.97427846
  0
VERTEX
  8
0
 10
-3.13342350
 20
-1.99735468
  0
VERTEX
  8
0
 10
-3.13026518
 20
-2.02040219
  0
VERTEX
  8
0
 10
-3.12471574
 20
-2.04334031
  0
VERTEX
  8
0
 10
-3.11714085
 20
-2.06608838
  0
VERTEX
  8
0
 10
-3.10790617
 20
-2.08856573
  0
VERTEX
  8
0
 10
-3.09737736
 20
-2.11069169
  0
VERTEX
  8
0
 10
-3.08592009
 20
-2.13238559
  0
VERTEX
  8
0
 10
-3.07390002
 20
-2.15356677
  0
VERTEX
  8
0
 10
-3.04963412
 20
-2.19406827
  0
VERTEX
  8
0
 10
-3.02750496
 20
-2.23155084
  0
VERTEX
  8
0
 10
-3.01326198
 20
-2.24679273
  0
VERTEX
  8
0
 10
-2.99854645
 20
-2.26137262
  0
VERTEX
  8
0
 10
-2.98337866
 20
-2.27531582
  0
VERTEX
  8
0
 10
-2.96777889
 20
-2.28864767
  0
VERTEX
  8
0
 10
-2.93536463
 20
-2.31357855
  0
VERTEX
  8
0
 10
-2.90146601
 20
-2.33636783
  0
VERTEX
  8
0
 10
-2.86624539
 20
-2.35721809
  0
VERTEX
  8
0
 10
-2.82986513
 20
-2.37633190
  0
VERTEX
  8
0
 10
-2.79248756
 20
-2.39391181
  0
VERTEX
  8
0
 10
-2.75427504
 20
-2.41016042
  0
VERTEX
  8
0
 10
-2.71538992
 20
-2.42528027
  0
VERTEX
  8
0
 10
-2.67599456
 20
-2.43947395
  0
VERTEX
  8
0
 10
-2.59632249
 20
-2.46589307
  0
VERTEX
  8
0
 10
-2.51655763
 20
-2.49103832
  0
VERTEX
  8
0
 10
-2.43799879
 20
-2.51653026
  0
VERTEX
  8
0
 10
-2.41916910
 20
-2.51963601
  0
VERTEX
  8
0
 10
-2.40091216
 20
-2.52417406
  0
VERTEX
  8
0
 10
-2.36525907
 20
-2.53540631
  0
VERTEX
  8
0
 10
-2.34743419
 20
-2.54103010
  0
VERTEX
  8
0
 10
-2.32932460
 20
-2.54594539
  0
VERTEX
  8
0
 10
-2.31071595
 20
-2.54961699
  0
VERTEX
  8
0
 10
-2.29139385
 20
-2.55150968
  0
VERTEX
  8
0
 10
-2.29087803
 20
-2.55531088
  0
VERTEX
  8
0
 10
-2.28956398
 20
-2.55916477
  0
VERTEX
  8
0
 10
-2.28643241
 20
-2.56688421
  0
VERTEX
  8
0
 10
-2.28556049
 20
-2.57067657
  0
VERTEX
  8
0
 10
-2.28578156
 20
-2.57437524
  0
VERTEX
  8
0
 10
-2.28756841
 20
-2.57794360
  0
VERTEX
  8
0
 10
-2.29139385
 20
-2.58134507
  0
SEQEND
  0
POLYLINE
  8
Default_Layer
 66
   1
 39
0.000000
 70
    1
  0
VERTEX
  8
0
 10
-1.92719632
 20
-2.59214754
  0
VERTEX
  8
0
 10
-1.94422106
 20
-2.58992009
  0
VERTEX
  8
0
 10
-1.96132996
 20
-2.58905132
  0
VERTEX
  8
0
 10
-1.97849440
 20
-2.58929442
  0
VERTEX
  8
0
 10
-1.99568574
 20
-2.59040261
  0
VERTEX
  8
0
 10
-2.03003458
 20
-2.59422709
  0
VERTEX
  8
0
 10
-2.06414741
 20
-2.59855040
  0
VERTEX
  8
0
 10
-2.09779516
 20
-2.60139820
  0
VERTEX
  8
0
 10
-2.11437305
 20
-2.60165180
  0
VERTEX
  8
0
 10
-2.13074876
 20
-2.60079614
  0
VERTEX
  8
0
 10
-2.14689367
 20
-2.59858443
  0
VERTEX
  8
0
 10
-2.16277914
 20
-2.59476988
  0
VERTEX
  8
0
 10
-2.17837654
 20
-2.58910569
  0
VERTEX
  8
0
 10
-2.19365722
 20
-2.58134507
  0
VERTEX
  8
0
 10
-2.19216311
 20
-2.56412667
  0
VERTEX
  8
0
 10
-2.19051603
 20
-2.55549400
  0
VERTEX
  8
0
 10
-2.18788507
 20
-2.54718211
  0
VERTEX
  8
0
 10
-2.18398231
 20
-2.53944331
  0
VERTEX
  8
0
 10
-2.17851985
 20
-2.53252993
  0
VERTEX
  8
0
 10
-2.17120979
 20
-2.52669429
  0
VERTEX
  8
0
 10
-2.16176422
 20
-2.52218870
  0
VERTEX
  8
0
 10
-2.13492140
 20
-2.51466762
  0
VERTEX
  8
0
 10
-2.10753044
 20
-2.50799914
  0
VERTEX
  8
0
 10
-2.07964902
 20
-2.50209604
  0
VERTEX
  8
0
 10
-2.05133480
 20
-2.49687109
  0
VERTEX
  8
0
 10
-1.99363871
 20
-2.48810671
  0
VERTEX
  8
0
 10
-1.93490359
 20
-2.48100819
  0
VERTEX
  8
0
 10
-1.81616196
 20
-2.46901744
  0
VERTEX
  8
0
 10
-1.75707828
 20
-2.46272957
  0
VERTEX
  8
0
 10
-1.69880126
 20
-2.45531627
  0
VERTEX
  8
0
 10
-1.66534855
 20
-2.45804667
  0
VERTEX
  8
0
 10
-1.63118738
 20
-2.45859275
  0
VERTEX
  8
0
 10
-1.59651819
 20
-2.45773930
  0
VERTEX
  8
0
 10
-1.56154140
 20
-2.45627107
  0
VERTEX
  8
0
 10
-1.52645743
 20
-2.45497285
  0
VERTEX
  8
0
 10
-1.49146670
 20
-2.45462940
  0
VERTEX
  8
0
 10
-1.45676965
 20
-2.45602549
  0
VERTEX
  8
0
 10
-1.43959388
 20
-2.45762111
  0
VERTEX
  8
0
 10
-1.42256669
 20
-2.45994590
  0
VERTEX
  8
0
 10
-1.41961729
 20
-2.47952830
  0
VERTEX
  8
0
 10
-1.41483253
 20
-2.49688625
  0
VERTEX
  8
0
 10
-1.40864222
 20
-2.51352094
  0
VERTEX
  8
0
 10
-1.40147615
 20
-2.53093355
  0
VERTEX
  8
0
 10
-1.46699980
 20
-2.54370175
  0
VERTEX
  8
0
 10
-1.53237394
 20
-2.55529187
  0
VERTEX
  8
0
 10
-1.59770066
 20
-2.56556201
  0
VERTEX
  8
0
 10
-1.66308207
 20
-2.57437031
  0
VERTEX
  8
0
 10
-1.72862025
 20
-2.58157489
  0
VERTEX
  8
0
 10
-1.79441729
 20
-2.58703388
  0
VERTEX
  8
0
 10
-1.86057528
 20
-2.59060539
  0
VERTEX
  8
0
 10
-1.92719632
 20
-2.59214754
  0
SEQEND
  0
POLYLINE
  8
Default_Layer
 66
   1
 39
0.000000
 70
    1
  0
VERTEX
  8
0
 10
-1.14993294
 20
-2.35500763
  0
VERTEX
  8
0
 10
-1.21069586
 20
-2.34894404
  0
VERTEX
  8
0
 10
-1.27108314
 20
-2.34485730
  0
VERTEX
  8
0
 10
-1.33112017
 20
-2.34257512
  0
VERTEX
  8
0
 10
-1.39083238
 20
-2.34192521
  0
VERTEX
  8
0
 10
-1.45024517
 20
-2.34273530
  0
VERTEX
  8
0
 10
-1.50938395
 20
-2.34483308
  0
VERTEX
  8
0
 10
-1.56827412
 20
-2.34804628
  0
VERTEX
  8
0
 10
-1.62694110
 20
-2.35220262
  0
VERTEX
  8
0
 10
-1.74370712
 20
-2.36265555
  0
VERTEX
  8
0
 10
-1.85988525
 20
-2.37481359
  0
VERTEX
  8
0
 10
-1.97567878
 20
-2.38729847
  0
VERTEX
  8
0
 10
-2.09129097
 20
-2.39873191
  0
VERTEX
  8
0
 10
-2.10894456
 20
-2.40564830
  0
VERTEX
  8
0
 10
-2.12713545
 20
-2.41093849
  0
VERTEX
  8
0
 10
-2.14569100
 20
-2.41506134
  0
VERTEX
  8
0
 10
-2.16443856
 20
-2.41847571
  0
VERTEX
  8
0
 10
-2.20181910
 20
-2.42501449
  0
VERTEX
  8
0
 10
-2.22010679
 20
-2.42905663
  0
VERTEX
  8
0
 10
-2.23789591
 20
-2.43422573
  0
VERTEX
  8
0
 10
-2.24595109
 20
-2.42236197
  0
VERTEX
  8
0
 10
-2.25279101
 20
-2.40968662
  0
VERTEX
  8
0
 10
-2.25845697
 20
-2.39630930
  0
VERTEX
  8
0
 10
-2.26299024
 20
-2.38233962
  0
VERTEX
  8
0
 10
-2.26643211
 20
-2.36788722
  0
VERTEX
  8
0
 10
-2.26882388
 20
-2.35306172
  0
VERTEX
  8
0
 10
-2.27020683
 20
-2.33797273
  0
VERTEX
  8
0
 10
-2.27062224
 20
-2.32272987
  0
VERTEX
  8
0
 10
-2.27011140
 20
-2.30744278
  0
VERTEX
  8
0
 10
-2.26871561
 20
-2.29222107
  0
VERTEX
  8
0
 10
-2.26647614
 20
-2.27717437
  0
VERTEX
  8
0
 10
-2.26343428
 20
-2.26241229
  0
VERTEX
  8
0
 10
-2.25963133
 20
-2.24804446
  0
VERTEX
  8
0
 10
-2.25510856
 20
-2.23418051
  0
VERTEX
  8
0
 10
-2.24990727
 20
-2.22093004
  0
VERTEX
  8
0
 10
-2.24406875
 20
-2.20840269
  0
VERTEX
  8
0
 10
-2.21543475
 20
-2.19172579
  0
VERTEX
  8
0
 10
-2.18204545
 20
-2.17559265
  0
VERTEX
  8
0
 10
-2.14437111
 20
-2.16010144
  0
VERTEX
  8
0
 10
-2.10288199
 20
-2.14535033
  0
VERTEX
  8
0
 10
-2.05804836
 20
-2.13143749
  0
VERTEX
  8
0
 10
-2.01034048
 20
-2.11846108
  0
VERTEX
  8
0
 10
-1.96022863
 20
-2.10651927
  0
VERTEX
  8
0
 10
-1.90818306
 20
-2.09571023
  0
VERTEX
  8
0
 10
-1.85467404
 20
-2.08613213
  0
VERTEX
  8
0
 10
-1.80017184
 20
-2.07788313
  0
VERTEX
  8
0
 10
-1.74514672
 20
-2.07106141
  0
VERTEX
  8
0
 10
-1.69006895
 20
-2.06576512
  0
VERTEX
  8
0
 10
-1.63540879
 20
-2.06209245
  0
VERTEX
  8
0
 10
-1.58163651
 20
-2.06014155
  0
VERTEX
  8
0
 10
-1.52922237
 20
-2.06001059
  0
VERTEX
  8
0
 10
-1.47863665
 20
-2.06179775
  0
VERTEX
  8
0
 10
-1.43262049
 20
-2.06150181
  0
VERTEX
  8
0
 10
-1.38557985
 20
-2.06270714
  0
VERTEX
  8
0
 10
-1.33798694
 20
-2.06564233
  0
VERTEX
  8
0
 10
-1.29031400
 20
-2.07053596
  0
VERTEX
  8
0
 10
-1.24303324
 20
-2.07761664
  0
VERTEX
  8
0
 10
-1.19661688
 20
-2.08711296
  0
VERTEX
  8
0
 10
-1.17388043
 20
-2.09283842
  0
VERTEX
  8
0
 10
-1.15153716
 20
-2.09925351
  0
VERTEX
  8
0
 10
-1.12964610
 20
-2.10638681
  0
VERTEX
  8
0
 10
-1.10826628
 20
-2.11426689
  0
VERTEX
  8
0
 10
-1.11668283
 20
-2.12375632
  0
VERTEX
  8
0
 10
-1.12411558
 20
-2.13333323
  0
VERTEX
  8
0
 10
-1.13061698
 20
-2.14297617
  0
VERTEX
  8
0
 10
-1.13623953
 20
-2.15266371
  0
VERTEX
  8
0
 10
-1.14505801
 20
-2.17208688
  0
VERTEX
  8
0
 10
-1.15099085
 20
-2.19143128
  0
VERTEX
  8
0
 10
-1.15445792
 20
-2.21052544
  0
VERTEX
  8
0
 10
-1.15587907
 20
-2.22919790
  0
VERTEX
  8
0
 10
-1.15567415
 20
-2.24727720
  0
VERTEX
  8
0
 10
-1.15426302
 20
-2.26459189
  0
VERTEX
  8
0
 10
-1.14950154
 20
-2.29624154
  0
VERTEX
  8
0
 10
-1.14495348
 20
-2.32277518
  0
VERTEX
  8
0
 10
-1.14380912
 20
-2.33369483
  0
VERTEX
  8
0
 10
-1.14397767
 20
-2.34282110
  0
VERTEX
  8
0
 10
-1.14587899
 20
-2.34998252
  0
VERTEX
  8
0
 10
-1.14761065
 20
-2.35277283
  0
VERTEX
  8
0
 10
-1.14993294
 20
-2.35500763
  0
SEQEND
  0
POLYLINE
  8
Default_Layer
 66
   1
 39
0.000000
 70
    1
  0
VERTEX
  8
0
 10
-0.80013871
 20
-1.98566606
  0
VERTEX
  8
0
 10
-0.86432538
 20
-1.96526656
  0
VERTEX
  8
0
 10
-0.92928150
 20
-1.94695682
  0
VERTEX
  8
0
 10
-0.99499682
 20
-1.93066798
  0
VERTEX
  8
0
 10
-1.06146113
 20
-1.91633118
  0
VERTEX
  8
0
 10
-1.12866420
 20
-1.90387754
  0
VERTEX
  8
0
 10
-1.19659580
 20
-1.89323821
  0
VERTEX
  8
0
 10
-1.26524572
 20
-1.88434430
  0
VERTEX
  8
0
 10
-1.33460373
 20
-1.87712697
  0
VERTEX
  8
0
 10
-1.37494806
 20
-1.87248616
  0
VERTEX
  8
0
 10
-1.42062913
 20
-1.86929965
  0
VERTEX
  8
0
 10
-1.47105921
 20
-1.86744078
  0
VERTEX
  8
0
 10
-1.52565057
 20
-1.86678284
  0
VERTEX
  8
0
 10
-1.58381548
 20
-1.86719917
  0
VERTEX
  8
0
 10
-1.64496622
 20
-1.86856306
  0
VERTEX
  8
0
 10
-1.77387427
 20
-1.87362683
  0
VERTEX
  8
0
 10
-1.90767288
 20
-1.88096068
  0
VERTEX
  8
0
 10
-2.04166023
 20
-1.88955114
  0
VERTEX
  8
0
 10
-2.29139385
 20
-1.90644796
  0
VERTEX
  8
0
 10
-2.28655045
 20
-1.88202286
  0
VERTEX
  8
0
 10
-2.27985898
 20
-1.85865809
  0
VERTEX
  8
0
 10
-2.27145058
 20
-1.83626763
  0
VERTEX
  8
0
 10
-2.26145639
 20
-1.81476547
  0
VERTEX
  8
0
 10
-2.25000756
 20
-1.79406561
  0
VERTEX
  8
0
 10
-2.23723523
 20
-1.77408202
  0
VERTEX
  8
0
 10
-2.22327054
 20
-1.75472871
  0
VERTEX
  8
0
 10
-2.20824463
 20
-1.73591966
  0
VERTEX
  8
0
 10
-2.19228866
 20
-1.71756886
  0
VERTEX
  8
0
 10
-2.17553375
 20
-1.69959031
  0
VERTEX
  8
0
 10
-2.14015172
 20
-1.66440589
  0
VERTEX
  8
0
 10
-2.06557080
 20
-1.59471956
  0
VERTEX
  8
0
 10
-2.05278762
 20
-1.58371245
  0
VERTEX
  8
0
 10
-2.03929965
 20
-1.57441112
  0
VERTEX
  8
0
 10
-2.02517121
 20
-1.56665984
  0
VERTEX
  8
0
 10
-2.01046661
 20
-1.56030284
  0
VERTEX
  8
0
 10
-1.99525019
 20
-1.55518436
  0
VERTEX
  8
0
 10
-1.97958625
 20
-1.55114866
  0
VERTEX
  8
0
 10
-1.96353913
 20
-1.54803996
  0
VERTEX
  8
0
 10
-1.94717314
 20
-1.54570253
  0
VERTEX
  8
0
 10
-1.91374183
 20
-1.54271840
  0
VERTEX
  8
0
 10
-1.87980689
 20
-1.54095024
  0
VERTEX
  8
0
 10
-1.84588289
 20
-1.53915198
  0
VERTEX
  8
0
 10
-1.81248438
 20
-1.53607759
  0
VERTEX
  8
0
 10
-1.73601242
 20
-1.53674042
  0
VERTEX
  8
0
 10
-1.65978259
 20
-1.53879405
  0
VERTEX
  8
0
 10
-1.58389144
 20
-1.54234038
  0
VERTEX
  8
0
 10
-1.50843551
 20
-1.54748131
  0
VERTEX
  8
0
 10
-1.43351134
 20
-1.55431875
  0
VERTEX
  8
0
 10
-1.35921546
 20
-1.56295461
  0
VERTEX
  8
0
 10
-1.28564443
 20
-1.57349079
  0
VERTEX
  8
0
 10
-1.21289478
 20
-1.58602921
  0
VERTEX
  8
0
 10
-1.14106306
 20
-1.60067175
  0
VERTEX
  8
0
 10
-1.07024579
 20
-1.61752034
  0
VERTEX
  8
0
 10
-1.00053954
 20
-1.63667688
  0
VERTEX
  8
0
 10
-0.93204083
 20
-1.65824327
  0
VERTEX
  8
0
 10
-0.86484621
 20
-1.68232142
  0
VERTEX
  8
0
 10
-0.83176810
 20
-1.69533425
  0
VERTEX
  8
0
 10
-0.79905222
 20
-1.70901323
  0
VERTEX
  8
0
 10
-0.76671063
 20
-1.72337111
  0
VERTEX
  8
0
 10
-0.73475540
 20
-1.73842062
  0
VERTEX
  8
0
 10
-0.70319859
 20
-1.75417450
  0
VERTEX
  8
0
 10
-0.67205229
 20
-1.77064549
  0
VERTEX
  8
0
 10
-0.67424979
 20
-1.78380379
  0
VERTEX
  8
0
 10
-0.67715123
 20
-1.79666341
  0
VERTEX
  8
0
 10
-0.68490217
 20
-1.82156522
  0
VERTEX
  8
0
 10
-0.69497762
 20
-1.84550820
  0
VERTEX
  8
0
 10
-0.70705008
 20
-1.86864962
  0
VERTEX
  8
0
 10
-0.72079206
 20
-1.89114675
  0
VERTEX
  8
0
 10
-0.73587605
 20
-1.91315685
  0
VERTEX
  8
0
 10
-0.75197456
 20
-1.93483720
  0
VERTEX
  8
0
 10
-0.76876010
 20
-1.95634507
  0
VERTEX
  8
0
 10
-0.77112462
 20
-1.96212861
  0
VERTEX
  8
0
 10
-0.77311295
 20
-1.96876831
  0
VERTEX
  8
0
 10
-0.77513572
 20
-1.97553345
  0
VERTEX
  8
0
 10
-0.77760359
 20
-1.98169334
  0
VERTEX
  8
0
 10
-0.78092718
 20
-1.98651725
  0
VERTEX
  8
0
 10
-0.78551714
 20
-1.98927449
  0
VERTEX
  8
0
 10
-0.78841533
 20
-1.98964975
  0
VERTEX
  8
0
 10
-0.79178410
 20
-1.98923433
  0
VERTEX
  8
0
 10
-0.80013871
 20
-1.98566606
  0
SEQEND
  0
POLYLINE
  8
Default_Layer
 66
   1
 39
0.000000
 70
    1
  0
VERTEX
  8
0
 10
3.13041685
 20
-1.93834096
  0
VERTEX
  8
0
 10
3.11936478
 20
-1.97355610
  0
VERTEX
  8
0
 10
3.10603235
 20
-2.00731321
  0
VERTEX
  8
0
 10
3.09054330
 20
-2.03964058
  0
VERTEX
  8
0
 10
3.07302140
 20
-2.07056650
  0
VERTEX
  8
0
 10
3.05359040
 20
-2.10011926
  0
VERTEX
  8
0
 10
3.03237407
 20
-2.12832715
  0
VERTEX
  8
0
 10
3.00949616
 20
-2.15521846
  0
VERTEX
  8
0
 10
2.98508043
 20
-2.18082148
  0
VERTEX
  8
0
 10
2.95925064
 20
-2.20516449
  0
VERTEX
  8
0
 10
2.93213054
 20
-2.22827580
  0
VERTEX
  8
0
 10
2.90384390
 20
-2.25018368
  0
VERTEX
  8
0
 10
2.87451446
 20
-2.27091644
  0
VERTEX
  8
0
 10
2.84426600
 20
-2.29050235
  0
VERTEX
  8
0
 10
2.81322227
 20
-2.30896971
  0
VERTEX
  8
0
 10
2.78150702
 20
-2.32634682
  0
VERTEX
  8
0
 10
2.74924401
 20
-2.34266195
  0
VERTEX
  8
0
 10
2.46389618
 20
-2.49244468
  0
VERTEX
  8
0
 10
2.39233054
 20
-2.52931343
  0
VERTEX
  8
0
 10
2.32043650
 20
-2.56549359
  0
VERTEX
  8
0
 10
2.24809560
 20
-2.60075622
  0
VERTEX
  8
0
 10
2.17518936
 20
-2.63487243
  0
VERTEX
  8
0
 10
2.10159932
 20
-2.66761331
  0
VERTEX
  8
0
 10
2.02720701
 20
-2.69874992
  0
VERTEX
  8
0
 10
1.95189398
 20
-2.72805337
  0
VERTEX
  8
0
 10
1.87554175
 20
-2.75529474
  0
VERTEX
  8
0
 10
1.79803187
 20
-2.78024511
  0
VERTEX
  8
0
 10
1.71924585
 20
-2.80267558
  0
VERTEX
  8
0
 10
1.67933728
 20
-2.81287431
  0
VERTEX
  8
0
 10
1.63906525
 20
-2.82235722
  0
VERTEX
  8
0
 10
1.59841495
 20
-2.83109569
  0
VERTEX
  8
0
 10
1.55737158
 20
-2.83906112
  0
VERTEX
  8
0
 10
1.54537208
 20
-2.84046670
  0
VERTEX
  8
0
 10
1.53346750
 20
-2.84014409
  0
VERTEX
  8
0
 10
1.52197428
 20
-2.83807683
  0
VERTEX
  8
0
 10
1.51120887
 20
-2.83424848
  0
VERTEX
  8
0
 10
1.50148772
 20
-2.82864259
  0
VERTEX
  8
0
 10
1.49312728
 20
-2.82124273
  0
VERTEX
  8
0
 10
1.48644399
 20
-2.81203244
  0
VERTEX
  8
0
 10
1.48175430
 20
-2.80099528
  0
VERTEX
  8
0
 10
1.46795339
 20
-2.80557776
  0
VERTEX
  8
0
 10
1.45466360
 20
-2.81070266
  0
VERTEX
  8
0
 10
1.44231629
 20
-2.81740392
  0
VERTEX
  8
0
 10
1.43663085
 20
-2.82166878
  0
VERTEX
  8
0
 10
1.43134278
 20
-2.82671545
  0
VERTEX
  8
0
 10
1.37928447
 20
-2.84365130
  0
VERTEX
  8
0
 10
1.32741217
 20
-2.86121563
  0
VERTEX
  8
0
 10
1.27551907
 20
-2.87772198
  0
VERTEX
  8
0
 10
1.24950010
 20
-2.88505138
  0
VERTEX
  8
0
 10
1.22339837
 20
-2.89148387
  0
VERTEX
  8
0
 10
1.19718804
 20
-2.89680862
  0
VERTEX
  8
0
 10
1.17084325
 20
-2.90081483
  0
VERTEX
  8
0
 10
1.14433815
 20
-2.90329169
  0
VERTEX
  8
0
 10
1.11764690
 20
-2.90402839
  0
VERTEX
  8
0
 10
1.09074364
 20
-2.90281412
  0
VERTEX
  8
0
 10
1.06360251
 20
-2.89943807
  0
VERTEX
  8
0
 10
1.03619767
 20
-2.89368944
  0
VERTEX
  8
0
 10
1.00850327
 20
-2.88535742
  0
VERTEX
  8
0
 10
0.98375255
 20
-2.90088207
  0
VERTEX
  8
0
 10
0.95964595
 20
-2.91680121
  0
VERTEX
  8
0
 10
0.93579640
 20
-2.93260124
  0
VERTEX
  8
0
 10
0.91181684
 20
-2.94776857
  0
VERTEX
  8
0
 10
0.88732020
 20
-2.96178959
  0
VERTEX
  8
0
 10
0.86191942
 20
-2.97415072
  0
VERTEX
  8
0
 10
0.83522743
 20
-2.98433836
  0
VERTEX
  8
0
 10
0.82127628
 20
-2.98845662
  0
VERTEX
  8
0
 10
0.80685718
 20
-2.99183890
  0
VERTEX
  8
0
 10
0.80578968
 20
-2.98983237
  0
VERTEX
  8
0
 10
0.80403960
 20
-2.98837458
  0
VERTEX
  8
0
 10
0.79897095
 20
-2.98680169
  0
VERTEX
  8
0
 10
0.79260976
 20
-2.98651325
  0
VERTEX
  8
0
 10
0.78591455
 20
-2.98690232
  0
VERTEX
  8
0
 10
0.77535622
 20
-2.98728502
  0
VERTEX
  8
0
 10
0.77400558
 20
-2.98685574
  0
VERTEX
  8
0
 10
0.77341014
 20
-2.98606473
  0
VERTEX
  8
0
 10
0.77496418
 20
-2.98309405
  0
VERTEX
  8
0
 10
0.78003624
 20
-2.97633624
  0
VERTEX
  8
0
 10
0.78870791
 20
-2.96833940
  0
VERTEX
  8
0
 10
0.81112499
 20
-2.94989773
  0
VERTEX
  8
0
 10
0.82200783
 20
-2.94008747
  0
VERTEX
  8
0
 10
0.83076516
 20
-2.93030731
  0
VERTEX
  8
0
 10
0.83389948
 20
-2.92552766
  0
VERTEX
  8
0
 10
0.83596570
 20
-2.92087452
  0
VERTEX
  8
0
 10
0.83678490
 20
-2.91638754
  0
VERTEX
  8
0
 10
0.83617817
 20
-2.91210639
  0
VERTEX
  8
0
 10
0.81766365
 20
-2.91859500
  0
VERTEX
  8
0
 10
0.79804195
 20
-2.92439149
  0
VERTEX
  8
0
 10
0.77748775
 20
-2.92947440
  0
VERTEX
  8
0
 10
0.75617572
 20
-2.93382226
  0
VERTEX
  8
0
 10
0.73428053
 20
-2.93741362
  0
VERTEX
  8
0
 10
0.71197686
 20
-2.94022701
  0
VERTEX
  8
0
 10
0.68943939
 20
-2.94224097
  0
VERTEX
  8
0
 10
0.66684280
 20
-2.94343405
  0
VERTEX
  8
0
 10
0.64436174
 20
-2.94378477
  0
VERTEX
  8
0
 10
0.62217092
 20
-2.94327168
  0
VERTEX
  8
0
 10
0.60044499
 20
-2.94187332
  0
VERTEX
  8
0
 10
0.57935863
 20
-2.93956822
  0
VERTEX
  8
0
 10
0.55908652
 20
-2.93633492
  0
VERTEX
  8
0
 10
0.53980334
 20
-2.93215197
  0
VERTEX
  8
0
 10
0.52168375
 20
-2.92699790
  0
VERTEX
  8
0
 10
0.50490245
 20
-2.92085125
  0
VERTEX
  8
0
 10
0.49289438
 20
-2.93671484
  0
VERTEX
  8
0
 10
0.47981793
 20
-2.95176720
  0
VERTEX
  8
0
 10
0.46575185
 20
-2.96602840
  0
VERTEX
  8
0
 10
0.45077487
 20
-2.97951846
  0
VERTEX
  8
0
 10
0.43496577
 20
-2.99225743
  0
VERTEX
  8
0
 10
0.41840328
 20
-3.00426536
  0
VERTEX
  8
0
 10
0.40116617
 20
-3.01556229
  0
VERTEX
  8
0
 10
0.38333318
 20
-3.02616826
  0
VERTEX
  8
0
 10
0.36498306
 20
-3.03610331
  0
VERTEX
  8
0
 10
0.34619457
 20
-3.04538749
  0
VERTEX
  8
0
 10
0.30761747
 20
-3.06208342
  0
VERTEX
  8
0
 10
0.26823190
 20
-3.07641638
  0
VERTEX
  8
0
 10
0.22866788
 20
-3.08854672
  0
VERTEX
  8
0
 10
0.23028852
 20
-3.08663212
  0
VERTEX
  8
0
 10
0.23037078
 20
-3.08501566
  0
VERTEX
  8
0
 10
0.22913739
 20
-3.08365600
  0
VERTEX
  8
0
 10
0.22681106
 20
-3.08251180
  0
VERTEX
  8
0
 10
0.21977050
 20
-3.08070447
  0
VERTEX
  8
0
 10
0.21103086
 20
-3.07926301
  0
VERTEX
  8
0
 10
0.20237394
 20
-3.07785676
  0
VERTEX
  8
0
 10
0.19558151
 20
-3.07615505
  0
VERTEX
  8
0
 10
0.19344129
 20
-3.07509006
  0
VERTEX
  8
0
 10
0.19243536
 20
-3.07382722
  0
VERTEX
  8
0
 10
0.19278644
 20
-3.07232518
  0
VERTEX
  8
0
 10
0.19471726
 20
-3.07054261
  0
VERTEX
  8
0
 10
0.21679062
 20
-3.05713425
  0
VERTEX
  8
0
 10
0.24423918
 20
-3.04259778
  0
VERTEX
  8
0
 10
0.30644843
 20
-3.01043193
  0
VERTEX
  8
0
 10
0.33680238
 20
-2.99294830
  0
VERTEX
  8
0
 10
0.35082770
 20
-2.98388818
  0
VERTEX
  8
0
 10
0.36371803
 20
-2.97462801
  0
VERTEX
  8
0
 10
0.37519794
 20
-2.96517689
  0
VERTEX
  8
0
 10
0.38499202
 20
-2.95554393
  0
VERTEX
  8
0
 10
0.39282483
 20
-2.94573825
  0
VERTEX
  8
0
 10
0.39842097
 20
-2.93576894
  0
VERTEX
  8
0
 10
0.36731188
 20
-2.93868618
  0
VERTEX
  8
0
 10
0.33331311
 20
-2.94055396
  0
VERTEX
  8
0
 10
0.29782183
 20
-2.94110365
  0
VERTEX
  8
0
 10
0.26223516
 20
-2.94006662
  0
VERTEX
  8
0
 10
0.22795027
 20
-2.93717421
  0
VERTEX
  8
0
 10
0.19636431
 20
-2.93215780
  0
VERTEX
  8
0
 10
0.18202003
 20
-2.92876915
  0
VERTEX
  8
0
 10
0.16887442
 20
-2.92474875
  0
VERTEX
  8
0
 10
0.15710211
 20
-2.92006303
  0
VERTEX
  8
0
 10
0.14687776
 20
-2.91467841
  0
VERTEX
  8
0
 10
0.13866368
 20
-2.90743606
  0
VERTEX
  8
0
 10
0.13051991
 20
-2.90248166
  0
VERTEX
  8
0
 10
0.12243000
 20
-2.89958423
  0
VERTEX
  8
0
 10
0.11437748
 20
-2.89851277
  0
VERTEX
  8
0
 10
0.10634591
 20
-2.89903629
  0
VERTEX
  8
0
 10
0.09831883
 20
-2.90092379
  0
VERTEX
  8
0
 10
0.09027980
 20
-2.90394429
  0
VERTEX
  8
0
 10
0.08221237
 20
-2.90786678
  0
VERTEX
  8
0
 10
0.06592648
 20
-2.91749378
  0
VERTEX
  8
0
 10
0.04932954
 20
-2.92795684
  0
VERTEX
  8
0
 10
0.03228996
 20
-2.93740803
  0
VERTEX
  8
0
 10
0.02356304
 20
-2.94117669
  0
VERTEX
  8
0
 10
0.01467611
 20
-2.94399940
  0
VERTEX
  8
0
 10
-0.00620304
 20
-2.95852147
  0
VERTEX
  8
0
 10
-0.03008092
 20
-2.97320003
  0
VERTEX
  8
0
 10
-0.05668289
 20
-2.98793386
  0
VERTEX
  8
0
 10
-0.08573433
 20
-3.00262173
  0
VERTEX
  8
0
 10
-0.11696062
 20
-3.01716241
  0
VERTEX
  8
0
 10
-0.15008713
 20
-3.03145467
  0
VERTEX
  8
0
 10
-0.18483924
 20
-3.04539728
  0
VERTEX
  8
0
 10
-0.22094233
 20
-3.05888902
  0
VERTEX
  8
0
 10
-0.25812177
 20
-3.07182865
  0
VERTEX
  8
0
 10
-0.29610295
 20
-3.08411494
  0
VERTEX
  8
0
 10
-0.33461122
 20
-3.09564667
  0
VERTEX
  8
0
 10
-0.37337198
 20
-3.10632260
  0
VERTEX
  8
0
 10
-0.41211060
 20
-3.11604152
  0
VERTEX
  8
0
 10
-0.45055244
 20
-3.12470218
  0
VERTEX
  8
0
 10
-0.48842290
 20
-3.13220336
  0
VERTEX
  8
0
 10
-0.52544735
 20
-3.13844384
  0
VERTEX
  8
0
 10
-0.53515932
 20
-3.13988708
  0
VERTEX
  8
0
 10
-0.54329928
 20
-3.14019106
  0
VERTEX
  8
0
 10
-0.54995694
 20
-3.13949897
  0
VERTEX
  8
0
 10
-0.55522196
 20
-3.13795398
  0
VERTEX
  8
0
 10
-0.55918404
 20
-3.13569929
  0
VERTEX
  8
0
 10
-0.56193286
 20
-3.13287807
  0
VERTEX
  8
0
 10
-0.56355811
 20
-3.12963351
  0
VERTEX
  8
0
 10
-0.56414947
 20
-3.12610880
  0
VERTEX
  8
0
 10
-0.56379663
 20
-3.12244711
  0
VERTEX
  8
0
 10
-0.56258927
 20
-3.11879164
  0
VERTEX
  8
0
 10
-0.55796974
 20
-3.11207208
  0
VERTEX
  8
0
 10
-0.55473695
 20
-3.10929436
  0
VERTEX
  8
0
 10
-0.55100838
 20
-3.10709558
  0
VERTEX
  8
0
 10
-0.54687372
 20
-3.10561895
  0
VERTEX
  8
0
 10
-0.54242266
 20
-3.10500763
  0
VERTEX
  8
0
 10
-0.51199276
 20
-3.09828481
  0
VERTEX
  8
0
 10
-0.47670836
 20
-3.08884799
  0
VERTEX
  8
0
 10
-0.43751004
 20
-3.07704370
  0
VERTEX
  8
0
 10
-0.39533837
 20
-3.06321843
  0
VERTEX
  8
0
 10
-0.35113393
 20
-3.04771870
  0
VERTEX
  8
0
 10
-0.30583730
 20
-3.03089104
  0
VERTEX
  8
0
 10
-0.26038905
 20
-3.01308193
  0
VERTEX
  8
0
 10
-0.21572976
 20
-2.99463791
  0
VERTEX
  8
0
 10
-0.17280001
 20
-2.97590548
  0
VERTEX
  8
0
 10
-0.13254037
 20
-2.95723116
  0
VERTEX
  8
0
 10
-0.09589141
 20
-2.93896145
  0
VERTEX
  8
0
 10
-0.06379373
 20
-2.92144287
  0
VERTEX
  8
0
 10
-0.03718789
 20
-2.90502193
  0
VERTEX
  8
0
 10
-0.01701446
 20
-2.89004515
  0
VERTEX
  8
0
 10
-0.00963384
 20
-2.88320660
  0
VERTEX
  8
0
 10
-0.00421404
 20
-2.87685903
  0
VERTEX
  8
0
 10
-0.00087263
 20
-2.87104576
  0
VERTEX
  8
0
 10
0.00027282
 20
-2.86581010
  0
VERTEX
  8
0
 10
-0.02321705
 20
-2.86999933
  0
VERTEX
  8
0
 10
-0.04621379
 20
-2.87305121
  0
VERTEX
  8
0
 10
-0.06871317
 20
-2.87498963
  0
VERTEX
  8
0
 10
-0.09071099
 20
-2.87583849
  0
VERTEX
  8
0
 10
-0.11220303
 20
-2.87562171
  0
VERTEX
  8
0
 10
-0.13318506
 20
-2.87436317
  0
VERTEX
  8
0
 10
-0.15365287
 20
-2.87208678
  0
VERTEX
  8
0
 10
-0.17360225
 20
-2.86881645
  0
VERTEX
  8
0
 10
-0.19302898
 20
-2.86457608
  0
VERTEX
  8
0
 10
-0.21192884
 20
-2.85938957
  0
VERTEX
  8
0
 10
-0.23029761
 20
-2.85328083
  0
VERTEX
  8
0
 10
-0.24813108
 20
-2.84627375
  0
VERTEX
  8
0
 10
-0.26542503
 20
-2.83839223
  0
VERTEX
  8
0
 10
-0.28217524
 20
-2.82966019
  0
VERTEX
  8
0
 10
-0.29837750
 20
-2.82010153
  0
VERTEX
  8
0
 10
-0.31402759
 20
-2.80974014
  0
VERTEX
  8
0
 10
-0.31922830
 20
-2.82005435
  0
VERTEX
  8
0
 10
-0.32329251
 20
-2.83079028
  0
VERTEX
  8
0
 10
-0.32984789
 20
-2.85288939
  0
VERTEX
  8
0
 10
-0.33325726
 20
-2.86393360
  0
VERTEX
  8
0
 10
-0.33736657
 20
-2.87476161
  0
VERTEX
  8
0
 10
-0.34263492
 20
-2.88521393
  0
VERTEX
  8
0
 10
-0.34952142
 20
-2.89513108
  0
VERTEX
  8
0
 10
-0.36043581
 20
-2.90426334
  0
VERTEX
  8
0
 10
-0.37391444
 20
-2.91399645
  0
VERTEX
  8
0
 10
-0.38979226
 20
-2.92418875
  0
VERTEX
  8
0
 10
-0.40790425
 20
-2.93469860
  0
VERTEX
  8
0
 10
-0.42808536
 20
-2.94538431
  0
VERTEX
  8
0
 10
-0.45017056
 20
-2.95610424
  0
VERTEX
  8
0
 10
-0.47399481
 20
-2.96671672
  0
VERTEX
  8
0
 10
-0.49939308
 20
-2.97708010
  0
VERTEX
  8
0
 10
-0.52620032
 20
-2.98705271
  0
VERTEX
  8
0
 10
-0.55425149
 20
-2.99649289
  0
VERTEX
  8
0
 10
-0.58338156
 20
-3.00525898
  0
VERTEX
  8
0
 10
-0.61342550
 20
-3.01320932
  0
VERTEX
  8
0
 10
-0.64421826
 20
-3.02020225
  0
VERTEX
  8
0
 10
-0.67559481
 20
-3.02609611
  0
VERTEX
  8
0
 10
-0.70739011
 20
-3.03074924
  0
VERTEX
  8
0
 10
-0.73943912
 20
-3.03401997
  0
VERTEX
  8
0
 10
-0.74248445
 20
-3.03384036
  0
VERTEX
  8
0
 10
-0.74539048
 20
-3.03295012
  0
VERTEX
  8
0
 10
-0.75065155
 20
-3.02941019
  0
VERTEX
  8
0
 10
-0.75495611
 20
-3.02414504
  0
VERTEX
  8
0
 10
-0.75803793
 20
-3.01789956
  0
VERTEX
  8
0
 10
-0.75963081
 20
-3.01141861
  0
VERTEX
  8
0
 10
-0.75946853
 20
-3.00544708
  0
VERTEX
  8
0
 10
-0.75728486
 20
-3.00072983
  0
VERTEX
  8
0
 10
-0.75535182
 20
-2.99907434
  0
VERTEX
  8
0
 10
-0.75281360
 20
-2.99801174
  0
VERTEX
  8
0
 10
-0.69308868
 20
-2.97147558
  0
VERTEX
  8
0
 10
-0.62635189
 20
-2.94343341
  0
VERTEX
  8
0
 10
-0.55763255
 20
-2.91491096
  0
VERTEX
  8
0
 10
-0.49195999
 20
-2.88693397
  0
VERTEX
  8
0
 10
-0.43436352
 20
-2.86052817
  0
VERTEX
  8
0
 10
-0.41016549
 20
-2.84823501
  0
VERTEX
  8
0
 10
-0.38987247
 20
-2.83671930
  0
VERTEX
  8
0
 10
-0.37411314
 20
-2.82610926
  0
VERTEX
  8
0
 10
-0.36351615
 20
-2.81653309
  0
VERTEX
  8
0
 10
-0.36035000
 20
-2.81217278
  0
VERTEX
  8
0
 10
-0.35871018
 20
-2.80811903
  0
VERTEX
  8
0
 10
-0.35867529
 20
-2.80438785
  0
VERTEX
  8
0
 10
-0.36032389
 20
-2.80099528
  0
VERTEX
  8
0
 10
-0.41484113
 20
-2.76065387
  0
VERTEX
  8
0
 10
-0.44247429
 20
-2.73930840
  0
VERTEX
  8
0
 10
-0.46980144
 20
-2.71708213
  0
VERTEX
  8
0
 10
-0.49640583
 20
-2.69390181
  0
VERTEX
  8
0
 10
-0.52187067
 20
-2.66969421
  0
VERTEX
  8
0
 10
-0.54577921
 20
-2.64438612
  0
VERTEX
  8
0
 10
-0.56771466
 20
-2.61790429
  0
VERTEX
  8
0
 10
-0.58726027
 20
-2.59017550
  0
VERTEX
  8
0
 10
-0.59600664
 20
-2.57582060
  0
VERTEX
  8
0
 10
-0.60399926
 20
-2.56112651
  0
VERTEX
  8
0
 10
-0.61118604
 20
-2.54608406
  0
VERTEX
  8
0
 10
-0.61751487
 20
-2.53068410
  0
VERTEX
  8
0
 10
-0.62293366
 20
-2.51491747
  0
VERTEX
  8
0
 10
-0.62739032
 20
-2.49877503
  0
VERTEX
  8
0
 10
-0.63083274
 20
-2.48224762
  0
VERTEX
  8
0
 10
-0.63320884
 20
-2.46532608
  0
VERTEX
  8
0
 10
-0.63446652
 20
-2.44800127
  0
VERTEX
  8
0
 10
-0.63455367
 20
-2.43026402
  0
VERTEX
  8
0
 10
-0.63341821
 20
-2.41210519
  0
VERTEX
  8
0
 10
-0.63100804
 20
-2.39351561
  0
VERTEX
  8
0
 10
-0.62727105
 20
-2.37448614
  0
VERTEX
  8
0
 10
-0.62215517
 20
-2.35500763
  0
VERTEX
  8
0
 10
-0.60673103
 20
-2.30882218
  0
VERTEX
  8
0
 10
-0.58998103
 20
-2.26216609
  0
VERTEX
  8
0
 10
-0.57193316
 20
-2.21536906
  0
VERTEX
  8
0
 10
-0.55261537
 20
-2.16876083
  0
VERTEX
  8
0
 10
-0.53205565
 20
-2.12267110
  0
VERTEX
  8
0
 10
-0.51028195
 20
-2.07742959
  0
VERTEX
  8
0
 10
-0.48732226
 20
-2.03336602
  0
VERTEX
  8
0
 10
-0.46320455
 20
-1.99081010
  0
VERTEX
  8
0
 10
-0.45567850
 20
-1.96430461
  0
VERTEX
  8
0
 10
-0.44940059
 20
-1.93724616
  0
VERTEX
  8
0
 10
-0.43864571
 20
-1.88243717
  0
VERTEX
  8
0
 10
-0.43319701
 20
-1.85517002
  0
VERTEX
  8
0
 10
-0.42705297
 20
-1.82831669
  0
VERTEX
  8
0
 10
-0.41972773
 20
-1.80211890
  0
VERTEX
  8
0
 10
-0.41073541
 20
-1.77681833
  0
VERTEX
  8
0
 10
-0.38859985
 20
-1.75418712
  0
VERTEX
  8
0
 10
-0.36758538
 20
-1.73121668
  0
VERTEX
  8
0
 10
-0.34757532
 20
-1.70794104
  0
VERTEX
  8
0
 10
-0.32845299
 20
-1.68439425
  0
VERTEX
  8
0
 10
-0.29240480
 20
-1.63662336
  0
VERTEX
  8
0
 10
-0.25850735
 20
-1.58817634
  0
VERTEX
  8
0
 10
-0.19343088
 20
-1.49034321
  0
VERTEX
  8
0
 10
-0.16038497
 20
-1.44150175
  0
VERTEX
  8
0
 10
-0.12575599
 20
-1.39307347
  0
VERTEX
  8
0
 10
-0.10969477
 20
-1.37823820
  0
VERTEX
  8
0
 10
-0.09277562
 20
-1.36518917
  0
VERTEX
  8
0
 10
-0.07511308
 20
-1.35367906
  0
VERTEX
  8
0
 10
-0.05682172
 20
-1.34346052
  0
VERTEX
  8
0
 10
-0.03801609
 20
-1.33428622
  0
VERTEX
  8
0
 10
-0.01881073
 20
-1.32590882
  0
VERTEX
  8
0
 10
0.02034094
 20
-1.31055540
  0
VERTEX
  8
0
 10
0.05971686
 20
-1.29542158
  0
VERTEX
  8
0
 10
0.07920253
 20
-1.28731867
  0
VERTEX
  8
0
 10
0.09840061
 20
-1.27852866
  0
VERTEX
  8
0
 10
0.11719654
 20
-1.26880421
  0
VERTEX
  8
0
 10
0.13547576
 20
-1.25789798
  0
VERTEX
  8
0
 10
0.15312374
 20
-1.24556263
  0
VERTEX
  8
0
 10
0.17002590
 20
-1.23155084
  0
VERTEX
  8
0
 10
0.18597643
 20
-1.22121719
  0
VERTEX
  8
0
 10
0.20091604
 20
-1.20997153
  0
VERTEX
  8
0
 10
0.21500980
 20
-1.19799499
  0
VERTEX
  8
0
 10
0.22842279
 20
-1.18546868
  0
VERTEX
  8
0
 10
0.25386671
 20
-1.15949120
  0
VERTEX
  8
0
 10
0.27856836
 20
-1.13348802
  0
VERTEX
  8
0
 10
0.30384829
 20
-1.10890808
  0
VERTEX
  8
0
 10
0.31711778
 20
-1.09760461
  0
VERTEX
  8
0
 10
0.33102706
 20
-1.08720029
  0
VERTEX
  8
0
 10
0.34574119
 20
-1.07787625
  0
VERTEX
  8
0
 10
0.36142523
 20
-1.06981360
  0
VERTEX
  8
0
 10
0.37824426
 20
-1.06319345
  0
VERTEX
  8
0
 10
0.39636335
 20
-1.05819693
  0
VERTEX
  8
0
 10
0.45434307
 20
-1.02626227
  0
VERTEX
  8
0
 10
0.51278995
 20
-0.99499750
  0
VERTEX
  8
0
 10
0.63076041
 20
-0.93394860
  0
VERTEX
  8
0
 10
0.86873511
 20
-0.81407029
  0
VERTEX
  8
0
 10
0.98744045
 20
-0.75312486
  0
VERTEX
  8
0
 10
1.04643848
 20
-0.72193769
  0
VERTEX
  8
0
 10
1.10509184
 20
-0.69009789
  0
VERTEX
  8
0
 10
1.16331935
 20
-0.65747320
  0
VERTEX
  8
0
 10
1.22103983
 20
-0.62393137
  0
VERTEX
  8
0
 10
1.27817209
 20
-0.58934016
  0
VERTEX
  8
0
 10
1.33463496
 20
-0.55356730
  0
VERTEX
  8
0
 10
1.38490813
 20
-0.52223288
  0
VERTEX
  8
0
 10
1.43405706
 20
-0.49297685
  0
VERTEX
  8
0
 10
1.53053809
 20
-0.43795091
  0
VERTEX
  8
0
 10
1.62718998
 20
-0.38299139
  0
VERTEX
  8
0
 10
1.67655248
 20
-0.35381839
  0
VERTEX
  8
0
 10
1.72712467
 20
-0.32260022
  0
VERTEX
  8
0
 10
1.73836078
 20
-0.31284423
  0
VERTEX
  8
0
 10
1.75115996
 20
-0.30411290
  0
VERTEX
  8
0
 10
1.76513904
 20
-0.29616594
  0
VERTEX
  8
0
 10
1.77991487
 20
-0.28876307
  0
VERTEX
  8
0
 10
1.81032415
 20
-0.27462847
  0
VERTEX
  8
0
 10
1.82519130
 20
-0.26741618
  0
VERTEX
  8
0
 10
1.83932257
 20
-0.25978684
  0
VERTEX
  8
0
 10
1.85233480
 20
-0.25150018
  0
VERTEX
  8
0
 10
1.86384485
 20
-0.24231591
  0
VERTEX
  8
0
 10
1.87346956
 20
-0.23199375
  0
VERTEX
  8
0
 10
1.88082576
 20
-0.22029343
  0
VERTEX
  8
0
 10
1.88353344
 20
-0.21385136
  0
VERTEX
  8
0
 10
1.88553031
 20
-0.20697464
  0
VERTEX
  8
0
 10
1.88676848
 20
-0.19963324
  0
VERTEX
  8
0
 10
1.88720004
 20
-0.19179713
  0
VERTEX
  8
0
 10
1.88677712
 20
-0.18343625
  0
VERTEX
  8
0
 10
1.88545181
 20
-0.17452059
  0
VERTEX
  8
0
 10
1.88317622
 20
-0.16502010
  0
VERTEX
  8
0
 10
1.87990245
 20
-0.15490475
  0
VERTEX
  8
0
 10
1.87584532
 20
-0.14691387
  0
VERTEX
  8
0
 10
1.87097381
 20
-0.13936499
  0
VERTEX
  8
0
 10
1.85932632
 20
-0.12558376
  0
VERTEX
  8
0
 10
1.85376091
 20
-0.12513516
  0
VERTEX
  8
0
 10
1.84896487
 20
-0.12627086
  0
VERTEX
  8
0
 10
1.84477907
 20
-0.12863022
  0
VERTEX
  8
0
 10
1.84104434
 20
-0.13185261
  0
VERTEX
  8
0
 10
1.83429154
 20
-0.13944397
  0
VERTEX
  8
0
 10
1.82743331
 20
-0.14615989
  0
VERTEX
  8
0
 10
1.81098901
 20
-0.15797547
  0
VERTEX
  8
0
 10
1.79461183
 20
-0.17066912
  0
VERTEX
  8
0
 10
1.76176791
 20
-0.19746949
  0
VERTEX
  8
0
 10
1.72831974
 20
-0.22411869
  0
VERTEX
  8
0
 10
1.71118724
 20
-0.23662339
  0
VERTEX
  8
0
 10
1.69368550
 20
-0.24817443
  0
VERTEX
  8
0
 10
1.67574178
 20
-0.25846654
  0
VERTEX
  8
0
 10
1.65728336
 20
-0.26719441
  0
VERTEX
  8
0
 10
1.63823752
 20
-0.27405276
  0
VERTEX
  8
0
 10
1.61853152
 20
-0.27873631
  0
VERTEX
  8
0
 10
1.59809263
 20
-0.28093976
  0
VERTEX
  8
0
 10
1.57684814
 20
-0.28035783
  0
VERTEX
  8
0
 10
1.56590106
 20
-0.27892695
  0
VERTEX
  8
0
 10
1.55472531
 20
-0.27668524
  0
VERTEX
  8
0
 10
1.54331179
 20
-0.27359453
  0
VERTEX
  8
0
 10
1.53165142
 20
-0.26961668
  0
VERTEX
  8
0
 10
1.50909468
 20
-0.26092373
  0
VERTEX
  8
0
 10
1.50027898
 20
-0.25657726
  0
VERTEX
  8
0
 10
1.49255677
 20
-0.25161256
  0
VERTEX
  8
0
 10
1.47164676
 20
-0.27340680
  0
VERTEX
  8
0
 10
1.44795080
 20
-0.29472595
  0
VERTEX
  8
0
 10
1.43530163
 20
-0.30471626
  0
VERTEX
  8
0
 10
1.42224820
 20
-0.31399847
  0
VERTEX
  8
0
 10
1.40888793
 20
-0.32237614
  0
VERTEX
  8
0
 10
1.39531823
 20
-0.32965283
  0
VERTEX
  8
0
 10
1.38163652
 20
-0.33563209
  0
VERTEX
  8
0
 10
1.36794021
 20
-0.34011749
  0
VERTEX
  8
0
 10
1.35432670
 20
-0.34291257
  0
VERTEX
  8
0
 10
1.34089341
 20
-0.34382090
  0
VERTEX
  8
0
 10
1.32773775
 20
-0.34264603
  0
VERTEX
  8
0
 10
1.31495713
 20
-0.33919153
  0
VERTEX
  8
0
 10
1.30264897
 20
-0.33326094
  0
VERTEX
  8
0
 10
1.29091068
 20
-0.32465783
  0
VERTEX
  8
0
 10
1.27341350
 20
-0.32066276
  0
VERTEX
  8
0
 10
1.25559671
 20
-0.31583356
  0
VERTEX
  8
0
 10
1.24732342
 20
-0.31229416
  0
VERTEX
  8
0
 10
1.23987619
 20
-0.30757184
  0
VERTEX
  8
0
 10
1.23355702
 20
-0.30134180
  0
VERTEX
  8
0
 10
1.22866788
 20
-0.29327923
  0
VERTEX
  8
0
 10
1.22715396
 20
-0.28463162
  0
VERTEX
  8
0
 10
1.22440633
 20
-0.27617215
  0
VERTEX
  8
0
 10
1.22006005
 20
-0.26893598
  0
VERTEX
  8
0
 10
1.21717338
 20
-0.26610011
  0
VERTEX
  8
0
 10
1.21375018
 20
-0.26395824
  0
VERTEX
  8
0
 10
1.20857786
 20
-0.26404711
  0
VERTEX
  8
0
 10
1.20468500
 20
-0.26601743
  0
VERTEX
  8
0
 10
1.20175741
 20
-0.26943936
  0
VERTEX
  8
0
 10
1.19948091
 20
-0.27388309
  0
VERTEX
  8
0
 10
1.19562442
 20
-0.28411658
  0
VERTEX
  8
0
 10
1.19341606
 20
-0.28904667
  0
VERTEX
  8
0
 10
1.19060204
 20
-0.29327923
  0
VERTEX
  8
0
 10
1.18497300
 20
-0.30099129
  0
VERTEX
  8
0
 10
1.17826641
 20
-0.30705680
  0
VERTEX
  8
0
 10
1.17066778
 20
-0.31175767
  0
VERTEX
  8
0
 10
1.16236263
 20
-0.31537575
  0
VERTEX
  8
0
 10
1.14437484
 20
-0.32049108
  0
VERTEX
  8
0
 10
1.12578722
 20
-0.32465783
  0
VERTEX
  8
0
 10
1.11792650
 20
-0.32223364
  0
VERTEX
  8
0
 10
1.11162126
 20
-0.31863785
  0
VERTEX
  8
0
 10
1.10671041
 20
-0.31399236
  0
VERTEX
  8
0
 10
1.10303288
 20
-0.30841909
  0
VERTEX
  8
0
 10
1.10042757
 20
-0.30203993
  0
VERTEX
  8
0
 10
1.09873341
 20
-0.29497681
  0
VERTEX
  8
0
 10
1.09743419
 20
-0.27928627
  0
VERTEX
  8
0
 10
1.09784654
 20
-0.26232273
  0
VERTEX
  8
0
 10
1.09868177
 20
-0.24506145
  0
VERTEX
  8
0
 10
1.09865123
 20
-0.22847769
  0
VERTEX
  8
0
 10
1.09790858
 20
-0.22074466
  0
VERTEX
  8
0
 10
1.09646623
 20
-0.21354672
  0
VERTEX
  8
0
 10
1.08998104
 20
-0.20685975
  0
VERTEX
  8
0
 10
1.08548191
 20
-0.20006152
  0
VERTEX
  8
0
 10
1.08275061
 20
-0.19315749
  0
VERTEX
  8
0
 10
1.08156888
 20
-0.18615313
  0
VERTEX
  8
0
 10
1.08171847
 20
-0.17905389
  0
VERTEX
  8
0
 10
1.08298114
 20
-0.17186525
  0
VERTEX
  8
0
 10
1.08797270
 20
-0.15724157
  0
VERTEX
  8
0
 10
1.10170970
 20
-0.12716160
  0
VERTEX
  8
0
 10
1.10696315
 20
-0.11179270
  0
VERTEX
  8
0
 10
1.10842225
 20
-0.10404513
  0
VERTEX
  8
0
 10
1.10881191
 20
-0.09626277
  0
VERTEX
  8
0
 10
1.11673932
 20
-0.07321200
  0
VERTEX
  8
0
 10
1.12605353
 20
-0.04989358
  0
VERTEX
  8
0
 10
1.14716654
 20
-0.00253247
  0
VERTEX
  8
0
 10
1.16879934
 20
0.04566324
  0
VERTEX
  8
0
 10
1.17876328
 20
0.07002491
  0
VERTEX
  8
0
 10
1.18760032
 20
0.09453624
  0
VERTEX
  8
0
 10
1.19489150
 20
0.11917756
  0
VERTEX
  8
0
 10
1.20021787
 20
0.14392922
  0
VERTEX
  8
0
 10
1.20316048
 20
0.16877155
  0
VERTEX
  8
0
 10
1.20360696
 20
0.18122056
  0
VERTEX
  8
0
 10
1.20330039
 20
0.19368487
  0
VERTEX
  8
0
 10
1.20218840
 20
0.20616202
  0
VERTEX
  8
0
 10
1.20021863
 20
0.21864954
  0
VERTEX
  8
0
 10
1.19733871
 20
0.23114498
  0
VERTEX
  8
0
 10
1.19349626
 20
0.24364588
  0
VERTEX
  8
0
 10
1.18863893
 20
0.25614978
  0
VERTEX
  8
0
 10
1.18271433
 20
0.26865423
  0
VERTEX
  8
0
 10
1.17567011
 20
0.28115676
  0
VERTEX
  8
0
 10
1.16745389
 20
0.29365493
  0
VERTEX
  8
0
 10
1.19070165
 20
0.33735502
  0
VERTEX
  8
0
 10
1.21186224
 20
0.38234836
  0
VERTEX
  8
0
 10
1.23090864
 20
0.42866235
  0
VERTEX
  8
0
 10
1.24781385
 20
0.47632437
  0
VERTEX
  8
0
 10
1.26255087
 20
0.52536181
  0
VERTEX
  8
0
 10
1.27509269
 20
0.57580207
  0
VERTEX
  8
0
 10
1.28541230
 20
0.62767254
  0
VERTEX
  8
0
 10
1.29348269
 20
0.68100060
  0
VERTEX
  8
0
 10
1.29184664
 20
0.69535005
  0
VERTEX
  8
0
 10
1.29106503
 20
0.70951950
  0
VERTEX
  8
0
 10
1.29168510
 20
0.73740536
  0
VERTEX
  8
0
 10
1.29458279
 20
0.76483208
  0
VERTEX
  8
0
 10
1.29899795
 20
0.79197357
  0
VERTEX
  8
0
 10
1.30934021
 20
0.84609645
  0
VERTEX
  8
0
 10
1.31374704
 20
0.87342565
  0
VERTEX
  8
0
 10
1.31663084
 20
0.90116521
  0
VERTEX
  8
0
 10
1.31422184
 20
0.92154661
  0
VERTEX
  8
0
 10
1.31287277
 20
0.94236538
  0
VERTEX
  8
0
 10
1.31240974
 20
0.96356921
  0
VERTEX
  8
0
 10
1.31265882
 20
0.98510574
  0
VERTEX
  8
0
 10
1.31459762
 20
1.02896759
  0
VERTEX
  8
0
 10
1.31729784
 20
1.07353225
  0
VERTEX
  8
0
 10
1.31936814
 20
1.11838102
  0
VERTEX
  8
0
 10
1.31941716
 20
1.16309520
  0
VERTEX
  8
0
 10
1.31824889
 20
1.18527099
  0
VERTEX
  8
0
 10
1.31605355
 20
1.20725611
  0
VERTEX
  8
0
 10
1.31265723
 20
1.22899824
  0
VERTEX
  8
0
 10
1.30788599
 20
1.25044505
  0
VERTEX
  8
0
 10
1.31079377
 20
1.28059856
  0
VERTEX
  8
0
 10
1.31186254
 20
1.31010757
  0
VERTEX
  8
0
 10
1.31134633
 20
1.33907631
  0
VERTEX
  8
0
 10
1.30949918
 20
1.36760899
  0
VERTEX
  8
0
 10
1.30657515
 20
1.39580982
  0
VERTEX
  8
0
 10
1.30282827
 20
1.42378301
  0
VERTEX
  8
0
 10
1.29388217
 20
1.47946336
  0
VERTEX
  8
0
 10
1.28469324
 20
1.53548376
  0
VERTEX
  8
0
 10
1.28064282
 20
1.56388201
  0
VERTEX
  8
0
 10
1.27729382
 20
1.59267792
  0
VERTEX
  8
0
 10
1.27490029
 20
1.62197570
  0
VERTEX
  8
0
 10
1.27371628
 20
1.65187956
  0
VERTEX
  8
0
 10
1.27399583
 20
1.68249373
  0
VERTEX
  8
0
 10
1.27599298
 20
1.71392241
  0
VERTEX
  8
0
 10
1.26591752
 20
1.73534591
  0
VERTEX
  8
0
 10
1.25744521
 20
1.75741437
  0
VERTEX
  8
0
 10
1.25032198
 20
1.78002601
  0
VERTEX
  8
0
 10
1.24429376
 20
1.80307903
  0
VERTEX
  8
0
 10
1.23450601
 20
1.85010206
  0
VERTEX
  8
0
 10
1.22604937
 20
1.89766912
  0
VERTEX
  8
0
 10
1.21689123
 20
1.94496589
  0
VERTEX
  8
0
 10
1.21141392
 20
1.96825844
  0
VERTEX
  8
0
 10
1.20499901
 20
1.99117804
  0
VERTEX
  8
0
 10
1.19739242
 20
2.01362290
  0
VERTEX
  8
0
 10
1.18834009
 20
2.03549123
  0
VERTEX
  8
0
 10
1.17758793
 20
2.05668124
  0
VERTEX
  8
0
 10
1.16488187
 20
2.07709114
  0
VERTEX
  8
0
 10
1.15015742
 20
2.14980177
  0
VERTEX
  8
0
 10
1.14205127
 20
2.18512265
  0
VERTEX
  8
0
 10
1.13287709
 20
2.21973293
  0
VERTEX
  8
0
 10
1.12220582
 20
2.25361689
  0
VERTEX
  8
0
 10
1.10960840
 20
2.28675883
  0
VERTEX
  8
0
 10
1.09465579
 20
2.31914300
  0
VERTEX
  8
0
 10
1.08616220
 20
2.33504601
  0
VERTEX
  8
0
 10
1.07691891
 20
2.35075369
  0
VERTEX
  8
0
 10
1.07784733
 20
2.36761503
  0
VERTEX
  8
0
 10
1.08003484
 20
2.38392945
  0
VERTEX
  8
0
 10
1.08331003
 20
2.39977699
  0
VERTEX
  8
0
 10
1.08750150
 20
2.41523767
  0
VERTEX
  8
0
 10
1.09794767
 20
2.44531865
  0
VERTEX
  8
0
 10
1.11000209
 20
2.47481267
  0
VERTEX
  8
0
 10
1.12229355
 20
2.50436001
  0
VERTEX
  8
0
 10
1.13345080
 20
2.53460097
  0
VERTEX
  8
0
 10
1.13817559
 20
2.55018165
  0
VERTEX
  8
0
 10
1.14210262
 20
2.56617583
  0
VERTEX
  8
0
 10
1.14506047
 20
2.58266357
  0
VERTEX
  8
0
 10
1.14687776
 20
2.59972488
  0
VERTEX
  8
0
 10
1.14652709
 20
2.62643645
  0
VERTEX
  8
0
 10
1.14800021
 20
2.65321348
  0
VERTEX
  8
0
 10
1.15069253
 20
2.68002859
  0
VERTEX
  8
0
 10
1.15399944
 20
2.70685439
  0
VERTEX
  8
0
 10
1.15731635
 20
2.73366349
  0
VERTEX
  8
0
 10
1.16003866
 20
2.76042849
  0
VERTEX
  8
0
 10
1.16156176
 20
2.78712201
  0
VERTEX
  8
0
 10
1.16128105
 20
2.81371665
  0
VERTEX
  8
0
 10
1.16432850
 20
2.81323265
  0
VERTEX
  8
0
 10
1.16634504
 20
2.81187609
  0
VERTEX
  8
0
 10
1.16867134
 20
2.80768515
  0
VERTEX
  8
0
 10
1.17103192
 20
2.80342355
  0
VERTEX
  8
0
 10
1.17309130
 20
2.80197865
  0
VERTEX
  8
0
 10
1.17619874
 20
2.80137097
  0
VERTEX
  8
0
 10
1.20888287
 20
2.79165974
  0
VERTEX
  8
0
 10
1.24191936
 20
2.78299246
  0
VERTEX
  8
0
 10
1.27528266
 20
2.77527316
  0
VERTEX
  8
0
 10
1.30894725
 20
2.76840588
  0
VERTEX
  8
0
 10
1.37707808
 20
2.75684349
  0
VERTEX
  8
0
 10
1.44610752
 20
2.74753754
  0
VERTEX
  8
0
 10
1.51583123
 20
2.73972029
  0
VERTEX
  8
0
 10
1.58604489
 20
2.73262398
  0
VERTEX
  8
0
 10
1.65654414
 20
2.72548088
  0
VERTEX
  8
0
 10
1.72712467
 20
2.71752324
  0
VERTEX
  8
0
 10
1.74730903
 20
2.70956464
  0
VERTEX
  8
0
 10
1.76791402
 20
2.70263499
  0
VERTEX
  8
0
 10
1.78887537
 20
2.69658320
  0
VERTEX
  8
0
 10
1.81012886
 20
2.69125816
  0
VERTEX
  8
0
 10
1.85325528
 20
2.68218398
  0
VERTEX
  8
0
 10
1.89677933
 20
2.67420367
  0
VERTEX
  8
0
 10
1.94018708
 20
2.66610848
  0
VERTEX
  8
0
 10
1.98296461
 20
2.65668962
  0
VERTEX
  8
0
 10
2.00395643
 20
2.65110608
  0
VERTEX
  8
0
 10
2.02459797
 20
2.64473834
  0
VERTEX
  8
0
 10
2.04482498
 20
2.63743530
  0
VERTEX
  8
0
 10
2.06457323
 20
2.62904587
  0
VERTEX
  8
0
 10
2.09388196
 20
2.61957927
  0
VERTEX
  8
0
 10
2.12291130
 20
2.60925594
  0
VERTEX
  8
0
 10
2.15165388
 20
2.59810138
  0
VERTEX
  8
0
 10
2.18010238
 20
2.58614110
  0
VERTEX
  8
0
 10
2.20824943
 20
2.57340062
  0
VERTEX
  8
0
 10
2.23608770
 20
2.55990544
  0
VERTEX
  8
0
 10
2.26360983
 20
2.54568109
  0
VERTEX
  8
0
 10
2.29080849
 20
2.53075306
  0
VERTEX
  8
0
 10
2.34420599
 20
2.49888805
  0
VERTEX
  8
0
 10
2.39622143
 20
2.46451448
  0
VERTEX
  8
0
 10
2.44679603
 20
2.42783646
  0
VERTEX
  8
0
 10
2.49587104
 20
2.38905807
  0
VERTEX
  8
0
 10
2.54338767
 20
2.34838340
  0
VERTEX
  8
0
 10
2.58928718
 20
2.30601654
  0
VERTEX
  8
0
 10
2.63351077
 20
2.26216158
  0
VERTEX
  8
0
 10
2.67599970
 20
2.21702261
  0
VERTEX
  8
0
 10
2.71669518
 20
2.17080372
  0
VERTEX
  8
0
 10
2.75553846
 20
2.12370900
  0
VERTEX
  8
0
 10
2.79247076
 20
2.07594254
  0
VERTEX
  8
0
 10
2.82743331
 20
2.02770842
  0
VERTEX
  8
0
 10
2.85084644
 20
1.99095937
  0
VERTEX
  8
0
 10
2.87307037
 20
1.95351770
  0
VERTEX
  8
0
 10
2.89414201
 20
1.91541244
  0
VERTEX
  8
0
 10
2.91409825
 20
1.87667265
  0
VERTEX
  8
0
 10
2.93297600
 20
1.83732736
  0
VERTEX
  8
0
 10
2.95081216
 20
1.79740562
  0
VERTEX
  8
0
 10
2.96764364
 20
1.75693647
  0
VERTEX
  8
0
 10
2.98350734
 20
1.71594896
  0
VERTEX
  8
0
 10
2.99844017
 20
1.67447213
  0
VERTEX
  8
0
 10
3.01247902
 20
1.63253503
  0
VERTEX
  8
0
 10
3.02566080
 20
1.59016669
  0
VERTEX
  8
0
 10
3.03802242
 20
1.54739616
  0
VERTEX
  8
0
 10
3.04960078
 20
1.50425249
  0
VERTEX
  8
0
 10
3.06043278
 20
1.46076471
  0
VERTEX
  8
0
 10
3.08000533
 20
1.37287303
  0
VERTEX
  8
0
 10
3.07722898
 20
1.36403915
  0
VERTEX
  8
0
 10
3.07661102
 20
1.35499612
  0
VERTEX
  8
0
 10
3.07757909
 20
1.34576018
  0
VERTEX
  8
0
 10
3.07956086
 20
1.33634759
  0
VERTEX
  8
0
 10
3.08427615
 20
1.31705746
  0
VERTEX
  8
0
 10
3.08586499
 20
1.30721242
  0
VERTEX
  8
0
 10
3.08617817
 20
1.29725575
  0
VERTEX
  8
0
 10
3.08029807
 20
1.18564470
  0
VERTEX
  8
0
 10
3.07249727
 20
1.07350893
  0
VERTEX
  8
0
 10
3.06738860
 20
1.01757535
  0
VERTEX
  8
0
 10
3.06121414
 20
0.96190788
  0
VERTEX
  8
0
 10
3.05377870
 20
0.90663897
  0
VERTEX
  8
0
 10
3.04488706
 20
0.85190103
  0
VERTEX
  8
0
 10
3.03434403
 20
0.79782650
  0
VERTEX
  8
0
 10
3.02195439
 20
0.74454782
  0
VERTEX
  8
0
 10
3.00752295
 20
0.69219742
  0
VERTEX
  8
0
 10
2.99085451
 20
0.64090773
  0
VERTEX
  8
0
 10
2.97175385
 20
0.59081118
  0
VERTEX
  8
0
 10
2.96123044
 20
0.56625172
  0
VERTEX
  8
0
 10
2.95002577
 20
0.54204021
  0
VERTEX
  8
0
 10
2.93811545
 20
0.51819320
  0
VERTEX
  8
0
 10
2.92547508
 20
0.49472724
  0
VERTEX
  8
0
 10
2.91208025
 20
0.47165890
  0
VERTEX
  8
0
 10
2.89790656
 20
0.44900472
  0
VERTEX
  8
0
 10
2.87557835
 20
0.41228027
  0
VERTEX
  8
0
 10
2.85210943
 20
0.37598217
  0
VERTEX
  8
0
 10
2.82756650
 20
0.34013138
  0
VERTEX
  8
0
 10
2.80201624
 20
0.30474886
  0
VERTEX
  8
0
 10
2.77552534
 20
0.26985558
  0
VERTEX
  8
0
 10
2.74816049
 20
0.23547249
  0
VERTEX
  8
0
 10
2.71998838
 20
0.20162056
  0
VERTEX
  8
0
 10
2.69107570
 20
0.16832073
  0
VERTEX
  8
0
 10
2.66148914
 20
0.13559398
  0
VERTEX
  8
0
 10
2.63129538
 20
0.10346126
  0
VERTEX
  8
0
 10
2.60056113
 20
0.07194353
  0
VERTEX
  8
0
 10
2.56935306
 20
0.04106175
  0
VERTEX
  8
0
 10
2.50578224
 20
-0.01871011
  0
VERTEX
  8
0
 10
2.44111644
 20
-0.07568664
  0
VERTEX
  8
0
 10
2.39872357
 20
-0.10484223
  0
VERTEX
  8
0
 10
2.28673034
 20
-0.18415978
  0
VERTEX
  8
0
 10
2.12088832
 20
-0.30122158
  0
VERTEX
  8
0
 10
1.91694912
 20
-0.44360988
  0
VERTEX
  8
0
 10
1.69066431
 20
-0.59890695
  0
VERTEX
  8
0
 10
1.57406469
 20
-0.67751573
  0
VERTEX
  8
0
 10
1.45778551
 20
-0.75469506
  0
VERTEX
  8
0
 10
1.34379572
 20
-0.82889271
  0
VERTEX
  8
0
 10
1.23406429
 20
-0.89855648
  0
VERTEX
  8
0
 10
1.13056014
 20
-0.96213413
  0
VERTEX
  8
0
 10
1.03525224
 20
-1.01807347
  0
VERTEX
  8
0
 10
0.85758918
 20
-1.11624966
  0
VERTEX
  8
0
 10
0.68125663
 20
-1.21209353
  0
VERTEX
  8
0
 10
0.32897652
 20
-1.40181833
  0
VERTEX
  8
0
 10
0.30008775
 20
-1.43052709
  0
VERTEX
  8
0
 10
0.27336562
 20
-1.46072614
  0
VERTEX
  8
0
 10
0.24865591
 20
-1.49229734
  0
VERTEX
  8
0
 10
0.22580442
 20
-1.52512255
  0
VERTEX
  8
0
 10
0.20465694
 20
-1.55908362
  0
VERTEX
  8
0
 10
0.18505927
 20
-1.59406243
  0
VERTEX
  8
0
 10
0.16685719
 20
-1.62994083
  0
VERTEX
  8
0
 10
0.14989651
 20
-1.66660067
  0
VERTEX
  8
0
 10
0.13402300
 20
-1.70392382
  0
VERTEX
  8
0
 10
0.11908248
 20
-1.74179214
  0
VERTEX
  8
0
 10
0.10492073
 20
-1.78008749
  0
VERTEX
  8
0
 10
0.09138354
 20
-1.81869173
  0
VERTEX
  8
0
 10
0.06556602
 20
-1.89635432
  0
VERTEX
  8
0
 10
0.04039627
 20
-1.97383479
  0
VERTEX
  8
0
 10
0.03506620
 20
-1.97993239
  0
VERTEX
  8
0
 10
0.02937027
 20
-1.98575197
  0
VERTEX
  8
0
 10
0.02786057
 20
-1.98859078
  0
VERTEX
  8
0
 10
0.02802994
 20
-1.99140000
  0
VERTEX
  8
0
 10
0.03046857
 20
-1.99419295
  0
VERTEX
  8
0
 10
0.03576664
 20
-1.99698294
  0
VERTEX
  8
0
 10
0.05753516
 20
-1.99962518
  0
VERTEX
  8
0
 10
0.07845774
 20
-1.99950564
  0
VERTEX
  8
0
 10
0.09857322
 20
-1.99686782
  0
VERTEX
  8
0
 10
0.11792039
 20
-1.99195520
  0
VERTEX
  8
0
 10
0.13653807
 20
-1.98501130
  0
VERTEX
  8
0
 10
0.15446506
 20
-1.97627962
  0
VERTEX
  8
0
 10
0.17174017
 20
-1.96600366
  0
VERTEX
  8
0
 10
0.18840222
 20
-1.95442692
  0
VERTEX
  8
0
 10
0.20449000
 20
-1.94179290
  0
VERTEX
  8
0
 10
0.22004233
 20
-1.92834510
  0
VERTEX
  8
0
 10
0.24969588
 20
-1.89998220
  0
VERTEX
  8
0
 10
0.30428516
 20
-1.84420516
  0
VERTEX
  8
0
 10
0.37349644
 20
-1.81518497
  0
VERTEX
  8
0
 10
0.40842614
 20
-1.80182957
  0
VERTEX
  8
0
 10
0.44367019
 20
-1.78939392
  0
VERTEX
  8
0
 10
0.47930232
 20
-1.77799049
  0
VERTEX
  8
0
 10
0.51539628
 20
-1.76773174
  0
VERTEX
  8
0
 10
0.55202579
 20
-1.75873014
  0
VERTEX
  8
0
 10
0.58926459
 20
-1.75109816
  0
VERTEX
  8
0
 10
0.58757857
 20
-1.74660768
  0
VERTEX
  8
0
 10
0.58529319
 20
-1.74268778
  0
VERTEX
  8
0
 10
0.57916780
 20
-1.73633036
  0
VERTEX
  8
0
 10
0.57137534
 20
-1.73156708
  0
VERTEX
  8
0
 10
0.56240274
 20
-1.72793913
  0
VERTEX
  8
0
 10
0.54286491
 20
-1.72225396
  0
VERTEX
  8
0
 10
0.53327353
 20
-1.71927911
  0
VERTEX
  8
0
 10
0.52444977
 20
-1.71560433
  0
VERTEX
  8
0
 10
0.51166261
 20
-1.71564191
  0
VERTEX
  8
0
 10
0.49808114
 20
-1.71421776
  0
VERTEX
  8
0
 10
0.46905342
 20
-1.70944538
  0
VERTEX
  8
0
 10
0.45386624
 20
-1.70732766
  0
VERTEX
  8
0
 10
0.43840289
 20
-1.70620927
  0
VERTEX
  8
0
 10
0.42279291
 20
-1.70670546
  0
VERTEX
  8
0
 10
0.40716582
 20
-1.70943149
  0
VERTEX
  8
0
 10
0.40845428
 20
-1.69610330
  0
VERTEX
  8
0
 10
0.41170798
 20
-1.68519081
  0
VERTEX
  8
0
 10
0.41671610
 20
-1.67642215
  0
VERTEX
  8
0
 10
0.42326778
 20
-1.66952544
  0
VERTEX
  8
0
 10
0.43115219
 20
-1.66422880
  0
VERTEX
  8
0
 10
0.44015849
 20
-1.66026036
  0
VERTEX
  8
0
 10
0.45007583
 20
-1.65734825
  0
VERTEX
  8
0
 10
0.46069338
 20
-1.65522058
  0
VERTEX
  8
0
 10
0.48318573
 20
-1.65223108
  0
VERTEX
  8
0
 10
0.50594882
 20
-1.64911685
  0
VERTEX
  8
0
 10
0.51690479
 20
-1.64683328
  0
VERTEX
  8
0
 10
0.52729592
 20
-1.64370290
  0
VERTEX
  8
0
 10
0.53691137
 20
-1.63945384
  0
VERTEX
  8
0
 10
0.54554031
 20
-1.63381421
  0
VERTEX
  8
0
 10
0.65761094
 20
-1.58608604
  0
VERTEX
  8
0
 10
0.76951612
 20
-1.53604525
  0
VERTEX
  8
0
 10
0.99345782
 20
-1.43263210
  0
VERTEX
  8
0
 10
1.10580818
 20
-1.38106290
  0
VERTEX
  8
0
 10
1.21862080
 20
-1.33078737
  0
VERTEX
  8
0
 10
1.33205259
 20
-1.28270711
  0
VERTEX
  8
0
 10
1.38904971
 20
-1.25977194
  0
VERTEX
  8
0
 10
1.44626047
 20
-1.23772368
  0
VERTEX
  8
0
 10
1.52052244
 20
-1.20600870
  0
VERTEX
  8
0
 10
1.59531749
 20
-1.17543606
  0
VERTEX
  8
0
 10
1.67063074
 20
-1.14600572
  0
VERTEX
  8
0
 10
1.74644732
 20
-1.11771767
  0
VERTEX
  8
0
 10
1.82275233
 20
-1.09057190
  0
VERTEX
  8
0
 10
1.89953089
 20
-1.06456838
  0
VERTEX
  8
0
 10
1.97676813
 20
-1.03970709
  0
VERTEX
  8
0
 10
2.05444915
 20
-1.01598803
  0
VERTEX
  8
0
 10
2.13255907
 20
-0.99341117
  0
VERTEX
  8
0
 10
2.21108302
 20
-0.97197649
  0
VERTEX
  8
0
 10
2.29000610
 20
-0.95168398
  0
VERTEX
  8
0
 10
2.36931343
 20
-0.93253362
  0
VERTEX
  8
0
 10
2.44899013
 20
-0.91452538
  0
VERTEX
  8
0
 10
2.52902132
 20
-0.89765927
  0
VERTEX
  8
0
 10
2.60939212
 20
-0.88193525
  0
VERTEX
  8
0
 10
2.69008763
 20
-0.86735331
  0
VERTEX
  8
0
 10
2.71047370
 20
-0.86592684
  0
VERTEX
  8
0
 10
2.73077140
 20
-0.86700959
  0
VERTEX
  8
0
 10
2.75094382
 20
-0.87044041
  0
VERTEX
  8
0
 10
2.77095404
 20
-0.87605818
  0
VERTEX
  8
0
 10
2.79076514
 20
-0.88370175
  0
VERTEX
  8
0
 10
2.81034020
 20
-0.89320999
  0
VERTEX
  8
0
 10
2.82964231
 20
-0.90442176
  0
VERTEX
  8
0
 10
2.84863454
 20
-0.91717594
  0
VERTEX
  8
0
 10
2.86727998
 20
-0.93131137
  0
VERTEX
  8
0
 10
2.88554172
 20
-0.94666694
  0
VERTEX
  8
0
 10
2.90338282
 20
-0.96308151
  0
VERTEX
  8
0
 10
2.92076638
 20
-0.98039393
  0
VERTEX
  8
0
 10
2.93765547
 20
-0.99844307
  0
VERTEX
  8
0
 10
2.95401319
 20
-1.01706781
  0
VERTEX
  8
0
 10
2.98498680
 20
-1.05539951
  0
VERTEX
  8
0
 10
3.01339186
 20
-1.09409994
  0
VERTEX
  8
0
 10
3.03893304
 20
-1.13188002
  0
VERTEX
  8
0
 10
3.06131498
 20
-1.16745067
  0
VERTEX
  8
0
 10
3.08024235
 20
-1.19952281
  0
VERTEX
  8
0
 10
3.09541979
 20
-1.22680737
  0
VERTEX
  8
0
 10
3.10655197
 20
-1.24801525
  0
VERTEX
  8
0
 10
3.11549915
 20
-1.26704466
  0
VERTEX
  8
0
 10
3.13032812
 20
-1.30554502
  0
VERTEX
  8
0
 10
3.14275105
 20
-1.34525609
  0
VERTEX
  8
0
 10
3.15288649
 20
-1.38601717
  0
VERTEX
  8
0
 10
3.16085296
 20
-1.42766754
  0
VERTEX
  8
0
 10
3.16676900
 20
-1.47004652
  0
VERTEX
  8
0
 10
3.17075313
 20
-1.51299338
  0
VERTEX
  8
0
 10
3.17292390
 20
-1.55634743
  0
VERTEX
  8
0
 10
3.17339982
 20
-1.59994796
  0
VERTEX
  8
0
 10
3.17229944
 20
-1.64363427
  0
VERTEX
  8
0
 10
3.16974129
 20
-1.68724565
  0
VERTEX
  8
0
 10
3.16584389
 20
-1.73062140
  0
VERTEX
  8
0
 10
3.16072578
 20
-1.77360080
  0
VERTEX
  8
0
 10
3.15450548
 20
-1.81602317
  0
VERTEX
  8
0
 10
3.14730155
 20
-1.85772779
  0
VERTEX
  8
0
 10
3.13923249
 20
-1.89855395
  0
VERTEX
  8
0
 10
3.13041685
 20
-1.93834096
  0
SEQEND
  0
POLYLINE
  8
Default_Layer
 66
   1
 39
0.000000
 70
    1
  0
VERTEX
  8
0
 10
-0.23223747
 20
2.73449855
  0
VERTEX
  8
0
 10
-0.17344955
 20
2.73530189
  0
VERTEX
  8
0
 10
-0.11286584
 20
2.73488165
  0
VERTEX
  8
0
 10
-0.05319737
 20
2.73426986
  0
VERTEX
  8
0
 10
0.00284483
 20
2.73449855
  0
VERTEX
  8
0
 10
0.01106455
 20
2.74000686
  0
VERTEX
  8
0
 10
0.01839715
 20
2.74645603
  0
VERTEX
  8
0
 10
0.02473658
 20
2.75374613
  0
VERTEX
  8
0
 10
0.02997677
 20
2.76177725
  0
VERTEX
  8
0
 10
0.03401169
 20
2.77044946
  0
VERTEX
  8
0
 10
0.03673528
 20
2.77966283
  0
VERTEX
  8
0
 10
0.03804148
 20
2.78931744
  0
VERTEX
  8
0
 10
0.03782426
 20
2.79931336
  0
VERTEX
  8
0
 10
0.03500757
 20
2.80233406
  0
VERTEX
  8
0
 10
0.03265720
 20
2.80588253
  0
VERTEX
  8
0
 10
0.02856260
 20
2.81387548
  0
VERTEX
  8
0
 10
0.02395479
 20
2.82191761
  0
VERTEX
  8
0
 10
0.02096292
 20
2.82552757
  0
VERTEX
  8
0
 10
0.01724813
 20
2.82863435
  0
VERTEX
  8
0
 10
0.00356402
 20
2.83198384
  0
VERTEX
  8
0
 10
-0.01000658
 20
2.83390583
  0
VERTEX
  8
0
 10
-0.02346354
 20
2.83451680
  0
VERTEX
  8
0
 10
-0.03680670
 20
2.83393327
  0
VERTEX
  8
0
 10
-0.05003594
 20
2.83227172
  0
VERTEX
  8
0
 10
-0.06315112
 20
2.82964867
  0
VERTEX
  8
0
 10
-0.07615209
 20
2.82618061
  0
VERTEX
  8
0
 10
-0.08903872
 20
2.82198404
  0
VERTEX
  8
0
 10
-0.11446840
 20
2.81187138
  0
VERTEX
  8
0
 10
-0.13943904
 20
2.80024268
  0
VERTEX
  8
0
 10
-0.18799879
 20
2.77616521
  0
VERTEX
  8
0
 10
-0.19106475
 20
2.77305686
  0
VERTEX
  8
0
 10
-0.19546753
 20
2.77060137
  0
VERTEX
  8
0
 10
-0.20710327
 20
2.76714701
  0
VERTEX
  8
0
 10
-0.23343379
 20
2.76255092
  0
VERTEX
  8
0
 10
-0.24340761
 20
2.75940128
  0
VERTEX
  8
0
 10
-0.24656394
 20
2.75717434
  0
VERTEX
  8
0
 10
-0.24810648
 20
2.75434531
  0
VERTEX
  8
0
 10
-0.24774017
 20
2.75078872
  0
VERTEX
  8
0
 10
-0.24516993
 20
2.74637905
  0
VERTEX
  8
0
 10
-0.24010072
 20
2.74099083
  0
VERTEX
  8
0
 10
-0.23223747
 20
2.73449855
  0
SEQEND
  0
POLYLINE
  8
Default_Layer
 66
   1
 39
0.000000
 70
    1
  0
VERTEX
  8
0
 10
-1.19622924
 20
2.66351089
  0
VERTEX
  8
0
 10
-1.18321524
 20
2.67084224
  0
VERTEX
  8
0
 10
-1.16981481
 20
2.67644021
  0
VERTEX
  8
0
 10
-1.15607476
 20
2.68046218
  0
VERTEX
  8
0
 10
-1.14204185
 20
2.68306554
  0
VERTEX
  8
0
 10
-1.12776287
 20
2.68440765
  0
VERTEX
  8
0
 10
-1.11328461
 20
2.68464590
  0
VERTEX
  8
0
 10
-1.09865386
 20
2.68393766
  0
VERTEX
  8
0
 10
-1.08391740
 20
2.68244032
  0
VERTEX
  8
0
 10
-1.05431447
 20
2.67770780
  0
VERTEX
  8
0
 10
-1.02485010
 20
2.67170738
  0
VERTEX
  8
0
 10
-0.99589858
 20
2.66569806
  0
VERTEX
  8
0
 10
-0.96783418
 20
2.66093888
  0
VERTEX
  8
0
 10
-0.96530002
 20
2.66943747
  0
VERTEX
  8
0
 10
-0.96406619
 20
2.67665146
  0
VERTEX
  8
0
 10
-0.96405322
 20
2.68272903
  0
VERTEX
  8
0
 10
-0.96518163
 20
2.68781840
  0
VERTEX
  8
0
 10
-0.96737194
 20
2.69206774
  0
VERTEX
  8
0
 10
-0.97054469
 20
2.69562527
  0
VERTEX
  8
0
 10
-0.97462040
 20
2.69863917
  0
VERTEX
  8
0
 10
-0.97951960
 20
2.70125764
  0
VERTEX
  8
0
 10
-0.99147055
 20
2.70590110
  0
VERTEX
  8
0
 10
-1.00576177
 20
2.71074121
  0
VERTEX
  8
0
 10
-1.02175746
 20
2.71696355
  0
VERTEX
  8
0
 10
-1.03882183
 20
2.72575369
  0
VERTEX
  8
0
 10
-1.04583577
 20
2.72900302
  0
VERTEX
  8
0
 10
-1.05316511
 20
2.73149418
  0
VERTEX
  8
0
 10
-1.06850366
 20
2.73507412
  0
VERTEX
  8
0
 10
-1.08430478
 20
2.73823767
  0
VERTEX
  8
0
 10
-1.10003582
 20
2.74272900
  0
VERTEX
  8
0
 10
-1.11264835
 20
2.74740189
  0
VERTEX
  8
0
 10
-1.12603779
 20
2.75141363
  0
VERTEX
  8
0
 10
-1.13969489
 20
2.75405980
  0
VERTEX
  8
0
 10
-1.15311040
 20
2.75463600
  0
VERTEX
  8
0
 10
-1.15956842
 20
2.75392772
  0
VERTEX
  8
0
 10
-1.16577508
 20
2.75243781
  0
VERTEX
  8
0
 10
-1.17166672
 20
2.75007819
  0
VERTEX
  8
0
 10
-1.17717968
 20
2.74676083
  0
VERTEX
  8
0
 10
-1.18225030
 20
2.74239766
  0
VERTEX
  8
0
 10
-1.18681494
 20
2.73690065
  0
VERTEX
  8
0
 10
-1.19080993
 20
2.73018174
  0
VERTEX
  8
0
 10
-1.19417163
 20
2.72215287
  0
VERTEX
  8
0
 10
-1.19449326
 20
2.71870513
  0
VERTEX
  8
0
 10
-1.19585279
 20
2.71482723
  0
VERTEX
  8
0
 10
-1.20077391
 20
2.70612480
  0
VERTEX
  8
0
 10
-1.21304239
 20
2.68734050
  0
VERTEX
  8
0
 10
-1.21674296
 20
2.67863412
  0
VERTEX
  8
0
 10
-1.21718709
 20
2.67475325
  0
VERTEX
  8
0
 10
-1.21638989
 20
2.67130189
  0
VERTEX
  8
0
 10
-1.21412343
 20
2.66836601
  0
VERTEX
  8
0
 10
-1.21015978
 20
2.66603157
  0
VERTEX
  8
0
 10
-1.20427103
 20
2.66438454
  0
VERTEX
  8
0
 10
-1.19622924
 20
2.66351089
  0
SEQEND
  0
POLYLINE
  8
Default_Layer
 66
   1
 39
0.000000
 70
    1
  0
VERTEX
  8
0
 10
2.90047858
 20
0.79571254
  0
VERTEX
  8
0
 10
2.89732843
 20
0.78020256
  0
VERTEX
  8
0
 10
2.89342329
 20
0.76517844
  0
VERTEX
  8
0
 10
2.88377099
 20
0.73637500
  0
VERTEX
  8
0
 10
2.87236754
 20
0.70887657
  0
VERTEX
  8
0
 10
2.86005881
 20
0.68225752
  0
VERTEX
  8
0
 10
2.84769067
 20
0.65609220
  0
VERTEX
  8
0
 10
2.83610898
 20
0.62995499
  0
VERTEX
  8
0
 10
2.82615962
 20
0.60342025
  0
VERTEX
  8
0
 10
2.82206140
 20
0.58987079
  0
VERTEX
  8
0
 10
2.81868846
 20
0.57606233
  0
VERTEX
  8
0
 10
2.82925349
 20
0.57969985
  0
VERTEX
  8
0
 10
2.83900747
 20
0.58461669
  0
VERTEX
  8
0
 10
2.84802718
 20
0.59068555
  0
VERTEX
  8
0
 10
2.85638940
 20
0.59777912
  0
VERTEX
  8
0
 10
2.86417092
 20
0.60577013
  0
VERTEX
  8
0
 10
2.87144851
 20
0.61453126
  0
VERTEX
  8
0
 10
2.88479903
 20
0.63385473
  0
VERTEX
  8
0
 10
2.89705523
 20
0.65473116
  0
VERTEX
  8
0
 10
2.90883136
 20
0.67614216
  0
VERTEX
  8
0
 10
2.92074166
 20
0.69706938
  0
VERTEX
  8
0
 10
2.93340039
 20
0.71649443
  0
VERTEX
  8
0
 10
2.94167971
 20
0.73536419
  0
VERTEX
  8
0
 10
2.94888039
 20
0.75567589
  0
VERTEX
  8
0
 10
2.95505617
 20
0.77729591
  0
VERTEX
  8
0
 10
2.96026076
 20
0.80009067
  0
VERTEX
  8
0
 10
2.96454788
 20
0.82392657
  0
VERTEX
  8
0
 10
2.96797126
 20
0.84867000
  0
VERTEX
  8
0
 10
2.97058463
 20
0.87418736
  0
VERTEX
  8
0
 10
2.97244169
 20
0.90034507
  0
VERTEX
  8
0
 10
2.97410181
 20
0.95404708
  0
VERTEX
  8
0
 10
2.97338141
 20
1.00870726
  0
VERTEX
  8
0
 10
2.97071025
 20
1.06325680
  0
VERTEX
  8
0
 10
2.96651813
 20
1.11662690
  0
VERTEX
  8
0
 10
2.96123482
 20
1.16774879
  0
VERTEX
  8
0
 10
2.95529009
 20
1.21555365
  0
VERTEX
  8
0
 10
2.94313550
 20
1.29693715
  0
VERTEX
  8
0
 10
2.93349258
 20
1.35222706
  0
VERTEX
  8
0
 10
2.92979957
 20
1.37287303
  0
VERTEX
  8
0
 10
2.91841394
 20
1.41343365
  0
VERTEX
  8
0
 10
2.90477015
 20
1.45361301
  0
VERTEX
  8
0
 10
2.88948353
 20
1.49348418
  0
VERTEX
  8
0
 10
2.87316936
 20
1.53312022
  0
VERTEX
  8
0
 10
2.83991968
 20
1.61197914
  0
VERTEX
  8
0
 10
2.82421479
 20
1.65134815
  0
VERTEX
  8
0
 10
2.80994360
 20
1.69077427
  0
VERTEX
  8
0
 10
2.79209212
 20
1.73102396
  0
VERTEX
  8
0
 10
2.77290710
 20
1.77044341
  0
VERTEX
  8
0
 10
2.75242374
 20
1.80902502
  0
VERTEX
  8
0
 10
2.73067723
 20
1.84676118
  0
VERTEX
  8
0
 10
2.70770276
 20
1.88364430
  0
VERTEX
  8
0
 10
2.68353551
 20
1.91966676
  0
VERTEX
  8
0
 10
2.65821070
 20
1.95482097
  0
VERTEX
  8
0
 10
2.63176350
 20
1.98909931
  0
VERTEX
  8
0
 10
2.60422910
 20
2.02249419
  0
VERTEX
  8
0
 10
2.57564272
 20
2.05499801
  0
VERTEX
  8
0
 10
2.54603952
 20
2.08660315
  0
VERTEX
  8
0
 10
2.51545471
 20
2.11730201
  0
VERTEX
  8
0
 10
2.48392348
 20
2.14708700
  0
VERTEX
  8
0
 10
2.45148103
 20
2.17595050
  0
VERTEX
  8
0
 10
2.41816253
 20
2.20388492
  0
VERTEX
  8
0
 10
2.38400319
 20
2.23088264
  0
VERTEX
  8
0
 10
2.34903820
 20
2.25693608
  0
VERTEX
  8
0
 10
2.31330276
 20
2.28203761
  0
VERTEX
  8
0
 10
2.27683204
 20
2.30617964
  0
VERTEX
  8
0
 10
2.23966125
 20
2.32935457
  0
VERTEX
  8
0
 10
2.20182558
 20
2.35155478
  0
VERTEX
  8
0
 10
2.16336022
 20
2.37277268
  0
VERTEX
  8
0
 10
2.12430036
 20
2.39300067
  0
VERTEX
  8
0
 10
2.08468120
 20
2.41223113
  0
VERTEX
  8
0
 10
2.04453793
 20
2.43045647
  0
VERTEX
  8
0
 10
2.00390573
 20
2.44766908
  0
VERTEX
  8
0
 10
1.96281981
 20
2.46386136
  0
VERTEX
  8
0
 10
1.92131535
 20
2.47902570
  0
VERTEX
  8
0
 10
1.87942756
 20
2.49315450
  0
VERTEX
  8
0
 10
1.83719161
 20
2.50624016
  0
VERTEX
  8
0
 10
1.79464270
 20
2.51827507
  0
VERTEX
  8
0
 10
1.75181603
 20
2.52925163
  0
VERTEX
  8
0
 10
1.71650395
 20
2.53618876
  0
VERTEX
  8
0
 10
1.68120745
 20
2.54388355
  0
VERTEX
  8
0
 10
1.64581008
 20
2.55170100
  0
VERTEX
  8
0
 10
1.61019544
 20
2.55900614
  0
VERTEX
  8
0
 10
1.57424711
 20
2.56516398
  0
VERTEX
  8
0
 10
1.53784867
 20
2.56953955
  0
VERTEX
  8
0
 10
1.50088370
 20
2.57149784
  0
VERTEX
  8
0
 10
1.48215239
 20
2.57137209
  0
VERTEX
  8
0
 10
1.46323578
 20
2.57040390
  0
VERTEX
  8
0
 10
1.44358115
 20
2.56253397
  0
VERTEX
  8
0
 10
1.42324646
 20
2.55562261
  0
VERTEX
  8
0
 10
1.38125337
 20
2.54360332
  0
VERTEX
  8
0
 10
1.33868932
 20
2.53220149
  0
VERTEX
  8
0
 10
1.31764095
 20
2.52606195
  0
VERTEX
  8
0
 10
1.29698716
 20
2.51927258
  0
VERTEX
  8
0
 10
1.27690704
 20
2.51156531
  0
VERTEX
  8
0
 10
1.25757970
 20
2.50267208
  0
VERTEX
  8
0
 10
1.23918425
 20
2.49232481
  0
VERTEX
  8
0
 10
1.22189979
 20
2.48025544
  0
VERTEX
  8
0
 10
1.20590541
 20
2.46619591
  0
VERTEX
  8
0
 10
1.19138024
 20
2.44987815
  0
VERTEX
  8
0
 10
1.17850336
 20
2.43103409
  0
VERTEX
  8
0
 10
1.17273900
 20
2.42058093
  0
VERTEX
  8
0
 10
1.16745389
 20
2.40939567
  0
VERTEX
  8
0
 10
1.16478887
 20
2.39316484
  0
VERTEX
  8
0
 10
1.16318415
 20
2.37706763
  0
VERTEX
  8
0
 10
1.16258237
 20
2.36112028
  0
VERTEX
  8
0
 10
1.16292615
 20
2.34533902
  0
VERTEX
  8
0
 10
1.16415812
 20
2.32974008
  0
VERTEX
  8
0
 10
1.16622092
 20
2.31433969
  0
VERTEX
  8
0
 10
1.16905718
 20
2.29915410
  0
VERTEX
  8
0
 10
1.17260952
 20
2.28419952
  0
VERTEX
  8
0
 10
1.18163298
 20
2.25504838
  0
VERTEX
  8
0
 10
1.19283236
 20
2.22701612
  0
VERTEX
  8
0
 10
1.20574869
 20
2.20023263
  0
VERTEX
  8
0
 10
1.21992302
 20
2.17482776
  0
VERTEX
  8
0
 10
1.23048383
 20
2.16540085
  0
VERTEX
  8
0
 10
1.24036396
 20
2.15507751
  0
VERTEX
  8
0
 10
1.25950818
 20
2.13403439
  0
VERTEX
  8
0
 10
1.26948523
 20
2.12446102
  0
VERTEX
  8
0
 10
1.28020755
 20
2.11628405
  0
VERTEX
  8
0
 10
1.29203164
 20
2.11007668
  0
VERTEX
  8
0
 10
1.29846824
 20
2.10789073
  0
VERTEX
  8
0
 10
1.30531397
 20
2.10641213
  0
VERTEX
  8
0
 10
1.29648127
 20
2.12784938
  0
VERTEX
  8
0
 10
1.28883436
 20
2.15047574
  0
VERTEX
  8
0
 10
1.28585151
 20
2.16229247
  0
VERTEX
  8
0
 10
1.28364022
 20
2.17447565
  0
VERTEX
  8
0
 10
1.28235887
 20
2.18704831
  0
VERTEX
  8
0
 10
1.28216582
 20
2.20003353
  0
VERTEX
  8
0
 10
1.27275921
 20
2.20901798
  0
VERTEX
  8
0
 10
1.26527026
 20
2.21914419
  0
VERTEX
  8
0
 10
1.25933991
 20
2.23020205
  0
VERTEX
  8
0
 10
1.25460907
 20
2.24198142
  0
VERTEX
  8
0
 10
1.24730959
 20
2.26686424
  0
VERTEX
  8
0
 10
1.24049915
 20
2.29211172
  0
VERTEX
  8
0
 10
1.24440167
 20
2.30746221
  0
VERTEX
  8
0
 10
1.24995594
 20
2.32112929
  0
VERTEX
  8
0
 10
1.25701526
 20
2.33325922
  0
VERTEX
  8
0
 10
1.26543293
 20
2.34399830
  0
VERTEX
  8
0
 10
1.27506224
 20
2.35349281
  0
VERTEX
  8
0
 10
1.28575651
 20
2.36188901
  0
VERTEX
  8
0
 10
1.29736902
 20
2.36933319
  0
VERTEX
  8
0
 10
1.30975308
 20
2.37597164
  0
VERTEX
  8
0
 10
1.33624904
 20
2.38741642
  0
VERTEX
  8
0
 10
1.36407076
 20
2.39739361
  0
VERTEX
  8
0
 10
1.39204465
 20
2.40707343
  0
VERTEX
  8
0
 10
1.41899710
 20
2.41762612
  0
VERTEX
  8
0
 10
1.47640869
 20
2.41847248
  0
VERTEX
  8
0
 10
1.53527863
 20
2.41707817
  0
VERTEX
  8
0
 10
1.59490653
 20
2.41328523
  0
VERTEX
  8
0
 10
1.65459204
 20
2.40693565
  0
VERTEX
  8
0
 10
1.71363476
 20
2.39787145
  0
VERTEX
  8
0
 10
1.74269620
 20
2.39227200
  0
VERTEX
  8
0
 10
1.77133432
 20
2.38593465
  0
VERTEX
  8
0
 10
1.79946154
 20
2.37883966
  0
VERTEX
  8
0
 10
1.82699034
 20
2.37096727
  0
VERTEX
  8
0
 10
1.85383316
 20
2.36229773
  0
VERTEX
  8
0
 10
1.87990245
 20
2.35281130
  0
VERTEX
  8
0
 10
1.92247004
 20
2.33800559
  0
VERTEX
  8
0
 10
1.96594794
 20
2.32082546
  0
VERTEX
  8
0
 10
2.01017626
 20
2.30128995
  0
VERTEX
  8
0
 10
2.05499509
 20
2.27941809
  0
VERTEX
  8
0
 10
2.10024454
 20
2.25522890
  0
VERTEX
  8
0
 10
2.14576471
 20
2.22874142
  0
VERTEX
  8
0
 10
2.19139569
 20
2.19997469
  0
VERTEX
  8
0
 10
2.23697758
 20
2.16894772
  0
VERTEX
  8
0
 10
2.28235049
 20
2.13567956
  0
VERTEX
  8
0
 10
2.32735452
 20
2.10018923
  0
VERTEX
  8
0
 10
2.37182976
 20
2.06249577
  0
VERTEX
  8
0
 10
2.41561632
 20
2.02261820
  0
VERTEX
  8
0
 10
2.45855430
 20
1.98057555
  0
VERTEX
  8
0
 10
2.50048380
 20
1.93638687
  0
VERTEX
  8
0
 10
2.54124491
 20
1.89007117
  0
VERTEX
  8
0
 10
2.58067774
 20
1.84164749
  0
VERTEX
  8
0
 10
2.61862239
 20
1.79113486
  0
VERTEX
  8
0
 10
2.65491896
 20
1.73855232
  0
VERTEX
  8
0
 10
2.68940755
 20
1.68391888
  0
VERTEX
  8
0
 10
2.72192826
 20
1.62725359
  0
VERTEX
  8
0
 10
2.75232119
 20
1.56857547
  0
VERTEX
  8
0
 10
2.76666976
 20
1.53848755
  0
VERTEX
  8
0
 10
2.78042643
 20
1.50790356
  0
VERTEX
  8
0
 10
2.79357121
 20
1.47682588
  0
VERTEX
  8
0
 10
2.80608410
 20
1.44525688
  0
VERTEX
  8
0
 10
2.81794512
 20
1.41319896
  0
VERTEX
  8
0
 10
2.82913429
 20
1.38065447
  0
VERTEX
  8
0
 10
2.83963161
 20
1.34762582
  0
VERTEX
  8
0
 10
2.84941710
 20
1.31411536
  0
VERTEX
  8
0
 10
2.85847077
 20
1.28012549
  0
VERTEX
  8
0
 10
2.86677263
 20
1.24565858
  0
VERTEX
  8
0
 10
2.87430270
 20
1.21071701
  0
VERTEX
  8
0
 10
2.88104098
 20
1.17530316
  0
VERTEX
  8
0
 10
2.88696750
 20
1.13941941
  0
VERTEX
  8
0
 10
2.89206226
 20
1.10306813
  0
VERTEX
  8
0
 10
2.89630527
 20
1.06625171
  0
VERTEX
  8
0
 10
2.89967655
 20
1.02897252
  0
VERTEX
  8
0
 10
2.90215612
 20
0.99123295
  0
VERTEX
  8
0
 10
2.90372397
 20
0.95303537
  0
VERTEX
  8
0
 10
2.90436013
 20
0.91438216
  0
VERTEX
  8
0
 10
2.90404461
 20
0.87527569
  0
VERTEX
  8
0
 10
2.90275742
 20
0.83571836
  0
VERTEX
  8
0
 10
2.90047858
 20
0.79571254
  0
SEQEND
  0
POLYLINE
  8
Default_Layer
 66
   1
 39
0.000000
 70
    1
  0
VERTEX
  8
0
 10
2.59029339
 20
-1.87969898
  0
VERTEX
  8
0
 10
2.60481392
 20
-1.88209469
  0
VERTEX
  8
0
 10
2.61952270
 20
-1.88340525
  0
VERTEX
  8
0
 10
2.63434572
 20
-1.88365879
  0
VERTEX
  8
0
 10
2.64920899
 20
-1.88288345
  0
VERTEX
  8
0
 10
2.66403850
 20
-1.88110736
  0
VERTEX
  8
0
 10
2.67876026
 20
-1.87835867
  0
VERTEX
  8
0
 10
2.69330025
 20
-1.87466549
  0
VERTEX
  8
0
 10
2.70758449
 20
-1.87005596
  0
VERTEX
  8
0
 10
2.72153896
 20
-1.86455822
  0
VERTEX
  8
0
 10
2.73508967
 20
-1.85820040
  0
VERTEX
  8
0
 10
2.74816261
 20
-1.85101064
  0
VERTEX
  8
0
 10
2.76068378
 20
-1.84301706
  0
VERTEX
  8
0
 10
2.77257918
 20
-1.83424781
  0
VERTEX
  8
0
 10
2.78377482
 20
-1.82473100
  0
VERTEX
  8
0
 10
2.79419667
 20
-1.81449479
  0
VERTEX
  8
0
 10
2.80377076
 20
-1.80356730
  0
VERTEX
  8
0
 10
2.80748136
 20
-1.79131788
  0
VERTEX
  8
0
 10
2.81213014
 20
-1.77945325
  0
VERTEX
  8
0
 10
2.81787534
 20
-1.76837351
  0
VERTEX
  8
0
 10
2.82487518
 20
-1.75847879
  0
VERTEX
  8
0
 10
2.83328789
 20
-1.75016921
  0
VERTEX
  8
0
 10
2.84327171
 20
-1.74384489
  0
VERTEX
  8
0
 10
2.84890223
 20
-1.74155223
  0
VERTEX
  8
0
 10
2.85498486
 20
-1.73990594
  0
VERTEX
  8
0
 10
2.86153938
 20
-1.73895602
  0
VERTEX
  8
0
 10
2.86858557
 20
-1.73875248
  0
VERTEX
  8
0
 10
2.88965261
 20
-1.72335492
  0
VERTEX
  8
0
 10
2.91069000
 20
-1.70700730
  0
VERTEX
  8
0
 10
2.93054014
 20
-1.68935301
  0
VERTEX
  8
0
 10
2.93965825
 20
-1.67992441
  0
VERTEX
  8
0
 10
2.94804544
 20
-1.67003541
  0
VERTEX
  8
0
 10
2.95555703
 20
-1.65964143
  0
VERTEX
  8
0
 10
2.96204831
 20
-1.64869788
  0
VERTEX
  8
0
 10
2.96737457
 20
-1.63716019
  0
VERTEX
  8
0
 10
2.97139112
 20
-1.62498378
  0
VERTEX
  8
0
 10
2.97395327
 20
-1.61212408
  0
VERTEX
  8
0
 10
2.97491630
 20
-1.59853650
  0
VERTEX
  8
0
 10
2.97413552
 20
-1.58417646
  0
VERTEX
  8
0
 10
2.97146623
 20
-1.56899940
  0
VERTEX
  8
0
 10
2.99054486
 20
-1.55792484
  0
VERTEX
  8
0
 10
2.99948333
 20
-1.55206616
  0
VERTEX
  8
0
 10
3.00696006
 20
-1.54585125
  0
VERTEX
  8
0
 10
3.01564910
 20
-1.53207311
  0
VERTEX
  8
0
 10
3.02322486
 20
-1.51740532
  0
VERTEX
  8
0
 10
3.02937012
 20
-1.50199213
  0
VERTEX
  8
0
 10
3.03376767
 20
-1.48597777
  0
VERTEX
  8
0
 10
3.03610027
 20
-1.46950649
  0
VERTEX
  8
0
 10
3.03605071
 20
-1.45272254
  0
VERTEX
  8
0
 10
3.03330176
 20
-1.43577018
  0
VERTEX
  8
0
 10
3.03081588
 20
-1.42727591
  0
VERTEX
  8
0
 10
3.02753619
 20
-1.41879363
  0
VERTEX
  8
0
 10
3.02348341
 20
-1.41132361
  0
VERTEX
  8
0
 10
3.01870183
 20
-1.40518725
  0
VERTEX
  8
0
 10
3.01339078
 20
-1.39999489
  0
VERTEX
  8
0
 10
3.00774958
 20
-1.39535687
  0
VERTEX
  8
0
 10
2.99627397
 20
-1.38618521
  0
VERTEX
  8
0
 10
2.99083819
 20
-1.38087223
  0
VERTEX
  8
0
 10
2.98586953
 20
-1.37455495
  0
VERTEX
  8
0
 10
2.97728579
 20
-1.37314939
  0
VERTEX
  8
0
 10
2.96874248
 20
-1.37092671
  0
VERTEX
  8
0
 10
2.95156751
 20
-1.36587948
  0
VERTEX
  8
0
 10
2.94283099
 20
-1.36397972
  0
VERTEX
  8
0
 10
2.93392523
 20
-1.36311238
  0
VERTEX
  8
0
 10
2.92479779
 20
-1.36373984
  0
VERTEX
  8
0
 10
2.91539627
 20
-1.36632450
  0
VERTEX
  8
0
 10
2.91459518
 20
-1.37105638
  0
VERTEX
  8
0
 10
2.91487307
 20
-1.37535639
  0
VERTEX
  8
0
 10
2.91740652
 20
-1.38317215
  0
VERTEX
  8
0
 10
2.92047805
 20
-1.39079454
  0
VERTEX
  8
0
 10
2.92142855
 20
-1.39485283
  0
VERTEX
  8
0
 10
2.92156911
 20
-1.39924631
  0
VERTEX
  8
0
 10
2.92004569
 20
-1.40608570
  0
VERTEX
  8
0
 10
2.91961810
 20
-1.41202049
  0
VERTEX
  8
0
 10
2.92017312
 20
-1.41714738
  0
VERTEX
  8
0
 10
2.92159754
 20
-1.42156311
  0
VERTEX
  8
0
 10
2.92377814
 20
-1.42536439
  0
VERTEX
  8
0
 10
2.92660172
 20
-1.42864794
  0
VERTEX
  8
0
 10
2.93372491
 20
-1.43404877
  0
VERTEX
  8
0
 10
2.95070545
 20
-1.44289350
  0
VERTEX
  8
0
 10
2.95875136
 20
-1.44788494
  0
VERTEX
  8
0
 10
2.96529339
 20
-1.45428746
  0
VERTEX
  8
0
 10
2.96802248
 20
-1.46666172
  0
VERTEX
  8
0
 10
2.96957988
 20
-1.47846539
  0
VERTEX
  8
0
 10
2.96941465
 20
-1.48425103
  0
VERTEX
  8
0
 10
2.96835103
 20
-1.49001137
  0
VERTEX
  8
0
 10
2.96618722
 20
-1.49578551
  0
VERTEX
  8
0
 10
2.96272138
 20
-1.50161256
  0
VERTEX
  8
0
 10
2.95003734
 20
-1.51243930
  0
VERTEX
  8
0
 10
2.94352214
 20
-1.51721913
  0
VERTEX
  8
0
 10
2.93672032
 20
-1.52125968
  0
VERTEX
  8
0
 10
2.92950351
 20
-1.52432324
  0
VERTEX
  8
0
 10
2.92174333
 20
-1.52617213
  0
VERTEX
  8
0
 10
2.91331142
 20
-1.52656866
  0
VERTEX
  8
0
 10
2.90407940
 20
-1.52527512
  0
VERTEX
  8
0
 10
2.90635443
 20
-1.54418842
  0
VERTEX
  8
0
 10
2.90734675
 20
-1.56400833
  0
VERTEX
  8
0
 10
2.90670217
 20
-1.58413330
  0
VERTEX
  8
0
 10
2.90406645
 20
-1.60396176
  0
VERTEX
  8
0
 10
2.89908539
 20
-1.62289215
  0
VERTEX
  8
0
 10
2.89560466
 20
-1.63183257
  0
VERTEX
  8
0
 10
2.89140476
 20
-1.64032290
  0
VERTEX
  8
0
 10
2.88644142
 20
-1.64828792
  0
VERTEX
  8
0
 10
2.88067036
 20
-1.65565244
  0
VERTEX
  8
0
 10
2.87404730
 20
-1.66234128
  0
VERTEX
  8
0
 10
2.86652796
 20
-1.66827923
  0
VERTEX
  8
0
 10
2.85828285
 20
-1.67165575
  0
VERTEX
  8
0
 10
2.85011882
 20
-1.67413090
  0
VERTEX
  8
0
 10
2.83399561
 20
-1.67676378
  0
VERTEX
  8
0
 10
2.81808144
 20
-1.67695132
  0
VERTEX
  8
0
 10
2.80229946
 20
-1.67546696
  0
VERTEX
  8
0
 10
2.77082455
 20
-1.67057628
  0
VERTEX
  8
0
 10
2.75497790
 20
-1.66871683
  0
VERTEX
  8
0
 10
2.73895595
 20
-1.66827923
  0
VERTEX
  8
0
 10
2.73821672
 20
-1.67919392
  0
VERTEX
  8
0
 10
2.73916121
 20
-1.68930630
  0
VERTEX
  8
0
 10
2.74131953
 20
-1.69882695
  0
VERTEX
  8
0
 10
2.74422183
 20
-1.70796647
  0
VERTEX
  8
0
 10
2.75037894
 20
-1.72594455
  0
VERTEX
  8
0
 10
2.75269402
 20
-1.73520430
  0
VERTEX
  8
0
 10
2.75387364
 20
-1.74492532
  0
VERTEX
  8
0
 10
2.74701301
 20
-1.76099132
  0
VERTEX
  8
0
 10
2.73845659
 20
-1.77444873
  0
VERTEX
  8
0
 10
2.72837062
 20
-1.78552885
  0
VERTEX
  8
0
 10
2.71692137
 20
-1.79446300
  0
VERTEX
  8
0
 10
2.70427508
 20
-1.80148249
  0
VERTEX
  8
0
 10
2.69059801
 20
-1.80681864
  0
VERTEX
  8
0
 10
2.67605639
 20
-1.81070276
  0
VERTEX
  8
0
 10
2.66081649
 20
-1.81336615
  0
VERTEX
  8
0
 10
2.64504455
 20
-1.81504014
  0
VERTEX
  8
0
 10
2.62890683
 20
-1.81595604
  0
VERTEX
  8
0
 10
2.59619903
 20
-1.81643881
  0
VERTEX
  8
0
 10
2.56402310
 20
-1.81666496
  0
VERTEX
  8
0
 10
2.53370903
 20
-1.81848499
  0
VERTEX
  8
0
 10
2.53723269
 20
-1.82841034
  0
VERTEX
  8
0
 10
2.54276457
 20
-1.83728234
  0
VERTEX
  8
0
 10
2.54980763
 20
-1.84530287
  0
VERTEX
  8
0
 10
2.55786479
 20
-1.85267380
  0
VERTEX
  8
0
 10
2.57503322
 20
-1.86627435
  0
VERTEX
  8
0
 10
2.58315037
 20
-1.87290772
  0
VERTEX
  8
0
 10
2.59029339
 20
-1.87969898
  0
SEQEND
  0
POLYLINE
  8
Default_Layer
 66
   1
 39
0.000000
 70
    1
  0
VERTEX
  8
0
 10
3.07640450
 20
-1.71560433
  0
VERTEX
  8
0
 10
3.07057024
 20
-1.70086607
  0
VERTEX
  8
0
 10
3.06668345
 20
-1.69224311
  0
VERTEX
  8
0
 10
3.06219356
 20
-1.68423495
  0
VERTEX
  8
0
 10
3.05713308
 20
-1.67792959
  0
VERTEX
  8
0
 10
3.05439902
 20
-1.67575547
  0
VERTEX
  8
0
 10
3.05153450
 20
-1.67441506
  0
VERTEX
  8
0
 10
3.04854358
 20
-1.67404436
  0
VERTEX
  8
0
 10
3.04543032
 20
-1.67477936
  0
VERTEX
  8
0
 10
3.04219880
 20
-1.67675608
  0
VERTEX
  8
0
 10
3.03885306
 20
-1.68011051
  0
VERTEX
  8
0
 10
3.02852110
 20
-1.68875047
  0
VERTEX
  8
0
 10
3.02115110
 20
-1.69803077
  0
VERTEX
  8
0
 10
3.01631997
 20
-1.70785117
  0
VERTEX
  8
0
 10
3.01360462
 20
-1.71811146
  0
VERTEX
  8
0
 10
3.01258193
 20
-1.72871139
  0
VERTEX
  8
0
 10
3.01282882
 20
-1.73955073
  0
VERTEX
  8
0
 10
3.01543892
 20
-1.76154673
  0
VERTEX
  8
0
 10
3.01805011
 20
-1.78329762
  0
VERTEX
  8
0
 10
3.01829838
 20
-1.79383057
  0
VERTEX
  8
0
 10
3.01727762
 20
-1.80400155
  0
VERTEX
  8
0
 10
3.01456473
 20
-1.81371033
  0
VERTEX
  8
0
 10
3.00973663
 20
-1.82285667
  0
VERTEX
  8
0
 10
3.00237021
 20
-1.83134034
  0
VERTEX
  8
0
 10
2.99204236
 20
-1.83906112
  0
VERTEX
  8
0
 10
2.97940996
 20
-1.84674831
  0
VERTEX
  8
0
 10
2.96624964
 20
-1.85306569
  0
VERTEX
  8
0
 10
2.95273774
 20
-1.85780209
  0
VERTEX
  8
0
 10
2.93905055
 20
-1.86074632
  0
VERTEX
  8
0
 10
2.92536440
 20
-1.86168720
  0
VERTEX
  8
0
 10
2.91185560
 20
-1.86041356
  0
VERTEX
  8
0
 10
2.89870045
 20
-1.85671422
  0
VERTEX
  8
0
 10
2.88607529
 20
-1.85037800
  0
VERTEX
  8
0
 10
2.88770481
 20
-1.86235016
  0
VERTEX
  8
0
 10
2.88736052
 20
-1.87364794
  0
VERTEX
  8
0
 10
2.88522700
 20
-1.88426691
  0
VERTEX
  8
0
 10
2.88148887
 20
-1.89420262
  0
VERTEX
  8
0
 10
2.87633073
 20
-1.90345064
  0
VERTEX
  8
0
 10
2.86993719
 20
-1.91200651
  0
VERTEX
  8
0
 10
2.86249283
 20
-1.91986581
  0
VERTEX
  8
0
 10
2.85418228
 20
-1.92702409
  0
VERTEX
  8
0
 10
2.84089323
 20
-1.93393425
  0
VERTEX
  8
0
 10
2.82686743
 20
-1.94045902
  0
VERTEX
  8
0
 10
2.81227733
 20
-1.94611625
  0
VERTEX
  8
0
 10
2.79729540
 20
-1.95042377
  0
VERTEX
  8
0
 10
2.78209408
 20
-1.95289943
  0
VERTEX
  8
0
 10
2.76684582
 20
-1.95306110
  0
VERTEX
  8
0
 10
2.75925799
 20
-1.95212350
  0
VERTEX
  8
0
 10
2.75172309
 20
-1.95042660
  0
VERTEX
  8
0
 10
2.74426269
 20
-1.94791012
  0
VERTEX
  8
0
 10
2.73689833
 20
-1.94451380
  0
VERTEX
  8
0
 10
2.72175704
 20
-1.93254525
  0
VERTEX
  8
0
 10
2.71750071
 20
-1.93027220
  0
VERTEX
  8
0
 10
2.71501923
 20
-1.93008812
  0
VERTEX
  8
0
 10
2.71398657
 20
-1.93170413
  0
VERTEX
  8
0
 10
2.71407669
 20
-1.93483136
  0
VERTEX
  8
0
 10
2.71632120
 20
-1.94446391
  0
VERTEX
  8
0
 10
2.71914453
 20
-1.95667471
  0
VERTEX
  8
0
 10
2.71995819
 20
-1.96302475
  0
VERTEX
  8
0
 10
2.71993848
 20
-1.96915271
  0
VERTEX
  8
0
 10
2.71875936
 20
-1.97476970
  0
VERTEX
  8
0
 10
2.71609482
 20
-1.97958685
  0
VERTEX
  8
0
 10
2.71161881
 20
-1.98331526
  0
VERTEX
  8
0
 10
2.70500533
 20
-1.98566606
  0
VERTEX
  8
0
 10
2.69048468
 20
-1.99002974
  0
VERTEX
  8
0
 10
2.67549333
 20
-1.99585239
  0
VERTEX
  8
0
 10
2.66024665
 20
-2.00209345
  0
VERTEX
  8
0
 10
2.64496002
 20
-2.00771238
  0
VERTEX
  8
0
 10
2.62984880
 20
-2.01166863
  0
VERTEX
  8
0
 10
2.62242627
 20
-2.01269808
  0
VERTEX
  8
0
 10
2.61512837
 20
-2.01292165
  0
VERTEX
  8
0
 10
2.60798200
 20
-2.01220927
  0
VERTEX
  8
0
 10
2.60101410
 20
-2.01043088
  0
VERTEX
  8
0
 10
2.59425159
 20
-2.00745640
  0
VERTEX
  8
0
 10
2.58772138
 20
-2.00315577
  0
VERTEX
  8
0
 10
2.58076492
 20
-1.99636352
  0
VERTEX
  8
0
 10
2.57786970
 20
-1.99463334
  0
VERTEX
  8
0
 10
2.57530601
 20
-1.99386798
  0
VERTEX
  8
0
 10
2.57303099
 20
-1.99395806
  0
VERTEX
  8
0
 10
2.57100176
 20
-1.99479423
  0
VERTEX
  8
0
 10
2.56750930
 20
-1.99826739
  0
VERTEX
  8
0
 10
2.56158817
 20
-2.00935482
  0
VERTEX
  8
0
 10
2.55847374
 20
-2.01521930
  0
VERTEX
  8
0
 10
2.55479957
 20
-2.02013108
  0
VERTEX
  8
0
 10
2.54275584
 20
-2.03568080
  0
VERTEX
  8
0
 10
2.52957750
 20
-2.04995803
  0
VERTEX
  8
0
 10
2.51514570
 20
-2.06248912
  0
VERTEX
  8
0
 10
2.49934163
 20
-2.07280038
  0
VERTEX
  8
0
 10
2.49088786
 20
-2.07697556
  0
VERTEX
  8
0
 10
2.48204645
 20
-2.08041816
  0
VERTEX
  8
0
 10
2.47280255
 20
-2.08306897
  0
VERTEX
  8
0
 10
2.46314132
 20
-2.08486878
  0
VERTEX
  8
0
 10
2.45304789
 20
-2.08575838
  0
VERTEX
  8
0
 10
2.44250742
 20
-2.08567858
  0
VERTEX
  8
0
 10
2.43150504
 20
-2.08457014
  0
VERTEX
  8
0
 10
2.42002590
 20
-2.08237388
  0
VERTEX
  8
0
 10
2.41553692
 20
-2.08176963
  0
VERTEX
  8
0
 10
2.41158484
 20
-2.08045646
  0
VERTEX
  8
0
 10
2.40505029
 20
-2.07608247
  0
VERTEX
  8
0
 10
2.39994000
 20
-2.07001006
  0
VERTEX
  8
0
 10
2.39577172
 20
-2.06299740
  0
VERTEX
  8
0
 10
2.38833218
 20
-2.04918390
  0
VERTEX
  8
0
 10
2.38409641
 20
-2.04389938
  0
VERTEX
  8
0
 10
2.37887364
 20
-2.04070721
  0
VERTEX
  8
0
 10
2.37423901
 20
-2.05096387
  0
VERTEX
  8
0
 10
2.36872093
 20
-2.06019448
  0
VERTEX
  8
0
 10
2.36240506
 20
-2.06849397
  0
VERTEX
  8
0
 10
2.35537704
 20
-2.07595725
  0
VERTEX
  8
0
 10
2.34772254
 20
-2.08267923
  0
VERTEX
  8
0
 10
2.33952720
 20
-2.08875485
  0
VERTEX
  8
0
 10
2.32185665
 20
-2.09934666
  0
VERTEX
  8
0
 10
2.30305062
 20
-2.10849203
  0
VERTEX
  8
0
 10
2.28379434
 20
-2.11695031
  0
VERTEX
  8
0
 10
2.26477306
 20
-2.12548085
  0
VERTEX
  8
0
 10
2.24667199
 20
-2.13484302
  0
VERTEX
  8
0
 10
2.23925536
 20
-2.13271342
  0
VERTEX
  8
0
 10
2.23253012
 20
-2.12989627
  0
VERTEX
  8
0
 10
2.22638337
 20
-2.12640577
  0
VERTEX
  8
0
 10
2.22070222
 20
-2.12225608
  0
VERTEX
  8
0
 10
2.21028514
 20
-2.11203589
  0
VERTEX
  8
0
 10
2.20037570
 20
-2.09934919
  0
VERTEX
  8
0
 10
2.19617429
 20
-2.09999663
  0
VERTEX
  8
0
 10
2.19273469
 20
-2.10135079
  0
VERTEX
  8
0
 10
2.18995489
 20
-2.10332072
  0
VERTEX
  8
0
 10
2.18773290
 20
-2.10581550
  0
VERTEX
  8
0
 10
2.18455441
 20
-2.11201581
  0
VERTEX
  8
0
 10
2.18238329
 20
-2.11922418
  0
VERTEX
  8
0
 10
2.18040361
 20
-2.12671310
  0
VERTEX
  8
0
 10
2.17779943
 20
-2.13375504
  0
VERTEX
  8
0
 10
2.17375484
 20
-2.13962247
  0
VERTEX
  8
0
 10
2.17093740
 20
-2.14188840
  0
VERTEX
  8
0
 10
2.16745389
 20
-2.14358787
  0
VERTEX
  8
0
 10
2.16005089
 20
-2.14726540
  0
VERTEX
  8
0
 10
2.15261245
 20
-2.15009223
  0
VERTEX
  8
0
 10
2.14515469
 20
-2.15210424
  0
VERTEX
  8
0
 10
2.13769369
 20
-2.15333732
  0
VERTEX
  8
0
 10
2.12282642
 20
-2.15361021
  0
VERTEX
  8
0
 10
2.10813945
 20
-2.15119800
  0
VERTEX
  8
0
 10
2.09376158
 20
-2.14638776
  0
VERTEX
  8
0
 10
2.07982164
 20
-2.13946658
  0
VERTEX
  8
0
 10
2.06644843
 20
-2.13072154
  0
VERTEX
  8
0
 10
2.05377076
 20
-2.12043973
  0
VERTEX
  8
0
 10
2.05091388
 20
-2.12569171
  0
VERTEX
  8
0
 10
2.04651482
 20
-2.13064226
  0
VERTEX
  8
0
 10
2.03508801
 20
-2.14021698
  0
VERTEX
  8
0
 10
2.02348612
 20
-2.15031974
  0
VERTEX
  8
0
 10
2.01886819
 20
-2.15593034
  0
VERTEX
  8
0
 10
2.01570492
 20
-2.16210639
  0
VERTEX
  8
0
 10
2.00154087
 20
-2.17018849
  0
VERTEX
  8
0
 10
1.98593448
 20
-2.17774828
  0
VERTEX
  8
0
 10
1.96926960
 20
-2.18424137
  0
VERTEX
  8
0
 10
1.95193010
 20
-2.18912342
  0
VERTEX
  8
0
 10
1.93429985
 20
-2.19185004
  0
VERTEX
  8
0
 10
1.92549565
 20
-2.19223496
  0
VERTEX
  8
0
 10
1.91676271
 20
-2.19187688
  0
VERTEX
  8
0
 10
1.90814903
 20
-2.19070776
  0
VERTEX
  8
0
 10
1.89970257
 20
-2.18865956
  0
VERTEX
  8
0
 10
1.89147132
 20
-2.18566423
  0
VERTEX
  8
0
 10
1.88350327
 20
-2.18165372
  0
VERTEX
  8
0
 10
1.87847412
 20
-2.19584844
  0
VERTEX
  8
0
 10
1.87094403
 20
-2.20929185
  0
VERTEX
  8
0
 10
1.86140301
 20
-2.22201278
  0
VERTEX
  8
0
 10
1.85034107
 20
-2.23404006
  0
VERTEX
  8
0
 10
1.83824821
 20
-2.24540254
  0
VERTEX
  8
0
 10
1.82561447
 20
-2.25612905
  0
VERTEX
  8
0
 10
1.80068434
 20
-2.27578952
  0
VERTEX
  8
0
 10
1.79305401
 20
-2.28114093
  0
VERTEX
  8
0
 10
1.78534999
 20
-2.28541856
  0
VERTEX
  8
0
 10
1.77758105
 20
-2.28868857
  0
VERTEX
  8
0
 10
1.76975591
 20
-2.29101714
  0
VERTEX
  8
0
 10
1.76188333
 20
-2.29247046
  0
VERTEX
  8
0
 10
1.75397206
 20
-2.29311470
  0
VERTEX
  8
0
 10
1.73806843
 20
-2.29224064
  0
VERTEX
  8
0
 10
1.72211499
 20
-2.28892439
  0
VERTEX
  8
0
 10
1.70618171
 20
-2.28369536
  0
VERTEX
  8
0
 10
1.69033856
 20
-2.27708299
  0
VERTEX
  8
0
 10
1.67465553
 20
-2.26961668
  0
VERTEX
  8
0
 10
1.67268318
 20
-2.28322983
  0
VERTEX
  8
0
 10
1.66875013
 20
-2.29664636
  0
VERTEX
  8
0
 10
1.66307131
 20
-2.30976515
  0
VERTEX
  8
0
 10
1.65586167
 20
-2.32248507
  0
VERTEX
  8
0
 10
1.64733613
 20
-2.33470498
  0
VERTEX
  8
0
 10
1.63770964
 20
-2.34632374
  0
VERTEX
  8
0
 10
1.62719714
 20
-2.35724023
  0
VERTEX
  8
0
 10
1.61601356
 20
-2.36735331
  0
VERTEX
  8
0
 10
1.59874186
 20
-2.37421774
  0
VERTEX
  8
0
 10
1.59059778
 20
-2.37651677
  0
VERTEX
  8
0
 10
1.58249021
 20
-2.37790377
  0
VERTEX
  8
0
 10
1.57420063
 20
-2.37826131
  0
VERTEX
  8
0
 10
1.56551053
 20
-2.37747197
  0
VERTEX
  8
0
 10
1.55620139
 20
-2.37541832
  0
VERTEX
  8
0
 10
1.54605471
 20
-2.37198294
  0
VERTEX
  8
0
 10
1.53535841
 20
-2.37062058
  0
VERTEX
  8
0
 10
1.52502710
 20
-2.36841816
  0
VERTEX
  8
0
 10
1.50518320
 20
-2.36229833
  0
VERTEX
  8
0
 10
1.48597052
 20
-2.35523376
  0
VERTEX
  8
0
 10
1.46683660
 20
-2.34883479
  0
VERTEX
  8
0
 10
1.46533652
 20
-2.35615898
  0
VERTEX
  8
0
 10
1.46278827
 20
-2.36266546
  0
VERTEX
  8
0
 10
1.45940664
 20
-2.36857105
  0
VERTEX
  8
0
 10
1.45540643
 20
-2.37409256
  0
VERTEX
  8
0
 10
1.44640943
 20
-2.38485065
  0
VERTEX
  8
0
 10
1.43751562
 20
-2.39667429
  0
VERTEX
  8
0
 10
1.41727780
 20
-2.40512104
  0
VERTEX
  8
0
 10
1.39542003
 20
-2.41343666
  0
VERTEX
  8
0
 10
1.37250186
 20
-2.42067294
  0
VERTEX
  8
0
 10
1.34908286
 20
-2.42588166
  0
VERTEX
  8
0
 10
1.33736041
 20
-2.42742938
  0
VERTEX
  8
0
 10
1.32572258
 20
-2.42811462
  0
VERTEX
  8
0
 10
1.31423933
 20
-2.42781887
  0
VERTEX
  8
0
 10
1.30298059
 20
-2.42642360
  0
VERTEX
  8
0
 10
1.29201631
 20
-2.42381028
  0
VERTEX
  8
0
 10
1.28141644
 20
-2.41986038
  0
VERTEX
  8
0
 10
1.27125092
 20
-2.41445539
  0
VERTEX
  8
0
 10
1.26158969
 20
-2.40747676
  0
VERTEX
  8
0
 10
1.25217590
 20
-2.40542860
  0
VERTEX
  8
0
 10
1.24322659
 20
-2.40470889
  0
VERTEX
  8
0
 10
1.23474286
 20
-2.40527669
  0
VERTEX
  8
0
 10
1.22672583
 20
-2.40709106
  0
VERTEX
  8
0
 10
1.21917661
 20
-2.41011104
  0
VERTEX
  8
0
 10
1.21209631
 20
-2.41429571
  0
VERTEX
  8
0
 10
1.20548603
 20
-2.41960410
  0
VERTEX
  8
0
 10
1.19934689
 20
-2.42599528
  0
VERTEX
  8
0
 10
1.20052946
 20
-2.43807716
  0
VERTEX
  8
0
 10
1.20316872
 20
-2.44889319
  0
VERTEX
  8
0
 10
1.20710226
 20
-2.45865469
  0
VERTEX
  8
0
 10
1.21216764
 20
-2.46757299
  0
VERTEX
  8
0
 10
1.21820245
 20
-2.47585940
  0
VERTEX
  8
0
 10
1.22504425
 20
-2.48372525
  0
VERTEX
  8
0
 10
1.24049915
 20
-2.49904055
  0
VERTEX
  8
0
 10
1.25518156
 20
-2.50137073
  0
VERTEX
  8
0
 10
1.26978976
 20
-2.50282707
  0
VERTEX
  8
0
 10
1.28431332
 20
-2.50345675
  0
VERTEX
  8
0
 10
1.29874178
 20
-2.50330698
  0
VERTEX
  8
0
 10
1.32727165
 20
-2.50085779
  0
VERTEX
  8
0
 10
1.35529579
 20
-2.49585701
  0
VERTEX
  8
0
 10
1.38273064
 20
-2.48868216
  0
VERTEX
  8
0
 10
1.40949264
 20
-2.47971074
  0
VERTEX
  8
0
 10
1.43549820
 20
-2.46932028
  0
VERTEX
  8
0
 10
1.46066376
 20
-2.45788828
  0
VERTEX
  8
0
 10
1.46408559
 20
-2.46161751
  0
VERTEX
  8
0
 10
1.46817905
 20
-2.46488565
  0
VERTEX
  8
0
 10
1.47824876
 20
-2.47007250
  0
VERTEX
  8
0
 10
1.49060867
 20
-2.47351656
  0
VERTEX
  8
0
 10
1.50499453
 20
-2.47528552
  0
VERTEX
  8
0
 10
1.52114213
 20
-2.47544711
  0
VERTEX
  8
0
 10
1.53878723
 20
-2.47406901
  0
VERTEX
  8
0
 10
1.55766561
 20
-2.47121895
  0
VERTEX
  8
0
 10
1.57751302
 20
-2.46696462
  0
VERTEX
  8
0
 10
1.59806526
 20
-2.46137374
  0
VERTEX
  8
0
 10
1.61905807
 20
-2.45451401
  0
VERTEX
  8
0
 10
1.64022724
 20
-2.44645314
  0
VERTEX
  8
0
 10
1.66130853
 20
-2.43725884
  0
VERTEX
  8
0
 10
1.68203772
 20
-2.42699882
  0
VERTEX
  8
0
 10
1.70215057
 20
-2.41574077
  0
VERTEX
  8
0
 10
1.72138286
 20
-2.40355241
  0
VERTEX
  8
0
 10
1.73947035
 20
-2.39050145
  0
VERTEX
  8
0
 10
1.75843622
 20
-2.38681964
  0
VERTEX
  8
0
 10
1.77761872
 20
-2.38365672
  0
VERTEX
  8
0
 10
1.79677214
 20
-2.38037902
  0
VERTEX
  8
0
 10
1.81565078
 20
-2.37635285
  0
VERTEX
  8
0
 10
1.83400891
 20
-2.37094454
  0
VERTEX
  8
0
 10
1.85160085
 20
-2.36352040
  0
VERTEX
  8
0
 10
1.86003270
 20
-2.35885437
  0
VERTEX
  8
0
 10
1.86818087
 20
-2.35344676
  0
VERTEX
  8
0
 10
1.87601463
 20
-2.34721835
  0
VERTEX
  8
0
 10
1.88350327
 20
-2.34008993
  0
VERTEX
  8
0
 10
1.89515735
 20
-2.34085643
  0
VERTEX
  8
0
 10
1.90650293
 20
-2.34085855
  0
VERTEX
  8
0
 10
1.92835551
 20
-2.33878300
  0
VERTEX
  8
0
 10
1.94923481
 20
-2.33429004
  0
VERTEX
  8
0
 10
1.96931464
 20
-2.32780642
  0
VERTEX
  8
0
 10
1.98876880
 20
-2.31975890
  0
VERTEX
  8
0
 10
2.00777109
 20
-2.31057422
  0
VERTEX
  8
0
 10
2.04511529
 20
-2.29050040
  0
VERTEX
  8
0
 10
2.06380481
 20
-2.28046477
  0
VERTEX
  8
0
 10
2.08273767
 20
-2.27099899
  0
VERTEX
  8
0
 10
2.10208769
 20
-2.26252981
  0
VERTEX
  8
0
 10
2.12202866
 20
-2.25548400
  0
VERTEX
  8
0
 10
2.14273439
 20
-2.25028829
  0
VERTEX
  8
0
 10
2.16437868
 20
-2.24736945
  0
VERTEX
  8
0
 10
2.18713534
 20
-2.24715422
  0
VERTEX
  8
0
 10
2.19898512
 20
-2.24819382
  0
VERTEX
  8
0
 10
2.21117817
 20
-2.25006935
  0
VERTEX
  8
0
 10
2.22327225
 20
-2.24683692
  0
VERTEX
  8
0
 10
2.23484984
 20
-2.24281024
  0
VERTEX
  8
0
 10
2.25679841
 20
-2.23296138
  0
VERTEX
  8
0
 10
2.27770961
 20
-2.22169724
  0
VERTEX
  8
0
 10
2.29826915
 20
-2.21019233
  0
VERTEX
  8
0
 10
2.31916273
 20
-2.19962112
  0
VERTEX
  8
0
 10
2.32994908
 20
-2.19505268
  0
VERTEX
  8
0
 10
2.34107608
 20
-2.19115809
  0
VERTEX
  8
0
 10
2.35262945
 20
-2.18808418
  0
VERTEX
  8
0
 10
2.36469490
 20
-2.18597774
  0
VERTEX
  8
0
 10
2.37735815
 20
-2.18498559
  0
VERTEX
  8
0
 10
2.39070492
 20
-2.18525454
  0
VERTEX
  8
0
 10
2.41247940
 20
-2.18737693
  0
VERTEX
  8
0
 10
2.43293696
 20
-2.18672250
  0
VERTEX
  8
0
 10
2.45225483
 20
-2.18366123
  0
VERTEX
  8
0
 10
2.47061023
 20
-2.17856308
  0
VERTEX
  8
0
 10
2.48818039
 20
-2.17179802
  0
VERTEX
  8
0
 10
2.50514255
 20
-2.16373601
  0
VERTEX
  8
0
 10
2.53795175
 20
-2.14520102
  0
VERTEX
  8
0
 10
2.57045566
 20
-2.12591782
  0
VERTEX
  8
0
 10
2.58703620
 20
-2.11692057
  0
VERTEX
  8
0
 10
2.60407211
 20
-2.10884616
  0
VERTEX
  8
0
 10
2.62174061
 20
-2.10206457
  0
VERTEX
  8
0
 10
2.64021894
 20
-2.09694576
  0
VERTEX
  8
0
 10
2.65968431
 20
-2.09385970
  0
VERTEX
  8
0
 10
2.68031397
 20
-2.09317635
  0
VERTEX
  8
0
 10
2.69171155
 20
-2.09100033
  0
VERTEX
  8
0
 10
2.70209389
 20
-2.08730052
  0
VERTEX
  8
0
 10
2.71162570
 20
-2.08233519
  0
VERTEX
  8
0
 10
2.72047171
 20
-2.07636259
  0
VERTEX
  8
0
 10
2.73676524
 20
-2.06242865
  0
VERTEX
  8
0
 10
2.75229229
 20
-2.04756475
  0
VERTEX
  8
0
 10
2.76837066
 20
-2.03383698
  0
VERTEX
  8
0
 10
2.77702840
 20
-2.02804478
  0
VERTEX
  8
0
 10
2.78631815
 20
-2.02331139
  0
VERTEX
  8
0
 10
2.79640464
 20
-2.01989507
  0
VERTEX
  8
0
 10
2.80745258
 20
-2.01805407
  0
VERTEX
  8
0
 10
2.81962671
 20
-2.01804666
  0
VERTEX
  8
0
 10
2.83309175
 20
-2.02013108
  0
VERTEX
  8
0
 10
2.87087306
 20
-2.00497838
  0
VERTEX
  8
0
 10
2.89079368
 20
-1.99628211
  0
VERTEX
  8
0
 10
2.90986076
 20
-1.98614755
  0
VERTEX
  8
0
 10
2.91871324
 20
-1.98037880
  0
VERTEX
  8
0
 10
2.92691916
 20
-1.97405594
  0
VERTEX
  8
0
 10
2.93433413
 20
-1.96711413
  0
VERTEX
  8
0
 10
2.94081375
 20
-1.95948853
  0
VERTEX
  8
0
 10
2.94621363
 20
-1.95111428
  0
VERTEX
  8
0
 10
2.95038938
 20
-1.94192655
  0
VERTEX
  8
0
 10
2.95319661
 20
-1.93186049
  0
VERTEX
  8
0
 10
2.95449092
 20
-1.92085125
  0
VERTEX
  8
0
 10
2.96962496
 20
-1.92049372
  0
VERTEX
  8
0
 10
2.98401301
 20
-1.91772460
  0
VERTEX
  8
0
 10
2.99769402
 20
-1.91301996
  0
VERTEX
  8
0
 10
3.01070696
 20
-1.90685589
  0
VERTEX
  8
0
 10
3.02309079
 20
-1.89970847
  0
VERTEX
  8
0
 10
3.03488446
 20
-1.89205379
  0
VERTEX
  8
0
 10
3.05685718
 20
-1.87712697
  0
VERTEX
  8
0
 10
3.06252954
 20
-1.86492162
  0
VERTEX
  8
0
 10
3.06801860
 20
-1.85151352
  0
VERTEX
  8
0
 10
3.07269753
 20
-1.83730027
  0
VERTEX
  8
0
 10
3.07593950
 20
-1.82267950
  0
VERTEX
  8
0
 10
3.07711768
 20
-1.80804882
  0
VERTEX
  8
0
 10
3.07673696
 20
-1.80085402
  0
VERTEX
  8
0
 10
3.07560524
 20
-1.79380585
  0
VERTEX
  8
0
 10
3.07364416
 20
-1.78695400
  0
VERTEX
  8
0
 10
3.07077536
 20
-1.78034819
  0
VERTEX
  8
0
 10
3.06692050
 20
-1.77403811
  0
VERTEX
  8
0
 10
3.06200121
 20
-1.76807347
  0
VERTEX
  8
0
 10
3.06505136
 20
-1.76198282
  0
VERTEX
  8
0
 10
3.06714836
 20
-1.75552717
  0
VERTEX
  8
0
 10
3.06967510
 20
-1.74198344
  0
VERTEX
  8
0
 10
3.07196572
 20
-1.72836744
  0
VERTEX
  8
0
 10
3.07376757
 20
-1.72182146
  0
VERTEX
  8
0
 10
3.07640450
 20
-1.71560433
  0
SEQEND
  0
POLYLINE
  8
Default_Layer
 66
   1
 39
0.000000
 70
    1
  0
VERTEX
  8
0
 10
2.80994360
 20
-2.09934919
  0
VERTEX
  8
0
 10
2.79794284
 20
-2.10757526
  0
VERTEX
  8
0
 10
2.78717329
 20
-2.11710352
  0
VERTEX
  8
0
 10
2.76743991
 20
-2.13801587
  0
VERTEX
  8
0
 10
2.75753213
 20
-2.14837460
  0
VERTEX
  8
0
 10
2.74696764
 20
-2.15798479
  0
VERTEX
  8
0
 10
2.73527447
 20
-2.16633378
  0
VERTEX
  8
0
 10
2.72198064
 20
-2.17290886
  0
VERTEX
  8
0
 10
2.71444540
 20
-2.17844124
  0
VERTEX
  8
0
 10
2.70734776
 20
-2.18191933
  0
VERTEX
  8
0
 10
2.70064115
 20
-2.18357934
  0
VERTEX
  8
0
 10
2.69427898
 20
-2.18365748
  0
VERTEX
  8
0
 10
2.68821469
 20
-2.18238996
  0
VERTEX
  8
0
 10
2.68240168
 20
-2.18001299
  0
VERTEX
  8
0
 10
2.67134319
 20
-2.17287550
  0
VERTEX
  8
0
 10
2.65019217
 20
-2.15568015
  0
VERTEX
  8
0
 10
2.64483394
 20
-2.15215078
  0
VERTEX
  8
0
 10
2.63935436
 20
-2.14940161
  0
VERTEX
  8
0
 10
2.63370685
 20
-2.14766885
  0
VERTEX
  8
0
 10
2.62784483
 20
-2.14718870
  0
VERTEX
  8
0
 10
2.63018022
 20
-2.15395574
  0
VERTEX
  8
0
 10
2.63408089
 20
-2.16003747
  0
VERTEX
  8
0
 10
2.63794995
 20
-2.16612487
  0
VERTEX
  8
0
 10
2.64019051
 20
-2.17290886
  0
VERTEX
  8
0
 10
2.63946820
 20
-2.17892017
  0
VERTEX
  8
0
 10
2.63781751
 20
-2.18460283
  0
VERTEX
  8
0
 10
2.63534228
 20
-2.18997126
  0
VERTEX
  8
0
 10
2.63214633
 20
-2.19503987
  0
VERTEX
  8
0
 10
2.62400764
 20
-2.20433527
  0
VERTEX
  8
0
 10
2.61423214
 20
-2.21260435
  0
VERTEX
  8
0
 10
2.60365051
 20
-2.21996242
  0
VERTEX
  8
0
 10
2.59309344
 20
-2.22652479
  0
VERTEX
  8
0
 10
2.57537570
 20
-2.23772368
  0
VERTEX
  8
0
 10
2.56730717
 20
-2.24356446
  0
VERTEX
  8
0
 10
2.55871251
 20
-2.24832192
  0
VERTEX
  8
0
 10
2.54966861
 20
-2.25205673
  0
VERTEX
  8
0
 10
2.54025235
 20
-2.25482956
  0
VERTEX
  8
0
 10
2.53054062
 20
-2.25670107
  0
VERTEX
  8
0
 10
2.52061029
 20
-2.25773194
  0
VERTEX
  8
0
 10
2.50040140
 20
-2.25751438
  0
VERTEX
  8
0
 10
2.48024073
 20
-2.25466224
  0
VERTEX
  8
0
 10
2.46074336
 20
-2.24966085
  0
VERTEX
  8
0
 10
2.44252434
 20
-2.24299554
  0
VERTEX
  8
0
 10
2.42619874
 20
-2.23515166
  0
VERTEX
  8
0
 10
2.42224801
 20
-2.24069795
  0
VERTEX
  8
0
 10
2.41933507
 20
-2.24709808
  0
VERTEX
  8
0
 10
2.41724822
 20
-2.25417997
  0
VERTEX
  8
0
 10
2.41577574
 20
-2.26177157
  0
VERTEX
  8
0
 10
2.41179545
 20
-2.29379363
  0
VERTEX
  8
0
 10
2.38886802
 20
-2.30169895
  0
VERTEX
  8
0
 10
2.36456269
 20
-2.30783893
  0
VERTEX
  8
0
 10
2.33943584
 20
-2.31205878
  0
VERTEX
  8
0
 10
2.31404384
 20
-2.31420367
  0
VERTEX
  8
0
 10
2.28894306
 20
-2.31411882
  0
VERTEX
  8
0
 10
2.26468989
 20
-2.31164940
  0
VERTEX
  8
0
 10
2.24184069
 20
-2.30664062
  0
VERTEX
  8
0
 10
2.23111644
 20
-2.30313559
  0
VERTEX
  8
0
 10
2.22095183
 20
-2.29893767
  0
VERTEX
  8
0
 10
2.21908723
 20
-2.30529956
  0
VERTEX
  8
0
 10
2.21948538
 20
-2.31170318
  0
VERTEX
  8
0
 10
2.22154768
 20
-2.31817415
  0
VERTEX
  8
0
 10
2.22467549
 20
-2.32473809
  0
VERTEX
  8
0
 10
2.23173320
 20
-2.33824727
  0
VERTEX
  8
0
 10
2.23446584
 20
-2.34524374
  0
VERTEX
  8
0
 10
2.23586953
 20
-2.35243561
  0
VERTEX
  8
0
 10
2.23092572
 20
-2.36009112
  0
VERTEX
  8
0
 10
2.22536915
 20
-2.36699578
  0
VERTEX
  8
0
 10
2.21924089
 20
-2.37317441
  0
VERTEX
  8
0
 10
2.21258203
 20
-2.37865186
  0
VERTEX
  8
0
 10
2.20543364
 20
-2.38345298
  0
VERTEX
  8
0
 10
2.19783679
 20
-2.38760261
  0
VERTEX
  8
0
 10
2.18146202
 20
-2.39404674
  0
VERTEX
  8
0
 10
2.16378634
 20
-2.39818300
  0
VERTEX
  8
0
 10
2.14513835
 20
-2.40021013
  0
VERTEX
  8
0
 10
2.12584667
 20
-2.40032685
  0
VERTEX
  8
0
 10
2.10623990
 20
-2.39873191
  0
VERTEX
  8
0
 10
2.09632508
 20
-2.39589491
  0
VERTEX
  8
0
 10
2.08679321
 20
-2.39133560
  0
VERTEX
  8
0
 10
2.06852378
 20
-2.37987447
  0
VERTEX
  8
0
 10
2.05960893
 20
-2.37438488
  0
VERTEX
  8
0
 10
2.05072248
 20
-2.36999742
  0
VERTEX
  8
0
 10
2.04177579
 20
-2.36741819
  0
VERTEX
  8
0
 10
2.03268022
 20
-2.36735331
  0
VERTEX
  8
0
 10
2.03427762
 20
-2.37527810
  0
VERTEX
  8
0
 10
2.03383502
 20
-2.38269961
  0
VERTEX
  8
0
 10
2.03184110
 20
-2.38967432
  0
VERTEX
  8
0
 10
2.02878451
 20
-2.39625871
  0
VERTEX
  8
0
 10
2.02143802
 20
-2.40848239
  0
VERTEX
  8
0
 10
2.01812546
 20
-2.41423463
  0
VERTEX
  8
0
 10
2.01570492
 20
-2.41982244
  0
VERTEX
  8
0
 10
2.00645107
 20
-2.42839174
  0
VERTEX
  8
0
 10
1.99661062
 20
-2.43625165
  0
VERTEX
  8
0
 10
1.98622645
 20
-2.44340764
  0
VERTEX
  8
0
 10
1.97534143
 20
-2.44986516
  0
VERTEX
  8
0
 10
1.96399842
 20
-2.45562969
  0
VERTEX
  8
0
 10
1.95224031
 20
-2.46070668
  0
VERTEX
  8
0
 10
1.94010997
 20
-2.46510159
  0
VERTEX
  8
0
 10
1.92765027
 20
-2.46881989
  0
VERTEX
  8
0
 10
1.90191428
 20
-2.47424849
  0
VERTEX
  8
0
 10
1.87537532
 20
-2.47703618
  0
VERTEX
  8
0
 10
1.84837639
 20
-2.47722665
  0
VERTEX
  8
0
 10
1.82126047
 20
-2.47486359
  0
VERTEX
  8
0
 10
1.81147355
 20
-2.46486521
  0
VERTEX
  8
0
 10
1.80347073
 20
-2.45846425
  0
VERTEX
  8
0
 10
1.79700327
 20
-2.45524531
  0
VERTEX
  8
0
 10
1.79182244
 20
-2.45479299
  0
VERTEX
  8
0
 10
1.78767951
 20
-2.45669190
  0
VERTEX
  8
0
 10
1.78432573
 20
-2.46052665
  0
VERTEX
  8
0
 10
1.78151239
 20
-2.46588184
  0
VERTEX
  8
0
 10
1.77899074
 20
-2.47234207
  0
VERTEX
  8
0
 10
1.77382758
 20
-2.48691610
  0
VERTEX
  8
0
 10
1.77068860
 20
-2.49419911
  0
VERTEX
  8
0
 10
1.76684637
 20
-2.50092558
  0
VERTEX
  8
0
 10
1.76205217
 20
-2.50668012
  0
VERTEX
  8
0
 10
1.75605726
 20
-2.51104735
  0
VERTEX
  8
0
 10
1.74861289
 20
-2.51361185
  0
VERTEX
  8
0
 10
1.73947035
 20
-2.51395824
  0
VERTEX
  8
0
 10
1.72804154
 20
-2.52106683
  0
VERTEX
  8
0
 10
1.71627584
 20
-2.52646380
  0
VERTEX
  8
0
 10
1.70423578
 20
-2.53026874
  0
VERTEX
  8
0
 10
1.69198389
 20
-2.53260122
  0
VERTEX
  8
0
 10
1.67958268
 20
-2.53358083
  0
VERTEX
  8
0
 10
1.66709471
 20
-2.53332714
  0
VERTEX
  8
0
 10
1.65458248
 20
-2.53195974
  0
VERTEX
  8
0
 10
1.64210854
 20
-2.52959821
  0
VERTEX
  8
0
 10
1.62973542
 20
-2.52636213
  0
VERTEX
  8
0
 10
1.61752563
 20
-2.52237108
  0
VERTEX
  8
0
 10
1.59384620
 20
-2.51260238
  0
VERTEX
  8
0
 10
1.57157049
 20
-2.50124877
  0
VERTEX
  8
0
 10
1.55119874
 20
-2.48926689
  0
VERTEX
  8
0
 10
1.54853607
 20
-2.50589832
  0
VERTEX
  8
0
 10
1.54503133
 20
-2.52059296
  0
VERTEX
  8
0
 10
1.54074651
 20
-2.53344504
  0
VERTEX
  8
0
 10
1.53574358
 20
-2.54454884
  0
VERTEX
  8
0
 10
1.53008451
 20
-2.55399863
  0
VERTEX
  8
0
 10
1.52383128
 20
-2.56188866
  0
VERTEX
  8
0
 10
1.51704586
 20
-2.56831319
  0
VERTEX
  8
0
 10
1.50979023
 20
-2.57336650
  0
VERTEX
  8
0
 10
1.50212636
 20
-2.57714284
  0
VERTEX
  8
0
 10
1.49411623
 20
-2.57973648
  0
VERTEX
  8
0
 10
1.48582181
 20
-2.58124168
  0
VERTEX
  8
0
 10
1.47730508
 20
-2.58175270
  0
VERTEX
  8
0
 10
1.46862800
 20
-2.58136381
  0
VERTEX
  8
0
 10
1.45985257
 20
-2.58016927
  0
VERTEX
  8
0
 10
1.44225450
 20
-2.57574029
  0
VERTEX
  8
0
 10
1.42500667
 20
-2.56921987
  0
VERTEX
  8
0
 10
1.40860487
 20
-2.56136212
  0
VERTEX
  8
0
 10
1.39354491
 20
-2.55292114
  0
VERTEX
  8
0
 10
1.38032258
 20
-2.54465104
  0
VERTEX
  8
0
 10
1.36137399
 20
-2.53163990
  0
VERTEX
  8
0
 10
1.35663933
 20
-2.52840707
  0
VERTEX
  8
0
 10
1.35567382
 20
-2.52793876
  0
VERTEX
  8
0
 10
1.35572549
 20
-2.52836154
  0
VERTEX
  8
0
 10
1.35490978
 20
-2.53349915
  0
VERTEX
  8
0
 10
1.35250709
 20
-2.54033455
  0
VERTEX
  8
0
 10
1.34854000
 20
-2.54847102
  0
VERTEX
  8
0
 10
1.34303110
 20
-2.55751187
  0
VERTEX
  8
0
 10
1.33600297
 20
-2.56706042
  0
VERTEX
  8
0
 10
1.32747818
 20
-2.57671997
  0
VERTEX
  8
0
 10
1.31747931
 20
-2.58609381
  0
VERTEX
  8
0
 10
1.30602895
 20
-2.59478527
  0
VERTEX
  8
0
 10
1.29314968
 20
-2.60239764
  0
VERTEX
  8
0
 10
1.27886407
 20
-2.60853423
  0
VERTEX
  8
0
 10
1.26319470
 20
-2.61279835
  0
VERTEX
  8
0
 10
1.24616416
 20
-2.61479330
  0
VERTEX
  8
0
 10
1.22779503
 20
-2.61412239
  0
VERTEX
  8
0
 10
1.21811555
 20
-2.61266327
  0
VERTEX
  8
0
 10
1.20810989
 20
-2.61038892
  0
VERTEX
  8
0
 10
1.19778086
 20
-2.60724976
  0
VERTEX
  8
0
 10
1.18713130
 20
-2.60319620
  0
VERTEX
  8
0
 10
1.17616403
 20
-2.59817866
  0
VERTEX
  8
0
 10
1.16488187
 20
-2.59214754
  0
VERTEX
  8
0
 10
1.16405341
 20
-2.59964777
  0
VERTEX
  8
0
 10
1.16235475
 20
-2.60688192
  0
VERTEX
  8
0
 10
1.15983201
 20
-2.61383692
  0
VERTEX
  8
0
 10
1.15653130
 20
-2.62049970
  0
VERTEX
  8
0
 10
1.15249873
 20
-2.62685719
  0
VERTEX
  8
0
 10
1.14778040
 20
-2.63289633
  0
VERTEX
  8
0
 10
1.13647092
 20
-2.64396726
  0
VERTEX
  8
0
 10
1.12297174
 20
-2.65360794
  0
VERTEX
  8
0
 10
1.10765172
 20
-2.66171382
  0
VERTEX
  8
0
 10
1.09087974
 20
-2.66818035
  0
VERTEX
  8
0
 10
1.07302468
 20
-2.67290298
  0
VERTEX
  8
0
 10
1.05445541
 20
-2.67577716
  0
VERTEX
  8
0
 10
1.03554080
 20
-2.67669833
  0
VERTEX
  8
0
 10
1.01664973
 20
-2.67556195
  0
VERTEX
  8
0
 10
0.99815107
 20
-2.67226346
  0
VERTEX
  8
0
 10
0.98041369
 20
-2.66669831
  0
VERTEX
  8
0
 10
0.96380647
 20
-2.65876196
  0
VERTEX
  8
0
 10
0.95604195
 20
-2.65387191
  0
VERTEX
  8
0
 10
0.94869829
 20
-2.64834984
  0
VERTEX
  8
0
 10
0.94182160
 20
-2.64218271
  0
VERTEX
  8
0
 10
0.93545800
 20
-2.63535742
  0
VERTEX
  8
0
 10
0.91603333
 20
-2.64405534
  0
VERTEX
  8
0
 10
0.89668804
 20
-2.65143466
  0
VERTEX
  8
0
 10
0.87739428
 20
-2.65759004
  0
VERTEX
  8
0
 10
0.85812417
 20
-2.66261616
  0
VERTEX
  8
0
 10
0.83884987
 20
-2.66660769
  0
VERTEX
  8
0
 10
0.81954349
 20
-2.66965931
  0
VERTEX
  8
0
 10
0.80017717
 20
-2.67186568
  0
VERTEX
  8
0
 10
0.78072306
 20
-2.67332148
  0
VERTEX
  8
0
 10
0.74143998
 20
-2.67436006
  0
VERTEX
  8
0
 10
0.70147131
 20
-2.67353243
  0
VERTEX
  8
0
 10
0.61858557
 20
-2.66930804
  0
VERTEX
  8
0
 10
0.58228899
 20
-2.68319747
  0
VERTEX
  8
0
 10
0.54495324
 20
-2.69602767
  0
VERTEX
  8
0
 10
0.50668616
 20
-2.70773715
  0
VERTEX
  8
0
 10
0.46759558
 20
-2.71826446
  0
VERTEX
  8
0
 10
0.42778932
 20
-2.72754813
  0
VERTEX
  8
0
 10
0.38737521
 20
-2.73552667
  0
VERTEX
  8
0
 10
0.34646107
 20
-2.74213864
  0
VERTEX
  8
0
 10
0.30515473
 20
-2.74732255
  0
VERTEX
  8
0
 10
0.26356401
 20
-2.75101694
  0
VERTEX
  8
0
 10
0.22179675
 20
-2.75316034
  0
VERTEX
  8
0
 10
0.17996075
 20
-2.75369127
  0
VERTEX
  8
0
 10
0.13816387
 20
-2.75254828
  0
VERTEX
  8
0
 10
0.09651390
 20
-2.74966989
  0
VERTEX
  8
0
 10
0.05511870
 20
-2.74499463
  0
VERTEX
  8
0
 10
0.01408607
 20
-2.73846103
  0
VERTEX
  8
0
 10
-0.02647615
 20
-2.73000763
  0
VERTEX
  8
0
 10
-0.04375333
 20
-2.72245622
  0
VERTEX
  8
0
 10
-0.06224388
 20
-2.71614386
  0
VERTEX
  8
0
 10
-0.08169299
 20
-2.71107051
  0
VERTEX
  8
0
 10
-0.10184582
 20
-2.70723612
  0
VERTEX
  8
0
 10
-0.12244755
 20
-2.70464067
  0
VERTEX
  8
0
 10
-0.14324337
 20
-2.70328410
  0
VERTEX
  8
0
 10
-0.16397845
 20
-2.70316638
  0
VERTEX
  8
0
 10
-0.18439796
 20
-2.70428746
  0
VERTEX
  8
0
 10
-0.18733107
 20
-2.70732431
  0
VERTEX
  8
0
 10
-0.18933067
 20
-2.71038122
  0
VERTEX
  8
0
 10
-0.19049370
 20
-2.71345530
  0
VERTEX
  8
0
 10
-0.19091711
 20
-2.71654367
  0
VERTEX
  8
0
 10
-0.18993285
 20
-2.72275178
  0
VERTEX
  8
0
 10
-0.18715344
 20
-2.72898248
  0
VERTEX
  8
0
 10
-0.17931142
 20
-2.74141946
  0
VERTEX
  8
0
 10
-0.17579992
 20
-2.74757963
  0
VERTEX
  8
0
 10
-0.17359550
 20
-2.75367018
  0
VERTEX
  8
0
 10
-0.15859576
 20
-2.75600563
  0
VERTEX
  8
0
 10
-0.14389928
 20
-2.76000976
  0
VERTEX
  8
0
 10
-0.11470949
 20
-2.77044649
  0
VERTEX
  8
0
 10
-0.09986287
 20
-2.77559033
  0
VERTEX
  8
0
 10
-0.08461290
 20
-2.77982531
  0
VERTEX
  8
0
 10
-0.06878293
 20
-2.78250705
  0
VERTEX
  8
0
 10
-0.05219632
 20
-2.78299117
  0
VERTEX
  8
0
 10
-0.00579341
 20
-2.79228236
  0
VERTEX
  8
0
 10
0.04088168
 20
-2.80055991
  0
VERTEX
  8
0
 10
0.08781077
 20
-2.80786468
  0
VERTEX
  8
0
 10
0.13497565
 20
-2.81423751
  0
VERTEX
  8
0
 10
0.18235811
 20
-2.81971925
  0
VERTEX
  8
0
 10
0.22993998
 20
-2.82435073
  0
VERTEX
  8
0
 10
0.27770303
 20
-2.82817282
  0
VERTEX
  8
0
 10
0.32562908
 20
-2.83122636
  0
VERTEX
  8
0
 10
0.42189737
 20
-2.83519115
  0
VERTEX
  8
0
 10
0.51859924
 20
-2.83657189
  0
VERTEX
  8
0
 10
0.61558911
 20
-2.83569534
  0
VERTEX
  8
0
 10
0.71272138
 20
-2.83288828
  0
VERTEX
  8
0
 10
0.82338081
 20
-2.82192760
  0
VERTEX
  8
0
 10
0.94400124
 20
-2.80776843
  0
VERTEX
  8
0
 10
1.07312522
 20
-2.79029876
  0
VERTEX
  8
0
 10
1.20929528
 20
-2.76940659
  0
VERTEX
  8
0
 10
1.35105395
 20
-2.74497991
  0
VERTEX
  8
0
 10
1.42357356
 20
-2.73140613
  0
VERTEX
  8
0
 10
1.49694377
 20
-2.71690671
  0
VERTEX
  8
0
 10
1.57098240
 20
-2.70146767
  0
VERTEX
  8
0
 10
1.64550727
 20
-2.68507499
  0
VERTEX
  8
0
 10
1.72033619
 20
-2.66771468
  0
VERTEX
  8
0
 10
1.79528698
 20
-2.64937274
  0
VERTEX
  8
0
 10
1.87017746
 20
-2.63003516
  0
VERTEX
  8
0
 10
1.94482545
 20
-2.60968794
  0
VERTEX
  8
0
 10
2.01904876
 20
-2.58831709
  0
VERTEX
  8
0
 10
2.09266521
 20
-2.56590861
  0
VERTEX
  8
0
 10
2.16549261
 20
-2.54244848
  0
VERTEX
  8
0
 10
2.23734879
 20
-2.51792271
  0
VERTEX
  8
0
 10
2.30805155
 20
-2.49231731
  0
VERTEX
  8
0
 10
2.37741872
 20
-2.46561826
  0
VERTEX
  8
0
 10
2.44526812
 20
-2.43781157
  0
VERTEX
  8
0
 10
2.51141755
 20
-2.40888324
  0
VERTEX
  8
0
 10
2.57568484
 20
-2.37881927
  0
VERTEX
  8
0
 10
2.63788780
 20
-2.34760565
  0
VERTEX
  8
0
 10
2.69784426
 20
-2.31522838
  0
VERTEX
  8
0
 10
2.75537202
 20
-2.28167347
  0
VERTEX
  8
0
 10
2.81028891
 20
-2.24692691
  0
VERTEX
  8
0
 10
2.86241274
 20
-2.21097470
  0
VERTEX
  8
0
 10
2.87614773
 20
-2.20767807
  0
VERTEX
  8
0
 10
2.88929562
 20
-2.20339740
  0
VERTEX
  8
0
 10
2.90184790
 20
-2.19817502
  0
VERTEX
  8
0
 10
2.91379608
 20
-2.19205329
  0
VERTEX
  8
0
 10
2.92513166
 20
-2.18507455
  0
VERTEX
  8
0
 10
2.93584613
 20
-2.17728114
  0
VERTEX
  8
0
 10
2.94593100
 20
-2.16871539
  0
VERTEX
  8
0
 10
2.95537776
 20
-2.15941966
  0
VERTEX
  8
0
 10
2.96417791
 20
-2.14943629
  0
VERTEX
  8
0
 10
2.97232296
 20
-2.13880761
  0
VERTEX
  8
0
 10
2.97980441
 20
-2.12757597
  0
VERTEX
  8
0
 10
2.98661375
 20
-2.11578372
  0
VERTEX
  8
0
 10
2.99274248
 20
-2.10347319
  0
VERTEX
  8
0
 10
2.99818211
 20
-2.09068672
  0
VERTEX
  8
0
 10
3.00292414
 20
-2.07746667
  0
VERTEX
  8
0
 10
3.00696006
 20
-2.06385536
  0
VERTEX
  8
0
 10
3.00650415
 20
-2.05138419
  0
VERTEX
  8
0
 10
3.00369001
 20
-2.03947076
  0
VERTEX
  8
0
 10
2.99901784
 20
-2.02812050
  0
VERTEX
  8
0
 10
2.99298784
 20
-2.01733888
  0
VERTEX
  8
0
 10
2.98610020
 20
-2.00713134
  0
VERTEX
  8
0
 10
2.97885511
 20
-1.99750332
  0
VERTEX
  8
0
 10
2.96529339
 20
-1.98000763
  0
VERTEX
  8
0
 10
2.95331712
 20
-2.00326958
  0
VERTEX
  8
0
 10
2.93933259
 20
-2.02590517
  0
VERTEX
  8
0
 10
2.92328073
 20
-2.04703555
  0
VERTEX
  8
0
 10
2.91446108
 20
-2.05676165
  0
VERTEX
  8
0
 10
2.90510245
 20
-2.06578186
  0
VERTEX
  8
0
 10
2.89519744
 20
-2.07398634
  0
VERTEX
  8
0
 10
2.88473867
 20
-2.08126524
  0
VERTEX
  8
0
 10
2.87371877
 20
-2.08750868
  0
VERTEX
  8
0
 10
2.86213033
 20
-2.09260682
  0
VERTEX
  8
0
 10
2.84996598
 20
-2.09644980
  0
VERTEX
  8
0
 10
2.83721833
 20
-2.09892776
  0
VERTEX
  8
0
 10
2.82388000
 20
-2.09993084
  0
VERTEX
  8
0
 10
2.80994360
 20
-2.09934919
  0
SEQEND
  0
ENDSEC
  0
EOF
