  0
SECTION
  2
HEADER
  9
$ACADVER
  1
AC1009
  9
$EXTMIN
 10
0.69778816
 20
1.98196555
 30
0.0
  9
$EXTMAX
 10
9.37451809
 20
7.49225270
 30
0.0
  0
ENDSEC
  0
SECTION
  2
TABLES
  0
TABLE
  2
LAYER
 70
1
 0
LAYER
 2
Default_Layer
 70
0
 62
1
 6
CONTINUOUS
 0
ENDTAB
 0
ENDSEC
  0
SECTION
  2
ENTITIES
  0
POLYLINE
  8
Default_Layer
 66
   1
 39
0.000000
 70
    1
  0
VERTEX
  8
0
 10
8.26735966
 20
4.19245180
  0
VERTEX
  8
0
 10
7.85840905
 20
4.16907637
  0
VERTEX
  8
0
 10
7.89898479
 20
4.05690645
  0
VERTEX
  8
0
 10
7.95048724
 20
3.94718960
  0
VERTEX
  8
0
 10
8.21386172
 20
3.96265335
  0
VERTEX
  8
0
 10
8.21651931
 20
3.88585276
  0
VERTEX
  8
0
 10
8.20531298
 20
3.81049522
  0
VERTEX
  8
0
 10
8.17574728
 20
3.73812357
  0
VERTEX
  8
0
 10
8.12332674
 20
3.67028067
  0
VERTEX
  8
0
 10
8.32497283
 20
3.68574442
  0
VERTEX
  8
0
 10
8.33483748
 20
3.67472888
  0
VERTEX
  8
0
 10
8.33320329
 20
3.66272861
  0
VERTEX
  8
0
 10
8.28845020
 20
3.64726487
  0
VERTEX
  8
0
 10
8.32885716
 20
3.63815775
  0
VERTEX
  8
0
 10
8.36046666
 20
3.62029322
  0
VERTEX
  8
0
 10
8.32458332
 20
3.58795388
  0
VERTEX
  8
0
 10
8.27097360
 20
3.57402398
  0
VERTEX
  8
0
 10
8.15059012
 20
3.55520164
  0
VERTEX
  8
0
 10
8.13689407
 20
3.53260097
  0
VERTEX
  8
0
 10
8.11303868
 20
3.51492397
  0
VERTEX
  8
0
 10
7.99581948
 20
3.50527455
  0
VERTEX
  8
0
 10
7.94607622
 20
3.49336363
  0
VERTEX
  8
0
 10
7.91499341
 20
3.46277879
  0
VERTEX
  8
0
 10
7.89927562
 20
3.43098407
  0
VERTEX
  8
0
 10
7.85943785
 20
3.41099322
  0
VERTEX
  8
0
 10
7.71282861
 20
3.40099726
  0
VERTEX
  8
0
 10
7.56108394
 20
3.39049477
  0
VERTEX
  8
0
 10
7.54905269
 20
3.37385937
  0
VERTEX
  8
0
 10
7.56196197
 20
3.35962904
  0
VERTEX
  8
0
 10
7.57893326
 20
3.34482839
  0
VERTEX
  8
0
 10
7.57908806
 20
3.32648205
  0
VERTEX
  8
0
 10
7.51354530
 20
3.30451194
  0
VERTEX
  8
0
 10
7.43608394
 20
3.29771229
  0
VERTEX
  8
0
 10
7.26118682
 20
3.29627380
  0
VERTEX
  8
0
 10
7.27146293
 20
3.26621228
  0
VERTEX
  8
0
 10
7.26170123
 20
3.23585731
  0
VERTEX
  8
0
 10
7.19421154
 20
3.20960387
  0
VERTEX
  8
0
 10
7.11690371
 20
3.19775648
  0
VERTEX
  8
0
 10
6.95408806
 20
3.19486040
  0
VERTEX
  8
0
 10
6.64235966
 20
3.22506865
  0
VERTEX
  8
0
 10
6.57429858
 20
3.21707817
  0
VERTEX
  8
0
 10
6.52404691
 20
3.18946607
  0
VERTEX
  8
0
 10
6.52420393
 20
3.16068786
  0
VERTEX
  8
0
 10
6.49626913
 20
3.14199597
  0
VERTEX
  8
0
 10
6.29486044
 20
3.12212470
  0
VERTEX
  8
0
 10
6.09554896
 20
3.14487295
  0
VERTEX
  8
0
 10
6.00690594
 20
3.11185020
  0
VERTEX
  8
0
 10
5.90616213
 20
3.10224066
  0
VERTEX
  8
0
 10
5.70151604
 20
3.11610319
  0
VERTEX
  8
0
 10
5.55892641
 20
3.14854195
  0
VERTEX
  8
0
 10
5.48786428
 20
3.15772124
  0
VERTEX
  8
0
 10
5.41807983
 20
3.14595181
  0
VERTEX
  8
0
 10
5.39952673
 20
3.12790662
  0
VERTEX
  8
0
 10
5.39940313
 20
3.10570894
  0
VERTEX
  8
0
 10
5.39820121
 20
3.08511217
  0
VERTEX
  8
0
 10
5.37641316
 20
3.07186968
  0
VERTEX
  8
0
 10
5.19379530
 20
3.07430334
  0
VERTEX
  8
0
 10
5.01375884
 20
3.07402742
  0
VERTEX
  8
0
 10
5.04150080
 20
3.04293801
  0
VERTEX
  8
0
 10
5.05441516
 20
3.02746916
  0
VERTEX
  8
0
 10
5.04822386
 20
3.01145319
  0
VERTEX
  8
0
 10
4.88436504
 20
3.00045398
  0
VERTEX
  8
0
 10
4.72023524
 20
3.00583117
  0
VERTEX
  8
0
 10
4.56230654
 20
3.03280963
  0
VERTEX
  8
0
 10
4.41705102
 20
3.08661419
  0
VERTEX
  8
0
 10
4.31950183
 20
3.06406485
  0
VERTEX
  8
0
 10
4.22260658
 20
3.04381917
  0
VERTEX
  8
0
 10
4.06765686
 20
3.04794597
  0
VERTEX
  8
0
 10
3.92116625
 20
3.08157948
  0
VERTEX
  8
0
 10
3.87430758
 20
3.07468148
  0
VERTEX
  8
0
 10
3.83114567
 20
3.06000216
  0
VERTEX
  8
0
 10
3.62602697
 20
3.05506630
  0
VERTEX
  8
0
 10
3.53311978
 20
3.07679257
  0
VERTEX
  8
0
 10
3.45408806
 20
3.11898016
  0
VERTEX
  8
0
 10
3.35754623
 20
3.12253308
  0
VERTEX
  8
0
 10
3.26483446
 20
3.11322397
  0
VERTEX
  8
0
 10
3.17389969
 20
3.10589389
  0
VERTEX
  8
0
 10
3.08268888
 20
3.11538394
  0
VERTEX
  8
0
 10
3.05647161
 20
3.13355749
  0
VERTEX
  8
0
 10
3.05131028
 20
3.15781934
  0
VERTEX
  8
0
 10
3.10502408
 20
3.18284723
  0
VERTEX
  8
0
 10
3.16910864
 20
3.19629889
  0
VERTEX
  8
0
 10
3.14956131
 20
3.22686676
  0
VERTEX
  8
0
 10
3.22466419
 20
3.26175009
  0
VERTEX
  8
0
 10
3.34657777
 20
3.25347879
  0
VERTEX
  8
0
 10
3.36594714
 20
3.25909782
  0
VERTEX
  8
0
 10
3.37172097
 20
3.27117161
  0
VERTEX
  8
0
 10
3.37949958
 20
3.29843154
  0
VERTEX
  8
0
 10
3.42534597
 20
3.32112271
  0
VERTEX
  8
0
 10
3.47739490
 20
3.32812346
  0
VERTEX
  8
0
 10
3.58526090
 20
3.31389528
  0
VERTEX
  8
0
 10
3.59554896
 20
3.30993944
  0
VERTEX
  8
0
 10
3.47949437
 20
3.49215680
  0
VERTEX
  8
0
 10
3.34554896
 20
3.66920181
  0
VERTEX
  8
0
 10
3.28321848
 20
3.71742627
  0
VERTEX
  8
0
 10
3.20170406
 20
3.74073413
  0
VERTEX
  8
0
 10
3.02301810
 20
3.76090541
  0
VERTEX
  8
0
 10
2.46643374
 20
3.81412947
  0
VERTEX
  8
0
 10
2.43621660
 20
3.82134596
  0
VERTEX
  8
0
 10
2.41910864
 20
3.83858376
  0
VERTEX
  8
0
 10
2.42455662
 20
3.86020945
  0
VERTEX
  8
0
 10
2.42583643
 20
3.86872762
  0
VERTEX
  8
0
 10
2.40882057
 20
3.87274785
  0
VERTEX
  8
0
 10
1.71746255
 20
3.92920850
  0
VERTEX
  8
0
 10
1.64235966
 20
3.97344201
  0
VERTEX
  8
0
 10
1.63953334
 20
3.99631950
  0
VERTEX
  8
0
 10
1.65213333
 20
4.01443892
  0
VERTEX
  8
0
 10
1.69397020
 20
4.02728070
  0
VERTEX
  8
0
 10
1.73443785
 20
4.02450833
  0
VERTEX
  8
0
 10
1.75486648
 20
4.02419753
  0
VERTEX
  8
0
 10
1.76684526
 20
4.03134115
  0
VERTEX
  8
0
 10
1.77740593
 20
4.15899104
  0
VERTEX
  8
0
 10
1.81267649
 20
4.28323760
  0
VERTEX
  8
0
 10
1.86994485
 20
4.40363986
  0
VERTEX
  8
0
 10
1.94649894
 20
4.51975690
  0
VERTEX
  8
0
 10
2.14661595
 20
4.73737150
  0
VERTEX
  8
0
 10
2.39133086
 20
4.93255385
  0
VERTEX
  8
0
 10
2.61706163
 20
5.08539736
  0
VERTEX
  8
0
 10
2.85901231
 20
5.21968373
  0
VERTEX
  8
0
 10
3.11969428
 20
5.33222712
  0
VERTEX
  8
0
 10
3.40161892
 20
5.41984165
  0
VERTEX
  8
0
 10
3.42530732
 20
5.41993281
  0
VERTEX
  8
0
 10
3.44585761
 20
5.43063031
  0
VERTEX
  8
0
 10
3.56159835
 20
5.50687017
  0
VERTEX
  8
0
 10
3.55950492
 20
5.55022966
  0
VERTEX
  8
0
 10
3.57006847
 20
5.56835294
  0
VERTEX
  8
0
 10
3.60275061
 20
5.57591759
  0
VERTEX
  8
0
 10
3.63232038
 20
5.59470256
  0
VERTEX
  8
0
 10
3.63898891
 20
5.62184649
  0
VERTEX
  8
0
 10
3.64184526
 20
5.68020797
  0
VERTEX
  8
0
 10
3.66541188
 20
5.75066974
  0
VERTEX
  8
0
 10
3.70871769
 20
5.81686432
  0
VERTEX
  8
0
 10
3.66990750
 20
5.80874999
  0
VERTEX
  8
0
 10
3.65114434
 20
5.80596174
  0
VERTEX
  8
0
 10
3.63464361
 20
5.81542583
  0
VERTEX
  8
0
 10
3.65261912
 20
5.85376913
  0
VERTEX
  8
0
 10
3.69328559
 20
5.88231552
  0
VERTEX
  8
0
 10
3.93762715
 20
5.96359009
  0
VERTEX
  8
0
 10
3.91639304
 20
6.00543235
  0
VERTEX
  8
0
 10
3.91702350
 20
6.04799270
  0
VERTEX
  8
0
 10
3.94482880
 20
6.13045470
  0
VERTEX
  8
0
 10
4.01941728
 20
6.22395641
  0
VERTEX
  8
0
 10
3.99091342
 20
6.21987547
  0
VERTEX
  8
0
 10
3.96849135
 20
6.22935074
  0
VERTEX
  8
0
 10
3.98241181
 20
6.26500317
  0
VERTEX
  8
0
 10
4.02227132
 20
6.28468245
  0
VERTEX
  8
0
 10
4.11869711
 20
6.31278304
  0
VERTEX
  8
0
 10
4.34040493
 20
6.36672634
  0
VERTEX
  8
0
 10
4.50759417
 20
6.57117643
  0
VERTEX
  8
0
 10
4.67682468
 20
6.77130108
  0
VERTEX
  8
0
 10
4.70319808
 20
6.79797348
  0
VERTEX
  8
0
 10
4.72723621
 20
6.82740211
  0
VERTEX
  8
0
 10
4.78534172
 20
6.90747046
  0
VERTEX
  8
0
 10
4.83989053
 20
6.99174936
  0
VERTEX
  8
0
 10
4.88618367
 20
6.99299280
  0
VERTEX
  8
0
 10
4.93505514
 20
6.99966104
  0
VERTEX
  8
0
 10
4.99882065
 20
6.88027223
  0
VERTEX
  8
0
 10
5.07548055
 20
6.76617894
  0
VERTEX
  8
0
 10
5.15188659
 20
6.65203945
  0
VERTEX
  8
0
 10
5.21489053
 20
6.53251208
  0
VERTEX
  8
0
 10
5.24009629
 20
6.50230383
  0
VERTEX
  8
0
 10
5.43842667
 20
6.71511671
  0
VERTEX
  8
0
 10
5.61766831
 20
6.93564833
  0
VERTEX
  8
0
 10
5.68865596
 20
6.93708682
  0
VERTEX
  8
0
 10
5.70460246
 20
6.91982496
  0
VERTEX
  8
0
 10
5.78420753
 20
6.92530897
  0
VERTEX
  8
0
 10
5.85840905
 20
6.90256310
  0
VERTEX
  8
0
 10
5.89601186
 20
6.86382539
  0
VERTEX
  8
0
 10
5.94482880
 20
6.83279644
  0
VERTEX
  8
0
 10
6.05663809
 20
6.83365710
  0
VERTEX
  8
0
 10
6.10702194
 20
6.82397287
  0
VERTEX
  8
0
 10
6.14596049
 20
6.79611500
  0
VERTEX
  8
0
 10
6.19328559
 20
6.75691620
  0
VERTEX
  8
0
 10
6.13035883
 20
6.76398187
  0
VERTEX
  8
0
 10
6.06622798
 20
6.75403922
  0
VERTEX
  8
0
 10
5.97351784
 20
6.71536485
  0
VERTEX
  8
0
 10
5.92038365
 20
6.70914134
  0
VERTEX
  8
0
 10
5.86818271
 20
6.71735778
  0
VERTEX
  8
0
 10
5.80808150
 20
6.75344360
  0
VERTEX
  8
0
 10
5.77821454
 20
6.76679024
  0
VERTEX
  8
0
 10
5.74215390
 20
6.76842410
  0
VERTEX
  8
0
 10
5.72975537
 20
6.71361672
  0
VERTEX
  8
0
 10
5.70357366
 20
6.66125675
  0
VERTEX
  8
0
 10
5.70254485
 20
6.62601380
  0
VERTEX
  8
0
 10
5.75964361
 20
6.50877703
  0
VERTEX
  8
0
 10
5.79668065
 20
6.41599455
  0
VERTEX
  8
0
 10
5.76890287
 20
6.39693459
  0
VERTEX
  8
0
 10
6.21489053
 20
6.32932565
  0
VERTEX
  8
0
 10
6.24211462
 20
6.48191461
  0
VERTEX
  8
0
 10
6.25758600
 20
6.63644283
  0
VERTEX
  8
0
 10
6.31777119
 20
6.64327565
  0
VERTEX
  8
0
 10
6.39544866
 20
6.61897271
  0
VERTEX
  8
0
 10
6.43654665
 20
6.60732226
  0
VERTEX
  8
0
 10
6.46591934
 20
6.58070142
  0
VERTEX
  8
0
 10
6.48141940
 20
6.52947017
  0
VERTEX
  8
0
 10
6.49364944
 20
6.50684919
  0
VERTEX
  8
0
 10
6.52816213
 20
6.49690950
  0
VERTEX
  8
0
 10
6.57813744
 20
6.49041410
  0
VERTEX
  8
0
 10
6.61303868
 20
6.46706088
  0
VERTEX
  8
0
 10
6.61347875
 20
6.41447672
  0
VERTEX
  8
0
 10
6.62144970
 20
6.39211376
  0
VERTEX
  8
0
 10
6.66139259
 20
6.38434782
  0
VERTEX
  8
0
 10
6.68074592
 20
6.34098006
  0
VERTEX
  8
0
 10
6.66705102
 20
6.29552119
  0
VERTEX
  8
0
 10
6.64668955
 20
6.30082119
  0
VERTEX
  8
0
 10
6.63560137
 20
6.31411711
  0
VERTEX
  8
0
 10
6.60223621
 20
6.33903545
  0
VERTEX
  8
0
 10
6.52417622
 20
6.34716061
  0
VERTEX
  8
0
 10
6.49114137
 20
6.35744689
  0
VERTEX
  8
0
 10
6.47414979
 20
6.38183047
  0
VERTEX
  8
0
 10
6.45505732
 20
6.41313444
  0
VERTEX
  8
0
 10
6.41499341
 20
6.43145830
  0
VERTEX
  8
0
 10
6.39332841
 20
6.42987048
  0
VERTEX
  8
0
 10
6.37898518
 20
6.42066964
  0
VERTEX
  8
0
 10
6.45666008
 20
6.24948957
  0
VERTEX
  8
0
 10
6.65007571
 20
6.20022136
  0
VERTEX
  8
0
 10
6.66081793
 20
6.17284338
  0
VERTEX
  8
0
 10
6.65727736
 20
6.14412033
  0
VERTEX
  8
0
 10
6.59289072
 20
6.15799419
  0
VERTEX
  8
0
 10
6.56589549
 20
6.15287290
  0
VERTEX
  8
0
 10
6.55182468
 20
6.12829696
  0
VERTEX
  8
0
 10
6.54123621
 20
6.08554139
  0
VERTEX
  8
0
 10
6.54600190
 20
6.04373536
  0
VERTEX
  8
0
 10
6.57445843
 20
5.95927463
  0
VERTEX
  8
0
 10
6.59663095
 20
5.94522015
  0
VERTEX
  8
0
 10
6.62589876
 20
5.93697807
  0
VERTEX
  8
0
 10
6.82269145
 20
6.07894550
  0
VERTEX
  8
0
 10
6.91351739
 20
6.15459406
  0
VERTEX
  8
0
 10
6.98906748
 20
6.23798167
  0
VERTEX
  8
0
 10
6.99849187
 20
6.29314701
  0
VERTEX
  8
0
 10
7.01297836
 20
6.31408698
  0
VERTEX
  8
0
 10
7.05696872
 20
6.31422153
  0
VERTEX
  8
0
 10
7.08037336
 20
6.30784251
  0
VERTEX
  8
0
 10
7.09657777
 20
6.29408270
  0
VERTEX
  8
0
 10
7.10684400
 20
6.19990272
  0
VERTEX
  8
0
 10
7.16569795
 20
6.11496151
  0
VERTEX
  8
0
 10
7.25982206
 20
6.04289150
  0
VERTEX
  8
0
 10
7.37589876
 20
5.98732514
  0
VERTEX
  8
0
 10
7.39596049
 20
5.98229044
  0
VERTEX
  8
0
 10
7.39749822
 20
5.96701153
  0
VERTEX
  8
0
 10
7.41893785
 20
5.95701607
  0
VERTEX
  8
0
 10
7.43647626
 20
5.94689121
  0
VERTEX
  8
0
 10
7.42631028
 20
5.93122411
  0
VERTEX
  8
0
 10
7.42592622
 20
5.83901115
  0
VERTEX
  8
0
 10
7.44174238
 20
5.74458030
  0
VERTEX
  8
0
 10
7.54359423
 20
5.16343117
  0
VERTEX
  8
0
 10
7.60405501
 20
4.89788108
  0
VERTEX
  8
0
 10
7.64255170
 20
4.76852577
  0
VERTEX
  8
0
 10
7.70203045
 20
4.63982155
  0
VERTEX
  8
0
 10
7.73546666
 20
4.52042705
  0
VERTEX
  8
0
 10
7.92652324
 20
4.36956001
  0
VERTEX
  8
0
 10
8.03723460
 20
4.30390073
  0
VERTEX
  8
0
 10
8.15882057
 20
4.25142981
  0
VERTEX
  8
0
 10
8.17318846
 20
4.23792070
  0
VERTEX
  8
0
 10
8.19890416
 20
4.23718023
  0
VERTEX
  8
0
 10
8.25501399
 20
4.23812379
  0
VERTEX
  8
0
 10
8.28057051
 20
4.21545084
  0
VERTEX
  8
0
 10
8.28063660
 20
4.20138532
  0
VERTEX
  8
0
 10
8.26735966
 20
4.19245180
  0
SEQEND
  0
POLYLINE
  8
Default_Layer
 66
   1
 39
0.000000
 70
    1
  0
VERTEX
  8
0
 10
7.85120740
 20
4.18705747
  0
VERTEX
  8
0
 10
7.84914979
 20
4.19856537
  0
VERTEX
  8
0
 10
8.23598106
 20
4.21978307
  0
VERTEX
  8
0
 10
8.23700987
 20
4.21330988
  0
VERTEX
  8
0
 10
7.85120740
 20
4.18705747
  0
SEQEND
  0
POLYLINE
  8
Default_Layer
 66
   1
 39
0.000000
 70
    1
  0
VERTEX
  8
0
 10
8.12024032
 20
3.56922689
  0
VERTEX
  8
0
 10
8.11285851
 20
3.54205332
  0
VERTEX
  8
0
 10
8.08114567
 20
3.52894923
  0
VERTEX
  8
0
 10
7.97942249
 20
3.52270143
  0
VERTEX
  8
0
 10
7.93244291
 20
3.51262687
  0
VERTEX
  8
0
 10
7.89596049
 20
3.48939081
  0
VERTEX
  8
0
 10
7.88617962
 20
3.45261088
  0
VERTEX
  8
0
 10
7.84657777
 20
3.42861470
  0
VERTEX
  8
0
 10
7.76669111
 20
3.41763943
  0
VERTEX
  8
0
 10
7.68783941
 20
3.41795420
  0
VERTEX
  8
0
 10
7.61055339
 20
3.41694620
  0
VERTEX
  8
0
 10
7.53536378
 20
3.40200267
  0
VERTEX
  8
0
 10
7.52606202
 20
3.37601274
  0
VERTEX
  8
0
 10
7.54410864
 20
3.35093635
  0
VERTEX
  8
0
 10
7.55593991
 20
3.33834958
  0
VERTEX
  8
0
 10
7.48096073
 20
3.31762979
  0
VERTEX
  8
0
 10
7.39987150
 20
3.31522678
  0
VERTEX
  8
0
 10
7.23546666
 20
3.31569339
  0
VERTEX
  8
0
 10
7.22754472
 20
3.30160484
  0
VERTEX
  8
0
 10
7.23340905
 20
3.28728326
  0
VERTEX
  8
0
 10
7.25089876
 20
3.25851350
  0
VERTEX
  8
0
 10
7.19988236
 20
3.23232472
  0
VERTEX
  8
0
 10
7.13606581
 20
3.21848074
  0
VERTEX
  8
0
 10
6.99781234
 20
3.21032415
  0
VERTEX
  8
0
 10
6.82692602
 20
3.22101913
  0
VERTEX
  8
0
 10
6.66036378
 20
3.24304975
  0
VERTEX
  8
0
 10
6.58255996
 20
3.23830849
  0
VERTEX
  8
0
 10
6.51375884
 20
3.21895508
  0
VERTEX
  8
0
 10
6.50335214
 20
3.18128661
  0
VERTEX
  8
0
 10
6.49633140
 20
3.16452273
  0
VERTEX
  8
0
 10
6.47003456
 20
3.15638085
  0
VERTEX
  8
0
 10
6.26148994
 20
3.14301024
  0
VERTEX
  8
0
 10
6.06056954
 20
3.17723893
  0
VERTEX
  8
0
 10
6.05257044
 20
3.16355531
  0
VERTEX
  8
0
 10
6.05851193
 20
3.14954803
  0
VERTEX
  8
0
 10
5.98131225
 20
3.12770770
  0
VERTEX
  8
0
 10
5.89892879
 20
3.12071449
  0
VERTEX
  8
0
 10
5.73289464
 20
3.12868996
  0
VERTEX
  8
0
 10
5.57355771
 20
3.16407654
  0
VERTEX
  8
0
 10
5.49366924
 20
3.17874693
  0
VERTEX
  8
0
 10
5.40933497
 20
3.17328308
  0
VERTEX
  8
0
 10
5.36972592
 20
3.13480353
  0
VERTEX
  8
0
 10
5.37199958
 20
3.11143282
  0
VERTEX
  8
0
 10
5.36303868
 20
3.09236814
  0
VERTEX
  8
0
 10
5.16998865
 20
3.09526678
  0
VERTEX
  8
0
 10
5.07382687
 20
3.09991103
  0
VERTEX
  8
0
 10
4.97672180
 20
3.09236814
  0
VERTEX
  8
0
 10
4.97427119
 20
3.07396897
  0
VERTEX
  8
0
 10
4.98795984
 20
3.05904021
  0
VERTEX
  8
0
 10
5.02147489
 20
3.02979391
  0
VERTEX
  8
0
 10
4.86014673
 20
3.02065724
  0
VERTEX
  8
0
 10
4.70300620
 20
3.02746738
  0
VERTEX
  8
0
 10
4.55399406
 20
3.05548972
  0
VERTEX
  8
0
 10
4.41705102
 20
3.10998961
  0
VERTEX
  8
0
 10
4.31408664
 20
3.08608239
  0
VERTEX
  8
0
 10
4.20666008
 20
3.06395800
  0
VERTEX
  8
0
 10
4.05280700
 20
3.07002622
  0
VERTEX
  8
0
 10
3.98039496
 20
3.08275945
  0
VERTEX
  8
0
 10
3.91602222
 20
3.11142810
  0
VERTEX
  8
0
 10
3.82757866
 20
3.08110651
  0
VERTEX
  8
0
 10
3.72933909
 20
3.07051539
  0
VERTEX
  8
0
 10
3.53279176
 20
3.09344700
  0
VERTEX
  8
0
 10
3.49873655
 20
3.12183443
  0
VERTEX
  8
0
 10
3.45745800
 20
3.13772648
  0
VERTEX
  8
0
 10
3.36035195
 20
3.14302858
  0
VERTEX
  8
0
 10
3.15779176
 20
3.12473412
  0
VERTEX
  8
0
 10
3.11336654
 20
3.12814392
  0
VERTEX
  8
0
 10
3.08011687
 20
3.14559219
  0
VERTEX
  8
0
 10
3.14079498
 20
3.16732721
  0
VERTEX
  8
0
 10
3.21026090
 20
3.16860800
  0
VERTEX
  8
0
 10
3.21928931
 20
3.18419101
  0
VERTEX
  8
0
 10
3.20683195
 20
3.19558725
  0
VERTEX
  8
0
 10
3.18145431
 20
3.22075319
  0
VERTEX
  8
0
 10
3.22613477
 20
3.23761860
  0
VERTEX
  8
0
 10
3.27387323
 20
3.24044015
  0
VERTEX
  8
0
 10
3.37384115
 20
3.23441882
  0
VERTEX
  8
0
 10
3.39524526
 20
3.25202599
  0
VERTEX
  8
0
 10
3.40353122
 20
3.27412410
  0
VERTEX
  8
0
 10
3.41484766
 20
3.29372134
  0
VERTEX
  8
0
 10
3.44534320
 20
3.30382587
  0
VERTEX
  8
0
 10
3.51727459
 20
3.30679873
  0
VERTEX
  8
0
 10
3.58474650
 20
3.29231796
  0
VERTEX
  8
0
 10
3.55249495
 20
3.28648939
  0
VERTEX
  8
0
 10
3.52764773
 20
3.27397724
  0
VERTEX
  8
0
 10
3.58886172
 20
3.26930216
  0
VERTEX
  8
0
 10
3.65562510
 20
3.26369023
  0
VERTEX
  8
0
 10
3.71609687
 20
3.24322381
  0
VERTEX
  8
0
 10
3.82497283
 20
3.19054494
  0
VERTEX
  8
0
 10
3.97698441
 20
3.25341581
  0
VERTEX
  8
0
 10
4.05672602
 20
3.27831667
  0
VERTEX
  8
0
 10
4.14750370
 20
3.28188893
  0
VERTEX
  8
0
 10
4.18493948
 20
3.26736384
  0
VERTEX
  8
0
 10
4.20221293
 20
3.24268748
  0
VERTEX
  8
0
 10
4.21785193
 20
3.21675376
  0
VERTEX
  8
0
 10
4.25038436
 20
3.19845662
  0
VERTEX
  8
0
 10
4.46545952
 20
3.25280908
  0
VERTEX
  8
0
 10
4.57668579
 20
3.26815565
  0
VERTEX
  8
0
 10
4.68968477
 20
3.25563652
  0
VERTEX
  8
0
 10
4.81101752
 20
3.19631377
  0
VERTEX
  8
0
 10
4.95314464
 20
3.17441684
  0
VERTEX
  8
0
 10
5.10243072
 20
3.18081270
  0
VERTEX
  8
0
 10
5.24524032
 20
3.20636831
  0
VERTEX
  8
0
 10
5.45456922
 20
3.27764871
  0
VERTEX
  8
0
 10
5.66962304
 20
3.34122655
  0
VERTEX
  8
0
 10
5.76161005
 20
3.34325626
  0
VERTEX
  8
0
 10
5.80371795
 20
3.33293449
  0
VERTEX
  8
0
 10
5.83577530
 20
3.31065868
  0
VERTEX
  8
0
 10
5.90176058
 20
3.27368936
  0
VERTEX
  8
0
 10
5.98495226
 20
3.26462707
  0
VERTEX
  8
0
 10
6.18226096
 20
3.28895163
  0
VERTEX
  8
0
 10
6.38052839
 20
3.30814133
  0
VERTEX
  8
0
 10
6.52002060
 20
3.34794007
  0
VERTEX
  8
0
 10
6.66482333
 20
3.36221796
  0
VERTEX
  8
0
 10
6.97003456
 20
3.37035593
  0
VERTEX
  8
0
 10
7.14268342
 20
3.40412754
  0
VERTEX
  8
0
 10
7.21499369
 20
3.44042024
  0
VERTEX
  8
0
 10
7.27507571
 20
3.49011006
  0
VERTEX
  8
0
 10
7.42918985
 20
3.51577637
  0
VERTEX
  8
0
 10
7.59091934
 20
3.52211641
  0
VERTEX
  8
0
 10
7.77411487
 20
3.53145328
  0
VERTEX
  8
0
 10
7.85304745
 20
3.55860005
  0
VERTEX
  8
0
 10
7.91139259
 20
3.61022380
  0
VERTEX
  8
0
 10
8.00459385
 20
3.61276714
  0
VERTEX
  8
0
 10
8.04905766
 20
3.61641551
  0
VERTEX
  8
0
 10
8.08937613
 20
3.63216074
  0
VERTEX
  8
0
 10
8.25244197
 20
3.66093050
  0
VERTEX
  8
0
 10
8.24491014
 20
3.64504618
  0
VERTEX
  8
0
 10
8.25089876
 20
3.63036263
  0
VERTEX
  8
0
 10
8.32703045
 20
3.61741624
  0
VERTEX
  8
0
 10
8.28336648
 20
3.59527620
  0
VERTEX
  8
0
 10
8.22964619
 20
3.58614077
  0
VERTEX
  8
0
 10
8.12024032
 20
3.56922689
  0
SEQEND
  0
POLYLINE
  8
Default_Layer
 66
   1
 39
0.000000
 70
    1
  0
VERTEX
  8
0
 10
8.17219506
 20
3.83211057
  0
VERTEX
  8
0
 10
7.92631028
 20
3.75730919
  0
VERTEX
  8
0
 10
7.57627048
 20
3.67986905
  0
VERTEX
  8
0
 10
7.20974650
 20
3.63036263
  0
VERTEX
  8
0
 10
6.71518535
 20
3.59627577
  0
VERTEX
  8
0
 10
6.21746255
 20
3.56922689
  0
VERTEX
  8
0
 10
4.57497283
 20
3.58325215
  0
VERTEX
  8
0
 10
3.56519917
 20
3.62137208
  0
VERTEX
  8
0
 10
3.50295637
 20
3.68934064
  0
VERTEX
  8
0
 10
3.59207533
 20
3.66867676
  0
VERTEX
  8
0
 10
3.68299752
 20
3.67459614
  0
VERTEX
  8
0
 10
3.70016438
 20
3.68858098
  0
VERTEX
  8
0
 10
3.72929382
 20
3.68250782
  0
VERTEX
  8
0
 10
3.79433857
 20
3.66126513
  0
VERTEX
  8
0
 10
3.86818271
 20
3.65697466
  0
VERTEX
  8
0
 10
3.90176694
 20
3.67482238
  0
VERTEX
  8
0
 10
3.92013744
 20
3.70156779
  0
VERTEX
  8
0
 10
3.90367654
 20
3.74040696
  0
VERTEX
  8
0
 10
3.97797367
 20
3.72414894
  0
VERTEX
  8
0
 10
4.05233909
 20
3.73141641
  0
VERTEX
  8
0
 10
4.07146306
 20
3.75780561
  0
VERTEX
  8
0
 10
4.06879999
 20
3.78967517
  0
VERTEX
  8
0
 10
4.36200987
 20
3.78320198
  0
VERTEX
  8
0
 10
4.40895149
 20
3.76900149
  0
VERTEX
  8
0
 10
4.45820329
 20
3.77097483
  0
VERTEX
  8
0
 10
4.48716336
 20
3.78806177
  0
VERTEX
  8
0
 10
4.50141316
 20
3.81197174
  0
VERTEX
  8
0
 10
4.48906748
 20
3.84901280
  0
VERTEX
  8
0
 10
4.98238024
 20
3.84613583
  0
VERTEX
  8
0
 10
5.48542512
 20
3.84752653
  0
VERTEX
  8
0
 10
5.98803868
 20
3.84002225
  0
VERTEX
  8
0
 10
6.45974650
 20
3.82959321
  0
VERTEX
  8
0
 10
6.48245807
 20
3.78364150
  0
VERTEX
  8
0
 10
6.52199965
 20
3.74474162
  0
VERTEX
  8
0
 10
6.63464361
 20
3.69581383
  0
VERTEX
  8
0
 10
6.80957620
 20
3.69198225
  0
VERTEX
  8
0
 10
6.98288326
 20
3.70387085
  0
VERTEX
  8
0
 10
7.33423209
 20
3.74364356
  0
VERTEX
  8
0
 10
7.77661880
 20
3.81042626
  0
VERTEX
  8
0
 10
7.98690628
 20
3.85922995
  0
VERTEX
  8
0
 10
8.18556954
 20
3.92992775
  0
VERTEX
  8
0
 10
8.18800479
 20
3.88032963
  0
VERTEX
  8
0
 10
8.17219506
 20
3.83211057
  0
SEQEND
  0
POLYLINE
  8
Default_Layer
 66
   1
 39
0.000000
 70
    1
  0
VERTEX
  8
0
 10
7.84297695
 20
4.21762534
  0
VERTEX
  8
0
 10
7.79445618
 20
4.34165712
  0
VERTEX
  8
0
 10
7.75089876
 20
4.47187808
  0
VERTEX
  8
0
 10
7.92015377
 20
4.34702412
  0
VERTEX
  8
0
 10
8.11818271
 20
4.23632568
  0
VERTEX
  8
0
 10
7.84297695
 20
4.21762534
  0
SEQEND
  0
POLYLINE
  8
Default_Layer
 66
   1
 39
0.000000
 70
    1
  0
VERTEX
  8
0
 10
8.08371769
 20
3.74508205
  0
VERTEX
  8
0
 10
7.79641182
 20
3.66902484
  0
VERTEX
  8
0
 10
7.49573370
 20
3.61526327
  0
VERTEX
  8
0
 10
7.18542103
 20
3.58046939
  0
VERTEX
  8
0
 10
6.86921152
 20
3.56131521
  0
VERTEX
  8
0
 10
6.37493821
 20
3.53000802
  0
VERTEX
  8
0
 10
5.87708986
 20
3.52300185
  0
VERTEX
  8
0
 10
5.37735995
 20
3.52247568
  0
VERTEX
  8
0
 10
4.87744197
 20
3.51060851
  0
VERTEX
  8
0
 10
4.69174238
 20
3.51420473
  0
VERTEX
  8
0
 10
3.97003456
 20
3.52966848
  0
VERTEX
  8
0
 10
3.62486995
 20
3.54225524
  0
VERTEX
  8
0
 10
3.58577530
 20
3.59763703
  0
VERTEX
  8
0
 10
4.98649547
 20
3.55807861
  0
VERTEX
  8
0
 10
5.87126913
 20
3.54657071
  0
VERTEX
  8
0
 10
6.63411365
 20
3.56845272
  0
VERTEX
  8
0
 10
7.38515802
 20
3.62676641
  0
VERTEX
  8
0
 10
7.74685516
 20
3.69343192
  0
VERTEX
  8
0
 10
8.09503456
 20
3.77636916
  0
VERTEX
  8
0
 10
8.16756543
 20
3.80118308
  0
VERTEX
  8
0
 10
8.16166995
 20
3.77989474
  0
VERTEX
  8
0
 10
8.14030398
 20
3.76494302
  0
VERTEX
  8
0
 10
8.08371769
 20
3.74508205
  0
SEQEND
  0
POLYLINE
  8
Default_Layer
 66
   1
 39
0.000000
 70
    1
  0
VERTEX
  8
0
 10
8.04719506
 20
3.64330902
  0
VERTEX
  8
0
 10
7.93814297
 20
3.63816068
  0
VERTEX
  8
0
 10
7.88920214
 20
3.62819704
  0
VERTEX
  8
0
 10
7.86046666
 20
3.59907552
  0
VERTEX
  8
0
 10
7.76340287
 20
3.55174125
  0
VERTEX
  8
0
 10
7.64986339
 20
3.54125235
  0
VERTEX
  8
0
 10
7.52845682
 20
3.54457091
  0
VERTEX
  8
0
 10
7.40779176
 20
3.53865903
  0
VERTEX
  8
0
 10
7.33165383
 20
3.53402372
  0
VERTEX
  8
0
 10
7.26740821
 20
3.51174730
  0
VERTEX
  8
0
 10
7.16345020
 20
3.43868411
  0
VERTEX
  8
0
 10
7.01965839
 20
3.40115249
  0
VERTEX
  8
0
 10
6.86685684
 20
3.39182141
  0
VERTEX
  8
0
 10
6.70957419
 20
3.39162671
  0
VERTEX
  8
0
 10
6.55233909
 20
3.38150422
  0
VERTEX
  8
0
 10
6.41342392
 20
3.34517538
  0
VERTEX
  8
0
 10
6.26172759
 20
3.32644065
  0
VERTEX
  8
0
 10
5.96283292
 20
3.29411607
  0
VERTEX
  8
0
 10
5.90251866
 20
3.30773482
  0
VERTEX
  8
0
 10
5.85138056
 20
3.33444961
  0
VERTEX
  8
0
 10
5.79886988
 20
3.35960808
  0
VERTEX
  8
0
 10
5.73443785
 20
3.36855782
  0
VERTEX
  8
0
 10
5.60231487
 20
3.34983209
  0
VERTEX
  8
0
 10
5.48190924
 20
3.31425288
  0
VERTEX
  8
0
 10
5.24781234
 20
3.23298033
  0
VERTEX
  8
0
 10
5.02093959
 20
3.19699341
  0
VERTEX
  8
0
 10
4.90399152
 20
3.19982776
  0
VERTEX
  8
0
 10
4.79668065
 20
3.22003394
  0
VERTEX
  8
0
 10
4.72657604
 20
3.26070996
  0
VERTEX
  8
0
 10
4.64863661
 20
3.28344191
  0
VERTEX
  8
0
 10
4.56472948
 20
3.28939419
  0
VERTEX
  8
0
 10
4.47672180
 20
3.27973119
  0
VERTEX
  8
0
 10
4.36283517
 20
3.24935954
  0
VERTEX
  8
0
 10
4.24626913
 20
3.22183205
  0
VERTEX
  8
0
 10
4.20144325
 20
3.27811011
  0
VERTEX
  8
0
 10
4.11921152
 20
3.30778171
  0
VERTEX
  8
0
 10
4.03739308
 20
3.30157072
  0
VERTEX
  8
0
 10
3.96757263
 20
3.27841695
  0
VERTEX
  8
0
 10
3.83680411
 20
3.22003394
  0
VERTEX
  8
0
 10
3.74065628
 20
3.37178736
  0
VERTEX
  8
0
 10
3.63567242
 20
3.51995868
  0
VERTEX
  8
0
 10
4.42785349
 20
3.50341607
  0
VERTEX
  8
0
 10
4.69782764
 20
3.49347253
  0
VERTEX
  8
0
 10
4.97075434
 20
3.49874831
  0
VERTEX
  8
0
 10
5.24615037
 20
3.50626807
  0
VERTEX
  8
0
 10
5.52353250
 20
3.50305645
  0
VERTEX
  8
0
 10
6.20717448
 20
3.50665267
  0
VERTEX
  8
0
 10
6.43454073
 20
3.51060851
  0
VERTEX
  8
0
 10
7.18659835
 20
3.55520164
  0
VERTEX
  8
0
 10
7.67444608
 20
3.62382403
  0
VERTEX
  8
0
 10
8.13207160
 20
3.73465301
  0
VERTEX
  8
0
 10
8.09405713
 20
3.68680427
  0
VERTEX
  8
0
 10
8.04719506
 20
3.64330902
  0
SEQEND
  0
POLYLINE
  8
Default_Layer
 66
   1
 39
0.000000
 70
    1
  0
VERTEX
  8
0
 10
7.93042551
 20
3.95042620
  0
VERTEX
  8
0
 10
7.73032263
 20
3.94215490
  0
VERTEX
  8
0
 10
7.72800929
 20
3.99855765
  0
VERTEX
  8
0
 10
7.73289464
 20
4.05579544
  0
VERTEX
  8
0
 10
7.70133040
 20
4.07393555
  0
VERTEX
  8
0
 10
7.66064265
 20
4.07665707
  0
VERTEX
  8
0
 10
7.57497283
 20
4.07737276
  0
VERTEX
  8
0
 10
7.38052839
 20
4.09319613
  0
VERTEX
  8
0
 10
7.32398254
 20
4.07258341
  0
VERTEX
  8
0
 10
7.27147489
 20
4.04644527
  0
VERTEX
  8
0
 10
7.24534989
 20
4.08248124
  0
VERTEX
  8
0
 10
7.22209217
 20
4.12160627
  0
VERTEX
  8
0
 10
7.83783292
 20
4.16727826
  0
VERTEX
  8
0
 10
7.93042551
 20
3.95042620
  0
SEQEND
  0
POLYLINE
  8
Default_Layer
 66
   1
 39
0.000000
 70
    1
  0
VERTEX
  8
0
 10
7.21077530
 20
4.14426245
  0
VERTEX
  8
0
 10
7.19894403
 20
4.15756847
  0
VERTEX
  8
0
 10
7.20768888
 20
4.16332242
  0
VERTEX
  8
0
 10
7.82548724
 20
4.19964424
  0
VERTEX
  8
0
 10
7.83423209
 20
4.18849596
  0
VERTEX
  8
0
 10
7.21077530
 20
4.14426245
  0
SEQEND
  0
POLYLINE
  8
Default_Layer
 66
   1
 39
0.000000
 70
    1
  0
VERTEX
  8
0
 10
7.82188641
 20
4.21798496
  0
VERTEX
  8
0
 10
7.19071357
 20
4.18058427
  0
VERTEX
  8
0
 10
7.09008324
 20
4.36708554
  0
VERTEX
  8
0
 10
7.04735630
 20
4.46344265
  0
VERTEX
  8
0
 10
7.01684526
 20
4.56466056
  0
VERTEX
  8
0
 10
6.92219544
 20
4.76014846
  0
VERTEX
  8
0
 10
6.88067368
 20
4.85989300
  0
VERTEX
  8
0
 10
6.85223621
 20
4.96348134
  0
VERTEX
  8
0
 10
6.83348151
 20
5.02584861
  0
VERTEX
  8
0
 10
6.84709217
 20
5.09006828
  0
VERTEX
  8
0
 10
6.86584618
 20
5.09453166
  0
VERTEX
  8
0
 10
6.86898106
 20
5.10679399
  0
VERTEX
  8
0
 10
6.86252427
 20
5.13574028
  0
VERTEX
  8
0
 10
6.85546660
 20
5.14503704
  0
VERTEX
  8
0
 10
6.85635143
 20
5.15659835
  0
VERTEX
  8
0
 10
6.89020702
 20
5.32751045
  0
VERTEX
  8
0
 10
6.93865596
 20
5.49248529
  0
VERTEX
  8
0
 10
7.35326501
 20
5.86613253
  0
VERTEX
  8
0
 10
7.31757571
 20
5.67439247
  0
VERTEX
  8
0
 10
7.31685979
 20
5.47803186
  0
VERTEX
  8
0
 10
7.37229794
 20
5.08539320
  0
VERTEX
  8
0
 10
7.43223339
 20
4.92635831
  0
VERTEX
  8
0
 10
7.50827466
 20
4.77332856
  0
VERTEX
  8
0
 10
7.60519073
 20
4.62834668
  0
VERTEX
  8
0
 10
7.72775061
 20
4.49345540
  0
VERTEX
  8
0
 10
7.82188641
 20
4.21798496
  0
SEQEND
  0
POLYLINE
  8
Default_Layer
 66
   1
 39
0.000000
 70
    1
  0
VERTEX
  8
0
 10
7.71128971
 20
4.54883719
  0
VERTEX
  8
0
 10
7.59344588
 20
4.69284096
  0
VERTEX
  8
0
 10
7.50075125
 20
4.84872237
  0
VERTEX
  8
0
 10
7.43102133
 20
5.01316458
  0
VERTEX
  8
0
 10
7.38207160
 20
5.18285076
  0
VERTEX
  8
0
 10
7.34554896
 20
5.59929302
  0
VERTEX
  8
0
 10
7.35508947
 20
5.66479713
  0
VERTEX
  8
0
 10
7.35635143
 20
5.72947618
  0
VERTEX
  8
0
 10
7.37627730
 20
5.80664283
  0
VERTEX
  8
0
 10
7.40367654
 20
5.88231552
  0
VERTEX
  8
0
 10
7.54307983
 20
5.10948787
  0
VERTEX
  8
0
 10
7.56960872
 20
4.96966631
  0
VERTEX
  8
0
 10
7.60942358
 20
4.83710586
  0
VERTEX
  8
0
 10
7.70666008
 20
4.57401073
  0
VERTEX
  8
0
 10
7.71128971
 20
4.54883719
  0
SEQEND
  0
POLYLINE
  8
Default_Layer
 66
   1
 39
0.000000
 70
    1
  0
VERTEX
  8
0
 10
7.27816213
 20
5.91360264
  0
VERTEX
  8
0
 10
7.19187451
 20
5.97854476
  0
VERTEX
  8
0
 10
7.12909494
 20
6.05330409
  0
VERTEX
  8
0
 10
7.09095185
 20
6.13732953
  0
VERTEX
  8
0
 10
7.07857366
 20
6.23006999
  0
VERTEX
  8
0
 10
7.10397747
 20
6.17035173
  0
VERTEX
  8
0
 10
7.14751868
 20
6.11795999
  0
VERTEX
  8
0
 10
7.26530205
 20
6.02688356
  0
VERTEX
  8
0
 10
7.35738024
 20
5.98085195
  0
VERTEX
  8
0
 10
7.32320618
 20
5.94551972
  0
VERTEX
  8
0
 10
7.27816213
 20
5.91360264
  0
SEQEND
  0
POLYLINE
  8
Default_Layer
 66
   1
 39
0.000000
 70
    1
  0
VERTEX
  8
0
 10
7.54102222
 20
3.99933479
  0
VERTEX
  8
0
 10
7.30336789
 20
4.01407929
  0
VERTEX
  8
0
 10
7.30734117
 20
4.03317838
  0
VERTEX
  8
0
 10
7.32705533
 20
4.04583535
  0
VERTEX
  8
0
 10
7.37538436
 20
4.06730335
  0
VERTEX
  8
0
 10
7.64338847
 20
4.05687431
  0
VERTEX
  8
0
 10
7.58764284
 20
4.03314151
  0
VERTEX
  8
0
 10
7.54102222
 20
3.99933479
  0
SEQEND
  0
POLYLINE
  8
Default_Layer
 66
   1
 39
0.000000
 70
    1
  0
VERTEX
  8
0
 10
6.96180411
 20
5.64892085
  0
VERTEX
  8
0
 10
6.95768888
 20
5.67193666
  0
VERTEX
  8
0
 10
7.05542551
 20
6.17145160
  0
VERTEX
  8
0
 10
7.05696872
 20
6.19482703
  0
VERTEX
  8
0
 10
7.07767404
 20
6.11322700
  0
VERTEX
  8
0
 10
7.11996351
 20
6.03748410
  0
VERTEX
  8
0
 10
7.18206731
 20
5.96857817
  0
VERTEX
  8
0
 10
7.26221563
 20
5.90748906
  0
VERTEX
  8
0
 10
6.96180411
 20
5.64892085
  0
SEQEND
  0
POLYLINE
  8
Default_Layer
 66
   1
 39
0.000000
 70
    1
  0
VERTEX
  8
0
 10
7.59452016
 20
3.95186469
  0
VERTEX
  8
0
 10
7.31365596
 20
3.93963754
  0
VERTEX
  8
0
 10
7.30593991
 20
3.94395301
  0
VERTEX
  8
0
 10
7.58577530
 20
3.96085524
  0
VERTEX
  8
0
 10
7.59452016
 20
3.95186469
  0
SEQEND
  0
POLYLINE
  8
Default_Layer
 66
   1
 39
0.000000
 70
    1
  0
VERTEX
  8
0
 10
7.52919094
 20
3.89935988
  0
VERTEX
  8
0
 10
7.51581645
 20
3.89612328
  0
VERTEX
  8
0
 10
7.51067242
 20
3.90942930
  0
VERTEX
  8
0
 10
7.53793580
 20
3.92165644
  0
VERTEX
  8
0
 10
7.52919094
 20
3.89935988
  0
SEQEND
  0
POLYLINE
  8
Default_Layer
 66
   1
 39
0.000000
 70
    1
  0
VERTEX
  8
0
 10
7.27353250
 20
3.96157448
  0
VERTEX
  8
0
 10
7.23032263
 20
3.99322122
  0
VERTEX
  8
0
 10
7.37472605
 20
3.99253555
  0
VERTEX
  8
0
 10
7.52250370
 20
3.97883634
  0
VERTEX
  8
0
 10
7.27353250
 20
3.96157448
  0
SEQEND
  0
POLYLINE
  8
Default_Layer
 66
   1
 39
0.000000
 70
    1
  0
VERTEX
  8
0
 10
7.05593991
 20
4.68729166
  0
VERTEX
  8
0
 10
7.05389246
 20
4.66540147
  0
VERTEX
  8
0
 10
7.04205102
 20
4.64629475
  0
VERTEX
  8
0
 10
7.02559012
 20
4.64485626
  0
VERTEX
  8
0
 10
7.03992998
 20
4.71232225
  0
VERTEX
  8
0
 10
7.08102279
 20
4.77632323
  0
VERTEX
  8
0
 10
7.21231851
 20
4.88867997
  0
VERTEX
  8
0
 10
7.25619814
 20
4.91074601
  0
VERTEX
  8
0
 10
7.30336789
 20
4.91996708
  0
VERTEX
  8
0
 10
7.31159835
 20
4.91169578
  0
VERTEX
  8
0
 10
7.22506035
 20
4.87121017
  0
VERTEX
  8
0
 10
7.15549733
 20
4.81736257
  0
VERTEX
  8
0
 10
7.05593991
 20
4.68729166
  0
SEQEND
  0
POLYLINE
  8
Default_Layer
 66
   1
 39
0.000000
 70
    1
  0
VERTEX
  8
0
 10
7.22003456
 20
5.10733014
  0
VERTEX
  8
0
 10
7.17510561
 20
5.06936831
  0
VERTEX
  8
0
 10
7.12486995
 20
5.03684423
  0
VERTEX
  8
0
 10
7.12024032
 20
5.04799251
  0
VERTEX
  8
0
 10
7.17454003
 20
5.09889004
  0
VERTEX
  8
0
 10
7.24163950
 20
5.13753839
  0
VERTEX
  8
0
 10
7.26074716
 20
5.13026599
  0
VERTEX
  8
0
 10
7.25406639
 20
5.12193879
  0
VERTEX
  8
0
 10
7.22003456
 20
5.10733014
  0
SEQEND
  0
POLYLINE
  8
Default_Layer
 66
   1
 39
0.000000
 70
    1
  0
VERTEX
  8
0
 10
7.40882057
 20
3.87742294
  0
VERTEX
  8
0
 10
7.40264773
 20
3.89540404
  0
VERTEX
  8
0
 10
7.43093991
 20
3.90079837
  0
VERTEX
  8
0
 10
7.42905115
 20
3.88177720
  0
VERTEX
  8
0
 10
7.40882057
 20
3.87742294
  0
SEQEND
  0
POLYLINE
  8
Default_Layer
 66
   1
 39
0.000000
 70
    1
  0
VERTEX
  8
0
 10
7.16910864
 20
4.72756932
  0
VERTEX
  8
0
 10
7.13106568
 20
4.66917876
  0
VERTEX
  8
0
 10
7.10635143
 20
4.60745557
  0
VERTEX
  8
0
 10
7.08577530
 20
4.61069217
  0
VERTEX
  8
0
 10
7.09876538
 20
4.66470997
  0
VERTEX
  8
0
 10
7.12718747
 20
4.71725307
  0
VERTEX
  8
0
 10
7.17181191
 20
4.76416563
  0
VERTEX
  8
0
 10
7.23340905
 20
4.80129183
  0
VERTEX
  8
0
 10
7.24985934
 20
4.79598628
  0
VERTEX
  8
0
 10
7.25244197
 20
4.78654732
  0
VERTEX
  8
0
 10
7.16910864
 20
4.72756932
  0
SEQEND
  0
POLYLINE
  8
Default_Layer
 66
   1
 39
0.000000
 70
    1
  0
VERTEX
  8
0
 10
6.75295637
 20
5.21126089
  0
VERTEX
  8
0
 10
6.67945939
 20
5.35252864
  0
VERTEX
  8
0
 10
6.63052839
 20
5.50327395
  0
VERTEX
  8
0
 10
6.64300222
 20
5.54408956
  0
VERTEX
  8
0
 10
6.67888230
 20
5.57088288
  0
VERTEX
  8
0
 10
6.74575473
 20
5.55613838
  0
VERTEX
  8
0
 10
6.75726251
 20
5.57977166
  0
VERTEX
  8
0
 10
6.75707160
 20
5.60396810
  0
VERTEX
  8
0
 10
6.67138069
 20
5.63601299
  0
VERTEX
  8
0
 10
6.63756241
 20
5.65759595
  0
VERTEX
  8
0
 10
6.62178353
 20
5.69027738
  0
VERTEX
  8
0
 10
6.58834732
 20
5.82441638
  0
VERTEX
  8
0
 10
6.62901366
 20
5.85139271
  0
VERTEX
  8
0
 10
6.67373827
 20
5.87368460
  0
VERTEX
  8
0
 10
6.68042551
 20
5.89094645
  0
VERTEX
  8
0
 10
6.83409012
 20
6.02908773
  0
VERTEX
  8
0
 10
6.97106337
 20
6.17396896
  0
VERTEX
  8
0
 10
6.89647489
 20
5.83088958
  0
VERTEX
  8
0
 10
6.75295637
 20
5.21126089
  0
SEQEND
  0
POLYLINE
  8
Default_Layer
 66
   1
 39
0.000000
 70
    1
  0
VERTEX
  8
0
 10
6.67682468
 20
5.91108528
  0
VERTEX
  8
0
 10
6.64596049
 20
5.93482033
  0
VERTEX
  8
0
 10
6.80752685
 20
6.05786491
  0
VERTEX
  8
0
 10
6.95768888
 20
6.18655573
  0
VERTEX
  8
0
 10
6.82852550
 20
6.04389076
  0
VERTEX
  8
0
 10
6.67682468
 20
5.91108528
  0
SEQEND
  0
POLYLINE
  8
Default_Layer
 66
   1
 39
0.000000
 70
    1
  0
VERTEX
  8
0
 10
7.27610452
 20
3.86807277
  0
VERTEX
  8
0
 10
7.25218875
 20
3.86702011
  0
VERTEX
  8
0
 10
7.23392345
 20
3.87598445
  0
VERTEX
  8
0
 10
7.24272946
 20
3.89691337
  0
VERTEX
  8
0
 10
7.26838847
 20
3.91050816
  0
VERTEX
  8
0
 10
7.29149875
 20
3.90806732
  0
VERTEX
  8
0
 10
7.30491110
 20
3.89396555
  0
VERTEX
  8
0
 10
7.30133825
 20
3.87601120
  0
VERTEX
  8
0
 10
7.27610452
 20
3.86807277
  0
SEQEND
  0
POLYLINE
  8
Default_Layer
 66
   1
 39
0.000000
 70
    1
  0
VERTEX
  8
0
 10
7.19688641
 20
4.01659665
  0
VERTEX
  8
0
 10
7.06828559
 20
4.11153685
  0
VERTEX
  8
0
 10
7.19534320
 20
4.12232551
  0
VERTEX
  8
0
 10
7.25707160
 20
4.01695627
  0
VERTEX
  8
0
 10
7.19688641
 20
4.01659665
  0
SEQEND
  0
POLYLINE
  8
Default_Layer
 66
   1
 39
0.000000
 70
    1
  0
VERTEX
  8
0
 10
6.93454073
 20
3.94035679
  0
VERTEX
  8
0
 10
6.72054896
 20
3.95438204
  0
VERTEX
  8
0
 10
6.70660381
 20
3.97017062
  0
VERTEX
  8
0
 10
6.70717448
 20
3.99142311
  0
VERTEX
  8
0
 10
7.17219506
 20
3.99789630
  0
VERTEX
  8
0
 10
7.23289464
 20
3.96121486
  0
VERTEX
  8
0
 10
6.93454073
 20
3.94035679
  0
SEQEND
  0
POLYLINE
  8
Default_Layer
 66
   1
 39
0.000000
 70
    1
  0
VERTEX
  8
0
 10
7.23700987
 20
3.93999716
  0
VERTEX
  8
0
 10
7.23700987
 20
3.93783943
  0
VERTEX
  8
0
 10
7.20666008
 20
3.93532208
  0
VERTEX
  8
0
 10
7.20666008
 20
3.93747981
  0
VERTEX
  8
0
 10
7.23700987
 20
3.93999716
  0
SEQEND
  0
POLYLINE
  8
Default_Layer
 66
   1
 39
0.000000
 70
    1
  0
VERTEX
  8
0
 10
7.04513744
 20
4.13275455
  0
VERTEX
  8
0
 10
7.02507571
 20
4.14965678
  0
VERTEX
  8
0
 10
7.17168065
 20
4.16044544
  0
VERTEX
  8
0
 10
7.18454073
 20
4.14174510
  0
VERTEX
  8
0
 10
7.04513744
 20
4.13275455
  0
SEQEND
  0
POLYLINE
  8
Default_Layer
 66
   1
 39
0.000000
 70
    1
  0
VERTEX
  8
0
 10
6.99524032
 20
4.17051486
  0
VERTEX
  8
0
 10
6.80131028
 20
4.33522173
  0
VERTEX
  8
0
 10
6.95426617
 20
4.31577378
  0
VERTEX
  8
0
 10
7.10583703
 20
4.28091881
  0
VERTEX
  8
0
 10
7.16139259
 20
4.17986503
  0
VERTEX
  8
0
 10
6.99524032
 20
4.17051486
  0
SEQEND
  0
POLYLINE
  8
Default_Layer
 66
   1
 39
0.000000
 70
    1
  0
VERTEX
  8
0
 10
7.17065185
 20
3.93424321
  0
VERTEX
  8
0
 10
7.17116625
 20
3.93244510
  0
VERTEX
  8
0
 10
7.12641316
 20
3.93064699
  0
VERTEX
  8
0
 10
7.12744197
 20
3.93352397
  0
VERTEX
  8
0
 10
7.17065185
 20
3.93424321
  0
SEQEND
  0
POLYLINE
  8
Default_Layer
 66
   1
 39
0.000000
 70
    1
  0
VERTEX
  8
0
 10
7.02456131
 20
4.01875438
  0
VERTEX
  8
0
 10
7.02625633
 20
4.04815613
  0
VERTEX
  8
0
 10
7.02705314
 20
4.06235616
  0
VERTEX
  8
0
 10
7.01221563
 20
4.07341692
  0
VERTEX
  8
0
 10
6.94431440
 20
4.07737276
  0
VERTEX
  8
0
 10
6.93998383
 20
4.04931834
  0
VERTEX
  8
0
 10
6.94019917
 20
4.02019287
  0
VERTEX
  8
0
 10
6.71077530
 20
4.01048307
  0
VERTEX
  8
0
 10
6.71077530
 20
4.08276709
  0
VERTEX
  8
0
 10
7.02919094
 20
4.11009836
  0
VERTEX
  8
0
 10
7.14647489
 20
4.01731589
  0
VERTEX
  8
0
 10
7.02456131
 20
4.01875438
  0
SEQEND
  0
POLYLINE
  8
Default_Layer
 66
   1
 39
0.000000
 70
    1
  0
VERTEX
  8
0
 10
6.78999341
 20
4.82430763
  0
VERTEX
  8
0
 10
6.81982880
 20
4.97930471
  0
VERTEX
  8
0
 10
6.85023614
 20
4.90063789
  0
VERTEX
  8
0
 10
6.87486995
 20
4.81783444
  0
VERTEX
  8
0
 10
6.97326405
 20
4.60814434
  0
VERTEX
  8
0
 10
7.05696872
 20
4.39204200
  0
VERTEX
  8
0
 10
7.08063127
 20
4.35212396
  0
VERTEX
  8
0
 10
6.98159070
 20
4.45720066
  0
VERTEX
  8
0
 10
6.90057063
 20
4.57382939
  0
VERTEX
  8
0
 10
6.83692142
 20
4.69765132
  0
VERTEX
  8
0
 10
6.78999341
 20
4.82430763
  0
SEQEND
  0
POLYLINE
  8
Default_Layer
 66
   1
 39
0.000000
 70
    1
  0
VERTEX
  8
0
 10
7.11972592
 20
3.85764373
  0
VERTEX
  8
0
 10
7.06622798
 20
3.85980146
  0
VERTEX
  8
0
 10
7.06750113
 20
3.88399350
  0
VERTEX
  8
0
 10
7.09554896
 20
3.89935988
  0
VERTEX
  8
0
 10
7.12028160
 20
3.90001322
  0
VERTEX
  8
0
 10
7.14338847
 20
3.89684253
  0
VERTEX
  8
0
 10
7.14169435
 20
3.87362528
  0
VERTEX
  8
0
 10
7.11972592
 20
3.85764373
  0
SEQEND
  0
POLYLINE
  8
Default_Layer
 66
   1
 39
0.000000
 70
    1
  0
VERTEX
  8
0
 10
7.06571357
 20
4.31939836
  0
VERTEX
  8
0
 10
6.76581645
 20
4.36938582
  0
VERTEX
  8
0
 10
6.64873811
 20
4.47970380
  0
VERTEX
  8
0
 10
6.56908555
 20
4.60408789
  0
VERTEX
  8
0
 10
6.52182622
 20
4.73824733
  0
VERTEX
  8
0
 10
6.50192757
 20
4.87789131
  0
VERTEX
  8
0
 10
6.51134205
 20
4.97046538
  0
VERTEX
  8
0
 10
6.53999341
 20
5.06093890
  0
VERTEX
  8
0
 10
6.65727736
 20
5.04583478
  0
VERTEX
  8
0
 10
6.65845837
 20
5.07246555
  0
VERTEX
  8
0
 10
6.64853250
 20
5.09690110
  0
VERTEX
  8
0
 10
6.51719988
 20
5.13339217
  0
VERTEX
  8
0
 10
6.38104279
 20
5.16307155
  0
VERTEX
  8
0
 10
6.32908806
 20
5.23571519
  0
VERTEX
  8
0
 10
6.54604556
 20
5.19854070
  0
VERTEX
  8
0
 10
6.75758600
 20
5.14616931
  0
VERTEX
  8
0
 10
6.75350852
 20
5.11613076
  0
VERTEX
  8
0
 10
6.74112510
 20
5.08611244
  0
VERTEX
  8
0
 10
6.72982192
 20
4.96910848
  0
VERTEX
  8
0
 10
6.73700987
 20
4.85307739
  0
VERTEX
  8
0
 10
6.75315045
 20
4.83379796
  0
VERTEX
  8
0
 10
6.75182861
 20
4.81434345
  0
VERTEX
  8
0
 10
6.75055624
 20
4.79600510
  0
VERTEX
  8
0
 10
6.76684526
 20
4.78007413
  0
VERTEX
  8
0
 10
6.88860928
 20
4.53938399
  0
VERTEX
  8
0
 10
6.96949616
 20
4.42655844
  0
VERTEX
  8
0
 10
7.06571357
 20
4.31939836
  0
SEQEND
  0
POLYLINE
  8
Default_Layer
 66
   1
 39
0.000000
 70
    1
  0
VERTEX
  8
0
 10
7.11098106
 20
3.93208548
  0
VERTEX
  8
0
 10
7.11149547
 20
3.92920850
  0
VERTEX
  8
0
 10
7.09503456
 20
3.92777002
  0
VERTEX
  8
0
 10
7.09452016
 20
3.93064699
  0
VERTEX
  8
0
 10
7.11098106
 20
3.93208548
  0
SEQEND
  0
POLYLINE
  8
Default_Layer
 66
   1
 39
0.000000
 70
    1
  0
VERTEX
  8
0
 10
6.65676296
 20
6.33687772
  0
VERTEX
  8
0
 10
6.60892345
 20
6.35413957
  0
VERTEX
  8
0
 10
6.54705745
 20
6.35804484
  0
VERTEX
  8
0
 10
6.51948089
 20
6.36401883
  0
VERTEX
  8
0
 10
6.50347078
 20
6.38254971
  0
VERTEX
  8
0
 10
6.48950209
 20
6.41222230
  0
VERTEX
  8
0
 10
6.45768888
 20
6.43541414
  0
VERTEX
  8
0
 10
6.37538436
 20
6.44188734
  0
VERTEX
  8
0
 10
6.38344808
 20
6.52857426
  0
VERTEX
  8
0
 10
6.38136591
 20
6.57269611
  0
VERTEX
  8
0
 10
6.36200987
 20
6.61486551
  0
VERTEX
  8
0
 10
6.40643014
 20
6.60135995
  0
VERTEX
  8
0
 10
6.44019917
 20
6.57674558
  0
VERTEX
  8
0
 10
6.45526759
 20
6.52323976
  0
VERTEX
  8
0
 10
6.46830464
 20
6.50016272
  0
VERTEX
  8
0
 10
6.50604279
 20
6.48827857
  0
VERTEX
  8
0
 10
6.58320329
 20
6.47137634
  0
VERTEX
  8
0
 10
6.59001932
 20
6.43264555
  0
VERTEX
  8
0
 10
6.58526090
 20
6.39441723
  0
VERTEX
  8
0
 10
6.63349392
 20
6.37805025
  0
VERTEX
  8
0
 10
6.65240673
 20
6.36776896
  0
VERTEX
  8
0
 10
6.65779176
 20
6.34874524
  0
VERTEX
  8
0
 10
6.65676296
 20
6.33687772
  0
SEQEND
  0
POLYLINE
  8
Default_Layer
 66
   1
 39
0.000000
 70
    1
  0
VERTEX
  8
0
 10
7.05439670
 20
3.92741039
  0
VERTEX
  8
0
 10
7.05491110
 20
3.92453342
  0
VERTEX
  8
0
 10
7.02867654
 20
3.92201606
  0
VERTEX
  8
0
 10
7.02816213
 20
3.92489304
  0
VERTEX
  8
0
 10
7.05439670
 20
3.92741039
  0
SEQEND
  0
POLYLINE
  8
Default_Layer
 66
   1
 39
0.000000
 70
    1
  0
VERTEX
  8
0
 10
6.72003456
 20
4.11189647
  0
VERTEX
  8
0
 10
6.71694814
 20
4.12843909
  0
VERTEX
  8
0
 10
6.98238024
 20
4.14821830
  0
VERTEX
  8
0
 10
7.00449958
 20
4.13131606
  0
VERTEX
  8
0
 10
6.72003456
 20
4.11189647
  0
SEQEND
  0
POLYLINE
  8
Default_Layer
 66
   1
 39
0.000000
 70
    1
  0
VERTEX
  8
0
 10
6.60069300
 20
6.17936329
  0
VERTEX
  8
0
 10
6.60429382
 20
6.18943270
  0
VERTEX
  8
0
 10
6.62744197
 20
6.17684593
  0
VERTEX
  8
0
 10
6.60069300
 20
6.17936329
  0
SEQEND
  0
POLYLINE
  8
Default_Layer
 66
   1
 39
0.000000
 70
    1
  0
VERTEX
  8
0
 10
6.71643374
 20
5.58886398
  0
VERTEX
  8
0
 10
6.68917036
 20
5.59317944
  0
VERTEX
  8
0
 10
6.70512015
 20
5.59817082
  0
VERTEX
  8
0
 10
6.71643374
 20
5.58886398
  0
SEQEND
  0
POLYLINE
  8
Default_Layer
 66
   1
 39
0.000000
 70
    1
  0
VERTEX
  8
0
 10
6.98135143
 20
4.03349888
  0
VERTEX
  8
0
 10
6.97672180
 20
4.05867242
  0
VERTEX
  8
0
 10
6.98392345
 20
4.05903204
  0
VERTEX
  8
0
 10
6.98135143
 20
4.03349888
  0
SEQEND
  0
POLYLINE
  8
Default_Layer
 66
   1
 39
0.000000
 70
    1
  0
VERTEX
  8
0
 10
6.72517859
 20
4.15433187
  0
VERTEX
  8
0
 10
6.75038436
 20
4.33773908
  0
VERTEX
  8
0
 10
6.75398518
 20
4.33989682
  0
VERTEX
  8
0
 10
6.95408806
 20
4.17195335
  0
VERTEX
  8
0
 10
6.72517859
 20
4.15433187
  0
SEQEND
  0
POLYLINE
  8
Default_Layer
 66
   1
 39
0.000000
 70
    1
  0
VERTEX
  8
0
 10
6.61766831
 20
5.90605057
  0
VERTEX
  8
0
 10
6.61921152
 20
5.91288339
  0
VERTEX
  8
0
 10
6.63773003
 20
5.90281398
  0
VERTEX
  8
0
 10
6.61766831
 20
5.90605057
  0
SEQEND
  0
POLYLINE
  8
Default_Layer
 66
   1
 39
0.000000
 70
    1
  0
VERTEX
  8
0
 10
6.59143374
 20
5.84815143
  0
VERTEX
  8
0
 10
6.58865185
 20
5.86430570
  0
VERTEX
  8
0
 10
6.59554896
 20
5.88051741
  0
VERTEX
  8
0
 10
6.62949958
 20
5.87871930
  0
VERTEX
  8
0
 10
6.59143374
 20
5.84815143
  0
SEQEND
  0
POLYLINE
  8
Default_Layer
 66
   1
 39
0.000000
 70
    1
  0
VERTEX
  8
0
 10
6.51067242
 20
6.07579215
  0
VERTEX
  8
0
 10
6.52190493
 20
6.02955160
  0
VERTEX
  8
0
 10
6.53433497
 20
5.98121157
  0
VERTEX
  8
0
 10
6.33351058
 20
6.04806161
  0
VERTEX
  8
0
 10
6.11972592
 20
6.08154610
  0
VERTEX
  8
0
 10
6.09817911
 20
6.17064272
  0
VERTEX
  8
0
 10
6.10480822
 20
6.26135710
  0
VERTEX
  8
0
 10
6.11509629
 20
6.26711105
  0
VERTEX
  8
0
 10
6.34351006
 20
6.24797305
  0
VERTEX
  8
0
 10
6.56262715
 20
6.20453682
  0
VERTEX
  8
0
 10
6.52551958
 20
6.14110863
  0
VERTEX
  8
0
 10
6.51067242
 20
6.07579215
  0
SEQEND
  0
POLYLINE
  8
Default_Layer
 66
   1
 39
0.000000
 70
    1
  0
VERTEX
  8
0
 10
6.73135143
 20
5.19759526
  0
VERTEX
  8
0
 10
6.64509256
 20
5.32475458
  0
VERTEX
  8
0
 10
6.62152707
 20
5.39322257
  0
VERTEX
  8
0
 10
6.62024032
 20
5.46515402
  0
VERTEX
  8
0
 10
6.64046577
 20
5.39470438
  0
VERTEX
  8
0
 10
6.67203964
 20
5.32890439
  0
VERTEX
  8
0
 10
6.73855308
 20
5.19831450
  0
VERTEX
  8
0
 10
6.73135143
 20
5.19759526
  0
SEQEND
  0
POLYLINE
  8
Default_Layer
 66
   1
 39
0.000000
 70
    1
  0
VERTEX
  8
0
 10
6.97414979
 20
3.76989596
  0
VERTEX
  8
0
 10
6.83886172
 20
3.77493067
  0
VERTEX
  8
0
 10
6.77147489
 20
3.77600954
  0
VERTEX
  8
0
 10
6.75048987
 20
3.82454911
  0
VERTEX
  8
0
 10
6.74819284
 20
3.84717621
  0
VERTEX
  8
0
 10
6.77250370
 20
3.86807277
  0
VERTEX
  8
0
 10
6.77970534
 20
3.88245765
  0
VERTEX
  8
0
 10
6.78222258
 20
3.87704295
  0
VERTEX
  8
0
 10
6.77867654
 20
3.87059012
  0
VERTEX
  8
0
 10
6.79779684
 20
3.84593835
  0
VERTEX
  8
0
 10
6.83217448
 20
3.82995284
  0
VERTEX
  8
0
 10
6.91396460
 20
3.84182036
  0
VERTEX
  8
0
 10
6.93310664
 20
3.86348511
  0
VERTEX
  8
0
 10
6.96694814
 20
3.86807277
  0
VERTEX
  8
0
 10
6.97284854
 20
3.81726357
  0
VERTEX
  8
0
 10
6.97414979
 20
3.76989596
  0
SEQEND
  0
POLYLINE
  8
Default_Layer
 66
   1
 39
0.000000
 70
    1
  0
VERTEX
  8
0
 10
6.62384115
 20
5.58095230
  0
VERTEX
  8
0
 10
6.58850706
 20
5.48720852
  0
VERTEX
  8
0
 10
6.59142769
 20
5.38989511
  0
VERTEX
  8
0
 10
6.62624436
 20
5.29478839
  0
VERTEX
  8
0
 10
6.68659835
 20
5.20766467
  0
VERTEX
  8
0
 10
6.48979331
 20
5.26908748
  0
VERTEX
  8
0
 10
6.28484938
 20
5.31231467
  0
VERTEX
  8
0
 10
6.24611174
 20
5.38072158
  0
VERTEX
  8
0
 10
6.23056131
 20
5.45628066
  0
VERTEX
  8
0
 10
6.23971150
 20
5.53178114
  0
VERTEX
  8
0
 10
6.27507571
 20
5.60001226
  0
VERTEX
  8
0
 10
6.33236288
 20
5.58444234
  0
VERTEX
  8
0
 10
6.36180922
 20
5.57700521
  0
VERTEX
  8
0
 10
6.39184526
 20
5.58167154
  0
VERTEX
  8
0
 10
6.38313294
 20
5.61532083
  0
VERTEX
  8
0
 10
6.37488071
 20
5.63160931
  0
VERTEX
  8
0
 10
6.35223621
 20
5.63993030
  0
VERTEX
  8
0
 10
6.28866766
 20
5.65235259
  0
VERTEX
  8
0
 10
6.26398751
 20
5.66429688
  0
VERTEX
  8
0
 10
6.25295637
 20
5.68704078
  0
VERTEX
  8
0
 10
6.45768766
 20
5.66787221
  0
VERTEX
  8
0
 10
6.65110452
 20
5.61835298
  0
VERTEX
  8
0
 10
6.62384115
 20
5.58095230
  0
SEQEND
  0
POLYLINE
  8
Default_Layer
 66
   1
 39
0.000000
 70
    1
  0
VERTEX
  8
0
 10
6.94842962
 20
3.72566246
  0
VERTEX
  8
0
 10
6.93762715
 20
3.73141641
  0
VERTEX
  8
0
 10
6.94174238
 20
3.74544167
  0
VERTEX
  8
0
 10
6.95871769
 20
3.74508205
  0
VERTEX
  8
0
 10
6.95930784
 20
3.73247253
  0
VERTEX
  8
0
 10
6.94842962
 20
3.72566246
  0
SEQEND
  0
POLYLINE
  8
Default_Layer
 66
   1
 39
0.000000
 70
    1
  0
VERTEX
  8
0
 10
6.59812098
 20
5.67265590
  0
VERTEX
  8
0
 10
6.41186076
 20
5.73172049
  0
VERTEX
  8
0
 10
6.21849135
 20
5.77119233
  0
VERTEX
  8
0
 10
6.20809738
 20
5.85001675
  0
VERTEX
  8
0
 10
6.21334732
 20
5.93014525
  0
VERTEX
  8
0
 10
6.27970534
 20
5.91719886
  0
VERTEX
  8
0
 10
6.28742139
 20
5.92978563
  0
VERTEX
  8
0
 10
6.27970534
 20
5.97401913
  0
VERTEX
  8
0
 10
6.20563127
 20
5.99811380
  0
VERTEX
  8
0
 10
6.25298724
 20
5.99340069
  0
VERTEX
  8
0
 10
6.30336789
 20
5.98984250
  0
VERTEX
  8
0
 10
6.56108394
 20
5.93949542
  0
VERTEX
  8
0
 10
6.56135471
 20
5.90417308
  0
VERTEX
  8
0
 10
6.55439670
 20
5.86829027
  0
VERTEX
  8
0
 10
6.56506247
 20
5.76802784
  0
VERTEX
  8
0
 10
6.59812098
 20
5.67265590
  0
SEQEND
  0
POLYLINE
  8
Default_Layer
 66
   1
 39
0.000000
 70
    1
  0
VERTEX
  8
0
 10
6.86869711
 20
3.85260902
  0
VERTEX
  8
0
 10
6.83504909
 20
3.85287105
  0
VERTEX
  8
0
 10
6.81571357
 20
3.86663428
  0
VERTEX
  8
0
 10
6.84835368
 20
3.87470244
  0
VERTEX
  8
0
 10
6.88875884
 20
3.87310747
  0
VERTEX
  8
0
 10
6.88387246
 20
3.86074043
  0
VERTEX
  8
0
 10
6.86869711
 20
3.85260902
  0
SEQEND
  0
POLYLINE
  8
Default_Layer
 66
   1
 39
0.000000
 70
    1
  0
VERTEX
  8
0
 10
6.87229794
 20
3.72098737
  0
VERTEX
  8
0
 10
6.87075473
 20
3.74436280
  0
VERTEX
  8
0
 10
6.89750370
 20
3.74472242
  0
VERTEX
  8
0
 10
6.89853250
 20
3.72314511
  0
VERTEX
  8
0
 10
6.87229794
 20
3.72098737
  0
SEQEND
  0
POLYLINE
  8
Default_Layer
 66
   1
 39
0.000000
 70
    1
  0
VERTEX
  8
0
 10
6.63001399
 20
5.20083186
  0
VERTEX
  8
0
 10
6.31005514
 20
5.26448495
  0
VERTEX
  8
0
 10
6.29668065
 20
5.28498340
  0
VERTEX
  8
0
 10
6.46289529
 20
5.25184527
  0
VERTEX
  8
0
 10
6.62949958
 20
5.20550694
  0
VERTEX
  8
0
 10
6.63001399
 20
5.20083186
  0
SEQEND
  0
POLYLINE
  8
Default_Layer
 66
   1
 39
0.000000
 70
    1
  0
VERTEX
  8
0
 10
6.42888230
 20
6.25668201
  0
VERTEX
  8
0
 10
6.30748312
 20
6.27861895
  0
VERTEX
  8
0
 10
6.30084870
 20
6.31664849
  0
VERTEX
  8
0
 10
6.31339734
 20
6.35227111
  0
VERTEX
  8
0
 10
6.35738024
 20
6.41887153
  0
VERTEX
  8
0
 10
6.36252427
 20
6.41923115
  0
VERTEX
  8
0
 10
6.39971525
 20
6.33945513
  0
VERTEX
  8
0
 10
6.42888230
 20
6.25668201
  0
SEQEND
  0
POLYLINE
  8
Default_Layer
 66
   1
 39
0.000000
 70
    1
  0
VERTEX
  8
0
 10
6.29359423
 20
6.02904129
  0
VERTEX
  8
0
 10
6.47312098
 20
5.97869422
  0
VERTEX
  8
0
 10
6.29719506
 20
6.01070057
  0
VERTEX
  8
0
 10
6.29359423
 20
6.02904129
  0
SEQEND
  0
POLYLINE
  8
Default_Layer
 66
   1
 39
0.000000
 70
    1
  0
VERTEX
  8
0
 10
6.62126913
 20
5.07568340
  0
VERTEX
  8
0
 10
6.55645431
 20
5.08611244
  0
VERTEX
  8
0
 10
6.55954073
 20
5.10085694
  0
VERTEX
  8
0
 10
6.59599482
 20
5.09250108
  0
VERTEX
  8
0
 10
6.62126913
 20
5.07568340
  0
SEQEND
  0
POLYLINE
  8
Default_Layer
 66
   1
 39
0.000000
 70
    1
  0
VERTEX
  8
0
 10
6.35172180
 20
6.50554043
  0
VERTEX
  8
0
 10
6.32342962
 20
6.61162892
  0
VERTEX
  8
0
 10
6.35399585
 20
6.56105379
  0
VERTEX
  8
0
 10
6.35172180
 20
6.50554043
  0
SEQEND
  0
POLYLINE
  8
Default_Layer
 66
   1
 39
0.000000
 70
    1
  0
VERTEX
  8
0
 10
6.28279176
 20
5.70825848
  0
VERTEX
  8
0
 10
6.27816213
 20
5.73415126
  0
VERTEX
  8
0
 10
6.50912921
 20
5.67876948
  0
VERTEX
  8
0
 10
6.28279176
 20
5.70825848
  0
SEQEND
  0
POLYLINE
  8
Default_Layer
 66
   1
 39
0.000000
 70
    1
  0
VERTEX
  8
0
 10
6.82857366
 20
3.72206624
  0
VERTEX
  8
0
 10
6.79873827
 20
3.71775078
  0
VERTEX
  8
0
 10
6.79976707
 20
3.75011675
  0
VERTEX
  8
0
 10
6.82703045
 20
3.74759940
  0
VERTEX
  8
0
 10
6.82857366
 20
3.72206624
  0
SEQEND
  0
POLYLINE
  8
Default_Layer
 66
   1
 39
0.000000
 70
    1
  0
VERTEX
  8
0
 10
6.55491110
 20
4.39815558
  0
VERTEX
  8
0
 10
6.54205102
 20
4.45569510
  0
VERTEX
  8
0
 10
6.63499907
 20
4.42517191
  0
VERTEX
  8
0
 10
6.68058357
 20
4.40527770
  0
VERTEX
  8
0
 10
6.71437613
 20
4.37657826
  0
VERTEX
  8
0
 10
6.63427324
 20
4.38330458
  0
VERTEX
  8
0
 10
6.55491110
 20
4.39815558
  0
SEQEND
  0
POLYLINE
  8
Default_Layer
 66
   1
 39
0.000000
 70
    1
  0
VERTEX
  8
0
 10
6.30696872
 20
6.39405761
  0
VERTEX
  8
0
 10
6.31053418
 20
6.46954735
  0
VERTEX
  8
0
 10
6.31365596
 20
6.54725658
  0
VERTEX
  8
0
 10
6.34091934
 20
6.47209558
  0
VERTEX
  8
0
 10
6.30696872
 20
6.39405761
  0
SEQEND
  0
POLYLINE
  8
Default_Layer
 66
   1
 39
0.000000
 70
    1
  0
VERTEX
  8
0
 10
6.63361481
 20
4.45173925
  0
VERTEX
  8
0
 10
6.31299097
 20
4.54208560
  0
VERTEX
  8
0
 10
5.97466419
 20
4.58839561
  0
VERTEX
  8
0
 10
5.96334732
 20
4.59702654
  0
VERTEX
  8
0
 10
5.77764773
 20
5.04295780
  0
VERTEX
  8
0
 10
5.76266419
 20
5.12699746
  0
VERTEX
  8
0
 10
5.75810041
 20
5.21054165
  0
VERTEX
  8
0
 10
5.83442776
 20
5.21567813
  0
VERTEX
  8
0
 10
5.91396460
 20
5.20730505
  0
VERTEX
  8
0
 10
6.17321621
 20
5.17774547
  0
VERTEX
  8
0
 10
6.42682468
 20
5.13178443
  0
VERTEX
  8
0
 10
6.47781227
 20
5.12244258
  0
VERTEX
  8
0
 10
6.51581645
 20
5.10409354
  0
VERTEX
  8
0
 10
6.48090783
 20
4.99970009
  0
VERTEX
  8
0
 10
6.46900575
 20
4.89083770
  0
VERTEX
  8
0
 10
6.48442441
 20
4.77425450
  0
VERTEX
  8
0
 10
6.51489824
 20
4.66082321
  0
VERTEX
  8
0
 10
6.56357809
 20
4.55262455
  0
VERTEX
  8
0
 10
6.63361481
 20
4.45173925
  0
SEQEND
  0
POLYLINE
  8
Default_Layer
 66
   1
 39
0.000000
 70
    1
  0
VERTEX
  8
0
 10
6.74832674
 20
3.71739115
  0
VERTEX
  8
0
 10
6.73340905
 20
3.74723978
  0
VERTEX
  8
0
 10
6.74767827
 20
3.73467589
  0
VERTEX
  8
0
 10
6.74832674
 20
3.71739115
  0
SEQEND
  0
POLYLINE
  8
Default_Layer
 66
   1
 39
0.000000
 70
    1
  0
VERTEX
  8
0
 10
6.73598106
 20
3.77097483
  0
VERTEX
  8
0
 10
6.72466419
 20
3.77205370
  0
VERTEX
  8
0
 10
6.72723621
 20
3.78176349
  0
VERTEX
  8
0
 10
6.73598106
 20
3.77097483
  0
SEQEND
  0
POLYLINE
  8
Default_Layer
 66
   1
 39
0.000000
 70
    1
  0
VERTEX
  8
0
 10
6.72414979
 20
3.80010421
  0
VERTEX
  8
0
 10
6.71334732
 20
3.80621778
  0
VERTEX
  8
0
 10
6.71437613
 20
3.81592758
  0
VERTEX
  8
0
 10
6.72414979
 20
3.80010421
  0
SEQEND
  0
POLYLINE
  8
Default_Layer
 66
   1
 39
0.000000
 70
    1
  0
VERTEX
  8
0
 10
6.70408806
 20
3.83390868
  0
VERTEX
  8
0
 10
6.70357366
 20
3.83570679
  0
VERTEX
  8
0
 10
6.71334732
 20
3.83642603
  0
VERTEX
  8
0
 10
6.71386172
 20
3.83462792
  0
VERTEX
  8
0
 10
6.70408806
 20
3.83390868
  0
SEQEND
  0
POLYLINE
  8
Default_Layer
 66
   1
 39
0.000000
 70
    1
  0
VERTEX
  8
0
 10
6.70357366
 20
3.85908222
  0
VERTEX
  8
0
 10
6.69127948
 20
3.86972928
  0
VERTEX
  8
0
 10
6.68505514
 20
3.88605387
  0
VERTEX
  8
0
 10
6.69431440
 20
3.88857122
  0
VERTEX
  8
0
 10
6.70357366
 20
3.85908222
  0
SEQEND
  0
POLYLINE
  8
Default_Layer
 66
   1
 39
0.000000
 70
    1
  0
VERTEX
  8
0
 10
6.59709217
 20
4.29422482
  0
VERTEX
  8
0
 10
6.57034320
 20
4.36722809
  0
VERTEX
  8
0
 10
6.61200987
 20
4.36111451
  0
VERTEX
  8
0
 10
6.59709217
 20
4.29422482
  0
SEQEND
  0
POLYLINE
  8
Default_Layer
 66
   1
 39
0.000000
 70
    1
  0
VERTEX
  8
0
 10
6.69379999
 20
3.74076658
  0
VERTEX
  8
0
 10
6.67605147
 20
3.73915597
  0
VERTEX
  8
0
 10
6.66242139
 20
3.74508205
  0
VERTEX
  8
0
 10
6.69277119
 20
3.74580129
  0
VERTEX
  8
0
 10
6.69379999
 20
3.74076658
  0
SEQEND
  0
POLYLINE
  8
Default_Layer
 66
   1
 39
0.000000
 70
    1
  0
VERTEX
  8
0
 10
6.68556954
 20
3.77061521
  0
VERTEX
  8
0
 10
6.65470534
 20
3.77277294
  0
VERTEX
  8
0
 10
6.65316213
 20
3.77960576
  0
VERTEX
  8
0
 10
6.67431838
 20
3.78062119
  0
VERTEX
  8
0
 10
6.68556954
 20
3.77061521
  0
SEQEND
  0
POLYLINE
  8
Default_Layer
 66
   1
 39
0.000000
 70
    1
  0
VERTEX
  8
0
 10
6.67579588
 20
3.80298119
  0
VERTEX
  8
0
 10
6.64596049
 20
3.80549854
  0
VERTEX
  8
0
 10
6.64493168
 20
3.81197174
  0
VERTEX
  8
0
 10
6.66570329
 20
3.81311219
  0
VERTEX
  8
0
 10
6.67579588
 20
3.80298119
  0
SEQEND
  0
POLYLINE
  8
Default_Layer
 66
   1
 39
0.000000
 70
    1
  0
VERTEX
  8
0
 10
6.63412921
 20
3.83282981
  0
VERTEX
  8
0
 10
6.62538436
 20
3.85944184
  0
VERTEX
  8
0
 10
6.66345020
 20
3.83534717
  0
VERTEX
  8
0
 10
6.63412921
 20
3.83282981
  0
SEQEND
  0
POLYLINE
  8
Default_Layer
 66
   1
 39
0.000000
 70
    1
  0
VERTEX
  8
0
 10
6.34349135
 20
5.60792395
  0
VERTEX
  8
0
 10
6.29050781
 20
5.62482618
  0
VERTEX
  8
0
 10
6.28947901
 20
5.62950127
  0
VERTEX
  8
0
 10
6.34349135
 20
5.60792395
  0
SEQEND
  0
POLYLINE
  8
Default_Layer
 66
   1
 39
0.000000
 70
    1
  0
VERTEX
  8
0
 10
6.58268888
 20
4.22445816
  0
VERTEX
  8
0
 10
6.56062985
 20
4.22611260
  0
VERTEX
  8
0
 10
6.55336789
 20
4.23848341
  0
VERTEX
  8
0
 10
6.55182468
 20
4.24819321
  0
VERTEX
  8
0
 10
6.57490570
 20
4.24359872
  0
VERTEX
  8
0
 10
6.58268888
 20
4.22445816
  0
SEQEND
  0
POLYLINE
  8
Default_Layer
 66
   1
 39
0.000000
 70
    1
  0
VERTEX
  8
0
 10
6.58114567
 20
4.17554957
  0
VERTEX
  8
0
 10
6.56571357
 20
4.20252122
  0
VERTEX
  8
0
 10
6.57933433
 20
4.19424294
  0
VERTEX
  8
0
 10
6.58114567
 20
4.17554957
  0
SEQEND
  0
POLYLINE
  8
Default_Layer
 66
   1
 39
0.000000
 70
    1
  0
VERTEX
  8
0
 10
6.62847078
 20
3.93783943
  0
VERTEX
  8
0
 10
6.62898518
 20
3.93496246
  0
VERTEX
  8
0
 10
6.61921152
 20
3.93424321
  0
VERTEX
  8
0
 10
6.61869711
 20
3.93712019
  0
VERTEX
  8
0
 10
6.62847078
 20
3.93783943
  0
SEQEND
  0
POLYLINE
  8
Default_Layer
 66
   1
 39
0.000000
 70
    1
  0
VERTEX
  8
0
 10
5.83628971
 20
6.76482788
  0
VERTEX
  8
0
 10
5.75141316
 20
6.78568596
  0
VERTEX
  8
0
 10
5.73513815
 20
6.84966689
  0
VERTEX
  8
0
 10
5.70100164
 20
6.90759781
  0
VERTEX
  8
0
 10
5.76048556
 20
6.91396748
  0
VERTEX
  8
0
 10
5.82240082
 20
6.90148424
  0
VERTEX
  8
0
 10
5.88868811
 20
6.83982440
  0
VERTEX
  8
0
 10
5.93006387
 20
6.81842327
  0
VERTEX
  8
0
 10
5.98803868
 20
6.81769232
  0
VERTEX
  8
0
 10
6.03702099
 20
6.82045785
  0
VERTEX
  8
0
 10
6.08268888
 20
6.81121912
  0
VERTEX
  8
0
 10
6.12898518
 20
6.77993201
  0
VERTEX
  8
0
 10
6.05110987
 20
6.76446867
  0
VERTEX
  8
0
 10
5.97509462
 20
6.73461033
  0
VERTEX
  8
0
 10
5.90285077
 20
6.72363680
  0
VERTEX
  8
0
 10
5.86874043
 20
6.73563177
  0
VERTEX
  8
0
 10
5.83628971
 20
6.76482788
  0
SEQEND
  0
POLYLINE
  8
Default_Layer
 66
   1
 39
0.000000
 70
    1
  0
VERTEX
  8
0
 10
6.56777119
 20
4.26833204
  0
VERTEX
  8
0
 10
6.54050781
 20
4.27264750
  0
VERTEX
  8
0
 10
6.53742139
 20
4.29098822
  0
VERTEX
  8
0
 10
6.56012079
 20
4.28503275
  0
VERTEX
  8
0
 10
6.56777119
 20
4.26833204
  0
SEQEND
  0
POLYLINE
  8
Default_Layer
 66
   1
 39
0.000000
 70
    1
  0
VERTEX
  8
0
 10
6.59554896
 20
3.95833789
  0
VERTEX
  8
0
 10
6.59503456
 20
3.96229373
  0
VERTEX
  8
0
 10
6.62126913
 20
3.96445146
  0
VERTEX
  8
0
 10
6.62229794
 20
3.95797826
  0
VERTEX
  8
0
 10
6.59554896
 20
3.95833789
  0
SEQEND
  0
POLYLINE
  8
Default_Layer
 66
   1
 39
0.000000
 70
    1
  0
VERTEX
  8
0
 10
6.55285349
 20
4.31580214
  0
VERTEX
  8
0
 10
6.52554144
 20
4.32107191
  0
VERTEX
  8
0
 10
6.51478765
 20
4.34097568
  0
VERTEX
  8
0
 10
6.51427324
 20
4.34277379
  0
VERTEX
  8
0
 10
6.54259693
 20
4.33743071
  0
VERTEX
  8
0
 10
6.55285349
 20
4.31580214
  0
SEQEND
  0
POLYLINE
  8
Default_Layer
 66
   1
 39
0.000000
 70
    1
  0
VERTEX
  8
0
 10
6.62126913
 20
3.88245765
  0
VERTEX
  8
0
 10
6.61663950
 20
3.89396555
  0
VERTEX
  8
0
 10
6.62641316
 20
3.89468479
  0
VERTEX
  8
0
 10
6.62126913
 20
3.88245765
  0
SEQEND
  0
POLYLINE
  8
Default_Layer
 66
   1
 39
0.000000
 70
    1
  0
VERTEX
  8
0
 10
6.53484938
 20
4.36111451
  0
VERTEX
  8
0
 10
6.50192757
 20
4.37513977
  0
VERTEX
  8
0
 10
6.52761050
 20
4.37516297
  0
VERTEX
  8
0
 10
6.53484938
 20
4.36111451
  0
SEQEND
  0
POLYLINE
  8
Default_Layer
 66
   1
 39
0.000000
 70
    1
  0
VERTEX
  8
0
 10
6.12435555
 20
6.28437291
  0
VERTEX
  8
0
 10
6.12332674
 20
6.29336346
  0
VERTEX
  8
0
 10
6.19842962
 20
6.28796913
  0
VERTEX
  8
0
 10
6.19894403
 20
6.28401328
  0
VERTEX
  8
0
 10
6.12435555
 20
6.28437291
  0
SEQEND
  0
POLYLINE
  8
Default_Layer
 66
   1
 39
0.000000
 70
    1
  0
VERTEX
  8
0
 10
6.14235966
 20
6.31817737
  0
VERTEX
  8
0
 10
6.15782449
 20
6.32365878
  0
VERTEX
  8
0
 10
6.17579588
 20
6.32105435
  0
VERTEX
  8
0
 10
6.18659835
 20
6.31530040
  0
VERTEX
  8
0
 10
6.14235966
 20
6.31817737
  0
SEQEND
  0
POLYLINE
  8
Default_Layer
 66
   1
 39
0.000000
 70
    1
  0
VERTEX
  8
0
 10
6.24781234
 20
5.94776673
  0
VERTEX
  8
0
 10
6.22748441
 20
5.95022110
  0
VERTEX
  8
0
 10
6.22466419
 20
5.96143236
  0
VERTEX
  8
0
 10
6.22723621
 20
5.96970367
  0
VERTEX
  8
0
 10
6.24581112
 20
5.96232782
  0
VERTEX
  8
0
 10
6.24781234
 20
5.94776673
  0
SEQEND
  0
POLYLINE
  8
Default_Layer
 66
   1
 39
0.000000
 70
    1
  0
VERTEX
  8
0
 10
6.51478765
 20
4.42117138
  0
VERTEX
  8
0
 10
6.49334294
 20
4.42583497
  0
VERTEX
  8
0
 10
6.48446570
 20
4.43981599
  0
VERTEX
  8
0
 10
6.47466419
 20
4.47331657
  0
VERTEX
  8
0
 10
6.49498396
 20
4.47274307
  0
VERTEX
  8
0
 10
6.50810041
 20
4.45965094
  0
VERTEX
  8
0
 10
6.51478765
 20
4.42117138
  0
SEQEND
  0
POLYLINE
  8
Default_Layer
 66
   1
 39
0.000000
 70
    1
  0
VERTEX
  8
0
 10
6.49626913
 20
4.40498840
  0
VERTEX
  8
0
 10
6.52096049
 20
4.40031331
  0
VERTEX
  8
0
 10
6.49729794
 20
4.39995369
  0
VERTEX
  8
0
 10
6.49626913
 20
4.40498840
  0
SEQEND
  0
POLYLINE
  8
Default_Layer
 66
   1
 39
0.000000
 70
    1
  0
VERTEX
  8
0
 10
6.56159835
 20
4.09643273
  0
VERTEX
  8
0
 10
6.55028148
 20
4.09751159
  0
VERTEX
  8
0
 10
6.54134558
 20
4.11860275
  0
VERTEX
  8
0
 10
6.54770946
 20
4.13742964
  0
VERTEX
  8
0
 10
6.56212394
 20
4.13675287
  0
VERTEX
  8
0
 10
6.56879999
 20
4.12736022
  0
VERTEX
  8
0
 10
6.57114651
 20
4.11097189
  0
VERTEX
  8
0
 10
6.56159835
 20
4.09643273
  0
SEQEND
  0
POLYLINE
  8
Default_Layer
 66
   1
 39
0.000000
 70
    1
  0
VERTEX
  8
0
 10
6.53690699
 20
4.15684922
  0
VERTEX
  8
0
 10
6.51890287
 20
4.20539819
  0
VERTEX
  8
0
 10
6.54359423
 20
4.20072311
  0
VERTEX
  8
0
 10
6.55171666
 20
4.17315071
  0
VERTEX
  8
0
 10
6.55173790
 20
4.16160872
  0
VERTEX
  8
0
 10
6.53690699
 20
4.15684922
  0
SEQEND
  0
POLYLINE
  8
Default_Layer
 66
   1
 39
0.000000
 70
    1
  0
VERTEX
  8
0
 10
6.59503456
 20
3.74436280
  0
VERTEX
  8
0
 10
6.62589876
 20
3.74508205
  0
VERTEX
  8
0
 10
6.59503456
 20
3.74436280
  0
SEQEND
  0
POLYLINE
  8
Default_Layer
 66
   1
 39
0.000000
 70
    1
  0
VERTEX
  8
0
 10
6.56314156
 20
4.06334751
  0
VERTEX
  8
0
 10
6.55799752
 20
4.07665352
  0
VERTEX
  8
0
 10
6.56519917
 20
4.07737276
  0
VERTEX
  8
0
 10
6.56314156
 20
4.06334751
  0
SEQEND
  0
POLYLINE
  8
Default_Layer
 66
   1
 39
0.000000
 70
    1
  0
VERTEX
  8
0
 10
6.61869711
 20
3.76989596
  0
VERTEX
  8
0
 10
6.59708909
 20
3.76728389
  0
VERTEX
  8
0
 10
6.58011687
 20
3.77313256
  0
VERTEX
  8
0
 10
6.57908806
 20
3.78104425
  0
VERTEX
  8
0
 10
6.60456986
 20
3.78175976
  0
VERTEX
  8
0
 10
6.61869711
 20
3.76989596
  0
SEQEND
  0
POLYLINE
  8
Default_Layer
 66
   1
 39
0.000000
 70
    1
  0
VERTEX
  8
0
 10
6.53176296
 20
4.22697551
  0
VERTEX
  8
0
 10
6.50966220
 20
4.22961060
  0
VERTEX
  8
0
 10
6.50192757
 20
4.24603548
  0
VERTEX
  8
0
 10
6.51077402
 20
4.25022975
  0
VERTEX
  8
0
 10
6.52353250
 20
4.24963170
  0
VERTEX
  8
0
 10
6.53176296
 20
4.22697551
  0
SEQEND
  0
POLYLINE
  8
Default_Layer
 66
   1
 39
0.000000
 70
    1
  0
VERTEX
  8
0
 10
6.59657777
 20
3.83139132
  0
VERTEX
  8
0
 10
6.57255244
 20
3.82975334
  0
VERTEX
  8
0
 10
6.55902633
 20
3.84002225
  0
VERTEX
  8
0
 10
6.57017686
 20
3.85254694
  0
VERTEX
  8
0
 10
6.59194814
 20
3.85944184
  0
VERTEX
  8
0
 10
6.59694370
 20
3.84528172
  0
VERTEX
  8
0
 10
6.59657777
 20
3.83139132
  0
SEQEND
  0
POLYLINE
  8
Default_Layer
 66
   1
 39
0.000000
 70
    1
  0
VERTEX
  8
0
 10
6.60635143
 20
3.80190232
  0
VERTEX
  8
0
 10
6.57188641
 20
3.80585816
  0
VERTEX
  8
0
 10
6.60635143
 20
3.80190232
  0
SEQEND
  0
POLYLINE
  8
Default_Layer
 66
   1
 39
0.000000
 70
    1
  0
VERTEX
  8
0
 10
6.51735966
 20
4.26869166
  0
VERTEX
  8
0
 10
6.49781234
 20
4.26905128
  0
VERTEX
  8
0
 10
6.48855308
 20
4.29854029
  0
VERTEX
  8
0
 10
6.51014310
 20
4.29381746
  0
VERTEX
  8
0
 10
6.51735966
 20
4.26869166
  0
SEQEND
  0
POLYLINE
  8
Default_Layer
 66
   1
 39
0.000000
 70
    1
  0
VERTEX
  8
0
 10
6.49884115
 20
4.31795987
  0
VERTEX
  8
0
 10
6.47554652
 20
4.32434838
  0
VERTEX
  8
0
 10
6.47054896
 20
4.34385266
  0
VERTEX
  8
0
 10
6.46952016
 20
4.35068547
  0
VERTEX
  8
0
 10
6.49699084
 20
4.33988369
  0
VERTEX
  8
0
 10
6.49884115
 20
4.31795987
  0
SEQEND
  0
POLYLINE
  8
Default_Layer
 66
   1
 39
0.000000
 70
    1
  0
VERTEX
  8
0
 10
6.56519917
 20
3.88245765
  0
VERTEX
  8
0
 10
6.54256543
 20
3.89252706
  0
VERTEX
  8
0
 10
6.54153662
 20
3.89900026
  0
VERTEX
  8
0
 10
6.57240082
 20
3.89792139
  0
VERTEX
  8
0
 10
6.56519917
 20
3.88245765
  0
SEQEND
  0
POLYLINE
  8
Default_Layer
 66
   1
 39
0.000000
 70
    1
  0
VERTEX
  8
0
 10
6.46694814
 20
4.36722809
  0
VERTEX
  8
0
 10
6.46128971
 20
4.38125334
  0
VERTEX
  8
0
 10
6.48546666
 20
4.37154355
  0
VERTEX
  8
0
 10
6.46694814
 20
4.36722809
  0
SEQEND
  0
POLYLINE
  8
Default_Layer
 66
   1
 39
0.000000
 70
    1
  0
VERTEX
  8
0
 10
6.55439670
 20
3.96193411
  0
VERTEX
  8
0
 10
6.55491110
 20
3.95905713
  0
VERTEX
  8
0
 10
6.52867654
 20
3.95653978
  0
VERTEX
  8
0
 10
6.52816213
 20
3.95977637
  0
VERTEX
  8
0
 10
6.55439670
 20
3.96193411
  0
SEQEND
  0
POLYLINE
  8
Default_Layer
 66
   1
 39
0.000000
 70
    1
  0
VERTEX
  8
0
 10
6.47466419
 20
4.40319029
  0
VERTEX
  8
0
 10
6.44945843
 20
4.41074235
  0
VERTEX
  8
0
 10
6.47466419
 20
4.40319029
  0
SEQEND
  0
POLYLINE
  8
Default_Layer
 66
   1
 39
0.000000
 70
    1
  0
VERTEX
  8
0
 10
6.54410864
 20
4.00508874
  0
VERTEX
  8
0
 10
6.52286783
 20
4.00304811
  0
VERTEX
  8
0
 10
6.50964361
 20
4.00976383
  0
VERTEX
  8
0
 10
6.50861481
 20
4.01659665
  0
VERTEX
  8
0
 10
6.53209340
 20
4.01643877
  0
VERTEX
  8
0
 10
6.54410864
 20
4.00508874
  0
SEQEND
  0
POLYLINE
  8
Default_Layer
 66
   1
 39
0.000000
 70
    1
  0
VERTEX
  8
0
 10
6.53124855
 20
4.03709510
  0
VERTEX
  8
0
 10
6.51146924
 20
4.03375034
  0
VERTEX
  8
0
 10
6.50225942
 20
4.04173333
  0
VERTEX
  8
0
 10
6.48855308
 20
4.06658410
  0
VERTEX
  8
0
 10
6.49112510
 20
4.07593428
  0
VERTEX
  8
0
 10
6.52044608
 20
4.07629390
  0
VERTEX
  8
0
 10
6.53124855
 20
4.03709510
  0
SEQEND
  0
POLYLINE
  8
Default_Layer
 66
   1
 39
0.000000
 70
    1
  0
VERTEX
  8
0
 10
6.46283292
 20
4.43052156
  0
VERTEX
  8
0
 10
6.44078064
 20
4.43685926
  0
VERTEX
  8
0
 10
6.43505514
 20
4.45353736
  0
VERTEX
  8
0
 10
6.43402633
 20
4.45821245
  0
VERTEX
  8
0
 10
6.45626662
 20
4.45015134
  0
VERTEX
  8
0
 10
6.46283292
 20
4.43052156
  0
SEQEND
  0
POLYLINE
  8
Default_Layer
 66
   1
 39
0.000000
 70
    1
  0
VERTEX
  8
0
 10
6.17373827
 20
6.02760281
  0
VERTEX
  8
0
 10
6.14030205
 20
6.02760281
  0
VERTEX
  8
0
 10
6.12898518
 20
6.05205710
  0
VERTEX
  8
0
 10
6.17476707
 20
6.05421483
  0
VERTEX
  8
0
 10
6.17373827
 20
6.02760281
  0
SEQEND
  0
POLYLINE
  8
Default_Layer
 66
   1
 39
0.000000
 70
    1
  0
VERTEX
  8
0
 10
6.48340905
 20
4.09679235
  0
VERTEX
  8
0
 10
6.47599026
 20
4.12009662
  0
VERTEX
  8
0
 10
6.48032263
 20
4.13635077
  0
VERTEX
  8
0
 10
6.50675113
 20
4.13006638
  0
VERTEX
  8
0
 10
6.51478765
 20
4.10830025
  0
VERTEX
  8
0
 10
6.51633086
 20
4.09930970
  0
VERTEX
  8
0
 10
6.48340905
 20
4.09679235
  0
SEQEND
  0
POLYLINE
  8
Default_Layer
 66
   1
 39
0.000000
 70
    1
  0
VERTEX
  8
0
 10
6.17785349
 20
5.92511054
  0
VERTEX
  8
0
 10
6.17476707
 20
5.76543838
  0
VERTEX
  8
0
 10
6.20614567
 20
5.70466226
  0
VERTEX
  8
0
 10
5.99299842
 20
5.76354843
  0
VERTEX
  8
0
 10
5.76735966
 20
5.79133116
  0
VERTEX
  8
0
 10
5.77004704
 20
5.80855975
  0
VERTEX
  8
0
 10
5.76170123
 20
5.82405676
  0
VERTEX
  8
0
 10
5.69716959
 20
5.82837164
  0
VERTEX
  8
0
 10
5.66708636
 20
5.83141835
  0
VERTEX
  8
0
 10
5.65059012
 20
5.85174765
  0
VERTEX
  8
0
 10
5.64175685
 20
5.94711923
  0
VERTEX
  8
0
 10
5.65919942
 20
5.99248757
  0
VERTEX
  8
0
 10
5.69585761
 20
6.03155865
  0
VERTEX
  8
0
 10
5.82272721
 20
6.03129046
  0
VERTEX
  8
0
 10
5.94122798
 20
6.01249868
  0
VERTEX
  8
0
 10
6.06776752
 20
6.00210700
  0
VERTEX
  8
0
 10
6.18505514
 20
5.97761535
  0
VERTEX
  8
0
 10
6.17626238
 20
5.95097401
  0
VERTEX
  8
0
 10
6.17785349
 20
5.92511054
  0
SEQEND
  0
POLYLINE
  8
Default_Layer
 66
   1
 39
0.000000
 70
    1
  0
VERTEX
  8
0
 10
6.44791522
 20
4.47619355
  0
VERTEX
  8
0
 10
6.43299752
 20
4.47978977
  0
VERTEX
  8
0
 10
6.43196872
 20
4.48662259
  0
VERTEX
  8
0
 10
6.44791522
 20
4.47619355
  0
SEQEND
  0
POLYLINE
  8
Default_Layer
 66
   1
 39
0.000000
 70
    1
  0
VERTEX
  8
0
 10
6.19431440
 20
5.48529285
  0
VERTEX
  8
0
 10
6.20420182
 20
5.40841160
  0
VERTEX
  8
0
 10
6.23274984
 20
5.33648801
  0
VERTEX
  8
0
 10
6.31828559
 20
5.19975299
  0
VERTEX
  8
0
 10
6.04679318
 20
5.25579572
  0
VERTEX
  8
0
 10
5.90773872
 20
5.27468635
  0
VERTEX
  8
0
 10
5.76324444
 20
5.27922945
  0
VERTEX
  8
0
 10
5.77057655
 20
5.29308968
  0
VERTEX
  8
0
 10
5.79359423
 20
5.29577206
  0
VERTEX
  8
0
 10
5.89287407
 20
5.28750075
  0
VERTEX
  8
0
 10
5.92013744
 20
5.29972790
  0
VERTEX
  8
0
 10
5.92087940
 20
5.33553582
  0
VERTEX
  8
0
 10
5.91583601
 20
5.35139574
  0
VERTEX
  8
0
 10
5.89287407
 20
5.36086364
  0
VERTEX
  8
0
 10
5.73495226
 20
5.36805608
  0
VERTEX
  8
0
 10
5.70199289
 20
5.38434687
  0
VERTEX
  8
0
 10
5.68042551
 20
5.40833374
  0
VERTEX
  8
0
 10
5.60367486
 20
5.55556029
  0
VERTEX
  8
0
 10
5.58443882
 20
5.63367388
  0
VERTEX
  8
0
 10
5.59349135
 20
5.71293357
  0
VERTEX
  8
0
 10
5.64030205
 20
5.71688941
  0
VERTEX
  8
0
 10
5.94028392
 20
5.68210070
  0
VERTEX
  8
0
 10
6.24215390
 20
5.63705333
  0
VERTEX
  8
0
 10
6.21240525
 20
5.56116783
  0
VERTEX
  8
0
 10
6.19431440
 20
5.48529285
  0
SEQEND
  0
POLYLINE
  8
Default_Layer
 66
   1
 39
0.000000
 70
    1
  0
VERTEX
  8
0
 10
6.23392345
 20
5.66006913
  0
VERTEX
  8
0
 10
6.18175384
 20
5.67140107
  0
VERTEX
  8
0
 10
6.12022823
 20
5.67415831
  0
VERTEX
  8
0
 10
6.07311196
 20
5.68605396
  0
VERTEX
  8
0
 10
6.06238400
 20
5.70096402
  0
VERTEX
  8
0
 10
6.06417036
 20
5.72480109
  0
VERTEX
  8
0
 10
6.15669698
 20
5.69965016
  0
VERTEX
  8
0
 10
6.23392345
 20
5.66006913
  0
SEQEND
  0
POLYLINE
  8
Default_Layer
 66
   1
 39
0.000000
 70
    1
  0
VERTEX
  8
0
 10
6.46746255
 20
4.15577036
  0
VERTEX
  8
0
 10
6.45203045
 20
4.20431933
  0
VERTEX
  8
0
 10
6.48160593
 20
4.20124321
  0
VERTEX
  8
0
 10
6.49266831
 20
4.17950541
  0
VERTEX
  8
0
 10
6.49626913
 20
4.15828771
  0
VERTEX
  8
0
 10
6.46746255
 20
4.15577036
  0
SEQEND
  0
POLYLINE
  8
Default_Layer
 66
   1
 39
0.000000
 70
    1
  0
VERTEX
  8
0
 10
6.06725678
 20
6.28437291
  0
VERTEX
  8
0
 10
6.06884404
 20
6.25724383
  0
VERTEX
  8
0
 10
6.06005514
 20
6.22899112
  0
VERTEX
  8
0
 10
6.08166008
 20
6.07435367
  0
VERTEX
  8
0
 10
6.10583703
 20
6.03155865
  0
VERTEX
  8
0
 10
6.01561757
 20
6.06249540
  0
VERTEX
  8
0
 10
5.91807983
 20
6.08118648
  0
VERTEX
  8
0
 10
5.91359578
 20
6.10269817
  0
VERTEX
  8
0
 10
5.88978765
 20
6.11391208
  0
VERTEX
  8
0
 10
5.69740082
 20
6.13548940
  0
VERTEX
  8
0
 10
5.66291381
 20
6.17288258
  0
VERTEX
  8
0
 10
5.64185240
 20
6.21477971
  0
VERTEX
  8
0
 10
5.60789464
 20
6.30379249
  0
VERTEX
  8
0
 10
5.60733594
 20
6.34326712
  0
VERTEX
  8
0
 10
5.62126913
 20
6.37931311
  0
VERTEX
  8
0
 10
5.75592493
 20
6.37751639
  0
VERTEX
  8
0
 10
5.88927324
 20
6.36528785
  0
VERTEX
  8
0
 10
6.10583703
 20
6.33471998
  0
VERTEX
  8
0
 10
6.08892615
 20
6.30837183
  0
VERTEX
  8
0
 10
6.06725678
 20
6.28437291
  0
SEQEND
  0
POLYLINE
  8
Default_Layer
 66
   1
 39
0.000000
 70
    1
  0
VERTEX
  8
0
 10
6.45974650
 20
4.27084939
  0
VERTEX
  8
0
 10
6.43848942
 20
4.27243501
  0
VERTEX
  8
0
 10
6.42785349
 20
4.28451503
  0
VERTEX
  8
0
 10
6.42528148
 20
4.29997877
  0
VERTEX
  8
0
 10
6.45266168
 20
4.29845038
  0
VERTEX
  8
0
 10
6.46540493
 20
4.27804183
  0
VERTEX
  8
0
 10
6.45974650
 20
4.27084939
  0
SEQEND
  0
POLYLINE
  8
Default_Layer
 66
   1
 39
0.000000
 70
    1
  0
VERTEX
  8
0
 10
6.44431440
 20
4.22445816
  0
VERTEX
  8
0
 10
6.43659835
 20
4.24999132
  0
VERTEX
  8
0
 10
6.47054896
 20
4.24999132
  0
VERTEX
  8
0
 10
6.47466419
 20
4.22697551
  0
VERTEX
  8
0
 10
6.44431440
 20
4.22445816
  0
SEQEND
  0
POLYLINE
  8
Default_Layer
 66
   1
 39
0.000000
 70
    1
  0
VERTEX
  8
0
 10
6.44791522
 20
4.32155609
  0
VERTEX
  8
0
 10
6.41618348
 20
4.32691100
  0
VERTEX
  8
0
 10
6.40882057
 20
4.35356245
  0
VERTEX
  8
0
 10
6.43932931
 20
4.34759650
  0
VERTEX
  8
0
 10
6.44791522
 20
4.32155609
  0
SEQEND
  0
POLYLINE
  8
Default_Layer
 66
   1
 39
0.000000
 70
    1
  0
VERTEX
  8
0
 10
6.54462304
 20
3.77025559
  0
VERTEX
  8
0
 10
6.52610452
 20
3.77852689
  0
VERTEX
  8
0
 10
6.52507571
 20
3.78535971
  0
VERTEX
  8
0
 10
6.53854864
 20
3.78027596
  0
VERTEX
  8
0
 10
6.54462304
 20
3.77025559
  0
SEQEND
  0
POLYLINE
  8
Default_Layer
 66
   1
 39
0.000000
 70
    1
  0
VERTEX
  8
0
 10
6.53433497
 20
3.80441967
  0
VERTEX
  8
0
 10
6.51633086
 20
3.79614837
  0
VERTEX
  8
0
 10
6.50655720
 20
3.81017363
  0
VERTEX
  8
0
 10
6.53330617
 20
3.80945438
  0
VERTEX
  8
0
 10
6.53433497
 20
3.80441967
  0
SEQEND
  0
POLYLINE
  8
Default_Layer
 66
   1
 39
0.000000
 70
    1
  0
VERTEX
  8
0
 10
6.43248312
 20
4.37118393
  0
VERTEX
  8
0
 10
6.40412992
 20
4.37317309
  0
VERTEX
  8
0
 10
6.39853250
 20
4.38952465
  0
VERTEX
  8
0
 10
6.42155179
 20
4.38456268
  0
VERTEX
  8
0
 10
6.43248312
 20
4.37118393
  0
SEQEND
  0
POLYLINE
  8
Default_Layer
 66
   1
 39
0.000000
 70
    1
  0
VERTEX
  8
0
 10
6.52713333
 20
3.83031246
  0
VERTEX
  8
0
 10
6.50307874
 20
3.83702539
  0
VERTEX
  8
0
 10
6.49163950
 20
3.85584562
  0
VERTEX
  8
0
 10
6.51837040
 20
3.84860432
  0
VERTEX
  8
0
 10
6.52713333
 20
3.83031246
  0
SEQEND
  0
POLYLINE
  8
Default_Layer
 66
   1
 39
0.000000
 70
    1
  0
VERTEX
  8
0
 10
6.41396460
 20
4.43591589
  0
VERTEX
  8
0
 10
6.38393863
 20
4.44126935
  0
VERTEX
  8
0
 10
6.37281234
 20
4.46288754
  0
VERTEX
  8
0
 10
6.37229794
 20
4.46756262
  0
VERTEX
  8
0
 10
6.40213333
 20
4.46540489
  0
VERTEX
  8
0
 10
6.41396460
 20
4.43591589
  0
SEQEND
  0
POLYLINE
  8
Default_Layer
 66
   1
 39
0.000000
 70
    1
  0
VERTEX
  8
0
 10
6.41910864
 20
4.40822499
  0
VERTEX
  8
0
 10
6.38824444
 20
4.41721554
  0
VERTEX
  8
0
 10
6.40732314
 20
4.41810233
  0
VERTEX
  8
0
 10
6.41910864
 20
4.40822499
  0
SEQEND
  0
POLYLINE
  8
Default_Layer
 66
   1
 39
0.000000
 70
    1
  0
VERTEX
  8
0
 10
6.50347078
 20
3.88425576
  0
VERTEX
  8
0
 10
6.50244197
 20
3.89180782
  0
VERTEX
  8
0
 10
6.50912921
 20
3.89252706
  0
VERTEX
  8
0
 10
6.51067242
 20
3.88461538
  0
VERTEX
  8
0
 10
6.50347078
 20
3.88425576
  0
SEQEND
  0
POLYLINE
  8
Default_Layer
 66
   1
 39
0.000000
 70
    1
  0
VERTEX
  8
0
 10
6.25347078
 20
5.18716622
  0
VERTEX
  8
0
 10
6.27353250
 20
5.18392962
  0
VERTEX
  8
0
 10
6.25347078
 20
5.18716622
  0
SEQEND
  0
POLYLINE
  8
Default_Layer
 66
   1
 39
0.000000
 70
    1
  0
VERTEX
  8
0
 10
6.39235966
 20
4.48806107
  0
VERTEX
  8
0
 10
6.37531716
 20
4.48797216
  0
VERTEX
  8
0
 10
6.36715390
 20
4.49741125
  0
VERTEX
  8
0
 10
6.36612510
 20
4.50244595
  0
VERTEX
  8
0
 10
6.39287407
 20
4.50172671
  0
VERTEX
  8
0
 10
6.39235966
 20
4.48806107
  0
SEQEND
  0
POLYLINE
  8
Default_Layer
 66
   1
 39
0.000000
 70
    1
  0
VERTEX
  8
0
 10
6.46437613
 20
4.01300043
  0
VERTEX
  8
0
 10
6.47517859
 20
4.01587740
  0
VERTEX
  8
0
 10
6.47620740
 20
4.00904459
  0
VERTEX
  8
0
 10
6.46437613
 20
4.01300043
  0
SEQEND
  0
POLYLINE
  8
Default_Layer
 66
   1
 39
0.000000
 70
    1
  0
VERTEX
  8
0
 10
6.42425267
 20
4.07305730
  0
VERTEX
  8
0
 10
6.45357366
 20
4.07557465
  0
VERTEX
  8
0
 10
6.45408806
 20
4.07053995
  0
VERTEX
  8
0
 10
6.42425267
 20
4.07305730
  0
SEQEND
  0
POLYLINE
  8
Default_Layer
 66
   1
 39
0.000000
 70
    1
  0
VERTEX
  8
0
 10
6.44688641
 20
4.09535386
  0
VERTEX
  8
0
 10
6.41242139
 20
4.10218668
  0
VERTEX
  8
0
 10
6.40367654
 20
4.13671039
  0
VERTEX
  8
0
 10
6.42597141
 20
4.13891377
  0
VERTEX
  8
0
 10
6.43635458
 20
4.12768833
  0
VERTEX
  8
0
 10
6.44688641
 20
4.09535386
  0
SEQEND
  0
POLYLINE
  8
Default_Layer
 66
   1
 39
0.000000
 70
    1
  0
VERTEX
  8
0
 10
6.39596049
 20
4.15648960
  0
VERTEX
  8
0
 10
6.38515802
 20
4.20252122
  0
VERTEX
  8
0
 10
6.41499341
 20
4.19856537
  0
VERTEX
  8
0
 10
6.42939670
 20
4.15756847
  0
VERTEX
  8
0
 10
6.39596049
 20
4.15648960
  0
SEQEND
  0
POLYLINE
  8
Default_Layer
 66
   1
 39
0.000000
 70
    1
  0
VERTEX
  8
0
 10
6.40727736
 20
4.22625627
  0
VERTEX
  8
0
 10
6.38279003
 20
4.22600278
  0
VERTEX
  8
0
 10
6.37126913
 20
4.24172001
  0
VERTEX
  8
0
 10
6.36921152
 20
4.25107018
  0
VERTEX
  8
0
 10
6.39754324
 20
4.24936450
  0
VERTEX
  8
0
 10
6.40727736
 20
4.22625627
  0
SEQEND
  0
POLYLINE
  8
Default_Layer
 66
   1
 39
0.000000
 70
    1
  0
VERTEX
  8
0
 10
6.38978765
 20
4.27156864
  0
VERTEX
  8
0
 10
6.36402935
 20
4.27619643
  0
VERTEX
  8
0
 10
6.35892345
 20
4.29422482
  0
VERTEX
  8
0
 10
6.35738024
 20
4.30393462
  0
VERTEX
  8
0
 10
6.38845624
 20
4.29565243
  0
VERTEX
  8
0
 10
6.38978765
 20
4.27156864
  0
SEQEND
  0
POLYLINE
  8
Default_Layer
 66
   1
 39
0.000000
 70
    1
  0
VERTEX
  8
0
 10
6.37641316
 20
4.32227534
  0
VERTEX
  8
0
 10
6.35429382
 20
4.32227534
  0
VERTEX
  8
0
 10
6.34383870
 20
4.33793813
  0
VERTEX
  8
0
 10
6.34143374
 20
4.35643943
  0
VERTEX
  8
0
 10
6.36202955
 20
4.35776317
  0
VERTEX
  8
0
 10
6.37157758
 20
4.34814434
  0
VERTEX
  8
0
 10
6.37641316
 20
4.32227534
  0
SEQEND
  0
POLYLINE
  8
Default_Layer
 66
   1
 39
0.000000
 70
    1
  0
VERTEX
  8
0
 10
6.33320329
 20
4.37729750
  0
VERTEX
  8
0
 10
6.33359899
 20
4.38816852
  0
VERTEX
  8
0
 10
6.34760658
 20
4.39204200
  0
VERTEX
  8
0
 10
6.36252427
 20
4.38664767
  0
VERTEX
  8
0
 10
6.36406748
 20
4.37693788
  0
VERTEX
  8
0
 10
6.33320329
 20
4.37729750
  0
SEQEND
  0
POLYLINE
  8
Default_Layer
 66
   1
 39
0.000000
 70
    1
  0
VERTEX
  8
0
 10
6.32651604
 20
4.41685592
  0
VERTEX
  8
0
 10
6.32600164
 20
4.42081176
  0
VERTEX
  8
0
 10
6.35377942
 20
4.42117138
  0
VERTEX
  8
0
 10
6.35480822
 20
4.41613668
  0
VERTEX
  8
0
 10
6.32651604
 20
4.41685592
  0
SEQEND
  0
POLYLINE
  8
Default_Layer
 66
   1
 39
0.000000
 70
    1
  0
VERTEX
  8
0
 10
6.34606337
 20
4.44202946
  0
VERTEX
  8
0
 10
6.32187195
 20
4.44149484
  0
VERTEX
  8
0
 10
6.31005514
 20
4.45461623
  0
VERTEX
  8
0
 10
6.30696872
 20
4.47367619
  0
VERTEX
  8
0
 10
6.33851739
 20
4.46954032
  0
VERTEX
  8
0
 10
6.34606337
 20
4.44202946
  0
SEQEND
  0
POLYLINE
  8
Default_Layer
 66
   1
 39
0.000000
 70
    1
  0
VERTEX
  8
0
 10
5.94688641
 20
6.05313597
  0
VERTEX
  8
0
 10
6.06674238
 20
6.02328734
  0
VERTEX
  8
0
 10
5.94997283
 20
6.03479525
  0
VERTEX
  8
0
 10
5.94688641
 20
6.05313597
  0
SEQEND
  0
POLYLINE
  8
Default_Layer
 66
   1
 39
0.000000
 70
    1
  0
VERTEX
  8
0
 10
6.30336789
 20
4.49417465
  0
VERTEX
  8
0
 10
6.29873827
 20
4.52006743
  0
VERTEX
  8
0
 10
6.32805925
 20
4.50316520
  0
VERTEX
  8
0
 10
6.32960246
 20
4.49453427
  0
VERTEX
  8
0
 10
6.30336789
 20
4.49417465
  0
SEQEND
  0
POLYLINE
  8
Default_Layer
 66
   1
 39
0.000000
 70
    1
  0
VERTEX
  8
0
 10
6.43814156
 20
3.85800335
  0
VERTEX
  8
0
 10
6.41807983
 20
3.86123995
  0
VERTEX
  8
0
 10
6.42678083
 20
3.86646589
  0
VERTEX
  8
0
 10
6.43968477
 20
3.86699390
  0
VERTEX
  8
0
 10
6.43814156
 20
3.85800335
  0
SEQEND
  0
POLYLINE
  8
Default_Layer
 66
   1
 39
0.000000
 70
    1
  0
VERTEX
  8
0
 10
6.24472592
 20
3.96373222
  0
VERTEX
  8
0
 10
6.41499341
 20
3.97524012
  0
VERTEX
  8
0
 10
6.41293580
 20
3.96157448
  0
VERTEX
  8
0
 10
6.24472592
 20
3.96373222
  0
SEQEND
  0
POLYLINE
  8
Default_Layer
 66
   1
 39
0.000000
 70
    1
  0
VERTEX
  8
0
 10
6.42065185
 20
3.94359338
  0
VERTEX
  8
0
 10
6.42116625
 20
3.94071641
  0
VERTEX
  8
0
 10
6.40007571
 20
3.93891830
  0
VERTEX
  8
0
 10
6.39956131
 20
3.94179527
  0
VERTEX
  8
0
 10
6.42065185
 20
3.94359338
  0
SEQEND
  0
POLYLINE
  8
Default_Layer
 66
   1
 39
0.000000
 70
    1
  0
VERTEX
  8
0
 10
6.37435555
 20
4.11081761
  0
VERTEX
  8
0
 10
6.20614567
 20
4.30465386
  0
VERTEX
  8
0
 10
6.21643374
 20
4.39959407
  0
VERTEX
  8
0
 10
6.26990185
 20
4.39886385
  0
VERTEX
  8
0
 10
6.29219372
 20
4.39537132
  0
VERTEX
  8
0
 10
6.30388230
 20
4.37945523
  0
VERTEX
  8
0
 10
6.28845020
 20
4.37046468
  0
VERTEX
  8
0
 10
6.30955990
 20
4.35066381
  0
VERTEX
  8
0
 10
6.31571357
 20
4.32587156
  0
VERTEX
  8
0
 10
6.30079588
 20
4.31580214
  0
VERTEX
  8
0
 10
6.32205475
 20
4.29840844
  0
VERTEX
  8
0
 10
6.33166008
 20
4.27624372
  0
VERTEX
  8
0
 10
6.31622798
 20
4.26725317
  0
VERTEX
  8
0
 10
6.33566220
 20
4.25152137
  0
VERTEX
  8
0
 10
6.34246255
 20
4.23021211
  0
VERTEX
  8
0
 10
6.32445843
 20
4.21906383
  0
VERTEX
  8
0
 10
6.35433716
 20
4.19235066
  0
VERTEX
  8
0
 10
6.35892345
 20
4.15828771
  0
VERTEX
  8
0
 10
6.35429382
 20
4.14642019
  0
VERTEX
  8
0
 10
6.37350080
 20
4.13007038
  0
VERTEX
  8
0
 10
6.37435555
 20
4.11081761
  0
SEQEND
  0
POLYLINE
  8
Default_Layer
 66
   1
 39
0.000000
 70
    1
  0
VERTEX
  8
0
 10
6.38104279
 20
4.00760610
  0
VERTEX
  8
0
 10
6.36477389
 20
3.99673243
  0
VERTEX
  8
0
 10
6.33783292
 20
3.99214235
  0
VERTEX
  8
0
 10
6.19791522
 20
3.98315180
  0
VERTEX
  8
0
 10
6.20254485
 20
4.26257809
  0
VERTEX
  8
0
 10
6.20923209
 20
4.26293771
  0
VERTEX
  8
0
 10
6.38155720
 20
4.06946108
  0
VERTEX
  8
0
 10
6.37276026
 20
4.03999437
  0
VERTEX
  8
0
 10
6.38104279
 20
4.00760610
  0
SEQEND
  0
POLYLINE
  8
Default_Layer
 66
   1
 39
0.000000
 70
    1
  0
VERTEX
  8
0
 10
6.38361481
 20
3.88173840
  0
VERTEX
  8
0
 10
6.35532263
 20
3.89288668
  0
VERTEX
  8
0
 10
6.35583703
 20
3.90475421
  0
VERTEX
  8
0
 10
6.41036378
 20
3.90439459
  0
VERTEX
  8
0
 10
6.40291175
 20
3.88958243
  0
VERTEX
  8
0
 10
6.38361481
 20
3.88173840
  0
SEQEND
  0
POLYLINE
  8
Default_Layer
 66
   1
 39
0.000000
 70
    1
  0
VERTEX
  8
0
 10
6.28536378
 20
4.44562568
  0
VERTEX
  8
0
 10
6.26015802
 20
4.43663513
  0
VERTEX
  8
0
 10
6.28947901
 20
4.42045214
  0
VERTEX
  8
0
 10
6.08834732
 20
4.43555626
  0
VERTEX
  8
0
 10
6.03521685
 20
4.49451292
  0
VERTEX
  8
0
 10
5.99369711
 20
4.55962585
  0
VERTEX
  8
0
 10
6.25347078
 20
4.52977722
  0
VERTEX
  8
0
 10
6.26838847
 20
4.50100747
  0
VERTEX
  8
0
 10
6.24575473
 20
4.49417465
  0
VERTEX
  8
0
 10
6.26353122
 20
4.47785235
  0
VERTEX
  8
0
 10
6.28176296
 20
4.46396640
  0
VERTEX
  8
0
 10
6.28536378
 20
4.44562568
  0
SEQEND
  0
POLYLINE
  8
Default_Layer
 66
   1
 39
0.000000
 70
    1
  0
VERTEX
  8
0
 10
6.03742139
 20
5.68740041
  0
VERTEX
  8
0
 10
6.02359037
 20
5.71066341
  0
VERTEX
  8
0
 10
6.01890287
 20
5.73558975
  0
VERTEX
  8
0
 10
6.03897836
 20
5.71452067
  0
VERTEX
  8
0
 10
6.04410864
 20
5.68776003
  0
VERTEX
  8
0
 10
6.03742139
 20
5.68740041
  0
SEQEND
  0
POLYLINE
  8
Default_Layer
 66
   1
 39
0.000000
 70
    1
  0
VERTEX
  8
0
 10
6.34966419
 20
3.94143565
  0
VERTEX
  8
0
 10
6.34966419
 20
3.93963754
  0
VERTEX
  8
0
 10
6.31571357
 20
3.94143565
  0
VERTEX
  8
0
 10
6.31571357
 20
3.94323376
  0
VERTEX
  8
0
 10
6.34966419
 20
3.94143565
  0
SEQEND
  0
POLYLINE
  8
Default_Layer
 66
   1
 39
0.000000
 70
    1
  0
VERTEX
  8
0
 10
6.28227736
 20
3.88497500
  0
VERTEX
  8
0
 10
6.28213995
 20
3.89838746
  0
VERTEX
  8
0
 10
6.29565185
 20
3.90655232
  0
VERTEX
  8
0
 10
6.32850074
 20
3.88631792
  0
VERTEX
  8
0
 10
6.36303868
 20
3.86339768
  0
VERTEX
  8
0
 10
6.31162060
 20
3.85957809
  0
VERTEX
  8
0
 10
6.28876046
 20
3.86517574
  0
VERTEX
  8
0
 10
6.28227736
 20
3.88497500
  0
SEQEND
  0
POLYLINE
  8
Default_Layer
 66
   1
 39
0.000000
 70
    1
  0
VERTEX
  8
0
 10
6.11561069
 20
5.20586656
  0
VERTEX
  8
0
 10
6.09297695
 20
5.21557636
  0
VERTEX
  8
0
 10
6.09246255
 20
5.21845333
  0
VERTEX
  8
0
 10
6.12384115
 20
5.21629560
  0
VERTEX
  8
0
 10
6.11561069
 20
5.20586656
  0
SEQEND
  0
POLYLINE
  8
Default_Layer
 66
   1
 39
0.000000
 70
    1
  0
VERTEX
  8
0
 10
5.99678353
 20
5.69351398
  0
VERTEX
  8
0
 10
5.98191869
 20
5.71465045
  0
VERTEX
  8
0
 10
5.97775061
 20
5.73882635
  0
VERTEX
  8
0
 10
5.99678353
 20
5.69351398
  0
SEQEND
  0
POLYLINE
  8
Default_Layer
 66
   1
 39
0.000000
 70
    1
  0
VERTEX
  8
0
 10
5.92528148
 20
6.03947033
  0
VERTEX
  8
0
 10
5.90521975
 20
6.04270693
  0
VERTEX
  8
0
 10
5.91242139
 20
6.05709181
  0
VERTEX
  8
0
 10
5.92528148
 20
6.03947033
  0
SEQEND
  0
POLYLINE
  8
Default_Layer
 66
   1
 39
0.000000
 70
    1
  0
VERTEX
  8
0
 10
6.29205102
 20
3.94143565
  0
VERTEX
  8
0
 10
6.29256543
 20
3.93963754
  0
VERTEX
  8
0
 10
6.24215390
 20
3.93999716
  0
VERTEX
  8
0
 10
6.24163950
 20
3.94215490
  0
VERTEX
  8
0
 10
6.29205102
 20
3.94143565
  0
SEQEND
  0
POLYLINE
  8
Default_Layer
 66
   1
 39
0.000000
 70
    1
  0
VERTEX
  8
0
 10
6.05696872
 20
5.21557636
  0
VERTEX
  8
0
 10
5.75964361
 20
5.24398649
  0
VERTEX
  8
0
 10
5.75810041
 20
5.25045969
  0
VERTEX
  8
0
 10
5.90739181
 20
5.25049304
  0
VERTEX
  8
0
 10
6.05696872
 20
5.22924199
  0
VERTEX
  8
0
 10
6.05696872
 20
5.21557636
  0
SEQEND
  0
POLYLINE
  8
Default_Layer
 66
   1
 39
0.000000
 70
    1
  0
VERTEX
  8
0
 10
5.95511687
 20
5.70178529
  0
VERTEX
  8
0
 10
5.92065185
 20
5.70574113
  0
VERTEX
  8
0
 10
5.92364792
 20
5.73011649
  0
VERTEX
  8
0
 10
5.91550781
 20
5.75213236
  0
VERTEX
  8
0
 10
5.93680617
 20
5.74762138
  0
VERTEX
  8
0
 10
5.94554980
 20
5.73405695
  0
VERTEX
  8
0
 10
5.95511687
 20
5.70178529
  0
SEQEND
  0
POLYLINE
  8
Default_Layer
 66
   1
 39
0.000000
 70
    1
  0
VERTEX
  8
0
 10
5.87435555
 20
6.08406346
  0
VERTEX
  8
0
 10
5.79668065
 20
6.08730006
  0
VERTEX
  8
0
 10
5.80799752
 20
6.10204456
  0
VERTEX
  8
0
 10
5.84563043
 20
6.09747439
  0
VERTEX
  8
0
 10
5.87435555
 20
6.08406346
  0
SEQEND
  0
POLYLINE
  8
Default_Layer
 66
   1
 39
0.000000
 70
    1
  0
VERTEX
  8
0
 10
5.86818271
 20
6.04630315
  0
VERTEX
  8
0
 10
5.72569300
 20
6.05277635
  0
VERTEX
  8
0
 10
5.79544737
 20
6.06137549
  0
VERTEX
  8
0
 10
5.86715390
 20
6.05313597
  0
VERTEX
  8
0
 10
5.86818271
 20
6.04630315
  0
SEQEND
  0
POLYLINE
  8
Default_Layer
 66
   1
 39
0.000000
 70
    1
  0
VERTEX
  8
0
 10
6.19945843
 20
3.86303806
  0
VERTEX
  8
0
 10
6.19019917
 20
3.93064699
  0
VERTEX
  8
0
 10
6.23649547
 20
3.91626211
  0
VERTEX
  8
0
 10
6.23546666
 20
3.86627466
  0
VERTEX
  8
0
 10
6.19945843
 20
3.86303806
  0
SEQEND
  0
POLYLINE
  8
Default_Layer
 66
   1
 39
0.000000
 70
    1
  0
VERTEX
  8
0
 10
5.69328559
 20
6.69362273
  0
VERTEX
  8
0
 10
5.67715594
 20
6.74295991
  0
VERTEX
  8
0
 10
5.67724727
 20
6.79152280
  0
VERTEX
  8
0
 10
5.68762715
 20
6.88781860
  0
VERTEX
  8
0
 10
5.71721463
 20
6.84293984
  0
VERTEX
  8
0
 10
5.72214831
 20
6.79278993
  0
VERTEX
  8
0
 10
5.69328559
 20
6.69362273
  0
SEQEND
  0
POLYLINE
  8
Default_Layer
 66
   1
 39
0.000000
 70
    1
  0
VERTEX
  8
0
 10
5.60892345
 20
5.73774748
  0
VERTEX
  8
0
 10
5.61303868
 20
5.75285161
  0
VERTEX
  8
0
 10
5.74992159
 20
5.76529457
  0
VERTEX
  8
0
 10
5.88464361
 20
5.75932480
  0
VERTEX
  8
0
 10
5.89596049
 20
5.71041621
  0
VERTEX
  8
0
 10
5.60892345
 20
5.73774748
  0
SEQEND
  0
POLYLINE
  8
Default_Layer
 66
   1
 39
0.000000
 70
    1
  0
VERTEX
  8
0
 10
5.74215390
 20
6.45627222
  0
VERTEX
  8
0
 10
5.72414979
 20
6.46166655
  0
VERTEX
  8
0
 10
5.68659835
 20
6.58070142
  0
VERTEX
  8
0
 10
5.69533420
 20
6.59511786
  0
VERTEX
  8
0
 10
5.69534320
 20
6.61162892
  0
VERTEX
  8
0
 10
5.74215390
 20
6.45627222
  0
SEQEND
  0
POLYLINE
  8
Default_Layer
 66
   1
 39
0.000000
 70
    1
  0
VERTEX
  8
0
 10
5.75192757
 20
6.39837308
  0
VERTEX
  8
0
 10
5.75244197
 20
6.39549610
  0
VERTEX
  8
0
 10
5.67065185
 20
6.40017119
  0
VERTEX
  8
0
 10
5.67168065
 20
6.40340778
  0
VERTEX
  8
0
 10
5.75192757
 20
6.39837308
  0
SEQEND
  0
POLYLINE
  8
Default_Layer
 66
   1
 39
0.000000
 70
    1
  0
VERTEX
  8
0
 10
5.71283292
 20
6.43037943
  0
VERTEX
  8
0
 10
5.72980822
 20
6.42894095
  0
VERTEX
  8
0
 10
5.71746255
 20
6.42786208
  0
VERTEX
  8
0
 10
5.71283292
 20
6.43037943
  0
SEQEND
  0
POLYLINE
  8
Default_Layer
 66
   1
 39
0.000000
 70
    1
  0
VERTEX
  8
0
 10
6.04616625
 20
4.38808616
  0
VERTEX
  8
0
 10
5.47096203
 20
4.52860212
  0
VERTEX
  8
0
 10
5.17637661
 20
4.58187670
  0
VERTEX
  8
0
 10
4.87229794
 20
4.61141142
  0
VERTEX
  8
0
 10
4.85114799
 20
4.61527452
  0
VERTEX
  8
0
 10
4.82548724
 20
4.61428839
  0
VERTEX
  8
0
 10
4.54700285
 20
4.62973373
  0
VERTEX
  8
0
 10
4.26736712
 20
4.61994641
  0
VERTEX
  8
0
 10
3.99801574
 20
4.57802090
  0
VERTEX
  8
0
 10
3.75038436
 20
4.49705162
  0
VERTEX
  8
0
 10
3.70476186
 20
4.45950484
  0
VERTEX
  8
0
 10
3.67785349
 20
4.41541743
  0
VERTEX
  8
0
 10
3.62367658
 20
4.49437462
  0
VERTEX
  8
0
 10
3.58610831
 20
4.57700036
  0
VERTEX
  8
0
 10
3.52198929
 20
4.74734853
  0
VERTEX
  8
0
 10
3.51077890
 20
4.87186841
  0
VERTEX
  8
0
 10
3.52867654
 20
4.99656657
  0
VERTEX
  8
0
 10
3.55450826
 20
5.05039271
  0
VERTEX
  8
0
 10
3.61194107
 20
5.08363379
  0
VERTEX
  8
0
 10
3.74986995
 20
5.13286330
  0
VERTEX
  8
0
 10
3.97706658
 20
5.20041393
  0
VERTEX
  8
0
 10
4.21334732
 20
5.25261742
  0
VERTEX
  8
0
 10
4.34709217
 20
5.27095814
  0
VERTEX
  8
0
 10
4.50298383
 20
5.29753830
  0
VERTEX
  8
0
 10
4.66242139
 20
5.31627051
  0
VERTEX
  8
0
 10
5.15110452
 20
5.34647876
  0
VERTEX
  8
0
 10
5.16242139
 20
5.33856708
  0
VERTEX
  8
0
 10
5.21746255
 20
5.35007498
  0
VERTEX
  8
0
 10
5.23186584
 20
5.33964594
  0
VERTEX
  8
0
 10
5.25398518
 20
5.35043460
  0
VERTEX
  8
0
 10
5.48980507
 20
5.35042247
  0
VERTEX
  8
0
 10
5.72826501
 20
5.34180367
  0
VERTEX
  8
0
 10
5.73268946
 20
5.12538626
  0
VERTEX
  8
0
 10
5.75572906
 20
5.01441922
  0
VERTEX
  8
0
 10
5.80131028
 20
4.90702069
  0
VERTEX
  8
0
 10
5.91502832
 20
4.64355443
  0
VERTEX
  8
0
 10
5.98663168
 20
4.51645324
  0
VERTEX
  8
0
 10
6.07805925
 20
4.39743633
  0
VERTEX
  8
0
 10
6.06678115
 20
4.38691433
  0
VERTEX
  8
0
 10
6.04616625
 20
4.38808616
  0
SEQEND
  0
POLYLINE
  8
Default_Layer
 66
   1
 39
0.000000
 70
    1
  0
VERTEX
  8
0
 10
5.67168065
 20
6.45699146
  0
VERTEX
  8
0
 10
5.66859423
 20
6.58789386
  0
VERTEX
  8
0
 10
5.71489053
 20
6.45807033
  0
VERTEX
  8
0
 10
5.67168065
 20
6.45699146
  0
SEQEND
  0
POLYLINE
  8
Default_Layer
 66
   1
 39
0.000000
 70
    1
  0
VERTEX
  8
0
 10
5.67528148
 20
6.67060692
  0
VERTEX
  8
0
 10
5.67785349
 20
6.67096654
  0
VERTEX
  8
0
 10
5.68042551
 20
6.65730091
  0
VERTEX
  8
0
 10
5.67733909
 20
6.65730091
  0
VERTEX
  8
0
 10
5.67528148
 20
6.67060692
  0
SEQEND
  0
POLYLINE
  8
Default_Layer
 66
   1
 39
0.000000
 70
    1
  0
VERTEX
  8
0
 10
5.66962304
 20
6.43037943
  0
VERTEX
  8
0
 10
5.70614567
 20
6.42966019
  0
VERTEX
  8
0
 10
5.66962304
 20
6.43037943
  0
SEQEND
  0
POLYLINE
  8
Default_Layer
 66
   1
 39
0.000000
 70
    1
  0
VERTEX
  8
0
 10
5.88721563
 20
5.32238409
  0
VERTEX
  8
0
 10
5.77661892
 20
5.32058598
  0
VERTEX
  8
0
 10
5.77816213
 20
5.34432103
  0
VERTEX
  8
0
 10
5.83274090
 20
5.34171103
  0
VERTEX
  8
0
 10
5.88515802
 20
5.33389199
  0
VERTEX
  8
0
 10
5.88721563
 20
5.32238409
  0
SEQEND
  0
POLYLINE
  8
Default_Layer
 66
   1
 39
0.000000
 70
    1
  0
VERTEX
  8
0
 10
5.49163950
 20
6.72059438
  0
VERTEX
  8
0
 10
5.31159835
 20
6.47820916
  0
VERTEX
  8
0
 10
5.27661892
 20
6.47029747
  0
VERTEX
  8
0
 10
5.25788352
 20
6.48415348
  0
VERTEX
  8
0
 10
5.26375884
 20
6.50158459
  0
VERTEX
  8
0
 10
5.60840905
 20
6.89105520
  0
VERTEX
  8
0
 10
5.55548299
 20
6.80476952
  0
VERTEX
  8
0
 10
5.49163950
 20
6.72059438
  0
SEQEND
  0
POLYLINE
  8
Default_Layer
 66
   1
 39
0.000000
 70
    1
  0
VERTEX
  8
0
 10
5.60275061
 20
5.93194336
  0
VERTEX
  8
0
 10
5.61715390
 20
5.85102841
  0
VERTEX
  8
0
 10
5.20419133
 20
5.89889954
  0
VERTEX
  8
0
 10
4.77456131
 20
5.89921776
  0
VERTEX
  8
0
 10
4.54401146
 20
5.88091058
  0
VERTEX
  8
0
 10
4.32264323
 20
5.84376917
  0
VERTEX
  8
0
 10
4.11182766
 20
5.78957912
  0
VERTEX
  8
0
 10
3.91293580
 20
5.72012601
  0
VERTEX
  8
0
 10
3.67476707
 20
5.58706587
  0
VERTEX
  8
0
 10
3.67841085
 20
5.68426374
  0
VERTEX
  8
0
 10
3.71848209
 20
5.77721438
  0
VERTEX
  8
0
 10
3.79405179
 20
5.85924231
  0
VERTEX
  8
0
 10
3.90419094
 20
5.92367205
  0
VERTEX
  8
0
 10
4.01478765
 20
5.96359009
  0
VERTEX
  8
0
 10
4.29458677
 20
6.02358246
  0
VERTEX
  8
0
 10
4.58217448
 20
6.06392463
  0
VERTEX
  8
0
 10
4.59657777
 20
6.05313597
  0
VERTEX
  8
0
 10
4.61818271
 20
6.06680160
  0
VERTEX
  8
0
 10
4.83551392
 20
6.08905973
  0
VERTEX
  8
0
 10
5.04873827
 20
6.10060607
  0
VERTEX
  8
0
 10
5.30439670
 20
6.11750830
  0
VERTEX
  8
0
 10
5.74524032
 20
6.10851775
  0
VERTEX
  8
0
 10
5.64362683
 20
6.03220273
  0
VERTEX
  8
0
 10
5.61187538
 20
5.98530057
  0
VERTEX
  8
0
 10
5.60275061
 20
5.93194336
  0
SEQEND
  0
POLYLINE
  8
Default_Layer
 66
   1
 39
0.000000
 70
    1
  0
VERTEX
  8
0
 10
5.55182468
 20
6.47029747
  0
VERTEX
  8
0
 10
5.33320329
 20
6.47209558
  0
VERTEX
  8
0
 10
5.60172180
 20
6.83567341
  0
VERTEX
  8
0
 10
5.58271190
 20
6.65203024
  0
VERTEX
  8
0
 10
5.55182468
 20
6.47029747
  0
SEQEND
  0
POLYLINE
  8
Default_Layer
 66
   1
 39
0.000000
 70
    1
  0
VERTEX
  8
0
 10
5.97312098
 20
4.05975129
  0
VERTEX
  8
0
 10
5.85069300
 20
4.06622448
  0
VERTEX
  8
0
 10
5.86246852
 20
4.16418735
  0
VERTEX
  8
0
 10
5.85196969
 20
4.20927002
  0
VERTEX
  8
0
 10
5.80028148
 20
4.24279888
  0
VERTEX
  8
0
 10
5.76633086
 20
4.24387774
  0
VERTEX
  8
0
 10
5.79035143
 20
4.32245771
  0
VERTEX
  8
0
 10
5.82291522
 20
4.40103255
  0
VERTEX
  8
0
 10
5.90860819
 20
4.39748691
  0
VERTEX
  8
0
 10
5.98700987
 20
4.38305145
  0
VERTEX
  8
0
 10
5.98788911
 20
4.21877069
  0
VERTEX
  8
0
 10
5.97312098
 20
4.05975129
  0
SEQEND
  0
POLYLINE
  8
Default_Layer
 66
   1
 39
0.000000
 70
    1
  0
VERTEX
  8
0
 10
5.64184526
 20
6.14951466
  0
VERTEX
  8
0
 10
5.38037169
 20
6.19676094
  0
VERTEX
  8
0
 10
5.10943785
 20
6.23294696
  0
VERTEX
  8
0
 10
4.88564061
 20
6.23662623
  0
VERTEX
  8
0
 10
4.65392139
 20
6.22714212
  0
VERTEX
  8
0
 10
4.42760958
 20
6.19574652
  0
VERTEX
  8
0
 10
4.22003456
 20
6.13369129
  0
VERTEX
  8
0
 10
4.07980257
 20
6.07540745
  0
VERTEX
  8
0
 10
3.95048724
 20
6.00206965
  0
VERTEX
  8
0
 10
3.96766684
 20
6.10095258
  0
VERTEX
  8
0
 10
4.03175196
 20
6.18709017
  0
VERTEX
  8
0
 10
4.12902160
 20
6.25866556
  0
VERTEX
  8
0
 10
4.24575473
 20
6.31386191
  0
VERTEX
  8
0
 10
4.31145020
 20
6.33630304
  0
VERTEX
  8
0
 10
4.38361481
 20
6.35198184
  0
VERTEX
  8
0
 10
4.46128971
 20
6.37032256
  0
VERTEX
  8
0
 10
4.80243303
 20
6.42311921
  0
VERTEX
  8
0
 10
5.15573415
 20
6.44836053
  0
VERTEX
  8
0
 10
5.16396460
 20
6.44224696
  0
VERTEX
  8
0
 10
5.39174875
 20
6.44670713
  0
VERTEX
  8
0
 10
5.61766831
 20
6.43793150
  0
VERTEX
  8
0
 10
5.57340675
 20
6.36973121
  0
VERTEX
  8
0
 10
5.57552029
 20
6.29488704
  0
VERTEX
  8
0
 10
5.64184526
 20
6.14951466
  0
SEQEND
  0
POLYLINE
  8
Default_Layer
 66
   1
 39
0.000000
 70
    1
  0
VERTEX
  8
0
 10
5.72157777
 20
5.78953305
  0
VERTEX
  8
0
 10
5.64493168
 20
5.78593683
  0
VERTEX
  8
0
 10
5.65628223
 20
5.79898782
  0
VERTEX
  8
0
 10
5.67807443
 20
5.80315216
  0
VERTEX
  8
0
 10
5.72826501
 20
5.80643528
  0
VERTEX
  8
0
 10
5.72157777
 20
5.78953305
  0
SEQEND
  0
POLYLINE
  8
Default_Layer
 66
   1
 39
0.000000
 70
    1
  0
VERTEX
  8
0
 10
5.95357366
 20
3.94071641
  0
VERTEX
  8
0
 10
5.93123814
 20
3.93867533
  0
VERTEX
  8
0
 10
5.90984938
 20
3.94395301
  0
VERTEX
  8
0
 10
5.93145431
 20
3.97236314
  0
VERTEX
  8
0
 10
5.97209217
 20
3.97092466
  0
VERTEX
  8
0
 10
5.96839349
 20
3.95409178
  0
VERTEX
  8
0
 10
5.95357366
 20
3.94071641
  0
SEQEND
  0
POLYLINE
  8
Default_Layer
 66
   1
 39
0.000000
 70
    1
  0
VERTEX
  8
0
 10
5.56622798
 20
5.77227119
  0
VERTEX
  8
0
 10
5.56828559
 20
5.74386106
  0
VERTEX
  8
0
 10
5.55673409
 20
5.72686132
  0
VERTEX
  8
0
 10
5.55439670
 20
5.70466226
  0
VERTEX
  8
0
 10
5.55503487
 20
5.62087203
  0
VERTEX
  8
0
 10
5.57853212
 20
5.53921817
  0
VERTEX
  8
0
 10
5.66087818
 20
5.38316020
  0
VERTEX
  8
0
 10
5.38888361
 20
5.42312318
  0
VERTEX
  8
0
 10
5.10816347
 20
5.44265992
  0
VERTEX
  8
0
 10
4.82413746
 20
5.44098297
  0
VERTEX
  8
0
 10
4.54222528
 20
5.41730487
  0
VERTEX
  8
0
 10
4.26784661
 20
5.37083816
  0
VERTEX
  8
0
 10
4.00642115
 20
5.30079536
  0
VERTEX
  8
0
 10
3.76336860
 20
5.20638903
  0
VERTEX
  8
0
 10
3.54410864
 20
5.08683168
  0
VERTEX
  8
0
 10
3.52833480
 20
5.17364244
  0
VERTEX
  8
0
 10
3.53641991
 20
5.25789807
  0
VERTEX
  8
0
 10
3.59297695
 20
5.42271862
  0
VERTEX
  8
0
 10
3.63904171
 20
5.48936554
  0
VERTEX
  8
0
 10
3.70107604
 20
5.54940671
  0
VERTEX
  8
0
 10
3.77644765
 20
5.60049665
  0
VERTEX
  8
0
 10
3.86252427
 20
5.64028993
  0
VERTEX
  8
0
 10
3.86715390
 20
5.65431518
  0
VERTEX
  8
0
 10
4.15032583
 20
5.72325625
  0
VERTEX
  8
0
 10
4.43670104
 20
5.77070230
  0
VERTEX
  8
0
 10
5.04668065
 20
5.82369714
  0
VERTEX
  8
0
 10
5.55491110
 20
5.82010092
  0
VERTEX
  8
0
 10
5.61715390
 20
5.80895264
  0
VERTEX
  8
0
 10
5.59627466
 20
5.78579572
  0
VERTEX
  8
0
 10
5.56622798
 20
5.77227119
  0
SEQEND
  0
POLYLINE
  8
Default_Layer
 66
   1
 39
0.000000
 70
    1
  0
VERTEX
  8
0
 10
5.40367654
 20
6.16605727
  0
VERTEX
  8
0
 10
5.40316213
 20
6.16929387
  0
VERTEX
  8
0
 10
5.52816213
 20
6.14160298
  0
VERTEX
  8
0
 10
5.45242030
 20
6.13844792
  0
VERTEX
  8
0
 10
5.41995619
 20
6.14347029
  0
VERTEX
  8
0
 10
5.40367654
 20
6.16605727
  0
SEQEND
  0
POLYLINE
  8
Default_Layer
 66
   1
 39
0.000000
 70
    1
  0
VERTEX
  8
0
 10
5.59966419
 20
4.42908307
  0
VERTEX
  8
0
 10
5.59143374
 20
4.47547430
  0
VERTEX
  8
0
 10
5.70118367
 20
4.45313872
  0
VERTEX
  8
0
 10
5.80851193
 20
4.42620609
  0
VERTEX
  8
0
 10
5.70270206
 20
4.42353383
  0
VERTEX
  8
0
 10
5.59966419
 20
4.42908307
  0
SEQEND
  0
POLYLINE
  8
Default_Layer
 66
   1
 39
0.000000
 70
    1
  0
VERTEX
  8
0
 10
5.76684526
 20
4.37765712
  0
VERTEX
  8
0
 10
5.77250370
 20
4.40175180
  0
VERTEX
  8
0
 10
5.78176296
 20
4.40247104
  0
VERTEX
  8
0
 10
5.77957899
 20
4.38692458
  0
VERTEX
  8
0
 10
5.76684526
 20
4.37765712
  0
SEQEND
  0
POLYLINE
  8
Default_Layer
 66
   1
 39
0.000000
 70
    1
  0
VERTEX
  8
0
 10
5.74369711
 20
4.33378324
  0
VERTEX
  8
0
 10
5.74884115
 20
4.35967602
  0
VERTEX
  8
0
 10
5.76993168
 20
4.35931640
  0
VERTEX
  8
0
 10
5.76227427
 20
4.33899344
  0
VERTEX
  8
0
 10
5.74369711
 20
4.33378324
  0
SEQEND
  0
POLYLINE
  8
Default_Layer
 66
   1
 39
0.000000
 70
    1
  0
VERTEX
  8
0
 10
5.32805925
 20
5.40653563
  0
VERTEX
  8
0
 10
5.58268888
 20
5.37452928
  0
VERTEX
  8
0
 10
5.33423209
 20
5.37201192
  0
VERTEX
  8
0
 10
5.32805925
 20
5.40653563
  0
SEQEND
  0
POLYLINE
  8
Default_Layer
 66
   1
 39
0.000000
 70
    1
  0
VERTEX
  8
0
 10
5.81468477
 20
3.95258393
  0
VERTEX
  8
0
 10
5.75810041
 20
3.94575112
  0
VERTEX
  8
0
 10
5.74513050
 20
3.95654157
  0
VERTEX
  8
0
 10
5.74421152
 20
3.96984579
  0
VERTEX
  8
0
 10
5.80954073
 20
3.98027483
  0
VERTEX
  8
0
 10
5.81468477
 20
3.95258393
  0
SEQEND
  0
POLYLINE
  8
Default_Layer
 66
   1
 39
0.000000
 70
    1
  0
VERTEX
  8
0
 10
5.18248312
 20
5.87044800
  0
VERTEX
  8
0
 10
5.33455019
 20
5.86734374
  0
VERTEX
  8
0
 10
5.48289464
 20
5.84923030
  0
VERTEX
  8
0
 10
5.18556954
 20
5.85210728
  0
VERTEX
  8
0
 10
5.18248312
 20
5.87044800
  0
SEQEND
  0
POLYLINE
  8
Default_Layer
 66
   1
 39
0.000000
 70
    1
  0
VERTEX
  8
0
 10
5.76324444
 20
4.07018032
  0
VERTEX
  8
0
 10
5.70923209
 20
4.07449579
  0
VERTEX
  8
0
 10
5.71878482
 20
4.12240760
  0
VERTEX
  8
0
 10
5.73598106
 20
4.16871675
  0
VERTEX
  8
0
 10
5.77347852
 20
4.16389119
  0
VERTEX
  8
0
 10
5.78076546
 20
4.14189565
  0
VERTEX
  8
0
 10
5.77661892
 20
4.08816142
  0
VERTEX
  8
0
 10
5.76324444
 20
4.07018032
  0
SEQEND
  0
POLYLINE
  8
Default_Layer
 66
   1
 39
0.000000
 70
    1
  0
VERTEX
  8
0
 10
5.72775061
 20
4.38413032
  0
VERTEX
  8
0
 10
5.72209217
 20
4.38377070
  0
VERTEX
  8
0
 10
5.72517859
 20
4.39779596
  0
VERTEX
  8
0
 10
5.73238024
 20
4.39635747
  0
VERTEX
  8
0
 10
5.72775061
 20
4.38413032
  0
SEQEND
  0
POLYLINE
  8
Default_Layer
 66
   1
 39
0.000000
 70
    1
  0
VERTEX
  8
0
 10
5.73186584
 20
4.28775163
  0
VERTEX
  8
0
 10
5.73546666
 20
4.30753084
  0
VERTEX
  8
0
 10
5.74781234
 20
4.31076743
  0
VERTEX
  8
0
 10
5.74563461
 20
4.29603156
  0
VERTEX
  8
0
 10
5.73186584
 20
4.28775163
  0
SEQEND
  0
POLYLINE
  8
Default_Layer
 66
   1
 39
0.000000
 70
    1
  0
VERTEX
  8
0
 10
5.70923209
 20
4.33773908
  0
VERTEX
  8
0
 10
5.70666008
 20
4.33737946
  0
VERTEX
  8
0
 10
5.70144602
 20
4.35055399
  0
VERTEX
  8
0
 10
5.70871769
 20
4.36399149
  0
VERTEX
  8
0
 10
5.71797695
 20
4.36686846
  0
VERTEX
  8
0
 10
5.71482076
 20
4.35197809
  0
VERTEX
  8
0
 10
5.70923209
 20
4.33773908
  0
SEQEND
  0
POLYLINE
  8
Default_Layer
 66
   1
 39
0.000000
 70
    1
  0
VERTEX
  8
0
 10
5.71849135
 20
4.22805438
  0
VERTEX
  8
0
 10
5.71114445
 20
4.24601790
  0
VERTEX
  8
0
 10
5.71489053
 20
4.26581469
  0
VERTEX
  8
0
 10
5.73238024
 20
4.26221847
  0
VERTEX
  8
0
 10
5.71849135
 20
4.22805438
  0
SEQEND
  0
POLYLINE
  8
Default_Layer
 66
   1
 39
0.000000
 70
    1
  0
VERTEX
  8
0
 10
5.39390287
 20
6.14196260
  0
VERTEX
  8
0
 10
5.36884964
 20
6.13770204
  0
VERTEX
  8
0
 10
5.35418650
 20
6.14820186
  0
VERTEX
  8
0
 10
5.33423209
 20
6.17900366
  0
VERTEX
  8
0
 10
5.36766831
 20
6.17972291
  0
VERTEX
  8
0
 10
5.39390287
 20
6.14196260
  0
SEQEND
  0
POLYLINE
  8
Default_Layer
 66
   1
 39
0.000000
 70
    1
  0
VERTEX
  8
0
 10
5.68093991
 20
4.38916503
  0
VERTEX
  8
0
 10
5.67116625
 20
4.38808616
  0
VERTEX
  8
0
 10
5.67204665
 20
4.39963951
  0
VERTEX
  8
0
 10
5.68814156
 20
4.40139218
  0
VERTEX
  8
0
 10
5.68093991
 20
4.38916503
  0
SEQEND
  0
POLYLINE
  8
Default_Layer
 66
   1
 39
0.000000
 70
    1
  0
VERTEX
  8
0
 10
5.68711275
 20
4.29566331
  0
VERTEX
  8
0
 10
5.68959558
 20
4.31128421
  0
VERTEX
  8
0
 10
5.70254485
 20
4.32047723
  0
VERTEX
  8
0
 10
5.69867892
 20
4.30435870
  0
VERTEX
  8
0
 10
5.68711275
 20
4.29566331
  0
SEQEND
  0
POLYLINE
  8
Default_Layer
 66
   1
 39
0.000000
 70
    1
  0
VERTEX
  8
0
 10
5.69637201
 20
4.17914579
  0
VERTEX
  8
0
 10
5.69686436
 20
4.19574122
  0
VERTEX
  8
0
 10
5.70460246
 20
4.21295025
  0
VERTEX
  8
0
 10
5.71128971
 20
4.21366950
  0
VERTEX
  8
0
 10
5.69637201
 20
4.17914579
  0
SEQEND
  0
POLYLINE
  8
Default_Layer
 66
   1
 39
0.000000
 70
    1
  0
VERTEX
  8
0
 10
5.65470534
 20
4.34493152
  0
VERTEX
  8
0
 10
5.65068149
 20
4.35590534
  0
VERTEX
  8
0
 10
5.65830617
 20
4.36650884
  0
VERTEX
  8
0
 10
5.67682468
 20
4.37010506
  0
VERTEX
  8
0
 10
5.67384526
 20
4.35116984
  0
VERTEX
  8
0
 10
5.65470534
 20
4.34493152
  0
SEQEND
  0
POLYLINE
  8
Default_Layer
 66
   1
 39
0.000000
 70
    1
  0
VERTEX
  8
0
 10
5.67888230
 20
4.24783359
  0
VERTEX
  8
0
 10
5.67408909
 20
4.26299669
  0
VERTEX
  8
0
 10
5.68659835
 20
4.27516486
  0
VERTEX
  8
0
 10
5.67888230
 20
4.24783359
  0
SEQEND
  0
POLYLINE
  8
Default_Layer
 66
   1
 39
0.000000
 70
    1
  0
VERTEX
  8
0
 10
5.69071357
 20
4.13958737
  0
VERTEX
  8
0
 10
5.68459500
 20
4.14970745
  0
VERTEX
  8
0
 10
5.69431440
 20
4.15828771
  0
VERTEX
  8
0
 10
5.69071357
 20
4.13958737
  0
SEQEND
  0
POLYLINE
  8
Default_Layer
 66
   1
 39
0.000000
 70
    1
  0
VERTEX
  8
0
 10
5.65264773
 20
4.30249613
  0
VERTEX
  8
0
 10
5.63515802
 20
4.30573273
  0
VERTEX
  8
0
 10
5.65110452
 20
4.32766967
  0
VERTEX
  8
0
 10
5.66087818
 20
4.32659080
  0
VERTEX
  8
0
 10
5.65264773
 20
4.30249613
  0
SEQEND
  0
POLYLINE
  8
Default_Layer
 66
   1
 39
0.000000
 70
    1
  0
VERTEX
  8
0
 10
5.11046666
 20
6.12937583
  0
VERTEX
  8
0
 10
5.09338236
 20
6.16735645
  0
VERTEX
  8
0
 10
5.08731851
 20
6.20777342
  0
VERTEX
  8
0
 10
5.30902633
 20
6.18655573
  0
VERTEX
  8
0
 10
5.33680411
 20
6.14196260
  0
VERTEX
  8
0
 10
5.11046666
 20
6.12937583
  0
SEQEND
  0
POLYLINE
  8
Default_Layer
 66
   1
 39
0.000000
 70
    1
  0
VERTEX
  8
0
 10
5.62024032
 20
4.36830695
  0
VERTEX
  8
0
 10
5.60892345
 20
4.39276125
  0
VERTEX
  8
0
 10
5.63207160
 20
4.39671709
  0
VERTEX
  8
0
 10
5.62024032
 20
4.36830695
  0
SEQEND
  0
POLYLINE
  8
Default_Layer
 66
   1
 39
0.000000
 70
    1
  0
VERTEX
  8
0
 10
5.65213333
 20
4.08924029
  0
VERTEX
  8
0
 10
5.65676296
 20
4.10146744
  0
VERTEX
  8
0
 10
5.65882057
 20
4.08995953
  0
VERTEX
  8
0
 10
5.65213333
 20
4.08924029
  0
SEQEND
  0
POLYLINE
  8
Default_Layer
 66
   1
 39
0.000000
 70
    1
  0
VERTEX
  8
0
 10
5.63258600
 20
4.14318359
  0
VERTEX
  8
0
 10
5.63978765
 20
4.16044544
  0
VERTEX
  8
0
 10
5.63258600
 20
4.14318359
  0
SEQEND
  0
POLYLINE
  8
Default_Layer
 66
   1
 39
0.000000
 70
    1
  0
VERTEX
  8
0
 10
5.20923209
 20
6.47137634
  0
VERTEX
  8
0
 10
5.17270946
 20
6.47029747
  0
VERTEX
  8
0
 10
5.11177269
 20
6.55907606
  0
VERTEX
  8
0
 10
5.06544949
 20
6.65332268
  0
VERTEX
  8
0
 10
4.97877942
 20
6.84394472
  0
VERTEX
  8
0
 10
4.93865596
 20
6.94607736
  0
VERTEX
  8
0
 10
5.08747888
 20
6.71973947
  0
VERTEX
  8
0
 10
5.16225796
 20
6.60680038
  0
VERTEX
  8
0
 10
5.22569300
 20
6.48935744
  0
VERTEX
  8
0
 10
5.20923209
 20
6.47137634
  0
SEQEND
  0
POLYLINE
  8
Default_Layer
 66
   1
 39
0.000000
 70
    1
  0
VERTEX
  8
0
 10
5.61406748
 20
4.19353067
  0
VERTEX
  8
0
 10
5.60825383
 20
4.21116145
  0
VERTEX
  8
0
 10
5.61098106
 20
4.22661589
  0
VERTEX
  8
0
 10
5.62126913
 20
4.22445816
  0
VERTEX
  8
0
 10
5.61406748
 20
4.19353067
  0
SEQEND
  0
POLYLINE
  8
Default_Layer
 66
   1
 39
0.000000
 70
    1
  0
VERTEX
  8
0
 10
5.59349135
 20
4.31112706
  0
VERTEX
  8
0
 10
5.57938731
 20
4.31459183
  0
VERTEX
  8
0
 10
5.57445843
 20
4.32623118
  0
VERTEX
  8
0
 10
5.59357481
 20
4.32350907
  0
VERTEX
  8
0
 10
5.59349135
 20
4.31112706
  0
SEQEND
  0
POLYLINE
  8
Default_Layer
 66
   1
 39
0.000000
 70
    1
  0
VERTEX
  8
0
 10
5.58731851
 20
4.34601039
  0
VERTEX
  8
0
 10
5.56725801
 20
4.35981097
  0
VERTEX
  8
0
 10
5.56005514
 20
4.38377070
  0
VERTEX
  8
0
 10
5.58410176
 20
4.37152098
  0
VERTEX
  8
0
 10
5.58731851
 20
4.34601039
  0
SEQEND
  0
POLYLINE
  8
Default_Layer
 66
   1
 39
0.000000
 70
    1
  0
VERTEX
  8
0
 10
5.56314156
 20
4.44562568
  0
VERTEX
  8
0
 10
5.54268290
 20
4.45232373
  0
VERTEX
  8
0
 10
5.53896460
 20
4.47079922
  0
VERTEX
  8
0
 10
5.55207874
 20
4.45862660
  0
VERTEX
  8
0
 10
5.56314156
 20
4.44562568
  0
SEQEND
  0
POLYLINE
  8
Default_Layer
 66
   1
 39
0.000000
 70
    1
  0
VERTEX
  8
0
 10
5.56674238
 20
4.42620609
  0
VERTEX
  8
0
 10
5.56674238
 20
4.42440798
  0
VERTEX
  8
0
 10
5.55028148
 20
4.42296949
  0
VERTEX
  8
0
 10
5.54976707
 20
4.42476760
  0
VERTEX
  8
0
 10
5.56674238
 20
4.42620609
  0
SEQEND
  0
POLYLINE
  8
Default_Layer
 66
   1
 39
0.000000
 70
    1
  0
VERTEX
  8
0
 10
5.54873827
 20
4.48842070
  0
VERTEX
  8
0
 10
5.54925267
 20
4.48626296
  0
VERTEX
  8
0
 10
5.53947901
 20
4.48554372
  0
VERTEX
  8
0
 10
5.53896460
 20
4.48734183
  0
VERTEX
  8
0
 10
5.54873827
 20
4.48842070
  0
SEQEND
  0
POLYLINE
  8
Default_Layer
 66
   1
 39
0.000000
 70
    1
  0
VERTEX
  8
0
 10
5.62486995
 20
3.95474167
  0
VERTEX
  8
0
 10
5.61715390
 20
3.98459029
  0
VERTEX
  8
0
 10
5.63324810
 20
3.97438431
  0
VERTEX
  8
0
 10
5.63155720
 20
3.95833789
  0
VERTEX
  8
0
 10
5.62486995
 20
3.95474167
  0
SEQEND
  0
POLYLINE
  8
Default_Layer
 66
   1
 39
0.000000
 70
    1
  0
VERTEX
  8
0
 10
5.58937613
 20
4.14246434
  0
VERTEX
  8
0
 10
5.57188641
 20
4.14785867
  0
VERTEX
  8
0
 10
5.57750981
 20
4.15630588
  0
VERTEX
  8
0
 10
5.57600164
 20
4.16476091
  0
VERTEX
  8
0
 10
5.58937613
 20
4.14246434
  0
SEQEND
  0
POLYLINE
  8
Default_Layer
 66
   1
 39
0.000000
 70
    1
  0
VERTEX
  8
0
 10
5.54153662
 20
4.24100077
  0
VERTEX
  8
0
 10
5.56622798
 20
4.23452757
  0
VERTEX
  8
0
 10
5.54256543
 20
4.23452757
  0
VERTEX
  8
0
 10
5.54153662
 20
4.24100077
  0
SEQEND
  0
POLYLINE
  8
Default_Layer
 66
   1
 39
0.000000
 70
    1
  0
VERTEX
  8
0
 10
5.54925267
 20
4.27696297
  0
VERTEX
  8
0
 10
5.54616625
 20
4.29530369
  0
VERTEX
  8
0
 10
5.55285349
 20
4.29602293
  0
VERTEX
  8
0
 10
5.55593991
 20
4.27768221
  0
VERTEX
  8
0
 10
5.54925267
 20
4.27696297
  0
SEQEND
  0
POLYLINE
  8
Default_Layer
 66
   1
 39
0.000000
 70
    1
  0
VERTEX
  8
0
 10
5.56056954
 20
4.25250867
  0
VERTEX
  8
0
 10
5.54958272
 20
4.25102905
  0
VERTEX
  8
0
 10
5.54565185
 20
4.25826262
  0
VERTEX
  8
0
 10
5.56056954
 20
4.25250867
  0
SEQEND
  0
POLYLINE
  8
Default_Layer
 66
   1
 39
0.000000
 70
    1
  0
VERTEX
  8
0
 10
5.58114567
 20
4.11045799
  0
VERTEX
  8
0
 10
5.57622888
 20
4.11742638
  0
VERTEX
  8
0
 10
5.58320329
 20
4.12232551
  0
VERTEX
  8
0
 10
5.58114567
 20
4.11045799
  0
SEQEND
  0
POLYLINE
  8
Default_Layer
 66
   1
 39
0.000000
 70
    1
  0
VERTEX
  8
0
 10
5.55593991
 20
4.19820575
  0
VERTEX
  8
0
 10
5.54668065
 20
4.21115214
  0
VERTEX
  8
0
 10
5.55645431
 20
4.21223101
  0
VERTEX
  8
0
 10
5.55593991
 20
4.19820575
  0
SEQEND
  0
POLYLINE
  8
Default_Layer
 66
   1
 39
0.000000
 70
    1
  0
VERTEX
  8
0
 10
5.51633086
 20
4.42476760
  0
VERTEX
  8
0
 10
5.49756658
 20
4.42324505
  0
VERTEX
  8
0
 10
5.48855308
 20
4.43124080
  0
VERTEX
  8
0
 10
5.48752427
 20
4.43915248
  0
VERTEX
  8
0
 10
5.50802652
 20
4.43871132
  0
VERTEX
  8
0
 10
5.51633086
 20
4.42476760
  0
SEQEND
  0
POLYLINE
  8
Default_Layer
 66
   1
 39
0.000000
 70
    1
  0
VERTEX
  8
0
 10
5.50861481
 20
4.45461623
  0
VERTEX
  8
0
 10
5.48211834
 20
4.46192806
  0
VERTEX
  8
0
 10
5.47980822
 20
4.48230712
  0
VERTEX
  8
0
 10
5.50245689
 20
4.47467217
  0
VERTEX
  8
0
 10
5.50861481
 20
4.45461623
  0
SEQEND
  0
POLYLINE
  8
Default_Layer
 66
   1
 39
0.000000
 70
    1
  0
VERTEX
  8
0
 10
5.49318271
 20
4.50028822
  0
VERTEX
  8
0
 10
5.49215390
 20
4.49813049
  0
VERTEX
  8
0
 10
5.47980822
 20
4.49884973
  0
VERTEX
  8
0
 10
5.47929382
 20
4.50100747
  0
VERTEX
  8
0
 10
5.49318271
 20
4.50028822
  0
SEQEND
  0
POLYLINE
  8
Default_Layer
 66
   1
 39
0.000000
 70
    1
  0
VERTEX
  8
0
 10
5.01170123
 20
6.46418390
  0
VERTEX
  8
0
 10
4.99935555
 20
6.47892840
  0
VERTEX
  8
0
 10
5.03432017
 20
6.49578768
  0
VERTEX
  8
0
 10
5.03922952
 20
6.52355767
  0
VERTEX
  8
0
 10
5.03124855
 20
6.58537651
  0
VERTEX
  8
0
 10
4.97940159
 20
6.60856970
  0
VERTEX
  8
0
 10
4.91756543
 20
6.61774249
  0
VERTEX
  8
0
 10
4.92322386
 20
6.91443063
  0
VERTEX
  8
0
 10
5.02750640
 20
6.69140606
  0
VERTEX
  8
0
 10
5.14184526
 20
6.47065710
  0
VERTEX
  8
0
 10
5.01170123
 20
6.46418390
  0
SEQEND
  0
POLYLINE
  8
Default_Layer
 66
   1
 39
0.000000
 70
    1
  0
VERTEX
  8
0
 10
5.30336789
 20
5.37129268
  0
VERTEX
  8
0
 10
5.29229472
 20
5.37659153
  0
VERTEX
  8
0
 10
5.29050781
 20
5.38855453
  0
VERTEX
  8
0
 10
5.30336789
 20
5.37129268
  0
SEQEND
  0
POLYLINE
  8
Default_Layer
 66
   1
 39
0.000000
 70
    1
  0
VERTEX
  8
0
 10
5.46643374
 20
4.42260987
  0
VERTEX
  8
0
 10
5.43735079
 20
4.42166407
  0
VERTEX
  8
0
 10
5.42322386
 20
4.43735437
  0
VERTEX
  8
0
 10
5.42168065
 20
4.44526606
  0
VERTEX
  8
0
 10
5.45563127
 20
4.44526606
  0
VERTEX
  8
0
 10
5.46643374
 20
4.42260987
  0
SEQEND
  0
POLYLINE
  8
Default_Layer
 66
   1
 39
0.000000
 70
    1
  0
VERTEX
  8
0
 10
5.44534320
 20
4.46288754
  0
VERTEX
  8
0
 10
5.41827562
 20
4.47262277
  0
VERTEX
  8
0
 10
5.41242139
 20
4.49813049
  0
VERTEX
  8
0
 10
5.44300479
 20
4.48720567
  0
VERTEX
  8
0
 10
5.44534320
 20
4.46288754
  0
SEQEND
  0
POLYLINE
  8
Default_Layer
 66
   1
 39
0.000000
 70
    1
  0
VERTEX
  8
0
 10
5.25552839
 20
5.38172172
  0
VERTEX
  8
0
 10
5.24009629
 20
5.38927378
  0
VERTEX
  8
0
 10
5.23906748
 20
5.39610660
  0
VERTEX
  8
0
 10
5.25235349
 20
5.39226417
  0
VERTEX
  8
0
 10
5.25552839
 20
5.38172172
  0
SEQEND
  0
POLYLINE
  8
Default_Layer
 66
   1
 39
0.000000
 70
    1
  0
VERTEX
  8
0
 10
5.39596049
 20
4.42620609
  0
VERTEX
  8
0
 10
5.36303868
 20
4.43735437
  0
VERTEX
  8
0
 10
5.36046666
 20
4.45173925
  0
VERTEX
  8
0
 10
5.38998865
 20
4.44953099
  0
VERTEX
  8
0
 10
5.39596049
 20
4.42620609
  0
SEQEND
  0
POLYLINE
  8
Default_Layer
 66
   1
 39
0.000000
 70
    1
  0
VERTEX
  8
0
 10
5.38361481
 20
4.47223771
  0
VERTEX
  8
0
 10
5.36227421
 20
4.47396484
  0
VERTEX
  8
0
 10
5.35172180
 20
4.48626296
  0
VERTEX
  8
0
 10
5.35429382
 20
4.50496331
  0
VERTEX
  8
0
 10
5.37143852
 20
4.50503805
  0
VERTEX
  8
0
 10
5.37985613
 20
4.49465389
  0
VERTEX
  8
0
 10
5.38361481
 20
4.47223771
  0
SEQEND
  0
POLYLINE
  8
Default_Layer
 66
   1
 39
0.000000
 70
    1
  0
VERTEX
  8
0
 10
4.93145431
 20
6.96226035
  0
VERTEX
  8
0
 10
4.93556954
 20
6.96261998
  0
VERTEX
  8
0
 10
4.93762715
 20
6.95111207
  0
VERTEX
  8
0
 10
4.93351193
 20
6.95075245
  0
VERTEX
  8
0
 10
4.93145431
 20
6.96226035
  0
SEQEND
  0
POLYLINE
  8
Default_Layer
 66
   1
 39
0.000000
 70
    1
  0
VERTEX
  8
0
 10
5.19019917
 20
5.38495831
  0
VERTEX
  8
0
 10
5.17270946
 20
5.39035264
  0
VERTEX
  8
0
 10
5.17116625
 20
5.40006244
  0
VERTEX
  8
0
 10
5.20563127
 20
5.39322962
  0
VERTEX
  8
0
 10
5.19019917
 20
5.38495831
  0
SEQEND
  0
POLYLINE
  8
Default_Layer
 66
   1
 39
0.000000
 70
    1
  0
VERTEX
  8
0
 10
5.41396460
 20
3.95330318
  0
VERTEX
  8
0
 10
5.38515802
 20
3.96768806
  0
VERTEX
  8
0
 10
5.39168014
 20
3.98579565
  0
VERTEX
  8
0
 10
5.41705102
 20
3.99394046
  0
VERTEX
  8
0
 10
5.43042551
 20
3.99501933
  0
VERTEX
  8
0
 10
5.44009340
 20
3.96544226
  0
VERTEX
  8
0
 10
5.43625371
 20
3.95439805
  0
VERTEX
  8
0
 10
5.41396460
 20
3.95330318
  0
SEQEND
  0
POLYLINE
  8
Default_Layer
 66
   1
 39
0.000000
 70
    1
  0
VERTEX
  8
0
 10
5.05388230
 20
6.16677652
  0
VERTEX
  8
0
 10
5.05799752
 20
6.16713614
  0
VERTEX
  8
0
 10
5.06056954
 20
6.15347050
  0
VERTEX
  8
0
 10
5.05593991
 20
6.15311088
  0
VERTEX
  8
0
 10
5.05388230
 20
6.16677652
  0
SEQEND
  0
POLYLINE
  8
Default_Layer
 66
   1
 39
0.000000
 70
    1
  0
VERTEX
  8
0
 10
5.18454073
 20
5.41768391
  0
VERTEX
  8
0
 10
5.18505514
 20
5.41480694
  0
VERTEX
  8
0
 10
5.16859423
 20
5.41336845
  0
VERTEX
  8
0
 10
5.16807983
 20
5.41624543
  0
VERTEX
  8
0
 10
5.18454073
 20
5.41768391
  0
SEQEND
  0
POLYLINE
  8
Default_Layer
 66
   1
 39
0.000000
 70
    1
  0
VERTEX
  8
0
 10
5.04462304
 20
6.20417720
  0
VERTEX
  8
0
 10
5.04719506
 20
6.20417720
  0
VERTEX
  8
0
 10
5.05028148
 20
6.18583648
  0
VERTEX
  8
0
 10
5.04770946
 20
6.18583648
  0
VERTEX
  8
0
 10
5.04462304
 20
6.20417720
  0
SEQEND
  0
POLYLINE
  8
Default_Layer
 66
   1
 39
0.000000
 70
    1
  0
VERTEX
  8
0
 10
5.07188641
 20
4.38880541
  0
VERTEX
  8
0
 10
5.13052839
 20
4.51826932
  0
VERTEX
  8
0
 10
5.31519917
 20
4.52006743
  0
VERTEX
  8
0
 10
5.34297695
 20
4.41685592
  0
VERTEX
  8
0
 10
5.07188641
 20
4.38880541
  0
SEQEND
  0
POLYLINE
  8
Default_Layer
 66
   1
 39
0.000000
 70
    1
  0
VERTEX
  8
0
 10
5.32137201
 20
4.25071056
  0
VERTEX
  8
0
 10
5.25141316
 20
4.25142981
  0
VERTEX
  8
0
 10
5.22877942
 20
4.20575781
  0
VERTEX
  8
0
 10
5.25257494
 20
4.18911500
  0
VERTEX
  8
0
 10
5.28742139
 20
4.18238238
  0
VERTEX
  8
0
 10
5.29691059
 20
4.13861976
  0
VERTEX
  8
0
 10
5.28896460
 20
4.09355575
  0
VERTEX
  8
0
 10
4.98752427
 20
4.10470403
  0
VERTEX
  8
0
 10
4.97902749
 20
4.13687101
  0
VERTEX
  8
0
 10
4.98238024
 20
4.17303221
  0
VERTEX
  8
0
 10
5.05542551
 20
4.35715867
  0
VERTEX
  8
0
 10
5.11154967
 20
4.36936680
  0
VERTEX
  8
0
 10
5.17528148
 20
4.37406090
  0
VERTEX
  8
0
 10
5.34091934
 20
4.38844578
  0
VERTEX
  8
0
 10
5.33608626
 20
4.31850875
  0
VERTEX
  8
0
 10
5.32137201
 20
4.25071056
  0
SEQEND
  0
POLYLINE
  8
Default_Layer
 66
   1
 39
0.000000
 70
    1
  0
VERTEX
  8
0
 10
5.02919094
 20
6.15562823
  0
VERTEX
  8
0
 10
5.01838847
 20
6.16174181
  0
VERTEX
  8
0
 10
5.01735966
 20
6.16857463
  0
VERTEX
  8
0
 10
5.02919094
 20
6.15562823
  0
SEQEND
  0
POLYLINE
  8
Default_Layer
 66
   1
 39
0.000000
 70
    1
  0
VERTEX
  8
0
 10
5.03073415
 20
6.12937583
  0
VERTEX
  8
0
 10
5.02559012
 20
6.13692789
  0
VERTEX
  8
0
 10
5.03227736
 20
6.13728751
  0
VERTEX
  8
0
 10
5.03073415
 20
6.12937583
  0
SEQEND
  0
POLYLINE
  8
Default_Layer
 66
   1
 39
0.000000
 70
    1
  0
VERTEX
  8
0
 10
5.01427324
 20
6.18475762
  0
VERTEX
  8
0
 10
5.00707160
 20
6.20094061
  0
VERTEX
  8
0
 10
5.01118682
 20
6.20309834
  0
VERTEX
  8
0
 10
5.01745631
 20
6.19362657
  0
VERTEX
  8
0
 10
5.01427324
 20
6.18475762
  0
SEQEND
  0
POLYLINE
  8
Default_Layer
 66
   1
 39
0.000000
 70
    1
  0
VERTEX
  8
0
 10
5.05851193
 20
5.85030917
  0
VERTEX
  8
0
 10
5.05542551
 20
5.85282652
  0
VERTEX
  8
0
 10
5.07188641
 20
5.85426501
  0
VERTEX
  8
0
 10
5.05851193
 20
5.85030917
  0
SEQEND
  0
POLYLINE
  8
Default_Layer
 66
   1
 39
0.000000
 70
    1
  0
VERTEX
  8
0
 10
5.05131028
 20
5.87584233
  0
VERTEX
  8
0
 10
5.05079588
 20
5.88087704
  0
VERTEX
  8
0
 10
5.05748312
 20
5.88123666
  0
VERTEX
  8
0
 10
5.05851193
 20
5.87656157
  0
VERTEX
  8
0
 10
5.05131028
 20
5.87584233
  0
SEQEND
  0
POLYLINE
  8
Default_Layer
 66
   1
 39
0.000000
 70
    1
  0
VERTEX
  8
0
 10
5.12744197
 20
5.38639680
  0
VERTEX
  8
0
 10
5.12607655
 20
5.39624127
  0
VERTEX
  8
0
 10
5.13773003
 20
5.39898357
  0
VERTEX
  8
0
 10
5.13978765
 20
5.38747567
  0
VERTEX
  8
0
 10
5.12744197
 20
5.38639680
  0
SEQEND
  0
POLYLINE
  8
Default_Layer
 66
   1
 39
0.000000
 70
    1
  0
VERTEX
  8
0
 10
5.12178353
 20
5.41732429
  0
VERTEX
  8
0
 10
5.12384115
 20
5.42128013
  0
VERTEX
  8
0
 10
5.13207160
 20
5.41516656
  0
VERTEX
  8
0
 10
5.12178353
 20
5.41732429
  0
SEQEND
  0
POLYLINE
  8
Default_Layer
 66
   1
 39
0.000000
 70
    1
  0
VERTEX
  8
0
 10
4.97414979
 20
6.18331913
  0
VERTEX
  8
0
 10
4.96900575
 20
6.19482703
  0
VERTEX
  8
0
 10
4.97157777
 20
6.19770401
  0
VERTEX
  8
0
 10
4.97783870
 20
6.19133784
  0
VERTEX
  8
0
 10
4.97414979
 20
6.18331913
  0
SEQEND
  0
POLYLINE
  8
Default_Layer
 66
   1
 39
0.000000
 70
    1
  0
VERTEX
  8
0
 10
4.98186584
 20
6.15383012
  0
VERTEX
  8
0
 10
4.97466419
 20
6.16282067
  0
VERTEX
  8
0
 10
4.98443785
 20
6.16353992
  0
VERTEX
  8
0
 10
4.98186584
 20
6.15383012
  0
SEQEND
  0
POLYLINE
  8
Default_Layer
 66
   1
 39
0.000000
 70
    1
  0
VERTEX
  8
0
 10
4.99112510
 20
6.12613923
  0
VERTEX
  8
0
 10
4.98906748
 20
6.13584903
  0
VERTEX
  8
0
 10
4.99112510
 20
6.12613923
  0
SEQEND
  0
POLYLINE
  8
Default_Layer
 66
   1
 39
0.000000
 70
    1
  0
VERTEX
  8
0
 10
4.62024032
 20
6.63032926
  0
VERTEX
  8
0
 10
4.53742660
 20
6.51528524
  0
VERTEX
  8
0
 10
4.45923209
 20
6.39765383
  0
VERTEX
  8
0
 10
4.37589876
 20
6.37859387
  0
VERTEX
  8
0
 10
4.48018474
 20
6.52677512
  0
VERTEX
  8
0
 10
4.60156819
 20
6.66857056
  0
VERTEX
  8
0
 10
4.72521466
 20
6.80922645
  0
VERTEX
  8
0
 10
4.83628971
 20
6.95398905
  0
VERTEX
  8
0
 10
4.73376193
 20
6.79089203
  0
VERTEX
  8
0
 10
4.62024032
 20
6.63032926
  0
SEQEND
  0
POLYLINE
  8
Default_Layer
 66
   1
 39
0.000000
 70
    1
  0
VERTEX
  8
0
 10
4.87641316
 20
4.51611159
  0
VERTEX
  8
0
 10
4.87641316
 20
4.58839561
  0
VERTEX
  8
0
 10
5.06280662
 20
4.57432801
  0
VERTEX
  8
0
 10
5.24318271
 20
4.54739870
  0
VERTEX
  8
0
 10
4.87641316
 20
4.51611159
  0
SEQEND
  0
POLYLINE
  8
Default_Layer
 66
   1
 39
0.000000
 70
    1
  0
VERTEX
  8
0
 10
5.09246255
 20
5.36769646
  0
VERTEX
  8
0
 10
4.89030205
 20
5.35726742
  0
VERTEX
  8
0
 10
4.88853919
 20
5.39112363
  0
VERTEX
  8
0
 10
4.89544608
 20
5.42343787
  0
VERTEX
  8
0
 10
5.07960246
 20
5.42559560
  0
VERTEX
  8
0
 10
5.09246255
 20
5.36769646
  0
SEQEND
  0
POLYLINE
  8
Default_Layer
 66
   1
 39
0.000000
 70
    1
  0
VERTEX
  8
0
 10
4.80542551
 20
6.62673304
  0
VERTEX
  8
0
 10
4.64441728
 20
6.58753424
  0
VERTEX
  8
0
 10
4.61766831
 20
6.49331328
  0
VERTEX
  8
0
 10
4.61500775
 20
6.47998551
  0
VERTEX
  8
0
 10
4.62486995
 20
6.46849936
  0
VERTEX
  8
0
 10
4.60326501
 20
6.42174851
  0
VERTEX
  8
0
 10
4.48906748
 20
6.40304816
  0
VERTEX
  8
0
 10
4.57544544
 20
6.54275007
  0
VERTEX
  8
0
 10
4.67168065
 20
6.67887823
  0
VERTEX
  8
0
 10
4.75168901
 20
6.78549895
  0
VERTEX
  8
0
 10
4.82651604
 20
6.89177444
  0
VERTEX
  8
0
 10
4.81949566
 20
6.75986829
  0
VERTEX
  8
0
 10
4.80542551
 20
6.62673304
  0
SEQEND
  0
POLYLINE
  8
Default_Layer
 66
   1
 39
0.000000
 70
    1
  0
VERTEX
  8
0
 10
4.93762715
 20
6.18331913
  0
VERTEX
  8
0
 10
4.93196872
 20
6.19159043
  0
VERTEX
  8
0
 10
4.93917036
 20
6.19015195
  0
VERTEX
  8
0
 10
4.93762715
 20
6.18331913
  0
SEQEND
  0
POLYLINE
  8
Default_Layer
 66
   1
 39
0.000000
 70
    1
  0
VERTEX
  8
0
 10
4.94277119
 20
6.15311088
  0
VERTEX
  8
0
 10
4.93762715
 20
6.15958408
  0
VERTEX
  8
0
 10
4.94431440
 20
6.16030332
  0
VERTEX
  8
0
 10
4.94277119
 20
6.15311088
  0
SEQEND
  0
POLYLINE
  8
Default_Layer
 66
   1
 39
0.000000
 70
    1
  0
VERTEX
  8
0
 10
4.97980822
 20
5.84635332
  0
VERTEX
  8
0
 10
4.93774868
 20
5.84214710
  0
VERTEX
  8
0
 10
4.89853250
 20
5.84635332
  0
VERTEX
  8
0
 10
4.90264773
 20
5.87979817
  0
VERTEX
  8
0
 10
4.94809423
 20
5.88310485
  0
VERTEX
  8
0
 10
4.96739281
 20
5.87998352
  0
VERTEX
  8
0
 10
4.97620740
 20
5.86649216
  0
VERTEX
  8
0
 10
4.97980822
 20
5.84635332
  0
SEQEND
  0
POLYLINE
  8
Default_Layer
 66
   1
 39
0.000000
 70
    1
  0
VERTEX
  8
0
 10
4.91139259
 20
6.11714868
  0
VERTEX
  8
0
 10
4.90470534
 20
6.15383012
  0
VERTEX
  8
0
 10
4.91476778
 20
6.13838396
  0
VERTEX
  8
0
 10
4.91807983
 20
6.11786793
  0
VERTEX
  8
0
 10
4.91139259
 20
6.11714868
  0
SEQEND
  0
POLYLINE
  8
Default_Layer
 66
   1
 39
0.000000
 70
    1
  0
VERTEX
  8
0
 10
5.26787407
 20
3.96445146
  0
VERTEX
  8
0
 10
5.22723621
 20
3.96588995
  0
VERTEX
  8
0
 10
5.22707153
 20
3.98567239
  0
VERTEX
  8
0
 10
5.24781234
 20
4.00005404
  0
VERTEX
  8
0
 10
5.27816213
 20
4.00257139
  0
VERTEX
  8
0
 10
5.27960124
 20
3.98219885
  0
VERTEX
  8
0
 10
5.26787407
 20
3.96445146
  0
SEQEND
  0
POLYLINE
  8
Default_Layer
 66
   1
 39
0.000000
 70
    1
  0
VERTEX
  8
0
 10
4.74163950
 20
6.43829112
  0
VERTEX
  8
0
 10
4.74421152
 20
6.45699146
  0
VERTEX
  8
0
 10
4.78896460
 20
6.45699146
  0
VERTEX
  8
0
 10
4.78785666
 20
6.44652548
  0
VERTEX
  8
0
 10
4.77435452
 20
6.44148757
  0
VERTEX
  8
0
 10
4.74163950
 20
6.43829112
  0
SEQEND
  0
POLYLINE
  8
Default_Layer
 66
   1
 39
0.000000
 70
    1
  0
VERTEX
  8
0
 10
5.08217448
 20
4.50712104
  0
VERTEX
  8
0
 10
5.06571357
 20
4.50568255
  0
VERTEX
  8
0
 10
5.06468477
 20
4.51035764
  0
VERTEX
  8
0
 10
5.08371769
 20
4.51395386
  0
VERTEX
  8
0
 10
5.08217448
 20
4.50712104
  0
SEQEND
  0
POLYLINE
  8
Default_Layer
 66
   1
 39
0.000000
 70
    1
  0
VERTEX
  8
0
 10
5.07137201
 20
4.47403582
  0
VERTEX
  8
0
 10
5.04770946
 20
4.47187808
  0
VERTEX
  8
0
 10
5.05182468
 20
4.48806107
  0
VERTEX
  8
0
 10
5.07600164
 20
4.48806107
  0
VERTEX
  8
0
 10
5.07137201
 20
4.47403582
  0
SEQEND
  0
POLYLINE
  8
Default_Layer
 66
   1
 39
0.000000
 70
    1
  0
VERTEX
  8
0
 10
4.75912921
 20
6.10636002
  0
VERTEX
  8
0
 10
4.69637201
 20
6.09880796
  0
VERTEX
  8
0
 10
4.71289329
 20
6.15596704
  0
VERTEX
  8
0
 10
4.76941728
 20
6.20094061
  0
VERTEX
  8
0
 10
4.75912921
 20
6.10636002
  0
SEQEND
  0
POLYLINE
  8
Default_Layer
 66
   1
 39
0.000000
 70
    1
  0
VERTEX
  8
0
 10
4.68145431
 20
6.43109868
  0
VERTEX
  8
0
 10
4.67579588
 20
6.43073906
  0
VERTEX
  8
0
 10
4.68721627
 20
6.43467602
  0
VERTEX
  8
0
 10
4.69328559
 20
6.44404507
  0
VERTEX
  8
0
 10
4.67579588
 20
6.44728167
  0
VERTEX
  8
0
 10
4.68736121
 20
6.46193941
  0
VERTEX
  8
0
 10
4.71386172
 20
6.46238579
  0
VERTEX
  8
0
 10
4.70620914
 20
6.44018866
  0
VERTEX
  8
0
 10
4.68145431
 20
6.43109868
  0
SEQEND
  0
POLYLINE
  8
Default_Layer
 66
   1
 39
0.000000
 70
    1
  0
VERTEX
  8
0
 10
5.02559012
 20
4.42980231
  0
VERTEX
  8
0
 10
5.04102222
 20
4.45461623
  0
VERTEX
  8
0
 10
5.05771808
 20
4.44966926
  0
VERTEX
  8
0
 10
5.05841284
 20
4.43708628
  0
VERTEX
  8
0
 10
5.04655426
 20
4.42706479
  0
VERTEX
  8
0
 10
5.02559012
 20
4.42980231
  0
SEQEND
  0
POLYLINE
  8
Default_Layer
 66
   1
 39
0.000000
 70
    1
  0
VERTEX
  8
0
 10
5.03639259
 20
4.38592843
  0
VERTEX
  8
0
 10
5.00449958
 20
4.39276125
  0
VERTEX
  8
0
 10
5.01221563
 20
4.41002310
  0
VERTEX
  8
0
 10
5.04205102
 20
4.40966348
  0
VERTEX
  8
0
 10
5.03639259
 20
4.38592843
  0
SEQEND
  0
POLYLINE
  8
Default_Layer
 66
   1
 39
0.000000
 70
    1
  0
VERTEX
  8
0
 10
4.64441728
 20
6.09269439
  0
VERTEX
  8
0
 10
4.62332674
 20
6.09089628
  0
VERTEX
  8
0
 10
4.63732346
 20
6.14685953
  0
VERTEX
  8
0
 10
4.65882057
 20
6.20130023
  0
VERTEX
  8
0
 10
4.72054896
 20
6.20849267
  0
VERTEX
  8
0
 10
4.67069666
 20
6.15435176
  0
VERTEX
  8
0
 10
4.64441728
 20
6.09269439
  0
SEQEND
  0
POLYLINE
  8
Default_Layer
 66
   1
 39
0.000000
 70
    1
  0
VERTEX
  8
0
 10
4.99678353
 20
4.47439544
  0
VERTEX
  8
0
 10
5.00168554
 20
4.48640740
  0
VERTEX
  8
0
 10
5.01530205
 20
4.48949956
  0
VERTEX
  8
0
 10
5.01118682
 20
4.47259733
  0
VERTEX
  8
0
 10
4.99678353
 20
4.47439544
  0
SEQEND
  0
POLYLINE
  8
Default_Layer
 66
   1
 39
0.000000
 70
    1
  0
VERTEX
  8
0
 10
5.06931440
 20
3.96409184
  0
VERTEX
  8
0
 10
5.06674238
 20
3.96373222
  0
VERTEX
  8
0
 10
5.05847920
 20
3.89542278
  0
VERTEX
  8
0
 10
5.04070440
 20
3.86978354
  0
VERTEX
  8
0
 10
4.98906748
 20
3.87023050
  0
VERTEX
  8
0
 10
4.58780713
 20
3.87430520
  0
VERTEX
  8
0
 10
4.19019917
 20
3.88605387
  0
VERTEX
  8
0
 10
4.09812098
 20
3.94862809
  0
VERTEX
  8
0
 10
4.54153662
 20
3.93280472
  0
VERTEX
  8
0
 10
5.02764773
 20
3.91554287
  0
VERTEX
  8
0
 10
5.04573691
 20
3.95267469
  0
VERTEX
  8
0
 10
5.04822386
 20
3.99070386
  0
VERTEX
  8
0
 10
5.05825042
 20
4.01698670
  0
VERTEX
  8
0
 10
5.05233909
 20
4.04500678
  0
VERTEX
  8
0
 10
5.02284584
 20
4.04830654
  0
VERTEX
  8
0
 10
4.99215390
 20
4.04644527
  0
VERTEX
  8
0
 10
4.52613384
 20
4.07028511
  0
VERTEX
  8
0
 10
4.06468477
 20
4.06802259
  0
VERTEX
  8
0
 10
4.04205102
 20
4.00724648
  0
VERTEX
  8
0
 10
4.02515398
 20
4.02499892
  0
VERTEX
  8
0
 10
4.02666053
 20
4.04510609
  0
VERTEX
  8
0
 10
4.04770946
 20
4.08528445
  0
VERTEX
  8
0
 10
4.49277820
 20
4.09288704
  0
VERTEX
  8
0
 10
4.94174238
 20
4.07737276
  0
VERTEX
  8
0
 10
5.08371769
 20
4.07305730
  0
VERTEX
  8
0
 10
5.07896010
 20
4.01727211
  0
VERTEX
  8
0
 10
5.06931440
 20
3.96409184
  0
SEQEND
  0
POLYLINE
  8
Default_Layer
 66
   1
 39
0.000000
 70
    1
  0
VERTEX
  8
0
 10
4.64544608
 20
6.44476431
  0
VERTEX
  8
0
 10
4.65264773
 20
6.46885899
  0
VERTEX
  8
0
 10
4.64544608
 20
6.44476431
  0
SEQEND
  0
POLYLINE
  8
Default_Layer
 66
   1
 39
0.000000
 70
    1
  0
VERTEX
  8
0
 10
5.02198929
 20
4.35428169
  0
VERTEX
  8
0
 10
5.02250370
 20
4.35248358
  0
VERTEX
  8
0
 10
5.00861481
 20
4.35104510
  0
VERTEX
  8
0
 10
5.00861481
 20
4.35320283
  0
VERTEX
  8
0
 10
5.02198929
 20
4.35428169
  0
SEQEND
  0
POLYLINE
  8
Default_Layer
 66
   1
 39
0.000000
 70
    1
  0
VERTEX
  8
0
 10
4.98135143
 20
4.42800420
  0
VERTEX
  8
0
 10
4.97157777
 20
4.42728496
  0
VERTEX
  8
0
 10
4.97826907
 20
4.44652042
  0
VERTEX
  8
0
 10
5.00038436
 20
4.45605472
  0
VERTEX
  8
0
 10
4.99716265
 20
4.43858154
  0
VERTEX
  8
0
 10
4.98135143
 20
4.42800420
  0
SEQEND
  0
POLYLINE
  8
Default_Layer
 66
   1
 39
0.000000
 70
    1
  0
VERTEX
  8
0
 10
4.98855308
 20
4.31436365
  0
VERTEX
  8
0
 10
4.98186584
 20
4.31364441
  0
VERTEX
  8
0
 10
4.98803868
 20
4.33486211
  0
VERTEX
  8
0
 10
5.01478765
 20
4.33198513
  0
VERTEX
  8
0
 10
5.00809243
 20
4.31676431
  0
VERTEX
  8
0
 10
4.98855308
 20
4.31436365
  0
SEQEND
  0
POLYLINE
  8
Default_Layer
 66
   1
 39
0.000000
 70
    1
  0
VERTEX
  8
0
 10
4.73598106
 20
5.83052996
  0
VERTEX
  8
0
 10
4.67476707
 20
5.82046054
  0
VERTEX
  8
0
 10
4.69678096
 20
5.85361104
  0
VERTEX
  8
0
 10
4.73958189
 20
5.87476346
  0
VERTEX
  8
0
 10
4.73807854
 20
5.85150891
  0
VERTEX
  8
0
 10
4.73598106
 20
5.83052996
  0
SEQEND
  0
POLYLINE
  8
Default_Layer
 66
   1
 39
0.000000
 70
    1
  0
VERTEX
  8
0
 10
4.95460246
 20
4.38880541
  0
VERTEX
  8
0
 10
4.95957192
 20
4.40644720
  0
VERTEX
  8
0
 10
4.98186584
 20
4.40966348
  0
VERTEX
  8
0
 10
4.97483234
 20
4.39418009
  0
VERTEX
  8
0
 10
4.95460246
 20
4.38880541
  0
SEQEND
  0
POLYLINE
  8
Default_Layer
 66
   1
 39
0.000000
 70
    1
  0
VERTEX
  8
0
 10
4.95717448
 20
4.47115884
  0
VERTEX
  8
0
 10
4.95511687
 20
4.48266674
  0
VERTEX
  8
0
 10
4.96180411
 20
4.48302637
  0
VERTEX
  8
0
 10
4.95717448
 20
4.47115884
  0
SEQEND
  0
POLYLINE
  8
Default_Layer
 66
   1
 39
0.000000
 70
    1
  0
VERTEX
  8
0
 10
4.96128971
 20
4.25502603
  0
VERTEX
  8
0
 10
4.95820329
 20
4.25682414
  0
VERTEX
  8
0
 10
4.97650265
 20
4.26639115
  0
VERTEX
  8
0
 10
4.97068425
 20
4.27993291
  0
VERTEX
  8
0
 10
4.96608422
 20
4.29136035
  0
VERTEX
  8
0
 10
4.98803868
 20
4.29458444
  0
VERTEX
  8
0
 10
4.99524032
 20
4.29314596
  0
VERTEX
  8
0
 10
4.98620464
 20
4.26717383
  0
VERTEX
  8
0
 10
4.96128971
 20
4.25502603
  0
SEQEND
  0
POLYLINE
  8
Default_Layer
 66
   1
 39
0.000000
 70
    1
  0
VERTEX
  8
0
 10
4.93454073
 20
4.43088118
  0
VERTEX
  8
0
 10
4.93387625
 20
4.44613558
  0
VERTEX
  8
0
 10
4.95048724
 20
4.45173925
  0
VERTEX
  8
0
 10
4.93454073
 20
4.43088118
  0
SEQEND
  0
POLYLINE
  8
Default_Layer
 66
   1
 39
0.000000
 70
    1
  0
VERTEX
  8
0
 10
4.60840905
 20
6.15994370
  0
VERTEX
  8
0
 10
4.62126913
 20
6.20022136
  0
VERTEX
  8
0
 10
4.63207160
 20
6.20094061
  0
VERTEX
  8
0
 10
4.62515680
 20
6.17723064
  0
VERTEX
  8
0
 10
4.60840905
 20
6.15994370
  0
SEQEND
  0
POLYLINE
  8
Default_Layer
 66
   1
 39
0.000000
 70
    1
  0
VERTEX
  8
0
 10
4.87024032
 20
4.37442053
  0
VERTEX
  8
0
 10
4.87435555
 20
4.48734183
  0
VERTEX
  8
0
 10
4.92579588
 20
4.49849011
  0
VERTEX
  8
0
 10
4.87024032
 20
4.37442053
  0
SEQEND
  0
POLYLINE
  8
Default_Layer
 66
   1
 39
0.000000
 70
    1
  0
VERTEX
  8
0
 10
4.96643374
 20
4.22517740
  0
VERTEX
  8
0
 10
4.94482880
 20
4.23524682
  0
VERTEX
  8
0
 10
4.97106337
 20
4.23920266
  0
VERTEX
  8
0
 10
4.96643374
 20
4.22517740
  0
SEQEND
  0
POLYLINE
  8
Default_Layer
 66
   1
 39
0.000000
 70
    1
  0
VERTEX
  8
0
 10
4.93865596
 20
4.31184630
  0
VERTEX
  8
0
 10
4.92476707
 20
4.31076743
  0
VERTEX
  8
0
 10
4.92907083
 20
4.32664142
  0
VERTEX
  8
0
 10
4.94740082
 20
4.33414286
  0
VERTEX
  8
0
 10
4.93865596
 20
4.31184630
  0
SEQEND
  0
POLYLINE
  8
Default_Layer
 66
   1
 39
0.000000
 70
    1
  0
VERTEX
  8
0
 10
4.91859423
 20
4.38736692
  0
VERTEX
  8
0
 10
4.91482899
 20
4.39829196
  0
VERTEX
  8
0
 10
4.92168065
 20
4.40930386
  0
VERTEX
  8
0
 10
4.93093991
 20
4.41218083
  0
VERTEX
  8
0
 10
4.91859423
 20
4.38736692
  0
SEQEND
  0
POLYLINE
  8
Default_Layer
 66
   1
 39
0.000000
 70
    1
  0
VERTEX
  8
0
 10
4.62795637
 20
5.81614508
  0
VERTEX
  8
0
 10
4.53896460
 20
5.80571604
  0
VERTEX
  8
0
 10
4.55748312
 20
5.85929972
  0
VERTEX
  8
0
 10
4.66602222
 20
5.87152686
  0
VERTEX
  8
0
 10
4.62795637
 20
5.81614508
  0
SEQEND
  0
POLYLINE
  8
Default_Layer
 66
   1
 39
0.000000
 70
    1
  0
VERTEX
  8
0
 10
4.60480822
 20
6.12649885
  0
VERTEX
  8
0
 10
4.59760658
 20
6.12577961
  0
VERTEX
  8
0
 10
4.59754035
 20
6.13830259
  0
VERTEX
  8
0
 10
4.61406748
 20
6.14555882
  0
VERTEX
  8
0
 10
4.60480822
 20
6.12649885
  0
SEQEND
  0
POLYLINE
  8
Default_Layer
 66
   1
 39
0.000000
 70
    1
  0
VERTEX
  8
0
 10
4.91139259
 20
4.27624372
  0
VERTEX
  8
0
 10
4.91139259
 20
4.29098822
  0
VERTEX
  8
0
 10
4.93196872
 20
4.29278633
  0
VERTEX
  8
0
 10
4.92771480
 20
4.28029680
  0
VERTEX
  8
0
 10
4.91139259
 20
4.27624372
  0
SEQEND
  0
POLYLINE
  8
Default_Layer
 66
   1
 39
0.000000
 70
    1
  0
VERTEX
  8
0
 10
4.97672180
 20
3.94143565
  0
VERTEX
  8
0
 10
4.96591934
 20
3.94071641
  0
VERTEX
  8
0
 10
4.97099032
 20
3.96989128
  0
VERTEX
  8
0
 10
4.98443785
 20
3.99394046
  0
VERTEX
  8
0
 10
4.97981980
 20
3.96621621
  0
VERTEX
  8
0
 10
4.97672180
 20
3.94143565
  0
SEQEND
  0
POLYLINE
  8
Default_Layer
 66
   1
 39
0.000000
 70
    1
  0
VERTEX
  8
0
 10
4.91242139
 20
4.36650884
  0
VERTEX
  8
0
 10
4.90573415
 20
4.36291262
  0
VERTEX
  8
0
 10
4.91190699
 20
4.37010506
  0
VERTEX
  8
0
 10
4.91242139
 20
4.36650884
  0
SEQEND
  0
POLYLINE
  8
Default_Layer
 66
   1
 39
0.000000
 70
    1
  0
VERTEX
  8
0
 10
4.57857366
 20
6.18080177
  0
VERTEX
  8
0
 10
4.56417036
 20
6.18152102
  0
VERTEX
  8
0
 10
4.56822354
 20
6.19387785
  0
VERTEX
  8
0
 10
4.58526090
 20
6.19698476
  0
VERTEX
  8
0
 10
4.57857366
 20
6.18080177
  0
SEQEND
  0
POLYLINE
  8
Default_Layer
 66
   1
 39
0.000000
 70
    1
  0
VERTEX
  8
0
 10
4.58783292
 20
6.08765968
  0
VERTEX
  8
0
 10
4.58419975
 20
6.09988408
  0
VERTEX
  8
0
 10
4.59349135
 20
6.11175435
  0
VERTEX
  8
0
 10
4.60069300
 20
6.10923700
  0
VERTEX
  8
0
 10
4.58783292
 20
6.08765968
  0
SEQEND
  0
POLYLINE
  8
Default_Layer
 66
   1
 39
0.000000
 70
    1
  0
VERTEX
  8
0
 10
4.89235966
 20
4.24747396
  0
VERTEX
  8
0
 10
4.90007571
 20
4.25970111
  0
VERTEX
  8
0
 10
4.92116625
 20
4.25862225
  0
VERTEX
  8
0
 10
4.91213120
 20
4.24721131
  0
VERTEX
  8
0
 10
4.89235966
 20
4.24747396
  0
SEQEND
  0
POLYLINE
  8
Default_Layer
 66
   1
 39
0.000000
 70
    1
  0
VERTEX
  8
0
 10
4.55954073
 20
6.15275126
  0
VERTEX
  8
0
 10
4.55696872
 20
6.15239164
  0
VERTEX
  8
0
 10
4.55806877
 20
6.16439541
  0
VERTEX
  8
0
 10
4.57651604
 20
6.16893425
  0
VERTEX
  8
0
 10
4.57418715
 20
6.15808288
  0
VERTEX
  8
0
 10
4.55954073
 20
6.15275126
  0
SEQEND
  0
POLYLINE
  8
Default_Layer
 66
   1
 39
0.000000
 70
    1
  0
VERTEX
  8
0
 10
4.42425267
 20
5.31087618
  0
VERTEX
  8
0
 10
4.44836564
 20
5.35698759
  0
VERTEX
  8
0
 10
4.50089876
 20
5.39179113
  0
VERTEX
  8
0
 10
4.70305925
 20
5.41192996
  0
VERTEX
  8
0
 10
4.69431440
 20
5.34252292
  0
VERTEX
  8
0
 10
4.42425267
 20
5.31087618
  0
SEQEND
  0
POLYLINE
  8
Default_Layer
 66
   1
 39
0.000000
 70
    1
  0
VERTEX
  8
0
 10
4.87949958
 20
4.30681159
  0
VERTEX
  8
0
 10
4.89235966
 20
4.32946778
  0
VERTEX
  8
0
 10
4.88994370
 20
4.31558938
  0
VERTEX
  8
0
 10
4.87949958
 20
4.30681159
  0
SEQEND
  0
POLYLINE
  8
Default_Layer
 66
   1
 39
0.000000
 70
    1
  0
VERTEX
  8
0
 10
4.55079588
 20
6.12182377
  0
VERTEX
  8
0
 10
4.54153662
 20
6.12074490
  0
VERTEX
  8
0
 10
4.54617306
 20
6.13328330
  0
VERTEX
  8
0
 10
4.56519917
 20
6.13656827
  0
VERTEX
  8
0
 10
4.56441381
 20
6.12570616
  0
VERTEX
  8
0
 10
4.55079588
 20
6.12182377
  0
SEQEND
  0
POLYLINE
  8
Default_Layer
 66
   1
 39
0.000000
 70
    1
  0
VERTEX
  8
0
 10
4.93556954
 20
3.94575112
  0
VERTEX
  8
0
 10
4.80902633
 20
3.94179527
  0
VERTEX
  8
0
 10
4.82857366
 20
3.99717706
  0
VERTEX
  8
0
 10
4.93917036
 20
3.99717706
  0
VERTEX
  8
0
 10
4.93369962
 20
3.97111454
  0
VERTEX
  8
0
 10
4.93556954
 20
3.94575112
  0
SEQEND
  0
POLYLINE
  8
Default_Layer
 66
   1
 39
0.000000
 70
    1
  0
VERTEX
  8
0
 10
4.87024032
 20
4.27768221
  0
VERTEX
  8
0
 10
4.86893560
 20
4.28431989
  0
VERTEX
  8
0
 10
4.87847078
 20
4.28811125
  0
VERTEX
  8
0
 10
4.87024032
 20
4.27768221
  0
SEQEND
  0
POLYLINE
  8
Default_Layer
 66
   1
 39
0.000000
 70
    1
  0
VERTEX
  8
0
 10
4.54102222
 20
6.08370384
  0
VERTEX
  8
0
 10
4.52816213
 20
6.08262497
  0
VERTEX
  8
0
 10
4.55131028
 20
6.10312342
  0
VERTEX
  8
0
 10
4.55121640
 20
6.09130876
  0
VERTEX
  8
0
 10
4.54102222
 20
6.08370384
  0
SEQEND
  0
POLYLINE
  8
Default_Layer
 66
   1
 39
0.000000
 70
    1
  0
VERTEX
  8
0
 10
4.52044608
 20
6.16821500
  0
VERTEX
  8
0
 10
4.52970534
 20
6.18835384
  0
VERTEX
  8
0
 10
4.52044608
 20
6.16821500
  0
SEQEND
  0
POLYLINE
  8
Default_Layer
 66
   1
 39
0.000000
 70
    1
  0
VERTEX
  8
0
 10
4.51787407
 20
6.14447995
  0
VERTEX
  8
0
 10
4.50810041
 20
6.14340109
  0
VERTEX
  8
0
 10
4.51890287
 20
6.15418975
  0
VERTEX
  8
0
 10
4.51787407
 20
6.14447995
  0
SEQEND
  0
POLYLINE
  8
Default_Layer
 66
   1
 39
0.000000
 70
    1
  0
VERTEX
  8
0
 10
4.80851193
 20
4.11297534
  0
VERTEX
  8
0
 10
4.45460246
 20
4.11801005
  0
VERTEX
  8
0
 10
4.49183124
 20
4.17042190
  0
VERTEX
  8
0
 10
4.54256543
 20
4.21726572
  0
VERTEX
  8
0
 10
4.67003012
 20
4.22465469
  0
VERTEX
  8
0
 10
4.79565185
 20
4.22445816
  0
VERTEX
  8
0
 10
4.85686584
 20
4.22086194
  0
VERTEX
  8
0
 10
4.80851193
 20
4.11297534
  0
SEQEND
  0
POLYLINE
  8
Default_Layer
 66
   1
 39
0.000000
 70
    1
  0
VERTEX
  8
0
 10
4.50604279
 20
6.11606982
  0
VERTEX
  8
0
 10
4.49884115
 20
6.11535057
  0
VERTEX
  8
0
 10
4.49897341
 20
6.12487044
  0
VERTEX
  8
0
 10
4.51067242
 20
6.12793734
  0
VERTEX
  8
0
 10
4.50604279
 20
6.11606982
  0
SEQEND
  0
POLYLINE
  8
Default_Layer
 66
   1
 39
0.000000
 70
    1
  0
VERTEX
  8
0
 10
4.48906748
 20
6.07651140
  0
VERTEX
  8
0
 10
4.48752427
 20
6.09952720
  0
VERTEX
  8
0
 10
4.50192757
 20
6.09880796
  0
VERTEX
  8
0
 10
4.48906748
 20
6.07651140
  0
SEQEND
  0
POLYLINE
  8
Default_Layer
 66
   1
 39
0.000000
 70
    1
  0
VERTEX
  8
0
 10
4.47209217
 20
6.13153356
  0
VERTEX
  8
0
 10
4.44894403
 20
6.07291518
  0
VERTEX
  8
0
 10
4.24626913
 20
6.03911071
  0
VERTEX
  8
0
 10
4.33577530
 20
6.14555882
  0
VERTEX
  8
0
 10
4.48495226
 20
6.17972291
  0
VERTEX
  8
0
 10
4.48074810
 20
6.15511159
  0
VERTEX
  8
0
 10
4.47209217
 20
6.13153356
  0
SEQEND
  0
POLYLINE
  8
Default_Layer
 66
   1
 39
0.000000
 70
    1
  0
VERTEX
  8
0
 10
4.49832674
 20
5.83052996
  0
VERTEX
  8
0
 10
4.49729794
 20
5.83556466
  0
VERTEX
  8
0
 10
4.51375884
 20
5.83700315
  0
VERTEX
  8
0
 10
4.51478765
 20
5.83196844
  0
VERTEX
  8
0
 10
4.49832674
 20
5.83052996
  0
SEQEND
  0
POLYLINE
  8
Default_Layer
 66
   1
 39
0.000000
 70
    1
  0
VERTEX
  8
0
 10
4.48958189
 20
5.79960247
  0
VERTEX
  8
0
 10
4.48803868
 20
5.80931226
  0
VERTEX
  8
0
 10
4.50501399
 20
5.80787377
  0
VERTEX
  8
0
 10
4.48958189
 20
5.79960247
  0
SEQEND
  0
POLYLINE
  8
Default_Layer
 66
   1
 39
0.000000
 70
    1
  0
VERTEX
  8
0
 10
4.78021975
 20
3.94611074
  0
VERTEX
  8
0
 10
4.68351193
 20
3.94790885
  0
VERTEX
  8
0
 10
4.69087587
 20
3.99147620
  0
VERTEX
  8
0
 10
4.70446100
 20
4.00766570
  0
VERTEX
  8
0
 10
4.74009629
 20
4.00652723
  0
VERTEX
  8
0
 10
4.79153662
 20
4.00113290
  0
VERTEX
  8
0
 10
4.78103501
 20
3.97395155
  0
VERTEX
  8
0
 10
4.78021975
 20
3.94611074
  0
SEQEND
  0
POLYLINE
  8
Default_Layer
 66
   1
 39
0.000000
 70
    1
  0
VERTEX
  8
0
 10
4.44894403
 20
5.82441638
  0
VERTEX
  8
0
 10
4.44791522
 20
5.82945109
  0
VERTEX
  8
0
 10
4.46180411
 20
5.83052996
  0
VERTEX
  8
0
 10
4.44894403
 20
5.82441638
  0
SEQEND
  0
POLYLINE
  8
Default_Layer
 66
   1
 39
0.000000
 70
    1
  0
VERTEX
  8
0
 10
4.71283292
 20
4.16152431
  0
VERTEX
  8
0
 10
4.67880546
 20
4.16121018
  0
VERTEX
  8
0
 10
4.64750370
 20
4.16763788
  0
VERTEX
  8
0
 10
4.64233999
 20
4.18378428
  0
VERTEX
  8
0
 10
4.65573415
 20
4.20072311
  0
VERTEX
  8
0
 10
4.68773023
 20
4.21236474
  0
VERTEX
  8
0
 10
4.72775061
 20
4.21366950
  0
VERTEX
  8
0
 10
4.73752427
 20
4.18921520
  0
VERTEX
  8
0
 10
4.71283292
 20
4.16152431
  0
SEQEND
  0
POLYLINE
  8
Default_Layer
 66
   1
 39
0.000000
 70
    1
  0
VERTEX
  8
0
 10
4.63207160
 20
4.49021881
  0
VERTEX
  8
0
 10
4.49318271
 20
4.45965094
  0
VERTEX
  8
0
 10
4.29822791
 20
4.39956031
  0
VERTEX
  8
0
 10
4.12178353
 20
4.31760025
  0
VERTEX
  8
0
 10
4.13610626
 20
4.39342349
  0
VERTEX
  8
0
 10
4.17270946
 20
4.46756262
  0
VERTEX
  8
0
 10
4.28433497
 20
4.59846502
  0
VERTEX
  8
0
 10
4.63773003
 20
4.60817482
  0
VERTEX
  8
0
 10
4.63207160
 20
4.49021881
  0
SEQEND
  0
POLYLINE
  8
Default_Layer
 66
   1
 39
0.000000
 70
    1
  0
VERTEX
  8
0
 10
4.69225678
 20
4.18346125
  0
VERTEX
  8
0
 10
4.68299752
 20
4.18238238
  0
VERTEX
  8
0
 10
4.69842962
 20
4.19065369
  0
VERTEX
  8
0
 10
4.69225678
 20
4.18346125
  0
SEQEND
  0
POLYLINE
  8
Default_Layer
 66
   1
 39
0.000000
 70
    1
  0
VERTEX
  8
0
 10
4.61921152
 20
4.31508290
  0
VERTEX
  8
0
 10
4.52158619
 20
4.30152025
  0
VERTEX
  8
0
 10
4.43145431
 20
4.27552448
  0
VERTEX
  8
0
 10
4.49163950
 20
4.38916503
  0
VERTEX
  8
0
 10
4.54211037
 20
4.43529990
  0
VERTEX
  8
0
 10
4.61355308
 20
4.45821245
  0
VERTEX
  8
0
 10
4.62744197
 20
4.45929132
  0
VERTEX
  8
0
 10
4.61921152
 20
4.31508290
  0
SEQEND
  0
POLYLINE
  8
Default_Layer
 66
   1
 39
0.000000
 70
    1
  0
VERTEX
  8
0
 10
4.33217448
 20
5.77946363
  0
VERTEX
  8
0
 10
4.11355308
 20
5.74206295
  0
VERTEX
  8
0
 10
4.12888802
 20
5.76569281
  0
VERTEX
  8
0
 10
4.15727736
 20
5.78090212
  0
VERTEX
  8
0
 10
4.36200987
 20
5.82585487
  0
VERTEX
  8
0
 10
4.35528643
 20
5.79814717
  0
VERTEX
  8
0
 10
4.33217448
 20
5.77946363
  0
SEQEND
  0
POLYLINE
  8
Default_Layer
 66
   1
 39
0.000000
 70
    1
  0
VERTEX
  8
0
 10
4.59246255
 20
4.15505111
  0
VERTEX
  8
0
 10
4.55836410
 20
4.15200467
  0
VERTEX
  8
0
 10
4.52867654
 20
4.15936658
  0
VERTEX
  8
0
 10
4.53441593
 20
4.19107094
  0
VERTEX
  8
0
 10
4.56262715
 20
4.21438874
  0
VERTEX
  8
0
 10
4.63824444
 20
4.20395970
  0
VERTEX
  8
0
 10
4.62181530
 20
4.17613058
  0
VERTEX
  8
0
 10
4.59246255
 20
4.15505111
  0
SEQEND
  0
POLYLINE
  8
Default_Layer
 66
   1
 39
0.000000
 70
    1
  0
VERTEX
  8
0
 10
4.21386172
 20
6.03227789
  0
VERTEX
  8
0
 10
4.18556954
 20
6.02688356
  0
VERTEX
  8
0
 10
4.22946492
 20
6.08792121
  0
VERTEX
  8
0
 10
4.25798425
 20
6.11485510
  0
VERTEX
  8
0
 10
4.29770946
 20
6.13045470
  0
VERTEX
  8
0
 10
4.21386172
 20
6.03227789
  0
SEQEND
  0
POLYLINE
  8
Default_Layer
 66
   1
 39
0.000000
 70
    1
  0
VERTEX
  8
0
 10
4.37486995
 20
5.30368374
  0
VERTEX
  8
0
 10
4.39647489
 20
5.37381003
  0
VERTEX
  8
0
 10
4.42888230
 20
5.37848512
  0
VERTEX
  8
0
 10
4.37486995
 20
5.30368374
  0
SEQEND
  0
POLYLINE
  8
Default_Layer
 66
   1
 39
0.000000
 70
    1
  0
VERTEX
  8
0
 10
4.60995226
 20
4.24855283
  0
VERTEX
  8
0
 10
4.51375884
 20
4.24531623
  0
VERTEX
  8
0
 10
4.40830617
 20
4.11908891
  0
VERTEX
  8
0
 10
4.39493168
 20
4.11765043
  0
VERTEX
  8
0
 10
4.41545959
 20
4.17124323
  0
VERTEX
  8
0
 10
4.41958475
 20
4.19816601
  0
VERTEX
  8
0
 10
4.40676296
 20
4.22445816
  0
VERTEX
  8
0
 10
4.41698344
 20
4.23544308
  0
VERTEX
  8
0
 10
4.43299752
 20
4.24315850
  0
VERTEX
  8
0
 10
4.51776630
 20
4.27450639
  0
VERTEX
  8
0
 10
4.61406748
 20
4.28919011
  0
VERTEX
  8
0
 10
4.60995226
 20
4.24855283
  0
SEQEND
  0
POLYLINE
  8
Default_Layer
 66
   1
 39
0.000000
 70
    1
  0
VERTEX
  8
0
 10
4.64287407
 20
3.94826847
  0
VERTEX
  8
0
 10
4.40933497
 20
3.95474167
  0
VERTEX
  8
0
 10
4.40836789
 20
3.98577111
  0
VERTEX
  8
0
 10
4.42270946
 20
4.01443892
  0
VERTEX
  8
0
 10
4.52764773
 20
4.01371967
  0
VERTEX
  8
0
 10
4.52332147
 20
3.97933059
  0
VERTEX
  8
0
 10
4.52249568
 20
3.96317569
  0
VERTEX
  8
0
 10
4.54410864
 20
3.95150507
  0
VERTEX
  8
0
 10
4.56218927
 20
3.98021401
  0
VERTEX
  8
0
 10
4.56725678
 20
4.01228118
  0
VERTEX
  8
0
 10
4.65882057
 20
4.00832534
  0
VERTEX
  8
0
 10
4.64287407
 20
3.94826847
  0
SEQEND
  0
POLYLINE
  8
Default_Layer
 66
   1
 39
0.000000
 70
    1
  0
VERTEX
  8
0
 10
4.58783292
 20
4.18130352
  0
VERTEX
  8
0
 10
4.57085761
 20
4.18166314
  0
VERTEX
  8
0
 10
4.57034320
 20
4.18454012
  0
VERTEX
  8
0
 10
4.59349135
 20
4.18849596
  0
VERTEX
  8
0
 10
4.58783292
 20
4.18130352
  0
SEQEND
  0
POLYLINE
  8
Default_Layer
 66
   1
 39
0.000000
 70
    1
  0
VERTEX
  8
0
 10
4.33166008
 20
5.32633993
  0
VERTEX
  8
0
 10
4.33559237
 20
5.33838025
  0
VERTEX
  8
0
 10
4.35172180
 20
5.33964594
  0
VERTEX
  8
0
 10
4.33166008
 20
5.32633993
  0
SEQEND
  0
POLYLINE
  8
Default_Layer
 66
   1
 39
0.000000
 70
    1
  0
VERTEX
  8
0
 10
4.15316213
 20
6.01933150
  0
VERTEX
  8
0
 10
3.97260658
 20
5.97365951
  0
VERTEX
  8
0
 10
4.08404086
 20
6.04725377
  0
VERTEX
  8
0
 10
4.21540493
 20
6.10276380
  0
VERTEX
  8
0
 10
4.18893322
 20
6.05926563
  0
VERTEX
  8
0
 10
4.15316213
 20
6.01933150
  0
SEQEND
  0
POLYLINE
  8
Default_Layer
 66
   1
 39
0.000000
 70
    1
  0
VERTEX
  8
0
 10
4.32085761
 20
5.29397395
  0
VERTEX
  8
0
 10
4.32304241
 20
5.30636990
  0
VERTEX
  8
0
 10
4.33783292
 20
5.30727996
  0
VERTEX
  8
0
 10
4.32085761
 20
5.29397395
  0
SEQEND
  0
POLYLINE
  8
Default_Layer
 66
   1
 39
0.000000
 70
    1
  0
VERTEX
  8
0
 10
4.37898518
 20
4.24747396
  0
VERTEX
  8
0
 10
4.39030205
 20
4.23956228
  0
VERTEX
  8
0
 10
4.34981247
 20
4.23449620
  0
VERTEX
  8
0
 10
4.30388230
 20
4.23632568
  0
VERTEX
  8
0
 10
4.29686096
 20
4.21290546
  0
VERTEX
  8
0
 10
4.30632308
 20
4.19093968
  0
VERTEX
  8
0
 10
4.31572221
 20
4.16901072
  0
VERTEX
  8
0
 10
4.30851193
 20
4.14570094
  0
VERTEX
  8
0
 10
4.27952614
 20
4.12005041
  0
VERTEX
  8
0
 10
4.23392345
 20
4.11585232
  0
VERTEX
  8
0
 10
4.23129588
 20
4.13670099
  0
VERTEX
  8
0
 10
4.24273119
 20
4.15566562
  0
VERTEX
  8
0
 10
4.25143445
 20
4.17369366
  0
VERTEX
  8
0
 10
4.24061069
 20
4.19173256
  0
VERTEX
  8
0
 10
4.18145431
 20
4.20216159
  0
VERTEX
  8
0
 10
4.15059012
 20
4.11369458
  0
VERTEX
  8
0
 10
4.13670123
 20
4.11225610
  0
VERTEX
  8
0
 10
4.14562252
 20
4.13681599
  0
VERTEX
  8
0
 10
4.14904691
 20
4.16224355
  0
VERTEX
  8
0
 10
4.11882848
 20
4.17425857
  0
VERTEX
  8
0
 10
4.08989053
 20
4.17375146
  0
VERTEX
  8
0
 10
4.07342962
 20
4.11585232
  0
VERTEX
  8
0
 10
4.01273003
 20
4.11045799
  0
VERTEX
  8
0
 10
3.99832674
 20
4.06514562
  0
VERTEX
  8
0
 10
3.97473650
 20
4.09815171
  0
VERTEX
  8
0
 10
3.98833086
 20
4.13326827
  0
VERTEX
  8
0
 10
4.03742139
 20
4.19964424
  0
VERTEX
  8
0
 10
4.07249617
 20
4.23991287
  0
VERTEX
  8
0
 10
4.11252427
 20
4.27480524
  0
VERTEX
  8
0
 10
4.19256521
 20
4.32608008
  0
VERTEX
  8
0
 10
4.28361024
 20
4.36607154
  0
VERTEX
  8
0
 10
4.47775061
 20
4.42728496
  0
VERTEX
  8
0
 10
4.42070431
 20
4.33923875
  0
VERTEX
  8
0
 10
4.37898518
 20
4.24747396
  0
SEQEND
  0
POLYLINE
  8
Default_Layer
 66
   1
 39
0.000000
 70
    1
  0
VERTEX
  8
0
 10
4.28484938
 20
5.32238409
  0
VERTEX
  8
0
 10
4.28536378
 20
5.33604972
  0
VERTEX
  8
0
 10
4.29925267
 20
5.33533048
  0
VERTEX
  8
0
 10
4.29639072
 20
5.32552345
  0
VERTEX
  8
0
 10
4.28484938
 20
5.32238409
  0
SEQEND
  0
POLYLINE
  8
Default_Layer
 66
   1
 39
0.000000
 70
    1
  0
VERTEX
  8
0
 10
4.02147489
 20
6.25272617
  0
VERTEX
  8
0
 10
4.08423209
 20
6.27933820
  0
VERTEX
  8
0
 10
4.11355308
 20
6.28581139
  0
VERTEX
  8
0
 10
4.07170959
 20
6.26373676
  0
VERTEX
  8
0
 10
4.02147489
 20
6.25272617
  0
SEQEND
  0
POLYLINE
  8
Default_Layer
 66
   1
 39
0.000000
 70
    1
  0
VERTEX
  8
0
 10
4.24524032
 20
5.31591089
  0
VERTEX
  8
0
 10
4.23238024
 20
5.31770900
  0
VERTEX
  8
0
 10
4.23186584
 20
5.32166484
  0
VERTEX
  8
0
 10
4.24884115
 20
5.32130522
  0
VERTEX
  8
0
 10
4.24524032
 20
5.31591089
  0
SEQEND
  0
POLYLINE
  8
Default_Layer
 66
   1
 39
0.000000
 70
    1
  0
VERTEX
  8
0
 10
4.43711275
 20
3.79470988
  0
VERTEX
  8
0
 10
4.39633021
 20
3.79924791
  0
VERTEX
  8
0
 10
4.35738024
 20
3.81125249
  0
VERTEX
  8
0
 10
4.03433497
 20
3.81880455
  0
VERTEX
  8
0
 10
4.02313015
 20
3.80266243
  0
VERTEX
  8
0
 10
4.03250543
 20
3.78466492
  0
VERTEX
  8
0
 10
4.03996627
 20
3.76593594
  0
VERTEX
  8
0
 10
4.02301810
 20
3.74759940
  0
VERTEX
  8
0
 10
3.93394062
 20
3.75791803
  0
VERTEX
  8
0
 10
3.84914979
 20
3.77960576
  0
VERTEX
  8
0
 10
3.84688640
 20
3.75758405
  0
VERTEX
  8
0
 10
3.86342808
 20
3.73808776
  0
VERTEX
  8
0
 10
3.88080387
 20
3.71831258
  0
VERTEX
  8
0
 10
3.88104279
 20
3.69545421
  0
VERTEX
  8
0
 10
3.84725781
 20
3.68279772
  0
VERTEX
  8
0
 10
3.80645431
 20
3.68214820
  0
VERTEX
  8
0
 10
3.73303868
 20
3.70385121
  0
VERTEX
  8
0
 10
3.66962304
 20
3.73609150
  0
VERTEX
  8
0
 10
3.65891079
 20
3.72453381
  0
VERTEX
  8
0
 10
3.65886642
 20
3.71072444
  0
VERTEX
  8
0
 10
3.65596990
 20
3.69836040
  0
VERTEX
  8
0
 10
3.63670123
 20
3.69113875
  0
VERTEX
  8
0
 10
3.52457494
 20
3.71145780
  0
VERTEX
  8
0
 10
3.42116625
 20
3.74795902
  0
VERTEX
  8
0
 10
2.45254485
 20
3.83642603
  0
VERTEX
  8
0
 10
2.44928709
 20
3.84901249
  0
VERTEX
  8
0
 10
2.45937047
 20
3.85776901
  0
VERTEX
  8
0
 10
2.47028487
 20
3.86619317
  0
VERTEX
  8
0
 10
2.46952016
 20
3.87778256
  0
VERTEX
  8
0
 10
2.32225203
 20
3.89776024
  0
VERTEX
  8
0
 10
2.17168065
 20
3.90619270
  0
VERTEX
  8
0
 10
1.77456131
 20
3.94754923
  0
VERTEX
  8
0
 10
1.79279665
 20
3.97335215
  0
VERTEX
  8
0
 10
1.79307983
 20
4.00113290
  0
VERTEX
  8
0
 10
2.00506819
 20
3.99258680
  0
VERTEX
  8
0
 10
2.21077530
 20
3.97308239
  0
VERTEX
  8
0
 10
3.16396460
 20
3.91374476
  0
VERTEX
  8
0
 10
3.39118303
 20
3.89715027
  0
VERTEX
  8
0
 10
3.61972592
 20
3.88425576
  0
VERTEX
  8
0
 10
3.65007571
 20
3.87814218
  0
VERTEX
  8
0
 10
3.65573415
 20
3.88533462
  0
VERTEX
  8
0
 10
4.04888185
 20
3.86958772
  0
VERTEX
  8
0
 10
4.44071357
 20
3.85368789
  0
VERTEX
  8
0
 10
4.46398646
 20
3.82228120
  0
VERTEX
  8
0
 10
4.45805703
 20
3.80578320
  0
VERTEX
  8
0
 10
4.43711275
 20
3.79470988
  0
SEQEND
  0
POLYLINE
  8
Default_Layer
 66
   1
 39
0.000000
 70
    1
  0
VERTEX
  8
0
 10
4.17939670
 20
5.26844079
  0
VERTEX
  8
0
 10
3.86766831
 20
5.19651639
  0
VERTEX
  8
0
 10
3.89308853
 20
5.22954400
  0
VERTEX
  8
0
 10
3.93694325
 20
5.25199851
  0
VERTEX
  8
0
 10
4.03947901
 20
5.28678151
  0
VERTEX
  8
0
 10
4.19945843
 20
5.33065539
  0
VERTEX
  8
0
 10
4.17939670
 20
5.26844079
  0
SEQEND
  0
POLYLINE
  8
Default_Layer
 66
   1
 39
0.000000
 70
    1
  0
VERTEX
  8
0
 10
4.07651604
 20
5.73091467
  0
VERTEX
  8
0
 10
4.04873827
 20
5.72875693
  0
VERTEX
  8
0
 10
4.07096711
 20
5.75098571
  0
VERTEX
  8
0
 10
4.10480822
 20
5.76184216
  0
VERTEX
  8
0
 10
4.07651604
 20
5.73091467
  0
SEQEND
  0
POLYLINE
  8
Default_Layer
 66
   1
 39
0.000000
 70
    1
  0
VERTEX
  8
0
 10
4.37229794
 20
3.95653978
  0
VERTEX
  8
0
 10
4.27816213
 20
3.96013600
  0
VERTEX
  8
0
 10
4.29169846
 20
4.00454284
  0
VERTEX
  8
0
 10
4.30676218
 20
4.02114172
  0
VERTEX
  8
0
 10
4.33731851
 20
4.02091211
  0
VERTEX
  8
0
 10
4.38155720
 20
4.01767551
  0
VERTEX
  8
0
 10
4.37010986
 20
3.98727069
  0
VERTEX
  8
0
 10
4.37229794
 20
3.95653978
  0
SEQEND
  0
POLYLINE
  8
Default_Layer
 66
   1
 39
0.000000
 70
    1
  0
VERTEX
  8
0
 10
3.95203045
 20
5.70681999
  0
VERTEX
  8
0
 10
4.02764773
 20
5.73666862
  0
VERTEX
  8
0
 10
4.01888338
 20
5.72150029
  0
VERTEX
  8
0
 10
3.99821274
 20
5.71579274
  0
VERTEX
  8
0
 10
3.95203045
 20
5.70681999
  0
SEQEND
  0
POLYLINE
  8
Default_Layer
 66
   1
 39
0.000000
 70
    1
  0
VERTEX
  8
0
 10
4.07034320
 20
4.26113960
  0
VERTEX
  8
0
 10
4.00655720
 20
4.18525936
  0
VERTEX
  8
0
 10
4.13567242
 20
4.55818736
  0
VERTEX
  8
0
 10
4.14626698
 20
4.57748183
  0
VERTEX
  8
0
 10
4.16752421
 20
4.58574021
  0
VERTEX
  8
0
 10
4.22466419
 20
4.59343032
  0
VERTEX
  8
0
 10
4.16229756
 20
4.51523610
  0
VERTEX
  8
0
 10
4.11595181
 20
4.43375573
  0
VERTEX
  8
0
 10
4.08538200
 20
4.34903997
  0
VERTEX
  8
0
 10
4.07034320
 20
4.26113960
  0
SEQEND
  0
POLYLINE
  8
Default_Layer
 66
   1
 39
0.000000
 70
    1
  0
VERTEX
  8
0
 10
4.14956131
 20
3.96768806
  0
VERTEX
  8
0
 10
4.15326540
 20
3.99700988
  0
VERTEX
  8
0
 10
4.16807983
 20
4.02810455
  0
VERTEX
  8
0
 10
4.26324444
 20
4.02127173
  0
VERTEX
  8
0
 10
4.23700987
 20
3.96337259
  0
VERTEX
  8
0
 10
4.14956131
 20
3.96768806
  0
SEQEND
  0
POLYLINE
  8
Default_Layer
 66
   1
 39
0.000000
 70
    1
  0
VERTEX
  8
0
 10
4.06879999
 20
4.52618101
  0
VERTEX
  8
0
 10
4.08166008
 20
4.54883719
  0
VERTEX
  8
0
 10
4.10275061
 20
4.55567001
  0
VERTEX
  8
0
 10
4.08320329
 20
4.57257224
  0
VERTEX
  8
0
 10
4.11303868
 20
4.57688771
  0
VERTEX
  8
0
 10
4.10307134
 20
4.54159220
  0
VERTEX
  8
0
 10
4.09368798
 20
4.52767579
  0
VERTEX
  8
0
 10
4.06879999
 20
4.52618101
  0
SEQEND
  0
POLYLINE
  8
Default_Layer
 66
   1
 39
0.000000
 70
    1
  0
VERTEX
  8
0
 10
4.05233909
 20
4.48266674
  0
VERTEX
  8
0
 10
4.05748312
 20
4.50855953
  0
VERTEX
  8
0
 10
4.08834732
 20
4.50927877
  0
VERTEX
  8
0
 10
4.08188043
 20
4.48744500
  0
VERTEX
  8
0
 10
4.05233909
 20
4.48266674
  0
SEQEND
  0
POLYLINE
  8
Default_Layer
 66
   1
 39
0.000000
 70
    1
  0
VERTEX
  8
0
 10
4.06159835
 20
4.42980231
  0
VERTEX
  8
0
 10
4.03124855
 20
4.42908307
  0
VERTEX
  8
0
 10
4.03835497
 20
4.45767720
  0
VERTEX
  8
0
 10
4.04959122
 20
4.46761279
  0
VERTEX
  8
0
 10
4.07240082
 20
4.46576451
  0
VERTEX
  8
0
 10
4.06969036
 20
4.44728417
  0
VERTEX
  8
0
 10
4.06159835
 20
4.42980231
  0
SEQEND
  0
POLYLINE
  8
Default_Layer
 66
   1
 39
0.000000
 70
    1
  0
VERTEX
  8
0
 10
4.02816213
 20
4.52582138
  0
VERTEX
  8
0
 10
4.01427324
 20
4.52438290
  0
VERTEX
  8
0
 10
4.01148351
 20
4.53597095
  0
VERTEX
  8
0
 10
4.02044608
 20
4.54560059
  0
VERTEX
  8
0
 10
4.04102222
 20
4.54739870
  0
VERTEX
  8
0
 10
4.02816213
 20
4.52582138
  0
SEQEND
  0
POLYLINE
  8
Default_Layer
 66
   1
 39
0.000000
 70
    1
  0
VERTEX
  8
0
 10
4.07805925
 20
3.96840730
  0
VERTEX
  8
0
 10
4.07749971
 20
3.99247302
  0
VERTEX
  8
0
 10
4.08628971
 20
4.01803514
  0
VERTEX
  8
0
 10
4.12538436
 20
4.02630644
  0
VERTEX
  8
0
 10
4.11260008
 20
3.98875157
  0
VERTEX
  8
0
 10
4.10230471
 20
3.97312600
  0
VERTEX
  8
0
 10
4.07805925
 20
3.96840730
  0
SEQEND
  0
POLYLINE
  8
Default_Layer
 66
   1
 39
0.000000
 70
    1
  0
VERTEX
  8
0
 10
4.13978765
 20
3.88677311
  0
VERTEX
  8
0
 10
4.05241561
 20
3.89253493
  0
VERTEX
  8
0
 10
3.97672180
 20
3.91482362
  0
VERTEX
  8
0
 10
4.01170123
 20
4.00472912
  0
VERTEX
  8
0
 10
4.02723378
 20
3.98944252
  0
VERTEX
  8
0
 10
4.02940455
 20
3.96831429
  0
VERTEX
  8
0
 10
4.03776995
 20
3.95082879
  0
VERTEX
  8
0
 10
4.07188641
 20
3.94647036
  0
VERTEX
  8
0
 10
4.14853250
 20
3.89216744
  0
VERTEX
  8
0
 10
4.13978765
 20
3.88677311
  0
SEQEND
  0
POLYLINE
  8
Default_Layer
 66
   1
 39
0.000000
 70
    1
  0
VERTEX
  8
0
 10
4.01273003
 20
4.38053410
  0
VERTEX
  8
0
 10
4.02198929
 20
4.40966348
  0
VERTEX
  8
0
 10
4.05182468
 20
4.40750575
  0
VERTEX
  8
0
 10
4.04324418
 20
4.38537200
  0
VERTEX
  8
0
 10
4.01273003
 20
4.38053410
  0
SEQEND
  0
POLYLINE
  8
Default_Layer
 66
   1
 39
0.000000
 70
    1
  0
VERTEX
  8
0
 10
4.01273003
 20
4.47943015
  0
VERTEX
  8
0
 10
3.98906748
 20
4.47727241
  0
VERTEX
  8
0
 10
3.99524347
 20
4.49702187
  0
VERTEX
  8
0
 10
4.01427324
 20
4.50963839
  0
VERTEX
  8
0
 10
4.02713333
 20
4.50891915
  0
VERTEX
  8
0
 10
4.01273003
 20
4.47943015
  0
SEQEND
  0
POLYLINE
  8
Default_Layer
 66
   1
 39
0.000000
 70
    1
  0
VERTEX
  8
0
 10
3.68145431
 20
5.83628391
  0
VERTEX
  8
0
 10
3.76015802
 20
5.88303477
  0
VERTEX
  8
0
 10
3.78073415
 20
5.88663099
  0
VERTEX
  8
0
 10
3.73593277
 20
5.85452722
  0
VERTEX
  8
0
 10
3.68145431
 20
5.83628391
  0
SEQEND
  0
POLYLINE
  8
Default_Layer
 66
   1
 39
0.000000
 70
    1
  0
VERTEX
  8
0
 10
3.99112510
 20
4.32982740
  0
VERTEX
  8
0
 10
3.99815853
 20
4.34815086
  0
VERTEX
  8
0
 10
4.01324444
 20
4.36219338
  0
VERTEX
  8
0
 10
4.03639259
 20
4.35895678
  0
VERTEX
  8
0
 10
4.02353250
 20
4.32083685
  0
VERTEX
  8
0
 10
3.99112510
 20
4.32982740
  0
SEQEND
  0
POLYLINE
  8
Default_Layer
 66
   1
 39
0.000000
 70
    1
  0
VERTEX
  8
0
 10
3.99472592
 20
4.42872345
  0
VERTEX
  8
0
 10
3.97106337
 20
4.42872345
  0
VERTEX
  8
0
 10
3.97749797
 20
4.45551268
  0
VERTEX
  8
0
 10
4.01273003
 20
4.46252791
  0
VERTEX
  8
0
 10
4.00870579
 20
4.44398837
  0
VERTEX
  8
0
 10
3.99472592
 20
4.42872345
  0
SEQEND
  0
POLYLINE
  8
Default_Layer
 66
   1
 39
0.000000
 70
    1
  0
VERTEX
  8
0
 10
3.96489053
 20
4.52006743
  0
VERTEX
  8
0
 10
3.96365783
 20
4.53270599
  0
VERTEX
  8
0
 10
3.97826501
 20
4.53984664
  0
VERTEX
  8
0
 10
3.96489053
 20
4.52006743
  0
SEQEND
  0
POLYLINE
  8
Default_Layer
 66
   1
 39
0.000000
 70
    1
  0
VERTEX
  8
0
 10
4.00707160
 20
4.27912070
  0
VERTEX
  8
0
 10
3.97723621
 20
4.28163805
  0
VERTEX
  8
0
 10
3.98443785
 20
4.31076743
  0
VERTEX
  8
0
 10
4.01581645
 20
4.30825008
  0
VERTEX
  8
0
 10
4.00707160
 20
4.27912070
  0
SEQEND
  0
POLYLINE
  8
Default_Layer
 66
   1
 39
0.000000
 70
    1
  0
VERTEX
  8
0
 10
3.82497283
 20
5.18428924
  0
VERTEX
  8
0
 10
3.85275061
 20
5.21701484
  0
VERTEX
  8
0
 10
3.82497283
 20
5.18428924
  0
SEQEND
  0
POLYLINE
  8
Default_Layer
 66
   1
 39
0.000000
 70
    1
  0
VERTEX
  8
0
 10
3.95305925
 20
4.37837637
  0
VERTEX
  8
0
 10
3.95998955
 20
4.40329862
  0
VERTEX
  8
0
 10
3.99112510
 20
4.40894424
  0
VERTEX
  8
0
 10
3.98194788
 20
4.38573360
  0
VERTEX
  8
0
 10
3.95305925
 20
4.37837637
  0
SEQEND
  0
POLYLINE
  8
Default_Layer
 66
   1
 39
0.000000
 70
    1
  0
VERTEX
  8
0
 10
3.95563127
 20
4.47655317
  0
VERTEX
  8
0
 10
3.94585761
 20
4.47547430
  0
VERTEX
  8
0
 10
3.94592982
 20
4.49281047
  0
VERTEX
  8
0
 10
3.96489053
 20
4.50352482
  0
VERTEX
  8
0
 10
3.95563127
 20
4.47655317
  0
SEQEND
  0
POLYLINE
  8
Default_Layer
 66
   1
 39
0.000000
 70
    1
  0
VERTEX
  8
0
 10
3.99061069
 20
4.23596606
  0
VERTEX
  8
0
 10
3.96077530
 20
4.24028152
  0
VERTEX
  8
0
 10
3.96643374
 20
4.26221847
  0
VERTEX
  8
0
 10
3.99781234
 20
4.26006073
  0
VERTEX
  8
0
 10
3.99061069
 20
4.23596606
  0
SEQEND
  0
POLYLINE
  8
Default_Layer
 66
   1
 39
0.000000
 70
    1
  0
VERTEX
  8
0
 10
3.94122798
 20
4.32731005
  0
VERTEX
  8
0
 10
3.93145431
 20
4.32659080
  0
VERTEX
  8
0
 10
3.94177279
 20
4.35257547
  0
VERTEX
  8
0
 10
3.97312098
 20
4.36039527
  0
VERTEX
  8
0
 10
3.96780179
 20
4.33680807
  0
VERTEX
  8
0
 10
3.96158076
 20
4.32755720
  0
VERTEX
  8
0
 10
3.94122798
 20
4.32731005
  0
SEQEND
  0
POLYLINE
  8
Default_Layer
 66
   1
 39
0.000000
 70
    1
  0
VERTEX
  8
0
 10
3.92116625
 20
4.42440798
  0
VERTEX
  8
0
 10
3.92735047
 20
4.44903872
  0
VERTEX
  8
0
 10
3.95203045
 20
4.45749321
  0
VERTEX
  8
0
 10
3.94544943
 20
4.43554453
  0
VERTEX
  8
0
 10
3.92116625
 20
4.42440798
  0
SEQEND
  0
POLYLINE
  8
Default_Layer
 66
   1
 39
0.000000
 70
    1
  0
VERTEX
  8
0
 10
3.93917036
 20
4.18633823
  0
VERTEX
  8
0
 10
3.95408806
 20
4.22086194
  0
VERTEX
  8
0
 10
3.98495226
 20
4.21366950
  0
VERTEX
  8
0
 10
3.97329954
 20
4.18932767
  0
VERTEX
  8
0
 10
3.93917036
 20
4.18633823
  0
SEQEND
  0
POLYLINE
  8
Default_Layer
 66
   1
 39
0.000000
 70
    1
  0
VERTEX
  8
0
 10
3.71128971
 20
5.14616931
  0
VERTEX
  8
0
 10
3.81005514
 20
5.19651639
  0
VERTEX
  8
0
 10
3.79770384
 20
5.17576744
  0
VERTEX
  8
0
 10
3.77034815
 20
5.16415100
  0
VERTEX
  8
0
 10
3.71128971
 20
5.14616931
  0
SEQEND
  0
POLYLINE
  8
Default_Layer
 66
   1
 39
0.000000
 70
    1
  0
VERTEX
  8
0
 10
3.92219506
 20
4.51647121
  0
VERTEX
  8
0
 10
3.90830617
 20
4.51539235
  0
VERTEX
  8
0
 10
3.92733909
 20
4.52582138
  0
VERTEX
  8
0
 10
3.92219506
 20
4.51647121
  0
SEQEND
  0
POLYLINE
  8
Default_Layer
 66
   1
 39
0.000000
 70
    1
  0
VERTEX
  8
0
 10
3.93711275
 20
4.27840146
  0
VERTEX
  8
0
 10
3.91826720
 20
4.28605412
  0
VERTEX
  8
0
 10
3.92270946
 20
4.30537310
  0
VERTEX
  8
0
 10
3.95820329
 20
4.31040781
  0
VERTEX
  8
0
 10
3.95153726
 20
4.29281519
  0
VERTEX
  8
0
 10
3.93711275
 20
4.27840146
  0
SEQEND
  0
POLYLINE
  8
Default_Layer
 66
   1
 39
0.000000
 70
    1
  0
VERTEX
  8
0
 10
3.91293580
 20
4.37513977
  0
VERTEX
  8
0
 10
3.90624855
 20
4.37442053
  0
VERTEX
  8
0
 10
3.91499341
 20
4.40534802
  0
VERTEX
  8
0
 10
3.93145431
 20
4.40678650
  0
VERTEX
  8
0
 10
3.92853090
 20
4.38816159
  0
VERTEX
  8
0
 10
3.91293580
 20
4.37513977
  0
SEQEND
  0
POLYLINE
  8
Default_Layer
 66
   1
 39
0.000000
 70
    1
  0
VERTEX
  8
0
 10
3.88875884
 20
4.47367619
  0
VERTEX
  8
0
 10
3.89022348
 20
4.48516881
  0
VERTEX
  8
0
 10
3.89904691
 20
4.49525351
  0
VERTEX
  8
0
 10
3.91190699
 20
4.49417465
  0
VERTEX
  8
0
 10
3.90975807
 20
4.47849441
  0
VERTEX
  8
0
 10
3.88875884
 20
4.47367619
  0
SEQEND
  0
POLYLINE
  8
Default_Layer
 66
   1
 39
0.000000
 70
    1
  0
VERTEX
  8
0
 10
3.95151604
 20
4.13850850
  0
VERTEX
  8
0
 10
3.93435966
 20
4.13955226
  0
VERTEX
  8
0
 10
3.92579588
 20
4.15001641
  0
VERTEX
  8
0
 10
3.93505514
 20
4.16943599
  0
VERTEX
  8
0
 10
3.96386172
 20
4.16512053
  0
VERTEX
  8
0
 10
3.95151604
 20
4.13850850
  0
SEQEND
  0
POLYLINE
  8
Default_Layer
 66
   1
 39
0.000000
 70
    1
  0
VERTEX
  8
0
 10
3.94174238
 20
3.93999716
  0
VERTEX
  8
0
 10
3.92831742
 20
3.95231462
  0
VERTEX
  8
0
 10
3.93093991
 20
3.96948617
  0
VERTEX
  8
0
 10
3.96489053
 20
4.06442637
  0
VERTEX
  8
0
 10
3.98145667
 20
4.03648615
  0
VERTEX
  8
0
 10
3.97484327
 20
4.00655151
  0
VERTEX
  8
0
 10
3.94791522
 20
3.94539149
  0
VERTEX
  8
0
 10
3.94174238
 20
3.93999716
  0
SEQEND
  0
POLYLINE
  8
Default_Layer
 66
   1
 39
0.000000
 70
    1
  0
VERTEX
  8
0
 10
3.91345020
 20
4.23812379
  0
VERTEX
  8
0
 10
3.90367654
 20
4.23704493
  0
VERTEX
  8
0
 10
3.90941972
 20
4.25761809
  0
VERTEX
  8
0
 10
3.94019917
 20
4.26185884
  0
VERTEX
  8
0
 10
3.93300080
 20
4.24388736
  0
VERTEX
  8
0
 10
3.91345020
 20
4.23812379
  0
SEQEND
  0
POLYLINE
  8
Default_Layer
 66
   1
 39
0.000000
 70
    1
  0
VERTEX
  8
0
 10
3.86458189
 20
4.41973290
  0
VERTEX
  8
0
 10
3.88207160
 20
4.45641434
  0
VERTEX
  8
0
 10
3.89904691
 20
4.45605472
  0
VERTEX
  8
0
 10
3.89310761
 20
4.43074592
  0
VERTEX
  8
0
 10
3.86458189
 20
4.41973290
  0
SEQEND
  0
POLYLINE
  8
Default_Layer
 66
   1
 39
0.000000
 70
    1
  0
VERTEX
  8
0
 10
3.88207160
 20
4.32047723
  0
VERTEX
  8
0
 10
3.88890332
 20
4.34488999
  0
VERTEX
  8
0
 10
3.91396460
 20
4.35536056
  0
VERTEX
  8
0
 10
3.90680957
 20
4.33247723
  0
VERTEX
  8
0
 10
3.88207160
 20
4.32047723
  0
SEQEND
  0
POLYLINE
  8
Default_Layer
 66
   1
 39
0.000000
 70
    1
  0
VERTEX
  8
0
 10
3.78382057
 20
4.30717121
  0
VERTEX
  8
0
 10
3.78176296
 20
4.27876108
  0
VERTEX
  8
0
 10
3.71949148
 20
4.34743027
  0
VERTEX
  8
0
 10
3.70264765
 20
4.38520509
  0
VERTEX
  8
0
 10
3.71952016
 20
4.42584647
  0
VERTEX
  8
0
 10
3.78490371
 20
4.48150157
  0
VERTEX
  8
0
 10
3.87126913
 20
4.51898857
  0
VERTEX
  8
0
 10
3.83439439
 20
4.41261395
  0
VERTEX
  8
0
 10
3.78382057
 20
4.30717121
  0
SEQEND
  0
POLYLINE
  8
Default_Layer
 66
   1
 39
0.000000
 70
    1
  0
VERTEX
  8
0
 10
3.87898518
 20
4.18633823
  0
VERTEX
  8
0
 10
3.89698929
 20
4.22086194
  0
VERTEX
  8
0
 10
3.92373827
 20
4.21834458
  0
VERTEX
  8
0
 10
3.91258819
 20
4.19226062
  0
VERTEX
  8
0
 10
3.87898518
 20
4.18633823
  0
SEQEND
  0
POLYLINE
  8
Default_Layer
 66
   1
 39
0.000000
 70
    1
  0
VERTEX
  8
0
 10
3.91807983
 20
4.04177019
  0
VERTEX
  8
0
 10
3.88927324
 20
4.04608565
  0
VERTEX
  8
0
 10
3.90033832
 20
4.06707746
  0
VERTEX
  8
0
 10
3.92836789
 20
4.07989012
  0
VERTEX
  8
0
 10
3.91242139
 20
4.09031916
  0
VERTEX
  8
0
 10
3.90573415
 20
4.08959991
  0
VERTEX
  8
0
 10
3.90677279
 20
4.10260681
  0
VERTEX
  8
0
 10
3.91550781
 20
4.11405421
  0
VERTEX
  8
0
 10
3.93713763
 20
4.09946871
  0
VERTEX
  8
0
 10
3.93680559
 20
4.08072345
  0
VERTEX
  8
0
 10
3.91807983
 20
4.04177019
  0
SEQEND
  0
POLYLINE
  8
Default_Layer
 66
   1
 39
0.000000
 70
    1
  0
VERTEX
  8
0
 10
3.84709217
 20
4.36938582
  0
VERTEX
  8
0
 10
3.85275061
 20
4.39312087
  0
VERTEX
  8
0
 10
3.88207160
 20
4.39959407
  0
VERTEX
  8
0
 10
3.87326302
 20
4.37718548
  0
VERTEX
  8
0
 10
3.84709217
 20
4.36938582
  0
SEQEND
  0
POLYLINE
  8
Default_Layer
 66
   1
 39
0.000000
 70
    1
  0
VERTEX
  8
0
 10
3.87024032
 20
4.27732259
  0
VERTEX
  8
0
 10
3.87538436
 20
4.30321537
  0
VERTEX
  8
0
 10
3.89544608
 20
4.29997877
  0
VERTEX
  8
0
 10
3.88904710
 20
4.28301657
  0
VERTEX
  8
0
 10
3.87024032
 20
4.27732259
  0
SEQEND
  0
POLYLINE
  8
Default_Layer
 66
   1
 39
0.000000
 70
    1
  0
VERTEX
  8
0
 10
3.86098106
 20
4.23344871
  0
VERTEX
  8
0
 10
3.85120740
 20
4.23272946
  0
VERTEX
  8
0
 10
3.85436577
 20
4.25426727
  0
VERTEX
  8
0
 10
3.88052839
 20
4.25862225
  0
VERTEX
  8
0
 10
3.87589998
 20
4.24325160
  0
VERTEX
  8
0
 10
3.86098106
 20
4.23344871
  0
SEQEND
  0
POLYLINE
  8
Default_Layer
 66
   1
 39
0.000000
 70
    1
  0
VERTEX
  8
0
 10
3.84914979
 20
4.31760025
  0
VERTEX
  8
0
 10
3.82548724
 20
4.31760025
  0
VERTEX
  8
0
 10
3.82906832
 20
4.34005847
  0
VERTEX
  8
0
 10
3.85995226
 20
4.35104510
  0
VERTEX
  8
0
 10
3.84914979
 20
4.31760025
  0
SEQEND
  0
POLYLINE
  8
Default_Layer
 66
   1
 39
0.000000
 70
    1
  0
VERTEX
  8
0
 10
3.89596049
 20
3.97847672
  0
VERTEX
  8
0
 10
3.87744197
 20
3.98854613
  0
VERTEX
  8
0
 10
3.88920541
 20
4.00500527
  0
VERTEX
  8
0
 10
3.87692757
 20
4.02163136
  0
VERTEX
  8
0
 10
3.89344602
 20
4.02661711
  0
VERTEX
  8
0
 10
3.91345020
 20
4.02954304
  0
VERTEX
  8
0
 10
3.89596049
 20
3.97847672
  0
SEQEND
  0
POLYLINE
  8
Default_Layer
 66
   1
 39
0.000000
 70
    1
  0
VERTEX
  8
0
 10
3.91499341
 20
3.90079837
  0
VERTEX
  8
0
 10
3.92116625
 20
3.92956813
  0
VERTEX
  8
0
 10
3.93151771
 20
3.91300434
  0
VERTEX
  8
0
 10
3.91499341
 20
3.90079837
  0
SEQEND
  0
POLYLINE
  8
Default_Layer
 66
   1
 39
0.000000
 70
    1
  0
VERTEX
  8
0
 10
3.60635143
 20
5.53815728
  0
VERTEX
  8
0
 10
3.59554896
 20
5.53743804
  0
VERTEX
  8
0
 10
3.60462703
 20
5.55326478
  0
VERTEX
  8
0
 10
3.62898518
 20
5.56153271
  0
VERTEX
  8
0
 10
3.64363037
 20
5.55594598
  0
VERTEX
  8
0
 10
3.63710233
 20
5.54940765
  0
VERTEX
  8
0
 10
3.60635143
 20
5.53815728
  0
SEQEND
  0
POLYLINE
  8
Default_Layer
 66
   1
 39
0.000000
 70
    1
  0
VERTEX
  8
0
 10
3.86766831
 20
4.13814888
  0
VERTEX
  8
0
 10
3.87024032
 20
4.15505111
  0
VERTEX
  8
0
 10
3.89030205
 20
4.13814888
  0
VERTEX
  8
0
 10
3.86766831
 20
4.13814888
  0
SEQEND
  0
POLYLINE
  8
Default_Layer
 66
   1
 39
0.000000
 70
    1
  0
VERTEX
  8
0
 10
3.85943785
 20
4.20108273
  0
VERTEX
  8
0
 10
3.84297695
 20
4.21654647
  0
VERTEX
  8
0
 10
3.86715390
 20
4.21366950
  0
VERTEX
  8
0
 10
3.85943785
 20
4.20108273
  0
SEQEND
  0
POLYLINE
  8
Default_Layer
 66
   1
 39
0.000000
 70
    1
  0
VERTEX
  8
0
 10
3.86921152
 20
4.09139802
  0
VERTEX
  8
0
 10
3.84812098
 20
4.09175764
  0
VERTEX
  8
0
 10
3.85608632
 20
4.11356629
  0
VERTEX
  8
0
 10
3.88412921
 20
4.11801005
  0
VERTEX
  8
0
 10
3.86921152
 20
4.09139802
  0
SEQEND
  0
POLYLINE
  8
Default_Layer
 66
   1
 39
0.000000
 70
    1
  0
VERTEX
  8
0
 10
3.83011687
 20
4.27408599
  0
VERTEX
  8
0
 10
3.80336789
 20
4.27372637
  0
VERTEX
  8
0
 10
3.81273698
 20
4.29424919
  0
VERTEX
  8
0
 10
3.84246255
 20
4.30033840
  0
VERTEX
  8
0
 10
3.83011687
 20
4.27408599
  0
SEQEND
  0
POLYLINE
  8
Default_Layer
 66
   1
 39
0.000000
 70
    1
  0
VERTEX
  8
0
 10
3.86869711
 20
3.90151761
  0
VERTEX
  8
0
 10
3.84964869
 20
3.90488080
  0
VERTEX
  8
0
 10
3.84863538
 20
3.91841984
  0
VERTEX
  8
0
 10
3.85529099
 20
3.93067172
  0
VERTEX
  8
0
 10
3.85429382
 20
3.94431263
  0
VERTEX
  8
0
 10
3.86612510
 20
3.97200352
  0
VERTEX
  8
0
 10
3.88495847
 20
3.95784281
  0
VERTEX
  8
0
 10
3.88417866
 20
3.93965220
  0
VERTEX
  8
0
 10
3.86869711
 20
3.90151761
  0
SEQEND
  0
POLYLINE
  8
Default_Layer
 66
   1
 39
0.000000
 70
    1
  0
VERTEX
  8
0
 10
3.50244197
 20
5.07460454
  0
VERTEX
  8
0
 10
3.51375884
 20
5.06849096
  0
VERTEX
  8
0
 10
3.36869711
 20
5.00915334
  0
VERTEX
  8
0
 10
3.36341342
 20
4.98093029
  0
VERTEX
  8
0
 10
3.36921152
 20
4.95053495
  0
VERTEX
  8
0
 10
3.40037452
 20
4.94433281
  0
VERTEX
  8
0
 10
3.42727826
 20
4.95388717
  0
VERTEX
  8
0
 10
3.48186584
 20
4.97894509
  0
VERTEX
  8
0
 10
3.47160581
 20
4.86245219
  0
VERTEX
  8
0
 10
3.49128328
 20
4.74771862
  0
VERTEX
  8
0
 10
3.57600164
 20
4.51934819
  0
VERTEX
  8
0
 10
3.66154633
 20
4.38183553
  0
VERTEX
  8
0
 10
3.76684526
 20
4.25178943
  0
VERTEX
  8
0
 10
3.72466419
 20
4.14749905
  0
VERTEX
  8
0
 10
3.62655231
 20
4.24273525
  0
VERTEX
  8
0
 10
3.54520856
 20
4.34672662
  0
VERTEX
  8
0
 10
3.41602222
 20
4.56933564
  0
VERTEX
  8
0
 10
3.35064176
 20
4.73819435
  0
VERTEX
  8
0
 10
3.31833349
 20
4.91441416
  0
VERTEX
  8
0
 10
3.33204037
 20
5.08855553
  0
VERTEX
  8
0
 10
3.36019416
 20
5.17189695
  0
VERTEX
  8
0
 10
3.40470534
 20
5.25117893
  0
VERTEX
  8
0
 10
3.48434905
 20
5.38048650
  0
VERTEX
  8
0
 10
3.59606337
 20
5.50003735
  0
VERTEX
  8
0
 10
3.61303868
 20
5.51550110
  0
VERTEX
  8
0
 10
3.54956646
 20
5.41177773
  0
VERTEX
  8
0
 10
3.50918805
 20
5.30329050
  0
VERTEX
  8
0
 10
3.49308577
 20
5.19068442
  0
VERTEX
  8
0
 10
3.50244197
 20
5.07460454
  0
SEQEND
  0
POLYLINE
  8
Default_Layer
 66
   1
 39
0.000000
 70
    1
  0
VERTEX
  8
0
 10
3.84349135
 20
4.04428754
  0
VERTEX
  8
0
 10
3.83423209
 20
4.04356830
  0
VERTEX
  8
0
 10
3.83813776
 20
4.06695245
  0
VERTEX
  8
0
 10
3.86509629
 20
4.07269768
  0
VERTEX
  8
0
 10
3.84349135
 20
4.04428754
  0
SEQEND
  0
POLYLINE
  8
Default_Layer
 66
   1
 39
0.000000
 70
    1
  0
VERTEX
  8
0
 10
3.81931440
 20
4.23992190
  0
VERTEX
  8
0
 10
3.80696872
 20
4.25538565
  0
VERTEX
  8
0
 10
3.82600164
 20
4.25682414
  0
VERTEX
  8
0
 10
3.81931440
 20
4.23992190
  0
SEQEND
  0
POLYLINE
  8
Default_Layer
 66
   1
 39
0.000000
 70
    1
  0
VERTEX
  8
0
 10
3.83474650
 20
4.13563153
  0
VERTEX
  8
0
 10
3.81056954
 20
4.13814888
  0
VERTEX
  8
0
 10
3.81776038
 20
4.15859397
  0
VERTEX
  8
0
 10
3.84194814
 20
4.16655902
  0
VERTEX
  8
0
 10
3.84265230
 20
4.15024324
  0
VERTEX
  8
0
 10
3.83474650
 20
4.13563153
  0
SEQEND
  0
POLYLINE
  8
Default_Layer
 66
   1
 39
0.000000
 70
    1
  0
VERTEX
  8
0
 10
3.84812098
 20
4.01911400
  0
VERTEX
  8
0
 10
3.83989053
 20
4.02522758
  0
VERTEX
  8
0
 10
3.85017859
 20
4.02414871
  0
VERTEX
  8
0
 10
3.84812098
 20
4.01911400
  0
SEQEND
  0
POLYLINE
  8
Default_Layer
 66
   1
 39
0.000000
 70
    1
  0
VERTEX
  8
0
 10
3.80233909
 20
4.08780180
  0
VERTEX
  8
0
 10
3.79307983
 20
4.08672294
  0
VERTEX
  8
0
 10
3.79903057
 20
4.10963077
  0
VERTEX
  8
0
 10
3.82651604
 20
4.11801005
  0
VERTEX
  8
0
 10
3.82204215
 20
4.09879477
  0
VERTEX
  8
0
 10
3.80233909
 20
4.08780180
  0
SEQEND
  0
POLYLINE
  8
Default_Layer
 66
   1
 39
0.000000
 70
    1
  0
VERTEX
  8
0
 10
3.77867654
 20
4.18238238
  0
VERTEX
  8
0
 10
3.76427324
 20
4.18633823
  0
VERTEX
  8
0
 10
3.77448196
 20
4.20787230
  0
VERTEX
  8
0
 10
3.79976707
 20
4.21474836
  0
VERTEX
  8
0
 10
3.80696872
 20
4.21330988
  0
VERTEX
  8
0
 10
3.80159925
 20
4.19057606
  0
VERTEX
  8
0
 10
3.77867654
 20
4.18238238
  0
SEQEND
  0
POLYLINE
  8
Default_Layer
 66
   1
 39
0.000000
 70
    1
  0
VERTEX
  8
0
 10
3.81519917
 20
3.97631898
  0
VERTEX
  8
0
 10
3.81468477
 20
3.99465971
  0
VERTEX
  8
0
 10
3.83526090
 20
3.99645782
  0
VERTEX
  8
0
 10
3.83273235
 20
3.98194226
  0
VERTEX
  8
0
 10
3.81519917
 20
3.97631898
  0
SEQEND
  0
POLYLINE
  8
Default_Layer
 66
   1
 39
0.000000
 70
    1
  0
VERTEX
  8
0
 10
3.74678353
 20
4.13491228
  0
VERTEX
  8
0
 10
3.75730482
 20
4.15918079
  0
VERTEX
  8
0
 10
3.78896460
 20
4.16476091
  0
VERTEX
  8
0
 10
3.78261211
 20
4.14043603
  0
VERTEX
  8
0
 10
3.74678353
 20
4.13491228
  0
SEQEND
  0
POLYLINE
  8
Default_Layer
 66
   1
 39
0.000000
 70
    1
  0
VERTEX
  8
0
 10
3.80028148
 20
4.06011091
  0
VERTEX
  8
0
 10
3.79153662
 20
4.07125919
  0
VERTEX
  8
0
 10
3.80851193
 20
4.06946108
  0
VERTEX
  8
0
 10
3.80028148
 20
4.06011091
  0
SEQEND
  0
POLYLINE
  8
Default_Layer
 66
   1
 39
0.000000
 70
    1
  0
VERTEX
  8
0
 10
3.81931440
 20
3.93640094
  0
VERTEX
  8
0
 10
3.80233909
 20
3.93496246
  0
VERTEX
  8
0
 10
3.80327376
 20
3.95105878
  0
VERTEX
  8
0
 10
3.81828559
 20
3.95797826
  0
VERTEX
  8
0
 10
3.81931440
 20
3.93640094
  0
SEQEND
  0
POLYLINE
  8
Default_Layer
 66
   1
 39
0.000000
 70
    1
  0
VERTEX
  8
0
 10
3.77661892
 20
4.04356830
  0
VERTEX
  8
0
 10
3.77816213
 20
4.05040111
  0
VERTEX
  8
0
 10
3.78896460
 20
4.04464716
  0
VERTEX
  8
0
 10
3.77661892
 20
4.04356830
  0
SEQEND
  0
POLYLINE
  8
Default_Layer
 66
   1
 39
0.000000
 70
    1
  0
VERTEX
  8
0
 10
3.76581645
 20
4.01012345
  0
VERTEX
  8
0
 10
3.77180591
 20
4.02319351
  0
VERTEX
  8
0
 10
3.79256543
 20
4.02414871
  0
VERTEX
  8
0
 10
3.78513403
 20
4.01295817
  0
VERTEX
  8
0
 10
3.76581645
 20
4.01012345
  0
SEQEND
  0
POLYLINE
  8
Default_Layer
 66
   1
 39
0.000000
 70
    1
  0
VERTEX
  8
0
 10
3.76941728
 20
4.10146744
  0
VERTEX
  8
0
 10
3.75038436
 20
4.11441383
  0
VERTEX
  8
0
 10
3.77456131
 20
4.11189647
  0
VERTEX
  8
0
 10
3.76941728
 20
4.10146744
  0
SEQEND
  0
POLYLINE
  8
Default_Layer
 66
   1
 39
0.000000
 70
    1
  0
VERTEX
  8
0
 10
3.79410864
 20
3.90403497
  0
VERTEX
  8
0
 10
3.80233909
 20
3.91158703
  0
VERTEX
  8
0
 10
3.80388230
 20
3.90475421
  0
VERTEX
  8
0
 10
3.79410864
 20
3.90403497
  0
SEQEND
  0
POLYLINE
  8
Default_Layer
 66
   1
 39
0.000000
 70
    1
  0
VERTEX
  8
0
 10
3.75141316
 20
3.97092466
  0
VERTEX
  8
0
 10
3.75621209
 20
3.98717215
  0
VERTEX
  8
0
 10
3.77867654
 20
3.99178273
  0
VERTEX
  8
0
 10
3.77444647
 20
3.97589180
  0
VERTEX
  8
0
 10
3.75141316
 20
3.97092466
  0
SEQEND
  0
POLYLINE
  8
Default_Layer
 66
   1
 39
0.000000
 70
    1
  0
VERTEX
  8
0
 10
3.72877942
 20
4.08420558
  0
VERTEX
  8
0
 10
3.73289464
 20
4.10146744
  0
VERTEX
  8
0
 10
3.74832674
 20
4.08600369
  0
VERTEX
  8
0
 10
3.72877942
 20
4.08420558
  0
SEQEND
  0
POLYLINE
  8
Default_Layer
 66
   1
 39
0.000000
 70
    1
  0
VERTEX
  8
0
 10
3.71231851
 20
4.04284905
  0
VERTEX
  8
0
 10
3.71797695
 20
4.06694373
  0
VERTEX
  8
0
 10
3.74935555
 20
4.06442637
  0
VERTEX
  8
0
 10
3.74064452
 20
4.04536160
  0
VERTEX
  8
0
 10
3.71231851
 20
4.04284905
  0
SEQEND
  0
POLYLINE
  8
Default_Layer
 66
   1
 39
0.000000
 70
    1
  0
VERTEX
  8
0
 10
3.29359423
 20
4.84552533
  0
VERTEX
  8
0
 10
3.33876321
 20
4.67634401
  0
VERTEX
  8
0
 10
3.41061269
 20
4.51058789
  0
VERTEX
  8
0
 10
3.50600027
 20
4.35127974
  0
VERTEX
  8
0
 10
3.62178353
 20
4.20144235
  0
VERTEX
  8
0
 10
3.37641316
 20
4.22050231
  0
VERTEX
  8
0
 10
3.32748068
 20
4.26561730
  0
VERTEX
  8
0
 10
3.28845020
 20
4.31364441
  0
VERTEX
  8
0
 10
3.31468477
 20
4.32371383
  0
VERTEX
  8
0
 10
3.25714046
 20
4.39958925
  0
VERTEX
  8
0
 10
3.21626704
 20
4.48008668
  0
VERTEX
  8
0
 10
3.17393245
 20
4.65074103
  0
VERTEX
  8
0
 10
3.16648020
 20
4.82726373
  0
VERTEX
  8
0
 10
3.17270946
 20
5.00124165
  0
VERTEX
  8
0
 10
3.20230570
 20
5.10578344
  0
VERTEX
  8
0
 10
3.25144274
 20
5.20519002
  0
VERTEX
  8
0
 10
3.32422754
 20
5.29855159
  0
VERTEX
  8
0
 10
3.42476707
 20
5.38495831
  0
VERTEX
  8
0
 10
3.43409372
 20
5.40007619
  0
VERTEX
  8
0
 10
3.43608394
 20
5.41624543
  0
VERTEX
  8
0
 10
3.50295637
 20
5.45688271
  0
VERTEX
  8
0
 10
3.40208295
 20
5.31472567
  0
VERTEX
  8
0
 10
3.32221242
 20
5.16635494
  0
VERTEX
  8
0
 10
3.28037333
 20
5.01040875
  0
VERTEX
  8
0
 10
3.27903700
 20
4.92916930
  0
VERTEX
  8
0
 10
3.29359423
 20
4.84552533
  0
SEQEND
  0
POLYLINE
  8
Default_Layer
 66
   1
 39
0.000000
 70
    1
  0
VERTEX
  8
0
 10
3.75501399
 20
3.93604132
  0
VERTEX
  8
0
 10
3.74524032
 20
3.93496246
  0
VERTEX
  8
0
 10
3.74266831
 20
3.94970696
  0
VERTEX
  8
0
 10
3.76633086
 20
3.95150507
  0
VERTEX
  8
0
 10
3.76408253
 20
3.94149274
  0
VERTEX
  8
0
 10
3.75501399
 20
3.93604132
  0
SEQEND
  0
POLYLINE
  8
Default_Layer
 66
   1
 39
0.000000
 70
    1
  0
VERTEX
  8
0
 10
3.69945843
 20
4.00472912
  0
VERTEX
  8
0
 10
3.69894403
 20
4.02306984
  0
VERTEX
  8
0
 10
3.73700987
 20
4.02163136
  0
VERTEX
  8
0
 10
3.72504588
 20
4.00740682
  0
VERTEX
  8
0
 10
3.69945843
 20
4.00472912
  0
SEQEND
  0
POLYLINE
  8
Default_Layer
 66
   1
 39
0.000000
 70
    1
  0
VERTEX
  8
0
 10
3.68196872
 20
4.08024974
  0
VERTEX
  8
0
 10
3.69025260
 20
4.06203223
  0
VERTEX
  8
0
 10
3.68250865
 20
4.04441862
  0
VERTEX
  8
0
 10
3.66499341
 20
4.00832534
  0
VERTEX
  8
0
 10
3.64441728
 20
3.99214235
  0
VERTEX
  8
0
 10
3.51725730
 20
4.09270345
  0
VERTEX
  8
0
 10
3.40007571
 20
4.19712689
  0
VERTEX
  8
0
 10
3.54228019
 20
4.19056783
  0
VERTEX
  8
0
 10
3.67476707
 20
4.16188393
  0
VERTEX
  8
0
 10
3.71489053
 20
4.12340438
  0
VERTEX
  8
0
 10
3.70479787
 20
4.09905667
  0
VERTEX
  8
0
 10
3.68196872
 20
4.08024974
  0
SEQEND
  0
POLYLINE
  8
Default_Layer
 66
   1
 39
0.000000
 70
    1
  0
VERTEX
  8
0
 10
3.71334732
 20
3.96553033
  0
VERTEX
  8
0
 10
3.68556954
 20
3.96517070
  0
VERTEX
  8
0
 10
3.69515860
 20
3.98342530
  0
VERTEX
  8
0
 10
3.72209217
 20
3.98710764
  0
VERTEX
  8
0
 10
3.71334732
 20
3.96553033
  0
SEQEND
  0
POLYLINE
  8
Default_Layer
 66
   1
 39
0.000000
 70
    1
  0
VERTEX
  8
0
 10
3.68608394
 20
3.90655232
  0
VERTEX
  8
0
 10
3.66602222
 20
3.90763119
  0
VERTEX
  8
0
 10
3.67991110
 20
3.94143565
  0
VERTEX
  8
0
 10
3.69402839
 20
3.92305375
  0
VERTEX
  8
0
 10
3.69772766
 20
3.91458372
  0
VERTEX
  8
0
 10
3.68608394
 20
3.90655232
  0
SEQEND
  0
POLYLINE
  8
Default_Layer
 66
   1
 39
0.000000
 70
    1
  0
VERTEX
  8
0
 10
3.40521975
 20
4.97714698
  0
VERTEX
  8
0
 10
3.44299154
 20
5.00793300
  0
VERTEX
  8
0
 10
3.49935555
 20
5.02929217
  0
VERTEX
  8
0
 10
3.48818691
 20
5.00864605
  0
VERTEX
  8
0
 10
3.46231967
 20
4.99637956
  0
VERTEX
  8
0
 10
3.40521975
 20
4.97714698
  0
SEQEND
  0
POLYLINE
  8
Default_Layer
 66
   1
 39
0.000000
 70
    1
  0
VERTEX
  8
0
 10
3.79102222
 20
3.23262071
  0
VERTEX
  8
0
 10
3.69225678
 20
3.27613497
  0
VERTEX
  8
0
 10
3.65421123
 20
3.29078811
  0
VERTEX
  8
0
 10
3.62837696
 20
3.31546404
  0
VERTEX
  8
0
 10
3.58731851
 20
3.37287329
  0
VERTEX
  8
0
 10
3.56697955
 20
3.41229882
  0
VERTEX
  8
0
 10
3.53267705
 20
3.45182169
  0
VERTEX
  8
0
 10
3.52016544
 20
3.48954076
  0
VERTEX
  8
0
 10
3.56519917
 20
3.52355490
  0
VERTEX
  8
0
 10
3.58731851
 20
3.53218583
  0
VERTEX
  8
0
 10
3.69695702
 20
3.38646803
  0
VERTEX
  8
0
 10
3.79102222
 20
3.23262071
  0
SEQEND
  0
POLYLINE
  8
Default_Layer
 66
   1
 39
0.000000
 70
    1
  0
VERTEX
  8
0
 10
3.61818271
 20
3.91050816
  0
VERTEX
  8
0
 10
3.20254485
 20
3.92705077
  0
VERTEX
  8
0
 10
2.96334732
 20
3.94862809
  0
VERTEX
  8
0
 10
2.34966419
 20
3.98530953
  0
VERTEX
  8
0
 10
2.40213333
 20
4.00616761
  0
VERTEX
  8
0
 10
2.87575357
 20
4.13350818
  0
VERTEX
  8
0
 10
3.12596767
 20
4.17593916
  0
VERTEX
  8
0
 10
3.37641316
 20
4.19712689
  0
VERTEX
  8
0
 10
3.50787420
 20
4.08225072
  0
VERTEX
  8
0
 10
3.64493168
 20
3.97164390
  0
VERTEX
  8
0
 10
3.61818271
 20
3.91050816
  0
SEQEND
  0
POLYLINE
  8
Default_Layer
 66
   1
 39
0.000000
 70
    1
  0
VERTEX
  8
0
 10
3.18351193
 20
5.14616931
  0
VERTEX
  8
0
 10
3.14488720
 20
5.02639297
  0
VERTEX
  8
0
 10
3.13086172
 20
4.90206834
  0
VERTEX
  8
0
 10
3.14081645
 20
4.64665437
  0
VERTEX
  8
0
 10
3.17157874
 20
4.49004282
  0
VERTEX
  8
0
 10
3.20404150
 20
4.41678375
  0
VERTEX
  8
0
 10
3.25295637
 20
4.34888736
  0
VERTEX
  8
0
 10
3.20563127
 20
4.34960661
  0
VERTEX
  8
0
 10
3.04692851
 20
4.36370667
  0
VERTEX
  8
0
 10
2.88249180
 20
4.35930525
  0
VERTEX
  8
0
 10
2.56211275
 20
4.32515231
  0
VERTEX
  8
0
 10
2.53631645
 20
4.32243114
  0
VERTEX
  8
0
 10
2.51118682
 20
4.31112706
  0
VERTEX
  8
0
 10
2.31514749
 20
4.26481702
  0
VERTEX
  8
0
 10
2.13517769
 20
4.19863406
  0
VERTEX
  8
0
 10
1.79925267
 20
4.03673548
  0
VERTEX
  8
0
 10
1.80905324
 20
4.16416532
  0
VERTEX
  8
0
 10
1.84470972
 20
4.28827353
  0
VERTEX
  8
0
 10
1.90174775
 20
4.40834476
  0
VERTEX
  8
0
 10
1.97569300
 20
4.52366365
  0
VERTEX
  8
0
 10
2.19888355
 20
4.74892448
  0
VERTEX
  8
0
 10
2.46093155
 20
4.95940647
  0
VERTEX
  8
0
 10
2.75492303
 20
5.14441481
  0
VERTEX
  8
0
 10
3.07394403
 20
5.29325471
  0
VERTEX
  8
0
 10
3.34863538
 20
5.38028323
  0
VERTEX
  8
0
 10
3.33878038
 20
5.35104407
  0
VERTEX
  8
0
 10
3.31108394
 20
5.32310333
  0
VERTEX
  8
0
 10
3.23569724
 20
5.23806927
  0
VERTEX
  8
0
 10
3.18351193
 20
5.14616931
  0
SEQEND
  0
POLYLINE
  8
Default_Layer
 66
   1
 39
0.000000
 70
    1
  0
VERTEX
  8
0
 10
3.49626913
 20
3.50988927
  0
VERTEX
  8
0
 10
3.47817088
 20
3.53461580
  0
VERTEX
  8
0
 10
3.48186584
 20
3.56059597
  0
VERTEX
  8
0
 10
3.54873827
 20
3.59440043
  0
VERTEX
  8
0
 10
3.57414796
 20
3.56898995
  0
VERTEX
  8
0
 10
3.55556639
 20
3.54913859
  0
VERTEX
  8
0
 10
3.49626913
 20
3.50988927
  0
SEQEND
  0
POLYLINE
  8
Default_Layer
 66
   1
 39
0.000000
 70
    1
  0
VERTEX
  8
0
 10
3.45100164
 20
3.57641933
  0
VERTEX
  8
0
 10
3.38663133
 20
3.66005824
  0
VERTEX
  8
0
 10
3.34769457
 20
3.69870306
  0
VERTEX
  8
0
 10
3.29410864
 20
3.73033754
  0
VERTEX
  8
0
 10
3.42425267
 20
3.71487380
  0
VERTEX
  8
0
 10
3.48175614
 20
3.66926034
  0
VERTEX
  8
0
 10
3.52764773
 20
3.61813548
  0
VERTEX
  8
0
 10
3.45100164
 20
3.57641933
  0
SEQEND
  0
POLYLINE
  8
Default_Layer
 66
   1
 39
0.000000
 70
    1
  0
VERTEX
  8
0
 10
3.34606337
 20
4.21798496
  0
VERTEX
  8
0
 10
3.08832750
 20
4.19036878
  0
VERTEX
  8
0
 10
2.83281067
 20
4.14489035
  0
VERTEX
  8
0
 10
2.34760658
 20
4.01336005
  0
VERTEX
  8
0
 10
2.41644891
 20
4.16632050
  0
VERTEX
  8
0
 10
2.47450111
 20
4.23785817
  0
VERTEX
  8
0
 10
2.54925267
 20
4.30069802
  0
VERTEX
  8
0
 10
2.89329363
 20
4.34228677
  0
VERTEX
  8
0
 10
3.06463642
 20
4.34304293
  0
VERTEX
  8
0
 10
3.23032263
 20
4.32838891
  0
VERTEX
  8
0
 10
3.35223621
 20
4.22337929
  0
VERTEX
  8
0
 10
3.34606337
 20
4.21798496
  0
SEQEND
  0
POLYLINE
  8
Default_Layer
 66
   1
 39
0.000000
 70
    1
  0
VERTEX
  8
0
 10
2.29925267
 20
3.98746727
  0
VERTEX
  8
0
 10
1.83886172
 20
4.02558720
  0
VERTEX
  8
0
 10
2.12386796
 20
4.17103348
  0
VERTEX
  8
0
 10
2.43814156
 20
4.27948032
  0
VERTEX
  8
0
 10
2.47826501
 20
4.28271692
  0
VERTEX
  8
0
 10
2.41343633
 20
4.21668449
  0
VERTEX
  8
0
 10
2.36482809
 20
4.14266317
  0
VERTEX
  8
0
 10
2.29925267
 20
3.98746727
  0
SEQEND
  0
POLYLINE
  8
Default_Layer
 66
   1
 39
0.000000
 70
    1
  0
VERTEX
  8
0
 10
1.73906748
 20
3.95833789
  0
VERTEX
  8
0
 10
1.70160709
 20
3.95543290
  0
VERTEX
  8
0
 10
1.67322386
 20
3.97236314
  0
VERTEX
  8
0
 10
1.67326296
 20
3.99226062
  0
VERTEX
  8
0
 10
1.69431440
 20
4.00436950
  0
VERTEX
  8
0
 10
1.72809166
 20
4.00205655
  0
VERTEX
  8
0
 10
1.76118682
 20
3.99142311
  0
VERTEX
  8
0
 10
1.73906748
 20
3.95833789
  0
SEQEND
  0
POLYLINE
  8
Default_Layer
 66
   1
 39
0.000000
 70
    1
  0
VERTEX
  8
0
 10
5.03615794
 20
2.26491395
  0
VERTEX
  8
0
 10
5.43417627
 20
2.27767761
  0
VERTEX
  8
0
 10
5.82069715
 20
2.31514015
  0
VERTEX
  8
0
 10
6.19376383
 20
2.37605891
  0
VERTEX
  8
0
 10
6.55141956
 20
2.45919123
  0
VERTEX
  8
0
 10
6.89170760
 20
2.56329445
  0
VERTEX
  8
0
 10
7.21267119
 20
2.68712590
  0
VERTEX
  8
0
 10
7.51235361
 20
2.82944293
  0
VERTEX
  8
0
 10
7.78879809
 20
2.98900288
  0
VERTEX
  8
0
 10
8.04004789
 20
3.16456308
  0
VERTEX
  8
0
 10
8.26414628
 20
3.35488088
  0
VERTEX
  8
0
 10
8.45913649
 20
3.55871362
  0
VERTEX
  8
0
 10
8.62306180
 20
3.77481863
  0
VERTEX
  8
0
 10
8.75396544
 20
4.00195325
  0
VERTEX
  8
0
 10
8.84989068
 20
4.23887482
  0
VERTEX
  8
0
 10
8.90888077
 20
4.48434069
  0
VERTEX
  8
0
 10
8.92897897
 20
4.73710819
  0
VERTEX
  8
0
 10
8.90888077
 20
4.98987569
  0
VERTEX
  8
0
 10
8.84989068
 20
5.23534156
  0
VERTEX
  8
0
 10
8.75396544
 20
5.47226313
  0
VERTEX
  8
0
 10
8.62306180
 20
5.69939775
  0
VERTEX
  8
0
 10
8.45913649
 20
5.91550276
  0
VERTEX
  8
0
 10
8.26414628
 20
6.11933550
  0
VERTEX
  8
0
 10
8.04004789
 20
6.30965330
  0
VERTEX
  8
0
 10
7.78879809
 20
6.48521350
  0
VERTEX
  8
0
 10
7.51235361
 20
6.64477345
  0
VERTEX
  8
0
 10
7.21267119
 20
6.78709048
  0
VERTEX
  8
0
 10
6.89170760
 20
6.91092193
  0
VERTEX
  8
0
 10
6.55141956
 20
7.01502515
  0
VERTEX
  8
0
 10
6.19376383
 20
7.09815747
  0
VERTEX
  8
0
 10
5.82069715
 20
7.15907623
  0
VERTEX
  8
0
 10
5.43417627
 20
7.19653877
  0
VERTEX
  8
0
 10
5.03615794
 20
7.20930243
  0
VERTEX
  8
0
 10
4.63813960
 20
7.19653877
  0
VERTEX
  8
0
 10
4.25161872
 20
7.15907623
  0
VERTEX
  8
0
 10
3.87855204
 20
7.09815747
  0
VERTEX
  8
0
 10
3.52089631
 20
7.01502515
  0
VERTEX
  8
0
 10
3.18060828
 20
6.91092193
  0
VERTEX
  8
0
 10
2.85964468
 20
6.78709048
  0
VERTEX
  8
0
 10
2.55996227
 20
6.64477345
  0
VERTEX
  8
0
 10
2.28351779
 20
6.48521350
  0
VERTEX
  8
0
 10
2.03226798
 20
6.30965330
  0
VERTEX
  8
0
 10
1.80816960
 20
6.11933550
  0
VERTEX
  8
0
 10
1.61317938
 20
5.91550276
  0
VERTEX
  8
0
 10
1.44925408
 20
5.69939775
  0
VERTEX
  8
0
 10
1.31835043
 20
5.47226313
  0
VERTEX
  8
0
 10
1.22242519
 20
5.23534156
  0
VERTEX
  8
0
 10
1.16343510
 20
4.98987569
  0
VERTEX
  8
0
 10
1.14333691
 20
4.73710819
  0
VERTEX
  8
0
 10
1.16343510
 20
4.48434069
  0
VERTEX
  8
0
 10
1.22242519
 20
4.23887482
  0
VERTEX
  8
0
 10
1.31835043
 20
4.00195325
  0
VERTEX
  8
0
 10
1.44925408
 20
3.77481863
  0
VERTEX
  8
0
 10
1.61317938
 20
3.55871362
  0
VERTEX
  8
0
 10
1.80816960
 20
3.35488088
  0
VERTEX
  8
0
 10
2.03226798
 20
3.16456308
  0
VERTEX
  8
0
 10
2.28351779
 20
2.98900288
  0
VERTEX
  8
0
 10
2.55996227
 20
2.82944293
  0
VERTEX
  8
0
 10
2.85964468
 20
2.68712590
  0
VERTEX
  8
0
 10
3.18060828
 20
2.56329445
  0
VERTEX
  8
0
 10
3.52089631
 20
2.45919123
  0
VERTEX
  8
0
 10
3.87855204
 20
2.37605891
  0
VERTEX
  8
0
 10
4.25161872
 20
2.31514015
  0
VERTEX
  8
0
 10
4.63813960
 20
2.27767761
  0
VERTEX
  8
0
 10
5.03615794
 20
2.26491395
  0
SEQEND
  0
POLYLINE
  8
Default_Layer
 66
   1
 39
0.000000
 70
    1
  0
VERTEX
  8
0
 10
5.03615312
 20
1.98196555
  0
VERTEX
  8
0
 10
5.47972574
 20
1.99619005
  0
VERTEX
  8
0
 10
5.91048498
 20
2.03794028
  0
VERTEX
  8
0
 10
6.32625015
 20
2.10583135
  0
VERTEX
  8
0
 10
6.72484055
 20
2.19847839
  0
VERTEX
  8
0
 10
7.10407548
 20
2.31449650
  0
VERTEX
  8
0
 10
7.46177423
 20
2.45250080
  0
VERTEX
  8
0
 10
7.79575611
 20
2.61110640
  0
VERTEX
  8
0
 10
8.10384041
 20
2.78892842
  0
VERTEX
  8
0
 10
8.38384644
 20
2.98458197
  0
VERTEX
  8
0
 10
8.63359349
 20
3.19668215
  0
VERTEX
  8
0
 10
8.85090086
 20
3.42384410
  0
VERTEX
  8
0
 10
9.03358786
 20
3.66468291
  0
VERTEX
  8
0
 10
9.17947379
 20
3.91781371
  0
VERTEX
  8
0
 10
9.28637793
 20
4.18185160
  0
VERTEX
  8
0
 10
9.35211960
 20
4.45541170
  0
VERTEX
  8
0
 10
9.37451809
 20
4.73710913
  0
VERTEX
  8
0
 10
9.35211960
 20
5.01880655
  0
VERTEX
  8
0
 10
9.28637793
 20
5.29236666
  0
VERTEX
  8
0
 10
9.17947379
 20
5.55640455
  0
VERTEX
  8
0
 10
9.03358786
 20
5.80953534
  0
VERTEX
  8
0
 10
8.85090086
 20
6.05037416
  0
VERTEX
  8
0
 10
8.63359349
 20
6.27753610
  0
VERTEX
  8
0
 10
8.38384644
 20
6.48963629
  0
VERTEX
  8
0
 10
8.10384041
 20
6.68528983
  0
VERTEX
  8
0
 10
7.79575611
 20
6.86311185
  0
VERTEX
  8
0
 10
7.46177423
 20
7.02171745
  0
VERTEX
  8
0
 10
7.10407548
 20
7.15972175
  0
VERTEX
  8
0
 10
6.72484055
 20
7.27573986
  0
VERTEX
  8
0
 10
6.32625015
 20
7.36838690
  0
VERTEX
  8
0
 10
5.91048498
 20
7.43627798
  0
VERTEX
  8
0
 10
5.47972574
 20
7.47802821
  0
VERTEX
  8
0
 10
5.03615312
 20
7.49225270
  0
VERTEX
  8
0
 10
4.59258051
 20
7.47802821
  0
VERTEX
  8
0
 10
4.16182126
 20
7.43627798
  0
VERTEX
  8
0
 10
3.74605609
 20
7.36838690
  0
VERTEX
  8
0
 10
3.34746569
 20
7.27573986
  0
VERTEX
  8
0
 10
2.96823077
 20
7.15972175
  0
VERTEX
  8
0
 10
2.61053202
 20
7.02171745
  0
VERTEX
  8
0
 10
2.27655014
 20
6.86311185
  0
VERTEX
  8
0
 10
1.96846584
 20
6.68528983
  0
VERTEX
  8
0
 10
1.68845981
 20
6.48963629
  0
VERTEX
  8
0
 10
1.43871276
 20
6.27753610
  0
VERTEX
  8
0
 10
1.22140538
 20
6.05037416
  0
VERTEX
  8
0
 10
1.03871838
 20
5.80953534
  0
VERTEX
  8
0
 10
0.89283246
 20
5.55640455
  0
VERTEX
  8
0
 10
0.78592832
 20
5.29236666
  0
VERTEX
  8
0
 10
0.72018665
 20
5.01880655
  0
VERTEX
  8
0
 10
0.69778816
 20
4.73710913
  0
VERTEX
  8
0
 10
0.72018665
 20
4.45541170
  0
VERTEX
  8
0
 10
0.78592832
 20
4.18185160
  0
VERTEX
  8
0
 10
0.89283246
 20
3.91781371
  0
VERTEX
  8
0
 10
1.03871838
 20
3.66468291
  0
VERTEX
  8
0
 10
1.22140538
 20
3.42384410
  0
VERTEX
  8
0
 10
1.43871276
 20
3.19668215
  0
VERTEX
  8
0
 10
1.68845981
 20
2.98458197
  0
VERTEX
  8
0
 10
1.96846584
 20
2.78892842
  0
VERTEX
  8
0
 10
2.27655014
 20
2.61110640
  0
VERTEX
  8
0
 10
2.61053202
 20
2.45250080
  0
VERTEX
  8
0
 10
2.96823077
 20
2.31449650
  0
VERTEX
  8
0
 10
3.34746569
 20
2.19847839
  0
VERTEX
  8
0
 10
3.74605609
 20
2.10583135
  0
VERTEX
  8
0
 10
4.16182126
 20
2.03794028
  0
VERTEX
  8
0
 10
4.59258051
 20
1.99619005
  0
VERTEX
  8
0
 10
5.03615312
 20
1.98196555
  0
SEQEND
  0
ENDSEC
  0
EOF
