  0
SECTION
  2
HEADER
  9
$ACADVER
  1
AC1021
  9
$ACADMAINTVER
 70
    50
  9
$DWGCODEPAGE
  3
ANSI_1256
  9
$LASTSAVEDBY
  1
sign - store
  9
$INSBASE
 10
0.0
 20
0.0
 30
0.0
  9
$EXTMIN
 10
13.2982918916482
 20
-195.9550836633693
 30
-0.0000000000000058
  9
$EXTMAX
 10
250.6992927143108
 20
41.45098042338633
 30
0.0000000000000104
  9
$LIMMIN
 10
0.0
 20
0.0
  9
$LIMMAX
 10
369.6
 20
50.0
  9
$ORTHOMODE
 70
     0
  9
$REGENMODE
 70
     1
  9
$FILLMODE
 70
     1
  9
$QTEXTMODE
 70
     0
  9
$MIRRTEXT
 70
     0
  9
$LTSCALE
 40
1.0
  9
$ATTMODE
 70
     1
  9
$TEXTSIZE
 40
0.2
  9
$TRACEWID
 40
0.05
  9
$TEXTSTYLE
  7
STANDARD
  9
$CLAYER
  8
0
  9
$CELTYPE
  6
CONTINUOUS
  9
$CECOLOR
 62
   256
  9
$CELTSCALE
 40
1.0
  9
$DISPSILH
 70
     0
  9
$DIMSCALE
 40
1.0
  9
$DIMASZ
 40
0.18
  9
$DIMEXO
 40
0.0625
  9
$DIMDLI
 40
0.38
  9
$DIMRND
 40
0.0
  9
$DIMDLE
 40
0.0
  9
$DIMEXE
 40
0.18
  9
$DIMTP
 40
0.0
  9
$DIMTM
 40
0.0
  9
$DIMTXT
 40
0.18
  9
$DIMCEN
 40
0.09
  9
$DIMTSZ
 40
0.0
  9
$DIMTOL
 70
     0
  9
$DIMLIM
 70
     0
  9
$DIMTIH
 70
     1
  9
$DIMTOH
 70
     1
  9
$DIMSE1
 70
     0
  9
$DIMSE2
 70
     0
  9
$DIMTAD
 70
     0
  9
$DIMZIN
 70
     0
  9
$DIMBLK
  1

  9
$DIMASO
 70
     1
  9
$DIMSHO
 70
     1
  9
$DIMPOST
  1

  9
$DIMAPOST
  1

  9
$DIMALT
 70
     0
  9
$DIMALTD
 70
     2
  9
$DIMALTF
 40
25.4
  9
$DIMLFAC
 40
1.0
  9
$DIMTOFL
 70
     0
  9
$DIMTVP
 40
0.0
  9
$DIMTIX
 70
     0
  9
$DIMSOXD
 70
     0
  9
$DIMSAH
 70
     0
  9
$DIMBLK1
  1

  9
$DIMBLK2
  1

  9
$DIMSTYLE
  2
STANDARD
  9
$DIMCLRD
 70
     0
  9
$DIMCLRE
 70
     0
  9
$DIMCLRT
 70
     0
  9
$DIMTFAC
 40
1.0
  9
$DIMGAP
 40
0.09
  9
$DIMJUST
 70
     0
  9
$DIMSD1
 70
     0
  9
$DIMSD2
 70
     0
  9
$DIMTOLJ
 70
     1
  9
$DIMTZIN
 70
     0
  9
$DIMALTZ
 70
     0
  9
$DIMALTTZ
 70
     0
  9
$DIMUPT
 70
     0
  9
$DIMDEC
 70
     4
  9
$DIMTDEC
 70
     4
  9
$DIMALTU
 70
     2
  9
$DIMALTTD
 70
     2
  9
$DIMTXSTY
  7
STANDARD
  9
$DIMAUNIT
 70
     0
  9
$DIMADEC
 70
     0
  9
$DIMALTRND
 40
0.0
  9
$DIMAZIN
 70
     0
  9
$DIMDSEP
 70
    46
  9
$DIMATFIT
 70
     3
  9
$DIMFRAC
 70
     0
  9
$DIMLDRBLK
  1

  9
$DIMLUNIT
 70
     2
  9
$DIMLWD
 70
    -2
  9
$DIMLWE
 70
    -2
  9
$DIMTMOVE
 70
     0
  9
$DIMFXL
 40
1.0
  9
$DIMFXLON
 70
     0
  9
$DIMJOGANG
 40
0.7853981633974483
  9
$DIMTFILL
 70
     0
  9
$DIMTFILLCLR
 70
     0
  9
$DIMARCSYM
 70
     0
  9
$DIMLTYPE
  6

  9
$DIMLTEX1
  6

  9
$DIMLTEX2
  6

  9
$LUNITS
 70
     2
  9
$LUPREC
 70
     4
  9
$SKETCHINC
 40
0.1
  9
$FILLETRAD
 40
0.0
  9
$AUNITS
 70
     0
  9
$AUPREC
 70
     0
  9
$MENU
  1
.
  9
$ELEVATION
 40
0.0
  9
$PELEVATION
 40
0.0
  9
$THICKNESS
 40
0.0
  9
$LIMCHECK
 70
     0
  9
$CHAMFERA
 40
0.0
  9
$CHAMFERB
 40
0.0
  9
$CHAMFERC
 40
0.0
  9
$CHAMFERD
 40
0.0
  9
$SKPOLY
 70
     0
  9
$TDCREATE
 40
2456318.272311678
  9
$TDUCREATE
 40
2456318.188978345
  9
$TDUPDATE
 40
2456392.956276482
  9
$TDUUPDATE
 40
2456392.872943148
  9
$TDINDWG
 40
0.0422514815
  9
$TDUSRTIMER
 40
0.0422514468
  9
$USRTIMER
 70
     1
  9
$ANGBASE
 50
0.0
  9
$ANGDIR
 70
     0
  9
$PDMODE
 70
     0
  9
$PDSIZE
 40
0.0
  9
$PLINEWID
 40
0.0
  9
$SPLFRAME
 70
     0
  9
$SPLINETYPE
 70
     6
  9
$SPLINESEGS
 70
     8
  9
$HANDSEED
  5
1323
  9
$SURFTAB1
 70
     6
  9
$SURFTAB2
 70
     6
  9
$SURFTYPE
 70
     6
  9
$SURFU
 70
     6
  9
$SURFV
 70
     6
  9
$UCSBASE
  2

  9
$UCSNAME
  2

  9
$UCSORG
 10
0.0
 20
0.0
 30
0.0
  9
$UCSXDIR
 10
1.0
 20
0.0
 30
0.0
  9
$UCSYDIR
 10
0.0
 20
1.0
 30
0.0
  9
$UCSORTHOREF
  2

  9
$UCSORTHOVIEW
 70
     0
  9
$UCSORGTOP
 10
0.0
 20
0.0
 30
0.0
  9
$UCSORGBOTTOM
 10
0.0
 20
0.0
 30
0.0
  9
$UCSORGLEFT
 10
0.0
 20
0.0
 30
0.0
  9
$UCSORGRIGHT
 10
0.0
 20
0.0
 30
0.0
  9
$UCSORGFRONT
 10
0.0
 20
0.0
 30
0.0
  9
$UCSORGBACK
 10
0.0
 20
0.0
 30
0.0
  9
$PUCSBASE
  2

  9
$PUCSNAME
  2

  9
$PUCSORG
 10
0.0
 20
0.0
 30
0.0
  9
$PUCSXDIR
 10
1.0
 20
0.0
 30
0.0
  9
$PUCSYDIR
 10
0.0
 20
1.0
 30
0.0
  9
$PUCSORTHOREF
  2

  9
$PUCSORTHOVIEW
 70
     0
  9
$PUCSORGTOP
 10
0.0
 20
0.0
 30
0.0
  9
$PUCSORGBOTTOM
 10
0.0
 20
0.0
 30
0.0
  9
$PUCSORGLEFT
 10
0.0
 20
0.0
 30
0.0
  9
$PUCSORGRIGHT
 10
0.0
 20
0.0
 30
0.0
  9
$PUCSORGFRONT
 10
0.0
 20
0.0
 30
0.0
  9
$PUCSORGBACK
 10
0.0
 20
0.0
 30
0.0
  9
$USERI1
 70
     0
  9
$USERI2
 70
     0
  9
$USERI3
 70
     0
  9
$USERI4
 70
     0
  9
$USERI5
 70
     0
  9
$USERR1
 40
0.0
  9
$USERR2
 40
0.0
  9
$USERR3
 40
0.0
  9
$USERR4
 40
0.0
  9
$USERR5
 40
0.0
  9
$WORLDVIEW
 70
     1
  9
$SHADEDGE
 70
     3
  9
$SHADEDIF
 70
    70
  9
$TILEMODE
 70
     1
  9
$MAXACTVP
 70
    64
  9
$PINSBASE
 10
0.0
 20
0.0
 30
0.0
  9
$PLIMCHECK
 70
     0
  9
$PEXTMIN
 10
1.000000000000000E+20
 20
1.000000000000000E+20
 30
1.000000000000000E+20
  9
$PEXTMAX
 10
-1.000000000000000E+20
 20
-1.000000000000000E+20
 30
-1.000000000000000E+20
  9
$PLIMMIN
 10
0.0
 20
0.0
  9
$PLIMMAX
 10
12.0
 20
9.0
  9
$UNITMODE
 70
     0
  9
$VISRETAIN
 70
     1
  9
$PLINEGEN
 70
     0
  9
$PSLTSCALE
 70
     1
  9
$TREEDEPTH
 70
  3020
  9
$CMLSTYLE
  2
Standard
  9
$CMLJUST
 70
     0
  9
$CMLSCALE
 40
1.0
  9
$PROXYGRAPHICS
 70
     1
  9
$MEASUREMENT
 70
     0
  9
$CELWEIGHT
370
    -1
  9
$ENDCAPS
280
     0
  9
$JOINSTYLE
280
     0
  9
$LWDISPLAY
290
     0
  9
$INSUNITS
 70
     0
  9
$HYPERLINKBASE
  1

  9
$STYLESHEET
  1

  9
$XEDIT
290
     1
  9
$CEPSNTYPE
380
     0
  9
$PSTYLEMODE
290
     1
  9
$FINGERPRINTGUID
  2
{387E6076-FC95-4B89-85BA-DD5D2E1D0EBC}
  9
$VERSIONGUID
  2
{DC76577D-1F84-4EE2-9569-5C01F3A5C559}
  9
$EXTNAMES
290
     1
  9
$PSVPSCALE
 40
0.0
  9
$OLESTARTUP
290
     0
  9
$SORTENTS
280
   127
  9
$INDEXCTL
280
     0
  9
$HIDETEXT
280
     0
  9
$XCLIPFRAME
290
     0
  9
$HALOGAP
280
     0
  9
$OBSCOLOR
 70
   257
  9
$OBSLTYPE
280
     0
  9
$INTERSECTIONDISPLAY
280
     0
  9
$INTERSECTIONCOLOR
 70
   257
  9
$DIMASSOC
280
     1
  9
$PROJECTNAME
  1

  9
$CAMERADISPLAY
290
     0
  9
$LENSLENGTH
 40
50.0
  9
$CAMERAHEIGHT
 40
0.0
  9
$STEPSPERSEC
 40
2.0
  9
$STEPSIZE
 40
6.0
  9
$3DDWFPREC
 40
2.0
  9
$PSOLWIDTH
 40
0.25
  9
$PSOLHEIGHT
 40
4.0
  9
$LOFTANG1
 40
1.570796326794896
  9
$LOFTANG2
 40
1.570796326794896
  9
$LOFTMAG1
 40
0.0
  9
$LOFTMAG2
 40
0.0
  9
$LOFTPARAM
 70
     7
  9
$LOFTNORMALS
280
     1
  9
$LATITUDE
 40
37.795
  9
$LONGITUDE
 40
-122.394
  9
$NORTHDIRECTION
 40
0.0
  9
$TIMEZONE
 70
 -8000
  9
$LIGHTGLYPHDISPLAY
280
     1
  9
$TILEMODELIGHTSYNCH
280
     1
  9
$CMATERIAL
347
18A
  9
$SOLIDHIST
280
     1
  9
$SHOWHIST
280
     1
  9
$DWFFRAME
280
     2
  9
$DGNFRAME
280
     0
  9
$REALWORLDSCALE
290
     1
  9
$INTERFERECOLOR
 62
     1
  9
$INTERFEREOBJVS
345
1AC
  9
$INTERFEREVPVS
346
1A9
  9
$CSHADOW
280
     0
  9
$SHADOWPLANELOCATION
 40
0.0
  0
ENDSEC
  0
SECTION
  2
CLASSES
  0
CLASS
  1
ACDBDICTIONARYWDFLT
  2
AcDbDictionaryWithDefault
  3
ObjectDBX Classes
 90
        0
 91
        1
280
     0
281
     0
  0
CLASS
  1
MATERIAL
  2
AcDbMaterial
  3
ObjectDBX Classes
 90
     1153
 91
        3
280
     0
281
     0
  0
CLASS
  1
VISUALSTYLE
  2
AcDbVisualStyle
  3
ObjectDBX Classes
 90
     4095
 91
       19
280
     0
281
     0
  0
CLASS
  1
SCALE
  2
AcDbScale
  3
ObjectDBX Classes
 90
     1153
 91
       33
280
     0
281
     0
  0
CLASS
  1
TABLESTYLE
  2
AcDbTableStyle
  3
ObjectDBX Classes
 90
     4095
 91
        1
280
     0
281
     0
  0
CLASS
  1
MLEADERSTYLE
  2
AcDbMLeaderStyle
  3
ACDB_MLEADERSTYLE_CLASS
 90
     4095
 91
        1
280
     0
281
     0
  0
CLASS
  1
DICTIONARYVAR
  2
AcDbDictionaryVar
  3
ObjectDBX Classes
 90
        0
 91
        9
280
     0
281
     0
  0
CLASS
  1
CELLSTYLEMAP
  2
AcDbCellStyleMap
  3
ObjectDBX Classes
 90
     1152
 91
        2
280
     0
281
     0
  0
CLASS
  1
SORTENTSTABLE
  2
AcDbSortentsTable
  3
ObjectDBX Classes
 90
        0
 91
        1
280
     0
281
     0
  0
CLASS
  1
ACDBASSOCNETWORK
  2
AcDbAssocNetwork
  3
ObjectDBX Classes
 90
     1025
 91
        0
280
     0
281
     0
  0
CLASS
  1
ACDBASSOC2DCONSTRAINTGROUP
  2
AcDbAssoc2dConstraintGroup
  3
ObjectDBX Classes
 90
     1025
 91
        0
280
     0
281
     0
  0
CLASS
  1
ACDBASSOCGEOMDEPENDENCY
  2
AcDbAssocGeomDependency
  3
ObjectDBX Classes
 90
     1025
 91
        0
280
     0
281
     0
  0
ENDSEC
  0
SECTION
  2
TABLES
  0
TABLE
  2
VPORT
  5
181
330
0
100
AcDbSymbolTable
 70
     1
  0
VPORT
  5
1F3
330
181
100
AcDbSymbolTableRecord
100
AcDbViewportTableRecord
  2
*ACTIVE
 70
     0
 10
0.0
 20
0.0
 11
1.0
 21
1.0
 12
131.9987923029795
 22
-77.2520516199915
 13
0.0
 23
0.0
 14
1.0
 24
1.0
 15
0.0
 25
0.0
 16
0.0
 26
0.0
 36
1.0
 17
0.0
 27
0.0
 37
0.0
 40
239.3546774718727
 41
1.746575342465753
 42
50.0
 43
0.0
 44
0.0
 50
0.0
 51
0.0
 71
     0
 72
  2000
 73
     1
 74
     1
 75
     0
 76
     0
 77
     0
 78
     0
281
     0
 65
     1
110
0.0
120
0.0
130
0.0
111
1.0
121
0.0
131
0.0
112
0.0
122
1.0
132
0.0
 79
     0
146
0.0
348
1A8
 60
     3
 61
     5
292
     1
282
     0
141
0.0
142
0.0
 63
   250
421
  3355443
  0
ENDTAB
  0
TABLE
  2
LTYPE
  5
17E
330
0
100
AcDbSymbolTable
 70
     8
  0
LTYPE
  5
1DE
330
17E
100
AcDbSymbolTableRecord
100
AcDbLinetypeTableRecord
  2
ByBlock
 70
     0
  3

 72
    65
 73
     0
 40
0.0
  0
LTYPE
  5
1DF
330
17E
100
AcDbSymbolTableRecord
100
AcDbLinetypeTableRecord
  2
ByLayer
 70
     0
  3

 72
    65
 73
     0
 40
0.0
  0
LTYPE
  5
1E0
330
17E
100
AcDbSymbolTableRecord
100
AcDbLinetypeTableRecord
  2
CONTINUOUS
 70
     0
  3
Solid line
 72
    65
 73
     0
 40
0.0
  0
LTYPE
  5
1F4
330
17E
100
AcDbSymbolTableRecord
100
AcDbLinetypeTableRecord
  2
HIDDEN
 70
     0
  3
 _ _ _ _ _ _ _ _ _ _ _
 72
    65
 73
     2
 40
0.375
 49
0.25
 74
     0
 49
-0.125
 74
     0
  0
LTYPE
  5
1F5
330
17E
100
AcDbSymbolTableRecord
100
AcDbLinetypeTableRecord
  2
DASHED
 70
     0
  3
 ___ ___ ___ ___ ___ ___ ___ 
 72
    65
 73
     2
 40
0.75
 49
0.5
 74
     0
 49
-0.25
 74
     0
  0
LTYPE
  5
1F6
330
17E
100
AcDbSymbolTableRecord
100
AcDbLinetypeTableRecord
  2
CENTER
 70
     0
  3
___ _ ___ _ ___ _ ___
 72
    65
 73
     4
 40
2.0
 49
1.25
 74
     0
 49
-0.25
 74
     0
 49
0.25
 74
     0
 49
-0.25
 74
     0
  0
LTYPE
  5
1F7
330
17E
100
AcDbSymbolTableRecord
100
AcDbLinetypeTableRecord
  2
BORDER
 70
     0
  3
___ ___ . ___ ___ . ___ ___
 72
    65
 73
     6
 40
1.75
 49
0.5
 74
     0
 49
-0.25
 74
     0
 49
0.5
 74
     0
 49
-0.25
 74
     0
 49
0.0
 74
     0
 49
-0.25
 74
     0
  0
LTYPE
  5
1F8
330
17E
100
AcDbSymbolTableRecord
100
AcDbLinetypeTableRecord
  2
DOT
 70
     0
  3
.................
 72
    65
 73
     2
 40
0.25
 49
0.0
 74
     0
 49
-0.25
 74
     0
  0
LTYPE
  5
1F9
330
17E
100
AcDbSymbolTableRecord
100
AcDbLinetypeTableRecord
  2
DASHDOT
 70
     0
  3
__ . __ . __ . __
 72
    65
 73
     4
 40
1.0
 49
0.5
 74
     0
 49
-0.25
 74
     0
 49
0.0
 74
     0
 49
-0.25
 74
     0
  0
LTYPE
  5
1FA
330
17E
100
AcDbSymbolTableRecord
100
AcDbLinetypeTableRecord
  2
DIVIDE
 70
     0
  3
___ .. ___ .. ___ .. ___
 72
    65
 73
     6
 40
1.25
 49
0.5
 74
     0
 49
-0.25
 74
     0
 49
0.0
 74
     0
 49
-0.25
 74
     0
 49
0.0
 74
     0
 49
-0.25
 74
     0
  0
ENDTAB
  0
TABLE
  2
LAYER
  5
17B
102
{ACAD_XDICTIONARY
360
699
102
}
330
0
100
AcDbSymbolTable
 70
     9
  0
LAYER
  5
1D8
102
{ACAD_XDICTIONARY
360
20C
102
}
330
17B
100
AcDbSymbolTableRecord
100
AcDbLayerTableRecord
  2
0
 70
     0
 62
     7
  6
CONTINUOUS
370
    -3
390
188
347
19A
  0
LAYER
  5
1FB
102
{ACAD_XDICTIONARY
360
20E
102
}
330
17B
100
AcDbSymbolTableRecord
100
AcDbLayerTableRecord
  2
BLACK
 70
     0
 62
     1
  6
CONTINUOUS
370
    -3
390
188
347
19A
  0
LAYER
  5
1FC
102
{ACAD_XDICTIONARY
360
210
102
}
330
17B
100
AcDbSymbolTableRecord
100
AcDbLayerTableRecord
  2
WHITE
 70
     0
 62
     7
  6
CONTINUOUS
370
    -3
390
188
347
19A
  0
LAYER
  5
1FD
102
{ACAD_XDICTIONARY
360
212
102
}
330
17B
100
AcDbSymbolTableRecord
100
AcDbLayerTableRecord
  2
RED
 70
     0
 62
     1
  6
CONTINUOUS
370
    -3
390
188
347
19A
  0
LAYER
  5
1FE
102
{ACAD_XDICTIONARY
360
214
102
}
330
17B
100
AcDbSymbolTableRecord
100
AcDbLayerTableRecord
  2
YELLOW
 70
     0
 62
     2
  6
CONTINUOUS
370
    -3
390
188
347
19A
  0
LAYER
  5
1FF
102
{ACAD_XDICTIONARY
360
216
102
}
330
17B
100
AcDbSymbolTableRecord
100
AcDbLayerTableRecord
  2
GREEN
 70
     0
 62
     3
  6
CONTINUOUS
370
    -3
390
188
347
19A
  0
LAYER
  5
200
102
{ACAD_XDICTIONARY
360
218
102
}
330
17B
100
AcDbSymbolTableRecord
100
AcDbLayerTableRecord
  2
CYAN
 70
     0
 62
     4
  6
CONTINUOUS
370
    -3
390
188
347
19A
  0
LAYER
  5
201
102
{ACAD_XDICTIONARY
360
21A
102
}
330
17B
100
AcDbSymbolTableRecord
100
AcDbLayerTableRecord
  2
BLUE
 70
     0
 62
     5
  6
CONTINUOUS
370
    -3
390
188
347
19A
  0
LAYER
  5
202
102
{ACAD_XDICTIONARY
360
21C
102
}
330
17B
100
AcDbSymbolTableRecord
100
AcDbLayerTableRecord
  2
MAGENTA
 70
     0
 62
     6
  6
CONTINUOUS
370
    -3
390
188
347
19A
  0
ENDTAB
  0
TABLE
  2
STYLE
  5
17C
330
0
100
AcDbSymbolTable
 70
     2
  0
STYLE
  5
1D9
330
17C
100
AcDbSymbolTableRecord
100
AcDbTextStyleTableRecord
  2
STANDARD
 70
     0
 40
0.0
 41
1.0
 50
0.0
 71
     0
 42
0.2
  3
txt
  4

  0
STYLE
  5
1DD
330
17C
100
AcDbSymbolTableRecord
100
AcDbTextStyleTableRecord
  2
ANNOTATIVE
 70
     0
 40
0.0
 41
1.0
 50
0.0
 71
     0
 42
0.2
  3
txt
  4

1001
ACADANNOTATIVE
1000
AnnotativeData
1002
{
1070
     1
1070
     1
1002
}
  0
ENDTAB
  0
TABLE
  2
VIEW
  5
17F
330
0
100
AcDbSymbolTable
 70
     1
  0
ENDTAB
  0
TABLE
  2
UCS
  5
180
330
0
100
AcDbSymbolTable
 70
     0
  0
ENDTAB
  0
TABLE
  2
APPID
  5
182
330
0
100
AcDbSymbolTable
 70
     5
  0
APPID
  5
1DA
330
182
100
AcDbSymbolTableRecord
100
AcDbRegAppTableRecord
  2
ACAD
 70
     0
  0
APPID
  5
1E1
330
182
100
AcDbSymbolTableRecord
100
AcDbRegAppTableRecord
  2
ACADANNOTATIVE
 70
     0
  0
APPID
  5
203
330
182
100
AcDbSymbolTableRecord
100
AcDbRegAppTableRecord
  2
TC_BEND_DATA
 70
     0
  0
APPID
  5
204
330
182
100
AcDbSymbolTableRecord
100
AcDbRegAppTableRecord
  2
ACAD_EXEMPT_FROM_CAD_STANDARDS
 70
     0
  0
APPID
  5
205
330
182
100
AcDbSymbolTableRecord
100
AcDbRegAppTableRecord
  2
ACAD_MLEADERVER
 70
     0
  0
ENDTAB
  0
TABLE
  2
DIMSTYLE
  5
183
330
0
100
AcDbSymbolTable
 70
     2
100
AcDbDimStyleTable
 71
     1
340
1DB
  0
DIMSTYLE
105
1DB
330
183
100
AcDbSymbolTableRecord
100
AcDbDimStyleTableRecord
  2
STANDARD
 70
     0
279
     2
340
1D9
  0
DIMSTYLE
105
1DC
330
183
100
AcDbSymbolTableRecord
100
AcDbDimStyleTableRecord
  2
ANNOTATIVE
 70
     0
279
     2
340
1D9
1001
ACADANNOTATIVE
1000
AnnotativeData
1002
{
1070
     1
1070
     1
1002
}
  0
ENDTAB
  0
TABLE
  2
BLOCK_RECORD
  5
17A
330
0
100
AcDbSymbolTable
 70
     3
  0
BLOCK_RECORD
  5
1EF
102
{ACAD_XDICTIONARY
360
258
102
}
330
17A
100
AcDbSymbolTableRecord
100
AcDbBlockTableRecord
  2
*Model_Space
340
1F2
 70
     0
280
     1
281
     0
  0
BLOCK_RECORD
  5
1EB
330
17A
100
AcDbSymbolTableRecord
100
AcDbBlockTableRecord
  2
*Paper_Space
340
1EE
 70
     0
280
     1
281
     0
  0
BLOCK_RECORD
  5
207
330
17A
100
AcDbSymbolTableRecord
100
AcDbBlockTableRecord
  2
$MODEL_SPACE
340
0
 70
     0
280
     1
281
     0
  0
BLOCK_RECORD
  5
209
330
17A
100
AcDbSymbolTableRecord
100
AcDbBlockTableRecord
  2
$PAPER_SPACE
340
0
 70
     0
280
     1
281
     0
  0
BLOCK_RECORD
  5
E62
330
17A
100
AcDbSymbolTableRecord
100
AcDbBlockTableRecord
  2
dd
340
0
310
2800000020000000200000000100080000000000000400000000000000000000000000000000000000000000000080000080000000808000800000008000800080800000C0C0C000C0DCC000F0CAA6000020400000206000002080000020A0000020C0000020E00000400000004020000040400000406000004080000040A0
310
000040C0000040E00000600000006020000060400000606000006080000060A0000060C0000060E00000800000008020000080400000806000008080000080A0000080C0000080E00000A0000000A0200000A0400000A0600000A0800000A0A00000A0C00000A0E00000C0000000C0200000C0400000C0600000C0800000C0
310
A00000C0C00000C0E00000E0000000E0200000E0400000E0600000E0800000E0A00000E0C00000E0E00040000000400020004000400040006000400080004000A0004000C0004000E00040200000402020004020400040206000402080004020A0004020C0004020E000404000004040200040404000404060004040800040
310
40A0004040C0004040E00040600000406020004060400040606000406080004060A0004060C0004060E00040800000408020004080400040806000408080004080A0004080C0004080E00040A0000040A0200040A0400040A0600040A0800040A0A00040A0C00040A0E00040C0000040C0200040C0400040C0600040C08000
310
40C0A00040C0C00040C0E00040E0000040E0200040E0400040E0600040E0800040E0A00040E0C00040E0E00080000000800020008000400080006000800080008000A0008000C0008000E00080200000802020008020400080206000802080008020A0008020C0008020E00080400000804020008040400080406000804080
310
008040A0008040C0008040E00080600000806020008060400080606000806080008060A0008060C0008060E00080800000808020008080400080806000808080008080A0008080C0008080E00080A0000080A0200080A0400080A0600080A0800080A0A00080A0C00080A0E00080C0000080C0200080C0400080C0600080C0
310
800080C0A00080C0C00080C0E00080E0000080E0200080E0400080E0600080E0800080E0A00080E0C00080E0E000C0000000C0002000C0004000C0006000C0008000C000A000C000C000C000E000C0200000C0202000C0204000C0206000C0208000C020A000C020C000C020E000C0400000C0402000C0404000C0406000C0
310
408000C040A000C040C000C040E000C0600000C0602000C0604000C0606000C0608000C060A000C060C000C060E000C0800000C0802000C0804000C0806000C0808000C080A000C080C000C080E000C0A00000C0A02000C0A04000C0A06000C0A08000C0A0A000C0A0C000C0A0E000C0C00000C0C02000C0C04000C0C06000
310
C0C08000C0C0A000F0FBFF00A4A0A000808080000000FF0000FF000000FFFF00FF000000FF00FF00FFFF0000FFFFFF000000000000000000000000000000000000000000000000000000000000000000000000000000000000000000000000FFFFFF000000000000000000000000000000000000000000000000FFFFFFFFFF
310
FFFFFFFFFF0000000000000000000000000000000000000000FFFFFFFFFFFFFFFFFFFFFFFFFFFFFF00000000000000000000000000000000FFFFFFFFFFFFFFFFFFFFFF00FFFFFFFFFFFF00000000000000000000000000FFFFFFFFFFFFFFFFFFFFFFFFFFFFFFFFFFFFFFFF0000000000000000000000FFFFFFFF00FFFFFFFF
310
000000FFFFFFFFFFFFFFFFFFFF000000000000000000FFFFFFFF00FFFFFF000000000000000000FFFFFFFF00FFFF0000000000000000FFFFFFFFFFFF000000000000000000000000FFFF00FFFFFF00000000000000FFFFFFFFFFFF000000000000000000000000000000FF00FFFFFF000000000000FFFF00FFFF0000000000
310
0000000000000000000000FFFFFFFFFFFF00000000FFFFFFFFFF000000000000000000000000000000000000FFFFFFFFFF00000000FFFFFFFFFF000000000000000000000000000000000000FFFFFFFFFF00000000FFFFFFFFFF00000000000000000000000000000000000000FFFFFFFF000000FFFFFFFFFFFF0000000000
310
0000000000000000000000000000FFFFFFFF000000FFFFFFFFFF0000000000000000000000000000000000000000FFFFFFFFFF0000FFFFFFFFFF0000000000000000000000000000000000000000FFFFFFFFFF0000FFFFFF00FFFF00000000000000000000000000000000000000FFFFFFFFFF000000FFFFFFFFFF00000000
310
000000000000000000000000000000FF00FFFF00000000FFFFFFFFFF000000000000000000000000000000000000FFFFFFFFFF00000000FFFFFFFFFF000000000000000000000000000000000000FFFFFFFFFF0000000000FFFFFFFFFF00000000000000000000000000000000FFFFFFFFFFFF0000000000FFFFFF00FF0000
310
0000000000000000000000000000FFFFFFFFFF00000000000000FFFFFF00FFFF00000000000000000000000000FFFFFFFFFF0000000000000000FFFFFFFFFFFFFF00000000000000000000FFFF00FFFFFFFF000000000000000000FFFFFFFFFFFFFFFF0000000000FFFFFFFFFFFF00FFFF0000000000000000000000FFFFFF
310
FF00FFFFFFFFFFFFFFFFFFFFFFFFFFFFFF00000000000000000000000000FFFFFFFFFFFFFFFFFFFF00FFFFFFFFFFFFFF000000000000000000000000000000FFFFFFFFFFFFFFFFFFFFFFFFFFFFFF00000000000000000000000000000000000000FFFFFFFFFFFFFFFFFFFFFF00000000000000000000000000000000000000
310
00000000000000FFFFFF00000000000000000000000000000000000000000000000000000000000000000000000000000000000000000000
 70
     0
280
     1
281
     0
  0
ENDTAB
  0
ENDSEC
  0
SECTION
  2
BLOCKS
  0
BLOCK
  5
1F0
330
1EF
100
AcDbEntity
  8
0
100
AcDbBlockBegin
  2
*Model_Space
 70
     0
 10
0.0
 20
0.0
 30
0.0
  3
*Model_Space
  1

  0
ENDBLK
  5
1F1
330
1EF
100
AcDbEntity
  8
0
100
AcDbBlockEnd
  0
BLOCK
  5
1EC
330
1EB
100
AcDbEntity
 67
     1
  8
0
100
AcDbBlockBegin
  2
*Paper_Space
 70
     0
 10
0.0
 20
0.0
 30
0.0
  3
*Paper_Space
  1

  0
ENDBLK
  5
1ED
330
1EB
100
AcDbEntity
 67
     1
  8
0
100
AcDbBlockEnd
  0
BLOCK
  5
208
330
207
100
AcDbEntity
  8
0
100
AcDbBlockBegin
  2
$MODEL_SPACE
 70
     0
 10
0.0
 20
0.0
 30
0.0
  3
$MODEL_SPACE
  1

  0
ENDBLK
  5
78
330
207
100
AcDbEntity
  8
0
100
AcDbBlockEnd
  0
BLOCK
  5
20A
330
209
100
AcDbEntity
  8
0
100
AcDbBlockBegin
  2
$PAPER_SPACE
 70
     0
 10
0.0
 20
0.0
 30
0.0
  3
$PAPER_SPACE
  1

  0
ENDBLK
  5
74
330
209
100
AcDbEntity
  8
0
100
AcDbBlockEnd
  0
BLOCK
  5
E63
330
E62
100
AcDbEntity
  8
0
100
AcDbBlockBegin
  2
dd
 70
     0
 10
0.0
 20
0.0
 30
0.0
  3
dd
  1

  0
CIRCLE
  5
E65
330
E62
100
AcDbEntity
  8
0
  6
Continuous
100
AcDbCircle
 10
0.0
 20
0.0
 30
0.0
 40
118.6949774622942
  0
ARC
  5
E66
330
E62
100
AcDbEntity
  8
0
  6
Continuous
100
AcDbCircle
 10
0.0
 20
0.0
 30
0.0
 40
114.8730462534724
100
AcDbArc
 50
77.99623709419226
 51
93.60616543560301
  0
ARC
  5
E67
330
E62
100
AcDbEntity
  8
0
  6
Continuous
100
AcDbCircle
 10
0.0
 20
0.0
 30
0.0
 40
110.726460678663
100
AcDbArc
 50
80.7269206111337
 51
91.25623284000312
  0
ARC
  5
E68
330
E62
100
AcDbEntity
  8
0
  6
Continuous
100
AcDbCircle
 10
0.0
 20
0.0
 30
0.0
 40
104.8919512321828
100
AcDbArc
 50
86.06400442222627
 51
91.25623284000312
  0
ARC
  5
E69
330
E62
100
AcDbEntity
  8
0
  6
Continuous
100
AcDbCircle
 10
0.0
 20
0.0
 30
0.0
 40
99.87338870873321
100
AcDbArc
 50
88.62302550770927
 51
93.60616543560301
  0
ARC
  5
E6A
330
E62
100
AcDbEntity
  8
0
  6
Continuous
100
AcDbCircle
 10
0.0
 20
0.0
 30
0.0
 40
95.07484478576243
100
AcDbArc
 50
88.62302550770927
 51
95.99623709419224
  0
ARC
  5
E6B
330
E62
100
AcDbEntity
  8
0
  6
Continuous
100
AcDbCircle
 10
0.0
 20
0.0
 30
0.0
 40
90.53131198600802
100
AcDbArc
 50
86.06400442222627
 51
98.72692061113504
  0
LINE
  5
E6C
330
E62
100
AcDbEntity
  8
0
  6
Continuous
100
AcDbLine
 10
19.77327929308336
 20
92.99593290587784
 30
0.0
 11
23.8908286617297
 21
112.3612257916773
 31
0.0
  0
LINE
  5
E6D
330
E62
100
AcDbEntity
  8
0
  6
Continuous
100
AcDbLine
 10
14.58822700828585
 20
89.34820693591246
 30
0.0
 11
17.84247581051323
 21
109.2794360864603
 31
0.0
  0
LINE
  5
E6E
330
E62
100
AcDbEntity
  8
0
  6
Continuous
100
AcDbLine
 10
6.214256085830895
 20
90.31778048207135
 30
0.0
 11
7.200000000000128
 21
104.6445480342603
 31
0.0
  0
LINE
  5
E6F
330
E62
100
AcDbEntity
  8
0
  6
Continuous
100
AcDbLine
 10
2.284688949037672
 20
95.04738979815789
 30
0.0
 11
2.399999999999548
 21
99.84454803426032
 31
0.0
  0
LINE
  5
E70
330
E62
100
AcDbEntity
  8
0
  6
Continuous
100
AcDbLine
 10
-2.29961365017206
 20
104.866740248539
 30
0.0
 11
-2.427527350008602
 21
110.6998473593729
 31
0.0
  0
LINE
  5
E71
330
E62
100
AcDbEntity
  8
0
  6
Continuous
100
AcDbLine
 10
-6.281827811747291
 20
99.67563599751585
 30
0.0
 11
-7.225274981703876
 21
114.6455937094452
 31
0.0
  0
ARC
  5
E72
330
E62
100
AcDbEntity
  8
0
  6
Continuous
100
AcDbCircle
 10
0.0
 20
0.0
 30
0.0
 40
114.8730462534724
100
AcDbArc
 50
95.99623709419224
 51
111.6061654356035
  0
ARC
  5
E73
330
E62
100
AcDbEntity
  8
0
  6
Continuous
100
AcDbCircle
 10
0.0
 20
0.0
 30
0.0
 40
110.726460678663
100
AcDbArc
 50
98.7269206111334
 51
109.256232840004
  0
ARC
  5
E74
330
E62
100
AcDbEntity
  8
0
  6
Continuous
100
AcDbCircle
 10
0.0
 20
0.0
 30
0.0
 40
104.8919512321828
100
AcDbArc
 50
104.0640044222265
 51
109.256232840004
  0
ARC
  5
E75
330
E62
100
AcDbEntity
  8
0
  6
Continuous
100
AcDbCircle
 10
0.0
 20
0.0
 30
0.0
 40
99.87338870873321
100
AcDbArc
 50
106.6230255077093
 51
111.6061654356035
  0
ARC
  5
E76
330
E62
100
AcDbEntity
  8
0
  6
Continuous
100
AcDbCircle
 10
0.0
 20
0.0
 30
0.0
 40
95.07484478576243
100
AcDbArc
 50
106.6230255077093
 51
113.9962370941929
  0
ARC
  5
E77
330
E62
100
AcDbEntity
  8
0
  6
Continuous
100
AcDbCircle
 10
0.0
 20
0.0
 30
0.0
 40
90.53131198600802
100
AcDbArc
 50
104.0640044222265
 51
116.7269206111346
  0
LINE
  5
E78
330
E62
100
AcDbEntity
  8
0
  6
Continuous
100
AcDbLine
 10
-9.931817555457683
 20
94.55466731516706
 30
0.0
 11
-11.99999999999988
 21
114.2445480342603
 31
0.0
  0
LINE
  5
E79
330
E62
100
AcDbEntity
  8
0
  6
Continuous
100
AcDbLine
 10
-13.73588600270327
 20
89.48320448904729
 30
0.0
 11
-16.79999999999987
 21
109.4445480342603
 31
0.0
  0
LINE
  5
E7A
330
E62
100
AcDbEntity
  8
0
  6
Continuous
100
AcDbLine
 10
-21.9996203188297
 20
87.81762440270894
 30
0.0
 11
-25.48933679394671
 21
101.7478016622441
 31
0.0
  0
LINE
  5
E7B
330
E62
100
AcDbEntity
  8
0
  6
Continuous
100
AcDbLine
 10
-27.19839040592099
 20
91.10144713649685
 30
0.0
 11
-28.57112649916424
 21
95.69944881102749
 31
0.0
  0
LINE
  5
E7C
330
E62
100
AcDbEntity
  8
0
  6
Continuous
100
AcDbLine
 10
-34.5926674284593
 20
99.02357695760457
 30
0.0
 11
-36.51684981346929
 21
104.5316639785478
 31
0.0
  0
LINE
  5
E7D
330
E62
100
AcDbEntity
  8
0
  6
Continuous
100
AcDbLine
 10
-36.77583872297005
 20
92.85597158173413
 30
0.0
 11
-42.29908163979795
 21
106.8017062035159
 31
0.0
  0
ARC
  5
E7E
330
E62
100
AcDbEntity
  8
0
  6
Continuous
100
AcDbCircle
 10
0.0
 20
0.0
 30
0.0
 40
114.8730462534724
100
AcDbArc
 50
113.9962370941932
 51
129.6061654356025
  0
ARC
  5
E7F
330
E62
100
AcDbEntity
  8
0
  6
Continuous
100
AcDbCircle
 10
0.0
 20
0.0
 30
0.0
 40
110.726460678663
100
AcDbArc
 50
116.7269206111332
 51
127.2562328400031
  0
ARC
  5
E80
330
E62
100
AcDbEntity
  8
0
  6
Continuous
100
AcDbCircle
 10
0.0
 20
0.0
 30
0.0
 40
104.8919512321828
100
AcDbArc
 50
122.0640044222265
 51
127.2562328400031
  0
ARC
  5
E81
330
E62
100
AcDbEntity
  8
0
  6
Continuous
100
AcDbCircle
 10
0.0
 20
0.0
 30
0.0
 40
99.87338870873321
100
AcDbArc
 50
124.623025507709
 51
129.6061654356025
  0
ARC
  5
E82
330
E62
100
AcDbEntity
  8
0
  6
Continuous
100
AcDbCircle
 10
0.0
 20
0.0
 30
0.0
 40
95.07484478576243
100
AcDbArc
 50
124.623025507709
 51
129.6061654356025
  0
ARC
  5
E83
330
E62
100
AcDbEntity
  8
0
  6
Continuous
100
AcDbCircle
 10
0.0
 20
0.0
 30
0.0
 40
90.531311986008
100
AcDbArc
 50
122.0640044222265
 51
129.6061654356025
  0
LINE
  5
E84
330
E62
100
AcDbEntity
  8
0
  6
Continuous
100
AcDbLine
 10
-38.66471890262861
 20
86.85773208654211
 30
0.0
 11
-46.71618505281315
 21
104.9448179266786
 31
0.0
  0
LINE
  5
E85
330
E62
100
AcDbEntity
  8
0
  6
Continuous
100
AcDbLine
 10
-40.71543478820252
 20
80.8589625206479
 30
0.0
 11
-49.79797475803014
 21
98.89646507546215
 31
0.0
  0
LINE
  5
E86
330
E62
100
AcDbEntity
  8
0
  6
Continuous
100
AcDbLine
 10
-48.06002060631538
 20
76.7212673854418
 30
0.0
 11
-55.68359970784978
 21
88.89127154490799
 31
0.0
  0
LINE
  5
E87
330
E62
100
AcDbEntity
  8
0
  6
Continuous
100
AcDbLine
 10
-54.01910180561914
 20
78.23786008800965
 30
0.0
 11
-56.74551206984613
 21
82.18662076090401
 31
0.0
  0
LINE
  5
E88
330
E62
100
AcDbEntity
  8
0
  6
Continuous
100
AcDbLine
 10
-63.49954989756257
 20
83.48729601622981
 30
0.0
 11
-67.03164858933424
 21
88.13119301257367
 31
0.0
  0
LINE
  5
E89
330
E62
100
AcDbEntity
  8
0
  6
Continuous
100
AcDbLine
 10
-63.66997430765329
 20
76.94691770193583
 30
0.0
 11
-73.23235947195716
 21
88.50332356314341
 31
0.0
  0
ARC
  5
E8A
330
E62
100
AcDbEntity
  8
0
  6
Continuous
100
AcDbCircle
 10
0.0
 20
0.0
 30
0.0
 40
90.53131198600802
100
AcDbArc
 50
59.99623709419205
 51
62.72692061113404
  0
ARC
  5
E8B
330
E62
100
AcDbEntity
  8
0
  6
Continuous
100
AcDbCircle
 10
0.0
 20
0.0
 30
0.0
 40
114.8730462534724
100
AcDbArc
 50
59.99623709419346
 51
75.606165435603
  0
ARC
  5
E8C
330
E62
100
AcDbEntity
  8
0
  6
Continuous
100
AcDbCircle
 10
0.0
 20
0.0
 30
0.0
 40
110.726460678663
100
AcDbArc
 50
62.72692061113404
 51
73.25623284000269
  0
ARC
  5
E8D
330
E62
100
AcDbEntity
  8
0
  6
Continuous
100
AcDbCircle
 10
0.0
 20
0.0
 30
0.0
 40
104.8919512321828
100
AcDbArc
 50
68.0640044222272
 51
73.25623284000269
  0
ARC
  5
E8E
330
E62
100
AcDbEntity
  8
0
  6
Continuous
100
AcDbCircle
 10
0.0
 20
0.0
 30
0.0
 40
99.87338870873321
100
AcDbArc
 50
70.62302550770907
 51
75.606165435603
  0
ARC
  5
E8F
330
E62
100
AcDbEntity
  8
0
  6
Continuous
100
AcDbCircle
 10
0.0
 20
0.0
 30
0.0
 40
95.07484478576243
100
AcDbArc
 50
70.62302550770907
 51
77.99623709419226
  0
ARC
  5
E90
330
E62
100
AcDbEntity
  8
0
  6
Continuous
100
AcDbCircle
 10
0.0
 20
0.0
 30
0.0
 40
90.531311986008
100
AcDbArc
 50
68.0640044222272
 51
80.7269206111337
  0
LINE
  5
E91
330
E62
100
AcDbEntity
  8
0
  6
Continuous
100
AcDbLine
 10
45.27080498156133
 20
78.39944302244346
 30
0.0
 11
57.44305655685812
 21
99.47920390191114
 31
0.0
  0
LINE
  5
E92
330
E62
100
AcDbEntity
  8
0
  6
Continuous
100
AcDbLine
 10
41.48434271754982
 20
80.4671843623274
 30
0.0
 11
50.73840577285452
 21
98.41729153991526
 31
0.0
  0
LINE
  5
E93
330
E62
100
AcDbEntity
  8
0
  6
Continuous
100
AcDbLine
 10
33.81983780754237
 20
83.97700292686948
 30
0.0
 11
39.1845506285973
 21
97.29795694324479
 31
0.0
  0
LINE
  5
E94
330
E62
100
AcDbEntity
  8
0
  6
Continuous
100
AcDbLine
 10
31.54412703130069
 20
89.68943171227023
 30
0.0
 11
33.13619777738023
 21
94.21616723802795
 31
0.0
  0
LINE
  5
E95
330
E62
100
AcDbEntity
  8
0
  6
Continuous
100
AcDbLine
 10
30.21854233454457
 20
100.444816354404
 30
0.0
 11
31.89941840404862
 21
106.0319583894731
 31
0.0
  0
LINE
  5
E96
330
E62
100
AcDbEntity
  8
0
  6
Continuous
100
AcDbLine
 10
24.82709217375737
 20
96.7383546808683
 30
0.0
 11
28.55579193305045
 21
111.2671717202731
 31
0.0
  0
LINE
  5
E97
330
E62
100
AcDbEntity
  8
0
  6
Continuous
100
AcDbLine
 10
-57.71433594786208
 20
69.74936469965321
 30
0.0
 11
-60.61086945259781
 21
73.24990522339915
 31
0.0
  0
ARC
  5
E98
330
E62
100
AcDbEntity
  8
0
  6
Continuous
100
AcDbCircle
 10
0.0
 20
0.0
 30
0.0
 40
114.8730462534724
100
AcDbArc
 50
149.9962370941934
 51
165.6061654356028
  0
ARC
  5
E99
330
E62
100
AcDbEntity
  8
0
  6
Continuous
100
AcDbCircle
 10
0.0
 20
0.0
 30
0.0
 40
110.726460678663
100
AcDbArc
 50
152.7269206111336
 51
163.2562328400027
  0
ARC
  5
E9A
330
E62
100
AcDbEntity
  8
0
  6
Continuous
100
AcDbCircle
 10
0.0
 20
0.0
 30
0.0
 40
104.8919512321828
100
AcDbArc
 50
158.0640044222272
 51
163.2562328400027
  0
ARC
  5
E9B
330
E62
100
AcDbEntity
  8
0
  6
Continuous
100
AcDbCircle
 10
0.0
 20
0.0
 30
0.0
 40
99.87338870873321
100
AcDbArc
 50
160.6230255077093
 51
165.6061654356028
  0
ARC
  5
E9C
330
E62
100
AcDbEntity
  8
0
  6
Continuous
100
AcDbCircle
 10
0.0
 20
0.0
 30
0.0
 40
95.07484478576243
100
AcDbArc
 50
160.6230255077093
 51
167.9962370941923
  0
ARC
  5
E9D
330
E62
100
AcDbEntity
  8
0
  6
Continuous
100
AcDbCircle
 10
0.0
 20
0.0
 30
0.0
 40
90.53131198600802
100
AcDbArc
 50
158.0640044222272
 51
170.7269206111335
  0
LINE
  5
E9E
330
E62
100
AcDbEntity
  8
0
  6
Continuous
100
AcDbLine
 10
-82.33410864299704
 20
47.54282979587961
 30
0.0
 11
-99.47920390191121
 21
57.44305655685804
 31
0.0
  0
LINE
  5
E9F
330
E62
100
AcDbEntity
  8
0
  6
Continuous
100
AcDbLine
 10
-80.46718436232744
 20
41.48434271754971
 30
0.0
 11
-98.41729153991531
 21
50.73840577285441
 31
0.0
  0
LINE
  5
EA0
330
E62
100
AcDbEntity
  8
0
  6
Continuous
100
AcDbLine
 10
-83.97700292686952
 20
33.81983780754229
 30
0.0
 11
-97.29795694324479
 21
39.18455062859718
 31
0.0
  0
LINE
  5
EA1
330
E62
100
AcDbEntity
  8
0
  6
Continuous
100
AcDbLine
 10
-89.68943171227023
 20
31.54412703130061
 30
0.0
 11
-94.21616723802799
 21
33.13619777738015
 31
0.0
  0
LINE
  5
EA2
330
E62
100
AcDbEntity
  8
0
  6
Continuous
100
AcDbLine
 10
-100.444816354404
 20
30.21854233454448
 30
0.0
 11
-106.0319583894731
 21
31.89941840404853
 31
0.0
  0
LINE
  5
EA3
330
E62
100
AcDbEntity
  8
0
  6
Continuous
100
AcDbLine
 10
-96.73835468086833
 20
24.8270921737573
 30
0.0
 11
-111.2671717202731
 21
28.55579193305033
 31
0.0
  0
ARC
  5
EA4
330
E62
100
AcDbEntity
  8
0
  6
Continuous
100
AcDbCircle
 10
0.0
 20
0.0
 30
0.0
 40
114.8730462534724
100
AcDbArc
 50
167.9962370941923
 51
183.6061654356031
  0
ARC
  5
EA5
330
E62
100
AcDbEntity
  8
0
  6
Continuous
100
AcDbCircle
 10
0.0
 20
0.0
 30
0.0
 40
110.726460678663
100
AcDbArc
 50
170.7269206111335
 51
181.2562328400031
  0
ARC
  5
EA6
330
E62
100
AcDbEntity
  8
0
  6
Continuous
100
AcDbCircle
 10
0.0
 20
0.0
 30
0.0
 40
104.8919512321828
100
AcDbArc
 50
176.0640044222262
 51
181.2562328400031
  0
ARC
  5
EA7
330
E62
100
AcDbEntity
  8
0
  6
Continuous
100
AcDbCircle
 10
0.0
 20
0.0
 30
0.0
 40
99.87338870873321
100
AcDbArc
 50
178.6230255077093
 51
183.6061654356031
  0
ARC
  5
EA8
330
E62
100
AcDbEntity
  8
0
  6
Continuous
100
AcDbCircle
 10
0.0
 20
0.0
 30
0.0
 40
95.07484478576243
100
AcDbArc
 50
178.6230255077093
 51
185.9962370941922
  0
ARC
  5
EA9
330
E62
100
AcDbEntity
  8
0
  6
Continuous
100
AcDbCircle
 10
0.0
 20
0.0
 30
0.0
 40
90.53131198600802
100
AcDbArc
 50
176.0640044222262
 51
188.7269206111349
  0
LINE
  5
EAA
330
E62
100
AcDbEntity
  8
0
  6
Continuous
100
AcDbLine
 10
-92.99593290587784
 20
19.77327929308337
 30
0.0
 11
-112.3612257916773
 21
23.89082866172973
 31
0.0
  0
LINE
  5
EAB
330
E62
100
AcDbEntity
  8
0
  6
Continuous
100
AcDbLine
 10
-89.34820693591246
 20
14.58822700828588
 30
0.0
 11
-109.2794360864603
 21
17.84247581051326
 31
0.0
  0
LINE
  5
EAC
330
E62
100
AcDbEntity
  8
0
  6
Continuous
100
AcDbLine
 10
-90.31778048207135
 20
6.214256085830911
 30
0.0
 11
-104.6445480342603
 21
7.20000000000016
 31
0.0
  0
LINE
  5
EAD
330
E62
100
AcDbEntity
  8
0
  6
Continuous
100
AcDbLine
 10
-95.04738979815789
 20
2.284688949037684
 30
0.0
 11
-99.84454803426032
 21
2.399999999999593
 31
0.0
  0
LINE
  5
EAE
330
E62
100
AcDbEntity
  8
0
  6
Continuous
100
AcDbLine
 10
-104.8667402485391
 20
-2.299613650172048
 30
0.0
 11
-110.6998473593729
 21
-2.427527350008586
 31
0.0
  0
LINE
  5
EAF
330
E62
100
AcDbEntity
  8
0
  6
Continuous
100
AcDbLine
 10
-99.67563599751585
 20
-6.281827811747277
 30
0.0
 11
-114.6455937094452
 21
-7.225274981703847
 31
0.0
  0
ARC
  5
EB0
330
E62
100
AcDbEntity
  8
0
  6
Continuous
100
AcDbCircle
 10
0.0
 20
0.0
 30
0.0
 40
114.8730462534724
100
AcDbArc
 50
185.9962370941938
 51
201.6061654356032
  0
ARC
  5
EB1
330
E62
100
AcDbEntity
  8
0
  6
Continuous
100
AcDbCircle
 10
0.0
 20
0.0
 30
0.0
 40
110.726460678663
100
AcDbArc
 50
188.7269206111333
 51
199.2562328400037
  0
ARC
  5
EB2
330
E62
100
AcDbEntity
  8
0
  6
Continuous
100
AcDbCircle
 10
0.0
 20
0.0
 30
0.0
 40
104.8919512321828
100
AcDbArc
 50
194.0640044222265
 51
199.2562328400037
  0
ARC
  5
EB3
330
E62
100
AcDbEntity
  8
0
  6
Continuous
100
AcDbCircle
 10
0.0
 20
0.0
 30
0.0
 40
99.87338870873321
100
AcDbArc
 50
196.6230255077093
 51
201.6061654356032
  0
ARC
  5
EB4
330
E62
100
AcDbEntity
  8
0
  6
Continuous
100
AcDbCircle
 10
0.0
 20
0.0
 30
0.0
 40
95.07484478576243
100
AcDbArc
 50
196.6230255077093
 51
201.6061654356032
  0
ARC
  5
EB5
330
E62
100
AcDbEntity
  8
0
  6
Continuous
100
AcDbCircle
 10
0.0
 20
0.0
 30
0.0
 40
90.531311986008
100
AcDbArc
 50
194.0640044222265
 51
201.6061654356032
  0
LINE
  5
EB6
330
E62
100
AcDbEntity
  8
0
  6
Continuous
100
AcDbLine
 10
-94.55466731516706
 20
-9.931817555457655
 30
0.0
 11
-114.2445480342603
 21
-11.99999999999985
 31
0.0
  0
LINE
  5
EB7
330
E62
100
AcDbEntity
  8
0
  6
Continuous
100
AcDbLine
 10
-89.48320448904732
 20
-13.73588600270325
 30
0.0
 11
-109.4445480342603
 21
-16.79999999999984
 31
0.0
  0
LINE
  5
EB8
330
E62
100
AcDbEntity
  8
0
  6
Continuous
100
AcDbLine
 10
-87.81762440270894
 20
-21.99962031882967
 30
0.0
 11
-101.7478016622441
 21
-25.48933679394667
 31
0.0
  0
LINE
  5
EB9
330
E62
100
AcDbEntity
  8
0
  6
Continuous
100
AcDbLine
 10
-91.10144713649685
 20
-27.19839040592097
 30
0.0
 11
-95.69944881102749
 21
-28.57112649916422
 31
0.0
  0
LINE
  5
EBA
330
E62
100
AcDbEntity
  8
0
  6
Continuous
100
AcDbLine
 10
-99.02357695760457
 20
-34.59266742845926
 30
0.0
 11
-104.5316639785478
 21
-36.51684981346925
 31
0.0
  0
LINE
  5
EBB
330
E62
100
AcDbEntity
  8
0
  6
Continuous
100
AcDbLine
 10
-92.85597158173414
 20
-36.77583872297002
 30
0.0
 11
-106.8017062035159
 21
-42.29908163979792
 31
0.0
  0
ARC
  5
EBC
330
E62
100
AcDbEntity
  8
0
  6
Continuous
100
AcDbCircle
 10
0.0
 20
0.0
 30
0.0
 40
90.53131198600802
100
AcDbArc
 50
131.9962370941935
 51
134.7269206111341
  0
ARC
  5
EBD
330
E62
100
AcDbEntity
  8
0
  6
Continuous
100
AcDbCircle
 10
0.0
 20
0.0
 30
0.0
 40
114.8730462534724
100
AcDbArc
 50
131.9962370941935
 51
147.6061654356038
  0
ARC
  5
EBE
330
E62
100
AcDbEntity
  8
0
  6
Continuous
100
AcDbCircle
 10
0.0
 20
0.0
 30
0.0
 40
110.726460678663
100
AcDbArc
 50
134.7269206111341
 51
145.2562328400031
  0
ARC
  5
EBF
330
E62
100
AcDbEntity
  8
0
  6
Continuous
100
AcDbCircle
 10
0.0
 20
0.0
 30
0.0
 40
104.8919512321828
100
AcDbArc
 50
140.0640044222262
 51
145.2562328400031
  0
ARC
  5
EC0
330
E62
100
AcDbEntity
  8
0
  6
Continuous
100
AcDbCircle
 10
0.0
 20
0.0
 30
0.0
 40
99.87338870873321
100
AcDbArc
 50
142.6230255077082
 51
147.6061654356038
  0
ARC
  5
EC1
330
E62
100
AcDbEntity
  8
0
  6
Continuous
100
AcDbCircle
 10
0.0
 20
0.0
 30
0.0
 40
95.07484478576243
100
AcDbArc
 50
142.6230255077082
 51
149.996237094192
  0
ARC
  5
EC2
330
E62
100
AcDbEntity
  8
0
  6
Continuous
100
AcDbCircle
 10
0.0
 20
0.0
 30
0.0
 40
90.531311986008
100
AcDbArc
 50
140.0640044222262
 51
152.7269206111344
  0
LINE
  5
EC3
330
E62
100
AcDbEntity
  8
0
  6
Continuous
100
AcDbLine
 10
-60.57285307206898
 20
67.28185431910645
 30
0.0
 11
-76.85946442185642
 21
85.37235784689208
 31
0.0
  0
LINE
  5
EC4
330
E62
100
AcDbEntity
  8
0
  6
Continuous
100
AcDbLine
 10
-63.70947313551745
 20
64.31968192320835
 30
0.0
 11
-77.9213767838523
 21
78.66770706288851
 31
0.0
  0
LINE
  5
EC5
330
E62
100
AcDbEntity
  8
0
  6
Continuous
100
AcDbLine
 10
-69.41597122300144
 20
58.11489816798573
 30
0.0
 11
-80.42716391189612
 21
67.33344442684938
 31
0.0
  0
LINE
  5
EC6
330
E62
100
AcDbEntity
  8
0
  6
Continuous
100
AcDbLine
 10
-75.5520471473697
 20
57.71580617888345
 30
0.0
 11
-79.36525154990059
 21
60.6287936428453
 31
0.0
  0
LINE
  5
EC7
330
E62
100
AcDbEntity
  8
0
  6
Continuous
100
AcDbLine
 10
-86.19065399531292
 20
59.77869685059109
 30
0.0
 11
-90.98492256431695
 21
63.10382682840046
 31
0.0
  0
LINE
  5
EC8
330
E62
100
AcDbEntity
  8
0
  6
Continuous
100
AcDbLine
 10
-84.33164919230726
 20
53.50576339677189
 30
0.0
 11
-96.99714371914993
 21
61.54161897349617
 31
0.0
  0
LINE
  5
EC9
330
E62
100
AcDbEntity
  8
0
  6
Continuous
100
AcDbLine
 10
-84.17029843200667
 20
-33.33585624781296
 30
0.0
 11
-88.39458838541027
 21
-35.00889680082345
 31
0.0
  0
ARC
  5
ECA
330
E62
100
AcDbEntity
  8
0
  6
Continuous
100
AcDbCircle
 10
0.0
 20
0.0
 30
0.0
 40
114.8730462534724
100
AcDbArc
 50
221.9962370941935
 51
237.6061654356043
  0
ARC
  5
ECB
330
E62
100
AcDbEntity
  8
0
  6
Continuous
100
AcDbCircle
 10
0.0
 20
0.0
 30
0.0
 40
110.726460678663
100
AcDbArc
 50
224.7269206111347
 51
235.2562328400026
  0
ARC
  5
ECC
330
E62
100
AcDbEntity
  8
0
  6
Continuous
100
AcDbCircle
 10
0.0
 20
0.0
 30
0.0
 40
104.8919512321828
100
AcDbArc
 50
230.0640044222262
 51
235.2562328400026
  0
ARC
  5
ECD
330
E62
100
AcDbEntity
  8
0
  6
Continuous
100
AcDbCircle
 10
0.0
 20
0.0
 30
0.0
 40
99.87338870873321
100
AcDbArc
 50
232.6230255077082
 51
237.6061654356043
  0
ARC
  5
ECE
330
E62
100
AcDbEntity
  8
0
  6
Continuous
100
AcDbCircle
 10
0.0
 20
0.0
 30
0.0
 40
95.07484478576243
100
AcDbArc
 50
232.6230255077082
 51
239.996237094192
  0
ARC
  5
ECF
330
E62
100
AcDbEntity
  8
0
  6
Continuous
100
AcDbCircle
 10
0.0
 20
0.0
 30
0.0
 40
90.53131198600802
100
AcDbArc
 50
230.0640044222262
 51
242.726920611134
  0
LINE
  5
ED0
330
E62
100
AcDbEntity
  8
0
  6
Continuous
100
AcDbLine
 10
-70.65855686788205
 20
-63.61284817067296
 30
0.0
 11
-85.37235784689205
 21
-76.8594644218565
 31
0.0
  0
LINE
  5
ED1
330
E62
100
AcDbEntity
  8
0
  6
Continuous
100
AcDbLine
 10
-64.31968192320828
 20
-63.70947313551752
 30
0.0
 11
-78.66770706288844
 21
-77.92137678385238
 31
0.0
  0
LINE
  5
ED2
330
E62
100
AcDbEntity
  8
0
  6
Continuous
100
AcDbLine
 10
-58.1148981679857
 20
-69.41597122300153
 30
0.0
 11
-67.3334444268493
 21
-80.42716391189619
 31
0.0
  0
LINE
  5
ED3
330
E62
100
AcDbEntity
  8
0
  6
Continuous
100
AcDbLine
 10
-57.71580617888341
 20
-75.55204714736976
 30
0.0
 11
-60.62879364284521
 21
-79.36525154990069
 31
0.0
  0
LINE
  5
ED4
330
E62
100
AcDbEntity
  8
0
  6
Continuous
100
AcDbLine
 10
-59.77869685059103
 20
-86.19065399531297
 30
0.0
 11
-63.10382682840042
 21
-90.98492256431706
 31
0.0
  0
LINE
  5
ED5
330
E62
100
AcDbEntity
  8
0
  6
Continuous
100
AcDbLine
 10
-53.50576339677187
 20
-84.33164919230732
 30
0.0
 11
-61.54161897349609
 21
-96.99714371915
 31
0.0
  0
ARC
  5
ED6
330
E62
100
AcDbEntity
  8
0
  6
Continuous
100
AcDbCircle
 10
0.0
 20
0.0
 30
0.0
 40
114.8730462534724
100
AcDbArc
 50
239.9962370941935
 51
255.606165435603
  0
ARC
  5
ED7
330
E62
100
AcDbEntity
  8
0
  6
Continuous
100
AcDbCircle
 10
0.0
 20
0.0
 30
0.0
 40
110.726460678663
100
AcDbArc
 50
242.726920611134
 51
253.2562328400026
  0
ARC
  5
ED8
330
E62
100
AcDbEntity
  8
0
  6
Continuous
100
AcDbCircle
 10
0.0
 20
0.0
 30
0.0
 40
104.8919512321828
100
AcDbArc
 50
248.0640044222273
 51
253.2562328400026
  0
ARC
  5
ED9
330
E62
100
AcDbEntity
  8
0
  6
Continuous
100
AcDbCircle
 10
0.0
 20
0.0
 30
0.0
 40
99.87338870873321
100
AcDbArc
 50
250.6230255077094
 51
255.606165435603
  0
ARC
  5
EDA
330
E62
100
AcDbEntity
  8
0
  6
Continuous
100
AcDbCircle
 10
0.0
 20
0.0
 30
0.0
 40
95.07484478576243
100
AcDbArc
 50
250.6230255077094
 51
257.9962370941923
  0
ARC
  5
EDB
330
E62
100
AcDbEntity
  8
0
  6
Continuous
100
AcDbCircle
 10
0.0
 20
0.0
 30
0.0
 40
90.53131198600802
100
AcDbArc
 50
248.0640044222273
 51
260.7269206111336
  0
LINE
  5
EDC
330
E62
100
AcDbEntity
  8
0
  6
Continuous
100
AcDbLine
 10
-47.54282979587965
 20
-82.33410864299704
 30
0.0
 11
-57.44305655685804
 21
-99.47920390191118
 31
0.0
  0
LINE
  5
EDD
330
E62
100
AcDbEntity
  8
0
  6
Continuous
100
AcDbLine
 10
-41.48434271754978
 20
-80.46718436232742
 30
0.0
 11
-50.73840577285444
 21
-98.41729153991531
 31
0.0
  0
LINE
  5
EDE
330
E62
100
AcDbEntity
  8
0
  6
Continuous
100
AcDbLine
 10
-33.81983780754233
 20
-83.97700292686952
 30
0.0
 11
-39.18455062859724
 21
-97.29795694324485
 31
0.0
  0
LINE
  5
EDF
330
E62
100
AcDbEntity
  8
0
  6
Continuous
100
AcDbLine
 10
-31.54412703130065
 20
-89.68943171227028
 30
0.0
 11
-33.13619777738021
 21
-94.21616723802799
 31
0.0
  0
LINE
  5
EE0
330
E62
100
AcDbEntity
  8
0
  6
Continuous
100
AcDbLine
 10
-30.21854233454452
 20
-100.444816354404
 30
0.0
 11
-31.89941840404856
 21
-106.0319583894731
 31
0.0
  0
LINE
  5
EE1
330
E62
100
AcDbEntity
  8
0
  6
Continuous
100
AcDbLine
 10
-24.82709217375734
 20
-96.73835468086833
 30
0.0
 11
-28.55579193305039
 21
-111.2671717202731
 31
0.0
  0
ARC
  5
EE2
330
E62
100
AcDbEntity
  8
0
  6
Continuous
100
AcDbCircle
 10
0.0
 20
0.0
 30
0.0
 40
114.8730462534724
100
AcDbArc
 50
257.9962370941923
 51
273.606165435603
  0
ARC
  5
EE3
330
E62
100
AcDbEntity
  8
0
  6
Continuous
100
AcDbCircle
 10
0.0
 20
0.0
 30
0.0
 40
110.726460678663
100
AcDbArc
 50
260.7269206111336
 51
271.2562328400032
  0
ARC
  5
EE4
330
E62
100
AcDbEntity
  8
0
  6
Continuous
100
AcDbCircle
 10
0.0
 20
0.0
 30
0.0
 40
104.8919512321828
100
AcDbArc
 50
266.0640044222263
 51
271.2562328400032
  0
ARC
  5
EE5
330
E62
100
AcDbEntity
  8
0
  6
Continuous
100
AcDbCircle
 10
0.0
 20
0.0
 30
0.0
 40
99.87338870873321
100
AcDbArc
 50
268.6230255077093
 51
273.606165435603
  0
ARC
  5
EE6
330
E62
100
AcDbEntity
  8
0
  6
Continuous
100
AcDbCircle
 10
0.0
 20
0.0
 30
0.0
 40
95.07484478576243
100
AcDbArc
 50
268.6230255077093
 51
273.606165435603
  0
ARC
  5
EE7
330
E62
100
AcDbEntity
  8
0
  6
Continuous
100
AcDbCircle
 10
0.0
 20
0.0
 30
0.0
 40
90.531311986008
100
AcDbArc
 50
266.0640044222263
 51
273.606165435603
  0
LINE
  5
EE8
330
E62
100
AcDbEntity
  8
0
  6
Continuous
100
AcDbLine
 10
-19.77327929308343
 20
-92.99593290587784
 30
0.0
 11
-23.89082866172978
 21
-112.3612257916773
 31
0.0
  0
LINE
  5
EE9
330
E62
100
AcDbEntity
  8
0
  6
Continuous
100
AcDbLine
 10
-14.58822700828591
 20
-89.34820693591246
 30
0.0
 11
-17.84247581051331
 21
-109.2794360864603
 31
0.0
  0
LINE
  5
EEA
330
E62
100
AcDbEntity
  8
0
  6
Continuous
100
AcDbLine
 10
-6.214256085830967
 20
-90.31778048207138
 30
0.0
 11
-7.200000000000201
 21
-104.6445480342603
 31
0.0
  0
LINE
  5
EEB
330
E62
100
AcDbEntity
  8
0
  6
Continuous
100
AcDbLine
 10
-2.284688949037728
 20
-95.04738979815789
 30
0.0
 11
-2.399999999999634
 21
-99.84454803426032
 31
0.0
  0
LINE
  5
EEC
330
E62
100
AcDbEntity
  8
0
  6
Continuous
100
AcDbLine
 10
2.299613650171977
 20
-104.8667402485391
 30
0.0
 11
2.427527350008517
 21
-110.6998473593729
 31
0.0
  0
LINE
  5
EED
330
E62
100
AcDbEntity
  8
0
  6
Continuous
100
AcDbLine
 10
6.281827811747232
 20
-99.67563599751585
 30
0.0
 11
7.22527498170379
 21
-114.6455937094452
 31
0.0
  0
ARC
  5
EEE
330
E62
100
AcDbEntity
  8
0
  6
Continuous
100
AcDbCircle
 10
0.0
 20
0.0
 30
0.0
 40
90.53131198600802
100
AcDbArc
 50
203.9962370941932
 51
206.7269206111332
  0
ARC
  5
EEF
330
E62
100
AcDbEntity
  8
0
  6
Continuous
100
AcDbCircle
 10
0.0
 20
0.0
 30
0.0
 40
114.8730462534724
100
AcDbArc
 50
203.9962370941932
 51
219.6061654356032
  0
ARC
  5
EF0
330
E62
100
AcDbEntity
  8
0
  6
Continuous
100
AcDbCircle
 10
0.0
 20
0.0
 30
0.0
 40
110.726460678663
100
AcDbArc
 50
206.7269206111332
 51
217.2562328400036
  0
ARC
  5
EF1
330
E62
100
AcDbEntity
  8
0
  6
Continuous
100
AcDbCircle
 10
0.0
 20
0.0
 30
0.0
 40
104.8919512321828
100
AcDbArc
 50
212.0640044222265
 51
217.2562328400036
  0
ARC
  5
EF2
330
E62
100
AcDbEntity
  8
0
  6
Continuous
100
AcDbCircle
 10
0.0
 20
0.0
 30
0.0
 40
99.87338870873321
100
AcDbArc
 50
214.6230255077085
 51
219.6061654356032
  0
ARC
  5
EF3
330
E62
100
AcDbEntity
  8
0
  6
Continuous
100
AcDbCircle
 10
0.0
 20
0.0
 30
0.0
 40
95.07484478576243
100
AcDbArc
 50
214.6230255077085
 51
221.9962370941929
  0
ARC
  5
EF4
330
E62
100
AcDbEntity
  8
0
  6
Continuous
100
AcDbCircle
 10
0.0
 20
0.0
 30
0.0
 40
90.531311986008
100
AcDbArc
 50
212.0640044222265
 51
224.7269206111347
  0
LINE
  5
EF5
330
E62
100
AcDbEntity
  8
0
  6
Continuous
100
AcDbLine
 10
-82.70688697565345
 20
-36.81697022711676
 30
0.0
 11
-104.9448179266787
 21
-46.71618505281299
 31
0.0
  0
LINE
  5
EF6
330
E62
100
AcDbEntity
  8
0
  6
Continuous
100
AcDbLine
 10
-80.85896252064797
 20
-40.7154347882024
 30
0.0
 11
-98.89646507546224
 21
-49.79797475802996
 31
0.0
  0
LINE
  5
EF7
330
E62
100
AcDbEntity
  8
0
  6
Continuous
100
AcDbLine
 10
-76.7212673854419
 20
-48.06002060631526
 30
0.0
 11
-88.89127154490811
 21
-55.68359970784964
 31
0.0
  0
LINE
  5
EF8
330
E62
100
AcDbEntity
  8
0
  6
Continuous
100
AcDbLine
 10
-78.23786008800974
 20
-54.01910180561902
 30
0.0
 11
-82.18662076090408
 21
-56.74551206984602
 31
0.0
  0
LINE
  5
EF9
330
E62
100
AcDbEntity
  8
0
  6
Continuous
100
AcDbLine
 10
-83.4872960162299
 20
-63.49954989756245
 30
0.0
 11
-88.13119301257378
 21
-67.03164858933411
 31
0.0
  0
LINE
  5
EFA
330
E62
100
AcDbEntity
  8
0
  6
Continuous
100
AcDbLine
 10
-76.94691770193592
 20
-63.6699743076532
 30
0.0
 11
-88.50332356314353
 21
-73.23235947195704
 31
0.0
  0
LINE
  5
EFB
330
E62
100
AcDbEntity
  8
0
  6
Continuous
100
AcDbLine
 10
5.694230673659914
 20
-90.35205690488217
 30
0.0
 11
5.980009408857538
 21
-94.88659335494551
 31
0.0
  0
ARC
  5
EFC
330
E62
100
AcDbEntity
  8
0
  6
Continuous
100
AcDbCircle
 10
0.0
 20
0.0
 30
0.0
 40
114.8730462534724
100
AcDbArc
 50
293.9962370941933
 51
309.6061654356026
  0
ARC
  5
EFD
330
E62
100
AcDbEntity
  8
0
  6
Continuous
100
AcDbCircle
 10
0.0
 20
0.0
 30
0.0
 40
110.726460678663
100
AcDbArc
 50
296.726920611135
 51
307.2562328400031
  0
ARC
  5
EFE
330
E62
100
AcDbEntity
  8
0
  6
Continuous
100
AcDbCircle
 10
0.0
 20
0.0
 30
0.0
 40
104.8919512321828
100
AcDbArc
 50
302.0640044222265
 51
307.2562328400031
  0
ARC
  5
EFF
330
E62
100
AcDbEntity
  8
0
  6
Continuous
100
AcDbCircle
 10
0.0
 20
0.0
 30
0.0
 40
99.87338870873321
100
AcDbArc
 50
304.623025507709
 51
309.6061654356026
  0
ARC
  5
F00
330
E62
100
AcDbEntity
  8
0
  6
Continuous
100
AcDbCircle
 10
0.0
 20
0.0
 30
0.0
 40
95.07484478576243
100
AcDbArc
 50
304.623025507709
 51
311.9962370941918
  0
ARC
  5
F01
330
E62
100
AcDbEntity
  8
0
  6
Continuous
100
AcDbCircle
 10
0.0
 20
0.0
 30
0.0
 40
90.531311986008
100
AcDbArc
 50
302.0640044222265
 51
314.7269206111341
  0
LINE
  5
F02
330
E62
100
AcDbEntity
  8
0
  6
Continuous
100
AcDbLine
 10
38.66471890262852
 20
-86.85773208654211
 30
0.0
 11
46.71618505281304
 21
-104.9448179266786
 31
0.0
  0
LINE
  5
F03
330
E62
100
AcDbEntity
  8
0
  6
Continuous
100
AcDbLine
 10
40.71543478820244
 20
-80.85896252064793
 30
0.0
 11
49.79797475803002
 21
-98.8964650754622
 31
0.0
  0
LINE
  5
F04
330
E62
100
AcDbEntity
  8
0
  6
Continuous
100
AcDbLine
 10
48.06002060631532
 20
-76.72126738544185
 30
0.0
 11
55.68359970784968
 21
-88.891271544908
 31
0.0
  0
LINE
  5
F05
330
E62
100
AcDbEntity
  8
0
  6
Continuous
100
AcDbLine
 10
54.01910180561904
 20
-78.23786008800969
 30
0.0
 11
56.74551206984602
 21
-82.18662076090408
 31
0.0
  0
LINE
  5
F06
330
E62
100
AcDbEntity
  8
0
  6
Continuous
100
AcDbLine
 10
63.49954989756247
 20
-83.48729601622986
 30
0.0
 11
67.03164858933414
 21
-88.13119301257376
 31
0.0
  0
LINE
  5
F07
330
E62
100
AcDbEntity
  8
0
  6
Continuous
100
AcDbLine
 10
63.6699743076532
 20
-76.94691770193589
 30
0.0
 11
73.23235947195707
 21
-88.50332356314348
 31
0.0
  0
ARC
  5
F08
330
E62
100
AcDbEntity
  8
0
  6
Continuous
100
AcDbCircle
 10
0.0
 20
0.0
 30
0.0
 40
114.8730462534724
100
AcDbArc
 50
311.9962370941918
 51
327.6061654356031
  0
ARC
  5
F09
330
E62
100
AcDbEntity
  8
0
  6
Continuous
100
AcDbCircle
 10
0.0
 20
0.0
 30
0.0
 40
110.726460678663
100
AcDbArc
 50
314.7269206111341
 51
325.2562328400022
  0
ARC
  5
F0A
330
E62
100
AcDbEntity
  8
0
  6
Continuous
100
AcDbCircle
 10
0.0
 20
0.0
 30
0.0
 40
104.8919512321828
100
AcDbArc
 50
320.0640044222262
 51
325.2562328400022
  0
ARC
  5
F0B
330
E62
100
AcDbEntity
  8
0
  6
Continuous
100
AcDbCircle
 10
0.0
 20
0.0
 30
0.0
 40
99.87338870873321
100
AcDbArc
 50
322.6230255077082
 51
327.6061654356031
  0
ARC
  5
F0C
330
E62
100
AcDbEntity
  8
0
  6
Continuous
100
AcDbCircle
 10
0.0
 20
0.0
 30
0.0
 40
95.07484478576243
100
AcDbArc
 50
322.6230255077082
 51
329.9962370941921
  0
ARC
  5
F0D
330
E62
100
AcDbEntity
  8
0
  6
Continuous
100
AcDbCircle
 10
0.0
 20
0.0
 30
0.0
 40
90.531311986008
100
AcDbArc
 50
320.0640044222262
 51
332.7269206111337
  0
LINE
  5
F0E
330
E62
100
AcDbEntity
  8
0
  6
Continuous
100
AcDbLine
 10
63.61284817067295
 20
-70.65855686788205
 30
0.0
 11
76.85946442185644
 21
-85.37235784689205
 31
0.0
  0
LINE
  5
F0F
330
E62
100
AcDbEntity
  8
0
  6
Continuous
100
AcDbLine
 10
63.70947313551742
 20
-64.31968192320832
 30
0.0
 11
77.9213767838523
 21
-78.66770706288844
 31
0.0
  0
LINE
  5
F10
330
E62
100
AcDbEntity
  8
0
  6
Continuous
100
AcDbLine
 10
69.41597122300146
 20
-58.1148981679857
 30
0.0
 11
80.42716391189612
 21
-67.33344442684931
 31
0.0
  0
LINE
  5
F11
330
E62
100
AcDbEntity
  8
0
  6
Continuous
100
AcDbLine
 10
75.5520471473697
 20
-57.71580617888344
 30
0.0
 11
79.36525154990059
 21
-60.62879364284526
 31
0.0
  0
LINE
  5
F12
330
E62
100
AcDbEntity
  8
0
  6
Continuous
100
AcDbLine
 10
86.19065399531292
 20
-59.77869685059108
 30
0.0
 11
90.98492256431701
 21
-63.10382682840042
 31
0.0
  0
LINE
  5
F13
330
E62
100
AcDbEntity
  8
0
  6
Continuous
100
AcDbLine
 10
84.33164919230728
 20
-53.50576339677189
 30
0.0
 11
96.99714371914993
 21
-61.54161897349613
 31
0.0
  0
ARC
  5
F14
330
E62
100
AcDbEntity
  8
0
  6
Continuous
100
AcDbCircle
 10
0.0
 20
0.0
 30
0.0
 40
114.8730462534724
100
AcDbArc
 50
329.9962370941935
 51
345.6061654356036
  0
ARC
  5
F15
330
E62
100
AcDbEntity
  8
0
  6
Continuous
100
AcDbCircle
 10
0.0
 20
0.0
 30
0.0
 40
110.726460678663
100
AcDbArc
 50
332.7269206111337
 51
343.2562328400035
  0
ARC
  5
F16
330
E62
100
AcDbEntity
  8
0
  6
Continuous
100
AcDbCircle
 10
0.0
 20
0.0
 30
0.0
 40
104.8919512321828
100
AcDbArc
 50
338.0640044222264
 51
343.2562328400035
  0
ARC
  5
F17
330
E62
100
AcDbEntity
  8
0
  6
Continuous
100
AcDbCircle
 10
0.0
 20
0.0
 30
0.0
 40
99.87338870873315
100
AcDbArc
 50
340.6230255077086
 51
345.6061654356036
  0
ARC
  5
F18
330
E62
100
AcDbEntity
  8
0
  6
Continuous
100
AcDbCircle
 10
0.0
 20
0.0
 30
0.0
 40
95.07484478576241
100
AcDbArc
 50
340.6230255077086
 51
345.6061654356036
  0
ARC
  5
F19
330
E62
100
AcDbEntity
  8
0
  6
Continuous
100
AcDbCircle
 10
0.0
 20
0.0
 30
0.0
 40
90.531311986008
100
AcDbArc
 50
338.0640044222264
 51
345.6061654356036
  0
LINE
  5
F1A
330
E62
100
AcDbEntity
  8
0
  6
Continuous
100
AcDbLine
 10
82.33410864299697
 20
-47.54282979587967
 30
0.0
 11
99.47920390191114
 21
-57.4430565568581
 31
0.0
  0
LINE
  5
F1B
330
E62
100
AcDbEntity
  8
0
  6
Continuous
100
AcDbLine
 10
80.4671843623274
 20
-41.48434271754979
 30
0.0
 11
98.41729153991526
 21
-50.73840577285449
 31
0.0
  0
LINE
  5
F1C
330
E62
100
AcDbEntity
  8
0
  6
Continuous
100
AcDbLine
 10
83.97700292686947
 20
-33.81983780754237
 30
0.0
 11
97.29795694324474
 21
-39.18455062859727
 31
0.0
  0
LINE
  5
F1D
330
E62
100
AcDbEntity
  8
0
  6
Continuous
100
AcDbLine
 10
89.68943171227023
 20
-31.54412703130068
 30
0.0
 11
94.21616723802792
 21
-33.13619777738023
 31
0.0
  0
LINE
  5
F1E
330
E62
100
AcDbEntity
  8
0
  6
Continuous
100
AcDbLine
 10
100.444816354404
 20
-30.21854233454455
 30
0.0
 11
106.0319583894731
 21
-31.89941840404862
 31
0.0
  0
LINE
  5
F1F
330
E62
100
AcDbEntity
  8
0
  6
Continuous
100
AcDbLine
 10
96.73835468086828
 20
-24.82709217375737
 30
0.0
 11
111.2671717202731
 21
-28.55579193305043
 31
0.0
  0
ARC
  5
F20
330
E62
100
AcDbEntity
  8
0
  6
Continuous
100
AcDbCircle
 10
0.0
 20
0.0
 30
0.0
 40
90.531311986008
100
AcDbArc
 50
275.9962370941939
 51
278.7269206111333
  0
ARC
  5
F21
330
E62
100
AcDbEntity
  8
0
  6
Continuous
100
AcDbCircle
 10
0.0
 20
0.0
 30
0.0
 40
114.8730462534724
100
AcDbArc
 50
275.9962370941939
 51
291.6061654356053
  0
ARC
  5
F22
330
E62
100
AcDbEntity
  8
0
  6
Continuous
100
AcDbCircle
 10
0.0
 20
0.0
 30
0.0
 40
110.726460678663
100
AcDbArc
 50
278.7269206111333
 51
289.256232840004
  0
ARC
  5
F23
330
E62
100
AcDbEntity
  8
0
  6
Continuous
100
AcDbCircle
 10
0.0
 20
0.0
 30
0.0
 40
104.8919512321828
100
AcDbArc
 50
284.0640044222265
 51
289.256232840004
  0
ARC
  5
F24
330
E62
100
AcDbEntity
  8
0
  6
Continuous
100
AcDbCircle
 10
0.0
 20
0.0
 30
0.0
 40
99.87338870873315
100
AcDbArc
 50
286.6230255077076
 51
291.6061654356053
  0
ARC
  5
F25
330
E62
100
AcDbEntity
  8
0
  6
Continuous
100
AcDbCircle
 10
0.0
 20
0.0
 30
0.0
 40
95.07484478576241
100
AcDbArc
 50
286.6230255077076
 51
293.9962370941933
  0
ARC
  5
F26
330
E62
100
AcDbEntity
  8
0
  6
Continuous
100
AcDbCircle
 10
0.0
 20
0.0
 30
0.0
 40
90.531311986008
100
AcDbArc
 50
284.0640044222265
 51
296.726920611135
  0
LINE
  5
F27
330
E62
100
AcDbEntity
  8
0
  6
Continuous
100
AcDbLine
 10
9.457185817419061
 20
-90.03599328225753
 30
0.0
 11
11.9999999999996
 21
-114.2445480342603
 31
0.0
  0
LINE
  5
F28
330
E62
100
AcDbEntity
  8
0
  6
Continuous
100
AcDbLine
 10
13.73588600270304
 20
-89.48320448904736
 30
0.0
 11
16.79999999999961
 21
-109.4445480342604
 31
0.0
  0
LINE
  5
F29
330
E62
100
AcDbEntity
  8
0
  6
Continuous
100
AcDbLine
 10
21.9996203188295
 20
-87.81762440270894
 30
0.0
 11
25.48933679394645
 21
-101.7478016622442
 31
0.0
  0
LINE
  5
F2A
330
E62
100
AcDbEntity
  8
0
  6
Continuous
100
AcDbLine
 10
27.19839040592075
 20
-91.10144713649686
 30
0.0
 11
28.57112649916405
 21
-95.69944881102754
 31
0.0
  0
LINE
  5
F2B
330
E62
100
AcDbEntity
  8
0
  6
Continuous
100
AcDbLine
 10
34.59266742845904
 20
-99.02357695760464
 30
0.0
 11
36.51684981346907
 21
-104.5316639785479
 31
0.0
  0
LINE
  5
F2C
330
E62
100
AcDbEntity
  8
0
  6
Continuous
100
AcDbLine
 10
36.77583872296985
 20
-92.8559715817342
 30
0.0
 11
42.29908163979767
 21
-106.8017062035159
 31
0.0
  0
LINE
  5
F2D
330
E62
100
AcDbEntity
  8
0
  6
Continuous
100
AcDbLine
 10
87.68952652811069
 20
-22.50478587286893
 30
0.0
 11
92.09043745312838
 21
-23.63424296922287
 31
0.0
  0
ARC
  5
F2E
330
E62
100
AcDbEntity
  8
0
  6
Continuous
100
AcDbCircle
 10
0.0
 20
0.0
 30
0.0
 40
114.8730462534724
100
AcDbArc
 50
5.996237094192992
 51
21.60616543560319
  0
ARC
  5
F2F
330
E62
100
AcDbEntity
  8
0
  6
Continuous
100
AcDbCircle
 10
0.0
 20
0.0
 30
0.0
 40
110.726460678663
100
AcDbArc
 50
8.72692061113409
 51
19.25623284000298
  0
ARC
  5
F30
330
E62
100
AcDbEntity
  8
0
  6
Continuous
100
AcDbCircle
 10
0.0
 20
0.0
 30
0.0
 40
104.8919512321828
100
AcDbArc
 50
14.06400442222656
 51
19.25623284000298
  0
ARC
  5
F31
330
E62
100
AcDbEntity
  8
0
  6
Continuous
100
AcDbCircle
 10
0.0
 20
0.0
 30
0.0
 40
99.87338870873321
100
AcDbArc
 50
16.62302550770929
 51
21.60616543560319
  0
ARC
  5
F32
330
E62
100
AcDbEntity
  8
0
  6
Continuous
100
AcDbCircle
 10
0.0
 20
0.0
 30
0.0
 40
95.07484478576243
100
AcDbArc
 50
16.62302550770929
 51
23.99623709419254
  0
ARC
  5
F33
330
E62
100
AcDbEntity
  8
0
  6
Continuous
100
AcDbCircle
 10
0.0
 20
0.0
 30
0.0
 40
90.531311986008
100
AcDbArc
 50
14.06400442222656
 51
26.72692061113397
  0
LINE
  5
F34
330
E62
100
AcDbEntity
  8
0
  6
Continuous
100
AcDbLine
 10
94.55466731516706
 20
9.93181755545757
 30
0.0
 11
114.2445480342603
 21
11.99999999999977
 31
0.0
  0
LINE
  5
F35
330
E62
100
AcDbEntity
  8
0
  6
Continuous
100
AcDbLine
 10
89.48320448904732
 20
13.73588600270318
 30
0.0
 11
109.4445480342603
 21
16.79999999999975
 31
0.0
  0
LINE
  5
F36
330
E62
100
AcDbEntity
  8
0
  6
Continuous
100
AcDbLine
 10
87.81762440270894
 20
21.99962031882961
 30
0.0
 11
101.7478016622441
 21
25.48933679394659
 31
0.0
  0
LINE
  5
F37
330
E62
100
AcDbEntity
  8
0
  6
Continuous
100
AcDbLine
 10
91.10144713649686
 20
27.19839040592088
 30
0.0
 11
95.69944881102754
 21
28.57112649916415
 31
0.0
  0
LINE
  5
F38
330
E62
100
AcDbEntity
  8
0
  6
Continuous
100
AcDbLine
 10
99.02357695760461
 20
34.59266742845918
 30
0.0
 11
104.5316639785479
 21
36.51684981346916
 31
0.0
  0
LINE
  5
F39
330
E62
100
AcDbEntity
  8
0
  6
Continuous
100
AcDbLine
 10
92.85597158173416
 20
36.77583872296995
 30
0.0
 11
106.8017062035159
 21
42.29908163979781
 31
0.0
  0
ARC
  5
F3A
330
E62
100
AcDbEntity
  8
0
  6
Continuous
100
AcDbCircle
 10
0.0
 20
0.0
 30
0.0
 40
114.8730462534724
100
AcDbArc
 50
23.99623709419327
 51
39.60616543560319
  0
ARC
  5
F3B
330
E62
100
AcDbEntity
  8
0
  6
Continuous
100
AcDbCircle
 10
0.0
 20
0.0
 30
0.0
 40
110.726460678663
100
AcDbArc
 50
26.72692061113397
 51
37.2562328400036
  0
ARC
  5
F3C
330
E62
100
AcDbEntity
  8
0
  6
Continuous
100
AcDbCircle
 10
0.0
 20
0.0
 30
0.0
 40
104.8919512321828
100
AcDbArc
 50
32.06400442222721
 51
37.2562328400036
  0
ARC
  5
F3D
330
E62
100
AcDbEntity
  8
0
  6
Continuous
100
AcDbCircle
 10
0.0
 20
0.0
 30
0.0
 40
99.87338870873321
100
AcDbArc
 50
34.62302550770854
 51
39.60616543560319
  0
ARC
  5
F3E
330
E62
100
AcDbEntity
  8
0
  6
Continuous
100
AcDbCircle
 10
0.0
 20
0.0
 30
0.0
 40
95.07484478576243
100
AcDbArc
 50
34.62302550770854
 51
41.99623709419292
  0
ARC
  5
F3F
330
E62
100
AcDbEntity
  8
0
  6
Continuous
100
AcDbCircle
 10
0.0
 20
0.0
 30
0.0
 40
90.531311986008
100
AcDbArc
 50
32.06400442222721
 51
44.72692061113469
  0
LINE
  5
F40
330
E62
100
AcDbEntity
  8
0
  6
Continuous
100
AcDbLine
 10
86.85773208654214
 20
38.66471890262854
 30
0.0
 11
104.9448179266786
 21
46.71618505281304
 31
0.0
  0
LINE
  5
F41
330
E62
100
AcDbEntity
  8
0
  6
Continuous
100
AcDbLine
 10
80.85896252064793
 20
40.71543478820243
 30
0.0
 11
98.89646507546224
 21
49.79797475803003
 31
0.0
  0
LINE
  5
F42
330
E62
100
AcDbEntity
  8
0
  6
Continuous
100
AcDbLine
 10
76.72126738544188
 20
48.06002060631532
 30
0.0
 11
88.89127154490806
 21
55.68359970784971
 31
0.0
  0
LINE
  5
F43
330
E62
100
AcDbEntity
  8
0
  6
Continuous
100
AcDbLine
 10
78.23786008800969
 20
54.01910180561905
 30
0.0
 11
82.18662076090408
 21
56.74551206984602
 31
0.0
  0
LINE
  5
F44
330
E62
100
AcDbEntity
  8
0
  6
Continuous
100
AcDbLine
 10
83.4872960162299
 20
63.49954989756247
 30
0.0
 11
88.13119301257376
 21
67.03164858933416
 31
0.0
  0
LINE
  5
F45
330
E62
100
AcDbEntity
  8
0
  6
Continuous
100
AcDbLine
 10
76.94691770193589
 20
63.66997430765323
 30
0.0
 11
88.50332356314352
 21
73.23235947195708
 31
0.0
  0
ARC
  5
F46
330
E62
100
AcDbEntity
  8
0
  6
Continuous
100
AcDbCircle
 10
0.0
 20
0.0
 30
0.0
 40
114.8730462534724
100
AcDbArc
 50
41.99623709419292
 51
57.6061654356024
  0
ARC
  5
F47
330
E62
100
AcDbEntity
  8
0
  6
Continuous
100
AcDbCircle
 10
0.0
 20
0.0
 30
0.0
 40
110.726460678663
100
AcDbArc
 50
44.72692061113296
 51
55.25623284000268
  0
ARC
  5
F48
330
E62
100
AcDbEntity
  8
0
  6
Continuous
100
AcDbCircle
 10
0.0
 20
0.0
 30
0.0
 40
104.8919512321828
100
AcDbArc
 50
50.06400442222671
 51
55.25623284000268
  0
ARC
  5
F49
330
E62
100
AcDbEntity
  8
0
  6
Continuous
100
AcDbCircle
 10
0.0
 20
0.0
 30
0.0
 40
99.87338870873315
100
AcDbArc
 50
52.62302550770868
 51
57.6061654356024
  0
ARC
  5
F4A
330
E62
100
AcDbEntity
  8
0
  6
Continuous
100
AcDbCircle
 10
0.0
 20
0.0
 30
0.0
 40
95.07484478576241
100
AcDbArc
 50
52.62302550770868
 51
57.6061654356024
  0
ARC
  5
F4B
330
E62
100
AcDbEntity
  8
0
  6
Continuous
100
AcDbCircle
 10
0.0
 20
0.0
 30
0.0
 40
90.531311986008
100
AcDbArc
 50
50.06400442222671
 51
57.6061654356024
  0
LINE
  5
F4C
330
E62
100
AcDbEntity
  8
0
  6
Continuous
100
AcDbLine
 10
70.65855686788208
 20
63.61284817067293
 30
0.0
 11
85.37235784689208
 21
76.85946442185644
 31
0.0
  0
LINE
  5
F4D
330
E62
100
AcDbEntity
  8
0
  6
Continuous
100
AcDbLine
 10
64.31968192320835
 20
63.70947313551747
 30
0.0
 11
78.66770706288845
 21
77.9213767838523
 31
0.0
  0
LINE
  5
F4E
330
E62
100
AcDbEntity
  8
0
  6
Continuous
100
AcDbLine
 10
58.11489816798576
 20
69.41597122300144
 30
0.0
 11
67.33344442684935
 21
80.42716391189612
 31
0.0
  0
LINE
  5
F4F
330
E62
100
AcDbEntity
  8
0
  6
Continuous
100
AcDbLine
 10
57.71580617888345
 20
75.55204714736972
 30
0.0
 11
60.62879364284526
 21
79.36525154990059
 31
0.0
  0
LINE
  5
F50
330
E62
100
AcDbEntity
  8
0
  6
Continuous
100
AcDbLine
 10
59.77869685059108
 20
86.19065399531292
 30
0.0
 11
63.10382682840046
 21
90.98492256431695
 31
0.0
  0
LINE
  5
F51
330
E62
100
AcDbEntity
  8
0
  6
Continuous
100
AcDbLine
 10
53.50576339677193
 20
84.33164919230726
 30
0.0
 11
61.54161897349617
 21
96.99714371914993
 31
0.0
  0
ARC
  5
F52
330
E62
100
AcDbEntity
  8
0
  6
Continuous
100
AcDbCircle
 10
0.0
 20
0.0
 30
0.0
 40
90.531311986008
100
AcDbArc
 50
347.9962370941931
 51
350.7269206111335
  0
ARC
  5
F53
330
E62
100
AcDbEntity
  8
0
  6
Continuous
100
AcDbCircle
 10
0.0
 20
0.0
 30
0.0
 40
114.8730462534724
100
AcDbArc
 50
347.9962370941931
 51
3.606165435603891
  0
ARC
  5
F54
330
E62
100
AcDbEntity
  8
0
  6
Continuous
100
AcDbCircle
 10
0.0
 20
0.0
 30
0.0
 40
110.726460678663
100
AcDbArc
 50
350.7269206111335
 51
1.256232840003145
  0
ARC
  5
F55
330
E62
100
AcDbEntity
  8
0
  6
Continuous
100
AcDbCircle
 10
0.0
 20
0.0
 30
0.0
 40
104.8919512321828
100
AcDbArc
 50
356.0640044222271
 51
1.256232840003145
  0
ARC
  5
F56
330
E62
100
AcDbEntity
  8
0
  6
Continuous
100
AcDbCircle
 10
0.0
 20
0.0
 30
0.0
 40
99.87338870873315
100
AcDbArc
 50
358.6230255077085
 51
3.606165435603891
  0
ARC
  5
F57
330
E62
100
AcDbEntity
  8
0
  6
Continuous
100
AcDbCircle
 10
0.0
 20
0.0
 30
0.0
 40
95.07484478576241
100
AcDbArc
 50
358.6230255077085
 51
5.996237094192182
  0
ARC
  5
F58
330
E62
100
AcDbEntity
  8
0
  6
Continuous
100
AcDbCircle
 10
0.0
 20
0.0
 30
0.0
 40
90.531311986008
100
AcDbArc
 50
356.0640044222271
 51
8.72692061113409
  0
LINE
  5
F59
330
E62
100
AcDbEntity
  8
0
  6
Continuous
100
AcDbLine
 10
88.55174924874193
 20
-18.82833383217567
 30
0.0
 11
112.3612257916772
 21
-23.89082866172998
 31
0.0
  0
LINE
  5
F5A
330
E62
100
AcDbEntity
  8
0
  6
Continuous
100
AcDbLine
 10
89.34820693591246
 20
-14.58822700828605
 30
0.0
 11
109.2794360864602
 21
-17.84247581051349
 31
0.0
  0
LINE
  5
F5B
330
E62
100
AcDbEntity
  8
0
  6
Continuous
100
AcDbLine
 10
90.31778048207135
 20
-6.214256085831094
 30
0.0
 11
104.6445480342603
 21
-7.200000000000386
 31
0.0
  0
LINE
  5
F5C
330
E62
100
AcDbEntity
  8
0
  6
Continuous
100
AcDbLine
 10
95.04738979815789
 20
-2.284688949037898
 30
0.0
 11
99.84454803426032
 21
-2.399999999999749
 31
0.0
  0
LINE
  5
F5D
330
E62
100
AcDbEntity
  8
0
  6
Continuous
100
AcDbLine
 10
104.8667402485391
 20
2.299613650171806
 30
0.0
 11
110.6998473593729
 21
2.427527350008375
 31
0.0
  0
LINE
  5
F5E
330
E62
100
AcDbEntity
  8
0
  6
Continuous
100
AcDbLine
 10
99.67563599751585
 20
6.281827811747093
 30
0.0
 11
114.6455937094452
 21
7.225274981703591
 31
0.0
  0
LINE
  5
F5F
330
E62
100
AcDbEntity
  8
0
  6
Continuous
100
AcDbLine
 10
48.5008771780981
 20
76.4433343259107
 30
0.0
 11
50.93501097602217
 21
80.27982790159253
 31
0.0
  0
CIRCLE
  5
F60
330
E62
100
AcDbEntity
  8
0
  6
Continuous
100
AcDbCircle
 10
0.0
 20
0.0
 30
0.0
 40
85.84642076572356
  0
ENDBLK
  5
E64
330
E62
100
AcDbEntity
  8
0
100
AcDbBlockEnd
  0
ENDSEC
  0
SECTION
  2
ENTITIES
  0
CIRCLE
  5
118D
330
1EF
100
AcDbEntity
  8
0
  6
Continuous
100
AcDbCircle
 10
132.0
 20
-77.24454803426033
 30
0.0
 40
118.6949774622942
  0
ARC
  5
118E
330
1EF
100
AcDbEntity
  8
0
  6
Continuous
100
AcDbCircle
 10
132.0
 20
-77.24454803426033
 30
0.0
 40
114.8730462534724
100
AcDbArc
 50
77.99623709419226
 51
93.60616543560301
  0
ARC
  5
118F
330
1EF
100
AcDbEntity
  8
0
  6
Continuous
100
AcDbCircle
 10
132.0
 20
-77.24454803426033
 30
0.0
 40
110.726460678663
100
AcDbArc
 50
80.7269206111337
 51
91.25623284000312
  0
ARC
  5
1190
330
1EF
100
AcDbEntity
  8
0
  6
Continuous
100
AcDbCircle
 10
132.0
 20
-77.24454803426033
 30
0.0
 40
104.8919512321828
100
AcDbArc
 50
86.06400442222627
 51
91.25623284000312
  0
ARC
  5
1191
330
1EF
100
AcDbEntity
  8
0
  6
Continuous
100
AcDbCircle
 10
132.0
 20
-77.24454803426033
 30
0.0
 40
99.87338870873321
100
AcDbArc
 50
88.62302550770927
 51
93.60616543560301
  0
ARC
  5
1192
330
1EF
100
AcDbEntity
  8
0
  6
Continuous
100
AcDbCircle
 10
132.0
 20
-77.24454803426033
 30
0.0
 40
95.07484478576243
100
AcDbArc
 50
88.62302550770927
 51
95.99623709419224
  0
ARC
  5
1193
330
1EF
100
AcDbEntity
  8
0
  6
Continuous
100
AcDbCircle
 10
132.0
 20
-77.24454803426033
 30
0.0
 40
90.53131198600802
100
AcDbArc
 50
86.06400442222627
 51
98.72692061113504
  0
LINE
  5
1194
330
1EF
100
AcDbEntity
  8
0
  6
Continuous
100
AcDbLine
 10
151.7732792930833
 20
15.75138487161751
 30
0.0
 11
155.8908286617296
 21
35.11667775741697
 31
0.0
  0
LINE
  5
1195
330
1EF
100
AcDbEntity
  8
0
  6
Continuous
100
AcDbLine
 10
146.5882270082858
 20
12.10365890165212
 30
0.0
 11
149.8424758105131
 21
32.03488805219997
 31
0.0
  0
LINE
  5
1196
330
1EF
100
AcDbEntity
  8
0
  6
Continuous
100
AcDbLine
 10
138.2142560858309
 20
13.07323244781104
 30
0.0
 11
139.2000000000001
 21
27.39999999999999
 31
0.0
  0
LINE
  5
1197
330
1EF
100
AcDbEntity
  8
0
  6
Continuous
100
AcDbLine
 10
134.2846889490376
 20
17.80284176389753
 30
0.0
 11
134.3999999999995
 21
22.59999999999999
 31
0.0
  0
LINE
  5
1198
330
1EF
100
AcDbEntity
  8
0
  6
Continuous
100
AcDbLine
 10
129.7003863498279
 20
27.62219221427873
 30
0.0
 11
129.5724726499914
 21
33.45529932511264
 31
0.0
  0
LINE
  5
1199
330
1EF
100
AcDbEntity
  8
0
  6
Continuous
100
AcDbLine
 10
125.7181721882527
 20
22.43108796325551
 30
0.0
 11
124.7747250182961
 21
37.40104567518486
 31
0.0
  0
ARC
  5
119A
330
1EF
100
AcDbEntity
  8
0
  6
Continuous
100
AcDbCircle
 10
132.0
 20
-77.24454803426033
 30
0.0
 40
114.8730462534724
100
AcDbArc
 50
95.99623709419224
 51
111.6061654356035
  0
ARC
  5
119B
330
1EF
100
AcDbEntity
  8
0
  6
Continuous
100
AcDbCircle
 10
132.0
 20
-77.24454803426033
 30
0.0
 40
110.726460678663
100
AcDbArc
 50
98.7269206111333
 51
109.256232840004
  0
ARC
  5
119C
330
1EF
100
AcDbEntity
  8
0
  6
Continuous
100
AcDbCircle
 10
132.0
 20
-77.24454803426033
 30
0.0
 40
104.8919512321828
100
AcDbArc
 50
104.0640044222265
 51
109.256232840004
  0
ARC
  5
119D
330
1EF
100
AcDbEntity
  8
0
  6
Continuous
100
AcDbCircle
 10
132.0
 20
-77.24454803426033
 30
0.0
 40
99.87338870873321
100
AcDbArc
 50
106.6230255077093
 51
111.6061654356035
  0
ARC
  5
119E
330
1EF
100
AcDbEntity
  8
0
  6
Continuous
100
AcDbCircle
 10
132.0
 20
-77.24454803426033
 30
0.0
 40
95.07484478576243
100
AcDbArc
 50
106.6230255077093
 51
113.9962370941932
  0
ARC
  5
119F
330
1EF
100
AcDbEntity
  8
0
  6
Continuous
100
AcDbCircle
 10
132.0
 20
-77.24454803426033
 30
0.0
 40
90.53131198600802
100
AcDbArc
 50
104.0640044222265
 51
116.726920611135
  0
LINE
  5
11A0
330
1EF
100
AcDbEntity
  8
0
  6
Continuous
100
AcDbLine
 10
122.0681824445423
 20
17.31011928090669
 30
0.0
 11
120.0000000000001
 21
36.99999999999999
 31
0.0
  0
LINE
  5
11A1
330
1EF
100
AcDbEntity
  8
0
  6
Continuous
100
AcDbLine
 10
118.2641139972967
 20
12.23865645478696
 30
0.0
 11
115.2000000000001
 21
32.20000000000001
 31
0.0
  0
LINE
  5
11A2
330
1EF
100
AcDbEntity
  8
0
  6
Continuous
100
AcDbLine
 10
110.0003796811703
 20
10.57307636844857
 30
0.0
 11
106.5106632060533
 21
24.50325362798383
 31
0.0
  0
LINE
  5
11A3
330
1EF
100
AcDbEntity
  8
0
  6
Continuous
100
AcDbLine
 10
104.801609594079
 20
13.85689910223649
 30
0.0
 11
103.4288735008357
 21
18.45490077676714
 31
0.0
  0
LINE
  5
11A4
330
1EF
100
AcDbEntity
  8
0
  6
Continuous
100
AcDbLine
 10
97.40733257154072
 20
21.77902892334423
 30
0.0
 11
95.4831501865307
 21
27.28711594428754
 31
0.0
  0
LINE
  5
11A5
330
1EF
100
AcDbEntity
  8
0
  6
Continuous
100
AcDbLine
 10
95.22416127702994
 20
15.61142354747379
 30
0.0
 11
89.70091836020204
 21
29.55715816925554
 31
0.0
  0
ARC
  5
11A6
330
1EF
100
AcDbEntity
  8
0
  6
Continuous
100
AcDbCircle
 10
132.0
 20
-77.24454803426033
 30
0.0
 40
114.8730462534724
100
AcDbArc
 50
113.9962370941932
 51
129.6061654356025
  0
ARC
  5
11A7
330
1EF
100
AcDbEntity
  8
0
  6
Continuous
100
AcDbCircle
 10
132.0
 20
-77.24454803426033
 30
0.0
 40
110.726460678663
100
AcDbArc
 50
116.7269206111332
 51
127.2562328400031
  0
ARC
  5
11A8
330
1EF
100
AcDbEntity
  8
0
  6
Continuous
100
AcDbCircle
 10
132.0
 20
-77.24454803426033
 30
0.0
 40
104.8919512321828
100
AcDbArc
 50
122.0640044222265
 51
127.2562328400031
  0
ARC
  5
11A9
330
1EF
100
AcDbEntity
  8
0
  6
Continuous
100
AcDbCircle
 10
132.0
 20
-77.24454803426033
 30
0.0
 40
99.87338870873321
100
AcDbArc
 50
124.623025507709
 51
129.6061654356025
  0
ARC
  5
11AA
330
1EF
100
AcDbEntity
  8
0
  6
Continuous
100
AcDbCircle
 10
132.0
 20
-77.24454803426033
 30
0.0
 40
95.07484478576243
100
AcDbArc
 50
124.623025507709
 51
129.6061654356025
  0
ARC
  5
11AB
330
1EF
100
AcDbEntity
  8
0
  6
Continuous
100
AcDbCircle
 10
132.0
 20
-77.24454803426033
 30
0.0
 40
90.531311986008
100
AcDbArc
 50
122.0640044222265
 51
129.6061654356025
  0
LINE
  5
11AC
330
1EF
100
AcDbEntity
  8
0
  6
Continuous
100
AcDbLine
 10
93.33528109737136
 20
9.613184052281779
 30
0.0
 11
85.28381494718685
 21
27.70026989241831
 31
0.0
  0
LINE
  5
11AD
330
1EF
100
AcDbEntity
  8
0
  6
Continuous
100
AcDbLine
 10
91.28456521179742
 20
3.614414486387573
 30
0.0
 11
82.20202524196986
 21
21.65191704120181
 31
0.0
  0
LINE
  5
11AE
330
1EF
100
AcDbEntity
  8
0
  6
Continuous
100
AcDbLine
 10
83.93997939368462
 20
-0.5232806488185135
 30
0.0
 11
76.31640029215022
 21
11.64672351064764
 31
0.0
  0
LINE
  5
11AF
330
1EF
100
AcDbEntity
  8
0
  6
Continuous
100
AcDbLine
 10
77.98089819438086
 20
0.9933120537493207
 30
0.0
 11
75.25448793015387
 21
4.942072726643686
 31
0.0
  0
LINE
  5
11B0
330
1EF
100
AcDbEntity
  8
0
  6
Continuous
100
AcDbLine
 10
68.50045010243743
 20
6.242747981969472
 30
0.0
 11
64.96835141066576
 21
10.88664497831335
 31
0.0
  0
LINE
  5
11B1
330
1EF
100
AcDbEntity
  8
0
  6
Continuous
100
AcDbLine
 10
68.33002569234668
 20
-0.297630332324502
 30
0.0
 11
58.76764052804283
 21
11.25877552888308
 31
0.0
  0
ARC
  5
11B2
330
1EF
100
AcDbEntity
  8
0
  6
Continuous
100
AcDbCircle
 10
132.0
 20
-77.24454803426033
 30
0.0
 40
90.53131198600802
100
AcDbArc
 50
59.99623709419205
 51
62.72692061113404
  0
ARC
  5
11B3
330
1EF
100
AcDbEntity
  8
0
  6
Continuous
100
AcDbCircle
 10
132.0
 20
-77.24454803426033
 30
0.0
 40
114.8730462534724
100
AcDbArc
 50
59.99623709419346
 51
75.606165435603
  0
ARC
  5
11B4
330
1EF
100
AcDbEntity
  8
0
  6
Continuous
100
AcDbCircle
 10
132.0
 20
-77.24454803426033
 30
0.0
 40
110.726460678663
100
AcDbArc
 50
62.72692061113404
 51
73.25623284000269
  0
ARC
  5
11B5
330
1EF
100
AcDbEntity
  8
0
  6
Continuous
100
AcDbCircle
 10
132.0
 20
-77.24454803426033
 30
0.0
 40
104.8919512321828
100
AcDbArc
 50
68.0640044222272
 51
73.25623284000269
  0
ARC
  5
11B6
330
1EF
100
AcDbEntity
  8
0
  6
Continuous
100
AcDbCircle
 10
132.0
 20
-77.24454803426033
 30
0.0
 40
99.87338870873321
100
AcDbArc
 50
70.62302550770907
 51
75.606165435603
  0
ARC
  5
11B7
330
1EF
100
AcDbEntity
  8
0
  6
Continuous
100
AcDbCircle
 10
132.0
 20
-77.24454803426033
 30
0.0
 40
95.07484478576243
100
AcDbArc
 50
70.62302550770907
 51
77.99623709419226
  0
ARC
  5
11B8
330
1EF
100
AcDbEntity
  8
0
  6
Continuous
100
AcDbCircle
 10
132.0
 20
-77.24454803426033
 30
0.0
 40
90.531311986008
100
AcDbArc
 50
68.0640044222272
 51
80.7269206111337
  0
LINE
  5
11B9
330
1EF
100
AcDbEntity
  8
0
  6
Continuous
100
AcDbLine
 10
177.2708049815613
 20
1.154894988183144
 30
0.0
 11
189.4430565568581
 21
22.23465586765081
 31
0.0
  0
LINE
  5
11BA
330
1EF
100
AcDbEntity
  8
0
  6
Continuous
100
AcDbLine
 10
173.4843427175498
 20
3.222636328067068
 30
0.0
 11
182.7384057728545
 21
21.17274350565492
 31
0.0
  0
LINE
  5
11BB
330
1EF
100
AcDbEntity
  8
0
  6
Continuous
100
AcDbLine
 10
165.8198378075423
 20
6.732454892609155
 30
0.0
 11
171.1845506285973
 21
20.05340890898444
 31
0.0
  0
LINE
  5
11BC
330
1EF
100
AcDbEntity
  8
0
  6
Continuous
100
AcDbLine
 10
163.5441270313007
 20
12.44488367800989
 30
0.0
 11
165.1361977773802
 21
16.97161920376764
 31
0.0
  0
LINE
  5
11BD
330
1EF
100
AcDbEntity
  8
0
  6
Continuous
100
AcDbLine
 10
162.2185423345445
 20
23.20026832014372
 30
0.0
 11
163.8994184040486
 21
28.78741035521277
 31
0.0
  0
LINE
  5
11BE
330
1EF
100
AcDbEntity
  8
0
  6
Continuous
100
AcDbLine
 10
156.8270921737573
 20
19.49380664660796
 30
0.0
 11
160.5557919330504
 21
34.02262368601276
 31
0.0
  0
LINE
  5
11BF
330
1EF
100
AcDbEntity
  8
0
  6
Continuous
100
AcDbLine
 10
74.28566405213792
 20
-7.495183334607119
 30
0.0
 11
71.38913054740219
 21
-3.994642810861178
 31
0.0
  0
ARC
  5
11C0
330
1EF
100
AcDbEntity
  8
0
  6
Continuous
100
AcDbCircle
 10
132.0
 20
-77.24454803426033
 30
0.0
 40
114.8730462534724
100
AcDbArc
 50
149.9962370941934
 51
165.6061654356028
  0
ARC
  5
11C1
330
1EF
100
AcDbEntity
  8
0
  6
Continuous
100
AcDbCircle
 10
132.0
 20
-77.24454803426033
 30
0.0
 40
110.726460678663
100
AcDbArc
 50
152.7269206111336
 51
163.2562328400027
  0
ARC
  5
11C2
330
1EF
100
AcDbEntity
  8
0
  6
Continuous
100
AcDbCircle
 10
132.0
 20
-77.24454803426033
 30
0.0
 40
104.8919512321828
100
AcDbArc
 50
158.0640044222272
 51
163.2562328400027
  0
ARC
  5
11C3
330
1EF
100
AcDbEntity
  8
0
  6
Continuous
100
AcDbCircle
 10
132.0
 20
-77.24454803426033
 30
0.0
 40
99.87338870873321
100
AcDbArc
 50
160.6230255077093
 51
165.6061654356028
  0
ARC
  5
11C4
330
1EF
100
AcDbEntity
  8
0
  6
Continuous
100
AcDbCircle
 10
132.0
 20
-77.24454803426033
 30
0.0
 40
95.07484478576243
100
AcDbArc
 50
160.6230255077093
 51
167.9962370941923
  0
ARC
  5
11C5
330
1EF
100
AcDbEntity
  8
0
  6
Continuous
100
AcDbCircle
 10
132.0
 20
-77.24454803426033
 30
0.0
 40
90.53131198600802
100
AcDbArc
 50
158.0640044222272
 51
170.7269206111335
  0
LINE
  5
11C6
330
1EF
100
AcDbEntity
  8
0
  6
Continuous
100
AcDbLine
 10
49.66589135700299
 20
-29.70171823838072
 30
0.0
 11
32.5207960980888
 21
-19.80149147740229
 31
0.0
  0
LINE
  5
11C7
330
1EF
100
AcDbEntity
  8
0
  6
Continuous
100
AcDbLine
 10
51.53281563767254
 20
-35.76020531671062
 30
0.0
 11
33.58270846008469
 21
-26.50614226140593
 31
0.0
  0
LINE
  5
11C8
330
1EF
100
AcDbEntity
  8
0
  6
Continuous
100
AcDbLine
 10
48.02299707313046
 20
-43.42471022671803
 30
0.0
 11
34.70204305675519
 21
-38.05999740566316
 31
0.0
  0
LINE
  5
11C9
330
1EF
100
AcDbEntity
  8
0
  6
Continuous
100
AcDbLine
 10
42.31056828772975
 20
-45.70042100295973
 30
0.0
 11
37.783832761972
 21
-44.10835025688018
 31
0.0
  0
LINE
  5
11CA
330
1EF
100
AcDbEntity
  8
0
  6
Continuous
100
AcDbLine
 10
31.55518364559592
 20
-47.02600569971585
 30
0.0
 11
25.96804161052685
 21
-45.3451296302118
 31
0.0
  0
LINE
  5
11CB
330
1EF
100
AcDbEntity
  8
0
  6
Continuous
100
AcDbLine
 10
35.26164531913167
 20
-52.41745586050303
 30
0.0
 11
20.73282827972688
 21
-48.68875610121
 31
0.0
  0
ARC
  5
11CC
330
1EF
100
AcDbEntity
  8
0
  6
Continuous
100
AcDbCircle
 10
132.0
 20
-77.24454803426033
 30
0.0
 40
114.8730462534724
100
AcDbArc
 50
167.9962370941923
 51
183.6061654356031
  0
ARC
  5
11CD
330
1EF
100
AcDbEntity
  8
0
  6
Continuous
100
AcDbCircle
 10
132.0
 20
-77.24454803426033
 30
0.0
 40
110.726460678663
100
AcDbArc
 50
170.7269206111335
 51
181.2562328400031
  0
ARC
  5
11CE
330
1EF
100
AcDbEntity
  8
0
  6
Continuous
100
AcDbCircle
 10
132.0
 20
-77.24454803426033
 30
0.0
 40
104.8919512321828
100
AcDbArc
 50
176.0640044222262
 51
181.2562328400031
  0
ARC
  5
11CF
330
1EF
100
AcDbEntity
  8
0
  6
Continuous
100
AcDbCircle
 10
132.0
 20
-77.24454803426033
 30
0.0
 40
99.87338870873321
100
AcDbArc
 50
178.6230255077093
 51
183.6061654356031
  0
ARC
  5
11D0
330
1EF
100
AcDbEntity
  8
0
  6
Continuous
100
AcDbCircle
 10
132.0
 20
-77.24454803426033
 30
0.0
 40
95.07484478576243
100
AcDbArc
 50
178.6230255077093
 51
185.9962370941922
  0
ARC
  5
11D1
330
1EF
100
AcDbEntity
  8
0
  6
Continuous
100
AcDbCircle
 10
132.0
 20
-77.24454803426033
 30
0.0
 40
90.53131198600802
100
AcDbArc
 50
176.0640044222262
 51
188.7269206111349
  0
LINE
  5
11D2
330
1EF
100
AcDbEntity
  8
0
  6
Continuous
100
AcDbLine
 10
39.00406709412215
 20
-57.47126874117696
 30
0.0
 11
19.63877420832271
 21
-53.35371937253061
 31
0.0
  0
LINE
  5
11D3
330
1EF
100
AcDbEntity
  8
0
  6
Continuous
100
AcDbLine
 10
42.65179306408754
 20
-62.65632102597447
 30
0.0
 11
22.72056391353969
 21
-59.40207222374707
 31
0.0
  0
LINE
  5
11D4
330
1EF
100
AcDbEntity
  8
0
  6
Continuous
100
AcDbLine
 10
41.68221951792864
 20
-71.03029194842942
 30
0.0
 11
27.35545196573966
 21
-70.04454803426018
 31
0.0
  0
LINE
  5
11D5
330
1EF
100
AcDbEntity
  8
0
  6
Continuous
100
AcDbLine
 10
36.95261020184214
 20
-74.95985908522264
 30
0.0
 11
32.15545196573967
 21
-74.84454803426072
 31
0.0
  0
LINE
  5
11D6
330
1EF
100
AcDbEntity
  8
0
  6
Continuous
100
AcDbLine
 10
27.13325975146093
 20
-79.54416168443237
 30
0.0
 11
21.30015264062703
 21
-79.67207538426892
 31
0.0
  0
LINE
  5
11D7
330
1EF
100
AcDbEntity
  8
0
  6
Continuous
100
AcDbLine
 10
32.32436400248416
 20
-83.52637584600762
 30
0.0
 11
17.3544062905548
 21
-84.46982301596419
 31
0.0
  0
ARC
  5
11D8
330
1EF
100
AcDbEntity
  8
0
  6
Continuous
100
AcDbCircle
 10
132.0
 20
-77.24454803426033
 30
0.0
 40
114.8730462534724
100
AcDbArc
 50
185.9962370941938
 51
201.6061654356032
  0
ARC
  5
11D9
330
1EF
100
AcDbEntity
  8
0
  6
Continuous
100
AcDbCircle
 10
132.0
 20
-77.24454803426033
 30
0.0
 40
110.726460678663
100
AcDbArc
 50
188.7269206111333
 51
199.2562328400037
  0
ARC
  5
11DA
330
1EF
100
AcDbEntity
  8
0
  6
Continuous
100
AcDbCircle
 10
132.0
 20
-77.24454803426033
 30
0.0
 40
104.8919512321828
100
AcDbArc
 50
194.0640044222265
 51
199.2562328400037
  0
ARC
  5
11DB
330
1EF
100
AcDbEntity
  8
0
  6
Continuous
100
AcDbCircle
 10
132.0
 20
-77.24454803426033
 30
0.0
 40
99.87338870873321
100
AcDbArc
 50
196.6230255077093
 51
201.6061654356032
  0
ARC
  5
11DC
330
1EF
100
AcDbEntity
  8
0
  6
Continuous
100
AcDbCircle
 10
132.0
 20
-77.24454803426033
 30
0.0
 40
95.07484478576243
100
AcDbArc
 50
196.6230255077093
 51
201.6061654356032
  0
ARC
  5
11DD
330
1EF
100
AcDbEntity
  8
0
  6
Continuous
100
AcDbCircle
 10
132.0
 20
-77.24454803426033
 30
0.0
 40
90.531311986008
100
AcDbArc
 50
194.0640044222265
 51
201.6061654356032
  0
LINE
  5
11DE
330
1EF
100
AcDbEntity
  8
0
  6
Continuous
100
AcDbLine
 10
37.44533268483297
 20
-87.17636558971795
 30
0.0
 11
17.75545196573967
 21
-89.24454803426019
 31
0.0
  0
LINE
  5
11DF
330
1EF
100
AcDbEntity
  8
0
  6
Continuous
100
AcDbLine
 10
42.51679551095267
 20
-90.98043403696356
 30
0.0
 11
22.55545196573968
 21
-94.0445480342602
 31
0.0
  0
LINE
  5
11E0
330
1EF
100
AcDbEntity
  8
0
  6
Continuous
100
AcDbLine
 10
44.18237559729109
 20
-99.24416835309001
 30
0.0
 11
30.25219833775586
 21
-102.733884828207
 31
0.0
  0
LINE
  5
11E1
330
1EF
100
AcDbEntity
  8
0
  6
Continuous
100
AcDbLine
 10
40.89855286350315
 20
-104.4429384401813
 30
0.0
 11
36.30055118897253
 21
-105.8156745334245
 31
0.0
  0
LINE
  5
11E2
330
1EF
100
AcDbEntity
  8
0
  6
Continuous
100
AcDbLine
 10
32.97642304239543
 20
-111.8372154627196
 30
0.0
 11
27.46833602145213
 21
-113.7613978477296
 31
0.0
  0
LINE
  5
11E3
330
1EF
100
AcDbEntity
  8
0
  6
Continuous
100
AcDbLine
 10
39.14402841826586
 20
-114.0203867572303
 30
0.0
 11
25.19829379648412
 21
-119.5436296740582
 31
0.0
  0
ARC
  5
11E4
330
1EF
100
AcDbEntity
  8
0
  6
Continuous
100
AcDbCircle
 10
132.0
 20
-77.24454803426033
 30
0.0
 40
90.53131198600802
100
AcDbArc
 50
131.9962370941935
 51
134.7269206111341
  0
ARC
  5
11E5
330
1EF
100
AcDbEntity
  8
0
  6
Continuous
100
AcDbCircle
 10
132.0
 20
-77.24454803426033
 30
0.0
 40
114.8730462534724
100
AcDbArc
 50
131.9962370941935
 51
147.6061654356038
  0
ARC
  5
11E6
330
1EF
100
AcDbEntity
  8
0
  6
Continuous
100
AcDbCircle
 10
132.0
 20
-77.24454803426033
 30
0.0
 40
110.726460678663
100
AcDbArc
 50
134.7269206111341
 51
145.2562328400031
  0
ARC
  5
11E7
330
1EF
100
AcDbEntity
  8
0
  6
Continuous
100
AcDbCircle
 10
132.0
 20
-77.24454803426033
 30
0.0
 40
104.8919512321828
100
AcDbArc
 50
140.0640044222262
 51
145.2562328400031
  0
ARC
  5
11E8
330
1EF
100
AcDbEntity
  8
0
  6
Continuous
100
AcDbCircle
 10
132.0
 20
-77.24454803426033
 30
0.0
 40
99.87338870873321
100
AcDbArc
 50
142.6230255077082
 51
147.6061654356038
  0
ARC
  5
11E9
330
1EF
100
AcDbEntity
  8
0
  6
Continuous
100
AcDbCircle
 10
132.0
 20
-77.24454803426033
 30
0.0
 40
95.07484478576243
100
AcDbArc
 50
142.6230255077082
 51
149.996237094192
  0
ARC
  5
11EA
330
1EF
100
AcDbEntity
  8
0
  6
Continuous
100
AcDbCircle
 10
132.0
 20
-77.24454803426033
 30
0.0
 40
90.531311986008
100
AcDbArc
 50
140.0640044222262
 51
152.7269206111344
  0
LINE
  5
11EB
330
1EF
100
AcDbEntity
  8
0
  6
Continuous
100
AcDbLine
 10
71.42714692793102
 20
-9.962693715153877
 30
0.0
 11
55.14053557814357
 21
8.127809812631767
 31
0.0
  0
LINE
  5
11EC
330
1EF
100
AcDbEntity
  8
0
  6
Continuous
100
AcDbLine
 10
68.29052686448253
 20
-12.92486611105198
 30
0.0
 11
54.0786232161477
 21
1.423159028628189
 31
0.0
  0
LINE
  5
11ED
330
1EF
100
AcDbEntity
  8
0
  6
Continuous
100
AcDbLine
 10
62.58402877699857
 20
-19.1296498662746
 30
0.0
 11
51.57283608810388
 21
-9.911103607410947
 31
0.0
  0
LINE
  5
11EE
330
1EF
100
AcDbEntity
  8
0
  6
Continuous
100
AcDbLine
 10
56.44795285263029
 20
-19.52874185537686
 30
0.0
 11
52.63474845009941
 21
-16.61575439141504
 31
0.0
  0
LINE
  5
11EF
330
1EF
100
AcDbEntity
  8
0
  6
Continuous
100
AcDbLine
 10
45.80934600468707
 20
-17.46585118366923
 30
0.0
 11
41.015077435683
 21
-14.14072120585987
 31
0.0
  0
LINE
  5
11F0
330
1EF
100
AcDbEntity
  8
0
  6
Continuous
100
AcDbLine
 10
47.66835080769271
 20
-23.73878463748844
 30
0.0
 11
35.00285628085008
 21
-15.70292906076415
 31
0.0
  0
LINE
  5
11F1
330
1EF
100
AcDbEntity
  8
0
  6
Continuous
100
AcDbLine
 10
47.82970156799332
 20
-110.5804042820733
 30
0.0
 11
43.60541161458971
 21
-112.2534448350838
 31
0.0
  0
ARC
  5
11F2
330
1EF
100
AcDbEntity
  8
0
  6
Continuous
100
AcDbCircle
 10
132.0
 20
-77.24454803426033
 30
0.0
 40
114.8730462534724
100
AcDbArc
 50
221.9962370941935
 51
237.6061654356043
  0
ARC
  5
11F3
330
1EF
100
AcDbEntity
  8
0
  6
Continuous
100
AcDbCircle
 10
132.0
 20
-77.24454803426033
 30
0.0
 40
110.726460678663
100
AcDbArc
 50
224.7269206111347
 51
235.2562328400026
  0
ARC
  5
11F4
330
1EF
100
AcDbEntity
  8
0
  6
Continuous
100
AcDbCircle
 10
132.0
 20
-77.24454803426033
 30
0.0
 40
104.8919512321828
100
AcDbArc
 50
230.0640044222262
 51
235.2562328400026
  0
ARC
  5
11F5
330
1EF
100
AcDbEntity
  8
0
  6
Continuous
100
AcDbCircle
 10
132.0
 20
-77.24454803426033
 30
0.0
 40
99.87338870873321
100
AcDbArc
 50
232.6230255077082
 51
237.6061654356043
  0
ARC
  5
11F6
330
1EF
100
AcDbEntity
  8
0
  6
Continuous
100
AcDbCircle
 10
132.0
 20
-77.24454803426033
 30
0.0
 40
95.07484478576243
100
AcDbArc
 50
232.6230255077082
 51
239.996237094192
  0
ARC
  5
11F7
330
1EF
100
AcDbEntity
  8
0
  6
Continuous
100
AcDbCircle
 10
132.0
 20
-77.24454803426033
 30
0.0
 40
90.53131198600802
100
AcDbArc
 50
230.0640044222262
 51
242.726920611134
  0
LINE
  5
11F8
330
1EF
100
AcDbEntity
  8
0
  6
Continuous
100
AcDbLine
 10
61.34144313211795
 20
-140.8573962049333
 30
0.0
 11
46.62764215310795
 21
-154.1040124561168
 31
0.0
  0
LINE
  5
11F9
330
1EF
100
AcDbEntity
  8
0
  6
Continuous
100
AcDbLine
 10
67.68031807679172
 20
-140.9540211697778
 30
0.0
 11
53.33229293711156
 21
-155.1659248181126
 31
0.0
  0
LINE
  5
11FA
330
1EF
100
AcDbEntity
  8
0
  6
Continuous
100
AcDbLine
 10
73.8851018320143
 20
-146.6605192572618
 30
0.0
 11
64.6665555731507
 21
-157.6717119461565
 31
0.0
  0
LINE
  5
11FB
330
1EF
100
AcDbEntity
  8
0
  6
Continuous
100
AcDbLine
 10
74.28419382111659
 20
-152.7965951816301
 30
0.0
 11
71.3712063571548
 21
-156.609799584161
 31
0.0
  0
LINE
  5
11FC
330
1EF
100
AcDbEntity
  8
0
  6
Continuous
100
AcDbLine
 10
72.22130314940897
 20
-163.4352020295733
 30
0.0
 11
68.89617317159959
 21
-168.2294705985774
 31
0.0
  0
LINE
  5
11FD
330
1EF
100
AcDbEntity
  8
0
  6
Continuous
100
AcDbLine
 10
78.49423660322812
 20
-161.5761972265676
 30
0.0
 11
70.4583810265039
 21
-174.2416917534103
 31
0.0
  0
ARC
  5
11FE
330
1EF
100
AcDbEntity
  8
0
  6
Continuous
100
AcDbCircle
 10
132.0
 20
-77.24454803426033
 30
0.0
 40
114.8730462534724
100
AcDbArc
 50
239.9962370941935
 51
255.606165435603
  0
ARC
  5
11FF
330
1EF
100
AcDbEntity
  8
0
  6
Continuous
100
AcDbCircle
 10
132.0
 20
-77.24454803426033
 30
0.0
 40
110.726460678663
100
AcDbArc
 50
242.726920611134
 51
253.2562328400026
  0
ARC
  5
1200
330
1EF
100
AcDbEntity
  8
0
  6
Continuous
100
AcDbCircle
 10
132.0
 20
-77.24454803426033
 30
0.0
 40
104.8919512321828
100
AcDbArc
 50
248.0640044222273
 51
253.2562328400026
  0
ARC
  5
1201
330
1EF
100
AcDbEntity
  8
0
  6
Continuous
100
AcDbCircle
 10
132.0
 20
-77.24454803426033
 30
0.0
 40
99.87338870873321
100
AcDbArc
 50
250.6230255077094
 51
255.606165435603
  0
ARC
  5
1202
330
1EF
100
AcDbEntity
  8
0
  6
Continuous
100
AcDbCircle
 10
132.0
 20
-77.24454803426033
 30
0.0
 40
95.07484478576243
100
AcDbArc
 50
250.6230255077094
 51
257.9962370941923
  0
ARC
  5
1203
330
1EF
100
AcDbEntity
  8
0
  6
Continuous
100
AcDbCircle
 10
132.0
 20
-77.24454803426033
 30
0.0
 40
90.53131198600802
100
AcDbArc
 50
248.0640044222273
 51
260.7269206111336
  0
LINE
  5
1204
330
1EF
100
AcDbEntity
  8
0
  6
Continuous
100
AcDbLine
 10
84.45717020412034
 20
-159.5786566772573
 30
0.0
 11
74.55694344314196
 21
-176.7237519361715
 31
0.0
  0
LINE
  5
1205
330
1EF
100
AcDbEntity
  8
0
  6
Continuous
100
AcDbLine
 10
90.51565728245019
 20
-157.7117323965877
 30
0.0
 11
81.26159422714556
 21
-175.6618395741756
 31
0.0
  0
LINE
  5
1206
330
1EF
100
AcDbEntity
  8
0
  6
Continuous
100
AcDbLine
 10
98.1801621924577
 20
-161.2215509611298
 30
0.0
 11
92.81544937140276
 21
-174.5425049775051
 31
0.0
  0
LINE
  5
1207
330
1EF
100
AcDbEntity
  8
0
  6
Continuous
100
AcDbLine
 10
100.4558729686993
 20
-166.9339797465306
 30
0.0
 11
98.8638022226198
 21
-171.4607152722883
 31
0.0
  0
LINE
  5
1208
330
1EF
100
AcDbEntity
  8
0
  6
Continuous
100
AcDbLine
 10
101.7814576654555
 20
-177.6893643886644
 30
0.0
 11
100.1005815959514
 21
-183.2765064237334
 31
0.0
  0
LINE
  5
1209
330
1EF
100
AcDbEntity
  8
0
  6
Continuous
100
AcDbLine
 10
107.1729078262426
 20
-173.9829027151286
 30
0.0
 11
103.4442080669496
 21
-188.5117197545335
 31
0.0
  0
ARC
  5
120A
330
1EF
100
AcDbEntity
  8
0
  6
Continuous
100
AcDbCircle
 10
132.0
 20
-77.24454803426033
 30
0.0
 40
114.8730462534724
100
AcDbArc
 50
257.9962370941923
 51
273.606165435603
  0
ARC
  5
120B
330
1EF
100
AcDbEntity
  8
0
  6
Continuous
100
AcDbCircle
 10
132.0
 20
-77.24454803426033
 30
0.0
 40
110.726460678663
100
AcDbArc
 50
260.7269206111336
 51
271.2562328400032
  0
ARC
  5
120C
330
1EF
100
AcDbEntity
  8
0
  6
Continuous
100
AcDbCircle
 10
132.0
 20
-77.24454803426033
 30
0.0
 40
104.8919512321828
100
AcDbArc
 50
266.0640044222263
 51
271.2562328400032
  0
ARC
  5
120D
330
1EF
100
AcDbEntity
  8
0
  6
Continuous
100
AcDbCircle
 10
132.0
 20
-77.24454803426033
 30
0.0
 40
99.87338870873321
100
AcDbArc
 50
268.6230255077093
 51
273.606165435603
  0
ARC
  5
120E
330
1EF
100
AcDbEntity
  8
0
  6
Continuous
100
AcDbCircle
 10
132.0
 20
-77.24454803426033
 30
0.0
 40
95.07484478576243
100
AcDbArc
 50
268.6230255077093
 51
273.606165435603
  0
ARC
  5
120F
330
1EF
100
AcDbEntity
  8
0
  6
Continuous
100
AcDbCircle
 10
132.0
 20
-77.24454803426033
 30
0.0
 40
90.531311986008
100
AcDbArc
 50
266.0640044222263
 51
273.606165435603
  0
LINE
  5
1210
330
1EF
100
AcDbEntity
  8
0
  6
Continuous
100
AcDbLine
 10
112.2267207069165
 20
-170.2404809401382
 30
0.0
 11
108.1091713382702
 21
-189.6057738259376
 31
0.0
  0
LINE
  5
1211
330
1EF
100
AcDbEntity
  8
0
  6
Continuous
100
AcDbLine
 10
117.4117729917141
 20
-166.5927549701728
 30
0.0
 11
114.1575241894867
 21
-186.5239841207206
 31
0.0
  0
LINE
  5
1212
330
1EF
100
AcDbEntity
  8
0
  6
Continuous
100
AcDbLine
 10
125.785743914169
 20
-167.5623285163317
 30
0.0
 11
124.7999999999997
 21
-181.8890960685206
 31
0.0
  0
LINE
  5
1213
330
1EF
100
AcDbEntity
  8
0
  6
Continuous
100
AcDbLine
 10
129.7153110509623
 20
-172.2919378324182
 30
0.0
 11
129.6000000000003
 21
-177.0890960685205
 31
0.0
  0
LINE
  5
1214
330
1EF
100
AcDbEntity
  8
0
  6
Continuous
100
AcDbLine
 10
134.299613650172
 20
-182.1112882827994
 30
0.0
 11
134.4275273500085
 21
-187.9443953936333
 31
0.0
  0
LINE
  5
1215
330
1EF
100
AcDbEntity
  8
0
  6
Continuous
100
AcDbLine
 10
138.2818278117472
 20
-176.9201840317762
 30
0.0
 11
139.2252749817038
 21
-191.8901417437054
 31
0.0
  0
ARC
  5
1216
330
1EF
100
AcDbEntity
  8
0
  6
Continuous
100
AcDbCircle
 10
132.0
 20
-77.24454803426033
 30
0.0
 40
90.53131198600802
100
AcDbArc
 50
203.9962370941932
 51
206.7269206111332
  0
ARC
  5
1217
330
1EF
100
AcDbEntity
  8
0
  6
Continuous
100
AcDbCircle
 10
132.0
 20
-77.24454803426033
 30
0.0
 40
114.8730462534724
100
AcDbArc
 50
203.9962370941932
 51
219.6061654356032
  0
ARC
  5
1218
330
1EF
100
AcDbEntity
  8
0
  6
Continuous
100
AcDbCircle
 10
132.0
 20
-77.24454803426033
 30
0.0
 40
110.726460678663
100
AcDbArc
 50
206.7269206111332
 51
217.2562328400036
  0
ARC
  5
1219
330
1EF
100
AcDbEntity
  8
0
  6
Continuous
100
AcDbCircle
 10
132.0
 20
-77.24454803426033
 30
0.0
 40
104.8919512321828
100
AcDbArc
 50
212.0640044222265
 51
217.2562328400036
  0
ARC
  5
121A
330
1EF
100
AcDbEntity
  8
0
  6
Continuous
100
AcDbCircle
 10
132.0
 20
-77.24454803426033
 30
0.0
 40
99.87338870873321
100
AcDbArc
 50
214.6230255077085
 51
219.6061654356032
  0
ARC
  5
121B
330
1EF
100
AcDbEntity
  8
0
  6
Continuous
100
AcDbCircle
 10
132.0
 20
-77.24454803426033
 30
0.0
 40
95.07484478576243
100
AcDbArc
 50
214.6230255077085
 51
221.9962370941929
  0
ARC
  5
121C
330
1EF
100
AcDbEntity
  8
0
  6
Continuous
100
AcDbCircle
 10
132.0
 20
-77.24454803426033
 30
0.0
 40
90.531311986008
100
AcDbArc
 50
212.0640044222265
 51
224.7269206111347
  0
LINE
  5
121D
330
1EF
100
AcDbEntity
  8
0
  6
Continuous
100
AcDbLine
 10
49.29311302434652
 20
-114.0615182613771
 30
0.0
 11
27.05518207332128
 21
-123.9607330870733
 31
0.0
  0
LINE
  5
121E
330
1EF
100
AcDbEntity
  8
0
  6
Continuous
100
AcDbLine
 10
51.14103747935203
 20
-117.9599828224627
 30
0.0
 11
33.10353492453777
 21
-127.0425227922903
 31
0.0
  0
LINE
  5
121F
330
1EF
100
AcDbEntity
  8
0
  6
Continuous
100
AcDbLine
 10
55.27873261455809
 20
-125.3045686405756
 30
0.0
 11
43.10872845509188
 21
-132.92814774211
 31
0.0
  0
LINE
  5
1220
330
1EF
100
AcDbEntity
  8
0
  6
Continuous
100
AcDbLine
 10
53.76213991199026
 20
-131.2636498398793
 30
0.0
 11
49.81337923909588
 21
-133.9900601041063
 31
0.0
  0
LINE
  5
1221
330
1EF
100
AcDbEntity
  8
0
  6
Continuous
100
AcDbLine
 10
48.51270398377007
 20
-140.7440979318228
 30
0.0
 11
43.86880698742621
 21
-144.2761966235944
 31
0.0
  0
LINE
  5
1222
330
1EF
100
AcDbEntity
  8
0
  6
Continuous
100
AcDbLine
 10
55.05308229806407
 20
-140.9145223419135
 30
0.0
 11
43.49667643685646
 21
-150.4769075062174
 31
0.0
  0
LINE
  5
1223
330
1EF
100
AcDbEntity
  8
0
  6
Continuous
100
AcDbLine
 10
137.6942306736599
 20
-167.5966049391425
 30
0.0
 11
137.9800094088575
 21
-172.1311413892058
 31
0.0
  0
ARC
  5
1224
330
1EF
100
AcDbEntity
  8
0
  6
Continuous
100
AcDbCircle
 10
132.0
 20
-77.24454803426033
 30
0.0
 40
114.8730462534724
100
AcDbArc
 50
293.9962370941933
 51
309.6061654356026
  0
ARC
  5
1225
330
1EF
100
AcDbEntity
  8
0
  6
Continuous
100
AcDbCircle
 10
132.0
 20
-77.24454803426033
 30
0.0
 40
110.726460678663
100
AcDbArc
 50
296.726920611135
 51
307.2562328400031
  0
ARC
  5
1226
330
1EF
100
AcDbEntity
  8
0
  6
Continuous
100
AcDbCircle
 10
132.0
 20
-77.24454803426033
 30
0.0
 40
104.8919512321828
100
AcDbArc
 50
302.0640044222265
 51
307.2562328400031
  0
ARC
  5
1227
330
1EF
100
AcDbEntity
  8
0
  6
Continuous
100
AcDbCircle
 10
132.0
 20
-77.24454803426033
 30
0.0
 40
99.87338870873321
100
AcDbArc
 50
304.623025507709
 51
309.6061654356026
  0
ARC
  5
1228
330
1EF
100
AcDbEntity
  8
0
  6
Continuous
100
AcDbCircle
 10
132.0
 20
-77.24454803426033
 30
0.0
 40
95.07484478576243
100
AcDbArc
 50
304.623025507709
 51
311.9962370941918
  0
ARC
  5
1229
330
1EF
100
AcDbEntity
  8
0
  6
Continuous
100
AcDbCircle
 10
132.0
 20
-77.24454803426033
 30
0.0
 40
90.531311986008
100
AcDbArc
 50
302.0640044222265
 51
314.7269206111341
  0
LINE
  5
122A
330
1EF
100
AcDbEntity
  8
0
  6
Continuous
100
AcDbLine
 10
170.6647189026285
 20
-164.1022801208024
 30
0.0
 11
178.716185052813
 21
-182.189365960939
 31
0.0
  0
LINE
  5
122B
330
1EF
100
AcDbEntity
  8
0
  6
Continuous
100
AcDbLine
 10
172.7154347882024
 20
-158.1035105549083
 30
0.0
 11
181.79797475803
 21
-176.1410131097225
 31
0.0
  0
LINE
  5
122C
330
1EF
100
AcDbEntity
  8
0
  6
Continuous
100
AcDbLine
 10
180.0600206063153
 20
-153.9658154197022
 30
0.0
 11
187.6835997078497
 21
-166.1358195791683
 31
0.0
  0
LINE
  5
122D
330
1EF
100
AcDbEntity
  8
0
  6
Continuous
100
AcDbLine
 10
186.019101805619
 20
-155.48240812227
 30
0.0
 11
188.745512069846
 21
-159.4311687951644
 31
0.0
  0
LINE
  5
122E
330
1EF
100
AcDbEntity
  8
0
  6
Continuous
100
AcDbLine
 10
195.4995498975625
 20
-160.7318440504902
 30
0.0
 11
199.0316485893341
 21
-165.3757410468341
 31
0.0
  0
LINE
  5
122F
330
1EF
100
AcDbEntity
  8
0
  6
Continuous
100
AcDbLine
 10
195.6699743076532
 20
-154.1914657361962
 30
0.0
 11
205.2323594719571
 21
-165.7478715974038
 31
0.0
  0
ARC
  5
1230
330
1EF
100
AcDbEntity
  8
0
  6
Continuous
100
AcDbCircle
 10
132.0
 20
-77.24454803426033
 30
0.0
 40
114.8730462534724
100
AcDbArc
 50
311.9962370941918
 51
327.6061654356031
  0
ARC
  5
1231
330
1EF
100
AcDbEntity
  8
0
  6
Continuous
100
AcDbCircle
 10
132.0
 20
-77.24454803426033
 30
0.0
 40
110.726460678663
100
AcDbArc
 50
314.7269206111341
 51
325.2562328400022
  0
ARC
  5
1232
330
1EF
100
AcDbEntity
  8
0
  6
Continuous
100
AcDbCircle
 10
132.0
 20
-77.24454803426033
 30
0.0
 40
104.8919512321828
100
AcDbArc
 50
320.0640044222262
 51
325.2562328400022
  0
ARC
  5
1233
330
1EF
100
AcDbEntity
  8
0
  6
Continuous
100
AcDbCircle
 10
132.0
 20
-77.24454803426033
 30
0.0
 40
99.87338870873321
100
AcDbArc
 50
322.6230255077082
 51
327.6061654356031
  0
ARC
  5
1234
330
1EF
100
AcDbEntity
  8
0
  6
Continuous
100
AcDbCircle
 10
132.0
 20
-77.24454803426033
 30
0.0
 40
95.07484478576243
100
AcDbArc
 50
322.6230255077082
 51
329.9962370941921
  0
ARC
  5
1235
330
1EF
100
AcDbEntity
  8
0
  6
Continuous
100
AcDbCircle
 10
132.0
 20
-77.24454803426033
 30
0.0
 40
90.531311986008
100
AcDbArc
 50
320.0640044222262
 51
332.7269206111337
  0
LINE
  5
1236
330
1EF
100
AcDbEntity
  8
0
  6
Continuous
100
AcDbLine
 10
195.6128481706729
 20
-147.9031049021424
 30
0.0
 11
208.8594644218564
 21
-162.6169058811524
 31
0.0
  0
LINE
  5
1237
330
1EF
100
AcDbEntity
  8
0
  6
Continuous
100
AcDbLine
 10
195.7094731355174
 20
-141.5642299574686
 30
0.0
 11
209.9213767838523
 21
-155.9122550971487
 31
0.0
  0
LINE
  5
1238
330
1EF
100
AcDbEntity
  8
0
  6
Continuous
100
AcDbLine
 10
201.4159712230015
 20
-135.359446202246
 30
0.0
 11
212.4271639118961
 21
-144.5779924611096
 31
0.0
  0
LINE
  5
1239
330
1EF
100
AcDbEntity
  8
0
  6
Continuous
100
AcDbLine
 10
207.5520471473697
 20
-134.9603542131438
 30
0.0
 11
211.3652515499006
 21
-137.8733416771056
 31
0.0
  0
LINE
  5
123A
330
1EF
100
AcDbEntity
  8
0
  6
Continuous
100
AcDbLine
 10
218.1906539953129
 20
-137.0232448848514
 30
0.0
 11
222.984922564317
 21
-140.3483748626607
 31
0.0
  0
LINE
  5
123B
330
1EF
100
AcDbEntity
  8
0
  6
Continuous
100
AcDbLine
 10
216.3316491923073
 20
-130.7503114310322
 30
0.0
 11
228.99714371915
 21
-138.7861670077564
 31
0.0
  0
ARC
  5
123C
330
1EF
100
AcDbEntity
  8
0
  6
Continuous
100
AcDbCircle
 10
132.0
 20
-77.24454803426033
 30
0.0
 40
114.8730462534724
100
AcDbArc
 50
329.9962370941935
 51
345.6061654356036
  0
ARC
  5
123D
330
1EF
100
AcDbEntity
  8
0
  6
Continuous
100
AcDbCircle
 10
132.0
 20
-77.24454803426033
 30
0.0
 40
110.726460678663
100
AcDbArc
 50
332.7269206111337
 51
343.2562328400035
  0
ARC
  5
123E
330
1EF
100
AcDbEntity
  8
0
  6
Continuous
100
AcDbCircle
 10
132.0
 20
-77.24454803426033
 30
0.0
 40
104.8919512321828
100
AcDbArc
 50
338.0640044222264
 51
343.2562328400035
  0
ARC
  5
123F
330
1EF
100
AcDbEntity
  8
0
  6
Continuous
100
AcDbCircle
 10
132.0
 20
-77.24454803426033
 30
0.0
 40
99.87338870873315
100
AcDbArc
 50
340.6230255077086
 51
345.6061654356036
  0
ARC
  5
1240
330
1EF
100
AcDbEntity
  8
0
  6
Continuous
100
AcDbCircle
 10
132.0
 20
-77.24454803426033
 30
0.0
 40
95.07484478576241
100
AcDbArc
 50
340.6230255077086
 51
345.6061654356036
  0
ARC
  5
1241
330
1EF
100
AcDbEntity
  8
0
  6
Continuous
100
AcDbCircle
 10
132.0
 20
-77.24454803426033
 30
0.0
 40
90.531311986008
100
AcDbArc
 50
338.0640044222264
 51
345.6061654356036
  0
LINE
  5
1242
330
1EF
100
AcDbEntity
  8
0
  6
Continuous
100
AcDbLine
 10
214.334108642997
 20
-124.78737783014
 30
0.0
 11
231.4792039019112
 21
-134.6876045911184
 31
0.0
  0
LINE
  5
1243
330
1EF
100
AcDbEntity
  8
0
  6
Continuous
100
AcDbLine
 10
212.4671843623274
 20
-118.7288907518101
 30
0.0
 11
230.4172915399153
 21
-127.9829538071148
 31
0.0
  0
LINE
  5
1244
330
1EF
100
AcDbEntity
  8
0
  6
Continuous
100
AcDbLine
 10
215.9770029268694
 20
-111.0643858418027
 30
0.0
 11
229.2979569432447
 21
-116.4290986628575
 31
0.0
  0
LINE
  5
1245
330
1EF
100
AcDbEntity
  8
0
  6
Continuous
100
AcDbLine
 10
221.6894317122702
 20
-108.788675065561
 30
0.0
 11
226.2161672380279
 21
-110.3807458116405
 31
0.0
  0
LINE
  5
1246
330
1EF
100
AcDbEntity
  8
0
  6
Continuous
100
AcDbLine
 10
232.444816354404
 20
-107.4630903688049
 30
0.0
 11
238.0319583894731
 21
-109.1439664383089
 31
0.0
  0
LINE
  5
1247
330
1EF
100
AcDbEntity
  8
0
  6
Continuous
100
AcDbLine
 10
228.7383546808683
 20
-102.0716402080177
 30
0.0
 11
243.2671717202731
 21
-105.8003399673107
 31
0.0
  0
ARC
  5
1248
330
1EF
100
AcDbEntity
  8
0
  6
Continuous
100
AcDbCircle
 10
132.0
 20
-77.24454803426033
 30
0.0
 40
90.531311986008
100
AcDbArc
 50
275.9962370941939
 51
278.7269206111333
  0
ARC
  5
1249
330
1EF
100
AcDbEntity
  8
0
  6
Continuous
100
AcDbCircle
 10
132.0
 20
-77.24454803426033
 30
0.0
 40
114.8730462534724
100
AcDbArc
 50
275.9962370941939
 51
291.6061654356053
  0
ARC
  5
124A
330
1EF
100
AcDbEntity
  8
0
  6
Continuous
100
AcDbCircle
 10
132.0
 20
-77.24454803426033
 30
0.0
 40
110.726460678663
100
AcDbArc
 50
278.7269206111333
 51
289.256232840004
  0
ARC
  5
124B
330
1EF
100
AcDbEntity
  8
0
  6
Continuous
100
AcDbCircle
 10
132.0
 20
-77.24454803426033
 30
0.0
 40
104.8919512321828
100
AcDbArc
 50
284.0640044222265
 51
289.256232840004
  0
ARC
  5
124C
330
1EF
100
AcDbEntity
  8
0
  6
Continuous
100
AcDbCircle
 10
132.0
 20
-77.24454803426033
 30
0.0
 40
99.87338870873315
100
AcDbArc
 50
286.6230255077076
 51
291.6061654356053
  0
ARC
  5
124D
330
1EF
100
AcDbEntity
  8
0
  6
Continuous
100
AcDbCircle
 10
132.0
 20
-77.24454803426033
 30
0.0
 40
95.07484478576241
100
AcDbArc
 50
286.6230255077076
 51
293.9962370941933
  0
ARC
  5
124E
330
1EF
100
AcDbEntity
  8
0
  6
Continuous
100
AcDbCircle
 10
132.0
 20
-77.24454803426033
 30
0.0
 40
90.531311986008
100
AcDbArc
 50
284.0640044222265
 51
296.726920611135
  0
LINE
  5
124F
330
1EF
100
AcDbEntity
  8
0
  6
Continuous
100
AcDbLine
 10
141.457185817419
 20
-167.2805413165179
 30
0.0
 11
143.9999999999996
 21
-191.4890960685207
 31
0.0
  0
LINE
  5
1250
330
1EF
100
AcDbEntity
  8
0
  6
Continuous
100
AcDbLine
 10
145.735886002703
 20
-166.7277525233077
 30
0.0
 11
148.7999999999996
 21
-186.6890960685207
 31
0.0
  0
LINE
  5
1251
330
1EF
100
AcDbEntity
  8
0
  6
Continuous
100
AcDbLine
 10
153.9996203188295
 20
-165.0621724369692
 30
0.0
 11
157.4893367939464
 21
-178.9923496965045
 31
0.0
  0
LINE
  5
1252
330
1EF
100
AcDbEntity
  8
0
  6
Continuous
100
AcDbLine
 10
159.1983904059207
 20
-168.3459951707572
 30
0.0
 11
160.571126499164
 21
-172.9439968452878
 31
0.0
  0
LINE
  5
1253
330
1EF
100
AcDbEntity
  8
0
  6
Continuous
100
AcDbLine
 10
166.592667428459
 20
-176.2681249918649
 30
0.0
 11
168.516849813469
 21
-181.7762120128083
 31
0.0
  0
LINE
  5
1254
330
1EF
100
AcDbEntity
  8
0
  6
Continuous
100
AcDbLine
 10
168.7758387229698
 20
-170.1005196159945
 30
0.0
 11
174.2990816397976
 21
-184.0462542377762
 31
0.0
  0
LINE
  5
1255
330
1EF
100
AcDbEntity
  8
0
  6
Continuous
100
AcDbLine
 10
219.6895265281107
 20
-99.74933390712926
 30
0.0
 11
224.0904374531284
 21
-100.8787910034832
 31
0.0
  0
ARC
  5
1256
330
1EF
100
AcDbEntity
  8
0
  6
Continuous
100
AcDbCircle
 10
132.0
 20
-77.24454803426033
 30
0.0
 40
114.8730462534724
100
AcDbArc
 50
5.996237094192992
 51
21.60616543560319
  0
ARC
  5
1257
330
1EF
100
AcDbEntity
  8
0
  6
Continuous
100
AcDbCircle
 10
132.0
 20
-77.24454803426033
 30
0.0
 40
110.726460678663
100
AcDbArc
 50
8.72692061113409
 51
19.25623284000298
  0
ARC
  5
1258
330
1EF
100
AcDbEntity
  8
0
  6
Continuous
100
AcDbCircle
 10
132.0
 20
-77.24454803426033
 30
0.0
 40
104.8919512321828
100
AcDbArc
 50
14.06400442222656
 51
19.25623284000298
  0
ARC
  5
1259
330
1EF
100
AcDbEntity
  8
0
  6
Continuous
100
AcDbCircle
 10
132.0
 20
-77.24454803426033
 30
0.0
 40
99.87338870873321
100
AcDbArc
 50
16.62302550770929
 51
21.60616543560319
  0
ARC
  5
125A
330
1EF
100
AcDbEntity
  8
0
  6
Continuous
100
AcDbCircle
 10
132.0
 20
-77.24454803426033
 30
0.0
 40
95.07484478576243
100
AcDbArc
 50
16.62302550770929
 51
23.99623709419254
  0
ARC
  5
125B
330
1EF
100
AcDbEntity
  8
0
  6
Continuous
100
AcDbCircle
 10
132.0
 20
-77.24454803426033
 30
0.0
 40
90.531311986008
100
AcDbArc
 50
14.06400442222656
 51
26.72692061113397
  0
LINE
  5
125C
330
1EF
100
AcDbEntity
  8
0
  6
Continuous
100
AcDbLine
 10
226.554667315167
 20
-67.31273047880276
 30
0.0
 11
246.2445480342603
 21
-65.24454803426056
 31
0.0
  0
LINE
  5
125D
330
1EF
100
AcDbEntity
  8
0
  6
Continuous
100
AcDbLine
 10
221.4832044890473
 20
-63.50866203155715
 30
0.0
 11
241.4445480342604
 21
-60.44454803426058
 31
0.0
  0
LINE
  5
125E
330
1EF
100
AcDbEntity
  8
0
  6
Continuous
100
AcDbLine
 10
219.8176244027089
 20
-55.24492771543072
 30
0.0
 11
233.7478016622442
 21
-51.75521124031374
 31
0.0
  0
LINE
  5
125F
330
1EF
100
AcDbEntity
  8
0
  6
Continuous
100
AcDbLine
 10
223.1014471364968
 20
-50.04615762833946
 30
0.0
 11
227.6994488110275
 21
-48.67342153509619
 31
0.0
  0
LINE
  5
1260
330
1EF
100
AcDbEntity
  8
0
  6
Continuous
100
AcDbLine
 10
231.0235769576046
 20
-42.65188060580114
 30
0.0
 11
236.5316639785479
 21
-40.72769822079115
 31
0.0
  0
LINE
  5
1261
330
1EF
100
AcDbEntity
  8
0
  6
Continuous
100
AcDbLine
 10
224.8559715817342
 20
-40.46870931129038
 30
0.0
 11
238.8017062035159
 21
-34.9454663944625
 31
0.0
  0
ARC
  5
1262
330
1EF
100
AcDbEntity
  8
0
  6
Continuous
100
AcDbCircle
 10
132.0
 20
-77.24454803426033
 30
0.0
 40
114.8730462534724
100
AcDbArc
 50
23.99623709419327
 51
39.60616543560319
  0
ARC
  5
1263
330
1EF
100
AcDbEntity
  8
0
  6
Continuous
100
AcDbCircle
 10
132.0
 20
-77.24454803426033
 30
0.0
 40
110.726460678663
100
AcDbArc
 50
26.72692061113397
 51
37.2562328400036
  0
ARC
  5
1264
330
1EF
100
AcDbEntity
  8
0
  6
Continuous
100
AcDbCircle
 10
132.0
 20
-77.24454803426033
 30
0.0
 40
104.8919512321828
100
AcDbArc
 50
32.06400442222721
 51
37.2562328400036
  0
ARC
  5
1265
330
1EF
100
AcDbEntity
  8
0
  6
Continuous
100
AcDbCircle
 10
132.0
 20
-77.24454803426033
 30
0.0
 40
99.87338870873321
100
AcDbArc
 50
34.62302550770854
 51
39.60616543560319
  0
ARC
  5
1266
330
1EF
100
AcDbEntity
  8
0
  6
Continuous
100
AcDbCircle
 10
132.0
 20
-77.24454803426033
 30
0.0
 40
95.07484478576243
100
AcDbArc
 50
34.62302550770854
 51
41.99623709419292
  0
ARC
  5
1267
330
1EF
100
AcDbEntity
  8
0
  6
Continuous
100
AcDbCircle
 10
132.0
 20
-77.24454803426033
 30
0.0
 40
90.531311986008
100
AcDbArc
 50
32.06400442222721
 51
44.72692061113469
  0
LINE
  5
1268
330
1EF
100
AcDbEntity
  8
0
  6
Continuous
100
AcDbLine
 10
218.8577320865422
 20
-38.5798291316318
 30
0.0
 11
236.9448179266786
 21
-30.52836298144729
 31
0.0
  0
LINE
  5
1269
330
1EF
100
AcDbEntity
  8
0
  6
Continuous
100
AcDbLine
 10
212.8589625206479
 20
-36.52911324605791
 30
0.0
 11
230.8964650754622
 21
-27.44657327623031
 31
0.0
  0
LINE
  5
126A
330
1EF
100
AcDbEntity
  8
0
  6
Continuous
100
AcDbLine
 10
208.7212673854419
 20
-29.18452742794503
 30
0.0
 11
220.8912715449081
 21
-21.56094832641063
 31
0.0
  0
LINE
  5
126B
330
1EF
100
AcDbEntity
  8
0
  6
Continuous
100
AcDbLine
 10
210.2378600880097
 20
-23.22544622864126
 30
0.0
 11
214.1866207609041
 21
-20.49903596441429
 31
0.0
  0
LINE
  5
126C
330
1EF
100
AcDbEntity
  8
0
  6
Continuous
100
AcDbLine
 10
215.4872960162299
 20
-13.74499813669784
 30
0.0
 11
220.1311930125738
 21
-10.21289944492618
 31
0.0
  0
LINE
  5
126D
330
1EF
100
AcDbEntity
  8
0
  6
Continuous
100
AcDbLine
 10
208.9469177019359
 20
-13.5745737266071
 30
0.0
 11
220.5033235631435
 21
-4.012188562303252
 31
0.0
  0
ARC
  5
126E
330
1EF
100
AcDbEntity
  8
0
  6
Continuous
100
AcDbCircle
 10
132.0
 20
-77.24454803426033
 30
0.0
 40
114.8730462534724
100
AcDbArc
 50
41.99623709419292
 51
57.6061654356024
  0
ARC
  5
126F
330
1EF
100
AcDbEntity
  8
0
  6
Continuous
100
AcDbCircle
 10
132.0
 20
-77.24454803426033
 30
0.0
 40
110.726460678663
100
AcDbArc
 50
44.72692061113296
 51
55.25623284000268
  0
ARC
  5
1270
330
1EF
100
AcDbEntity
  8
0
  6
Continuous
100
AcDbCircle
 10
132.0
 20
-77.24454803426033
 30
0.0
 40
104.8919512321828
100
AcDbArc
 50
50.06400442222671
 51
55.25623284000268
  0
ARC
  5
1271
330
1EF
100
AcDbEntity
  8
0
  6
Continuous
100
AcDbCircle
 10
132.0
 20
-77.24454803426033
 30
0.0
 40
99.87338870873315
100
AcDbArc
 50
52.62302550770868
 51
57.6061654356024
  0
ARC
  5
1272
330
1EF
100
AcDbEntity
  8
0
  6
Continuous
100
AcDbCircle
 10
132.0
 20
-77.24454803426033
 30
0.0
 40
95.07484478576241
100
AcDbArc
 50
52.62302550770868
 51
57.6061654356024
  0
ARC
  5
1273
330
1EF
100
AcDbEntity
  8
0
  6
Continuous
100
AcDbCircle
 10
132.0
 20
-77.24454803426033
 30
0.0
 40
90.531311986008
100
AcDbArc
 50
50.06400442222671
 51
57.6061654356024
  0
LINE
  5
1274
330
1EF
100
AcDbEntity
  8
0
  6
Continuous
100
AcDbLine
 10
202.6585568678821
 20
-13.6316998635874
 30
0.0
 11
217.3723578468921
 21
-0.3850836124038892
 31
0.0
  0
LINE
  5
1275
330
1EF
100
AcDbEntity
  8
0
  6
Continuous
100
AcDbLine
 10
196.3196819232083
 20
-13.53507489874286
 30
0.0
 11
210.6677070628885
 21
0.6768287495919765
 31
0.0
  0
LINE
  5
1276
330
1EF
100
AcDbEntity
  8
0
  6
Continuous
100
AcDbLine
 10
190.1148981679857
 20
-7.828576811258897
 30
0.0
 11
199.3334444268493
 21
3.182615877635781
 31
0.0
  0
LINE
  5
1277
330
1EF
100
AcDbEntity
  8
0
  6
Continuous
100
AcDbLine
 10
189.7158061788834
 20
-1.692500886890613
 30
0.0
 11
192.628793642845
 21
2.120703515640258
 31
0.0
  0
LINE
  5
1278
330
1EF
100
AcDbEntity
  8
0
  6
Continuous
100
AcDbLine
 10
191.7786968505911
 20
8.946105961052595
 30
0.0
 11
195.1038268284004
 21
13.74037453005664
 31
0.0
  0
LINE
  5
1279
330
1EF
100
AcDbEntity
  8
0
  6
Continuous
100
AcDbLine
 10
185.5057633967719
 20
7.087101158046932
 30
0.0
 11
193.5416189734961
 21
19.7525956848896
 31
0.0
  0
ARC
  5
127A
330
1EF
100
AcDbEntity
  8
0
  6
Continuous
100
AcDbCircle
 10
132.0
 20
-77.24454803426033
 30
0.0
 40
90.531311986008
100
AcDbArc
 50
347.9962370941931
 51
350.7269206111335
  0
ARC
  5
127B
330
1EF
100
AcDbEntity
  8
0
  6
Continuous
100
AcDbCircle
 10
132.0
 20
-77.24454803426033
 30
0.0
 40
114.8730462534724
100
AcDbArc
 50
347.9962370941931
 51
3.606165435603891
  0
ARC
  5
127C
330
1EF
100
AcDbEntity
  8
0
  6
Continuous
100
AcDbCircle
 10
132.0
 20
-77.24454803426033
 30
0.0
 40
110.726460678663
100
AcDbArc
 50
350.7269206111335
 51
1.256232840003145
  0
ARC
  5
127D
330
1EF
100
AcDbEntity
  8
0
  6
Continuous
100
AcDbCircle
 10
132.0
 20
-77.24454803426033
 30
0.0
 40
104.8919512321828
100
AcDbArc
 50
356.0640044222271
 51
1.256232840003145
  0
ARC
  5
127E
330
1EF
100
AcDbEntity
  8
0
  6
Continuous
100
AcDbCircle
 10
132.0
 20
-77.24454803426033
 30
0.0
 40
99.87338870873315
100
AcDbArc
 50
358.6230255077085
 51
3.606165435603891
  0
ARC
  5
127F
330
1EF
100
AcDbEntity
  8
0
  6
Continuous
100
AcDbCircle
 10
132.0
 20
-77.24454803426033
 30
0.0
 40
95.07484478576241
100
AcDbArc
 50
358.6230255077085
 51
5.996237094192182
  0
ARC
  5
1280
330
1EF
100
AcDbEntity
  8
0
  6
Continuous
100
AcDbCircle
 10
132.0
 20
-77.24454803426033
 30
0.0
 40
90.531311986008
100
AcDbArc
 50
356.0640044222271
 51
8.72692061113409
  0
LINE
  5
1281
330
1EF
100
AcDbEntity
  8
0
  6
Continuous
100
AcDbLine
 10
220.551749248742
 20
-96.072881866436
 30
0.0
 11
244.3612257916773
 21
-101.1353766959903
 31
0.0
  0
LINE
  5
1282
330
1EF
100
AcDbEntity
  8
0
  6
Continuous
100
AcDbLine
 10
221.3482069359124
 20
-91.83277504254638
 30
0.0
 11
241.2794360864602
 21
-95.08702384477379
 31
0.0
  0
LINE
  5
1283
330
1EF
100
AcDbEntity
  8
0
  6
Continuous
100
AcDbLine
 10
222.3177804820714
 20
-83.45880412009142
 30
0.0
 11
236.6445480342604
 21
-84.44454803426072
 31
0.0
  0
LINE
  5
1284
330
1EF
100
AcDbEntity
  8
0
  6
Continuous
100
AcDbLine
 10
227.0473897981579
 20
-79.52923698329823
 30
0.0
 11
231.8445480342603
 21
-79.64454803426008
 31
0.0
  0
LINE
  5
1285
330
1EF
100
AcDbEntity
  8
0
  6
Continuous
100
AcDbLine
 10
236.8667402485391
 20
-74.94493438408851
 30
0.0
 11
242.699847359373
 21
-74.81702068425196
 31
0.0
  0
LINE
  5
1286
330
1EF
100
AcDbEntity
  8
0
  6
Continuous
100
AcDbLine
 10
231.6756359975158
 20
-70.96272022251324
 30
0.0
 11
246.6455937094452
 21
-70.01927305255674
 31
0.0
  0
LINE
  5
1287
330
1EF
100
AcDbEntity
  8
0
  6
Continuous
100
AcDbLine
 10
180.5008771780981
 20
-0.8012137083496353
 30
0.0
 11
182.9350109760222
 21
3.035279867332191
 31
0.0
  0
CIRCLE
  5
1288
330
1EF
100
AcDbEntity
  8
0
  6
Continuous
100
AcDbCircle
 10
132.0
 20
-77.24454803426033
 30
0.0
 40
85.84642076572356
  0
ENDSEC
  0
SECTION
  2
OBJECTS
  0
DICTIONARY
  5
185
330
0
100
AcDbDictionary
281
     1
  3
ACAD_COLOR
350
1E6
  3
ACAD_GROUP
350
186
  3
ACAD_LAYOUT
350
1E5
  3
ACAD_MATERIAL
350
189
  3
ACAD_MLEADERSTYLE
350
1E9
  3
ACAD_MLINESTYLE
350
1E2
  3
ACAD_PLOTSETTINGS
350
1E4
  3
ACAD_PLOTSTYLENAME
350
187
  3
ACAD_SCALELIST
350
1B6
  3
ACAD_TABLESTYLE
350
1E7
  3
ACAD_VISUALSTYLE
350
1A2
  3
ACDB_RECOMPOSE_DATA
350
12FC
  3
AcDbVariableDictionary
350
21E
  0
DICTIONARY
  5
699
330
17B
100
AcDbDictionary
280
     1
281
     1
  3
ACAD_LAYERSTATES
360
69A
  0
DICTIONARY
  5
20C
330
1D8
100
AcDbDictionary
280
     1
281
     1
  3
ADSK_XREC_LAYER_RECONCILED
360
20D
  0
DICTIONARY
  5
20E
330
1FB
100
AcDbDictionary
280
     1
281
     1
  3
ADSK_XREC_LAYER_RECONCILED
360
20F
  0
DICTIONARY
  5
210
330
1FC
100
AcDbDictionary
280
     1
281
     1
  3
ADSK_XREC_LAYER_RECONCILED
360
211
  0
DICTIONARY
  5
212
330
1FD
100
AcDbDictionary
280
     1
281
     1
  3
ADSK_XREC_LAYER_RECONCILED
360
213
  0
DICTIONARY
  5
214
330
1FE
100
AcDbDictionary
280
     1
281
     1
  3
ADSK_XREC_LAYER_RECONCILED
360
215
  0
DICTIONARY
  5
216
330
1FF
100
AcDbDictionary
280
     1
281
     1
  3
ADSK_XREC_LAYER_RECONCILED
360
217
  0
DICTIONARY
  5
218
330
200
100
AcDbDictionary
280
     1
281
     1
  3
ADSK_XREC_LAYER_RECONCILED
360
219
  0
DICTIONARY
  5
21A
330
201
100
AcDbDictionary
280
     1
281
     1
  3
ADSK_XREC_LAYER_RECONCILED
360
21B
  0
DICTIONARY
  5
21C
330
202
100
AcDbDictionary
280
     1
281
     1
  3
ADSK_XREC_LAYER_RECONCILED
360
21D
  0
DICTIONARY
  5
258
330
1EF
100
AcDbDictionary
280
     1
281
     1
  3
ACAD_SORTENTS
360
259
  0
DICTIONARY
  5
1E6
102
{ACAD_REACTORS
330
185
102
}
330
185
100
AcDbDictionary
281
     1
  0
DICTIONARY
  5
186
102
{ACAD_REACTORS
330
185
102
}
330
185
100
AcDbDictionary
281
     1
  0
DICTIONARY
  5
1E5
102
{ACAD_REACTORS
330
185
102
}
330
185
100
AcDbDictionary
281
     1
  3
Layout1
350
1EE
  3
Model
350
1F2
  0
DICTIONARY
  5
189
102
{ACAD_REACTORS
330
185
102
}
330
185
100
AcDbDictionary
281
     1
  3
ByBlock
350
192
  3
ByLayer
350
18A
  3
Global
350
19A
  0
DICTIONARY
  5
1E9
102
{ACAD_REACTORS
330
185
102
}
330
185
100
AcDbDictionary
281
     1
  3
Standard
350
1EA
  0
DICTIONARY
  5
1E2
102
{ACAD_REACTORS
330
185
102
}
330
185
100
AcDbDictionary
281
     1
  3
Standard
350
1E3
  0
DICTIONARY
  5
1E4
102
{ACAD_REACTORS
330
185
102
}
330
185
100
AcDbDictionary
281
     1
  0
ACDBDICTIONARYWDFLT
  5
187
102
{ACAD_REACTORS
330
185
102
}
330
185
100
AcDbDictionary
281
     1
  3
Normal
350
188
100
AcDbDictionaryWithDefault
340
188
  0
DICTIONARY
  5
1B6
102
{ACAD_REACTORS
330
185
102
}
330
185
100
AcDbDictionary
281
     1
  3
A0
350
1B7
  3
A1
350
1B8
  3
A2
350
1B9
  3
A3
350
1BA
  3
A4
350
1BB
  3
A5
350
1BC
  3
A6
350
1BD
  3
A7
350
1BE
  3
A8
350
1BF
  3
A9
350
1C0
  3
B0
350
1C1
  3
B1
350
1C2
  3
B2
350
1C3
  3
B3
350
1C4
  3
B4
350
1C5
  3
B5
350
1C6
  3
B6
350
1C7
  3
B7
350
1C8
  3
B8
350
1C9
  3
B9
350
1CA
  3
C0
350
1CB
  3
C1
350
1CC
  3
C2
350
1CD
  3
C3
350
1CE
  3
C4
350
1CF
  3
C5
350
1D0
  3
C6
350
1D1
  3
C7
350
1D2
  3
C8
350
1D3
  3
C9
350
1D4
  3
D0
350
1D5
  3
D1
350
1D6
  3
D2
350
1D7
  0
DICTIONARY
  5
1E7
102
{ACAD_REACTORS
330
185
102
}
330
185
100
AcDbDictionary
281
     1
  3
Standard
350
1E8
  0
DICTIONARY
  5
1A2
102
{ACAD_REACTORS
330
185
102
}
330
185
100
AcDbDictionary
281
     1
  3
2dWireframe
350
1A8
  3
3D Hidden
350
1AA
  3
3dWireframe
350
1A9
  3
Basic
350
1A7
  3
Brighten
350
1AE
  3
ColorChange
350
1B2
  3
Conceptual
350
1AB
  3
Dim
350
1AD
  3
EdgeColorOff
350
1B5
  3
Facepattern
350
1B1
  3
Flat
350
1A3
  3
FlatWithEdges
350
1A4
  3
Gouraud
350
1A5
  3
GouraudWithEdges
350
1A6
  3
JitterOff
350
1B3
  3
Linepattern
350
1B0
  3
OverhangOff
350
1B4
  3
Realistic
350
1AC
  3
Thicken
350
1AF
  0
XRECORD
  5
12FC
102
{ACAD_REACTORS
330
185
102
}
330
185
100
AcDbXrecord
280
     1
 90
        1
330
1E8
  0
DICTIONARY
  5
21E
102
{ACAD_REACTORS
330
185
102
}
330
185
100
AcDbDictionary
281
     1
  3
CANNOSCALE
350
222
  3
CMLEADERSTYLE
350
220
  3
CTABLESTYLE
350
21F
  3
LAYEREVAL
350
224
  3
LAYERNOTIFY
350
225
  3
LIGHTINGUNITS
350
223
  3
MSLTSCALE
350
221
  3
XCLIPFRAME
350
12FA
  0
DICTIONARY
  5
69A
102
{ACAD_REACTORS
330
699
102
}
330
699
100
AcDbDictionary
281
     1
  0
XRECORD
  5
20D
102
{ACAD_REACTORS
330
20C
102
}
330
20C
100
AcDbXrecord
280
     1
290
     1
  0
XRECORD
  5
20F
102
{ACAD_REACTORS
330
20E
102
}
330
20E
100
AcDbXrecord
280
     1
290
     1
  0
XRECORD
  5
211
102
{ACAD_REACTORS
330
210
102
}
330
210
100
AcDbXrecord
280
     1
290
     1
  0
XRECORD
  5
213
102
{ACAD_REACTORS
330
212
102
}
330
212
100
AcDbXrecord
280
     1
290
     1
  0
XRECORD
  5
215
102
{ACAD_REACTORS
330
214
102
}
330
214
100
AcDbXrecord
280
     1
290
     1
  0
XRECORD
  5
217
102
{ACAD_REACTORS
330
216
102
}
330
216
100
AcDbXrecord
280
     1
290
     1
  0
XRECORD
  5
219
102
{ACAD_REACTORS
330
218
102
}
330
218
100
AcDbXrecord
280
     1
290
     1
  0
XRECORD
  5
21B
102
{ACAD_REACTORS
330
21A
102
}
330
21A
100
AcDbXrecord
280
     1
290
     1
  0
XRECORD
  5
21D
102
{ACAD_REACTORS
330
21C
102
}
330
21C
100
AcDbXrecord
280
     1
290
     1
  0
SORTENTSTABLE
  5
259
102
{ACAD_REACTORS
330
258
102
}
330
258
100
AcDbSortentsTable
330
1EF
331
120E
  5
1113
331
1285
  5
118A
331
120A
  5
110F
331
11A4
  5
10A9
331
1281
  5
1186
331
127D
  5
1182
331
11A0
  5
10A5
331
11DF
  5
10E4
331
1206
  5
110B
331
1245
  5
114A
331
1241
  5
1146
331
1279
  5
117E
331
119C
  5
10A1
331
11DB
  5
10E0
331
1202
  5
1107
331
1198
  5
109D
331
11FE
  5
1103
331
123D
  5
1142
331
1275
  5
117A
331
11D7
  5
10DC
331
11D3
  5
10D8
331
11FA
  5
10FF
331
1239
  5
113E
331
1194
  5
1099
331
1271
  5
1176
331
126D
  5
1172
331
11CF
  5
10D4
331
11F6
  5
10FB
331
1235
  5
113A
331
1190
  5
1095
331
1231
  5
1136
331
1269
  5
116E
331
11CB
  5
10D0
331
11F2
  5
10F7
331
11EE
  5
10F3
331
122D
  5
1132
331
1265
  5
116A
331
11C7
  5
10CC
331
11EA
  5
10EF
331
1229
  5
112E
331
1261
  5
1166
331
11C3
  5
10C8
331
11BF
  5
10C4
331
11E6
  5
10EB
331
1225
  5
112A
331
125D
  5
1162
331
1221
  5
1126
331
1259
  5
115E
331
11BB
  5
10C0
331
11E2
  5
10E7
331
121D
  5
1122
331
1255
  5
115A
331
11B7
  5
10BC
331
1219
  5
111E
331
1251
  5
1156
331
11B3
  5
10B8
331
11AF
  5
10B4
331
1215
  5
111A
331
124D
  5
1152
331
1249
  5
114E
331
1288
  5
118D
331
11AB
  5
10B0
331
1211
  5
1116
331
120D
  5
1112
331
11A7
  5
10AC
331
1284
  5
1189
331
1209
  5
110E
331
11A3
  5
10A8
331
1280
  5
1185
331
127C
  5
1181
331
119F
  5
10A4
331
11DE
  5
10E3
331
1205
  5
110A
331
1244
  5
1149
331
1240
  5
1145
331
1278
  5
117D
331
119B
  5
10A0
331
11DA
  5
10DF
331
1201
  5
1106
331
11FD
  5
1102
331
123C
  5
1141
331
1274
  5
1179
331
1197
  5
109C
331
11D6
  5
10DB
331
11D2
  5
10D7
331
11F9
  5
10FE
331
1238
  5
113D
331
1193
  5
1098
331
1270
  5
1175
331
126C
  5
1171
331
118F
  5
1094
331
11CE
  5
10D3
331
11F5
  5
10FA
331
1234
  5
1139
331
1230
  5
1135
331
1268
  5
116D
331
11CA
  5
10CF
331
11F1
  5
10F6
331
11ED
  5
10F2
331
122C
  5
1131
331
1264
  5
1169
331
11C6
  5
10CB
331
11C2
  5
10C7
331
11E9
  5
10EE
331
1228
  5
112D
331
1260
  5
1165
331
125C
  5
1161
331
11BE
  5
10C3
331
11E5
  5
10EA
331
1224
  5
1129
331
1220
  5
1125
331
1258
  5
115D
331
11BA
  5
10BF
331
11E1
  5
10E6
331
121C
  5
1121
331
1254
  5
1159
331
11B6
  5
10BB
331
1218
  5
111D
331
1250
  5
1155
331
11B2
  5
10B7
331
11AE
  5
10B3
331
1214
  5
1119
331
124C
  5
1151
331
1210
  5
1115
331
1248
  5
114D
331
11AA
  5
10AF
331
1287
  5
118C
331
120C
  5
1111
331
11A6
  5
10AB
331
1283
  5
1188
331
1208
  5
110D
331
1247
  5
114C
331
11A2
  5
10A7
331
127F
  5
1184
331
1243
  5
1148
331
127B
  5
1180
331
119E
  5
10A3
331
11DD
  5
10E2
331
1204
  5
1109
331
119A
  5
109F
331
11D9
  5
10DE
331
1200
  5
1105
331
123F
  5
1144
331
1277
  5
117C
331
11FC
  5
1101
331
123B
  5
1140
331
1273
  5
1178
331
1196
  5
109B
331
11D5
  5
10DA
331
11D1
  5
10D6
331
11F8
  5
10FD
331
1237
  5
113C
331
1192
  5
1097
331
126F
  5
1174
331
126B
  5
1170
331
118E
  5
1093
331
11CD
  5
10D2
331
11F4
  5
10F9
331
1233
  5
1138
331
11C9
  5
10CE
331
11F0
  5
10F5
331
122F
  5
1134
331
1267
  5
116C
331
11EC
  5
10F1
331
122B
  5
1130
331
1263
  5
1168
331
11C5
  5
10CA
331
11C1
  5
10C6
331
11E8
  5
10ED
331
1227
  5
112C
331
125F
  5
1164
331
125B
  5
1160
331
11BD
  5
10C2
331
11E4
  5
10E9
331
1223
  5
1128
331
11B9
  5
10BE
331
11E0
  5
10E5
331
121F
  5
1124
331
1257
  5
115C
331
121B
  5
1120
331
1253
  5
1158
331
11B5
  5
10BA
331
11B1
  5
10B6
331
1217
  5
111C
331
124F
  5
1154
331
124B
  5
1150
331
11AD
  5
10B2
331
1213
  5
1118
331
11A9
  5
10AE
331
120F
  5
1114
331
1286
  5
118B
331
120B
  5
1110
331
11A5
  5
10AA
331
1282
  5
1187
331
127E
  5
1183
331
1207
  5
110C
331
1246
  5
114B
331
11A1
  5
10A6
331
1242
  5
1147
331
127A
  5
117F
331
119D
  5
10A2
331
11DC
  5
10E1
331
1203
  5
1108
331
1199
  5
109E
331
11D8
  5
10DD
331
11FF
  5
1104
331
123E
  5
1143
331
1276
  5
117B
331
11FB
  5
1100
331
123A
  5
113F
331
1272
  5
1177
331
1195
  5
109A
331
11D4
  5
10D9
331
11D0
  5
10D5
331
11F7
  5
10FC
331
1236
  5
113B
331
1191
  5
1096
331
126E
  5
1173
331
1232
  5
1137
331
126A
  5
116F
331
118D
  5
1092
331
11CC
  5
10D1
331
11F3
  5
10F8
331
11C8
  5
10CD
331
122E
  5
1133
331
1266
  5
116B
331
11EF
  5
10F4
331
11EB
  5
10F0
331
122A
  5
112F
331
1262
  5
1167
331
11C4
  5
10C9
331
11C0
  5
10C5
331
11E7
  5
10EC
331
1226
  5
112B
331
125E
  5
1163
331
125A
  5
115F
331
11BC
  5
10C1
331
11E3
  5
10E8
331
1222
  5
1127
331
11B8
  5
10BD
331
121E
  5
1123
331
1256
  5
115B
331
121A
  5
111F
331
1252
  5
1157
331
11B4
  5
10B9
331
11B0
  5
10B5
331
1216
  5
111B
331
124E
  5
1153
331
124A
  5
114F
331
11AC
  5
10B1
331
1212
  5
1117
331
11A8
  5
10AD
  0
LAYOUT
  5
1EE
102
{ACAD_REACTORS
330
1E5
102
}
330
1E5
100
AcDbPlotSettings
  1

  2
Microsoft XPS Document Writer
  4

  6

 40
0.0
 41
0.0
 42
0.0
 43
0.0
 44
0.0
 45
0.0
 46
0.0
 47
0.0
 48
0.0
 49
0.0
140
0.0
141
0.0
142
1.0
143
1.0
 70
   688
 72
     0
 73
     0
 74
     5
  7

 75
    16
147
1.0
 76
     0
 77
     2
 78
   300
148
0.0
149
0.0
100
AcDbLayout
  1
Layout1
 70
     1
 71
     1
 10
0.0
 20
0.0
 11
12.0
 21
9.0
 12
0.0
 22
0.0
 32
0.0
 14
1.000000000000000E+20
 24
1.000000000000000E+20
 34
1.000000000000000E+20
 15
-1.000000000000000E+20
 25
-1.000000000000000E+20
 35
-1.000000000000000E+20
146
0.0
 13
0.0
 23
0.0
 33
0.0
 16
1.0
 26
0.0
 36
0.0
 17
0.0
 27
1.0
 37
0.0
 76
     0
330
1EB
  0
LAYOUT
  5
1F2
102
{ACAD_XDICTIONARY
360
69F
102
}
102
{ACAD_REACTORS
330
1E5
102
}
330
1E5
100
AcDbPlotSettings
  1

  2
Microsoft XPS Document Writer
  4

  6

 40
0.0
 41
0.0
 42
0.0
 43
0.0
 44
0.0
 45
0.0
 46
0.0
 47
0.0
 48
0.0
 49
0.0
140
0.0
141
0.0
142
1.0
143
1.0
 70
  1712
 72
     0
 73
     0
 74
     0
  7

 75
     0
147
1.0
 76
     0
 77
     2
 78
   300
148
0.0
149
0.0
100
AcDbLayout
  1
Model
 70
     1
 71
     0
 10
0.0
 20
0.0
 11
12.0
 21
9.0
 12
0.0
 22
0.0
 32
0.0
 14
0.0
 24
0.0
 34
0.0
 15
0.0
 25
0.0
 35
0.0
146
0.0
 13
0.0
 23
0.0
 33
0.0
 16
1.0
 26
0.0
 36
0.0
 17
0.0
 27
1.0
 37
0.0
 76
     0
330
1EF
331
1F3
  0
MATERIAL
  5
192
102
{ACAD_XDICTIONARY
360
193
102
}
102
{ACAD_REACTORS
330
189
102
}
330
189
100
AcDbMaterial
  1
ByBlock
 72
     0
 43
0.0208333333333333
 43
0.0
 43
0.0
 43
0.0
 43
0.0
 43
0.0208333333333333
 43
0.0
 43
0.0
 43
0.0
 43
0.0
 43
1.0
 43
0.0
 43
0.0
 43
0.0
 43
0.0
 43
1.0
 77
     0
 47
0.0208333333333333
 47
0.0
 47
0.0
 47
0.0
 47
0.0
 47
0.0208333333333333
 47
0.0
 47
0.0
 47
0.0
 47
0.0
 47
1.0
 47
0.0
 47
0.0
 47
0.0
 47
0.0
 47
1.0
171
     0
 49
0.0208333333333333
 49
0.0
 49
0.0
 49
0.0
 49
0.0
 49
0.0208333333333333
 49
0.0
 49
0.0
 49
0.0
 49
0.0
 49
1.0
 49
0.0
 49
0.0
 49
0.0
 49
0.0
 49
1.0
175
     0
142
0.0208333333333333
142
0.0
142
0.0
142
0.0
142
0.0
142
0.0208333333333333
142
0.0
142
0.0
142
0.0
142
0.0
142
1.0
142
0.0
142
0.0
142
0.0
142
0.0
142
1.0
179
     0
144
0.0208333333333333
144
0.0
144
0.0
144
0.0
144
0.0
144
0.0208333333333333
144
0.0
144
0.0
144
0.0
144
0.0
144
1.0
144
0.0
144
0.0
144
0.0
144
0.0
144
1.0
147
0.0208333333333333
147
0.0
147
0.0
147
0.0
147
0.0
147
0.0208333333333333
147
0.0
147
0.0
147
0.0
147
0.0
147
1.0
147
0.0
147
0.0
147
0.0
147
0.0
147
1.0
  0
MATERIAL
  5
18A
102
{ACAD_XDICTIONARY
360
18B
102
}
102
{ACAD_REACTORS
330
189
102
}
330
189
100
AcDbMaterial
  1
ByLayer
 72
     0
 43
0.0208333333333333
 43
0.0
 43
0.0
 43
0.0
 43
0.0
 43
0.0208333333333333
 43
0.0
 43
0.0
 43
0.0
 43
0.0
 43
1.0
 43
0.0
 43
0.0
 43
0.0
 43
0.0
 43
1.0
 77
     0
 47
0.0208333333333333
 47
0.0
 47
0.0
 47
0.0
 47
0.0
 47
0.0208333333333333
 47
0.0
 47
0.0
 47
0.0
 47
0.0
 47
1.0
 47
0.0
 47
0.0
 47
0.0
 47
0.0
 47
1.0
171
     0
 49
0.0208333333333333
 49
0.0
 49
0.0
 49
0.0
 49
0.0
 49
0.0208333333333333
 49
0.0
 49
0.0
 49
0.0
 49
0.0
 49
1.0
 49
0.0
 49
0.0
 49
0.0
 49
0.0
 49
1.0
175
     0
142
0.0208333333333333
142
0.0
142
0.0
142
0.0
142
0.0
142
0.0208333333333333
142
0.0
142
0.0
142
0.0
142
0.0
142
1.0
142
0.0
142
0.0
142
0.0
142
0.0
142
1.0
179
     0
144
0.0208333333333333
144
0.0
144
0.0
144
0.0
144
0.0
144
0.0208333333333333
144
0.0
144
0.0
144
0.0
144
0.0
144
1.0
144
0.0
144
0.0
144
0.0
144
0.0
144
1.0
147
0.0208333333333333
147
0.0
147
0.0
147
0.0
147
0.0
147
0.0208333333333333
147
0.0
147
0.0
147
0.0
147
0.0
147
1.0
147
0.0
147
0.0
147
0.0
147
0.0
147
1.0
  0
MATERIAL
  5
19A
102
{ACAD_XDICTIONARY
360
19B
102
}
102
{ACAD_REACTORS
330
189
102
}
330
189
100
AcDbMaterial
  1
Global
 72
     0
 43
0.0208333333333333
 43
0.0
 43
0.0
 43
0.0
 43
0.0
 43
0.0208333333333333
 43
0.0
 43
0.0
 43
0.0
 43
0.0
 43
1.0
 43
0.0
 43
0.0
 43
0.0
 43
0.0
 43
1.0
 77
     0
 47
0.0208333333333333
 47
0.0
 47
0.0
 47
0.0
 47
0.0
 47
0.0208333333333333
 47
0.0
 47
0.0
 47
0.0
 47
0.0
 47
1.0
 47
0.0
 47
0.0
 47
0.0
 47
0.0
 47
1.0
171
     0
 49
0.0208333333333333
 49
0.0
 49
0.0
 49
0.0
 49
0.0
 49
0.0208333333333333
 49
0.0
 49
0.0
 49
0.0
 49
0.0
 49
1.0
 49
0.0
 49
0.0
 49
0.0
 49
0.0
 49
1.0
175
     0
142
0.0208333333333333
142
0.0
142
0.0
142
0.0
142
0.0
142
0.0208333333333333
142
0.0
142
0.0
142
0.0
142
0.0
142
1.0
142
0.0
142
0.0
142
0.0
142
0.0
142
1.0
179
     0
144
0.0208333333333333
144
0.0
144
0.0
144
0.0
144
0.0
144
0.0208333333333333
144
0.0
144
0.0
144
0.0
144
0.0
144
1.0
144
0.0
144
0.0
144
0.0
144
0.0
144
1.0
147
0.0208333333333333
147
0.0
147
0.0
147
0.0
147
0.0
147
0.0208333333333333
147
0.0
147
0.0
147
0.0
147
0.0
147
1.0
147
0.0
147
0.0
147
0.0
147
0.0
147
1.0
  0
MLEADERSTYLE
  5
1EA
102
{ACAD_REACTORS
330
1E9
102
}
330
1E9
100
AcDbMLeaderStyle
170
     2
171
     1
172
     0
 90
        2
 40
0.0
 41
0.0
173
     1
 91
-1056964608
340
1DE
 92
       -2
290
     1
 42
0.09
291
     1
 43
0.36
  3
Standard
 44
0.18
300

342
1D9
174
     1
178
     6
175
     1
176
     0
 93
-1056964608
 45
0.18
292
     0
297
     0
 46
0.18
 94
-1056964608
 47
1.0
 49
1.0
140
1.0
293
     1
141
0.0
294
     1
177
     0
142
1.0
295
     0
296
     0
143
0.125
1001
ACAD_MLEADERVER
1070
     2
  0
MLINESTYLE
  5
1E3
102
{ACAD_REACTORS
330
1E2
102
}
330
1E2
100
AcDbMlineStyle
  2
STANDARD
 70
     0
  3

 62
   256
 51
90.0
 52
90.0
 71
     2
 49
0.5
 62
   256
  6
BYLAYER
 49
-0.5
 62
   256
  6
BYLAYER
  0
ACDBPLACEHOLDER
  5
188
102
{ACAD_REACTORS
330
187
102
}
330
187
  0
SCALE
  5
1B7
102
{ACAD_REACTORS
330
1B6
102
}
330
1B6
100
AcDbScale
 70
     0
300
1:1
140
1.0
141
1.0
290
     1
  0
SCALE
  5
1B8
102
{ACAD_REACTORS
330
1B6
102
}
330
1B6
100
AcDbScale
 70
     0
300
1:2
140
1.0
141
2.0
290
     0
  0
SCALE
  5
1B9
102
{ACAD_REACTORS
330
1B6
102
}
330
1B6
100
AcDbScale
 70
     0
300
1:4
140
1.0
141
4.0
290
     0
  0
SCALE
  5
1BA
102
{ACAD_REACTORS
330
1B6
102
}
330
1B6
100
AcDbScale
 70
     0
300
1:5
140
1.0
141
5.0
290
     0
  0
SCALE
  5
1BB
102
{ACAD_REACTORS
330
1B6
102
}
330
1B6
100
AcDbScale
 70
     0
300
1:8
140
1.0
141
8.0
290
     0
  0
SCALE
  5
1BC
102
{ACAD_REACTORS
330
1B6
102
}
330
1B6
100
AcDbScale
 70
     0
300
1:10
140
1.0
141
10.0
290
     0
  0
SCALE
  5
1BD
102
{ACAD_REACTORS
330
1B6
102
}
330
1B6
100
AcDbScale
 70
     0
300
1:16
140
1.0
141
16.0
290
     0
  0
SCALE
  5
1BE
102
{ACAD_REACTORS
330
1B6
102
}
330
1B6
100
AcDbScale
 70
     0
300
1:20
140
1.0
141
20.0
290
     0
  0
SCALE
  5
1BF
102
{ACAD_REACTORS
330
1B6
102
}
330
1B6
100
AcDbScale
 70
     0
300
1:30
140
1.0
141
30.0
290
     0
  0
SCALE
  5
1C0
102
{ACAD_REACTORS
330
1B6
102
}
330
1B6
100
AcDbScale
 70
     0
300
1:40
140
1.0
141
40.0
290
     0
  0
SCALE
  5
1C1
102
{ACAD_REACTORS
330
1B6
102
}
330
1B6
100
AcDbScale
 70
     0
300
1:50
140
1.0
141
50.0
290
     0
  0
SCALE
  5
1C2
102
{ACAD_REACTORS
330
1B6
102
}
330
1B6
100
AcDbScale
 70
     0
300
1:100
140
1.0
141
100.0
290
     0
  0
SCALE
  5
1C3
102
{ACAD_REACTORS
330
1B6
102
}
330
1B6
100
AcDbScale
 70
     0
300
2:1
140
2.0
141
1.0
290
     0
  0
SCALE
  5
1C4
102
{ACAD_REACTORS
330
1B6
102
}
330
1B6
100
AcDbScale
 70
     0
300
4:1
140
4.0
141
1.0
290
     0
  0
SCALE
  5
1C5
102
{ACAD_REACTORS
330
1B6
102
}
330
1B6
100
AcDbScale
 70
     0
300
8:1
140
8.0
141
1.0
290
     0
  0
SCALE
  5
1C6
102
{ACAD_REACTORS
330
1B6
102
}
330
1B6
100
AcDbScale
 70
     0
300
10:1
140
10.0
141
1.0
290
     0
  0
SCALE
  5
1C7
102
{ACAD_REACTORS
330
1B6
102
}
330
1B6
100
AcDbScale
 70
     0
300
100:1
140
100.0
141
1.0
290
     0
  0
SCALE
  5
1C8
102
{ACAD_REACTORS
330
1B6
102
}
330
1B6
100
AcDbScale
 70
     0
300
1/128\" = 1\'-0\"
140
0.0078125
141
12.0
290
     0
  0
SCALE
  5
1C9
102
{ACAD_REACTORS
330
1B6
102
}
330
1B6
100
AcDbScale
 70
     0
300
1/64\" = 1\'-0\"
140
0.015625
141
12.0
290
     0
  0
SCALE
  5
1CA
102
{ACAD_REACTORS
330
1B6
102
}
330
1B6
100
AcDbScale
 70
     0
300
1/32\" = 1\'-0\"
140
0.03125
141
12.0
290
     0
  0
SCALE
  5
1CB
102
{ACAD_REACTORS
330
1B6
102
}
330
1B6
100
AcDbScale
 70
     0
300
1/16\" = 1\'-0\"
140
0.0625
141
12.0
290
     0
  0
SCALE
  5
1CC
102
{ACAD_REACTORS
330
1B6
102
}
330
1B6
100
AcDbScale
 70
     0
300
3/32\" = 1\'-0\"
140
0.09375
141
12.0
290
     0
  0
SCALE
  5
1CD
102
{ACAD_REACTORS
330
1B6
102
}
330
1B6
100
AcDbScale
 70
     0
300
1/8\" = 1\'-0\"
140
0.125
141
12.0
290
     0
  0
SCALE
  5
1CE
102
{ACAD_REACTORS
330
1B6
102
}
330
1B6
100
AcDbScale
 70
     0
300
3/16\" = 1\'-0\"
140
0.1875
141
12.0
290
     0
  0
SCALE
  5
1CF
102
{ACAD_REACTORS
330
1B6
102
}
330
1B6
100
AcDbScale
 70
     0
300
1/4\" = 1\'-0\"
140
0.25
141
12.0
290
     0
  0
SCALE
  5
1D0
102
{ACAD_REACTORS
330
1B6
102
}
330
1B6
100
AcDbScale
 70
     0
300
3/8\" = 1\'-0\"
140
0.375
141
12.0
290
     0
  0
SCALE
  5
1D1
102
{ACAD_REACTORS
330
1B6
102
}
330
1B6
100
AcDbScale
 70
     0
300
1/2\" = 1\'-0\"
140
0.5
141
12.0
290
     0
  0
SCALE
  5
1D2
102
{ACAD_REACTORS
330
1B6
102
}
330
1B6
100
AcDbScale
 70
     0
300
3/4\" = 1\'-0\"
140
0.75
141
12.0
290
     0
  0
SCALE
  5
1D3
102
{ACAD_REACTORS
330
1B6
102
}
330
1B6
100
AcDbScale
 70
     0
300
1\" = 1\'-0\"
140
1.0
141
12.0
290
     0
  0
SCALE
  5
1D4
102
{ACAD_REACTORS
330
1B6
102
}
330
1B6
100
AcDbScale
 70
     0
300
1-1/2\" = 1\'-0\"
140
1.5
141
12.0
290
     0
  0
SCALE
  5
1D5
102
{ACAD_REACTORS
330
1B6
102
}
330
1B6
100
AcDbScale
 70
     0
300
3\" = 1\'-0\"
140
3.0
141
12.0
290
     0
  0
SCALE
  5
1D6
102
{ACAD_REACTORS
330
1B6
102
}
330
1B6
100
AcDbScale
 70
     0
300
6\" = 1\'-0\"
140
6.0
141
12.0
290
     0
  0
SCALE
  5
1D7
102
{ACAD_REACTORS
330
1B6
102
}
330
1B6
100
AcDbScale
 70
     0
300
1\'-0\" = 1\'-0\"
140
12.0
141
12.0
290
     0
  0
TABLESTYLE
  5
1E8
102
{ACAD_XDICTIONARY
360
1292
102
}
102
{ACAD_REACTORS
330
1E7
102
}
330
1E7
100
AcDbTableStyle
  3
Standard
 70
     0
 71
     0
 40
0.06
 41
0.06
280
     0
281
     0
  7
STANDARD
140
0.18
170
     2
 62
     0
 63
     7
283
     0
 90
      512
 91
        0
  1

274
    -2
284
     1
 64
     0
275
    -2
285
     1
 65
     0
276
    -2
286
     1
 66
     0
277
    -2
287
     1
 67
     0
278
    -2
288
     1
 68
     0
279
    -2
289
     1
 69
     0
  7
STANDARD
140
0.25
170
     5
 62
     0
 63
     7
283
     0
 90
      512
 91
        0
  1

274
    -2
284
     1
 64
     0
275
    -2
285
     1
 65
     0
276
    -2
286
     1
 66
     0
277
    -2
287
     1
 67
     0
278
    -2
288
     1
 68
     0
279
    -2
289
     1
 69
     0
  7
STANDARD
140
0.18
170
     5
 62
     0
 63
     7
283
     0
 90
      512
 91
        0
  1

274
    -2
284
     1
 64
     0
275
    -2
285
     1
 65
     0
276
    -2
286
     1
 66
     0
277
    -2
287
     1
 67
     0
278
    -2
288
     1
 68
     0
279
    -2
289
     1
 69
     0
  0
VISUALSTYLE
  5
1A8
102
{ACAD_XDICTIONARY
360
1307
102
}
102
{ACAD_REACTORS
330
1A2
102
}
330
1A2
100
AcDbVisualStyle
  2

 70
     4
 71
     0
 72
     2
 73
     0
 90
        0
 40
-0.6
 41
-30.0
 62
     5
 63
     7
421
 16777215
 74
     1
 91
        4
 64
     7
 65
   257
 75
     1
175
     1
 42
1.0
 92
        0
 66
   257
 43
1.0
 76
     1
 77
     6
 78
     2
 67
     7
 79
     5
170
     0
171
     0
290
     0
174
     0
 93
        1
 44
0.0
173
     0
291
     0
 45
0.0
1001
ACAD
1000
AcDbSavedByObjectVersion
1070
     0
  0
VISUALSTYLE
  5
1AA
102
{ACAD_XDICTIONARY
360
130B
102
}
102
{ACAD_REACTORS
330
1A2
102
}
330
1A2
100
AcDbVisualStyle
  2

 70
     6
 71
     1
 72
     2
 73
     2
 90
        0
 40
-0.6
 41
-30.0
 62
     5
 63
     7
421
 16777215
 74
     2
 91
        2
 64
     7
 65
   257
 75
     2
175
     1
 42
179.0
 92
        0
 66
   257
 43
1.0
 76
     1
 77
     6
 78
     2
 67
     7
 79
     3
170
     0
171
     0
290
     0
174
     0
 93
        1
 44
0.0
173
     0
291
     0
 45
0.0
1001
ACAD
1000
AcDbSavedByObjectVersion
1070
     0
  0
VISUALSTYLE
  5
1A9
102
{ACAD_XDICTIONARY
360
1309
102
}
102
{ACAD_REACTORS
330
1A2
102
}
330
1A2
100
AcDbVisualStyle
  2

 70
     5
 71
     0
 72
     2
 73
     0
 90
        0
 40
-0.6
 41
-30.0
 62
     5
 63
     7
421
 16777215
 74
     1
 91
        4
 64
     7
 65
   257
 75
     1
175
     1
 42
1.0
 92
        0
 66
   257
 43
1.0
 76
     1
 77
     6
 78
     2
 67
     7
 79
     5
170
     0
171
     0
290
     0
174
     0
 93
        1
 44
0.0
173
     0
291
     0
 45
0.0
1001
ACAD
1000
AcDbSavedByObjectVersion
1070
     0
  0
VISUALSTYLE
  5
1A7
102
{ACAD_XDICTIONARY
360
1305
102
}
102
{ACAD_REACTORS
330
1A2
102
}
330
1A2
100
AcDbVisualStyle
  2

 70
     7
 71
     1
 72
     0
 73
     1
 90
        0
 40
-0.6
 41
-30.0
 62
     5
 63
     7
421
 16777215
 74
     0
 91
        4
 64
     7
 65
   257
 75
     1
175
     1
 42
1.0
 92
        8
 66
     7
 43
1.0
 76
     1
 77
     6
 78
     2
 67
     7
 79
     5
170
     0
171
     0
290
     0
174
     0
 93
        1
 44
0.0
173
     0
291
     1
 45
0.0
1001
ACAD
1000
AcDbSavedByObjectVersion
1070
     0
  0
VISUALSTYLE
  5
1AE
102
{ACAD_XDICTIONARY
360
1313
102
}
102
{ACAD_REACTORS
330
1A2
102
}
330
1A2
100
AcDbVisualStyle
  2

 70
    12
 71
     2
 72
     2
 73
     0
 90
        0
 40
-0.6
 41
-30.0
 62
     5
 63
     7
421
 16777215
 74
     1
 91
        4
 64
     7
 65
   257
 75
     1
175
     1
 42
1.0
 92
        8
 66
     7
 43
1.0
 76
     1
 77
     6
 78
     2
 67
     7
 79
     5
170
     0
171
     0
290
     0
174
     0
 93
        1
 44
50.0
173
     0
291
     1
 45
0.0
1001
ACAD
1000
AcDbSavedByObjectVersion
1070
     0
  0
VISUALSTYLE
  5
1B2
102
{ACAD_XDICTIONARY
360
131B
102
}
102
{ACAD_REACTORS
330
1A2
102
}
330
1A2
100
AcDbVisualStyle
  2

 70
    16
 71
     2
 72
     2
 73
     3
 90
        0
 40
-0.6
 41
-30.0
 62
     5
 63
     8
421
  8421504
 74
     1
 91
        4
 64
     7
 65
   257
 75
     1
175
     1
 42
1.0
 92
        8
 66
     8
424
  8421504
 43
1.0
 76
     1
 77
     6
 78
     2
 67
     7
 79
     5
170
     0
171
     0
290
     0
174
     0
 93
        1
 44
0.0
173
     0
291
     1
 45
0.0
1001
ACAD
1000
AcDbSavedByObjectVersion
1070
     0
  0
VISUALSTYLE
  5
1AB
102
{ACAD_XDICTIONARY
360
130D
102
}
102
{ACAD_REACTORS
330
1A2
102
}
330
1A2
100
AcDbVisualStyle
  2

 70
     9
 71
     3
 72
     2
 73
     0
 90
        0
 40
-0.6
 41
-30.0
 62
     5
 63
     7
421
 16777215
 74
     2
 91
        2
 64
     7
 65
   257
 75
     1
175
     1
 42
179.0
 92
        8
 66
     7
 43
1.0
 76
     1
 77
     6
 78
     2
 67
     7
 79
     3
170
     0
171
     0
290
     0
174
     0
 93
        1
 44
0.0
173
     0
291
     0
 45
0.0
1001
ACAD
1000
AcDbSavedByObjectVersion
1070
     0
  0
VISUALSTYLE
  5
1AD
102
{ACAD_XDICTIONARY
360
1311
102
}
102
{ACAD_REACTORS
330
1A2
102
}
330
1A2
100
AcDbVisualStyle
  2

 70
    11
 71
     2
 72
     2
 73
     0
 90
        0
 40
-0.6
 41
-30.0
 62
     5
 63
     7
421
 16777215
 74
     1
 91
        4
 64
     7
 65
   257
 75
     1
175
     1
 42
1.0
 92
        8
 66
     7
 43
1.0
 76
     1
 77
     6
 78
     2
 67
     7
 79
     5
170
     0
171
     0
290
     0
174
     0
 93
        1
 44
-50.0
173
     0
291
     1
 45
0.0
1001
ACAD
1000
AcDbSavedByObjectVersion
1070
     0
  0
VISUALSTYLE
  5
1B5
102
{ACAD_XDICTIONARY
360
1321
102
}
102
{ACAD_REACTORS
330
1A2
102
}
330
1A2
100
AcDbVisualStyle
  2

 70
    22
 71
     2
 72
     2
 73
     0
 90
        0
 40
-0.6
 41
-30.0
 62
     5
 63
     7
421
 16777215
 74
     1
 91
        4
 64
     7
 65
   257
 75
     1
175
     1
 42
1.0
 92
        8
 66
     7
 43
1.0
 76
     1
 77
     6
 78
     2
 67
     7
 79
     5
170
     0
171
     0
290
     0
174
     0
 93
        1
 44
0.0
173
     0
291
     1
 45
0.0
1001
ACAD
1000
AcDbSavedByObjectVersion
1070
     0
  0
VISUALSTYLE
  5
1B1
102
{ACAD_XDICTIONARY
360
1319
102
}
102
{ACAD_REACTORS
330
1A2
102
}
330
1A2
100
AcDbVisualStyle
  2

 70
    15
 71
     2
 72
     2
 73
     0
 90
        0
 40
-0.6
 41
-30.0
 62
     5
 63
     7
421
 16777215
 74
     1
 91
        4
 64
     7
 65
   257
 75
     1
175
     1
 42
1.0
 92
        8
 66
     7
 43
1.0
 76
     1
 77
     6
 78
     2
 67
     7
 79
     5
170
     0
171
     0
290
     0
174
     0
 93
        1
 44
0.0
173
     0
291
     1
 45
0.0
1001
ACAD
1000
AcDbSavedByObjectVersion
1070
     0
  0
VISUALSTYLE
  5
1A3
102
{ACAD_XDICTIONARY
360
12FD
102
}
102
{ACAD_REACTORS
330
1A2
102
}
330
1A2
100
AcDbVisualStyle
  2

 70
     0
 71
     2
 72
     1
 73
     1
 90
        2
 40
-0.6
 41
30.0
 62
     5
 63
     7
421
 16777215
 74
     0
 91
        4
 64
     7
 65
   257
 75
     1
175
     1
 42
1.0
 92
        8
 66
     7
 43
1.0
 76
     1
 77
     6
 78
     2
 67
     7
 79
     5
170
     0
171
     0
290
     0
174
     0
 93
       13
 44
0.0
173
     0
291
     1
 45
0.0
1001
ACAD
1000
AcDbSavedByObjectVersion
1070
     0
  0
VISUALSTYLE
  5
1A4
102
{ACAD_XDICTIONARY
360
12FF
102
}
102
{ACAD_REACTORS
330
1A2
102
}
330
1A2
100
AcDbVisualStyle
  2

 70
     1
 71
     2
 72
     1
 73
     1
 90
        2
 40
-0.6
 41
30.0
 62
     5
 63
     7
421
 16777215
 74
     1
 91
        4
 64
     7
 65
   257
 75
     1
175
     1
 42
1.0
 92
        0
 66
   257
 43
1.0
 76
     1
 77
     6
 78
     2
 67
     7
 79
     5
170
     0
171
     0
290
     0
174
     0
 93
       13
 44
0.0
173
     0
291
     1
 45
0.0
1001
ACAD
1000
AcDbSavedByObjectVersion
1070
     0
  0
VISUALSTYLE
  5
1A5
102
{ACAD_XDICTIONARY
360
1301
102
}
102
{ACAD_REACTORS
330
1A2
102
}
330
1A2
100
AcDbVisualStyle
  2

 70
     2
 71
     2
 72
     2
 73
     1
 90
        2
 40
-0.6
 41
30.0
 62
     5
 63
     7
421
 16777215
 74
     0
 91
        4
 64
     7
 65
   257
 75
     1
175
     1
 42
1.0
 92
        0
 66
     7
 43
1.0
 76
     1
 77
     6
 78
     2
 67
     7
 79
     5
170
     0
171
     0
290
     0
174
     0
 93
       13
 44
0.0
173
     0
291
     1
 45
0.0
1001
ACAD
1000
AcDbSavedByObjectVersion
1070
     0
  0
VISUALSTYLE
  5
1A6
102
{ACAD_XDICTIONARY
360
1303
102
}
102
{ACAD_REACTORS
330
1A2
102
}
330
1A2
100
AcDbVisualStyle
  2

 70
     3
 71
     2
 72
     2
 73
     1
 90
        2
 40
-0.6
 41
30.0
 62
     5
 63
     7
421
 16777215
 74
     1
 91
        4
 64
     7
 65
   257
 75
     1
175
     1
 42
1.0
 92
        0
 66
   257
 43
1.0
 76
     1
 77
     6
 78
     2
 67
     7
 79
     5
170
     0
171
     0
290
     0
174
     0
 93
       13
 44
0.0
173
     0
291
     1
 45
0.0
1001
ACAD
1000
AcDbSavedByObjectVersion
1070
     0
  0
VISUALSTYLE
  5
1B3
102
{ACAD_XDICTIONARY
360
131D
102
}
102
{ACAD_REACTORS
330
1A2
102
}
330
1A2
100
AcDbVisualStyle
  2

 70
    20
 71
     2
 72
     2
 73
     0
 90
        0
 40
-0.6
 41
-30.0
 62
     5
 63
     7
421
 16777215
 74
     1
 91
        4
 64
     7
 65
   257
 75
     1
175
     1
 42
1.0
 92
       10
 66
     7
 43
1.0
 76
     1
 77
     6
 78
     2
 67
     7
 79
     5
170
     0
171
     0
290
     0
174
     0
 93
        1
 44
0.0
173
     0
291
     1
 45
0.0
1001
ACAD
1000
AcDbSavedByObjectVersion
1070
     0
  0
VISUALSTYLE
  5
1B0
102
{ACAD_XDICTIONARY
360
1317
102
}
102
{ACAD_REACTORS
330
1A2
102
}
330
1A2
100
AcDbVisualStyle
  2

 70
    14
 71
     2
 72
     2
 73
     0
 90
        0
 40
-0.6
 41
-30.0
 62
     5
 63
     7
421
 16777215
 74
     1
 91
        4
 64
     7
 65
   257
 75
     7
175
     7
 42
1.0
 92
        8
 66
     7
 43
1.0
 76
     1
 77
     6
 78
     2
 67
     7
 79
     5
170
     0
171
     0
290
     0
174
     0
 93
        1
 44
0.0
173
     0
291
     1
 45
0.0
1001
ACAD
1000
AcDbSavedByObjectVersion
1070
     0
  0
VISUALSTYLE
  5
1B4
102
{ACAD_XDICTIONARY
360
131F
102
}
102
{ACAD_REACTORS
330
1A2
102
}
330
1A2
100
AcDbVisualStyle
  2

 70
    21
 71
     2
 72
     2
 73
     0
 90
        0
 40
-0.6
 41
-30.0
 62
     5
 63
     7
421
 16777215
 74
     1
 91
        4
 64
     7
 65
   257
 75
     1
175
     1
 42
1.0
 92
        9
 66
     7
 43
1.0
 76
     1
 77
     6
 78
     2
 67
     7
 79
     5
170
     0
171
     0
290
     0
174
     0
 93
        1
 44
0.0
173
     0
291
     1
 45
0.0
1001
ACAD
1000
AcDbSavedByObjectVersion
1070
     0
  0
VISUALSTYLE
  5
1AC
102
{ACAD_XDICTIONARY
360
130F
102
}
102
{ACAD_REACTORS
330
1A2
102
}
330
1A2
100
AcDbVisualStyle
  2

 70
     8
 71
     2
 72
     2
 73
     0
 90
        0
 40
-0.6
 41
-30.0
 62
     5
 63
     7
421
 16777215
 74
     1
 91
        0
 64
     7
 65
   257
 75
     1
175
     1
 42
1.0
 92
        8
 66
     8
424
  7895160
 43
1.0
 76
     1
 77
     6
 78
     2
 67
     7
 79
     5
170
     0
171
     0
290
     0
174
     0
 93
       13
 44
0.0
173
     0
291
     0
 45
0.0
1001
ACAD
1000
AcDbSavedByObjectVersion
1070
     0
  0
VISUALSTYLE
  5
1AF
102
{ACAD_XDICTIONARY
360
1315
102
}
102
{ACAD_REACTORS
330
1A2
102
}
330
1A2
100
AcDbVisualStyle
  2

 70
    13
 71
     2
 72
     2
 73
     0
 90
        0
 40
-0.6
 41
-30.0
 62
     5
 63
     7
421
 16777215
 74
     1
 91
        4
 64
     7
 65
   257
 75
     1
175
     1
 42
1.0
 92
       12
 66
     7
 43
1.0
 76
     1
 77
     6
 78
     2
 67
     7
 79
     5
170
     0
171
     0
290
     0
174
     0
 93
        1
 44
0.0
173
     0
291
     1
 45
0.0
1001
ACAD
1000
AcDbSavedByObjectVersion
1070
     0
  0
DICTIONARYVAR
  5
222
102
{ACAD_REACTORS
330
21E
102
}
330
21E
100
DictionaryVariables
280
     0
  1
1:1
  0
DICTIONARYVAR
  5
220
102
{ACAD_REACTORS
330
21E
102
}
330
21E
100
DictionaryVariables
280
     0
  1
STANDARD
  0
DICTIONARYVAR
  5
21F
102
{ACAD_REACTORS
330
21E
102
}
330
21E
100
DictionaryVariables
280
     0
  1
STANDARD
  0
DICTIONARYVAR
  5
224
102
{ACAD_REACTORS
330
21E
102
}
330
21E
100
DictionaryVariables
280
     0
  1
1
  0
DICTIONARYVAR
  5
225
102
{ACAD_REACTORS
330
21E
102
}
330
21E
100
DictionaryVariables
280
     0
  1
15
  0
DICTIONARYVAR
  5
223
102
{ACAD_REACTORS
330
21E
102
}
330
21E
100
DictionaryVariables
280
     0
  1
0
  0
DICTIONARYVAR
  5
221
102
{ACAD_REACTORS
330
21E
102
}
330
21E
100
DictionaryVariables
280
     0
  1
0
  0
DICTIONARYVAR
  5
12FA
102
{ACAD_REACTORS
330
21E
102
}
330
21E
100
DictionaryVariables
280
     0
  1
2
  0
DICTIONARY
  5
69F
330
1F2
100
AcDbDictionary
280
     1
281
     1
  3
ADSK_XREC_LAYOUTTHUMBNAIL
360
6A0
  0
DICTIONARY
  5
193
330
192
100
AcDbDictionary
280
     1
281
     1
  3
BUMPTILE
360
195
  3
DIFFUSETILE
360
194
  3
OPACITYTILE
360
198
  3
REFLECTIONTILE
360
197
  3
REFRACTIONTILE
360
199
  3
SPECULARTILE
360
196
  0
DICTIONARY
  5
18B
330
18A
100
AcDbDictionary
280
     1
281
     1
  3
BUMPTILE
360
18D
  3
DIFFUSETILE
360
18C
  3
OPACITYTILE
360
190
  3
REFLECTIONTILE
360
18F
  3
REFRACTIONTILE
360
191
  3
SPECULARTILE
360
18E
  0
DICTIONARY
  5
19B
330
19A
100
AcDbDictionary
280
     1
281
     1
  3
BUMPTILE
360
19D
  3
DIFFUSETILE
360
19C
  3
OPACITYTILE
360
1A0
  3
REFLECTIONTILE
360
19F
  3
REFRACTIONTILE
360
1A1
  3
SPECULARTILE
360
19E
  0
DICTIONARY
  5
1292
330
1E8
100
AcDbDictionary
280
     1
281
     1
  3
ACAD_ROUNDTRIP_2008_TABLESTYLE_CELLSTYLEMAP
360
12FB
  0
DICTIONARY
  5
1307
330
1A8
100
AcDbDictionary
280
     1
281
     1
  3
ACAD_XREC_ROUNDTRIP
360
1308
  0
DICTIONARY
  5
130B
330
1AA
100
AcDbDictionary
280
     1
281
     1
  3
ACAD_XREC_ROUNDTRIP
360
130C
  0
DICTIONARY
  5
1309
330
1A9
100
AcDbDictionary
280
     1
281
     1
  3
ACAD_XREC_ROUNDTRIP
360
130A
  0
DICTIONARY
  5
1305
330
1A7
100
AcDbDictionary
280
     1
281
     1
  3
ACAD_XREC_ROUNDTRIP
360
1306
  0
DICTIONARY
  5
1313
330
1AE
100
AcDbDictionary
280
     1
281
     1
  3
ACAD_XREC_ROUNDTRIP
360
1314
  0
DICTIONARY
  5
131B
330
1B2
100
AcDbDictionary
280
     1
281
     1
  3
ACAD_XREC_ROUNDTRIP
360
131C
  0
DICTIONARY
  5
130D
330
1AB
100
AcDbDictionary
280
     1
281
     1
  3
ACAD_XREC_ROUNDTRIP
360
130E
  0
DICTIONARY
  5
1311
330
1AD
100
AcDbDictionary
280
     1
281
     1
  3
ACAD_XREC_ROUNDTRIP
360
1312
  0
DICTIONARY
  5
1321
330
1B5
100
AcDbDictionary
280
     1
281
     1
  3
ACAD_XREC_ROUNDTRIP
360
1322
  0
DICTIONARY
  5
1319
330
1B1
100
AcDbDictionary
280
     1
281
     1
  3
ACAD_XREC_ROUNDTRIP
360
131A
  0
DICTIONARY
  5
12FD
330
1A3
100
AcDbDictionary
280
     1
281
     1
  3
ACAD_XREC_ROUNDTRIP
360
12FE
  0
DICTIONARY
  5
12FF
330
1A4
100
AcDbDictionary
280
     1
281
     1
  3
ACAD_XREC_ROUNDTRIP
360
1300
  0
DICTIONARY
  5
1301
330
1A5
100
AcDbDictionary
280
     1
281
     1
  3
ACAD_XREC_ROUNDTRIP
360
1302
  0
DICTIONARY
  5
1303
330
1A6
100
AcDbDictionary
280
     1
281
     1
  3
ACAD_XREC_ROUNDTRIP
360
1304
  0
DICTIONARY
  5
131D
330
1B3
100
AcDbDictionary
280
     1
281
     1
  3
ACAD_XREC_ROUNDTRIP
360
131E
  0
DICTIONARY
  5
1317
330
1B0
100
AcDbDictionary
280
     1
281
     1
  3
ACAD_XREC_ROUNDTRIP
360
1318
  0
DICTIONARY
  5
131F
330
1B4
100
AcDbDictionary
280
     1
281
     1
  3
ACAD_XREC_ROUNDTRIP
360
1320
  0
DICTIONARY
  5
130F
330
1AC
100
AcDbDictionary
280
     1
281
     1
  3
ACAD_XREC_ROUNDTRIP
360
1310
  0
DICTIONARY
  5
1315
330
1AF
100
AcDbDictionary
280
     1
281
     1
  3
ACAD_XREC_ROUNDTRIP
360
1316
  0
XRECORD
  5
6A0
102
{ACAD_REACTORS
330
69F
102
}
330
69F
100
AcDbXrecord
280
     1
310
280000000001000092000000010008000000000000920000000000000000000000010000000000000000000000000000FFFFFF000000000000000000000000000000000000000000000000000000000000000000330000006600000099000000CC000000FF00000000330000333300006633000099330000CC330000FF3300
310
0000660000336600006666000099660000CC660000FF66000000990000339900006699000099990000CC990000FF99000000CC000033CC000066CC000099CC0000CCCC0000FFCC000000FF000033FF000066FF000099FF0000CCFF0000FFFF000000003300330033006600330099003300CC003300FF003300003333003333
310
33006633330099333300CC333300FF33330000663300336633006666330099663300CC663300FF66330000993300339933006699330099993300CC993300FF99330000CC330033CC330066CC330099CC3300CCCC3300FFCC330000FF330033FF330066FF330099FF3300CCFF3300FFFF330000006600330066006600660099
310
006600CC006600FF00660000336600333366006633660099336600CC336600FF33660000666600336666006666660099666600CC666600FF66660000996600339966006699660099996600CC996600FF99660000CC660033CC660066CC660099CC6600CCCC6600FFCC660000FF660033FF660066FF660099FF6600CCFF6600
310
FFFF660000009900330099006600990099009900CC009900FF00990000339900333399006633990099339900CC339900FF33990000669900336699006666990099669900CC669900FF66990000999900339999006699990099999900CC999900FF99990000CC990033CC990066CC990099CC9900CCCC9900FFCC990000FF99
310
0033FF990066FF990099FF9900CCFF9900FFFF99000000CC003300CC006600CC009900CC00CC00CC00FF00CC000033CC003333CC006633CC009933CC00CC33CC00FF33CC000066CC003366CC006666CC009966CC00CC66CC00FF66CC000099CC003399CC006699CC009999CC00CC99CC00FF99CC0000CCCC0033CCCC0066CC
310
CC0099CCCC00CCCCCC00FFCCCC0000FFCC0033FFCC0066FFCC0099FFCC00CCFFCC00FFFFCC000000FF003300FF006600FF009900FF00CC00FF00FF00FF000033FF003333FF006633FF009933FF00CC33FF00FF33FF000066FF003366FF006666FF009966FF00CC66FF00FF66FF000099FF003399FF006699FF009999FF00CC
310
99FF00FF99FF0000CCFF0033CCFF0066CCFF0099CCFF00CCCCFF00FFCCFF0000FFFF0033FFFF0066FFFF0099FFFF00CCFFFF00FFFFFF00000000000D0D0D001A1A1A00282828003535350043434300505050005D5D5D006B6B6B00787878008686860093939300A1A1A100AEAEAE00BBBBBB00C9C9C900D6D6D600E4E4E400
310
F1F1F100FFFFFF0000000000000000000000000000000000000000000000000000000000000000000000000000000000E2E2E2E2E2E2E2E2E2E2E2E2E2E2E2E2E2E2E2E2E2E2E2E2E2E2E2E2E2E2E2E2E2E2E2E2E2E2E2E2E2E2E2E2E2E2E2E2E2E2E2E2E2E2E2E2E2E2E2E2E2E2E2E2E2E2E2E2E2E2E2E2E2E2E2E2E2E2E2
310
E2E2E2E2E2E2E2E2E2E2E2E2E2E2E2E2E2E2E2E2E2E2E2E2E2E2E2E2E2E2E2E2E2E2E2E2E2E2E2E2E2E2E2E2E2E2E2E2E2E2E2E2E2E2E2E2E2E2E2E2E2E2E2E2E2E2E2E2E2E2E2E2E2E2E2E2E2E2E2E2E2E2E2E2E2E2E2E2E2E2E2E2E2E2E2E2E2E2E2E2E2E2E2E2E2E2E2E2E2E2E2E2E2E2E2E2E2E2E2E2E2E2E2E2E2E2E2
310
E2E2E2E2E2E2E2E2E2E2E2E2E2E2E2E2E2E2E2E2E2E2E2E2E2E2E2E2E2E2E2E2E2E2E2E2E2E2E2E2E2E2E2E2E2E2E2E2E2E2E2E2E2E2E2E2E2E2E2E2E2E2E2E2E2E2E2E2E2E2E2E2E2E2E2E2E2E2E2E2E2E2E2E2E2E2E2E2E2E2E2E2E2E2E2E2E2E2E2E2E2E2E2E2E2E2E2E2E2E2E2E2E2E2E2E2E2E2E2E2E2E2E2E2E2E2E2
310
E2E2E2E2E2E2E2E2E2E2E2E2E2E2E2E2E2E2E2E2E2E2E2E2E2E2E2E2E2E2E2E2E2E2E2E2E2E2E2E2F5F5F5F5F5F5F5F5F5F5F5F5F5F5F5F5F5F5F5F5F5F5E2E2E2E2E2E2E2E2E2E2E2E2E2E2E2E2E2E2E2E2E2E2E2E2E2E2E2E2E2E2E2E2E2E2E2E2E2E2E2E2E2E2E2E2E2E2E2E2E2E2E2E2E2E2E2E2E2E2E2E2E2E2E2E2E2
310
E2E2E2E2E2E2E2E2E2E2E2E2E2E2E2E2E2E2E2E2E2E2E2E2E2E2E2E2E2E2E2E2E2E2E2E2E2E2E2E2E2E2E2E2E2E2E2E2E2E2E2E2E2E2E2E2E2E2E2E2E2E2E2E2E2E2E2E2E2E2E2E2E2E2E2E2E2E2E2E2E2E2E2E2E2E2E2E2E2E2E2E2E2E2E2E2E2E2E2E2E2E2E2E2E2E2E2E2E2E2E2E2E2E2E2E2E2E2E2E2E2E2E2E2E2E2E2
310
E2E2E2E2E2E2E2E2E2E2E2E2E2E2E2E2E2E2E2E2E2E2E2E2E2E2E2E2E2E2E2E2E2E2E2E2E2F5F5F5F5F5E2E2E2E2E2E2E2E2E2E2E2E2E2E2E2E2E2E2E2E2E2E2F5F5F5F5F5E2E2E2E2E2E2E2E2E2E2E2E2E2E2E2E2E2E2E2E2E2E2E2E2E2E2E2E2E2E2E2E2E2E2E2E2E2E2E2E2E2E2E2E2E2E2E2E2E2E2E2E2E2E2E2E2E2E2
310
E2E2E2E2E2E2E2E2E2E2E2E2E2E2E2E2E2E2E2E2E2E2E2E2E2E2E2E2E2E2E2E2E2E2E2E2E2E2E2E2E2E2E2E2E2E2E2E2E2E2E2E2E2E2E2E2E2E2E2E2E2E2E2E2E2E2E2E2E2E2E2E2E2E2E2E2E2E2E2E2E2E2E2E2E2E2E2E2E2E2E2E2E2E2E2E2E2E2E2E2E2E2E2E2E2E2E2E2E2E2E2E2E2E2E2E2E2E2E2E2E2E2E2E2E2E2E2
310
E2E2E2E2E2E2E2E2E2E2E2E2E2E2E2E2E2E2E2E2E2E2E2E2E2E2E2E2E2E2E2E2E2E2F5F5F5F5F5E2E2E2E2E2E2E2E2F5F5F5F5F5F5F5F5F5F5F5F5F5E2E2F5F5F5E2E2E2E2E2E2F5F5F5F5F5E2E2E2E2E2E2E2E2E2E2E2E2E2E2E2E2E2E2E2E2E2E2E2E2E2E2E2E2E2E2E2E2E2E2E2E2E2E2E2E2E2E2E2E2E2E2E2E2E2E2E2
310
E2E2E2E2E2E2E2E2E2E2E2E2E2E2E2E2E2E2E2E2E2E2E2E2E2E2E2E2E2E2E2E2E2E2E2E2E2E2E2E2E2E2E2E2E2E2E2E2E2E2E2E2E2E2E2E2E2E2E2E2E2E2E2E2E2E2E2E2E2E2E2E2E2E2E2E2E2E2E2E2E2E2E2E2E2E2E2E2E2E2E2E2E2E2E2E2E2E2E2E2E2E2E2E2E2E2E2E2E2E2E2E2E2E2E2E2E2E2E2E2E2E2E2E2E2E2E2
310
E2E2E2E2E2E2E2E2E2E2E2E2E2E2E2E2E2E2E2E2E2E2E2E2E2E2E2E2E2E2E2E2E2F5F5F5E2E2E2E2E2E2F5F5F5F5F5F5F5E2E2E2E2E2E2E2E2E2E2E2E2F5E2E2F5E2E2F5F5F5F5F5E2E2E2E2E2E2F5F5F5E2E2E2E2E2E2E2E2E2E2E2E2E2E2E2E2E2E2E2E2E2E2E2E2E2E2E2E2E2E2E2E2E2E2E2E2E2E2E2E2E2E2E2E2E2E2
310
E2E2E2E2E2E2E2E2E2E2E2E2E2E2E2E2E2E2E2E2E2E2E2E2E2E2E2E2E2E2E2E2E2E2E2E2E2E2E2E2E2E2E2E2E2E2E2E2E2E2E2E2E2E2E2E2E2E2E2E2E2E2E2E2E2E2E2E2E2E2E2E2E2E2E2E2E2E2E2E2E2E2E2E2E2E2E2E2E2E2E2E2E2E2E2E2E2E2E2E2E2E2E2E2E2E2E2E2E2E2E2E2E2E2E2E2E2E2E2E2E2E2E2E2E2E2E2
310
E2E2E2E2E2E2E2E2E2E2E2E2E2E2E2E2E2E2E2E2E2E2E2E2E2E2E2E2E2E2E2E2E2E2F5E2E2E2E2E2E2F5E2E2F5E2E2E2E2E2E2E2E2E2E2E2E2F5F5F5F5E2E2F5E2E2F5E2E2E2E2E2E2E2F5F5F5E2E2E2E2E2E2F5E2E2E2E2E2E2E2E2E2E2E2E2E2E2E2E2E2E2E2E2E2E2E2E2E2E2E2E2E2E2E2E2E2E2E2E2E2E2E2E2E2E2E2
310
E2E2E2E2E2E2E2E2E2E2E2E2E2E2E2E2E2E2E2E2E2E2E2E2E2E2E2E2E2E2E2E2E2E2E2E2E2E2E2E2E2E2E2E2E2E2E2E2E2E2E2E2E2E2E2E2E2E2E2E2E2E2E2E2E2E2E2E2E2E2E2E2E2E2E2E2E2E2E2E2E2E2E2E2E2E2E2E2E2E2E2E2E2E2E2E2E2E2E2E2E2E2E2E2E2E2E2E2E2E2E2E2E2E2E2E2E2E2E2E2E2E2E2E2E2E2E2
310
E2E2E2E2E2E2E2E2E2E2E2E2E2E2E2E2E2E2E2E2E2E2E2E2E2E2E2E2E2E2E2E2F5F5F5F5E2E2E2E2F5F5F5F5E2E2F5E2E2E2F5F5F5F5F5F5F5F5F5E2E2E2F5E2E2F5E2E2F5E2E2F5F5E2E2E2E2E2E2F5F5F5E2E2E2E2F5F5F5F5E2E2E2E2E2E2E2E2E2E2E2E2E2E2E2E2E2E2E2E2E2E2E2E2E2E2E2E2E2E2E2E2E2E2E2E2E2
310
E2E2E2E2E2E2E2E2E2E2E2E2E2E2E2E2E2E2E2E2E2E2E2E2E2E2E2E2E2E2E2E2E2E2E2E2E2E2E2E2E2E2E2E2E2E2E2E2E2E2E2E2E2E2E2E2E2E2E2E2E2E2E2E2E2E2E2E2E2E2E2E2E2E2E2E2E2E2E2E2E2E2E2E2E2E2E2E2E2E2E2E2E2E2E2E2E2E2E2E2E2E2E2E2E2E2E2E2E2E2E2E2E2E2E2E2E2E2E2E2E2E2E2E2E2E2E2
310
E2E2E2E2E2E2E2E2E2E2E2E2E2E2E2E2E2E2E2E2E2E2E2E2E2E2E2E2E2E2E2E2E2F5E2E2E2E2F5F5F5F5E2E2E2F5E2E2F5E2E2E2F5E2E2E2E2E2E2E2E2E2E2E2F5E2E2F5E2F5E2E2E2F5E2F5F5F5F5F5E2E2E2E2F5F5F5F5E2E2E2E2F5E2E2E2E2E2E2E2E2E2E2E2E2E2E2E2E2E2E2E2E2E2E2E2E2E2E2E2E2E2E2E2E2E2E2
310
E2E2E2E2E2E2E2E2E2E2E2E2E2E2E2E2E2E2E2E2E2E2E2E2E2E2E2E2E2E2E2E2E2E2E2E2E2E2E2E2E2E2E2E2E2E2E2E2E2E2E2E2E2E2E2E2E2E2E2E2E2E2E2E2E2E2E2E2E2E2E2E2E2E2E2E2E2E2E2E2E2E2E2E2E2E2E2E2E2E2E2E2E2E2E2E2E2E2E2E2E2E2E2E2E2E2E2E2E2E2E2E2E2E2E2E2E2E2E2E2E2E2E2E2E2E2E2
310
E2E2E2E2E2E2E2E2E2E2E2E2E2E2E2E2E2E2E2E2E2E2E2E2E2E2E2E2E2E2E2E2F5F5F5E2E2F5F5F5E2E2E2E2E2F5E2E2F5E2E2F5E2E2F5E2E2E2E2E2E2E2E2E2E2E2F5E2F5E2E2F5E2E2E2F5E2E2E2E2E2E2F5F5F5E2E2E2E2E2F5E2E2E2E2F5F5F5E2E2E2E2E2E2E2E2E2E2E2E2E2E2E2E2E2E2E2E2E2E2E2E2E2E2E2E2E2
310
E2E2E2E2E2E2E2E2E2E2E2E2E2E2E2E2E2E2E2E2E2E2E2E2E2E2E2E2E2E2E2E2E2E2E2E2E2E2E2E2E2E2E2E2E2E2E2E2E2E2E2E2E2E2E2E2E2E2E2E2E2E2E2E2E2E2E2E2E2E2E2E2E2E2E2E2E2E2E2E2E2E2E2E2E2E2E2E2E2E2E2E2E2E2E2E2E2E2E2E2E2E2E2E2E2E2E2E2E2E2E2E2E2E2E2E2E2E2E2E2E2E2E2E2E2E2E2
310
E2E2E2E2E2E2E2E2E2E2E2E2E2E2E2E2E2E2E2E2E2E2E2E2E2E2E2E2E2E2E2E2F5F5E2E2E2E2F5E2E2E2E2E2F5F5F5F5E2E2F5E2E2F5E2E2F5E2E2E2E2E2F5F5F5F5F5F5F5E2F5E2E2F5E2E2F5E2E2E2E2E2E2E2E2E2E2F5F5F5E2E2F5E2E2F5E2E2E2E2F5F5E2E2E2E2E2E2E2E2E2E2E2E2E2E2E2E2E2E2E2E2E2E2E2E2E2
310
E2E2E2E2E2E2E2E2E2E2E2E2E2E2E2E2E2E2E2E2E2E2E2E2E2E2E2E2E2E2E2E2E2E2E2E2E2E2E2E2E2E2E2E2E2E2E2E2E2E2E2E2E2E2E2E2E2E2E2E2E2E2E2E2E2E2E2E2E2E2E2E2E2E2E2E2E2E2E2E2E2E2E2E2E2E2E2E2E2E2E2E2E2E2E2E2E2E2E2E2E2E2E2E2E2E2E2E2E2E2E2E2E2E2E2E2E2E2E2E2E2E2E2E2E2E2E2
310
E2E2E2E2E2E2E2E2E2E2E2E2E2E2E2E2E2E2E2E2E2E2E2E2E2E2E2E2E2E2E2E2E2F5E2E2E2E2F5F5E2E2E2F5F5F5E2E2E2E2F5E2F5E2E2F5E2E2E2F5E2E2E2E2F5E2E2E2E2E2E2E2F5E2E2F5E2E2F5E2E2E2E2E2E2E2E2E2E2E2E2F5E2F5E2E2E2F5F5F5F5E2E2E2F5E2E2E2E2E2E2E2E2E2E2E2E2E2E2E2E2E2E2E2E2E2E2
310
E2E2E2E2E2E2E2E2E2E2E2E2E2E2E2E2E2E2E2E2E2E2E2E2E2E2E2E2E2E2E2E2E2E2E2E2E2E2E2E2E2E2E2E2E2E2E2E2E2E2E2E2E2E2E2E2E2E2E2E2E2E2E2E2E2E2E2E2E2E2E2E2E2E2E2E2E2E2E2E2E2E2E2E2E2E2E2E2E2E2E2E2E2E2E2E2E2E2E2E2E2E2E2E2E2E2E2E2E2E2E2E2E2E2E2E2E2E2E2E2E2E2E2E2E2E2E2
310
E2E2E2E2E2E2E2E2E2E2E2E2E2E2E2E2E2E2E2E2E2E2E2E2E2E2E2E2E2E2E2E2E2F5F5E2E2F5F5F5E2E2E2E2F5E2E2E2E2E2E2E2F5E2F5E2E2F5E2E2E2F5E2E2E2E2F5E2E2E2E2E2E2E2F5E2E2F5E2E2F5E2E2E2E2E2F5F5E2E2E2E2E2F5E2F5E2E2F5E2E2E2E2F5F5E2E2F5F5E2E2E2E2E2E2E2E2E2E2E2E2E2E2E2E2E2E2
310
E2E2E2E2E2E2E2E2E2E2E2E2E2E2E2E2E2E2E2E2E2E2E2E2E2E2E2E2E2E2E2E2E2E2E2E2E2E2E2E2E2E2E2E2E2E2E2E2E2E2E2E2E2E2E2E2E2E2E2E2E2E2E2E2E2E2E2E2E2E2E2E2E2E2E2E2E2E2E2E2E2E2E2E2E2E2E2E2E2E2E2E2E2E2E2E2E2E2E2E2E2E2E2E2E2E2E2E2E2E2E2E2E2E2E2E2E2E2E2E2E2E2E2E2E2E2E2
310
E2E2E2E2E2E2E2E2E2E2E2E2E2E2E2E2E2E2E2E2E2E2E2E2E2E2E2E2E2E2E2E2E2E2F5E2E2F5F5E2E2E2E2F5F5F5E2E2E2E2E2E2E2F5F5E2E2F5E2F5E2E2E2F5E2E2E2E2F5E2E2F5F5F5F5F5F5E2E2F5E2E2F5E2E2E2E2E2F5E2F5F5F5E2F5E2E2F5E2E2F5E2E2E2E2E2E2F5E2E2E2F5E2E2E2E2E2E2E2E2E2E2E2E2E2E2E2
310
E2E2E2E2E2E2E2E2E2E2E2E2E2E2E2E2E2E2E2E2E2E2E2E2E2E2E2E2E2E2E2E2E2E2E2E2E2E2E2E2E2E2E2E2E2E2E2E2E2E2E2E2E2E2E2E2E2E2E2E2E2E2E2E2E2E2E2E2E2E2E2E2E2E2E2E2E2E2E2E2E2E2E2E2E2E2E2E2E2E2E2E2E2E2E2E2E2E2E2E2E2E2E2E2E2E2E2E2E2E2E2E2E2E2E2E2E2E2E2E2E2E2E2E2E2E2E2
310
E2E2E2E2E2E2E2E2E2E2E2E2E2E2E2E2E2E2E2E2E2E2E2E2E2E2E2E2E2E2E2E2E2E2F5F5E2E2E2E2F5E2E2E2F5E2E2E2E2E2E2E2F5F5F5E2E2E2E2F5E2F5E2E2E2F5E2E2E2E2F5E2E2F5E2E2E2E2E2E2E2F5E2E2F5E2E2E2E2E2F5E2E2E2E2F5F5E2F5E2E2F5E2E2E2F5F5E2E2E2F5F5E2E2F5F5E2E2E2E2E2E2E2E2E2E2E2
310
E2E2E2E2E2E2E2E2E2E2E2E2E2E2E2E2E2E2E2E2E2E2E2E2E2E2E2E2E2E2E2E2E2E2E2E2E2E2E2E2E2E2E2E2E2E2E2E2E2E2E2E2E2E2E2E2E2E2E2E2E2E2E2E2E2E2E2E2E2E2E2E2E2E2E2E2E2E2E2E2E2E2E2E2E2E2E2E2E2E2E2E2E2E2E2E2E2E2E2E2E2E2E2E2E2E2E2E2E2E2E2E2E2E2E2E2E2E2E2E2E2E2E2E2E2E2E2
310
E2E2E2E2E2E2E2E2E2E2E2E2E2E2E2E2E2E2E2E2E2E2E2E2E2E2E2E2E2E2E2E2E2E2E2F5E2E2E2F5E2E2F5E2E2E2F5E2E2E2E2E2E2F5E2E2E2E2E2E2F5F5E2E2F5E2E2F5E2E2E2E2E2F5E2F5E2E2E2E2E2E2E2F5E2E2F5E2E2E2E2F5E2E2E2E2E2E2E2E2F5E2E2F5E2E2F5E2E2F5F5E2E2E2F5E2E2E2F5E2E2E2E2E2E2E2E2
310
E2E2E2E2E2E2E2E2E2E2E2E2E2E2E2E2E2E2E2E2E2E2E2E2E2E2E2E2E2E2E2E2E2E2E2E2E2E2E2E2E2E2E2E2E2E2E2E2E2E2E2E2E2E2E2E2E2E2E2E2E2E2E2E2E2E2E2E2E2E2E2E2E2E2E2E2E2E2E2E2E2E2E2E2E2E2E2E2E2E2E2E2E2E2E2E2E2E2E2E2E2E2E2E2E2E2E2E2E2E2E2E2E2E2E2E2E2E2E2E2E2E2E2E2E2E2E2
310
E2E2E2E2E2E2E2E2E2E2E2E2E2E2E2E2E2E2E2E2E2E2E2E2E2E2E2E2E2E2E2E2E2E2E2E2F5E2E2E2F5E2F5E2E2F5E2E2E2F5E2E2E2E2E2F5E2E2F5F5F5F5E2E2E2E2F5E2E2F5E2E2E2E2E2F5E2F5F5F5F5F5F5E2F5E2E2F5E2E2E2E2E2F5E2E2F5F5F5E2E2F5E2E2F5E2E2E2F5E2E2E2E2F5E2E2E2F5F5E2E2F5E2E2E2E2E2
310
E2E2E2E2E2E2E2E2E2E2E2E2E2E2E2E2E2E2E2E2E2E2E2E2E2E2E2E2E2E2E2E2E2E2E2E2E2E2E2E2E2E2E2E2E2E2E2E2E2E2E2E2E2E2E2E2E2E2E2E2E2E2E2E2E2E2E2E2E2E2E2E2E2E2E2E2E2E2E2E2E2E2E2E2E2E2E2E2E2E2E2E2E2E2E2E2E2E2E2E2E2E2E2E2E2E2E2E2E2E2E2E2E2E2E2E2E2E2E2E2E2E2E2E2E2E2E2
310
E2E2E2E2E2E2E2E2E2E2E2E2E2E2E2E2E2E2E2E2E2E2E2E2E2E2E2E2E2E2E2E2E2E2E2E2F5F5E2E2F5F5E2E2F5E2E2E2F5E2E2F5E2E2E2E2E2E2F5E2F5E2E2E2E2E2E2F5F5E2E2E2F5E2E2E2E2F5E2E2E2E2E2E2F5E2F5E2E2F5E2E2E2E2E2F5E2E2F5E2E2F5F5F5E2E2F5E2E2F5E2E2E2E2E2E2F5F5F5E2E2F5E2E2F5F5E2
310
E2E2E2E2E2E2E2E2E2E2E2E2E2E2E2E2E2E2E2E2E2E2E2E2E2E2E2E2E2E2E2E2E2E2E2E2E2E2E2E2E2E2E2E2E2E2E2E2E2E2E2E2E2E2E2E2E2E2E2E2E2E2E2E2E2E2E2E2E2E2E2E2E2E2E2E2E2E2E2E2E2E2E2E2E2E2E2E2E2E2E2E2E2E2E2E2E2E2E2E2E2E2E2E2E2E2E2E2E2E2E2E2E2E2E2E2E2E2E2E2E2E2E2E2E2E2E2
310
E2E2E2E2E2E2E2E2E2E2E2E2E2E2E2E2E2E2E2E2E2E2E2E2E2E2E2E2E2E2E2E2E2E2E2E2E2F5E2E2E2F5E2E2F5E2E2F5E2E2F5E2E2E2F5E2E2E2E2E2F5E2E2F5E2E2F5F5F5E2E2E2E2E2F5E2E2E2E2F5E2E2E2E2E2E2F5E2F5E2E2F5E2E2E2E2E2F5E2F5E2E2E2E2E2E2E2F5E2E2E2F5E2E2E2E2E2E2E2E2E2F5E2E2F5E2E2
310
E2F5E2E2E2E2E2E2E2E2E2E2E2E2E2E2E2E2E2E2E2E2E2E2E2E2E2E2E2E2E2E2E2E2E2E2E2E2E2E2E2E2E2E2E2E2E2E2E2E2E2E2E2E2E2E2E2E2E2E2E2E2E2E2E2E2E2E2E2E2E2E2E2E2E2E2E2E2E2E2E2E2E2E2E2E2E2E2E2E2E2E2E2E2E2E2E2E2E2E2E2E2E2E2E2E2E2E2E2E2E2E2E2E2E2E2E2E2E2E2E2E2E2E2E2E2E2
310
E2E2E2E2E2E2E2E2E2E2E2E2E2E2E2E2E2E2E2E2E2E2E2E2E2E2E2E2E2E2E2E2E2E2E2E2E2E2F5E2E2F5F5E2E2F5E2F5E2E2F5E2E2F5E2E2F5E2E2E2E2E2E2F5E2F5F5F5E2E2E2E2E2E2E2E2F5E2E2E2E2F5F5F5F5F5F5F5F5E2F5F5F5F5E2E2E2E2F5E2E2E2F5F5F5E2E2E2E2F5E2E2F5E2E2E2E2E2E2E2E2E2E2E2F5E2E2
310
F5F5E2E2F5E2E2E2E2E2E2E2E2E2E2E2E2E2E2E2E2E2E2E2E2E2E2E2E2E2E2E2E2E2E2E2E2E2E2E2E2E2E2E2E2E2E2E2E2E2E2E2E2E2E2E2E2E2E2E2E2E2E2E2E2E2E2E2E2E2E2E2E2E2E2E2E2E2E2E2E2E2E2E2E2E2E2E2E2E2E2E2E2E2E2E2E2E2E2E2E2E2E2E2E2E2E2E2E2E2E2E2E2E2E2E2E2E2E2E2E2E2E2E2E2E2E2
310
E2E2E2E2E2E2E2E2E2E2E2E2E2E2E2E2E2E2E2E2E2E2E2E2E2E2E2E2E2E2E2E2E2E2E2E2E2E2F5F5E2E2F5E2E2E2F5E2E2F5E2E2E2F5E2F5E2E2E2F5E2E2E2E2E2F5E2E2E2E2E2E2E2F5F5F5F5F5E2E2E2E2E2E2E2E2E2E2E2E2E2E2E2E2E2E2E2E2E2E2F5E2E2E2E2E2E2F5F5F5F5E2E2E2F5E2E2E2E2E2F5F5F5E2E2E2E2
310
F5E2E2E2F5E2E2F5F5E2E2E2E2E2E2E2E2E2E2E2E2E2E2E2E2E2E2E2E2E2E2E2E2E2E2E2E2E2E2E2E2E2E2E2E2E2E2E2E2E2E2E2E2E2E2E2E2E2E2E2E2E2E2E2E2E2E2E2E2E2E2E2E2E2E2E2E2E2E2E2E2E2E2E2E2E2E2E2E2E2E2E2E2E2E2E2E2E2E2E2E2E2E2E2E2E2E2E2E2E2E2E2E2E2E2E2E2E2E2E2E2E2E2E2E2E2E2
310
E2E2E2E2E2E2E2E2E2E2E2E2E2E2E2E2E2E2E2E2E2E2E2E2E2E2E2E2E2E2E2E2E2E2E2E2E2E2E2F5E2E2E2F5E2E2F5F5E2E2E2E2F5E2E2F5E2E2F5E2E2F5E2E2E2E2E2F5E2E2E2E2F5F5F5E2E2E2E2E2E2E2E2E2E2E2E2E2E2F5E2E2E2E2E2E2E2E2E2E2E2E2E2F5F5F5E2E2E2E2E2E2F5E2E2F5E2E2E2E2E2F5E2E2E2F5E2
310
E2F5E2E2E2F5E2E2E2E2E2F5E2E2E2E2E2E2E2E2E2E2E2E2E2E2E2E2E2E2E2E2E2E2E2E2E2E2E2E2E2E2E2E2E2E2E2E2E2E2E2E2E2E2E2E2E2E2E2E2E2E2E2E2E2E2E2E2E2E2E2E2E2E2E2E2E2E2E2E2E2E2E2E2E2E2E2E2E2E2E2E2E2E2E2E2E2E2E2E2E2E2E2E2E2E2E2E2E2E2E2E2E2E2E2E2E2E2E2E2E2E2E2E2E2E2E2
310
E2E2E2E2E2E2E2E2E2E2E2E2E2E2E2E2E2E2E2E2E2E2E2E2E2E2E2E2E2E2E2E2E2E2E2E2E2E2E2E2F5E2E2F5F5E2E2F5E2E2E2E2E2F5E2E2E2E2F5E2E2F5E2E2F5E2E2E2E2E2F5F5F5F5E2E2E2E2E2E2F5F5F5F5F5F5F5F5F5F5F5E2F5F5F5F5F5F5F5F5F5F5E2E2E2E2E2E2F5F5F5E2E2E2E2E2E2F5E2E2E2E2E2F5E2E2E2
310
E2F5E2F5E2E2F5E2E2E2F5E2E2E2F5E2E2E2E2E2E2E2E2E2E2E2E2E2E2E2E2E2E2E2E2E2E2E2E2E2E2E2E2E2E2E2E2E2E2E2E2E2E2E2E2E2E2E2E2E2E2E2E2E2E2E2E2E2E2E2E2E2E2E2E2E2E2E2E2E2E2E2E2E2E2E2E2E2E2E2E2E2E2E2E2E2E2E2E2E2E2E2E2E2E2E2E2E2E2E2E2E2E2E2E2E2E2E2E2E2E2E2E2E2E2E2E2
310
E2E2E2E2E2E2E2E2E2E2E2E2E2E2E2E2E2E2E2E2E2E2E2E2E2E2E2E2E2E2E2E2E2E2E2E2E2E2E2E2E2F5E2E2F5E2E2E2F5E2E2E2E2E2F5E2E2E2F5F5E2E2E2F5E2E2F5E2E2E2E2E2F5E2E2E2E2E2F5F5F5F5E2E2E2E2E2E2E2E2E2E2E2E2E2E2E2E2E2E2E2E2E2E2F5F5F5F5E2E2E2E2E2F5F5F5E2E2F5E2E2E2E2E2F5E2E2
310
E2E2E2E2F5E2E2F5E2E2E2F5E2F5F5E2E2F5E2E2E2E2E2E2E2E2E2E2E2E2E2E2E2E2E2E2E2E2E2E2E2E2E2E2E2E2E2E2E2E2E2E2E2E2E2E2E2E2E2E2E2E2E2E2E2E2E2E2E2E2E2E2E2E2E2E2E2E2E2E2E2E2E2E2E2E2E2E2E2E2E2E2E2E2E2E2E2E2E2E2E2E2E2E2E2E2E2E2E2E2E2E2E2E2E2E2E2E2E2E2E2E2E2E2E2E2E2
310
E2E2E2E2E2E2E2E2E2E2E2E2E2E2E2E2E2E2E2E2E2E2E2E2E2E2E2E2E2E2E2E2E2E2E2E2E2E2E2E2E2E2F5E2E2F5E2E2E2F5E2E2E2E2E2F5E2E2E2F5E2E2E2E2F5F5F5E2E2F5E2E2E2E2E2E2E2F5F5F5E2E2E2E2E2E2E2E2E2E2E2E2E2E2E2E2E2E2E2E2E2E2E2E2E2E2E2E2E2E2F5F5F5E2E2E2E2E2F5E2F5E2E2E2E2E2F5
310
E2E2F5E2E2E2E2E2E2F5E2E2F5E2E2E2E2F5E2E2F5E2E2E2E2E2E2E2E2E2E2E2E2E2E2E2E2E2E2E2E2E2E2E2E2E2E2E2E2E2E2E2E2E2E2E2E2E2E2E2E2E2E2E2E2E2E2E2E2E2E2E2E2E2E2E2E2E2E2E2E2E2E2E2E2E2E2E2E2E2E2E2E2E2E2E2E2E2E2E2E2E2E2E2E2E2E2E2E2E2E2E2E2E2E2E2E2E2E2E2E2E2E2E2E2E2E2
310
E2E2E2E2E2E2E2E2E2E2E2E2E2E2E2E2E2E2E2E2E2E2E2E2E2E2E2E2E2E2E2E2E2E2E2E2E2E2E2E2E2E2E2F5E2E2E2F5E2E2F5E2E2E2E2F5F5E2E2E2F5E2E2E2E2F5E2E2E2E2F5F5E2E2E2E2E2F5F5E2E2E2E2E2E2E2E2E2E2E2E2E2E2E2E2E2E2E2E2E2E2E2E2E2E2E2E2E2E2E2E2E2E2E2E2F5F5E2E2E2E2F5E2E2E2E2E2
310
F5E2E2F5E2F5F5E2E2E2F5E2E2F5E2E2E2E2E2E2F5E2E2F5E2E2E2E2E2E2E2E2E2E2E2E2E2E2E2E2E2E2E2E2E2E2E2E2E2E2E2E2E2E2E2E2E2E2E2E2E2E2E2E2E2E2E2E2E2E2E2E2E2E2E2E2E2E2E2E2E2E2E2E2E2E2E2E2E2E2E2E2E2E2E2E2E2E2E2E2E2E2E2E2E2E2E2E2E2E2E2E2E2E2E2E2E2E2E2E2E2E2E2E2E2E2E2
310
E2E2E2E2E2E2E2E2E2E2E2E2E2E2E2E2E2E2E2E2E2E2E2E2E2E2E2E2E2E2E2E2E2E2E2E2E2E2E2E2E2E2E2E2F5E2E2E2F5E2E2F5E2E2E2E2E2E2F5E2E2E2F5E2E2E2F5E2E2E2E2F5E2E2E2E2F5F5F5E2E2E2E2E2E2E2E2E2E2E2E2E2E2E2E2E2E2E2E2E2E2E2E2E2E2E2E2E2E2E2E2E2E2E2E2E2E2E2E2F5F5F5E2E2E2E2E2
310
E2E2F5E2F5E2E2E2E2F5E2F5E2E2F5E2E2E2E2F5E2E2E2F5E2E2F5E2E2E2E2E2E2E2E2E2E2E2E2E2E2E2E2E2E2E2E2E2E2E2E2E2E2E2E2E2E2E2E2E2E2E2E2E2E2E2E2E2E2E2E2E2E2E2E2E2E2E2E2E2E2E2E2E2E2E2E2E2E2E2E2E2E2E2E2E2E2E2E2E2E2E2E2E2E2E2E2E2E2E2E2E2E2E2E2E2E2E2E2E2E2E2E2E2E2E2E2
310
E2E2E2E2E2E2E2E2E2E2E2E2E2E2E2E2E2E2E2E2E2E2E2E2E2E2E2E2E2E2E2E2E2E2E2E2E2E2E2E2E2E2E2E2E2F5E2E2F5F5E2E2E2E2F5E2E2E2E2E2E2F5E2E2E2F5F5F5E2E2E2F5F5E2E2E2E2F5E2E2E2E2E2E2E2E2E2E2E2E2E2E2E2E2E2E2E2E2E2E2E2E2E2E2E2E2E2E2E2E2E2E2E2E2E2E2E2E2E2E2E2E2E2E2F5E2E2
310
E2E2E2F5E2E2E2F5F5E2E2E2F5E2E2E2F5E2E2E2F5E2F5E2E2F5E2E2E2F5E2E2E2E2E2E2E2E2E2E2E2E2E2E2E2E2E2E2E2E2E2E2E2E2E2E2E2E2E2E2E2E2E2E2E2E2E2E2E2E2E2E2E2E2E2E2E2E2E2E2E2E2E2E2E2E2E2E2E2E2E2E2E2E2E2E2E2E2E2E2E2E2E2E2E2E2E2E2E2E2E2E2E2E2E2E2E2E2E2E2E2E2E2E2E2E2E2
310
E2E2E2E2E2E2E2E2E2E2E2E2E2E2E2E2E2E2E2E2E2E2E2E2E2E2E2E2E2E2E2E2E2E2E2E2E2E2E2E2E2E2E2E2E2E2F5E2E2E2E2F5E2E2E2E2E2F5E2E2E2E2E2E2F5E2E2F5E2E2E2E2F5E2E2E2F5F5F5E2E2E2E2E2E2E2E2E2E2E2E2E2E2E2E2E2E2E2E2E2E2E2E2E2E2E2E2E2E2E2E2E2E2E2E2E2E2E2E2E2E2E2E2E2E2E2E2
310
F5F5F5E2E2E2F5E2E2E2E2F5E2E2E2E2E2F5E2E2E2F5E2E2E2F5E2E2F5E2E2E2F5E2E2E2E2E2E2E2E2E2E2E2E2E2E2E2E2E2E2E2E2E2E2E2E2E2E2E2E2E2E2E2E2E2E2E2E2E2E2E2E2E2E2E2E2E2E2E2E2E2E2E2E2E2E2E2E2E2E2E2E2E2E2E2E2E2E2E2E2E2E2E2E2E2E2E2E2E2E2E2E2E2E2E2E2E2E2E2E2E2E2E2E2E2E2
310
E2E2E2E2E2E2E2E2E2E2E2E2E2E2E2E2E2E2E2E2E2E2E2E2E2E2E2E2E2E2E2E2E2E2E2E2E2E2E2E2E2E2E2E2E2E2E2E2F5E2E2F5E2E2F5E2E2E2E2E2F5E2E2E2E2E2E2F5E2E2E2E2E2F5E2E2E2F5E2E2E2E2E2E2E2E2E2E2E2E2E2E2E2E2E2E2E2E2E2E2E2E2E2E2E2E2E2E2E2E2E2E2E2E2E2E2E2E2E2E2E2E2E2E2E2E2E2
310
E2E2E2E2E2F5E2E2E2F5E2E2E2E2F5E2E2E2F5E2E2E2F5E2E2E2E2E2F5E2E2F5F5E2E2F5E2E2E2E2E2E2E2E2E2E2E2E2E2E2E2E2E2E2E2E2E2E2E2E2E2E2E2E2E2E2E2E2E2E2E2E2E2E2E2E2E2E2E2E2E2E2E2E2E2E2E2E2E2E2E2E2E2E2E2E2E2E2E2E2E2E2E2E2E2E2E2E2E2E2E2E2E2E2E2E2E2E2E2E2E2E2E2E2E2E2E2
310
E2E2E2E2E2E2E2E2E2E2E2E2E2E2E2E2E2E2E2E2E2E2E2E2E2E2E2E2E2E2E2E2E2E2E2E2E2E2E2E2E2E2E2E2E2E2E2E2E2F5E2F5F5E2F5E2E2F5E2E2E2E2E2F5E2E2E2E2E2E2F5E2F5F5F5E2E2E2F5E2E2E2E2E2E2E2E2E2E2E2E2E2E2E2E2E2E2E2E2E2E2E2E2E2E2E2E2E2E2E2E2E2E2E2E2E2E2E2E2E2E2E2E2E2E2E2E2
310
E2E2E2E2E2E2E2E2F5E2E2E2F5F5E2E2E2F5E2F5E2E2E2F5E2E2E2E2E2E2E2F5E2E2E2F5E2F5E2E2E2E2E2E2E2E2E2E2E2E2E2E2E2E2E2E2E2E2E2E2E2E2E2E2E2E2E2E2E2E2E2E2E2E2E2E2E2E2E2E2E2E2E2E2E2E2E2E2E2E2E2E2E2E2E2E2E2E2E2E2E2E2E2E2E2E2E2E2E2E2E2E2E2E2E2E2E2E2E2E2E2E2E2E2E2E2E2
310
E2E2E2E2E2E2E2E2E2E2E2E2E2E2E2E2E2E2E2E2E2E2E2E2E2E2E2E2E2E2E2E2E2E2E2E2E2E2E2E2E2E2E2E2E2E2E2E2E2E2F5E2E2F5E2E2E2F5E2E2F5F5E2E2E2F5E2E2E2E2E2E2E2F5E2E2E2E2E2F5E2E2E2E2E2E2E2E2E2E2E2E2E2E2E2E2E2E2E2E2E2E2E2E2E2E2E2E2E2E2E2E2E2E2E2E2E2E2E2E2E2E2E2E2E2E2E2
310
E2E2E2E2E2E2E2E2E2E2E2F5E2E2E2E2F5F5E2E2F5E2E2E2F5E2E2E2E2E2E2E2E2E2F5E2E2F5E2E2F5E2E2E2E2E2E2E2E2E2E2E2E2E2E2E2E2E2E2E2E2E2E2E2E2E2E2E2E2E2E2E2E2E2E2E2E2E2E2E2E2E2E2E2E2E2E2E2E2E2E2E2E2E2E2E2E2E2E2E2E2E2E2E2E2E2E2E2E2E2E2E2E2E2E2E2E2E2E2E2E2E2E2E2E2E2E2
310
E2E2E2E2E2E2E2E2E2E2E2E2E2E2E2E2E2E2E2E2E2E2E2E2E2E2E2E2E2E2E2E2E2E2E2E2E2E2E2E2E2E2E2E2E2E2E2E2E2E2E2F5E2E2F5E2E2E2E2E2F5F5E2E2F5E2E2E2F5E2E2E2E2E2E2E2E2E2F5F5F5E2E2E2E2E2E2E2E2E2E2E2E2E2E2E2E2E2E2E2E2E2E2E2E2E2E2E2E2E2E2E2E2E2E2E2E2E2E2E2E2E2E2E2E2E2E2
310
E2E2E2E2E2E2E2E2E2E2E2E2E2E2F5F5F5E2E2E2F5E2E2E2E2F5E2E2E2E2E2E2E2E2E2E2F5E2E2E2F5E2E2F5E2E2E2E2E2E2E2E2E2E2E2E2E2E2E2E2E2E2E2E2E2E2E2E2E2E2E2E2E2E2E2E2E2E2E2E2E2E2E2E2E2E2E2E2E2E2E2E2E2E2E2E2E2E2E2E2E2E2E2E2E2E2E2E2E2E2E2E2E2E2E2E2E2E2E2E2E2E2E2E2E2E2E2
310
E2E2E2E2E2E2E2E2E2E2E2E2E2E2E2E2E2E2E2E2E2E2E2E2E2E2E2E2E2E2E2E2E2E2E2E2E2E2E2E2E2E2E2E2E2E2E2E2E2E2E2E2E2F5E2F5E2E2E2F5E2E2E2E2F5E2E2F5E2E2E2F5E2E2E2E2E2E2E2F5E2E2E2E2E2E2E2E2E2E2E2E2E2E2E2E2E2E2E2E2E2E2E2E2E2E2E2E2E2E2E2E2E2E2E2E2E2E2E2E2E2E2E2E2E2E2E2
310
E2E2E2E2E2E2E2E2E2E2E2E2E2E2E2E2E2E2E2F5E2E2E2F5E2E2F5E2E2E2E2E2E2E2E2F5E2E2E2F5E2E2E2F5E2E2F5E2E2E2E2E2E2E2E2E2E2E2E2E2E2E2E2E2E2E2E2E2E2E2E2E2E2E2E2E2E2E2E2E2E2E2E2E2E2E2E2E2E2E2E2E2E2E2E2E2E2E2E2E2E2E2E2E2E2E2E2E2E2E2E2E2E2E2E2E2E2E2E2E2E2E2E2E2E2E2E2
310
E2E2E2E2E2E2E2E2E2E2E2E2E2E2E2E2E2E2E2E2E2E2E2E2E2E2E2E2E2E2E2E2E2E2E2E2E2E2E2E2E2E2E2E2E2E2E2E2E2E2E2E2E2E2F5E2E2F5E2E2F5E2F5F5E2E2E2F5E2E2F5E2E2E2F5E2E2E2E2E2F5E2E2E2E2E2E2E2E2E2E2E2E2E2E2E2E2E2E2E2E2E2E2E2E2E2E2E2E2E2E2E2E2E2E2E2E2E2E2E2E2E2E2E2E2E2E2
310
E2E2E2E2E2E2E2E2E2E2E2E2E2E2E2E2E2E2E2E2E2E2F5E2E2E2F5F5E2E2E2E2E2E2E2F5F5F5E2E2E2E2F5E2E2E2F5E2F5E2E2E2E2E2E2E2E2E2E2E2E2E2E2E2E2E2E2E2E2E2E2E2E2E2E2E2E2E2E2E2E2E2E2E2E2E2E2E2E2E2E2E2E2E2E2E2E2E2E2E2E2E2E2E2E2E2E2E2E2E2E2E2E2E2E2E2E2E2E2E2E2E2E2E2E2E2E2
310
E2E2E2E2E2E2E2E2E2E2E2E2E2E2E2E2E2E2E2E2E2E2E2E2E2E2E2E2E2E2E2E2E2E2E2E2E2E2E2E2E2E2E2E2E2E2E2E2E2E2E2E2E2E2E2F5E2E2F5E2E2F5E2E2E2E2F5E2E2E2F5E2E2F5E2E2E2F5E2E2E2F5E2E2E2E2E2E2E2E2E2E2E2E2E2E2E2E2E2E2E2E2E2E2E2E2E2E2E2E2E2E2E2E2E2E2E2E2E2E2E2E2E2E2E2E2E2
310
E2E2E2E2E2E2E2E2E2E2E2E2E2E2E2E2E2E2E2E2E2E2E2E2E2F5E2E2F5E2E2E2E2E2E2E2F5E2E2E2F5E2E2E2E2F5E2E2F5E2E2F5E2E2E2E2E2E2E2E2E2E2E2E2E2E2E2E2E2E2E2E2E2E2E2E2E2E2E2E2E2E2E2E2E2E2E2E2E2E2E2E2E2E2E2E2E2E2E2E2E2E2E2E2E2E2E2E2E2E2E2E2E2E2E2E2E2E2E2E2E2E2E2E2E2E2E2
310
E2E2E2E2E2E2E2E2E2E2E2E2E2E2E2E2E2E2E2E2E2E2E2E2E2E2E2E2E2E2E2E2E2E2E2E2E2E2E2E2E2E2E2E2E2E2E2E2E2E2E2E2E2E2E2E2E2F5E2F5E2E2E2F5E2E2E2F5E2E2F5F5E2E2F5E2E2E2F5E2E2E2F5E2E2E2E2E2E2E2E2E2E2E2E2E2E2E2E2E2E2E2E2E2E2E2E2E2E2E2E2E2E2E2E2E2E2E2E2E2E2E2E2E2E2E2E2
310
E2E2E2E2E2E2E2E2E2E2E2E2E2E2E2E2E2E2E2E2E2E2E2E2E2E2E2E2F5E2E2E2E2E2E2E2E2F5E2E2E2E2E2F5E2F5F5E2E2E2E2F5E2E2F5E2E2E2E2E2E2E2E2E2E2E2E2E2E2E2E2E2E2E2E2E2E2E2E2E2E2E2E2E2E2E2E2E2E2E2E2E2E2E2E2E2E2E2E2E2E2E2E2E2E2E2E2E2E2E2E2E2E2E2E2E2E2E2E2E2E2E2E2E2E2E2E2
310
E2E2E2E2E2E2E2E2E2E2E2E2E2E2E2E2E2E2E2E2E2E2E2E2E2E2E2E2E2E2E2E2E2E2E2E2E2E2E2E2E2E2E2E2E2E2E2E2E2E2E2E2E2E2E2E2E2E2F5E2E2F5E2E2F5E2E2E2F5E2E2E2F5E2E2F5E2E2E2F5E2E2E2F5E2E2E2E2E2E2E2E2E2E2E2E2E2E2E2E2E2E2E2E2E2E2E2E2E2E2E2E2E2E2E2E2E2E2E2E2E2E2E2E2E2E2E2
310
E2E2E2E2E2E2E2E2E2E2E2E2E2E2E2E2E2E2E2E2E2E2E2E2E2E2E2E2E2E2E2F5E2E2E2E2E2F5F5E2E2E2F5E2E2E2F5E2E2E2E2F5F5E2E2E2F5E2E2E2E2E2E2E2E2E2E2E2E2E2E2E2E2E2E2E2E2E2E2E2E2E2E2E2E2E2E2E2E2E2E2E2E2E2E2E2E2E2E2E2E2E2E2E2E2E2E2E2E2E2E2E2E2E2E2E2E2E2E2E2E2E2E2E2E2E2E2
310
E2E2E2E2E2E2E2E2E2E2E2E2E2E2E2E2E2E2E2E2E2E2E2E2E2E2E2E2E2E2E2E2E2E2E2E2E2E2E2E2E2E2E2E2E2E2E2E2E2E2E2E2E2E2E2E2E2E2E2E2F5E2F5E2E2F5E2E2E2E2F5E2E2F5E2E2E2F5E2E2F5E2E2E2F5E2E2E2E2E2E2E2E2E2E2E2E2E2E2E2E2E2E2E2E2E2E2E2E2E2E2E2E2E2E2E2E2E2E2E2E2E2E2E2E2E2E2
310
E2E2E2E2E2E2E2E2E2E2E2E2E2E2E2E2E2E2E2E2E2E2E2E2E2E2E2E2E2E2E2E2E2E2F5E2E2E2F5E2E2E2E2F5E2F5E2E2E2E2E2F5F5E2E2E2E2E2F5E2E2E2E2E2E2E2E2E2E2E2E2E2E2E2E2E2E2E2E2E2E2E2E2E2E2E2E2E2E2E2E2E2E2E2E2E2E2E2E2E2E2E2E2E2E2E2E2E2E2E2E2E2E2E2E2E2E2E2E2E2E2E2E2E2E2E2E2
310
E2E2E2E2E2E2E2E2E2E2E2E2E2E2E2E2E2E2E2E2E2E2E2E2E2E2E2E2E2E2E2E2E2E2E2E2E2E2E2E2E2E2E2E2E2E2E2E2E2E2E2E2E2E2E2E2E2E2E2E2E2E2F5E2F5E2F5E2E2E2E2F5E2E2F5E2E2E2E2F5E2F5E2E2E2F5E2E2E2E2E2E2E2E2E2E2E2E2E2E2E2E2E2E2E2E2E2E2E2E2E2E2E2E2E2E2E2E2E2E2E2E2E2E2E2E2E2
310
E2E2E2E2E2E2E2E2E2E2E2E2E2E2E2E2E2E2E2E2E2E2E2E2E2E2E2E2E2E2E2E2E2E2E2E2E2F5E2E2E2F5E2E2F5E2E2E2F5E2E2E2F5E2E2E2E2E2F5E2E2F5E2E2E2E2E2E2E2E2E2E2E2E2E2E2E2E2E2E2E2E2E2E2E2E2E2E2E2E2E2E2E2E2E2E2E2E2E2E2E2E2E2E2E2E2E2E2E2E2E2E2E2E2E2E2E2E2E2E2E2E2E2E2E2E2E2
310
E2E2E2E2E2E2E2E2E2E2E2E2E2E2E2E2E2E2E2E2E2E2E2E2E2E2E2E2E2E2E2E2E2E2E2E2E2E2E2E2E2E2E2E2E2E2E2E2E2E2E2E2E2E2E2E2E2E2E2E2E2E2E2F5E2E2F5E2F5E2E2E2F5E2E2E2E2F5F5E2F5E2E2F5E2E2F5E2E2E2E2E2E2E2E2E2E2E2E2E2E2E2E2E2E2E2E2E2E2E2E2E2E2E2E2E2E2E2E2E2E2E2E2E2E2E2E2
310
E2E2E2E2E2E2E2E2E2E2E2E2E2E2E2E2E2E2E2E2E2E2E2E2E2E2E2E2E2E2E2E2E2E2E2E2E2E2E2E2F5E2E2E2F5E2F5E2E2E2F5E2F5F5E2E2E2E2F5F5E2F5E2F5E2E2E2E2E2E2E2E2E2E2E2E2E2E2E2E2E2E2E2E2E2E2E2E2E2E2E2E2E2E2E2E2E2E2E2E2E2E2E2E2E2E2E2E2E2E2E2E2E2E2E2E2E2E2E2E2E2E2E2E2E2E2E2
310
E2E2E2E2E2E2E2E2E2E2E2E2E2E2E2E2E2E2E2E2E2E2E2E2E2E2E2E2E2E2E2E2E2E2E2E2E2E2E2E2E2E2E2E2E2E2E2E2E2E2E2E2E2E2E2E2E2E2E2E2E2E2E2E2F5E2E2F5E2E2F5E2E2E2E2F5F5E2E2E2E2F5E2E2F5E2E2E2F5E2E2E2E2E2E2E2E2E2E2E2E2E2E2E2E2E2E2E2E2E2E2E2E2E2E2E2E2E2E2E2E2E2E2E2E2E2E2
310
E2E2E2E2E2E2E2E2E2E2E2E2E2E2E2E2E2E2E2E2E2E2E2E2E2E2E2E2E2E2E2E2E2E2E2E2E2E2E2E2E2E2E2F5E2E2F5E2E2F5E2E2E2F5E2E2E2E2F5F5E2E2E2E2F5E2F5E2E2E2E2E2E2E2E2E2E2E2E2E2E2E2E2E2E2E2E2E2E2E2E2E2E2E2E2E2E2E2E2E2E2E2E2E2E2E2E2E2E2E2E2E2E2E2E2E2E2E2E2E2E2E2E2E2E2E2E2
310
E2E2E2E2E2E2E2E2E2E2E2E2E2E2E2E2E2E2E2E2E2E2E2E2E2E2E2E2E2E2E2E2E2E2E2E2E2E2E2E2E2E2E2E2E2E2E2E2E2E2E2E2E2E2E2E2E2E2E2E2E2E2E2E2E2E2F5E2F5E2E2F5E2E2E2E2E2E2E2F5F5E2E2E2E2F5E2E2E2F5E2E2E2E2E2E2E2E2E2E2E2E2E2E2E2E2E2E2E2E2E2E2E2E2E2E2E2E2E2E2E2E2E2E2E2E2E2
310
E2E2E2E2E2E2E2E2E2E2E2E2E2E2E2E2E2E2E2E2E2E2E2E2E2E2E2E2E2E2E2E2E2E2E2E2E2E2E2E2E2E2E2E2E2F5E2E2E2F5E2E2F5E2E2E2E2E2E2F5E2E2E2E2E2E2F5E2E2F5E2E2E2E2E2E2E2E2E2E2E2E2E2E2E2E2E2E2E2E2E2E2E2E2E2E2E2E2E2E2E2E2E2E2E2E2E2E2E2E2E2E2E2E2E2E2E2E2E2E2E2E2E2E2E2E2E2
310
E2E2E2E2E2E2E2E2E2E2E2E2E2E2E2E2E2E2E2E2E2E2E2E2E2E2E2E2E2E2E2E2E2E2E2E2E2E2E2E2E2E2E2E2E2E2E2E2E2E2E2E2E2E2E2E2E2E2E2E2E2E2E2E2E2E2E2F5E2E2F5E2F5E2E2E2E2E2E2E2E2E2E2F5F5E2E2F5E2E2F5E2E2E2E2E2E2E2E2E2E2E2E2E2E2E2E2E2E2E2E2E2E2E2E2E2E2E2E2E2E2E2E2E2E2E2E2
310
E2E2E2E2E2E2E2E2E2E2E2E2E2E2E2E2E2E2E2E2E2E2E2E2E2E2E2E2E2E2E2E2E2E2E2E2E2E2E2E2E2E2E2E2E2E2E2E2F5E2E2F5E2E2E2F5E2E2E2F5F5E2E2E2E2F5F5E2E2F5E2F5E2E2E2E2E2E2E2E2E2E2E2E2E2E2E2E2E2E2E2E2E2E2E2E2E2E2E2E2E2E2E2E2E2E2E2E2E2E2E2E2E2E2E2E2E2E2E2E2E2E2E2E2E2E2E2
310
E2E2E2E2E2E2E2E2E2E2E2E2E2E2E2E2E2E2E2E2E2E2E2E2E2E2E2E2E2E2E2E2E2E2E2E2E2E2E2E2E2E2E2E2E2E2E2E2E2E2E2E2E2E2E2E2E2E2E2E2E2E2E2E2E2E2E2E2F5E2E2F5E2E2E2F5F5E2E2E2E2E2E2E2E2E2E2F5F5E2E2F5E2E2E2E2E2E2E2E2E2E2E2E2E2E2E2E2E2E2E2E2E2E2E2E2E2E2E2E2E2E2E2E2E2E2E2
310
E2E2E2E2E2E2E2E2E2E2E2E2E2E2E2E2E2E2E2E2E2E2E2E2E2E2E2E2E2E2E2E2E2E2E2E2E2E2E2E2E2E2E2E2E2E2E2E2E2E2E2F5E2E2F5E2E2E2F5F5F5E2E2E2E2F5F5E2F5E2E2F5E2E2F5E2E2E2E2E2E2E2E2E2E2E2E2E2E2E2E2E2E2E2E2E2E2E2E2E2E2E2E2E2E2E2E2E2E2E2E2E2E2E2E2E2E2E2E2E2E2E2E2E2E2E2E2
310
E2E2E2E2E2E2E2E2E2E2E2E2E2E2E2E2E2E2E2E2E2E2E2E2E2E2E2E2E2E2E2E2E2E2E2E2E2E2E2E2E2E2E2E2E2E2E2E2E2E2E2E2E2E2E2E2E2E2E2E2E2E2E2E2E2E2E2E2E2E2F5E2F5F5E2E2E2E2E2F5F5E2E2E2E2E2E2E2E2E2E2E2E2F5E2E2E2E2E2E2E2E2E2E2E2E2E2E2E2E2E2E2E2E2E2E2E2E2E2E2E2E2E2E2E2E2E2
310
E2E2E2E2E2E2E2E2E2E2E2E2E2E2E2E2E2E2E2E2E2E2E2E2E2E2E2E2E2E2E2E2E2E2E2E2E2E2E2E2E2E2E2E2E2E2E2E2E2E2E2E2E2F5E2E2E2F5E2E2F5E2E2E2E2F5F5E2E2E2E2F5E2F5E2E2F5E2E2E2E2E2E2E2E2E2E2E2E2E2E2E2E2E2E2E2E2E2E2E2E2E2E2E2E2E2E2E2E2E2E2E2E2E2E2E2E2E2E2E2E2E2E2E2E2E2E2
310
E2E2E2E2E2E2E2E2E2E2E2E2E2E2E2E2E2E2E2E2E2E2E2E2E2E2E2E2E2E2E2E2E2E2E2E2E2E2E2E2E2E2E2E2E2E2E2E2E2E2E2E2E2E2E2E2E2E2E2E2E2E2E2E2E2E2E2E2E2E2E2E2F5E2E2E2F5F5E2E2E2E2E2F5F5E2E2E2E2E2E2E2E2E2F5E2E2E2E2E2E2E2E2E2E2E2E2E2E2E2E2E2E2E2E2E2E2E2E2E2E2E2E2E2E2E2E2
310
E2E2E2E2E2E2E2E2E2E2E2E2E2E2E2E2E2E2E2E2E2E2E2E2E2E2E2E2E2E2E2E2E2E2E2E2E2E2E2E2E2E2E2E2E2E2E2E2E2E2E2E2E2E2E2E2F5E2E2F5E2E2E2E2E2F5F5E2E2E2E2E2E2F5E2E2F5E2F5E2E2E2E2E2E2E2E2E2E2E2E2E2E2E2E2E2E2E2E2E2E2E2E2E2E2E2E2E2E2E2E2E2E2E2E2E2E2E2E2E2E2E2E2E2E2E2E2
310
E2E2E2E2E2E2E2E2E2E2E2E2E2E2E2E2E2E2E2E2E2E2E2E2E2E2E2E2E2E2E2E2E2E2E2E2E2E2E2E2E2E2E2E2E2E2E2E2E2E2E2E2E2E2E2E2E2E2E2E2E2E2E2E2E2E2E2E2E2E2E2E2E2F5E2E2E2E2E2E2F5F5E2E2E2E2E2F5F5E2E2E2E2E2E2E2F5E2E2E2E2E2E2E2E2E2E2E2E2E2E2E2E2E2E2E2E2E2E2E2E2E2E2E2E2E2E2
310
E2E2E2E2E2E2E2E2E2E2E2E2E2E2E2E2E2E2E2E2E2E2E2E2E2E2E2E2E2E2E2E2E2E2E2E2E2E2E2E2E2E2E2E2E2E2E2E2E2E2E2E2E2E2E2E2E2E2E2F5E2E2F5E2E2F5F5E2E2E2E2E2E2E2E2E2F5E2E2F5E2F5E2E2E2E2E2E2E2E2E2E2E2E2E2E2E2E2E2E2E2E2E2E2E2E2E2E2E2E2E2E2E2E2E2E2E2E2E2E2E2E2E2E2E2E2E2
310
E2E2E2E2E2E2E2E2E2E2E2E2E2E2E2E2E2E2E2E2E2E2E2E2E2E2E2E2E2E2E2E2E2E2E2E2E2E2E2E2E2E2E2E2E2E2E2E2E2E2E2E2E2E2E2E2E2E2E2E2E2E2E2E2E2E2E2E2E2E2E2E2E2E2E2F5E2F5F5E2E2E2E2E2F5F5F5E2E2E2E2F5F5E2E2E2E2F5E2E2E2E2E2E2E2E2E2E2E2E2E2E2E2E2E2E2E2E2E2E2E2E2E2E2E2E2E2
310
E2E2E2E2E2E2E2E2E2E2E2E2E2E2E2E2E2E2E2E2E2E2E2E2E2E2E2E2E2E2E2E2E2E2E2E2E2E2E2E2E2E2E2E2E2E2E2E2E2E2E2E2E2E2E2E2E2E2E2E2E2F5E2E2E2F5F5E2E2E2E2E2E2E2E2E2E2E2F5E2E2F5E2F5E2E2E2E2E2E2E2E2E2E2E2E2E2E2E2E2E2E2E2E2E2E2E2E2E2E2E2E2E2E2E2E2E2E2E2E2E2E2E2E2E2E2E2
310
E2E2E2E2E2E2E2E2E2E2E2E2E2E2E2E2E2E2E2E2E2E2E2E2E2E2E2E2E2E2E2E2E2E2E2E2E2E2E2E2E2E2E2E2E2E2E2E2E2E2E2E2E2E2E2E2E2E2E2E2E2E2E2E2E2E2E2E2E2E2E2E2E2E2E2E2E2F5E2F5E2F5F5F5E2E2E2E2E2F5F5E2E2E2E2F5E2E2F5E2E2E2E2E2E2E2E2E2E2E2E2E2E2E2E2E2E2E2E2E2E2E2E2E2E2E2E2
310
E2E2E2E2E2E2E2E2E2E2E2E2E2E2E2E2E2E2E2E2E2E2E2E2E2E2E2E2E2E2E2E2E2E2E2E2E2E2E2E2E2E2E2E2E2E2E2E2E2E2E2E2E2E2E2E2E2E2E2E2E2E2E2E2F5E2E2E2E2E2E2E2E2E2E2E2E2E2E2E2E2F5E2F5E2F5E2E2E2E2E2E2E2E2E2E2E2E2E2E2E2E2E2E2E2E2E2E2E2E2E2E2E2E2E2E2E2E2E2E2E2E2E2E2E2E2E2
310
E2E2E2E2E2E2E2E2E2E2E2E2E2E2E2E2E2E2E2E2E2E2E2E2E2E2E2E2E2E2E2E2E2E2E2E2E2E2E2E2E2E2E2E2E2E2E2E2E2E2E2E2E2E2E2E2E2E2E2E2E2E2E2E2E2E2E2E2E2E2E2E2E2E2E2E2E2E2F5E2E2F5E2E2E2E2F5F5F5E2E2E2E2F5F5E2E2F5E2E2F5E2E2E2E2E2E2E2E2E2E2E2E2E2E2E2E2E2E2E2E2E2E2E2E2E2E2
310
E2E2E2E2E2E2E2E2E2E2E2E2E2E2E2E2E2E2E2E2E2E2E2E2E2E2E2E2E2E2E2E2E2E2E2E2E2E2E2E2E2E2E2E2E2E2E2E2E2E2E2E2E2E2E2E2E2E2E2E2E2E2E2E2E2E2F5E2E2E2E2E2E2E2E2E2E2E2F5F5E2E2E2F5E2F5E2E2F5E2E2E2E2E2E2E2E2E2E2E2E2E2E2E2E2E2E2E2E2E2E2E2E2E2E2E2E2E2E2E2E2E2E2E2E2E2E2
310
E2E2E2E2E2E2E2E2E2E2E2E2E2E2E2E2E2E2E2E2E2E2E2E2E2E2E2E2E2E2E2E2E2E2E2E2E2E2E2E2E2E2E2E2E2E2E2E2E2E2E2E2E2E2E2E2E2E2E2E2E2E2E2E2E2E2E2E2E2E2E2E2E2E2E2E2E2E2E2E2F5E2F5E2E2F5E2E2E2E2E2F5F5E2E2E2E2F5F5E2E2F5E2E2E2E2E2E2E2E2E2E2E2E2E2E2E2E2E2E2E2E2E2E2E2E2E2
310
E2E2E2E2E2E2E2E2E2E2E2E2E2E2E2E2E2E2E2E2E2E2E2E2E2E2E2E2E2E2E2E2E2E2E2E2E2E2E2E2E2E2E2E2E2E2E2E2E2E2E2E2E2E2E2E2E2E2E2E2E2E2E2E2E2E2E2E2E2F5E2E2E2E2E2E2E2F5F5F5E2F5E2E2E2F5E2E2F5E2E2F5E2E2E2E2E2E2E2E2E2E2E2E2E2E2E2E2E2E2E2E2E2E2E2E2E2E2E2E2E2E2E2E2E2E2E2
310
E2E2E2E2E2E2E2E2E2E2E2E2E2E2E2E2E2E2E2E2E2E2E2E2E2E2E2E2E2E2E2E2E2E2E2E2E2E2E2E2E2E2E2E2E2E2E2E2E2E2E2E2E2E2E2E2E2E2E2E2E2E2E2E2E2E2E2E2E2E2E2E2E2E2E2E2E2E2E2E2E2F5E2E2F5E2E2F5F5F5E2E2E2E2F5E2E2F5E2E2E2E2E2F5E2E2E2E2E2E2E2E2E2E2E2E2E2E2E2E2E2E2E2E2E2E2E2
310
E2E2E2E2E2E2E2E2E2E2E2E2E2E2E2E2E2E2E2E2E2E2E2E2E2E2E2E2E2E2E2E2E2E2E2E2E2E2E2E2E2E2E2E2E2E2E2E2E2E2E2E2E2E2E2E2E2E2E2E2E2E2E2E2E2E2E2E2E2E2E2F5E2E2E2E2E2F5F5E2E2E2E2E2F5E2E2E2F5E2F5E2E2F5E2E2E2E2E2E2E2E2E2E2E2E2E2E2E2E2E2E2E2E2E2E2E2E2E2E2E2E2E2E2E2E2E2
310
E2E2E2E2E2E2E2E2E2E2E2E2E2E2E2E2E2E2E2E2E2E2E2E2E2E2E2E2E2E2E2E2E2E2E2E2E2E2E2E2E2E2E2E2E2E2E2E2E2E2E2E2E2E2E2E2E2E2E2E2E2E2E2E2E2E2E2E2E2E2E2E2E2E2E2E2E2E2E2E2E2E2E2F5E2E2F5E2F5E2E2E2F5E2E2F5E2E2E2F5F5F5E2E2E2F5E2E2E2E2E2E2E2E2E2E2E2E2E2E2E2E2E2E2E2E2E2
310
E2E2E2E2E2E2E2E2E2E2E2E2E2E2E2E2E2E2E2E2E2E2E2E2E2E2E2E2E2E2E2E2E2E2E2E2E2E2E2E2E2E2E2E2E2E2E2E2E2E2E2E2E2E2E2E2E2E2E2E2E2E2E2E2E2E2E2E2E2E2E2E2E2F5E2E2E2F5F5E2E2E2F5F5E2E2F5E2E2E2F5E2F5E2E2F5E2E2E2E2E2E2E2E2E2E2E2E2E2E2E2E2E2E2E2E2E2E2E2E2E2E2E2E2E2E2E2
310
E2E2E2E2E2E2E2E2E2E2E2E2E2E2E2E2E2E2E2E2E2E2E2E2E2E2E2E2E2E2E2E2E2E2E2E2E2E2E2E2E2E2E2E2E2E2E2E2E2E2E2E2E2E2E2E2E2E2E2E2E2E2E2E2E2E2E2E2E2E2E2E2E2E2E2E2E2E2E2E2E2E2E2E2E2F5E2F5E2E2F5E2E2E2F5E2E2F5E2E2F5E2E2F5E2E2F5E2E2E2E2E2E2E2E2E2E2E2E2E2E2E2E2E2E2E2E2
310
E2E2E2E2E2E2E2E2E2E2E2E2E2E2E2E2E2E2E2E2E2E2E2E2E2E2E2E2E2E2E2E2E2E2E2E2E2E2E2E2E2E2E2E2E2E2E2E2E2E2E2E2E2E2E2E2E2E2E2E2E2E2E2E2E2E2E2E2E2E2E2E2E2E2E2E2F5E2E2F5E2E2F5F5E2E2F5E2F5E2E2F5F5E2E2F5E2F5E2E2E2E2E2E2E2E2E2E2E2E2E2E2E2E2E2E2E2E2E2E2E2E2E2E2E2E2E2
310
E2E2E2E2E2E2E2E2E2E2E2E2E2E2E2E2E2E2E2E2E2E2E2E2E2E2E2E2E2E2E2E2E2E2E2E2E2E2E2E2E2E2E2E2E2E2E2E2E2E2E2E2E2E2E2E2E2E2E2E2E2E2E2E2E2E2E2E2E2E2E2E2E2E2E2E2E2E2E2E2E2E2E2E2E2E2F5E2E2F5E2E2F5E2E2F5E2E2E2F5E2F5E2E2E2F5E2F5E2E2E2E2E2E2E2E2E2E2E2E2E2E2E2E2E2E2E2
310
E2E2E2E2E2E2E2E2E2E2E2E2E2E2E2E2E2E2E2E2E2E2E2E2E2E2E2E2E2E2E2E2E2E2E2E2E2E2E2E2E2E2E2E2E2E2E2E2E2E2E2E2E2E2E2E2E2E2E2E2E2E2E2E2E2E2E2E2E2E2E2E2E2E2E2E2E2E2E2F5E2E2F5E2E2F5E2E2F5E2E2F5F5E2E2E2E2F5E2E2F5E2E2E2E2E2E2E2E2E2E2E2E2E2E2E2E2E2E2E2E2E2E2E2E2E2E2
310
E2E2E2E2E2E2E2E2E2E2E2E2E2E2E2E2E2E2E2E2E2E2E2E2E2E2E2E2E2E2E2E2E2E2E2E2E2E2E2E2E2E2E2E2E2E2E2E2E2E2E2E2E2E2E2E2E2E2E2E2E2E2E2E2E2E2E2E2E2E2E2E2E2E2E2E2E2E2E2E2E2E2E2E2E2E2E2E2F5E2E2F5E2F5E2E2E2F5E2E2F5F5E2F5E2E2F5E2E2F5E2E2E2E2E2E2E2E2E2E2E2E2E2E2E2E2E2
310
E2E2E2E2E2E2E2E2E2E2E2E2E2E2E2E2E2E2E2E2E2E2E2E2E2E2E2E2E2E2E2E2E2E2E2E2E2E2E2E2E2E2E2E2E2E2E2E2E2E2E2E2E2E2E2E2E2E2E2E2E2E2E2E2E2E2E2E2E2E2E2E2E2E2E2E2E2E2E2E2E2F5E2E2F5E2E2F5E2E2F5E2E2E2E2E2E2E2F5F5E2E2F5E2E2E2E2E2E2E2E2E2E2E2E2E2E2E2E2E2E2E2E2E2E2E2E2
310
E2E2E2E2E2E2E2E2E2E2E2E2E2E2E2E2E2E2E2E2E2E2E2E2E2E2E2E2E2E2E2E2E2E2E2E2E2E2E2E2E2E2E2E2E2E2E2E2E2E2E2E2E2E2E2E2E2E2E2E2E2E2E2E2E2E2E2E2E2E2E2E2E2E2E2E2E2E2E2E2E2E2E2E2E2E2E2E2E2E2F5E2E2F5E2F5E2E2E2F5E2E2E2E2F5F5E2E2F5E2E2F5E2E2E2E2E2E2E2E2E2E2E2E2E2E2E2
310
E2E2E2E2E2E2E2E2E2E2E2E2E2E2E2E2E2E2E2E2E2E2E2E2E2E2E2E2E2E2E2E2E2E2E2E2E2E2E2E2E2E2E2E2E2E2E2E2E2E2E2E2E2E2E2E2E2E2E2E2E2E2E2E2E2E2E2E2E2E2E2E2E2E2E2E2E2E2E2E2E2E2E2F5E2E2F5E2E2F5E2E2F5E2E2E2F5F5F5F5E2E2E2E2F5E2E2E2E2E2E2E2E2E2E2E2E2E2E2E2E2E2E2E2E2E2E2
310
E2E2E2E2E2E2E2E2E2E2E2E2E2E2E2E2E2E2E2E2E2E2E2E2E2E2E2E2E2E2E2E2E2E2E2E2E2E2E2E2E2E2E2E2E2E2E2E2E2E2E2E2E2E2E2E2E2E2E2E2E2E2E2E2E2E2E2E2E2E2E2E2E2E2E2E2E2E2E2E2E2E2E2E2E2E2E2E2E2E2E2E2F5E2F5E2E2F5E2E2F5F5F5E2E2E2E2E2E2E2F5E2E2F5E2E2E2E2E2E2E2E2E2E2E2E2E2
310
E2E2E2E2E2E2E2E2E2E2E2E2E2E2E2E2E2E2E2E2E2E2E2E2E2E2E2E2E2E2E2E2E2E2E2E2E2E2E2E2E2E2E2E2E2E2E2E2E2E2E2E2E2E2E2E2E2E2E2E2E2E2E2E2E2E2E2E2E2E2E2E2E2E2E2E2E2E2E2E2E2E2E2E2E2F5E2E2E2F5E2F5E2E2E2F5F5F5E2E2E2E2E2E2E2E2F5E2E2E2E2E2E2E2E2E2E2E2E2E2E2E2E2E2E2E2E2
310
E2E2E2E2E2E2E2E2E2E2E2E2E2E2E2E2E2E2E2E2E2E2E2E2E2E2E2E2E2E2E2E2E2E2E2E2E2E2E2E2E2E2E2E2E2E2E2E2E2E2E2E2E2E2E2E2E2E2E2E2E2E2E2E2E2E2E2E2E2E2E2E2E2E2E2E2E2E2E2E2E2E2E2E2E2E2E2E2E2E2E2E2E2E2F5E2F5E2E2F5E2E2E2E2E2F5F5F5F5E2E2F5E2E2F5E2E2E2E2E2E2E2E2E2E2E2E2
310
E2E2E2E2E2E2E2E2E2E2E2E2E2E2E2E2E2E2E2E2E2E2E2E2E2E2E2E2E2E2E2E2E2E2E2E2E2E2E2E2E2E2E2E2E2E2E2E2E2E2E2E2E2E2E2E2E2E2E2E2E2E2E2E2E2E2E2E2E2E2E2E2E2E2E2E2E2E2E2E2E2E2E2E2E2E2E2E2F5E2E2F5E2F5F5E2E2E2E2E2E2E2E2E2F5F5F5E2E2F5E2E2E2E2E2E2E2E2E2E2E2E2E2E2E2E2E2
310
E2E2E2E2E2E2E2E2E2E2E2E2E2E2E2E2E2E2E2E2E2E2E2E2E2E2E2E2E2E2E2E2E2E2E2E2E2E2E2E2E2E2E2E2E2E2E2E2E2E2E2E2E2E2E2E2E2E2E2E2E2E2E2E2E2E2E2E2E2E2E2E2E2E2E2E2E2E2E2E2E2E2E2E2E2E2E2E2E2E2E2E2E2E2E2F5E2E2F5E2F5E2E2E2E2E2E2E2E2E2E2F5F5F5E2E2F5E2E2E2E2E2E2E2E2E2E2
310
E2E2E2E2E2E2E2E2E2E2E2E2E2E2E2E2E2E2E2E2E2E2E2E2E2E2E2E2E2E2E2E2E2E2E2E2E2E2E2E2E2E2E2E2E2E2E2E2E2E2E2E2E2E2E2E2E2E2E2E2E2E2E2E2E2E2E2E2E2E2E2E2E2E2E2E2E2E2E2E2E2E2E2E2E2E2E2E2E2E2F5E2E2F5F5E2E2E2E2E2E2F5F5F5F5F5E2E2F5E2E2F5E2E2E2E2E2E2E2E2E2E2E2E2E2E2E2
310
E2E2E2E2E2E2E2E2E2E2E2E2E2E2E2E2E2E2E2E2E2E2E2E2E2E2E2E2E2E2E2E2E2E2E2E2E2E2E2E2E2E2E2E2E2E2E2E2E2E2E2E2E2E2E2E2E2E2E2E2E2E2E2E2E2E2E2E2E2E2E2E2E2E2E2E2E2E2E2E2E2E2E2E2E2E2E2E2E2E2E2E2E2E2E2E2E2F5E2E2F5E2F5E2E2E2E2E2E2E2E2E2E2E2E2E2E2E2F5E2E2E2E2E2E2E2E2
310
E2E2E2E2E2E2E2E2E2E2E2E2E2E2E2E2E2E2E2E2E2E2E2E2E2E2E2E2E2E2E2E2E2E2E2E2E2E2E2E2E2E2E2E2E2E2E2E2E2E2E2E2E2E2E2E2E2E2E2E2E2E2E2E2E2E2E2E2E2E2E2E2E2E2E2E2E2E2E2E2E2E2E2E2E2E2E2E2E2E2E2E2F5E2E2E2E2E2E2F5F5F5F5E2E2E2E2E2E2E2F5E2E2F5E2E2E2E2E2E2E2E2E2E2E2E2E2
310
E2E2E2E2E2E2E2E2E2E2E2E2E2E2E2E2E2E2E2E2E2E2E2E2E2E2E2E2E2E2E2E2E2E2E2E2E2E2E2E2E2E2E2E2E2E2E2E2E2E2E2E2E2E2E2E2E2E2E2E2E2E2E2E2E2E2E2E2E2E2E2E2E2E2E2E2E2E2E2E2E2E2E2E2E2E2E2E2E2E2E2E2E2E2E2E2E2E2E2F5E2E2F5E2F5E2E2E2E2E2E2E2E2E2E2E2E2E2E2F5E2E2E2E2E2E2E2
310
E2E2E2E2E2E2E2E2E2E2E2E2E2E2E2E2E2E2E2E2E2E2E2E2E2E2E2E2E2E2E2E2E2E2E2E2E2E2E2E2E2E2E2E2E2E2E2E2E2E2E2E2E2E2E2E2E2E2E2E2E2E2E2E2E2E2E2E2E2E2E2E2E2E2E2E2E2E2E2E2E2E2E2E2E2E2E2E2E2E2E2E2E2E2E2F5E2E2F5F5F5E2E2E2E2E2E2E2E2E2E2E2E2F5E2F5E2E2E2E2E2E2E2E2E2E2E2
310
E2E2E2E2E2E2E2E2E2E2E2E2E2E2E2E2E2E2E2E2E2E2E2E2E2E2E2E2E2E2E2E2E2E2E2E2E2E2E2E2E2E2E2E2E2E2E2E2E2E2E2E2E2E2E2E2E2E2E2E2E2E2E2E2E2E2E2E2E2E2E2E2E2E2E2E2E2E2E2E2E2E2E2E2E2E2E2E2E2E2E2E2E2E2E2E2E2E2E2E2E2F5E2F5E2E2F5F5F5E2E2E2E2E2E2E2E2E2E2E2E2F5E2E2E2E2E2
310
E2E2E2E2E2E2E2E2E2E2E2E2E2E2E2E2E2E2E2E2E2E2E2E2E2E2E2E2E2E2E2E2E2E2E2E2E2E2E2E2E2E2E2E2E2E2E2E2E2E2E2E2E2E2E2E2E2E2E2E2E2E2E2E2E2E2E2E2E2E2E2E2E2E2E2E2E2E2E2E2E2E2E2E2E2E2E2E2E2E2E2E2E2E2E2E2E2F5E2E2F5E2E2E2E2E2E2E2E2E2F5F5F5E2E2F5E2F5E2E2E2E2E2E2E2E2E2
310
E2E2E2E2E2E2E2E2E2E2E2E2E2E2E2E2E2E2E2E2E2E2E2E2E2E2E2E2E2E2E2E2E2E2E2E2E2E2E2E2E2E2E2E2E2E2E2E2E2E2E2E2E2E2E2E2E2E2E2E2E2E2E2E2E2E2E2E2E2E2E2E2E2E2E2E2E2E2E2E2E2E2E2E2E2E2E2E2E2E2E2E2E2E2E2E2E2E2E2E2E2E2E2F5E2F5E2E2E2E2E2F5F5F5F5F5F5E2E2E2E2E2E2F5E2E2E2
310
E2E2E2E2E2E2E2E2E2E2E2E2E2E2E2E2E2E2E2E2E2E2E2E2E2E2E2E2E2E2E2E2E2E2E2E2E2E2E2E2E2E2E2E2E2E2E2E2E2E2E2E2E2E2E2E2E2E2E2E2E2E2E2E2E2E2E2E2E2E2E2E2E2E2E2E2E2E2E2E2E2E2E2E2E2E2E2E2E2E2E2E2E2E2E2E2E2E2E2F5E2E2F5E2E2E2F5F5F5F5F5F5E2E2F5E2E2F5E2F5E2E2E2E2E2E2E2
310
E2E2E2E2E2E2E2E2E2E2E2E2E2E2E2E2E2E2E2E2E2E2E2E2E2E2E2E2E2E2E2E2E2E2E2E2E2E2E2E2E2E2E2E2E2E2E2E2E2E2E2E2E2E2E2E2E2E2E2E2E2E2E2E2E2E2E2E2E2E2E2E2E2E2E2E2E2E2E2E2E2E2E2E2E2E2E2E2E2E2E2E2E2E2E2E2E2E2E2E2E2E2E2E2E2F5E2F5E2E2E2E2E2E2E2E2E2E2E2F5F5F5F5E2E2F5E2
310
E2E2E2E2E2E2E2E2E2E2E2E2E2E2E2E2E2E2E2E2E2E2E2E2E2E2E2E2E2E2E2E2E2E2E2E2E2E2E2E2E2E2E2E2E2E2E2E2E2E2E2E2E2E2E2E2E2E2E2E2E2E2E2E2E2E2E2E2E2E2E2E2E2E2E2E2E2E2E2E2E2E2E2E2E2E2E2E2E2E2E2E2E2E2E2E2E2E2E2E2E2F5E2E2F5F5F5F5E2E2E2E2E2E2E2E2E2F5E2F5E2F5E2E2E2E2E2
310
E2E2E2E2E2E2E2E2E2E2E2E2E2E2E2E2E2E2E2E2E2E2E2E2E2E2E2E2E2E2E2E2E2E2E2E2E2E2E2E2E2E2E2E2E2E2E2E2E2E2E2E2E2E2E2E2E2E2E2E2E2E2E2E2E2E2E2E2E2E2E2E2E2E2E2E2E2E2E2E2E2E2E2E2E2E2E2E2E2E2E2E2E2E2E2E2E2E2E2E2E2E2E2E2E2E2E2F5E2F5F5F5F5F5F5E2E2E2E2E2E2E2E2E2F5E2E2
310
F5E2E2E2E2E2E2E2E2E2E2E2E2E2E2E2E2E2E2E2E2E2E2E2E2E2E2E2E2E2E2E2E2E2E2E2E2E2E2E2E2E2E2E2E2E2E2E2E2E2E2E2E2E2E2E2E2E2E2E2E2E2E2E2E2E2E2E2E2E2E2E2E2E2E2E2E2E2E2E2E2E2E2E2E2E2E2E2E2E2E2E2E2E2E2E2E2E2E2E2E2E2E2F5E2E2E2E2E2E2E2E2E2E2E2E2E2E2E2F5E2F5E2E2F5E2E2
310
E2E2E2E2E2E2E2E2E2E2E2E2E2E2E2E2E2E2E2E2E2E2E2E2E2E2E2E2E2E2E2E2E2E2E2E2E2E2E2E2E2E2E2E2E2E2E2E2E2E2E2E2E2E2E2E2E2E2E2E2E2E2E2E2E2E2E2E2E2E2E2E2E2E2E2E2E2E2E2E2E2E2E2E2E2E2E2E2E2E2E2E2E2E2E2E2E2E2E2E2E2E2E2E2E2E2E2E2F5E2E2E2E2E2E2E2E2F5F5F5F5F5F5F5E2E2F5
310
E2E2F5E2E2E2E2E2E2E2E2E2E2E2E2E2E2E2E2E2E2E2E2E2E2E2E2E2E2E2E2E2E2E2E2E2E2E2E2E2E2E2E2E2E2E2E2E2E2E2E2E2E2E2E2E2E2E2E2E2E2E2E2E2E2E2E2E2E2E2E2E2E2E2E2E2E2E2E2E2E2E2E2E2E2E2E2E2E2E2E2E2E2E2E2E2E2E2E2E2E2E2E2E2E2E2F5E2E2E2E2E2E2E2E2E2E2E2E2E2E2F5E2F5E2E2F5
310
E2E2E2E2E2E2E2E2E2E2E2E2E2E2E2E2E2E2E2E2E2E2E2E2E2E2E2E2E2E2E2E2E2E2E2E2E2E2E2E2E2E2E2E2E2E2E2E2E2E2E2E2E2E2E2E2E2E2E2E2E2E2E2E2E2E2E2E2E2E2E2E2E2E2E2E2E2E2E2E2E2E2E2E2E2E2E2E2E2E2E2E2E2E2E2E2E2E2E2E2E2E2E2E2E2E2E2E2E2E2F5E2E2E2E2E2E2E2E2E2E2E2E2E2E2F5E2
310
E2F5E2F5E2E2E2E2E2E2E2E2E2E2E2E2E2E2E2E2E2E2E2E2E2E2E2E2E2E2E2E2E2E2E2E2E2E2E2E2E2E2E2E2E2E2E2E2E2E2E2E2E2E2E2E2E2E2E2E2E2E2E2E2E2E2E2E2E2E2E2E2E2E2E2E2E2E2E2E2E2E2E2E2E2E2E2E2E2E2E2E2E2E2E2E2E2E2E2E2E2E2E2E2E2E2E2E2F5E2E2E2E2E2E2E2E2E2E2E2E2E2E2F5E2F5E2
310
E2F5E2E2E2E2E2E2E2E2E2E2E2E2E2E2E2E2E2E2E2E2E2E2E2E2E2E2E2E2E2E2E2E2E2E2E2E2E2E2E2E2E2E2E2E2E2E2E2E2E2E2E2E2E2E2E2E2E2E2E2E2E2E2E2E2E2E2E2E2E2E2E2E2E2E2E2E2E2E2E2E2E2E2E2E2E2E2E2E2E2E2E2E2E2E2E2E2E2E2E2E2E2E2E2E2E2E2E2E2E2E2F5E2E2F5F5F5F5F5E2E2E2E2E2E2E2
310
F5E2E2F5E2F5E2E2E2E2E2E2E2E2E2E2E2E2E2E2E2E2E2E2E2E2E2E2E2E2E2E2E2E2E2E2E2E2E2E2E2E2E2E2E2E2E2E2E2E2E2E2E2E2E2E2E2E2E2E2E2E2E2E2E2E2E2E2E2E2E2E2E2E2E2E2E2E2E2E2E2E2E2E2E2E2E2E2E2E2E2E2E2E2E2E2E2E2E2E2E2E2E2E2E2E2E2E2E2E2F5E2E2E2E2E2E2E2F5F5F5F5E2E2E2F5E2
310
F5E2E2F5E2E2E2E2E2E2E2E2E2E2E2E2E2E2E2E2E2E2E2E2E2E2E2E2E2E2E2E2E2E2E2E2E2E2E2E2E2E2E2E2E2E2E2E2E2E2E2E2E2E2E2E2E2E2E2E2E2E2E2E2E2E2E2E2E2E2E2E2E2E2E2E2E2E2E2E2E2E2E2E2E2E2E2E2E2E2E2E2E2E2E2E2E2E2E2E2E2E2E2E2E2E2E2E2E2E2E2E2E2E2F5E2E2F5E2E2E2E2F5F5F5F5F5
310
E2E2F5E2F5E2E2F5E2E2E2E2E2E2E2E2E2E2E2E2E2E2E2E2E2E2E2E2E2E2E2E2E2E2E2E2E2E2E2E2E2E2E2E2E2E2E2E2E2E2E2E2E2E2E2E2E2E2E2E2E2E2E2E2E2E2E2E2E2E2E2E2E2E2E2E2E2E2E2E2E2E2E2E2E2E2E2E2E2E2E2E2E2E2E2E2E2E2E2E2E2E2E2E2E2E2E2E2E2E2E2E2F5E2E2F5F5F5F5F5E2E2E2F5E2E2E2
310
F5E2E2F5E2F5E2E2E2E2E2E2E2E2E2E2E2E2E2E2E2E2E2E2E2E2E2E2E2E2E2E2E2E2E2E2E2E2E2E2E2E2E2E2E2E2E2E2E2E2E2E2E2E2E2E2E2E2E2E2E2E2E2E2E2E2E2E2E2E2E2E2E2E2E2E2E2E2E2E2E2E2E2E2E2E2E2E2E2E2E2E2E2E2E2E2E2E2E2E2E2E2E2E2E2E2E2E2E2E2E2E2E2E2E2E2F5E2F5E2E2E2E2E2E2E2E2
310
E2F5E2E2F5E2F5E2E2F5E2E2E2E2E2E2E2E2E2E2E2E2E2E2E2E2E2E2E2E2E2E2E2E2E2E2E2E2E2E2E2E2E2E2E2E2E2E2E2E2E2E2E2E2E2E2E2E2E2E2E2E2E2E2E2E2E2E2E2E2E2E2E2E2E2E2E2E2E2E2E2E2E2E2E2E2E2E2E2E2E2E2E2E2E2E2E2E2E2E2E2E2E2E2E2E2E2E2E2E2E2E2E2E2F5E2E2F5E2E2E2E2E2E2E2F5E2
310
E2E2F5E2E2F5E2F5E2E2E2E2E2E2E2E2E2E2E2E2E2E2E2E2E2E2E2E2E2E2E2E2E2E2E2E2E2E2E2E2E2E2E2E2E2E2E2E2E2E2E2E2E2E2E2E2E2E2E2E2E2E2E2E2E2E2E2E2E2E2E2E2E2E2E2E2E2E2E2E2E2E2E2E2E2E2E2E2E2E2E2E2E2E2E2E2E2E2E2E2E2E2E2E2E2E2E2E2E2E2E2E2E2E2E2E2E2E2F5E2F5E2E2F5F5F5F5
310
F5E2E2F5E2E2F5E2F5E2E2F5E2E2E2E2E2E2E2E2E2E2E2E2E2E2E2E2E2E2E2E2E2E2E2E2E2E2E2E2E2E2E2E2E2E2E2E2E2E2E2E2E2E2E2E2E2E2E2E2E2E2E2E2E2E2E2E2E2E2E2E2E2E2E2E2E2E2E2E2E2E2E2E2E2E2E2E2E2E2E2E2E2E2E2E2E2E2E2E2E2E2E2E2E2E2E2E2E2E2E2E2E2E2E2E2F5E2E2F5E2F5F5F5F5E2E2
310
F5E2E2E2F5E2E2F5E2F5E2E2E2E2E2E2E2E2E2E2E2E2E2E2E2E2E2E2E2E2E2E2E2E2E2E2E2E2E2E2E2E2E2E2E2E2E2E2E2E2E2E2E2E2E2E2E2E2E2E2E2E2E2E2E2E2E2E2E2E2E2E2E2E2E2E2E2E2E2E2E2E2E2E2E2E2E2E2E2E2E2E2E2E2E2E2E2E2E2E2E2E2E2E2E2E2E2E2E2E2E2E2E2E2E2E2E2E2E2E2F5E2F5E2E2F5E2
310
E2E2F5E2E2F5E2E2F5E2F5E2E2F5E2E2E2E2E2E2E2E2E2E2E2E2E2E2E2E2E2E2E2E2E2E2E2E2E2E2E2E2E2E2E2E2E2E2E2E2E2E2E2E2E2E2E2E2E2E2E2E2E2E2E2E2E2E2E2E2E2E2E2E2E2E2E2E2E2E2E2E2E2E2E2E2E2E2E2E2E2E2E2E2E2E2E2E2E2E2E2E2E2E2E2E2E2E2E2E2E2E2E2E2E2E2E2E2F5E2E2F5E2F5E2E2F5
310
E2E2F5E2E2E2F5E2E2F5E2F5E2E2E2E2E2E2E2E2E2E2E2E2E2E2E2E2E2E2E2E2E2E2E2E2E2E2E2E2E2E2E2E2E2E2E2E2E2E2E2E2E2E2E2E2E2E2E2E2E2E2E2E2E2E2E2E2E2E2E2E2E2E2E2E2E2E2E2E2E2E2E2E2E2E2E2E2E2E2E2E2E2E2E2E2E2E2E2E2E2E2E2E2E2E2E2E2E2E2E2E2E2E2E2E2E2E2E2E2E2E2F5E2F5E2E2
310
F5E2E2E2F5E2E2F5E2E2F5E2F5E2E2F5E2E2E2E2E2E2E2E2E2E2E2E2E2E2E2E2E2E2E2E2E2E2E2E2E2E2E2E2E2E2E2E2E2E2E2E2E2E2E2E2E2E2E2E2E2E2E2E2E2E2E2E2E2E2E2E2E2E2E2E2E2E2E2E2E2E2E2E2E2E2E2E2E2E2E2E2E2E2E2E2E2E2E2E2E2E2E2E2E2E2E2E2E2E2E2E2E2E2E2E2E2E2E2E2F5E2E2F5E2F5E2
310
E2F5E2E2F5E2E2E2F5E2E2F5E2F5E2E2E2E2E2E2E2E2E2E2E2E2E2E2E2E2E2E2E2E2E2E2E2E2E2E2E2E2E2E2E2E2E2E2E2E2E2E2E2E2E2E2E2E2E2E2E2E2E2E2E2E2E2E2E2E2E2E2E2E2E2E2E2E2E2E2E2E2E2E2E2E2E2E2E2E2E2E2E2E2E2E2E2E2E2E2E2E2E2E2E2E2E2E2E2E2E2E2E2E2E2E2E2E2E2E2E2E2E2E2F5E2F5
310
E2E2F5E2E2E2F5E2E2F5F5F5F5E2F5E2E2F5E2E2E2E2E2E2E2E2E2E2E2E2E2E2E2E2E2E2E2E2E2E2E2E2E2E2E2E2E2E2E2E2E2E2E2E2E2E2E2E2E2E2E2E2E2E2E2E2E2E2E2E2E2E2E2E2E2E2E2E2E2E2E2E2E2E2E2E2E2E2E2E2E2E2E2E2E2E2E2E2E2E2E2E2E2E2E2E2E2E2E2E2E2E2E2E2E2E2E2E2E2E2E2E2F5E2E2F5E2
310
F5E2E2F5E2E2F5F5F5F5F5E2E2F5E2F5E2E2E2E2E2E2E2E2E2E2E2E2E2E2E2E2E2E2E2E2E2E2E2E2E2E2E2E2E2E2E2E2E2E2E2E2E2E2E2E2E2E2E2E2E2E2E2E2E2E2E2E2E2E2E2E2E2E2E2E2E2E2E2E2E2E2E2E2E2E2E2E2E2E2E2E2E2E2E2E2E2E2E2E2E2E2E2E2E2E2E2E2E2E2E2E2E2E2E2E2E2E2E2E2E2E2E2E2E2E2F5
310
E2F5E2E2F5E2E2E2F5E2E2E2E2E2E2E2F5E2E2F5E2E2E2E2E2E2E2E2E2E2E2E2E2E2E2E2E2E2E2E2E2E2E2E2E2E2E2E2E2E2E2E2E2E2E2E2E2E2E2E2E2E2E2E2E2E2E2E2E2E2E2E2E2E2E2E2E2E2E2E2E2E2E2E2E2E2E2E2E2E2E2E2E2E2E2E2E2E2E2E2E2E2E2E2E2E2E2E2E2E2E2E2E2E2E2E2E2E2E2E2E2E2E2E2F5E2E2
310
F5E2F5E2E2F5E2E2E2E2E2E2E2E2E2F5E2F5E2E2E2E2E2E2E2E2E2E2E2E2E2E2E2E2E2E2E2E2E2E2E2E2E2E2E2E2E2E2E2E2E2E2E2E2E2E2E2E2E2E2E2E2E2E2E2E2E2E2E2E2E2E2E2E2E2E2E2E2E2E2E2E2E2E2E2E2E2E2E2E2E2E2E2E2E2E2E2E2E2E2E2E2E2E2E2E2E2E2E2E2E2E2E2E2E2E2E2E2E2E2E2E2E2E2E2E2E2
310
E2F5E2E2F5E2F5E2E2E2F5E2E2E2E2F5F5F5F5E2E2F5E2E2E2E2E2E2E2E2E2E2E2E2E2E2E2E2E2E2E2E2E2E2E2E2E2E2E2E2E2E2E2E2E2E2E2E2E2E2E2E2E2E2E2E2E2E2E2E2E2E2E2E2E2E2E2E2E2E2E2E2E2E2E2E2E2E2E2E2E2E2E2E2E2E2E2E2E2E2E2E2E2E2E2E2E2E2E2E2E2E2E2E2E2E2E2E2E2E2E2E2E2E2E2E2F5
310
E2E2F5E2F5E2E2F5F5F5F5F5E2E2E2E2E2F5E2F5E2E2E2E2E2E2E2E2E2E2E2E2E2E2E2E2E2E2E2E2E2E2E2E2E2E2E2E2E2E2E2E2E2E2E2E2E2E2E2E2E2E2E2E2E2E2E2E2E2E2E2E2E2E2E2E2E2E2E2E2E2E2E2E2E2E2E2E2E2E2E2E2E2E2E2E2E2E2E2E2E2E2E2E2E2E2E2E2E2E2E2E2E2E2E2E2E2E2E2E2E2E2E2E2E2E2E2
310
E2E2E2F5E2E2F5E2F5E2E2E2F5F5F5F5F5E2E2E2E2E2E2F5E2E2E2E2E2E2E2E2E2E2E2E2E2E2E2E2E2E2E2E2E2E2E2E2E2E2E2E2E2E2E2E2E2E2E2E2E2E2E2E2E2E2E2E2E2E2E2E2E2E2E2E2E2E2E2E2E2E2E2E2E2E2E2E2E2E2E2E2E2E2E2E2E2E2E2E2E2E2E2E2E2E2E2E2E2E2E2E2E2E2E2E2E2E2E2E2E2E2E2E2E2E2E2
310
E2F5E2E2F5E2F5E2E2E2E2E2E2E2F5F5F5F5F5E2E2F5E2E2E2E2E2E2E2E2E2E2E2E2E2E2E2E2E2E2E2E2E2E2E2E2E2E2E2E2E2E2E2E2E2E2E2E2E2E2E2E2E2E2E2E2E2E2E2E2E2E2E2E2E2E2E2E2E2E2E2E2E2E2E2E2E2E2E2E2E2E2E2E2E2E2E2E2E2E2E2E2E2E2E2E2E2E2E2E2E2E2E2E2E2E2E2E2E2E2E2E2E2E2E2E2E2
310
E2E2E2E2E2F5E2E2F5E2F5E2E2E2E2E2E2E2E2E2E2E2E2E2E2F5E2E2E2E2E2E2E2E2E2E2E2E2E2E2E2E2E2E2E2E2E2E2E2E2E2E2E2E2E2E2E2E2E2E2E2E2E2E2E2E2E2E2E2E2E2E2E2E2E2E2E2E2E2E2E2E2E2E2E2E2E2E2E2E2E2E2E2E2E2E2E2E2E2E2E2E2E2E2E2E2E2E2E2E2E2E2E2E2E2E2E2E2E2E2E2E2E2E2E2E2E2
310
E2E2E2F5E2F5E2E2F5E2E2E2E2E2E2E2E2E2E2E2E2E2E2F5E2E2E2E2E2E2E2E2E2E2E2E2E2E2E2E2E2E2E2E2E2E2E2E2E2E2E2E2E2E2E2E2E2E2E2E2E2E2E2E2E2E2E2E2E2E2E2E2E2E2E2E2E2E2E2E2E2E2E2E2E2E2E2E2E2E2E2E2E2E2E2E2E2E2E2E2E2E2E2E2E2E2E2E2E2E2E2E2E2E2E2E2E2E2E2E2E2E2E2E2E2E2E2
310
E2E2E2E2E2E2E2F5E2E2F5E2F5E2E2E2E2E2E2E2E2E2E2E2E2E2E2E2F5E2E2E2E2E2E2E2E2E2E2E2E2E2E2E2E2E2E2E2E2E2E2E2E2E2E2E2E2E2E2E2E2E2E2E2E2E2E2E2E2E2E2E2E2E2E2E2E2E2E2E2E2E2E2E2E2E2E2E2E2E2E2E2E2E2E2E2E2E2E2E2E2E2E2E2E2E2E2E2E2E2E2E2E2E2E2E2E2E2E2E2E2E2E2E2E2E2E2
310
E2E2E2E2E2F5E2F5E2E2F5F5F5F5F5F5E2E2E2E2E2E2E2E2E2F5E2E2E2E2E2E2E2E2E2E2E2E2E2E2E2E2E2E2E2E2E2E2E2E2E2E2E2E2E2E2E2E2E2E2E2E2E2E2E2E2E2E2E2E2E2E2E2E2E2E2E2E2E2E2E2E2E2E2E2E2E2E2E2E2E2E2E2E2E2E2E2E2E2E2E2E2E2E2E2E2E2E2E2E2E2E2E2E2E2E2E2E2E2E2E2E2E2E2E2E2E2
310
E2E2E2E2E2E2E2E2E2E2F5E2F5E2F5E2E2E2E2E2E2E2E2E2E2E2E2E2E2E2F5E2E2E2E2E2E2E2E2E2E2E2E2E2E2E2E2E2E2E2E2E2E2E2E2E2E2E2E2E2E2E2E2E2E2E2E2E2E2E2E2E2E2E2E2E2E2E2E2E2E2E2E2E2E2E2E2E2E2E2E2E2E2E2E2E2E2E2E2E2E2E2E2E2E2E2E2E2E2E2E2E2E2E2E2E2E2E2E2E2E2E2E2E2E2E2E2
310
E2E2E2E2E2E2F5E2E2F5E2E2E2E2E2E2E2E2F5F5F5F5F5F5F5E2E2F5E2E2E2E2E2E2E2E2E2E2E2E2E2E2E2E2E2E2E2E2E2E2E2E2E2E2E2E2E2E2E2E2E2E2E2E2E2E2E2E2E2E2E2E2E2E2E2E2E2E2E2E2E2E2E2E2E2E2E2E2E2E2E2E2E2E2E2E2E2E2E2E2E2E2E2E2E2E2E2E2E2E2E2E2E2E2E2E2E2E2E2E2E2E2E2E2E2E2E2
310
E2E2E2E2E2E2E2E2E2E2E2E2F5E2F5E2E2F5E2E2E2E2E2E2E2E2E2F5F5F5E2E2F5E2E2E2E2E2E2E2E2E2E2E2E2E2E2E2E2E2E2E2E2E2E2E2E2E2E2E2E2E2E2E2E2E2E2E2E2E2E2E2E2E2E2E2E2E2E2E2E2E2E2E2E2E2E2E2E2E2E2E2E2E2E2E2E2E2E2E2E2E2E2E2E2E2E2E2E2E2E2E2E2E2E2E2E2E2E2E2E2E2E2E2E2E2E2
310
E2E2E2E2E2E2E2E2F5E2E2F5F5F5E2E2E2E2E2E2E2E2E2E2E2E2F5E2F5E2E2E2E2E2E2E2E2E2E2E2E2E2E2E2E2E2E2E2E2E2E2E2E2E2E2E2E2E2E2E2E2E2E2E2E2E2E2E2E2E2E2E2E2E2E2E2E2E2E2E2E2E2E2E2E2E2E2E2E2E2E2E2E2E2E2E2E2E2E2E2E2E2E2E2E2E2E2E2E2E2E2E2E2E2E2E2E2E2E2E2E2E2E2E2E2E2E2
310
E2E2E2E2E2E2E2E2E2E2E2E2E2E2F5E2F5E2E2F5E2E2E2F5F5F5F5F5F5E2E2F5E2E2F5E2E2E2E2E2E2E2E2E2E2E2E2E2E2E2E2E2E2E2E2E2E2E2E2E2E2E2E2E2E2E2E2E2E2E2E2E2E2E2E2E2E2E2E2E2E2E2E2E2E2E2E2E2E2E2E2E2E2E2E2E2E2E2E2E2E2E2E2E2E2E2E2E2E2E2E2E2E2E2E2E2E2E2E2E2E2E2E2E2E2E2E2
310
E2E2E2E2E2E2E2E2E2E2F5E2E2E2E2E2F5F5F5F5F5F5E2E2E2E2E2E2F5E2F5E2E2E2E2E2E2E2E2E2E2E2E2E2E2E2E2E2E2E2E2E2E2E2E2E2E2E2E2E2E2E2E2E2E2E2E2E2E2E2E2E2E2E2E2E2E2E2E2E2E2E2E2E2E2E2E2E2E2E2E2E2E2E2E2E2E2E2E2E2E2E2E2E2E2E2E2E2E2E2E2E2E2E2E2E2E2E2E2E2E2E2E2E2E2E2E2
310
E2E2E2E2E2E2E2E2E2E2E2E2E2E2E2E2F5E2F5E2E2F5F5F5F5E2E2E2E2E2E2E2E2F5E2E2F5E2E2E2E2E2E2E2E2E2E2E2E2E2E2E2E2E2E2E2E2E2E2E2E2E2E2E2E2E2E2E2E2E2E2E2E2E2E2E2E2E2E2E2E2E2E2E2E2E2E2E2E2E2E2E2E2E2E2E2E2E2E2E2E2E2E2E2E2E2E2E2E2E2E2E2E2E2E2E2E2E2E2E2E2E2E2E2E2E2E2
310
E2E2E2E2E2E2E2E2E2E2E2E2F5E2E2E2E2E2E2E2E2E2E2E2F5F5F5F5E2E2F5E2F5E2E2E2E2E2E2E2E2E2E2E2E2E2E2E2E2E2E2E2E2E2E2E2E2E2E2E2E2E2E2E2E2E2E2E2E2E2E2E2E2E2E2E2E2E2E2E2E2E2E2E2E2E2E2E2E2E2E2E2E2E2E2E2E2E2E2E2E2E2E2E2E2E2E2E2E2E2E2E2E2E2E2E2E2E2E2E2E2E2E2E2E2E2E2
310
E2E2E2E2E2E2E2E2E2E2E2E2E2E2E2E2E2E2F5E2F5E2E2E2E2E2E2E2E2E2E2E2F5F5E2E2F5E2F5E2E2E2E2E2E2E2E2E2E2E2E2E2E2E2E2E2E2E2E2E2E2E2E2E2E2E2E2E2E2E2E2E2E2E2E2E2E2E2E2E2E2E2E2E2E2E2E2E2E2E2E2E2E2E2E2E2E2E2E2E2E2E2E2E2E2E2E2E2E2E2E2E2E2E2E2E2E2E2E2E2E2E2E2E2E2E2E2
310
E2E2E2E2E2E2E2E2E2E2E2E2E2E2F5E2E2E2E2E2E2E2E2E2E2E2E2E2E2F5E2E2F5E2F5E2E2E2E2E2E2E2E2E2E2E2E2E2E2E2E2E2E2E2E2E2E2E2E2E2E2E2E2E2E2E2E2E2E2E2E2E2E2E2E2E2E2E2E2E2E2E2E2E2E2E2E2E2E2E2E2E2E2E2E2E2E2E2E2E2E2E2E2E2E2E2E2E2E2E2E2E2E2E2E2E2E2E2E2E2E2E2E2E2E2E2E2
310
E2E2E2E2E2E2E2E2E2E2E2E2E2E2E2E2E2E2E2E2F5E2E2F5E2E2E2E2E2E2F5F5F5F5E2F5E2E2F5E2E2F5E2E2E2E2E2E2E2E2E2E2E2E2E2E2E2E2E2E2E2E2E2E2E2E2E2E2E2E2E2E2E2E2E2E2E2E2E2E2E2E2E2E2E2E2E2E2E2E2E2E2E2E2E2E2E2E2E2E2E2E2E2E2E2E2E2E2E2E2E2E2E2E2E2E2E2E2E2E2E2E2E2E2E2E2E2
310
E2E2E2E2E2E2E2E2E2E2E2E2E2E2E2F5E2E2E2E2E2E2E2E2E2E2E2E2E2E2E2F5E2F5E2E2F5E2E2E2E2E2E2E2E2E2E2E2E2E2E2E2E2E2E2E2E2E2E2E2E2E2E2E2E2E2E2E2E2E2E2E2E2E2E2E2E2E2E2E2E2E2E2E2E2E2E2E2E2E2E2E2E2E2E2E2E2E2E2E2E2E2E2E2E2E2E2E2E2E2E2E2E2E2E2E2E2E2E2E2E2E2E2E2E2E2E2
310
E2E2E2E2E2E2E2E2E2E2E2E2E2E2E2E2E2E2E2E2E2E2F5E2E2F5E2E2F5F5F5F5E2E2E2E2E2F5E2E2F5E2E2F5E2E2E2E2E2E2E2E2E2E2E2E2E2E2E2E2E2E2E2E2E2E2E2E2E2E2E2E2E2E2E2E2E2E2E2E2E2E2E2E2E2E2E2E2E2E2E2E2E2E2E2E2E2E2E2E2E2E2E2E2E2E2E2E2E2E2E2E2E2E2E2E2E2E2E2E2E2E2E2E2E2E2E2
310
E2E2E2E2E2E2E2E2E2E2E2E2E2E2E2E2E2F5E2E2F5F5F5E2E2E2E2E2E2E2E2E2E2F5E2F5E2E2F5E2E2E2E2E2E2E2E2E2E2E2E2E2E2E2E2E2E2E2E2E2E2E2E2E2E2E2E2E2E2E2E2E2E2E2E2E2E2E2E2E2E2E2E2E2E2E2E2E2E2E2E2E2E2E2E2E2E2E2E2E2E2E2E2E2E2E2E2E2E2E2E2E2E2E2E2E2E2E2E2E2E2E2E2E2E2E2E2
310
E2E2E2E2E2E2E2E2E2E2E2E2E2E2E2E2E2E2E2E2E2E2E2E2E2F5E2F5F5F5E2E2E2E2E2E2E2E2E2F5E2E2F5E2E2F5E2E2E2E2E2E2E2E2E2E2E2E2E2E2E2E2E2E2E2E2E2E2E2E2E2E2E2E2E2E2E2E2E2E2E2E2E2E2E2E2E2E2E2E2E2E2E2E2E2E2E2E2E2E2E2E2E2E2E2E2E2E2E2E2E2E2E2E2E2E2E2E2E2E2E2E2E2E2E2E2E2
310
E2E2E2E2E2E2E2E2E2E2E2E2E2E2E2E2E2E2E2F5E2E2F5E2E2F5F5F5F5E2E2E2E2E2F5E2E2F5E2E2F5E2E2E2E2E2E2E2E2E2E2E2E2E2E2E2E2E2E2E2E2E2E2E2E2E2E2E2E2E2E2E2E2E2E2E2E2E2E2E2E2E2E2E2E2E2E2E2E2E2E2E2E2E2E2E2E2E2E2E2E2E2E2E2E2E2E2E2E2E2E2E2E2E2E2E2E2E2E2E2E2E2E2E2E2E2E2
310
E2E2E2E2E2E2E2E2E2E2E2E2E2E2E2E2E2E2E2E2E2E2E2E2E2E2E2F5E2E2E2E2E2E2E2E2E2F5F5E2E2E2F5E2E2F5E2E2F5E2E2E2E2E2E2E2E2E2E2E2E2E2E2E2E2E2E2E2E2E2E2E2E2E2E2E2E2E2E2E2E2E2E2E2E2E2E2E2E2E2E2E2E2E2E2E2E2E2E2E2E2E2E2E2E2E2E2E2E2E2E2E2E2E2E2E2E2E2E2E2E2E2E2E2E2E2E2
310
E2E2E2E2E2E2E2E2E2E2E2E2E2E2E2E2E2E2E2E2F5E2E2E2F5E2E2E2E2E2E2F5F5F5E2E2F5E2E2F5E2F5E2E2E2E2E2E2E2E2E2E2E2E2E2E2E2E2E2E2E2E2E2E2E2E2E2E2E2E2E2E2E2E2E2E2E2E2E2E2E2E2E2E2E2E2E2E2E2E2E2E2E2E2E2E2E2E2E2E2E2E2E2E2E2E2E2E2E2E2E2E2E2E2E2E2E2E2E2E2E2E2E2E2E2E2E2
310
E2E2E2E2E2E2E2E2E2E2E2E2E2E2E2E2E2E2E2E2E2E2E2E2E2E2E2E2E2F5E2E2E2E2E2F5F5F5F5E2E2F5E2E2F5E2E2F5E2E2F5E2E2E2E2E2E2E2E2E2E2E2E2E2E2E2E2E2E2E2E2E2E2E2E2E2E2E2E2E2E2E2E2E2E2E2E2E2E2E2E2E2E2E2E2E2E2E2E2E2E2E2E2E2E2E2E2E2E2E2E2E2E2E2E2E2E2E2E2E2E2E2E2E2E2E2E2
310
E2E2E2E2E2E2E2E2E2E2E2E2E2E2E2E2E2E2E2E2E2E2F5E2E2F5E2E2F5F5E2E2E2E2F5E2E2E2F5E2E2F5E2F5E2E2E2E2E2E2E2E2E2E2E2E2E2E2E2E2E2E2E2E2E2E2E2E2E2E2E2E2E2E2E2E2E2E2E2E2E2E2E2E2E2E2E2E2E2E2E2E2E2E2E2E2E2E2E2E2E2E2E2E2E2E2E2E2E2E2E2E2E2E2E2E2E2E2E2E2E2E2E2E2E2E2E2
310
E2E2E2E2E2E2E2E2E2E2E2E2E2E2E2E2E2E2E2E2E2E2E2E2E2E2E2E2E2E2E2F5E2E2F5F5F5E2E2E2E2E2E2F5E2E2F5E2E2F5E2E2F5E2E2E2E2E2E2E2E2E2E2E2E2E2E2E2E2E2E2E2E2E2E2E2E2E2E2E2E2E2E2E2E2E2E2E2E2E2E2E2E2E2E2E2E2E2E2E2E2E2E2E2E2E2E2E2E2E2E2E2E2E2E2E2E2E2E2E2E2E2E2E2E2E2E2
310
E2E2E2E2E2E2E2E2E2E2E2E2E2E2E2E2E2E2E2E2E2E2E2E2F5E2E2F5E2E2F5E2F5F5E2E2F5E2E2E2F5E2F5E2E2F5E2E2E2E2E2E2E2E2E2E2E2E2E2E2E2E2E2E2E2E2E2E2E2E2E2E2E2E2E2E2E2E2E2E2E2E2E2E2E2E2E2E2E2E2E2E2E2E2E2E2E2E2E2E2E2E2E2E2E2E2E2E2E2E2E2E2E2E2E2E2E2E2E2E2E2E2E2E2E2E2E2
310
E2E2E2E2E2E2E2E2E2E2E2E2E2E2E2E2E2E2E2E2E2E2E2E2E2E2E2E2E2E2E2E2E2F5E2E2F5E2E2E2E2F5F5E2E2F5E2E2E2F5E2E2F5E2F5E2E2E2E2E2E2E2E2E2E2E2E2E2E2E2E2E2E2E2E2E2E2E2E2E2E2E2E2E2E2E2E2E2E2E2E2E2E2E2E2E2E2E2E2E2E2E2E2E2E2E2E2E2E2E2E2E2E2E2E2E2E2E2E2E2E2E2E2E2E2E2E2
310
E2E2E2E2E2E2E2E2E2E2E2E2E2E2E2E2E2E2E2E2E2E2E2E2E2E2F5E2E2F5E2E2F5E2F5E2E2E2F5E2E2E2F5E2F5E2E2F5E2E2E2E2E2E2E2E2E2E2E2E2E2E2E2E2E2E2E2E2E2E2E2E2E2E2E2E2E2E2E2E2E2E2E2E2E2E2E2E2E2E2E2E2E2E2E2E2E2E2E2E2E2E2E2E2E2E2E2E2E2E2E2E2E2E2E2E2E2E2E2E2E2E2E2E2E2E2E2
310
E2E2E2E2E2E2E2E2E2E2E2E2E2E2E2E2E2E2E2E2E2E2E2E2E2E2E2E2E2E2E2E2E2E2E2E2F5E2E2F5E2F5F5E2E2F5E2E2F5E2F5F5E2E2F5E2E2F5E2E2E2E2E2E2E2E2E2E2E2E2E2E2E2E2E2E2E2E2E2E2E2E2E2E2E2E2E2E2E2E2E2E2E2E2E2E2E2E2E2E2E2E2E2E2E2E2E2E2E2E2E2E2E2E2E2E2E2E2E2E2E2E2E2E2E2E2E2
310
E2E2E2E2E2E2E2E2E2E2E2E2E2E2E2E2E2E2E2E2E2E2E2E2E2E2E2F5E2E2F5E2E2F5E2E2F5E2E2F5E2E2E2F5E2E2F5E2F5E2E2E2E2E2E2E2E2E2E2E2E2E2E2E2E2E2E2E2E2E2E2E2E2E2E2E2E2E2E2E2E2E2E2E2E2E2E2E2E2E2E2E2E2E2E2E2E2E2E2E2E2E2E2E2E2E2E2E2E2E2E2E2E2E2E2E2E2E2E2E2E2E2E2E2E2E2E2
310
E2E2E2E2E2E2E2E2E2E2E2E2E2E2E2E2E2E2E2E2E2E2E2E2E2E2E2E2E2E2E2E2E2E2E2E2E2E2F5E2E2F5E2F5E2E2E2F5E2E2F5F5E2E2E2F5F5E2E2E2F5E2E2E2E2E2E2E2E2E2E2E2E2E2E2E2E2E2E2E2E2E2E2E2E2E2E2E2E2E2E2E2E2E2E2E2E2E2E2E2E2E2E2E2E2E2E2E2E2E2E2E2E2E2E2E2E2E2E2E2E2E2E2E2E2E2E2
310
E2E2E2E2E2E2E2E2E2E2E2E2E2E2E2E2E2E2E2E2E2E2E2E2E2E2E2E2F5E2E2E2F5E2E2F5E2E2F5E2E2F5E2E2E2F5E2F5E2E2F5E2E2E2E2E2E2E2E2E2E2E2E2E2E2E2E2E2E2E2E2E2E2E2E2E2E2E2E2E2E2E2E2E2E2E2E2E2E2E2E2E2E2E2E2E2E2E2E2E2E2E2E2E2E2E2E2E2E2E2E2E2E2E2E2E2E2E2E2E2E2E2E2E2E2E2E2
310
E2E2E2E2E2E2E2E2E2E2E2E2E2E2E2E2E2E2E2E2E2E2E2E2E2E2E2E2E2E2E2E2E2E2E2E2E2E2E2E2F5E2E2F5E2E2F5E2E2F5E2E2E2E2E2F5F5E2E2E2E2E2F5E2E2E2E2E2E2E2E2E2E2E2E2E2E2E2E2E2E2E2E2E2E2E2E2E2E2E2E2E2E2E2E2E2E2E2E2E2E2E2E2E2E2E2E2E2E2E2E2E2E2E2E2E2E2E2E2E2E2E2E2E2E2E2E2
310
E2E2E2E2E2E2E2E2E2E2E2E2E2E2E2E2E2E2E2E2E2E2E2E2E2E2E2E2E2E2F5E2E2F5E2E2E2F5E2E2F5E2E2E2F5F5E2F5E2F5E2E2F5E2E2E2E2E2E2E2E2E2E2E2E2E2E2E2E2E2E2E2E2E2E2E2E2E2E2E2E2E2E2E2E2E2E2E2E2E2E2E2E2E2E2E2E2E2E2E2E2E2E2E2E2E2E2E2E2E2E2E2E2E2E2E2E2E2E2E2E2E2E2E2E2E2E2
310
E2E2E2E2E2E2E2E2E2E2E2E2E2E2E2E2E2E2E2E2E2E2E2E2E2E2E2E2E2E2E2E2E2E2E2E2E2E2E2E2E2E2E2F5E2F5E2E2F5E2E2E2F5E2F5F5F5E2E2E2E2E2E2E2F5E2E2E2E2E2E2E2E2E2E2E2E2E2E2E2E2E2E2E2E2E2E2E2E2E2E2E2E2E2E2E2E2E2E2E2E2E2E2E2E2E2E2E2E2E2E2E2E2E2E2E2E2E2E2E2E2E2E2E2E2E2E2
310
E2E2E2E2E2E2E2E2E2E2E2E2E2E2E2E2E2E2E2E2E2E2E2E2E2E2E2E2E2E2E2E2F5E2E2F5E2E2F5E2E2F5F5E2E2E2E2E2F5E2E2F5E2E2F5E2E2E2E2E2E2E2E2E2E2E2E2E2E2E2E2E2E2E2E2E2E2E2E2E2E2E2E2E2E2E2E2E2E2E2E2E2E2E2E2E2E2E2E2E2E2E2E2E2E2E2E2E2E2E2E2E2E2E2E2E2E2E2E2E2E2E2E2E2E2E2E2
310
E2E2E2E2E2E2E2E2E2E2E2E2E2E2E2E2E2E2E2E2E2E2E2E2E2E2E2E2E2E2E2E2E2E2E2E2E2E2E2E2E2E2E2E2E2F5E2E2F5E2F5E2E2E2F5F5E2E2E2E2E2E2E2E2E2E2E2F5E2E2E2E2E2E2E2E2E2E2E2E2E2E2E2E2E2E2E2E2E2E2E2E2E2E2E2E2E2E2E2E2E2E2E2E2E2E2E2E2E2E2E2E2E2E2E2E2E2E2E2E2E2E2E2E2E2E2E2
310
E2E2E2E2E2E2E2E2E2E2E2E2E2E2E2E2E2E2E2E2E2E2E2E2E2E2E2E2E2E2E2E2E2F5E2E2F5E2E2F5F5E2E2E2E2F5F5F5E2E2E2E2E2F5E2F5E2E2E2E2E2E2E2E2E2E2E2E2E2E2E2E2E2E2E2E2E2E2E2E2E2E2E2E2E2E2E2E2E2E2E2E2E2E2E2E2E2E2E2E2E2E2E2E2E2E2E2E2E2E2E2E2E2E2E2E2E2E2E2E2E2E2E2E2E2E2E2
310
E2E2E2E2E2E2E2E2E2E2E2E2E2E2E2E2E2E2E2E2E2E2E2E2E2E2E2E2E2E2E2E2E2E2E2E2E2E2E2E2E2E2E2E2E2E2E2E2F5E2F5E2E2F5E2E2E2E2E2E2E2E2E2E2E2E2E2E2E2F5E2E2E2E2E2E2E2E2E2E2E2E2E2E2E2E2E2E2E2E2E2E2E2E2E2E2E2E2E2E2E2E2E2E2E2E2E2E2E2E2E2E2E2E2E2E2E2E2E2E2E2E2E2E2E2E2E2
310
E2E2E2E2E2E2E2E2E2E2E2E2E2E2E2E2E2E2E2E2E2E2E2E2E2E2E2E2E2E2E2E2E2E2E2F5E2E2F5E2E2E2E2F5F5E2E2E2E2E2F5F5F5E2F5E2F5E2E2E2E2E2E2E2E2E2E2E2E2E2E2E2E2E2E2E2E2E2E2E2E2E2E2E2E2E2E2E2E2E2E2E2E2E2E2E2E2E2E2E2E2E2E2E2E2E2E2E2E2E2E2E2E2E2E2E2E2E2E2E2E2E2E2E2E2E2E2
310
E2E2E2E2E2E2E2E2E2E2E2E2E2E2E2E2E2E2E2E2E2E2E2E2E2E2E2E2E2E2E2E2E2E2E2E2E2E2E2E2E2E2E2E2E2E2E2E2E2E2F5E2F5E2E2F5E2E2E2E2E2E2E2E2E2E2E2F5F5E2E2E2F5E2E2E2E2E2E2E2E2E2E2E2E2E2E2E2E2E2E2E2E2E2E2E2E2E2E2E2E2E2E2E2E2E2E2E2E2E2E2E2E2E2E2E2E2E2E2E2E2E2E2E2E2E2E2
310
E2E2E2E2E2E2E2E2E2E2E2E2E2E2E2E2E2E2E2E2E2E2E2E2E2E2E2E2E2E2E2E2E2E2E2E2E2F5E2E2E2F5F5E2E2E2E2F5F5E2E2E2E2E2E2F5F5E2F5E2E2E2E2E2E2E2E2E2E2E2E2E2E2E2E2E2E2E2E2E2E2E2E2E2E2E2E2E2E2E2E2E2E2E2E2E2E2E2E2E2E2E2E2E2E2E2E2E2E2E2E2E2E2E2E2E2E2E2E2E2E2E2E2E2E2E2E2
310
E2E2E2E2E2E2E2E2E2E2E2E2E2E2E2E2E2E2E2E2E2E2E2E2E2E2E2E2E2E2E2E2E2E2E2E2E2E2E2E2E2E2E2E2E2E2E2E2E2E2E2E2F5E2E2F5E2F5E2E2E2E2E2E2E2E2E2F5F5E2E2F5E2E2F5E2E2E2E2E2E2E2E2E2E2E2E2E2E2E2E2E2E2E2E2E2E2E2E2E2E2E2E2E2E2E2E2E2E2E2E2E2E2E2E2E2E2E2E2E2E2E2E2E2E2E2E2
310
E2E2E2E2E2E2E2E2E2E2E2E2E2E2E2E2E2E2E2E2E2E2E2E2E2E2E2E2E2E2E2E2E2E2E2E2E2E2F5E2E2E2E2E2E2F5F5E2E2E2E2F5F5F5E2E2E2E2E2E2F5E2E2E2E2E2E2E2E2E2E2E2E2E2E2E2E2E2E2E2E2E2E2E2E2E2E2E2E2E2E2E2E2E2E2E2E2E2E2E2E2E2E2E2E2E2E2E2E2E2E2E2E2E2E2E2E2E2E2E2E2E2E2E2E2E2E2
310
E2E2E2E2E2E2E2E2E2E2E2E2E2E2E2E2E2E2E2E2E2E2E2E2E2E2E2E2E2E2E2E2E2E2E2E2E2E2E2E2E2E2E2E2E2E2E2E2E2E2E2E2E2E2E2F5E2F5E2E2F5E2E2E2E2E2E2F5F5E2E2E2E2E2F5E2E2F5E2E2E2E2E2E2E2E2E2E2E2E2E2E2E2E2E2E2E2E2E2E2E2E2E2E2E2E2E2E2E2E2E2E2E2E2E2E2E2E2E2E2E2E2E2E2E2E2E2
310
E2E2E2E2E2E2E2E2E2E2E2E2E2E2E2E2E2E2E2E2E2E2E2E2E2E2E2E2E2E2E2E2E2E2E2E2E2E2E2F5E2E2E2E2E2E2E2E2E2F5F5E2E2E2E2E2F5F5E2E2E2F5E2E2E2E2E2E2E2E2E2E2E2E2E2E2E2E2E2E2E2E2E2E2E2E2E2E2E2E2E2E2E2E2E2E2E2E2E2E2E2E2E2E2E2E2E2E2E2E2E2E2E2E2E2E2E2E2E2E2E2E2E2E2E2E2E2
310
E2E2E2E2E2E2E2E2E2E2E2E2E2E2E2E2E2E2E2E2E2E2E2E2E2E2E2E2E2E2E2E2E2E2E2E2E2E2E2E2E2E2E2E2E2E2E2E2E2E2E2E2E2E2E2E2E2F5E2E2F5E2E2F5E2E2E2F5F5E2E2E2E2F5E2E2E2F5E2E2F5E2E2E2E2E2E2E2E2E2E2E2E2E2E2E2E2E2E2E2E2E2E2E2E2E2E2E2E2E2E2E2E2E2E2E2E2E2E2E2E2E2E2E2E2E2E2
310
E2E2E2E2E2E2E2E2E2E2E2E2E2E2E2E2E2E2E2E2E2E2E2E2E2E2E2E2E2E2E2E2E2E2E2E2E2E2E2E2F5E2E2E2E2E2E2E2E2E2E2E2E2F5F5E2E2E2E2E2F5F5E2F5E2E2E2E2E2E2E2E2E2E2E2E2E2E2E2E2E2E2E2E2E2E2E2E2E2E2E2E2E2E2E2E2E2E2E2E2E2E2E2E2E2E2E2E2E2E2E2E2E2E2E2E2E2E2E2E2E2E2E2E2E2E2E2
310
E2E2E2E2E2E2E2E2E2E2E2E2E2E2E2E2E2E2E2E2E2E2E2E2E2E2E2E2E2E2E2E2E2E2E2E2E2E2E2E2E2E2E2E2E2E2E2E2E2E2E2E2E2E2E2E2E2E2E2F5E2E2F5E2E2F5E2F5F5E2E2E2E2F5F5E2F5E2E2F5E2E2F5E2E2E2E2E2E2E2E2E2E2E2E2E2E2E2E2E2E2E2E2E2E2E2E2E2E2E2E2E2E2E2E2E2E2E2E2E2E2E2E2E2E2E2E2
310
E2E2E2E2E2E2E2E2E2E2E2E2E2E2E2E2E2E2E2E2E2E2E2E2E2E2E2E2E2E2E2E2E2E2E2E2E2E2E2E2E2E2F5E2E2F5E2E2E2E2E2E2E2E2E2E2E2F5F5E2E2E2F5E2E2F5E2E2E2E2E2E2E2E2E2E2E2E2E2E2E2E2E2E2E2E2E2E2E2E2E2E2E2E2E2E2E2E2E2E2E2E2E2E2E2E2E2E2E2E2E2E2E2E2E2E2E2E2E2E2E2E2E2E2E2E2E2
310
E2E2E2E2E2E2E2E2E2E2E2E2E2E2E2E2E2E2E2E2E2E2E2E2E2E2E2E2E2E2E2E2E2E2E2E2E2E2E2E2E2E2E2E2E2E2E2E2E2E2E2E2E2E2E2E2E2E2E2E2E2E2F5E2F5E2E2F5F5E2E2E2E2F5F5E2E2E2F5E2E2E2F5E2E2F5E2E2E2E2E2E2E2E2E2E2E2E2E2E2E2E2E2E2E2E2E2E2E2E2E2E2E2E2E2E2E2E2E2E2E2E2E2E2E2E2E2
310
E2E2E2E2E2E2E2E2E2E2E2E2E2E2E2E2E2E2E2E2E2E2E2E2E2E2E2E2E2E2E2E2E2E2E2E2E2E2E2E2E2E2E2F5E2E2F5E2F5F5E2E2E2E2E2E2E2E2E2E2E2F5E2E2F5E2F5E2E2E2E2E2E2E2E2E2E2E2E2E2E2E2E2E2E2E2E2E2E2E2E2E2E2E2E2E2E2E2E2E2E2E2E2E2E2E2E2E2E2E2E2E2E2E2E2E2E2E2E2E2E2E2E2E2E2E2E2
310
E2E2E2E2E2E2E2E2E2E2E2E2E2E2E2E2E2E2E2E2E2E2E2E2E2E2E2E2E2E2E2E2E2E2E2E2E2E2E2E2E2E2E2E2E2E2E2E2E2E2E2E2E2E2E2E2E2E2E2E2E2E2E2E2E2F5E2F5E2E2E2E2E2E2F5E2E2E2E2E2E2F5E2E2F5E2E2E2F5E2E2E2E2E2E2E2E2E2E2E2E2E2E2E2E2E2E2E2E2E2E2E2E2E2E2E2E2E2E2E2E2E2E2E2E2E2E2
310
E2E2E2E2E2E2E2E2E2E2E2E2E2E2E2E2E2E2E2E2E2E2E2E2E2E2E2E2E2E2E2E2E2E2E2E2E2E2E2E2E2E2E2E2F5E2E2E2F5E2E2E2F5F5E2E2E2E2E2E2E2E2F5E2E2F5E2E2F5E2E2E2E2E2E2E2E2E2E2E2E2E2E2E2E2E2E2E2E2E2E2E2E2E2E2E2E2E2E2E2E2E2E2E2E2E2E2E2E2E2E2E2E2E2E2E2E2E2E2E2E2E2E2E2E2E2E2
310
E2E2E2E2E2E2E2E2E2E2E2E2E2E2E2E2E2E2E2E2E2E2E2E2E2E2E2E2E2E2E2E2E2E2E2E2E2E2E2E2E2E2E2E2E2E2E2E2E2E2E2E2E2E2E2E2E2E2E2E2E2E2E2E2E2E2E2F5E2E2F5E2E2E2F5F5E2E2E2E2F5E2E2E2F5E2E2F5E2E2E2F5E2E2E2E2E2E2E2E2E2E2E2E2E2E2E2E2E2E2E2E2E2E2E2E2E2E2E2E2E2E2E2E2E2E2E2
310
E2E2E2E2E2E2E2E2E2E2E2E2E2E2E2E2E2E2E2E2E2E2E2E2E2E2E2E2E2E2E2E2E2E2E2E2E2E2E2E2E2E2E2E2E2E2F5E2E2F5E2E2F5E2E2E2F5F5E2E2E2E2E2F5E2E2F5E2E2F5E2E2E2E2E2E2E2E2E2E2E2E2E2E2E2E2E2E2E2E2E2E2E2E2E2E2E2E2E2E2E2E2E2E2E2E2E2E2E2E2E2E2E2E2E2E2E2E2E2E2E2E2E2E2E2E2E2
310
E2E2E2E2E2E2E2E2E2E2E2E2E2E2E2E2E2E2E2E2E2E2E2E2E2E2E2E2E2E2E2E2E2E2E2E2E2E2E2E2E2E2E2E2E2E2E2E2E2E2E2E2E2E2E2E2E2E2E2E2E2E2E2E2E2E2E2E2E2E2F5E2F5E2F5F5E2E2E2E2F5F5E2F5E2E2E2F5E2E2F5E2E2F5E2E2E2E2E2E2E2E2E2E2E2E2E2E2E2E2E2E2E2E2E2E2E2E2E2E2E2E2E2E2E2E2E2
310
E2E2E2E2E2E2E2E2E2E2E2E2E2E2E2E2E2E2E2E2E2E2E2E2E2E2E2E2E2E2E2E2E2E2E2E2E2E2E2E2E2E2E2E2E2E2E2F5E2E2E2F5E2F5E2F5F5E2E2E2F5F5E2E2E2F5E2E2F5E2F5E2E2E2E2E2E2E2E2E2E2E2E2E2E2E2E2E2E2E2E2E2E2E2E2E2E2E2E2E2E2E2E2E2E2E2E2E2E2E2E2E2E2E2E2E2E2E2E2E2E2E2E2E2E2E2E2
310
E2E2E2E2E2E2E2E2E2E2E2E2E2E2E2E2E2E2E2E2E2E2E2E2E2E2E2E2E2E2E2E2E2E2E2E2E2E2E2E2E2E2E2E2E2E2E2E2E2E2E2E2E2E2E2E2E2E2E2E2E2E2E2E2E2E2E2E2E2E2E2E2E2F5E2F5E2E2E2E2E2F5E2E2E2E2F5E2E2F5E2E2F5E2E2E2F5E2E2E2E2E2E2E2E2E2E2E2E2E2E2E2E2E2E2E2E2E2E2E2E2E2E2E2E2E2E2
310
E2E2E2E2E2E2E2E2E2E2E2E2E2E2E2E2E2E2E2E2E2E2E2E2E2E2E2E2E2E2E2E2E2E2E2E2E2E2E2E2E2E2E2E2E2E2E2E2F5E2E2E2F5E2E2F5E2E2E2F5E2E2F5E2E2E2E2F5E2F5E2E2F5E2E2E2E2E2E2E2E2E2E2E2E2E2E2E2E2E2E2E2E2E2E2E2E2E2E2E2E2E2E2E2E2E2E2E2E2E2E2E2E2E2E2E2E2E2E2E2E2E2E2E2E2E2E2
310
E2E2E2E2E2E2E2E2E2E2E2E2E2E2E2E2E2E2E2E2E2E2E2E2E2E2E2E2E2E2E2E2E2E2E2E2E2E2E2E2E2E2E2E2E2E2E2E2E2E2E2E2E2E2E2E2E2E2E2E2E2E2E2E2E2E2E2E2E2E2E2E2E2E2E2F5E2E2E2E2E2F5F5E2E2E2E2E2F5E2F5E2E2E2E2F5E2E2E2F5E2E2E2E2E2E2E2E2E2E2E2E2E2E2E2E2E2E2E2E2E2E2E2E2E2E2E2
310
E2E2E2E2E2E2E2E2E2E2E2E2E2E2E2E2E2E2E2E2E2E2E2E2E2E2E2E2E2E2E2E2E2E2E2E2E2E2E2E2E2E2E2E2E2E2E2E2E2F5E2E2E2F5E2E2F5E2E2E2F5E2E2E2F5E2E2E2F5E2E2F5E2F5E2E2E2E2E2E2E2E2E2E2E2E2E2E2E2E2E2E2E2E2E2E2E2E2E2E2E2E2E2E2E2E2E2E2E2E2E2E2E2E2E2E2E2E2E2E2E2E2E2E2E2E2E2
310
E2E2E2E2E2E2E2E2E2E2E2E2E2E2E2E2E2E2E2E2E2E2E2E2E2E2E2E2E2E2E2E2E2E2E2E2E2E2E2E2E2E2E2E2E2E2E2E2E2E2E2E2E2E2E2E2E2E2E2E2E2E2E2E2E2E2E2E2E2E2E2E2E2E2E2E2E2F5E2E2E2F5F5E2E2E2E2F5E2E2E2F5E2E2E2F5F5E2E2E2E2E2F5E2E2E2E2E2E2E2E2E2E2E2E2E2E2E2E2E2E2E2E2E2E2E2E2
310
E2E2E2E2E2E2E2E2E2E2E2E2E2E2E2E2E2E2E2E2E2E2E2E2E2E2E2E2E2E2E2E2E2E2E2E2E2E2E2E2E2E2E2E2E2E2E2E2E2E2F5E2E2E2F5E2E2E2F5E2E2E2F5E2E2F5E2E2E2F5E2E2E2F5E2F5E2E2E2E2E2E2E2E2E2E2E2E2E2E2E2E2E2E2E2E2E2E2E2E2E2E2E2E2E2E2E2E2E2E2E2E2E2E2E2E2E2E2E2E2E2E2E2E2E2E2E2
310
E2E2E2E2E2E2E2E2E2E2E2E2E2E2E2E2E2E2E2E2E2E2E2E2E2E2E2E2E2E2E2E2E2E2E2E2E2E2E2E2E2E2E2E2E2E2E2E2E2E2E2E2E2E2E2E2E2E2E2E2E2E2E2E2E2E2E2E2E2E2E2E2E2E2E2E2E2E2E2E2F5E2F5E2E2E2E2F5F5E2F5E2E2E2E2E2F5E2E2E2E2E2E2E2E2F5E2E2E2E2E2E2E2E2E2E2E2E2E2E2E2E2E2E2E2E2E2
310
E2E2E2E2E2E2E2E2E2E2E2E2E2E2E2E2E2E2E2E2E2E2E2E2E2E2E2E2E2E2E2E2E2E2E2E2E2E2E2E2E2E2E2E2E2E2E2E2E2E2E2F5E2E2E2F5E2E2E2F5E2E2E2F5E2E2F5E2E2E2E2F5E2E2F5E2E2F5E2E2E2E2E2E2E2E2E2E2E2E2E2E2E2E2E2E2E2E2E2E2E2E2E2E2E2E2E2E2E2E2E2E2E2E2E2E2E2E2E2E2E2E2E2E2E2E2E2
310
E2E2E2E2E2E2E2E2E2E2E2E2E2E2E2E2E2E2E2E2E2E2E2E2E2E2E2E2E2E2E2E2E2E2E2E2E2E2E2E2E2E2E2E2E2E2E2E2E2E2E2E2E2E2E2E2E2E2E2E2E2E2E2E2E2E2E2E2E2E2E2E2E2E2E2E2E2E2E2E2E2E2F5E2E2F5E2E2F5E2E2E2E2F5E2E2E2F5E2E2E2E2E2E2E2F5E2E2F5E2E2E2E2E2E2E2E2E2E2E2E2E2E2E2E2E2E2
310
E2E2E2E2E2E2E2E2E2E2E2E2E2E2E2E2E2E2E2E2E2E2E2E2E2E2E2E2E2E2E2E2E2E2E2E2E2E2E2E2E2E2E2E2E2E2E2E2E2E2E2E2F5E2E2E2F5E2E2E2F5E2E2F5F5E2E2F5E2E2E2E2F5E2E2F5E2E2F5E2E2E2E2E2E2E2E2E2E2E2E2E2E2E2E2E2E2E2E2E2E2E2E2E2E2E2E2E2E2E2E2E2E2E2E2E2E2E2E2E2E2E2E2E2E2E2E2
310
E2E2E2E2E2E2E2E2E2E2E2E2E2E2E2E2E2E2E2E2E2E2E2E2E2E2E2E2E2E2E2E2E2E2E2E2E2E2E2E2E2E2E2E2E2E2E2E2E2E2E2E2E2E2E2E2E2E2E2E2E2E2E2E2E2E2E2E2E2E2E2E2E2E2E2E2E2E2E2E2E2E2E2E2E2F5E2E2F5E2E2F5E2E2E2E2F5F5F5E2E2E2E2E2E2E2F5E2F5E2E2F5E2E2E2E2E2E2E2E2E2E2E2E2E2E2E2
310
E2E2E2E2E2E2E2E2E2E2E2E2E2E2E2E2E2E2E2E2E2E2E2E2E2E2E2E2E2E2E2E2E2E2E2E2E2E2E2E2E2E2E2E2E2E2E2E2E2E2E2E2E2F5E2E2E2E2E2F5E2E2E2F5E2E2F5E2E2E2F5F5E2F5E2E2E2F5E2F5E2E2E2E2E2E2E2E2E2E2E2E2E2E2E2E2E2E2E2E2E2E2E2E2E2E2E2E2E2E2E2E2E2E2E2E2E2E2E2E2E2E2E2E2E2E2E2
310
E2E2E2E2E2E2E2E2E2E2E2E2E2E2E2E2E2E2E2E2E2E2E2E2E2E2E2E2E2E2E2E2E2E2E2E2E2E2E2E2E2E2E2E2E2E2E2E2E2E2E2E2E2E2E2E2E2E2E2E2E2E2E2E2E2E2E2E2E2E2E2E2E2E2E2E2E2E2E2E2E2E2E2E2E2E2E2E2F5E2F5E2E2E2F5E2E2E2F5E2E2E2E2E2E2E2E2F5E2E2E2F5E2E2F5E2E2E2E2E2E2E2E2E2E2E2E2
310
E2E2E2E2E2E2E2E2E2E2E2E2E2E2E2E2E2E2E2E2E2E2E2E2E2E2E2E2E2E2E2E2E2E2E2E2E2E2E2E2E2E2E2E2E2E2E2E2E2E2E2E2E2E2F5E2E2E2E2E2E2E2F5E2E2E2F5E2E2F5E2E2E2E2F5E2E2E2F5E2E2F5E2E2E2E2E2E2E2E2E2E2E2E2E2E2E2E2E2E2E2E2E2E2E2E2E2E2E2E2E2E2E2E2E2E2E2E2E2E2E2E2E2E2E2E2E2
310
E2E2E2E2E2E2E2E2E2E2E2E2E2E2E2E2E2E2E2E2E2E2E2E2E2E2E2E2E2E2E2E2E2E2E2E2E2E2E2E2E2E2E2E2E2E2E2E2E2E2E2E2E2E2E2E2E2E2E2E2E2E2E2E2E2E2E2E2E2E2E2E2E2E2E2E2E2E2E2E2E2E2E2E2E2E2E2E2E2E2F5E2E2F5E2E2E2F5E2E2E2E2E2E2E2E2E2E2F5E2E2E2F5E2E2E2E2F5F5E2E2E2E2E2E2E2E2
310
E2E2E2E2E2E2E2E2E2E2E2E2E2E2E2E2E2E2E2E2E2E2E2E2E2E2E2E2E2E2E2E2E2E2E2E2E2E2E2E2E2E2E2E2E2E2E2E2E2E2E2E2E2E2F5F5E2E2E2E2E2E2E2E2E2F5E2E2E2F5E2E2F5F5E2E2E2E2E2F5E2E2F5E2E2E2E2E2E2E2E2E2E2E2E2E2E2E2E2E2E2E2E2E2E2E2E2E2E2E2E2E2E2E2E2E2E2E2E2E2E2E2E2E2E2E2E2
310
E2E2E2E2E2E2E2E2E2E2E2E2E2E2E2E2E2E2E2E2E2E2E2E2E2E2E2E2E2E2E2E2E2E2E2E2E2E2E2E2E2E2E2E2E2E2E2E2E2E2E2E2E2E2E2E2E2E2E2E2E2E2E2E2E2E2E2E2E2E2E2E2E2E2E2E2E2E2E2E2E2E2E2E2E2E2E2E2E2E2E2E2E2F5E2E2F5E2E2E2F5E2E2E2E2E2E2E2E2F5E2E2E2F5E2E2F5E2E2E2E2F5F5E2E2E2E2
310
E2E2E2E2E2E2E2E2E2E2E2E2E2E2E2E2E2E2E2E2E2E2E2E2E2E2E2E2E2E2E2E2E2E2E2E2E2E2E2E2E2E2E2E2E2E2E2E2E2E2E2E2E2E2F5F5E2E2E2F5F5E2E2E2E2E2E2E2F5E2E2E2F5F5E2E2F5E2E2E2E2F5E2F5E2E2E2E2E2E2E2E2E2E2E2E2E2E2E2E2E2E2E2E2E2E2E2E2E2E2E2E2E2E2E2E2E2E2E2E2E2E2E2E2E2E2E2
310
E2E2E2E2E2E2E2E2E2E2E2E2E2E2E2E2E2E2E2E2E2E2E2E2E2E2E2E2E2E2E2E2E2E2E2E2E2E2E2E2E2E2E2E2E2E2E2E2E2E2E2E2E2E2E2E2E2E2E2E2E2E2E2E2E2E2E2E2E2E2E2E2E2E2E2E2E2E2E2E2E2E2E2E2E2E2E2E2E2E2E2E2E2E2E2E2F5E2E2F5E2E2F5E2E2E2E2E2E2E2F5E2E2E2F5E2E2E2F5F5E2E2E2E2E2F5E2
310
E2E2E2E2E2E2E2E2E2E2E2E2E2E2E2E2E2E2E2E2E2E2E2E2E2E2E2E2E2E2E2E2E2E2E2E2E2E2E2E2E2E2E2E2E2E2E2E2E2E2E2E2E2E2E2F5E2E2E2E2F5E2E2F5E2E2E2E2E2E2F5E2E2E2E2E2F5E2E2F5E2E2F5E2F5E2E2E2E2E2E2E2E2E2E2E2E2E2E2E2E2E2E2E2E2E2E2E2E2E2E2E2E2E2E2E2E2E2E2E2E2E2E2E2E2E2E2
310
E2E2E2E2E2E2E2E2E2E2E2E2E2E2E2E2E2E2E2E2E2E2E2E2E2E2E2E2E2E2E2E2E2E2E2E2E2E2E2E2E2E2E2E2E2E2E2E2E2E2E2E2E2E2E2E2E2E2E2E2E2E2E2E2E2E2E2E2E2E2E2E2E2E2E2E2E2E2E2E2E2E2E2E2E2E2E2E2E2E2E2E2E2E2E2E2E2E2E2F5E2F5E2E2E2F5E2E2E2E2E2F5E2E2E2F5E2E2E2F5E2E2F5F5F5E2E2
310
E2F5E2E2E2E2E2E2E2E2E2E2E2E2E2E2E2E2E2E2E2E2E2E2E2E2E2E2E2E2E2E2E2E2E2E2E2E2E2E2E2E2E2E2E2E2E2E2E2E2E2E2E2E2E2E2F5E2E2E2F5F5E2E2E2E2F5E2E2E2E2E2E2F5E2E2E2E2E2F5E2E2F5F5E2E2F5E2E2E2E2E2E2E2E2E2E2E2E2E2E2E2E2E2E2E2E2E2E2E2E2E2E2E2E2E2E2E2E2E2E2E2E2E2E2E2E2
310
E2E2E2E2E2E2E2E2E2E2E2E2E2E2E2E2E2E2E2E2E2E2E2E2E2E2E2E2E2E2E2E2E2E2E2E2E2E2E2E2E2E2E2E2E2E2E2E2E2E2E2E2E2E2E2E2E2E2E2E2E2E2E2E2E2E2E2E2E2E2E2E2E2E2E2E2E2E2E2E2E2E2E2E2E2E2E2E2E2E2E2E2E2E2E2E2E2E2E2E2E2F5E2E2F5F5E2E2F5E2E2E2F5E2E2E2F5E2E2E2E2E2F5E2E2E2E2
310
F5E2E2E2F5F5F5E2E2E2E2E2E2E2E2E2E2E2E2E2E2E2E2E2E2E2E2E2E2E2E2E2E2E2E2E2E2E2E2E2E2E2E2E2E2E2E2E2E2E2E2E2E2E2E2F5F5F5E2E2E2F5E2E2E2E2F5E2E2F5E2E2E2E2E2E2F5E2E2E2E2E2F5E2E2E2E2F5E2E2E2E2E2E2E2E2E2E2E2E2E2E2E2E2E2E2E2E2E2E2E2E2E2E2E2E2E2E2E2E2E2E2E2E2E2E2E2
310
E2E2E2E2E2E2E2E2E2E2E2E2E2E2E2E2E2E2E2E2E2E2E2E2E2E2E2E2E2E2E2E2E2E2E2E2E2E2E2E2E2E2E2E2E2E2E2E2E2E2E2E2E2E2E2E2E2E2E2E2E2E2E2E2E2E2E2E2E2E2E2E2E2E2E2E2E2E2E2E2E2E2E2E2E2E2E2E2E2E2E2E2E2E2E2E2E2E2E2E2E2E2E2E2F5E2E2E2F5E2E2F5E2F5E2E2E2E2F5E2E2F5E2E2E2F5E2
310
E2E2E2F5E2E2E2E2E2F5E2E2E2E2E2E2E2E2E2E2E2E2E2E2E2E2E2E2E2E2E2E2E2E2E2E2E2E2E2E2E2E2E2E2E2E2E2E2E2E2E2E2E2E2E2E2F5E2E2E2E2E2F5E2E2E2F5F5F5E2E2E2F5E2E2E2E2E2E2F5E2E2E2E2E2F5E2E2F5E2E2E2E2E2E2E2E2E2E2E2E2E2E2E2E2E2E2E2E2E2E2E2E2E2E2E2E2E2E2E2E2E2E2E2E2E2E2
310
E2E2E2E2E2E2E2E2E2E2E2E2E2E2E2E2E2E2E2E2E2E2E2E2E2E2E2E2E2E2E2E2E2E2E2E2E2E2E2E2E2E2E2E2E2E2E2E2E2E2E2E2E2E2E2E2E2E2E2E2E2E2E2E2E2E2E2E2E2E2E2E2E2E2E2E2E2E2E2E2E2E2E2E2E2E2E2E2E2E2E2E2E2E2E2E2E2E2E2E2E2E2E2E2E2E2E2F5E2E2E2F5E2E2F5E2E2E2E2F5E2E2F5E2F5E2E2
310
E2F5F5E2F5E2E2E2E2E2E2E2F5F5E2E2E2E2E2E2E2E2E2E2E2E2E2E2E2E2E2E2E2E2E2E2E2E2E2E2E2E2E2E2E2E2E2E2E2E2E2E2E2E2E2E2F5F5E2E2E2E2F5E2E2F5E2F5E2E2E2F5E2E2E2F5E2E2E2E2E2E2F5E2E2F5F5E2E2F5E2E2E2E2E2E2E2E2E2E2E2E2E2E2E2E2E2E2E2E2E2E2E2E2E2E2E2E2E2E2E2E2E2E2E2E2E2
310
E2E2E2E2E2E2E2E2E2E2E2E2E2E2E2E2E2E2E2E2E2E2E2E2E2E2E2E2E2E2E2E2E2E2E2E2E2E2E2E2E2E2E2E2E2E2E2E2E2E2E2E2E2E2E2E2E2E2E2E2E2E2E2E2E2E2E2E2E2E2E2E2E2E2E2E2E2E2E2E2E2E2E2E2E2E2E2E2E2E2E2E2E2E2E2E2E2E2E2E2E2E2E2E2E2E2E2E2E2E2F5E2E2F5E2E2E2E2E2E2F5E2E2F5E2E2E2
310
F5E2E2F5E2E2F5E2E2E2E2E2F5E2E2E2F5F5F5E2E2E2E2E2E2E2E2E2E2E2E2E2E2E2E2E2E2E2E2E2E2E2E2E2E2E2E2E2E2E2E2E2E2E2E2F5F5F5E2E2E2E2F5F5E2F5E2E2F5E2E2E2E2F5E2E2E2E2F5E2E2E2E2F5E2E2E2F5E2E2F5E2E2E2E2E2E2E2E2E2E2E2E2E2E2E2E2E2E2E2E2E2E2E2E2E2E2E2E2E2E2E2E2E2E2E2E2
310
E2E2E2E2E2E2E2E2E2E2E2E2E2E2E2E2E2E2E2E2E2E2E2E2E2E2E2E2E2E2E2E2E2E2E2E2E2E2E2E2E2E2E2E2E2E2E2E2E2E2E2E2E2E2E2E2E2E2E2E2E2E2E2E2E2E2E2E2E2E2E2E2E2E2E2E2E2E2E2E2E2E2E2E2E2E2E2E2E2E2E2E2E2E2E2E2E2E2E2E2E2E2E2E2E2E2E2E2E2E2E2E2E2F5E2E2F5E2E2E2E2F5E2E2F5E2E2
310
E2E2E2F5F5E2E2F5E2E2E2E2E2F5E2F5E2E2E2E2E2F5F5F5E2E2E2E2E2E2E2E2E2E2E2E2E2E2E2E2E2E2E2E2E2E2E2E2E2E2E2E2E2E2F5F5F5E2E2E2E2E2E2E2F5E2E2F5E2E2E2E2E2E2F5E2E2E2F5F5E2E2E2E2F5E2E2E2F5E2E2F5E2E2E2E2E2E2E2E2E2E2E2E2E2E2E2E2E2E2E2E2E2E2E2E2E2E2E2E2E2E2E2E2E2E2E2
310
E2E2E2E2E2E2E2E2E2E2E2E2E2E2E2E2E2E2E2E2E2E2E2E2E2E2E2E2E2E2E2E2E2E2E2E2E2E2E2E2E2E2E2E2E2E2E2E2E2E2E2E2E2E2E2E2E2E2E2E2E2E2E2E2E2E2E2E2E2E2E2E2E2E2E2E2E2E2E2E2E2E2E2E2E2E2E2E2E2E2E2E2E2E2E2E2E2E2E2E2E2E2E2E2E2E2E2E2E2E2E2E2E2E2E2E2F5E2E2F5E2E2F5E2E2E2F5
310
E2E2F5E2E2E2E2E2E2F5E2E2E2E2E2F5E2E2F5F5F5E2E2E2E2E2F5F5F5F5E2E2E2E2E2E2E2E2E2E2E2E2E2E2E2E2E2E2E2E2E2E2F5F5F5F5E2E2E2E2E2F5E2E2E2E2E2F5E2E2F5E2E2E2E2F5E2E2E2F5E2E2E2E2E2F5E2E2E2F5E2E2F5E2E2E2E2E2E2E2E2E2E2E2E2E2E2E2E2E2E2E2E2E2E2E2E2E2E2E2E2E2E2E2E2E2E2
310
E2E2E2E2E2E2E2E2E2E2E2E2E2E2E2E2E2E2E2E2E2E2E2E2E2E2E2E2E2E2E2E2E2E2E2E2E2E2E2E2E2E2E2E2E2E2E2E2E2E2E2E2E2E2E2E2E2E2E2E2E2E2E2E2E2E2E2E2E2E2E2E2E2E2E2E2E2E2E2E2E2E2E2E2E2E2E2E2E2E2E2E2E2E2E2E2E2E2E2E2E2E2E2E2E2E2E2E2E2E2E2E2E2E2E2E2E2E2E2F5E2E2F5F5E2E2E2
310
F5E2E2F5E2F5E2E2E2E2F5E2E2E2E2E2F5E2E2E2E2E2E2F5F5F5E2E2E2E2E2E2F5F5F5F5F5F5F5F5F5F5E2E2F5F5F5F5F5F5F5F5F5F5E2E2E2E2E2E2F5F5F5F5E2E2E2E2E2F5E2E2F5E2E2F5F5E2E2E2F5E2E2E2E2E2F5E2E2E2F5E2E2F5E2E2E2E2E2E2E2E2E2E2E2E2E2E2E2E2E2E2E2E2E2E2E2E2E2E2E2E2E2E2E2E2E2
310
E2E2E2E2E2E2E2E2E2E2E2E2E2E2E2E2E2E2E2E2E2E2E2E2E2E2E2E2E2E2E2E2E2E2E2E2E2E2E2E2E2E2E2E2E2E2E2E2E2E2E2E2E2E2E2E2E2E2E2E2E2E2E2E2E2E2E2E2E2E2E2E2E2E2E2E2E2E2E2E2E2E2E2E2E2E2E2E2E2E2E2E2E2E2E2E2E2E2E2E2E2E2E2E2E2E2E2E2E2E2E2E2E2E2E2E2E2E2E2E2E2E2F5E2E2E2E2
310
E2F5E2E2E2F5E2E2F5E2E2E2F5E2E2E2E2E2F5E2E2F5E2E2E2E2E2E2F5F5F5E2E2E2E2E2E2E2E2E2E2E2E2E2F5F5E2E2E2E2E2E2E2E2E2E2E2E2E2F5F5F5E2E2E2E2F5E2E2E2E2E2F5E2E2F5E2E2F5E2E2F5E2E2E2E2E2F5E2E2F5F5E2E2F5E2E2E2E2E2E2E2E2E2E2E2E2E2E2E2E2E2E2E2E2E2E2E2E2E2E2E2E2E2E2E2E2
310
E2E2E2E2E2E2E2E2E2E2E2E2E2E2E2E2E2E2E2E2E2E2E2E2E2E2E2E2E2E2E2E2E2E2E2E2E2E2E2E2E2E2E2E2E2E2E2E2E2E2E2E2E2E2E2E2E2E2E2E2E2E2E2E2E2E2E2E2E2E2E2E2E2E2E2E2E2E2E2E2E2E2E2E2E2E2E2E2E2E2E2E2E2E2E2E2E2E2E2E2E2E2E2E2E2E2E2E2E2E2E2E2E2E2E2E2E2E2E2E2E2E2E2E2E2F5E2
310
E2E2F5E2E2E2F5E2E2E2E2F5F5F5E2E2E2E2E2F5E2E2E2F5F5F5F5E2E2E2E2E2E2F5E2E2E2E2E2E2E2E2E2E2E2E2E2E2E2E2E2E2E2E2E2E2E2F5F5F5F5E2E2E2E2E2E2E2F5E2E2E2E2E2F5E2E2E2F5E2F5E2E2E2F5E2E2E2F5E2E2F5E2E2E2F5E2E2E2E2E2E2E2E2E2E2E2E2E2E2E2E2E2E2E2E2E2E2E2E2E2E2E2E2E2E2E2
310
E2E2E2E2E2E2E2E2E2E2E2E2E2E2E2E2E2E2E2E2E2E2E2E2E2E2E2E2E2E2E2E2E2E2E2E2E2E2E2E2E2E2E2E2E2E2E2E2E2E2E2E2E2E2E2E2E2E2E2E2E2E2E2E2E2E2E2E2E2E2E2E2E2E2E2E2E2E2E2E2E2E2E2E2E2E2E2E2E2E2E2E2E2E2E2E2E2E2E2E2E2E2E2E2E2E2E2E2E2E2E2E2E2E2E2E2E2E2E2E2E2E2E2E2E2E2E2
310
E2F5F5E2E2F5E2E2E2F5E2E2E2E2E2E2E2E2E2E2E2F5E2E2F5E2E2E2E2F5F5E2E2E2E2F5E2E2E2E2F5F5F5F5F5F5F5F5F5F5F5F5F5E2E2E2E2F5F5E2E2E2E2E2E2E2F5F5F5E2E2F5E2E2E2E2E2F5E2E2F5E2E2F5E2E2F5E2F5F5E2E2F5E2E2F5F5E2E2E2E2E2E2E2E2E2E2E2E2E2E2E2E2E2E2E2E2E2E2E2E2E2E2E2E2E2E2
310
E2E2E2E2E2E2E2E2E2E2E2E2E2E2E2E2E2E2E2E2E2E2E2E2E2E2E2E2E2E2E2E2E2E2E2E2E2E2E2E2E2E2E2E2E2E2E2E2E2E2E2E2E2E2E2E2E2E2E2E2E2E2E2E2E2E2E2E2E2E2E2E2E2E2E2E2E2E2E2E2E2E2E2E2E2E2E2E2E2E2E2E2E2E2E2E2E2E2E2E2E2E2E2E2E2E2E2E2E2E2E2E2E2E2E2E2E2E2E2E2E2E2E2E2E2E2E2
310
E2E2E2E2E2F5E2E2F5F5E2E2F5E2E2E2E2E2E2E2E2E2F5E2E2E2F5E2E2E2E2E2E2F5F5E2E2F5E2E2E2E2F5E2E2E2E2E2E2E2E2E2E2E2F5E2E2E2E2F5E2E2E2E2E2F5F5F5E2E2F5E2E2F5E2E2E2E2E2F5E2E2E2F5E2E2F5E2E2F5E2E2F5F5E2E2F5E2E2E2E2E2E2E2E2E2E2E2E2E2E2E2E2E2E2E2E2E2E2E2E2E2E2E2E2E2E2
310
E2E2E2E2E2E2E2E2E2E2E2E2E2E2E2E2E2E2E2E2E2E2E2E2E2E2E2E2E2E2E2E2E2E2E2E2E2E2E2E2E2E2E2E2E2E2E2E2E2E2E2E2E2E2E2E2E2E2E2E2E2E2E2E2E2E2E2E2E2E2E2E2E2E2E2E2E2E2E2E2E2E2E2E2E2E2E2E2E2E2E2E2E2E2E2E2E2E2E2E2E2E2E2E2E2E2E2E2E2E2E2E2E2E2E2E2E2E2E2E2E2E2E2E2E2E2E2
310
E2E2E2E2E2E2E2E2F5E2E2E2F5E2E2F5F5F5E2E2E2E2E2E2F5E2E2F5E2E2F5F5F5E2E2E2F5E2F5E2E2E2E2E2F5E2E2E2E2E2E2E2E2E2E2E2F5E2E2E2E2F5E2E2E2F5F5E2E2E2E2E2E2F5E2F5E2E2E2E2E2E2F5E2E2E2F5E2E2F5E2E2E2F5E2E2E2F5E2E2E2E2E2E2E2E2E2E2E2E2E2E2E2E2E2E2E2E2E2E2E2E2E2E2E2E2E2
310
E2E2E2E2E2E2E2E2E2E2E2E2E2E2E2E2E2E2E2E2E2E2E2E2E2E2E2E2E2E2E2E2E2E2E2E2E2E2E2E2E2E2E2E2E2E2E2E2E2E2E2E2E2E2E2E2E2E2E2E2E2E2E2E2E2E2E2E2E2E2E2E2E2E2E2E2E2E2E2E2E2E2E2E2E2E2E2E2E2E2E2E2E2E2E2E2E2E2E2E2E2E2E2E2E2E2E2E2E2E2E2E2E2E2E2E2E2E2E2E2E2E2E2E2E2E2E2
310
E2E2E2E2E2E2E2E2E2E2E2F5F5E2E2F5E2E2E2E2F5E2E2E2E2F5E2E2E2F5E2E2F5E2E2F5F5F5E2E2F5E2E2E2E2E2F5E2F5F5F5F5F5F5F5F5F5E2F5E2E2E2E2F5E2E2E2F5E2E2E2E2E2F5F5F5E2E2F5E2E2E2E2E2F5E2E2E2F5E2E2F5E2F5F5E2E2F5F5E2E2E2E2E2E2E2E2E2E2E2E2E2E2E2E2E2E2E2E2E2E2E2E2E2E2E2E2
310
E2E2E2E2E2E2E2E2E2E2E2E2E2E2E2E2E2E2E2E2E2E2E2E2E2E2E2E2E2E2E2E2E2E2E2E2E2E2E2E2E2E2E2E2E2E2E2E2E2E2E2E2E2E2E2E2E2E2E2E2E2E2E2E2E2E2E2E2E2E2E2E2E2E2E2E2E2E2E2E2E2E2E2E2E2E2E2E2E2E2E2E2E2E2E2E2E2E2E2E2E2E2E2E2E2E2E2E2E2E2E2E2E2E2E2E2E2E2E2E2E2E2E2E2E2E2E2
310
E2E2E2E2E2E2E2E2E2E2E2E2E2E2E2F5E2E2F5F5E2E2E2F5E2E2E2F5E2E2F5E2E2F5E2E2E2E2E2E2E2E2F5E2E2E2E2F5E2E2F5E2E2E2E2E2E2E2F5E2F5E2E2E2E2E2F5E2E2F5E2E2F5F5F5E2E2E2E2E2F5E2E2E2E2E2E2F5E2E2E2F5E2E2F5E2E2E2F5E2E2E2E2E2E2E2E2E2E2E2E2E2E2E2E2E2E2E2E2E2E2E2E2E2E2E2E2
310
E2E2E2E2E2E2E2E2E2E2E2E2E2E2E2E2E2E2E2E2E2E2E2E2E2E2E2E2E2E2E2E2E2E2E2E2E2E2E2E2E2E2E2E2E2E2E2E2E2E2E2E2E2E2E2E2E2E2E2E2E2E2E2E2E2E2E2E2E2E2E2E2E2E2E2E2E2E2E2E2E2E2E2E2E2E2E2E2E2E2E2E2E2E2E2E2E2E2E2E2E2E2E2E2E2E2E2E2E2E2E2E2E2E2E2E2E2E2E2E2E2E2E2E2E2E2E2
310
E2E2E2E2E2E2E2E2E2E2E2E2E2E2E2E2E2E2F5E2E2E2F5E2E2E2F5F5F5E2E2E2F5E2E2F5E2F5E2E2E2E2E2E2F5E2E2E2E2F5E2E2F5E2E2E2E2E2E2E2F5E2E2F5E2E2E2E2F5E2E2F5E2E2F5E2E2E2E2E2F5F5E2E2E2E2E2E2E2F5E2E2E2F5E2E2E2E2E2F5E2E2E2E2E2E2E2E2E2E2E2E2E2E2E2E2E2E2E2E2E2E2E2E2E2E2E2
310
E2E2E2E2E2E2E2E2E2E2E2E2E2E2E2E2E2E2E2E2E2E2E2E2E2E2E2E2E2E2E2E2E2E2E2E2E2E2E2E2E2E2E2E2E2E2E2E2E2E2E2E2E2E2E2E2E2E2E2E2E2E2E2E2E2E2E2E2E2E2E2E2E2E2E2E2E2E2E2E2E2E2E2E2E2E2E2E2E2E2E2E2E2E2E2E2E2E2E2E2E2E2E2E2E2E2E2E2E2E2E2E2E2E2E2E2E2E2E2E2E2E2E2E2E2E2E2
310
E2E2E2E2E2E2E2E2E2E2E2E2E2E2E2E2E2E2E2E2E2F5F5E2E2F5F5E2E2E2E2E2E2F5E2E2E2F5E2F5F5F5F5E2E2F5E2E2E2E2E2F5E2E2F5E2E2F5F5F5F5F5F5E2E2F5E2E2E2E2F5E2E2E2F5E2F5E2E2F5F5F5E2E2E2E2E2E2E2F5F5E2E2E2E2E2F5E2E2F5F5E2E2E2E2E2E2E2E2E2E2E2E2E2E2E2E2E2E2E2E2E2E2E2E2E2E2
310
E2E2E2E2E2E2E2E2E2E2E2E2E2E2E2E2E2E2E2E2E2E2E2E2E2E2E2E2E2E2E2E2E2E2E2E2E2E2E2E2E2E2E2E2E2E2E2E2E2E2E2E2E2E2E2E2E2E2E2E2E2E2E2E2E2E2E2E2E2E2E2E2E2E2E2E2E2E2E2E2E2E2E2E2E2E2E2E2E2E2E2E2E2E2E2E2E2E2E2E2E2E2E2E2E2E2E2E2E2E2E2E2E2E2E2E2E2E2E2E2E2E2E2E2E2E2E2
310
E2E2E2E2E2E2E2E2E2E2E2E2E2E2E2E2E2E2E2E2E2E2E2E2E2F5E2E2E2F5E2E2E2E2E2F5E2E2F5E2E2F5E2E2E2F5F5F5E2E2E2E2E2F5E2E2F5E2E2F5E2E2E2E2E2E2E2F5E2E2E2E2F5E2E2E2F5E2E2F5E2F5E2E2E2E2E2E2E2F5F5E2E2E2F5F5F5F5E2E2F5E2E2E2E2E2E2E2E2E2E2E2E2E2E2E2E2E2E2E2E2E2E2E2E2E2E2
310
E2E2E2E2E2E2E2E2E2E2E2E2E2E2E2E2E2E2E2E2E2E2E2E2E2E2E2E2E2E2E2E2E2E2E2E2E2E2E2E2E2E2E2E2E2E2E2E2E2E2E2E2E2E2E2E2E2E2E2E2E2E2E2E2E2E2E2E2E2E2E2E2E2E2E2E2E2E2E2E2E2E2E2E2E2E2E2E2E2E2E2E2E2E2E2E2E2E2E2E2E2E2E2E2E2E2E2E2E2E2E2E2E2E2E2E2E2E2E2E2E2E2E2E2E2E2E2
310
E2E2E2E2E2E2E2E2E2E2E2E2E2E2E2E2E2E2E2E2E2E2E2E2E2E2E2E2F5F5E2E2F5F5F5E2F5E2E2E2F5E2F5E2E2E2E2E2E2E2E2E2E2E2E2F5E2E2F5E2E2F5E2E2E2E2E2E2E2F5E2E2E2E2F5E2E2E2F5E2E2F5E2E2F5E2E2E2F5F5F5E2E2E2E2F5E2E2E2E2F5F5E2E2E2E2E2E2E2E2E2E2E2E2E2E2E2E2E2E2E2E2E2E2E2E2E2
310
E2E2E2E2E2E2E2E2E2E2E2E2E2E2E2E2E2E2E2E2E2E2E2E2E2E2E2E2E2E2E2E2E2E2E2E2E2E2E2E2E2E2E2E2E2E2E2E2E2E2E2E2E2E2E2E2E2E2E2E2E2E2E2E2E2E2E2E2E2E2E2E2E2E2E2E2E2E2E2E2E2E2E2E2E2E2E2E2E2E2E2E2E2E2E2E2E2E2E2E2E2E2E2E2E2E2E2E2E2E2E2E2E2E2E2E2E2E2E2E2E2E2E2E2E2E2E2
310
E2E2E2E2E2E2E2E2E2E2E2E2E2E2E2E2E2E2E2E2E2E2E2E2E2E2E2E2E2E2E2E2F5E2E2E2E2F5F5E2E2F5E2E2F5F5F5E2E2E2E2E2E2E2E2E2E2F5E2E2F5E2E2F5E2F5F5F5F5F5F5F5E2E2E2E2F5E2E2E2F5E2E2F5E2E2F5F5F5F5E2E2E2E2E2F5F5E2E2E2E2F5E2E2E2E2E2E2E2E2E2E2E2E2E2E2E2E2E2E2E2E2E2E2E2E2E2
310
E2E2E2E2E2E2E2E2E2E2E2E2E2E2E2E2E2E2E2E2E2E2E2E2E2E2E2E2E2E2E2E2E2E2E2E2E2E2E2E2E2E2E2E2E2E2E2E2E2E2E2E2E2E2E2E2E2E2E2E2E2E2E2E2E2E2E2E2E2E2E2E2E2E2E2E2E2E2E2E2E2E2E2E2E2E2E2E2E2E2E2E2E2E2E2E2E2E2E2E2E2E2E2E2E2E2E2E2E2E2E2E2E2E2E2E2E2E2E2E2E2E2E2E2E2E2E2
310
E2E2E2E2E2E2E2E2E2E2E2E2E2E2E2E2E2E2E2E2E2E2E2E2E2E2E2E2E2E2E2E2E2E2E2F5F5F5E2E2E2E2E2F5E2E2E2E2E2F5F5F5E2E2E2E2E2E2F5E2E2F5E2E2E2F5E2F5E2E2E2E2E2E2E2E2E2E2E2F5E2E2F5E2E2F5E2E2F5E2E2E2E2E2F5F5F5E2E2E2F5F5F5E2E2E2E2E2E2E2E2E2E2E2E2E2E2E2E2E2E2E2E2E2E2E2E2
310
E2E2E2E2E2E2E2E2E2E2E2E2E2E2E2E2E2E2E2E2E2E2E2E2E2E2E2E2E2E2E2E2E2E2E2E2E2E2E2E2E2E2E2E2E2E2E2E2E2E2E2E2E2E2E2E2E2E2E2E2E2E2E2E2E2E2E2E2E2E2E2E2E2E2E2E2E2E2E2E2E2E2E2E2E2E2E2E2E2E2E2E2E2E2E2E2E2E2E2E2E2E2E2E2E2E2E2E2E2E2E2E2E2E2E2E2E2E2E2E2E2E2E2E2E2E2E2
310
E2E2E2E2E2E2E2E2E2E2E2E2E2E2E2E2E2E2E2E2E2E2E2E2E2E2E2E2E2E2E2E2E2E2E2E2E2E2E2E2F5F5E2E2E2E2F5F5F5E2E2E2E2E2F5F5F5F5E2E2F5E2E2F5E2E2F5E2E2F5E2E2E2E2E2E2E2E2E2E2E2F5E2E2F5E2E2E2F5E2E2E2E2F5F5F5E2E2E2E2F5F5E2E2E2E2E2E2E2E2E2E2E2E2E2E2E2E2E2E2E2E2E2E2E2E2E2
310
E2E2E2E2E2E2E2E2E2E2E2E2E2E2E2E2E2E2E2E2E2E2E2E2E2E2E2E2E2E2E2E2E2E2E2E2E2E2E2E2E2E2E2E2E2E2E2E2E2E2E2E2E2E2E2E2E2E2E2E2E2E2E2E2E2E2E2E2E2E2E2E2E2E2E2E2E2E2E2E2E2E2E2E2E2E2E2E2E2E2E2E2E2E2E2E2E2E2E2E2E2E2E2E2E2E2E2E2E2E2E2E2E2E2E2E2E2E2E2E2E2E2E2E2E2E2E2
310
E2E2E2E2E2E2E2E2E2E2E2E2E2E2E2E2E2E2E2E2E2E2E2E2E2E2E2E2E2E2E2E2E2E2E2E2E2E2E2E2E2E2E2E2F5F5F5E2E2E2E2F5F5F5E2E2E2E2E2E2F5F5F5E2E2F5E2E2F5E2E2F5E2E2E2E2E2F5F5F5F5F5F5F5E2E2E2F5E2E2F5E2F5F5F5E2E2E2E2F5F5F5E2E2E2E2E2E2E2E2E2E2E2E2E2E2E2E2E2E2E2E2E2E2E2E2E2
310
E2E2E2E2E2E2E2E2E2E2E2E2E2E2E2E2E2E2E2E2E2E2E2E2E2E2E2E2E2E2E2E2E2E2E2E2E2E2E2E2E2E2E2E2E2E2E2E2E2E2E2E2E2E2E2E2E2E2E2E2E2E2E2E2E2E2E2E2E2E2E2E2E2E2E2E2E2E2E2E2E2E2E2E2E2E2E2E2E2E2E2E2E2E2E2E2E2E2E2E2E2E2E2E2E2E2E2E2E2E2E2E2E2E2E2E2E2E2E2E2E2E2E2E2E2E2E2
310
E2E2E2E2E2E2E2E2E2E2E2E2E2E2E2E2E2E2E2E2E2E2E2E2E2E2E2E2E2E2E2E2E2E2E2E2E2E2E2E2E2E2E2E2E2E2E2E2E2F5F5E2E2E2E2E2F5F5F5F5E2E2E2E2E2E2E2F5E2E2F5E2E2F5F5F5F5F5F5E2E2E2E2E2E2E2E2E2E2F5E2E2F5F5E2E2E2E2E2F5F5E2E2E2E2E2E2E2E2E2E2E2E2E2E2E2E2E2E2E2E2E2E2E2E2E2E2
310
E2E2E2E2E2E2E2E2E2E2E2E2E2E2E2E2E2E2E2E2E2E2E2E2E2E2E2E2E2E2E2E2E2E2E2E2E2E2E2E2E2E2E2E2E2E2E2E2E2E2E2E2E2E2E2E2E2E2E2E2E2E2E2E2E2E2E2E2E2E2E2E2E2E2E2E2E2E2E2E2E2E2E2E2E2E2E2E2E2E2E2E2E2E2E2E2E2E2E2E2E2E2E2E2E2E2E2E2E2E2E2E2E2E2E2E2E2E2E2E2E2E2E2E2E2E2E2
310
E2E2E2E2E2E2E2E2E2E2E2E2E2E2E2E2E2E2E2E2E2E2E2E2E2E2E2E2E2E2E2E2E2E2E2E2E2E2E2E2E2E2E2E2E2E2E2E2E2E2E2E2E2F5F5F5E2E2E2E2E2E2F5F5F5F5F5E2E2F5E2E2F5E2E2E2E2E2E2E2E2E2E2E2E2E2F5F5F5F5F5F5E2E2E2E2E2E2F5F5F5E2E2E2E2E2E2E2E2E2E2E2E2E2E2E2E2E2E2E2E2E2E2E2E2E2E2
310
E2E2E2E2E2E2E2E2E2E2E2E2E2E2E2E2E2E2E2E2E2E2E2E2E2E2E2E2E2E2E2E2E2E2E2E2E2E2E2E2E2E2E2E2E2E2E2E2E2E2E2E2E2E2E2E2E2E2E2E2E2E2E2E2E2E2E2E2E2E2E2E2E2E2E2E2E2E2E2E2E2E2E2E2E2E2E2E2E2E2E2E2E2E2E2E2E2E2E2E2E2E2E2E2E2E2E2E2E2E2E2E2E2E2E2E2E2E2E2E2E2E2E2E2E2E2E2
310
E2E2E2E2E2E2E2E2E2E2E2E2E2E2E2E2E2E2E2E2E2E2E2E2E2E2E2E2E2E2E2E2E2E2E2E2E2E2E2E2E2E2E2E2E2E2E2E2E2E2E2E2E2E2E2E2E2E2F5F5F5F5F5E2E2E2E2E2E2F5F5F5E2E2F5F5F5F5F5F5F5F5F5F5F5F5F5F5E2E2E2E2E2E2E2F5F5F5F5F5E2E2E2E2E2E2E2E2E2E2E2E2E2E2E2E2E2E2E2E2E2E2E2E2E2E2E2
310
E2E2E2E2E2E2E2E2E2E2E2E2E2E2E2E2E2E2E2E2E2E2E2E2E2E2E2E2E2E2E2E2E2E2E2E2E2E2E2E2E2E2E2E2E2E2E2E2E2E2E2E2E2E2E2E2E2E2E2E2E2E2E2E2E2E2E2E2E2E2E2E2E2E2E2E2E2E2E2E2E2E2E2E2E2E2E2E2E2E2E2E2E2E2E2E2E2E2E2E2E2E2E2E2E2E2E2E2E2E2E2E2E2E2E2E2E2E2E2E2E2E2E2E2E2E2E2
310
E2E2E2E2E2E2E2E2E2E2E2E2E2E2E2E2E2E2E2E2E2E2E2E2E2E2E2E2E2E2E2E2E2E2E2E2E2E2E2E2E2E2E2E2E2E2E2E2E2E2E2E2E2E2E2E2E2E2E2E2E2E2E2E2E2F5F5F5F5F5E2E2E2E2E2E2E2E2E2E2E2E2E2E2E2E2E2E2E2E2E2E2F5F5F5F5F5E2E2E2E2E2E2E2E2E2E2E2E2E2E2E2E2E2E2E2E2E2E2E2E2E2E2E2E2E2E2
310
E2E2E2E2E2E2E2E2E2E2E2E2E2E2E2E2E2E2E2E2E2E2E2E2E2E2E2E2E2E2E2E2E2E2E2E2E2E2E2E2E2E2E2E2E2E2E2E2E2E2E2E2E2E2E2E2E2E2E2E2E2E2E2E2E2E2E2E2E2E2E2E2E2E2E2E2E2E2E2E2E2E2E2E2E2E2E2E2E2E2E2E2E2E2E2E2E2E2E2E2E2E2E2E2E2E2E2E2E2E2E2E2E2E2E2E2E2E2E2E2E2E2E2E2E2E2E2
310
E2E2E2E2E2E2E2E2E2E2E2E2E2E2E2E2E2E2E2E2E2E2E2E2E2E2E2E2E2E2E2E2E2E2E2E2E2E2E2E2E2E2E2E2E2E2E2E2E2E2E2E2E2E2E2E2E2E2E2E2E2E2E2E2E2E2E2E2E2E2E2E2F5F5F5F5F5F5F5F5F5F5F5F5F5F5F5F5F5F5F5F5F5F5E2E2E2E2E2E2E2E2E2E2E2E2E2E2E2E2E2E2E2E2E2E2E2E2E2E2E2E2E2E2E2E2E2
310
E2E2E2E2E2E2E2E2E2E2E2E2E2E2E2E2E2E2E2E2E2E2E2E2E2E2E2E2E2E2E2E2E2E2E2E2E2E2E2E2E2E2E2E2E2E2E2E2E2E2E2E2E2E2E2E2E2E2E2E2E2E2E2E2E2E2E2E2E2E2E2E2E2E2E2E2E2E2E2E2E2E2E2E2E2E2E2E2E2E2E2E2E2E2E2E2E2E2E2E2E2E2E2E2E2E2E2E2E2E2E2E2E2E2E2E2E2E2E2E2E2E2E2E2E2E2E2
310
E2E2E2E2E2E2E2E2E2E2E2E2E2E2E2E2E2E2E2E2E2E2E2E2E2E2E2E2E2E2E2E2E2E2E2E2E2E2E2E2E2E2E2E2E2E2E2E2E2E2E2E2E2E2E2E2E2E2E2E2E2E2E2E2E2E2E2E2E2E2E2E2E2E2E2E2E2E2E2E2E2E2E2E2E2E2E2E2E2E2E2E2E2E2E2E2E2E2E2E2E2E2E2E2E2E2E2E2E2E2E2E2E2E2E2E2E2E2E2E2E2E2E2E2E2E2E2
310
E2E2E2E2E2E2E2E2E2E2E2E2E2E2E2E2E2E2E2E2E2E2E2E2E2E2E2E2E2E2E2E2E2E2E2E2E2E2E2E2E2E2E2E2E2E2E2E2E2E2E2E2E2E2E2E2E2E2E2E2E2E2E2E2E2E2E2E2E2E2E2E2E2E2E2E2E2E2E2E2E2E2E2E2E2E2
  0
XRECORD
  5
195
102
{ACAD_REACTORS
330
193
102
}
330
193
100
AcDbXrecord
280
     1
270
     1
271
     1
  0
XRECORD
  5
194
102
{ACAD_REACTORS
330
193
102
}
330
193
100
AcDbXrecord
280
     1
270
     1
271
     1
  0
XRECORD
  5
198
102
{ACAD_REACTORS
330
193
102
}
330
193
100
AcDbXrecord
280
     1
270
     1
271
     1
  0
XRECORD
  5
197
102
{ACAD_REACTORS
330
193
102
}
330
193
100
AcDbXrecord
280
     1
270
     1
271
     1
  0
XRECORD
  5
199
102
{ACAD_REACTORS
330
193
102
}
330
193
100
AcDbXrecord
280
     1
270
     1
271
     1
  0
XRECORD
  5
196
102
{ACAD_REACTORS
330
193
102
}
330
193
100
AcDbXrecord
280
     1
270
     1
271
     1
  0
XRECORD
  5
18D
102
{ACAD_REACTORS
330
18B
102
}
330
18B
100
AcDbXrecord
280
     1
270
     1
271
     1
  0
XRECORD
  5
18C
102
{ACAD_REACTORS
330
18B
102
}
330
18B
100
AcDbXrecord
280
     1
270
     1
271
     1
  0
XRECORD
  5
190
102
{ACAD_REACTORS
330
18B
102
}
330
18B
100
AcDbXrecord
280
     1
270
     1
271
     1
  0
XRECORD
  5
18F
102
{ACAD_REACTORS
330
18B
102
}
330
18B
100
AcDbXrecord
280
     1
270
     1
271
     1
  0
XRECORD
  5
191
102
{ACAD_REACTORS
330
18B
102
}
330
18B
100
AcDbXrecord
280
     1
270
     1
271
     1
  0
XRECORD
  5
18E
102
{ACAD_REACTORS
330
18B
102
}
330
18B
100
AcDbXrecord
280
     1
270
     1
271
     1
  0
XRECORD
  5
19D
102
{ACAD_REACTORS
330
19B
102
}
330
19B
100
AcDbXrecord
280
     1
270
     1
271
     1
  0
XRECORD
  5
19C
102
{ACAD_REACTORS
330
19B
102
}
330
19B
100
AcDbXrecord
280
     1
270
     1
271
     1
  0
XRECORD
  5
1A0
102
{ACAD_REACTORS
330
19B
102
}
330
19B
100
AcDbXrecord
280
     1
270
     1
271
     1
  0
XRECORD
  5
19F
102
{ACAD_REACTORS
330
19B
102
}
330
19B
100
AcDbXrecord
280
     1
270
     1
271
     1
  0
XRECORD
  5
1A1
102
{ACAD_REACTORS
330
19B
102
}
330
19B
100
AcDbXrecord
280
     1
270
     1
271
     1
  0
XRECORD
  5
19E
102
{ACAD_REACTORS
330
19B
102
}
330
19B
100
AcDbXrecord
280
     1
270
     1
271
     1
  0
CELLSTYLEMAP
  5
12FB
102
{ACAD_REACTORS
330
1292
102
}
330
1292
100
AcDbCellStyleMap
 90
        3
300
CELLSTYLE
  1
TABLEFORMAT_BEGIN
 90
        5
170
     1
 91
        0
 92
    32768
 62
   257
 93
        1
300
CONTENTFORMAT
  1
CONTENTFORMAT_BEGIN
 90
        0
 91
        0
 92
      512
 93
        0
300

 40
0.0
140
1.0
 94
        5
 62
     0
340
1D9
144
0.25
309
CONTENTFORMAT_END
171
     1
301
MARGIN
  1
CELLMARGIN_BEGIN
 40
0.06
 40
0.06
 40
0.06
 40
0.06
 40
0.18
 40
0.18
309
CELLMARGIN_END
 94
        6
 95
        1
302
GRIDFORMAT
  1
GRIDFORMAT_BEGIN
 90
        0
 91
        1
 62
     0
 92
       -2
340
0
 93
        0
 40
0.045
309
GRIDFORMAT_END
 95
        2
302
GRIDFORMAT
  1
GRIDFORMAT_BEGIN
 90
        0
 91
        1
 62
     0
 92
       -2
340
0
 93
        0
 40
0.045
309
GRIDFORMAT_END
 95
        4
302
GRIDFORMAT
  1
GRIDFORMAT_BEGIN
 90
        0
 91
        1
 62
     0
 92
       -2
340
0
 93
        0
 40
0.045
309
GRIDFORMAT_END
 95
        8
302
GRIDFORMAT
  1
GRIDFORMAT_BEGIN
 90
        0
 91
        1
 62
     0
 92
       -2
340
0
 93
        0
 40
0.045
309
GRIDFORMAT_END
 95
       16
302
GRIDFORMAT
  1
GRIDFORMAT_BEGIN
 90
        0
 91
        1
 62
     0
 92
       -2
340
0
 93
        0
 40
0.045
309
GRIDFORMAT_END
 95
       32
302
GRIDFORMAT
  1
GRIDFORMAT_BEGIN
 90
        0
 91
        1
 62
     0
 92
       -2
340
0
 93
        0
 40
0.045
309
GRIDFORMAT_END
309
TABLEFORMAT_END
  1
CELLSTYLE_BEGIN
 90
        1
 91
        1
300
_TITLE
309
CELLSTYLE_END
300
CELLSTYLE
  1
TABLEFORMAT_BEGIN
 90
        5
170
     1
 91
        0
 92
        0
 62
   257
 93
        1
300
CONTENTFORMAT
  1
CONTENTFORMAT_BEGIN
 90
        0
 91
        0
 92
      512
 93
        0
300

 40
0.0
140
1.0
 94
        5
 62
     0
340
1D9
144
0.18
309
CONTENTFORMAT_END
171
     1
301
MARGIN
  1
CELLMARGIN_BEGIN
 40
0.06
 40
0.06
 40
0.06
 40
0.06
 40
0.18
 40
0.18
309
CELLMARGIN_END
 94
        6
 95
        1
302
GRIDFORMAT
  1
GRIDFORMAT_BEGIN
 90
        0
 91
        1
 62
     0
 92
       -2
340
0
 93
        0
 40
0.045
309
GRIDFORMAT_END
 95
        2
302
GRIDFORMAT
  1
GRIDFORMAT_BEGIN
 90
        0
 91
        1
 62
     0
 92
       -2
340
0
 93
        0
 40
0.045
309
GRIDFORMAT_END
 95
        4
302
GRIDFORMAT
  1
GRIDFORMAT_BEGIN
 90
        0
 91
        1
 62
     0
 92
       -2
340
0
 93
        0
 40
0.045
309
GRIDFORMAT_END
 95
        8
302
GRIDFORMAT
  1
GRIDFORMAT_BEGIN
 90
        0
 91
        1
 62
     0
 92
       -2
340
0
 93
        0
 40
0.045
309
GRIDFORMAT_END
 95
       16
302
GRIDFORMAT
  1
GRIDFORMAT_BEGIN
 90
        0
 91
        1
 62
     0
 92
       -2
340
0
 93
        0
 40
0.045
309
GRIDFORMAT_END
 95
       32
302
GRIDFORMAT
  1
GRIDFORMAT_BEGIN
 90
        0
 91
        1
 62
     0
 92
       -2
340
0
 93
        0
 40
0.045
309
GRIDFORMAT_END
309
TABLEFORMAT_END
  1
CELLSTYLE_BEGIN
 90
        2
 91
        1
300
_HEADER
309
CELLSTYLE_END
300
CELLSTYLE
  1
TABLEFORMAT_BEGIN
 90
        5
170
     1
 91
        0
 92
        0
 62
   257
 93
        1
300
CONTENTFORMAT
  1
CONTENTFORMAT_BEGIN
 90
        0
 91
        0
 92
      512
 93
        0
300

 40
0.0
140
1.0
 94
        2
 62
     0
340
1D9
144
0.18
309
CONTENTFORMAT_END
171
     1
301
MARGIN
  1
CELLMARGIN_BEGIN
 40
0.06
 40
0.06
 40
0.06
 40
0.06
 40
0.18
 40
0.18
309
CELLMARGIN_END
 94
        6
 95
        1
302
GRIDFORMAT
  1
GRIDFORMAT_BEGIN
 90
        0
 91
        1
 62
     0
 92
       -2
340
0
 93
        0
 40
0.045
309
GRIDFORMAT_END
 95
        2
302
GRIDFORMAT
  1
GRIDFORMAT_BEGIN
 90
        0
 91
        1
 62
     0
 92
       -2
340
0
 93
        0
 40
0.045
309
GRIDFORMAT_END
 95
        4
302
GRIDFORMAT
  1
GRIDFORMAT_BEGIN
 90
        0
 91
        1
 62
     0
 92
       -2
340
0
 93
        0
 40
0.045
309
GRIDFORMAT_END
 95
        8
302
GRIDFORMAT
  1
GRIDFORMAT_BEGIN
 90
        0
 91
        1
 62
     0
 92
       -2
340
0
 93
        0
 40
0.045
309
GRIDFORMAT_END
 95
       16
302
GRIDFORMAT
  1
GRIDFORMAT_BEGIN
 90
        0
 91
        1
 62
     0
 92
       -2
340
0
 93
        0
 40
0.045
309
GRIDFORMAT_END
 95
       32
302
GRIDFORMAT
  1
GRIDFORMAT_BEGIN
 90
        0
 91
        1
 62
     0
 92
       -2
340
0
 93
        0
 40
0.045
309
GRIDFORMAT_END
309
TABLEFORMAT_END
  1
CELLSTYLE_BEGIN
 90
        3
 91
        2
300
_DATA
309
CELLSTYLE_END
  0
XRECORD
  5
1308
102
{ACAD_REACTORS
330
1307
102
}
330
1307
100
AcDbXrecord
280
     1
102
RTVSPropertyOp0
 70
     1
102
RTVSPropertyOp1
 70
     1
102
RTVSPropertyOp2
 70
     1
102
RTVSPropertyOp3
 70
     1
102
RTVSPropertyOp4
 70
     1
102
RTVSPropertyOp5
 70
     1
102
RTVSPropertyOp6
 70
     1
102
RTVSPropertyOp7
 70
     1
102
RTVSPropertyOp8
 70
     1
102
RTVSPropertyOp9
 70
     1
102
RTVSPropertyOp10
 70
     1
102
RTVSPropertyOp11
 70
     1
102
RTVSPropertyOp12
 70
     1
102
RTVSPropertyOp13
 70
     1
102
RTVSPropertyOp14
 70
     1
102
RTVSPropertyOp15
 70
     1
102
RTVSPropertyOp16
 70
     1
102
RTVSPropertyOp17
 70
     1
102
RTVSPropertyOp18
 70
     1
102
RTVSPropertyOp19
 70
     1
102
RTVSPropertyOp20
 70
     1
102
RTVSPropertyOp21
 70
     1
102
RTVSPropertyOp22
 70
     1
102
RTVSPropertyOp23
 70
     1
102
RTVSPropertyOp24
 70
     1
102
RTVSPropertyOp25
 70
     1
102
RTVSPropertyOp26
 70
     1
102
RTVSPropertyOp27
 70
     1
  0
XRECORD
  5
130C
102
{ACAD_REACTORS
330
130B
102
}
330
130B
100
AcDbXrecord
280
     1
102
RTVSPropertyOp0
 70
     1
102
RTVSPropertyOp1
 70
     1
102
RTVSPropertyOp2
 70
     1
102
RTVSPropertyOp3
 70
     1
102
RTVSPropertyOp4
 70
     1
102
RTVSPropertyOp5
 70
     1
102
RTVSPropertyOp6
 70
     1
102
RTVSPropertyOp7
 70
     1
102
RTVSPropertyOp8
 70
     1
102
RTVSPropertyOp9
 70
     1
102
RTVSPropertyOp10
 70
     1
102
RTVSPropertyOp11
 70
     1
102
RTVSPropertyOp12
 70
     1
102
RTVSPropertyOp13
 70
     1
102
RTVSPropertyOp14
 70
     1
102
RTVSPropertyOp15
 70
     1
102
RTVSPropertyOp16
 70
     1
102
RTVSPropertyOp17
 70
     1
102
RTVSPropertyOp18
 70
     1
102
RTVSPropertyOp19
 70
     1
102
RTVSPropertyOp20
 70
     1
102
RTVSPropertyOp21
 70
     1
102
RTVSPropertyOp22
 70
     1
102
RTVSPropertyOp23
 70
     1
102
RTVSPropertyOp24
 70
     1
102
RTVSPropertyOp25
 70
     1
102
RTVSPropertyOp26
 70
     1
102
RTVSPropertyOp27
 70
     1
  0
XRECORD
  5
130A
102
{ACAD_REACTORS
330
1309
102
}
330
1309
100
AcDbXrecord
280
     1
102
RTVSPropertyOp0
 70
     1
102
RTVSPropertyOp1
 70
     1
102
RTVSPropertyOp2
 70
     1
102
RTVSPropertyOp3
 70
     1
102
RTVSPropertyOp4
 70
     1
102
RTVSPropertyOp5
 70
     1
102
RTVSPropertyOp6
 70
     1
102
RTVSPropertyOp7
 70
     1
102
RTVSPropertyOp8
 70
     1
102
RTVSPropertyOp9
 70
     1
102
RTVSPropertyOp10
 70
     1
102
RTVSPropertyOp11
 70
     1
102
RTVSPropertyOp12
 70
     1
102
RTVSPropertyOp13
 70
     1
102
RTVSPropertyOp14
 70
     1
102
RTVSPropertyOp15
 70
     1
102
RTVSPropertyOp16
 70
     1
102
RTVSPropertyOp17
 70
     1
102
RTVSPropertyOp18
 70
     1
102
RTVSPropertyOp19
 70
     1
102
RTVSPropertyOp20
 70
     1
102
RTVSPropertyOp21
 70
     1
102
RTVSPropertyOp22
 70
     1
102
RTVSPropertyOp23
 70
     1
102
RTVSPropertyOp24
 70
     1
102
RTVSPropertyOp25
 70
     1
102
RTVSPropertyOp26
 70
     1
102
RTVSPropertyOp27
 70
     1
  0
XRECORD
  5
1306
102
{ACAD_REACTORS
330
1305
102
}
330
1305
100
AcDbXrecord
280
     1
102
RTVSPropertyOp0
 70
     1
102
RTVSPropertyOp1
 70
     1
102
RTVSPropertyOp2
 70
     1
102
RTVSPropertyOp3
 70
     1
102
RTVSPropertyOp4
 70
     1
102
RTVSPropertyOp5
 70
     1
102
RTVSPropertyOp6
 70
     1
102
RTVSPropertyOp7
 70
     1
102
RTVSPropertyOp8
 70
     1
102
RTVSPropertyOp9
 70
     1
102
RTVSPropertyOp10
 70
     1
102
RTVSPropertyOp11
 70
     1
102
RTVSPropertyOp12
 70
     1
102
RTVSPropertyOp13
 70
     1
102
RTVSPropertyOp14
 70
     1
102
RTVSPropertyOp15
 70
     1
102
RTVSPropertyOp16
 70
     1
102
RTVSPropertyOp17
 70
     1
102
RTVSPropertyOp18
 70
     1
102
RTVSPropertyOp19
 70
     1
102
RTVSPropertyOp20
 70
     1
102
RTVSPropertyOp21
 70
     1
102
RTVSPropertyOp22
 70
     1
102
RTVSPropertyOp23
 70
     1
102
RTVSPropertyOp24
 70
     1
102
RTVSPropertyOp25
 70
     1
102
RTVSPropertyOp26
 70
     1
102
RTVSPropertyOp27
 70
     1
  0
XRECORD
  5
1314
102
{ACAD_REACTORS
330
1313
102
}
330
1313
100
AcDbXrecord
280
     1
102
RTVSPropertyOp0
 70
     1
102
RTVSPropertyOp1
 70
     1
102
RTVSPropertyOp2
 70
     1
102
RTVSPropertyOp3
 70
     1
102
RTVSPropertyOp4
 70
     1
102
RTVSPropertyOp5
 70
     1
102
RTVSPropertyOp6
 70
     1
102
RTVSPropertyOp7
 70
     1
102
RTVSPropertyOp8
 70
     1
102
RTVSPropertyOp9
 70
     1
102
RTVSPropertyOp10
 70
     1
102
RTVSPropertyOp11
 70
     1
102
RTVSPropertyOp12
 70
     1
102
RTVSPropertyOp13
 70
     1
102
RTVSPropertyOp14
 70
     1
102
RTVSPropertyOp15
 70
     1
102
RTVSPropertyOp16
 70
     1
102
RTVSPropertyOp17
 70
     1
102
RTVSPropertyOp18
 70
     1
102
RTVSPropertyOp19
 70
     1
102
RTVSPropertyOp20
 70
     1
102
RTVSPropertyOp21
 70
     1
102
RTVSPropertyOp22
 70
     1
102
RTVSPropertyOp23
 70
     1
102
RTVSPropertyOp24
 70
     1
102
RTVSPropertyOp25
 70
     1
102
RTVSPropertyOp26
 70
     1
102
RTVSPropertyOp27
 70
     1
  0
XRECORD
  5
131C
102
{ACAD_REACTORS
330
131B
102
}
330
131B
100
AcDbXrecord
280
     1
102
RTVSPropertyOp0
 70
     1
102
RTVSPropertyOp1
 70
     1
102
RTVSPropertyOp2
 70
     1
102
RTVSPropertyOp3
 70
     1
102
RTVSPropertyOp4
 70
     1
102
RTVSPropertyOp5
 70
     1
102
RTVSPropertyOp6
 70
     1
102
RTVSPropertyOp7
 70
     1
102
RTVSPropertyOp8
 70
     1
102
RTVSPropertyOp9
 70
     1
102
RTVSPropertyOp10
 70
     1
102
RTVSPropertyOp11
 70
     1
102
RTVSPropertyOp12
 70
     1
102
RTVSPropertyOp13
 70
     1
102
RTVSPropertyOp14
 70
     1
102
RTVSPropertyOp15
 70
     1
102
RTVSPropertyOp16
 70
     1
102
RTVSPropertyOp17
 70
     1
102
RTVSPropertyOp18
 70
     1
102
RTVSPropertyOp19
 70
     1
102
RTVSPropertyOp20
 70
     1
102
RTVSPropertyOp21
 70
     1
102
RTVSPropertyOp22
 70
     1
102
RTVSPropertyOp23
 70
     1
102
RTVSPropertyOp24
 70
     1
102
RTVSPropertyOp25
 70
     1
102
RTVSPropertyOp26
 70
     1
102
RTVSPropertyOp27
 70
     1
  0
XRECORD
  5
130E
102
{ACAD_REACTORS
330
130D
102
}
330
130D
100
AcDbXrecord
280
     1
102
RTVSPropertyOp0
 70
     1
102
RTVSPropertyOp1
 70
     1
102
RTVSPropertyOp2
 70
     1
102
RTVSPropertyOp3
 70
     1
102
RTVSPropertyOp4
 70
     1
102
RTVSPropertyOp5
 70
     1
102
RTVSPropertyOp6
 70
     1
102
RTVSPropertyOp7
 70
     1
102
RTVSPropertyOp8
 70
     1
102
RTVSPropertyOp9
 70
     1
102
RTVSPropertyOp10
 70
     1
102
RTVSPropertyOp11
 70
     1
102
RTVSPropertyOp12
 70
     1
102
RTVSPropertyOp13
 70
     1
102
RTVSPropertyOp14
 70
     1
102
RTVSPropertyOp15
 70
     1
102
RTVSPropertyOp16
 70
     1
102
RTVSPropertyOp17
 70
     1
102
RTVSPropertyOp18
 70
     1
102
RTVSPropertyOp19
 70
     1
102
RTVSPropertyOp20
 70
     1
102
RTVSPropertyOp21
 70
     1
102
RTVSPropertyOp22
 70
     1
102
RTVSPropertyOp23
 70
     1
102
RTVSPropertyOp24
 70
     1
102
RTVSPropertyOp25
 70
     1
102
RTVSPropertyOp26
 70
     1
102
RTVSPropertyOp27
 70
     1
  0
XRECORD
  5
1312
102
{ACAD_REACTORS
330
1311
102
}
330
1311
100
AcDbXrecord
280
     1
102
RTVSPropertyOp0
 70
     1
102
RTVSPropertyOp1
 70
     1
102
RTVSPropertyOp2
 70
     1
102
RTVSPropertyOp3
 70
     1
102
RTVSPropertyOp4
 70
     1
102
RTVSPropertyOp5
 70
     1
102
RTVSPropertyOp6
 70
     1
102
RTVSPropertyOp7
 70
     1
102
RTVSPropertyOp8
 70
     1
102
RTVSPropertyOp9
 70
     1
102
RTVSPropertyOp10
 70
     1
102
RTVSPropertyOp11
 70
     1
102
RTVSPropertyOp12
 70
     1
102
RTVSPropertyOp13
 70
     1
102
RTVSPropertyOp14
 70
     1
102
RTVSPropertyOp15
 70
     1
102
RTVSPropertyOp16
 70
     1
102
RTVSPropertyOp17
 70
     1
102
RTVSPropertyOp18
 70
     1
102
RTVSPropertyOp19
 70
     1
102
RTVSPropertyOp20
 70
     1
102
RTVSPropertyOp21
 70
     1
102
RTVSPropertyOp22
 70
     1
102
RTVSPropertyOp23
 70
     1
102
RTVSPropertyOp24
 70
     1
102
RTVSPropertyOp25
 70
     1
102
RTVSPropertyOp26
 70
     1
102
RTVSPropertyOp27
 70
     1
  0
XRECORD
  5
1322
102
{ACAD_REACTORS
330
1321
102
}
330
1321
100
AcDbXrecord
280
     1
102
RTVSPropertyOp0
 70
     0
102
RTVSPropertyOp1
 70
     0
102
RTVSPropertyOp2
 70
     0
102
RTVSPropertyOp3
 70
     0
102
RTVSPropertyOp4
 70
     0
102
RTVSPropertyOp5
 70
     0
102
RTVSPropertyOp6
 70
     0
102
RTVSPropertyOp7
 70
     0
102
RTVSPropertyOp8
 70
     0
102
RTVSPropertyOp9
 70
     0
102
RTVSPropertyOp10
 70
     0
102
RTVSPropertyOp11
 70
     0
102
RTVSPropertyOp12
 70
     0
102
RTVSPropertyOp13
 70
     0
102
RTVSPropertyOp14
 70
     2
102
RTVSPropertyOp15
 70
     0
102
RTVSPropertyOp16
 70
     0
102
RTVSPropertyOp17
 70
     0
102
RTVSPropertyOp18
 70
     0
102
RTVSPropertyOp19
 70
     0
102
RTVSPropertyOp20
 70
     0
102
RTVSPropertyOp21
 70
     0
102
RTVSPropertyOp22
 70
     0
102
RTVSPropertyOp23
 70
     0
102
RTVSPropertyOp24
 70
     0
102
RTVSPropertyOp25
 70
     0
102
RTVSPropertyOp26
 70
     0
102
RTVSPropertyOp27
 70
     0
  0
XRECORD
  5
131A
102
{ACAD_REACTORS
330
1319
102
}
330
1319
100
AcDbXrecord
280
     1
102
RTVSPropertyOp0
 70
     1
102
RTVSPropertyOp1
 70
     1
102
RTVSPropertyOp2
 70
     1
102
RTVSPropertyOp3
 70
     1
102
RTVSPropertyOp4
 70
     1
102
RTVSPropertyOp5
 70
     1
102
RTVSPropertyOp6
 70
     1
102
RTVSPropertyOp7
 70
     1
102
RTVSPropertyOp8
 70
     1
102
RTVSPropertyOp9
 70
     1
102
RTVSPropertyOp10
 70
     1
102
RTVSPropertyOp11
 70
     1
102
RTVSPropertyOp12
 70
     1
102
RTVSPropertyOp13
 70
     1
102
RTVSPropertyOp14
 70
     1
102
RTVSPropertyOp15
 70
     1
102
RTVSPropertyOp16
 70
     1
102
RTVSPropertyOp17
 70
     1
102
RTVSPropertyOp18
 70
     1
102
RTVSPropertyOp19
 70
     1
102
RTVSPropertyOp20
 70
     1
102
RTVSPropertyOp21
 70
     1
102
RTVSPropertyOp22
 70
     1
102
RTVSPropertyOp23
 70
     1
102
RTVSPropertyOp24
 70
     1
102
RTVSPropertyOp25
 70
     1
102
RTVSPropertyOp26
 70
     1
102
RTVSPropertyOp27
 70
     1
  0
XRECORD
  5
12FE
102
{ACAD_REACTORS
330
12FD
102
}
330
12FD
100
AcDbXrecord
280
     1
102
RTVSPropertyOp0
 70
     1
102
RTVSPropertyOp1
 70
     1
102
RTVSPropertyOp2
 70
     1
102
RTVSPropertyOp3
 70
     1
102
RTVSPropertyOp4
 70
     1
102
RTVSPropertyOp5
 70
     1
102
RTVSPropertyOp6
 70
     1
102
RTVSPropertyOp7
 70
     1
102
RTVSPropertyOp8
 70
     1
102
RTVSPropertyOp9
 70
     1
102
RTVSPropertyOp10
 70
     1
102
RTVSPropertyOp11
 70
     1
102
RTVSPropertyOp12
 70
     1
102
RTVSPropertyOp13
 70
     1
102
RTVSPropertyOp14
 70
     1
102
RTVSPropertyOp15
 70
     1
102
RTVSPropertyOp16
 70
     1
102
RTVSPropertyOp17
 70
     1
102
RTVSPropertyOp18
 70
     1
102
RTVSPropertyOp19
 70
     1
102
RTVSPropertyOp20
 70
     1
102
RTVSPropertyOp21
 70
     1
102
RTVSPropertyOp22
 70
     1
102
RTVSPropertyOp23
 70
     1
102
RTVSPropertyOp24
 70
     1
102
RTVSPropertyOp25
 70
     1
102
RTVSPropertyOp26
 70
     1
102
RTVSPropertyOp27
 70
     1
  0
XRECORD
  5
1300
102
{ACAD_REACTORS
330
12FF
102
}
330
12FF
100
AcDbXrecord
280
     1
102
RTVSPropertyOp0
 70
     1
102
RTVSPropertyOp1
 70
     1
102
RTVSPropertyOp2
 70
     1
102
RTVSPropertyOp3
 70
     1
102
RTVSPropertyOp4
 70
     1
102
RTVSPropertyOp5
 70
     1
102
RTVSPropertyOp6
 70
     1
102
RTVSPropertyOp7
 70
     1
102
RTVSPropertyOp8
 70
     1
102
RTVSPropertyOp9
 70
     1
102
RTVSPropertyOp10
 70
     1
102
RTVSPropertyOp11
 70
     1
102
RTVSPropertyOp12
 70
     1
102
RTVSPropertyOp13
 70
     1
102
RTVSPropertyOp14
 70
     1
102
RTVSPropertyOp15
 70
     1
102
RTVSPropertyOp16
 70
     1
102
RTVSPropertyOp17
 70
     1
102
RTVSPropertyOp18
 70
     1
102
RTVSPropertyOp19
 70
     1
102
RTVSPropertyOp20
 70
     1
102
RTVSPropertyOp21
 70
     1
102
RTVSPropertyOp22
 70
     1
102
RTVSPropertyOp23
 70
     1
102
RTVSPropertyOp24
 70
     1
102
RTVSPropertyOp25
 70
     1
102
RTVSPropertyOp26
 70
     1
102
RTVSPropertyOp27
 70
     1
  0
XRECORD
  5
1302
102
{ACAD_REACTORS
330
1301
102
}
330
1301
100
AcDbXrecord
280
     1
102
RTVSPropertyOp0
 70
     1
102
RTVSPropertyOp1
 70
     1
102
RTVSPropertyOp2
 70
     1
102
RTVSPropertyOp3
 70
     1
102
RTVSPropertyOp4
 70
     1
102
RTVSPropertyOp5
 70
     1
102
RTVSPropertyOp6
 70
     1
102
RTVSPropertyOp7
 70
     1
102
RTVSPropertyOp8
 70
     1
102
RTVSPropertyOp9
 70
     1
102
RTVSPropertyOp10
 70
     1
102
RTVSPropertyOp11
 70
     1
102
RTVSPropertyOp12
 70
     1
102
RTVSPropertyOp13
 70
     1
102
RTVSPropertyOp14
 70
     1
102
RTVSPropertyOp15
 70
     1
102
RTVSPropertyOp16
 70
     1
102
RTVSPropertyOp17
 70
     1
102
RTVSPropertyOp18
 70
     1
102
RTVSPropertyOp19
 70
     1
102
RTVSPropertyOp20
 70
     1
102
RTVSPropertyOp21
 70
     1
102
RTVSPropertyOp22
 70
     1
102
RTVSPropertyOp23
 70
     1
102
RTVSPropertyOp24
 70
     1
102
RTVSPropertyOp25
 70
     1
102
RTVSPropertyOp26
 70
     1
102
RTVSPropertyOp27
 70
     1
  0
XRECORD
  5
1304
102
{ACAD_REACTORS
330
1303
102
}
330
1303
100
AcDbXrecord
280
     1
102
RTVSPropertyOp0
 70
     1
102
RTVSPropertyOp1
 70
     1
102
RTVSPropertyOp2
 70
     1
102
RTVSPropertyOp3
 70
     1
102
RTVSPropertyOp4
 70
     1
102
RTVSPropertyOp5
 70
     1
102
RTVSPropertyOp6
 70
     1
102
RTVSPropertyOp7
 70
     1
102
RTVSPropertyOp8
 70
     1
102
RTVSPropertyOp9
 70
     1
102
RTVSPropertyOp10
 70
     1
102
RTVSPropertyOp11
 70
     1
102
RTVSPropertyOp12
 70
     1
102
RTVSPropertyOp13
 70
     1
102
RTVSPropertyOp14
 70
     1
102
RTVSPropertyOp15
 70
     1
102
RTVSPropertyOp16
 70
     1
102
RTVSPropertyOp17
 70
     1
102
RTVSPropertyOp18
 70
     1
102
RTVSPropertyOp19
 70
     1
102
RTVSPropertyOp20
 70
     1
102
RTVSPropertyOp21
 70
     1
102
RTVSPropertyOp22
 70
     1
102
RTVSPropertyOp23
 70
     1
102
RTVSPropertyOp24
 70
     1
102
RTVSPropertyOp25
 70
     1
102
RTVSPropertyOp26
 70
     1
102
RTVSPropertyOp27
 70
     1
  0
XRECORD
  5
131E
102
{ACAD_REACTORS
330
131D
102
}
330
131D
100
AcDbXrecord
280
     1
102
RTVSPropertyOp0
 70
     0
102
RTVSPropertyOp1
 70
     0
102
RTVSPropertyOp2
 70
     0
102
RTVSPropertyOp3
 70
     0
102
RTVSPropertyOp4
 70
     0
102
RTVSPropertyOp5
 70
     0
102
RTVSPropertyOp6
 70
     0
102
RTVSPropertyOp7
 70
     0
102
RTVSPropertyOp8
 70
     0
102
RTVSPropertyOp9
 70
     0
102
RTVSPropertyOp10
 70
     0
102
RTVSPropertyOp11
 70
     0
102
RTVSPropertyOp12
 70
     0
102
RTVSPropertyOp13
 70
     0
102
RTVSPropertyOp14
 70
     2
102
RTVSPropertyOp15
 70
     0
102
RTVSPropertyOp16
 70
     0
102
RTVSPropertyOp17
 70
     0
102
RTVSPropertyOp18
 70
     0
102
RTVSPropertyOp19
 70
     0
102
RTVSPropertyOp20
 70
     0
102
RTVSPropertyOp21
 70
     0
102
RTVSPropertyOp22
 70
     0
102
RTVSPropertyOp23
 70
     0
102
RTVSPropertyOp24
 70
     0
102
RTVSPropertyOp25
 70
     0
102
RTVSPropertyOp26
 70
     0
102
RTVSPropertyOp27
 70
     0
  0
XRECORD
  5
1318
102
{ACAD_REACTORS
330
1317
102
}
330
1317
100
AcDbXrecord
280
     1
102
RTVSPropertyOp0
 70
     1
102
RTVSPropertyOp1
 70
     1
102
RTVSPropertyOp2
 70
     1
102
RTVSPropertyOp3
 70
     1
102
RTVSPropertyOp4
 70
     1
102
RTVSPropertyOp5
 70
     1
102
RTVSPropertyOp6
 70
     1
102
RTVSPropertyOp7
 70
     1
102
RTVSPropertyOp8
 70
     1
102
RTVSPropertyOp9
 70
     1
102
RTVSPropertyOp10
 70
     1
102
RTVSPropertyOp11
 70
     1
102
RTVSPropertyOp12
 70
     1
102
RTVSPropertyOp13
 70
     1
102
RTVSPropertyOp14
 70
     1
102
RTVSPropertyOp15
 70
     1
102
RTVSPropertyOp16
 70
     1
102
RTVSPropertyOp17
 70
     1
102
RTVSPropertyOp18
 70
     1
102
RTVSPropertyOp19
 70
     1
102
RTVSPropertyOp20
 70
     1
102
RTVSPropertyOp21
 70
     1
102
RTVSPropertyOp22
 70
     1
102
RTVSPropertyOp23
 70
     1
102
RTVSPropertyOp24
 70
     1
102
RTVSPropertyOp25
 70
     1
102
RTVSPropertyOp26
 70
     1
102
RTVSPropertyOp27
 70
     1
  0
XRECORD
  5
1320
102
{ACAD_REACTORS
330
131F
102
}
330
131F
100
AcDbXrecord
280
     1
102
RTVSPropertyOp0
 70
     0
102
RTVSPropertyOp1
 70
     0
102
RTVSPropertyOp2
 70
     0
102
RTVSPropertyOp3
 70
     0
102
RTVSPropertyOp4
 70
     0
102
RTVSPropertyOp5
 70
     0
102
RTVSPropertyOp6
 70
     0
102
RTVSPropertyOp7
 70
     0
102
RTVSPropertyOp8
 70
     0
102
RTVSPropertyOp9
 70
     0
102
RTVSPropertyOp10
 70
     0
102
RTVSPropertyOp11
 70
     0
102
RTVSPropertyOp12
 70
     0
102
RTVSPropertyOp13
 70
     0
102
RTVSPropertyOp14
 70
     2
102
RTVSPropertyOp15
 70
     0
102
RTVSPropertyOp16
 70
     0
102
RTVSPropertyOp17
 70
     0
102
RTVSPropertyOp18
 70
     0
102
RTVSPropertyOp19
 70
     0
102
RTVSPropertyOp20
 70
     0
102
RTVSPropertyOp21
 70
     0
102
RTVSPropertyOp22
 70
     0
102
RTVSPropertyOp23
 70
     0
102
RTVSPropertyOp24
 70
     0
102
RTVSPropertyOp25
 70
     0
102
RTVSPropertyOp26
 70
     0
102
RTVSPropertyOp27
 70
     0
  0
XRECORD
  5
1310
102
{ACAD_REACTORS
330
130F
102
}
330
130F
100
AcDbXrecord
280
     1
102
RTVSPropertyOp0
 70
     1
102
RTVSPropertyOp1
 70
     1
102
RTVSPropertyOp2
 70
     1
102
RTVSPropertyOp3
 70
     1
102
RTVSPropertyOp4
 70
     1
102
RTVSPropertyOp5
 70
     1
102
RTVSPropertyOp6
 70
     1
102
RTVSPropertyOp7
 70
     1
102
RTVSPropertyOp8
 70
     1
102
RTVSPropertyOp9
 70
     1
102
RTVSPropertyOp10
 70
     1
102
RTVSPropertyOp11
 70
     1
102
RTVSPropertyOp12
 70
     1
102
RTVSPropertyOp13
 70
     1
102
RTVSPropertyOp14
 70
     1
102
RTVSPropertyOp15
 70
     1
102
RTVSPropertyOp16
 70
     1
102
RTVSPropertyOp17
 70
     1
102
RTVSPropertyOp18
 70
     1
102
RTVSPropertyOp19
 70
     1
102
RTVSPropertyOp20
 70
     1
102
RTVSPropertyOp21
 70
     1
102
RTVSPropertyOp22
 70
     1
102
RTVSPropertyOp23
 70
     1
102
RTVSPropertyOp24
 70
     1
102
RTVSPropertyOp25
 70
     1
102
RTVSPropertyOp26
 70
     1
102
RTVSPropertyOp27
 70
     1
  0
XRECORD
  5
1316
102
{ACAD_REACTORS
330
1315
102
}
330
1315
100
AcDbXrecord
280
     1
102
RTVSPropertyOp0
 70
     1
102
RTVSPropertyOp1
 70
     1
102
RTVSPropertyOp2
 70
     1
102
RTVSPropertyOp3
 70
     1
102
RTVSPropertyOp4
 70
     1
102
RTVSPropertyOp5
 70
     1
102
RTVSPropertyOp6
 70
     1
102
RTVSPropertyOp7
 70
     1
102
RTVSPropertyOp8
 70
     1
102
RTVSPropertyOp9
 70
     1
102
RTVSPropertyOp10
 70
     1
102
RTVSPropertyOp11
 70
     1
102
RTVSPropertyOp12
 70
     1
102
RTVSPropertyOp13
 70
     1
102
RTVSPropertyOp14
 70
     1
102
RTVSPropertyOp15
 70
     1
102
RTVSPropertyOp16
 70
     1
102
RTVSPropertyOp17
 70
     1
102
RTVSPropertyOp18
 70
     1
102
RTVSPropertyOp19
 70
     1
102
RTVSPropertyOp20
 70
     1
102
RTVSPropertyOp21
 70
     1
102
RTVSPropertyOp22
 70
     1
102
RTVSPropertyOp23
 70
     1
102
RTVSPropertyOp24
 70
     1
102
RTVSPropertyOp25
 70
     1
102
RTVSPropertyOp26
 70
     1
102
RTVSPropertyOp27
 70
     1
  0
ENDSEC
  0
EOF
