  0
SECTION
  2
HEADER
  9
$ACADVER
  1
AC1021
  9
$ACADMAINTVER
 70
    25
  9
$DWGCODEPAGE
  3
ANSI_1256
  9
$INSBASE
 10
0.0
 20
0.0
 30
0.0
  9
$EXTMIN
 10
-594.996
 20
-440.109
 30
0.0
  9
$EXTMAX
 10
144.996
 20
144.996
 30
0.0
  9
$LIMMIN
 10
0.0
 20
0.0
  9
$LIMMAX
 10
12.0
 20
9.0
  9
$ORTHOMODE
 70
     0
  9
$REGENMODE
 70
     1
  9
$FILLMODE
 70
     1
  9
$QTEXTMODE
 70
     0
  9
$MIRRTEXT
 70
     1
  9
$LTSCALE
 40
1.0
  9
$ATTMODE
 70
     1
  9
$TEXTSIZE
 40
0.2
  9
$TRACEWID
 40
0.05
  9
$TEXTSTYLE
  7
Standard
  9
$CLAYER
  8
0
  9
$CELTYPE
  6
ByLayer
  9
$CECOLOR
 62
   256
  9
$CELTSCALE
 40
1.0
  9
$DISPSILH
 70
     0
  9
$DIMSCALE
 40
1.0
  9
$DIMASZ
 40
0.18
  9
$DIMEXO
 40
0.0625
  9
$DIMDLI
 40
0.38
  9
$DIMRND
 40
0.0
  9
$DIMDLE
 40
0.0
  9
$DIMEXE
 40
0.18
  9
$DIMTP
 40
0.0
  9
$DIMTM
 40
0.0
  9
$DIMTXT
 40
0.18
  9
$DIMCEN
 40
0.09
  9
$DIMTSZ
 40
0.0
  9
$DIMTOL
 70
     0
  9
$DIMLIM
 70
     0
  9
$DIMTIH
 70
     1
  9
$DIMTOH
 70
     1
  9
$DIMSE1
 70
     0
  9
$DIMSE2
 70
     0
  9
$DIMTAD
 70
     0
  9
$DIMZIN
 70
     0
  9
$DIMBLK
  1

  9
$DIMASO
 70
     1
  9
$DIMSHO
 70
     1
  9
$DIMPOST
  1

  9
$DIMAPOST
  1

  9
$DIMALT
 70
     0
  9
$DIMALTD
 70
     2
  9
$DIMALTF
 40
25.4
  9
$DIMLFAC
 40
1.0
  9
$DIMTOFL
 70
     0
  9
$DIMTVP
 40
0.0
  9
$DIMTIX
 70
     0
  9
$DIMSOXD
 70
     0
  9
$DIMSAH
 70
     0
  9
$DIMBLK1
  1

  9
$DIMBLK2
  1

  9
$DIMSTYLE
  2
Standard
  9
$DIMCLRD
 70
     0
  9
$DIMCLRE
 70
     0
  9
$DIMCLRT
 70
     0
  9
$DIMTFAC
 40
1.0
  9
$DIMGAP
 40
0.09
  9
$DIMJUST
 70
     0
  9
$DIMSD1
 70
     0
  9
$DIMSD2
 70
     0
  9
$DIMTOLJ
 70
     1
  9
$DIMTZIN
 70
     0
  9
$DIMALTZ
 70
     0
  9
$DIMALTTZ
 70
     0
  9
$DIMUPT
 70
     0
  9
$DIMDEC
 70
     4
  9
$DIMTDEC
 70
     4
  9
$DIMALTU
 70
     2
  9
$DIMALTTD
 70
     2
  9
$DIMTXSTY
  7
Standard
  9
$DIMAUNIT
 70
     0
  9
$DIMADEC
 70
     0
  9
$DIMALTRND
 40
0.0
  9
$DIMAZIN
 70
     0
  9
$DIMDSEP
 70
    46
  9
$DIMATFIT
 70
     3
  9
$DIMFRAC
 70
     0
  9
$DIMLDRBLK
  1

  9
$DIMLUNIT
 70
     2
  9
$DIMLWD
 70
    -2
  9
$DIMLWE
 70
    -2
  9
$DIMTMOVE
 70
     0
  9
$DIMFXL
 40
1.0
  9
$DIMFXLON
 70
     0
  9
$DIMJOGANG
 40
0.7853981633974483
  9
$DIMTFILL
 70
     0
  9
$DIMTFILLCLR
 70
     0
  9
$DIMARCSYM
 70
     0
  9
$DIMLTYPE
  6

  9
$DIMLTEX1
  6

  9
$DIMLTEX2
  6

  9
$LUNITS
 70
     2
  9
$LUPREC
 70
     4
  9
$SKETCHINC
 40
0.1
  9
$FILLETRAD
 40
0.5
  9
$AUNITS
 70
     0
  9
$AUPREC
 70
     0
  9
$MENU
  1
.
  9
$ELEVATION
 40
0.0
  9
$PELEVATION
 40
0.0
  9
$THICKNESS
 40
0.0
  9
$LIMCHECK
 70
     0
  9
$CHAMFERA
 40
0.5
  9
$CHAMFERB
 40
0.5
  9
$CHAMFERC
 40
1.0
  9
$CHAMFERD
 40
0.0
  9
$SKPOLY
 70
     0
  9
$TDCREATE
 40
2455633.99290331
  9
$TDUCREATE
 40
2455633.86790331
  9
$TDUPDATE
 40
2455633.992903322
  9
$TDUUPDATE
 40
2455633.867903322
  9
$TDINDWG
 40
0.0000000116
  9
$TDUSRTIMER
 40
0.0000000116
  9
$USRTIMER
 70
     1
  9
$ANGBASE
 50
0.0
  9
$ANGDIR
 70
     0
  9
$PDMODE
 70
     0
  9
$PDSIZE
 40
0.0
  9
$PLINEWID
 40
0.0
  9
$SPLFRAME
 70
     0
  9
$SPLINETYPE
 70
     6
  9
$SPLINESEGS
 70
     8
  9
$HANDSEED
  5
AD
  9
$SURFTAB1
 70
     6
  9
$SURFTAB2
 70
     6
  9
$SURFTYPE
 70
     6
  9
$SURFU
 70
     6
  9
$SURFV
 70
     6
  9
$UCSBASE
  2

  9
$UCSNAME
  2

  9
$UCSORG
 10
0.0
 20
0.0
 30
0.0
  9
$UCSXDIR
 10
1.0
 20
0.0
 30
0.0
  9
$UCSYDIR
 10
0.0
 20
1.0
 30
0.0
  9
$UCSORTHOREF
  2

  9
$UCSORTHOVIEW
 70
     0
  9
$UCSORGTOP
 10
0.0
 20
0.0
 30
0.0
  9
$UCSORGBOTTOM
 10
0.0
 20
0.0
 30
0.0
  9
$UCSORGLEFT
 10
0.0
 20
0.0
 30
0.0
  9
$UCSORGRIGHT
 10
0.0
 20
0.0
 30
0.0
  9
$UCSORGFRONT
 10
0.0
 20
0.0
 30
0.0
  9
$UCSORGBACK
 10
0.0
 20
0.0
 30
0.0
  9
$PUCSBASE
  2

  9
$PUCSNAME
  2

  9
$PUCSORG
 10
0.0
 20
0.0
 30
0.0
  9
$PUCSXDIR
 10
1.0
 20
0.0
 30
0.0
  9
$PUCSYDIR
 10
0.0
 20
1.0
 30
0.0
  9
$PUCSORTHOREF
  2

  9
$PUCSORTHOVIEW
 70
     0
  9
$PUCSORGTOP
 10
0.0
 20
0.0
 30
0.0
  9
$PUCSORGBOTTOM
 10
0.0
 20
0.0
 30
0.0
  9
$PUCSORGLEFT
 10
0.0
 20
0.0
 30
0.0
  9
$PUCSORGRIGHT
 10
0.0
 20
0.0
 30
0.0
  9
$PUCSORGFRONT
 10
0.0
 20
0.0
 30
0.0
  9
$PUCSORGBACK
 10
0.0
 20
0.0
 30
0.0
  9
$USERI1
 70
     0
  9
$USERI2
 70
     0
  9
$USERI3
 70
     0
  9
$USERI4
 70
     0
  9
$USERI5
 70
     0
  9
$USERR1
 40
0.0
  9
$USERR2
 40
0.0
  9
$USERR3
 40
0.0
  9
$USERR4
 40
0.0
  9
$USERR5
 40
0.0
  9
$WORLDVIEW
 70
     1
  9
$SHADEDGE
 70
     3
  9
$SHADEDIF
 70
    70
  9
$TILEMODE
 70
     1
  9
$MAXACTVP
 70
    64
  9
$PINSBASE
 10
0.0
 20
0.0
 30
0.0
  9
$PLIMCHECK
 70
     0
  9
$PEXTMIN
 10
1.000000000000000E+20
 20
1.000000000000000E+20
 30
1.000000000000000E+20
  9
$PEXTMAX
 10
-1.000000000000000E+20
 20
-1.000000000000000E+20
 30
-1.000000000000000E+20
  9
$PLIMMIN
 10
0.0
 20
0.0
  9
$PLIMMAX
 10
12.0
 20
9.0
  9
$UNITMODE
 70
     0
  9
$VISRETAIN
 70
     1
  9
$PLINEGEN
 70
     0
  9
$PSLTSCALE
 70
     1
  9
$TREEDEPTH
 70
  3020
  9
$CMLSTYLE
  2
Standard
  9
$CMLJUST
 70
     0
  9
$CMLSCALE
 40
1.0
  9
$PROXYGRAPHICS
 70
     1
  9
$MEASUREMENT
 70
     0
  9
$CELWEIGHT
370
    -1
  9
$ENDCAPS
280
     0
  9
$JOINSTYLE
280
     0
  9
$LWDISPLAY
290
     0
  9
$INSUNITS
 70
     4
  9
$HYPERLINKBASE
  1

  9
$STYLESHEET
  1

  9
$XEDIT
290
     1
  9
$CEPSNTYPE
380
     0
  9
$PSTYLEMODE
290
     1
  9
$FINGERPRINTGUID
  2
{D0B961D8-CE6E-44AC-B9B9-1E7362F9B4FF}
  9
$VERSIONGUID
  2
{FAEB1C32-E019-11D5-929B-00C0DF256EC4}
  9
$EXTNAMES
290
     1
  9
$PSVPSCALE
 40
0.0
  9
$OLESTARTUP
290
     0
  9
$SORTENTS
280
   127
  9
$INDEXCTL
280
     0
  9
$HIDETEXT
280
     1
  9
$XCLIPFRAME
290
     0
  9
$HALOGAP
280
     0
  9
$OBSCOLOR
 70
   257
  9
$OBSLTYPE
280
     0
  9
$INTERSECTIONDISPLAY
280
     0
  9
$INTERSECTIONCOLOR
 70
   257
  9
$DIMASSOC
280
     2
  9
$PROJECTNAME
  1

  9
$CAMERADISPLAY
290
     0
  9
$LENSLENGTH
 40
50.0
  9
$CAMERAHEIGHT
 40
0.0
  9
$STEPSPERSEC
 40
2.0
  9
$STEPSIZE
 40
6.0
  9
$3DDWFPREC
 40
2.0
  9
$PSOLWIDTH
 40
0.25
  9
$PSOLHEIGHT
 40
4.0
  9
$LOFTANG1
 40
1.570796326794897
  9
$LOFTANG2
 40
1.570796326794897
  9
$LOFTMAG1
 40
0.0
  9
$LOFTMAG2
 40
0.0
  9
$LOFTPARAM
 70
     7
  9
$LOFTNORMALS
280
     1
  9
$LATITUDE
 40
37.795
  9
$LONGITUDE
 40
-122.394
  9
$NORTHDIRECTION
 40
0.0
  9
$TIMEZONE
 70
 -8000
  9
$LIGHTGLYPHDISPLAY
280
     1
  9
$TILEMODELIGHTSYNCH
280
     1
  9
$SOLIDHIST
280
     1
  9
$SHOWHIST
280
     1
  9
$DWFFRAME
280
     2
  9
$DGNFRAME
280
     2
  9
$REALWORLDSCALE
290
     1
  9
$INTERFERECOLOR
 62
   256
  9
$CSHADOW
280
     0
  9
$SHADOWPLANELOCATION
 40
0.0
  0
ENDSEC
  0
SECTION
  2
CLASSES
  0
CLASS
  1
ACDBDICTIONARYWDFLT
  2
AcDbDictionaryWithDefault
  3
ObjectDBX Classes
 90
        0
 91
        4
280
     0
281
     0
  0
CLASS
  1
VISUALSTYLE
  2
AcDbVisualStyle
  3
ObjectDBX Classes
 90
     4095
 91
        4
280
     0
281
     0
  0
CLASS
  1
MATERIAL
  2
AcDbMaterial
  3
ObjectDBX Classes
 90
     1153
 91
        4
280
     0
281
     0
  0
ENDSEC
  0
SECTION
  2
TABLES
  0
TABLE
  2
VPORT
  5
8
330
0
100
AcDbSymbolTable
 70
     1
  0
VPORT
  5
29
330
8
100
AcDbSymbolTableRecord
100
AcDbViewportTableRecord
  2
*Active
 70
     0
 10
0.0
 20
0.0
 11
1.0
 21
1.0
 12
10.42990654205607
 22
4.5
 13
0.0
 23
0.0
 14
0.5
 24
0.5
 15
0.5
 25
0.5
 16
0.0
 26
0.0
 36
1.0
 17
0.0
 27
0.0
 37
0.0
 40
9.0
 41
1.972972972850329
 42
50.0
 43
0.0
 44
0.0
 50
0.0
 51
0.0
 71
     0
 72
   100
 73
     1
 74
     3
 75
     0
 76
     0
 77
     0
 78
     0
281
     0
 65
     1
110
0.0
120
0.0
130
0.0
111
1.0
121
0.0
131
0.0
112
0.0
122
1.0
132
0.0
 79
     0
146
0.0
 60
     3
 61
     5
292
     1
282
     1
141
0.0
142
0.0
 63
   250
  0
ENDTAB
  0
TABLE
  2
LTYPE
  5
5
330
0
100
AcDbSymbolTable
 70
     1
  0
LTYPE
  5
14
330
5
100
AcDbSymbolTableRecord
100
AcDbLinetypeTableRecord
  2
ByBlock
 70
     0
  3

 72
    65
 73
     0
 40
0.0
  0
LTYPE
  5
15
330
5
100
AcDbSymbolTableRecord
100
AcDbLinetypeTableRecord
  2
ByLayer
 70
     0
  3

 72
    65
 73
     0
 40
0.0
  0
LTYPE
  5
16
330
5
100
AcDbSymbolTableRecord
100
AcDbLinetypeTableRecord
  2
Continuous
 70
     0
  3
Solid line
 72
    65
 73
     0
 40
0.0
  0
ENDTAB
  0
TABLE
  2
LAYER
  5
2
330
0
100
AcDbSymbolTable
 70
     2
  0
LAYER
  5
10
330
2
100
AcDbSymbolTableRecord
100
AcDbLayerTableRecord
  2
0
 70
     0
 62
     7
  6
Continuous
370
    -3
390
F
347
3E
  0
LAYER
  5
40
330
2
100
AcDbSymbolTableRecord
100
AcDbLayerTableRecord
  2
Layer 1
 70
     0
 62
     7
  6
Continuous
370
    -3
390
F
347
3E
  0
ENDTAB
  0
TABLE
  2
STYLE
  5
3
330
0
100
AcDbSymbolTable
 70
     1
  0
STYLE
  5
11
330
3
100
AcDbSymbolTableRecord
100
AcDbTextStyleTableRecord
  2
Standard
 70
     0
 40
0.0
 41
1.0
 50
0.0
 71
     0
 42
0.2
  3
txt
  4

  0
ENDTAB
  0
TABLE
  2
VIEW
  5
6
330
0
100
AcDbSymbolTable
 70
     0
  0
ENDTAB
  0
TABLE
  2
UCS
  5
7
330
0
100
AcDbSymbolTable
 70
     0
  0
ENDTAB
  0
TABLE
  2
APPID
  5
9
330
0
100
AcDbSymbolTable
 70
     2
  0
APPID
  5
12
330
9
100
AcDbSymbolTableRecord
100
AcDbRegAppTableRecord
  2
ACAD
 70
     0
  0
APPID
  5
3F
330
9
100
AcDbSymbolTableRecord
100
AcDbRegAppTableRecord
  2
ODA
 70
     0
  0
ENDTAB
  0
TABLE
  2
DIMSTYLE
  5
A
330
0
100
AcDbSymbolTable
 70
     1
100
AcDbDimStyleTable
  0
DIMSTYLE
105
27
330
A
100
AcDbSymbolTableRecord
100
AcDbDimStyleTableRecord
  2
Standard
 70
     0
340
11
  0
ENDTAB
  0
TABLE
  2
BLOCK_RECORD
  5
1
330
0
100
AcDbSymbolTable
 70
     1
  0
BLOCK_RECORD
  5
1F
330
1
100
AcDbSymbolTableRecord
100
AcDbBlockTableRecord
  2
*Model_Space
340
22
 70
     0
280
     1
281
     0
  0
BLOCK_RECORD
  5
1B
330
1
100
AcDbSymbolTableRecord
100
AcDbBlockTableRecord
  2
*Paper_Space
340
1E
 70
     0
280
     1
281
     0
  0
BLOCK_RECORD
  5
23
330
1
100
AcDbSymbolTableRecord
100
AcDbBlockTableRecord
  2
*Paper_Space0
340
26
 70
     0
280
     1
281
     0
  0
ENDTAB
  0
ENDSEC
  0
SECTION
  2
BLOCKS
  0
BLOCK
  5
20
330
1F
100
AcDbEntity
  8
0
100
AcDbBlockBegin
  2
*Model_Space
 70
     0
 10
0.0
 20
0.0
 30
0.0
  3
*Model_Space
  1

  0
ENDBLK
  5
21
330
1F
100
AcDbEntity
  8
0
100
AcDbBlockEnd
  0
BLOCK
  5
1C
330
1B
100
AcDbEntity
 67
     1
  8
0
100
AcDbBlockBegin
  2
*Paper_Space
 70
     0
 10
0.0
 20
0.0
 30
0.0
  3
*Paper_Space
  1

  0
ENDBLK
  5
1D
330
1B
100
AcDbEntity
 67
     1
  8
0
100
AcDbBlockEnd
  0
BLOCK
  5
24
330
23
100
AcDbEntity
  8
0
100
AcDbBlockBegin
  2
*Paper_Space0
 70
     0
 10
0.0
 20
0.0
 30
0.0
  3
*Paper_Space0
  1

  0
ENDBLK
  5
25
330
23
100
AcDbEntity
  8
0
100
AcDbBlockEnd
  0
ENDSEC
  0
SECTION
  2
ENTITIES
  0
SPLINE
  5
41
330
1F
100
AcDbEntity
  8
Layer 1
 62
   250
370
    18
100
AcDbSpline
210
0.0
220
0.0
230
1.0
 70
    11
 71
     3
 72
    20
 73
    16
 74
     0
 42
0.0000000001
 43
0.0000000001
 40
0.0
 40
0.0
 40
0.0
 40
0.0
 40
0.2
 40
0.2
 40
0.2
 40
0.2
 40
0.4
 40
0.4
 40
0.4
 40
0.4
 40
0.6
 40
0.6
 40
0.6
 40
0.6
 40
1.0
 40
1.0
 40
1.0
 40
1.0
 10
-5.0
 20
41.7025
 30
0.0
 10
-12.8533
 20
40.7708
 30
0.0
 10
-20.0428
 20
37.6743
 30
0.0
 10
-25.9528
 20
33.0239
 30
0.0
 10
-25.9528
 20
33.0239
 30
0.0
 10
-25.9528
 20
33.0239
 30
0.0
 10
-31.6422
 20
38.7133
 30
0.0
 10
-31.6422
 20
38.7133
 30
0.0
 10
-31.6422
 20
38.7133
 30
0.0
 10
-24.2343
 20
44.775
 30
0.0
 10
-15.0559
 20
48.7534
 30
0.0
 10
-5.0
 20
49.7519
 30
0.0
 10
-5.0
 20
49.7519
 30
0.0
 10
-5.0
 20
49.7519
 30
0.0
 10
-5.0
 20
41.7025
 30
0.0
 10
-5.0
 20
41.7025
 30
0.0
  0
SPLINE
  5
42
330
1F
100
AcDbEntity
  8
Layer 1
 62
   250
370
    18
100
AcDbSpline
210
0.0
220
0.0
230
1.0
 70
    11
 71
     3
 72
    20
 73
    16
 74
     0
 42
0.0000000001
 43
0.0000000001
 40
0.0
 40
0.0
 40
0.0
 40
0.0
 40
0.2
 40
0.2
 40
0.2
 40
0.2
 40
0.4
 40
0.4
 40
0.4
 40
0.4
 40
0.6
 40
0.6
 40
0.6
 40
0.6
 40
1.0
 40
1.0
 40
1.0
 40
1.0
 10
-33.0239
 20
25.9528
 30
0.0
 10
-37.6749
 20
20.043
 30
0.0
 10
-40.7707
 20
12.8534
 30
0.0
 10
-41.7025
 20
5.0
 30
0.0
 10
-41.7025
 20
5.0
 30
0.0
 10
-41.7025
 20
5.0
 30
0.0
 10
-49.7519
 20
5.0
 30
0.0
 10
-49.7519
 20
5.0
 30
0.0
 10
-49.7519
 20
5.0
 30
0.0
 10
-48.7532
 20
15.0558
 30
0.0
 10
-44.7755
 20
24.2349
 30
0.0
 10
-38.7133
 20
31.6422
 30
0.0
 10
-38.7133
 20
31.6422
 30
0.0
 10
-38.7133
 20
31.6422
 30
0.0
 10
-33.0239
 20
25.9528
 30
0.0
 10
-33.0239
 20
25.9528
 30
0.0
  0
SPLINE
  5
43
330
1F
100
AcDbEntity
  8
Layer 1
 62
   250
370
    18
100
AcDbSpline
210
0.0
220
0.0
230
1.0
 70
    11
 71
     3
 72
    20
 73
    16
 74
     0
 42
0.0000000001
 43
0.0000000001
 40
0.0
 40
0.0
 40
0.0
 40
0.0
 40
0.2
 40
0.2
 40
0.2
 40
0.2
 40
0.4
 40
0.4
 40
0.4
 40
0.4
 40
0.6
 40
0.6
 40
0.6
 40
0.6
 40
1.0
 40
1.0
 40
1.0
 40
1.0
 10
-41.7025
 20
-5.0
 30
0.0
 10
-40.7707
 20
-12.8533
 30
0.0
 10
-37.6739
 20
-20.0427
 30
0.0
 10
-33.0239
 20
-25.9528
 30
0.0
 10
-33.0239
 20
-25.9528
 30
0.0
 10
-33.0239
 20
-25.9528
 30
0.0
 10
-38.7133
 20
-31.6422
 30
0.0
 10
-38.7133
 20
-31.6422
 30
0.0
 10
-38.7133
 20
-31.6422
 30
0.0
 10
-44.7752
 20
-24.2347
 30
0.0
 10
-48.7533
 20
-15.0558
 30
0.0
 10
-49.7519
 20
-5.0
 30
0.0
 10
-49.7519
 20
-5.0
 30
0.0
 10
-49.7519
 20
-5.0
 30
0.0
 10
-41.7025
 20
-5.0
 30
0.0
 10
-41.7025
 20
-5.0
 30
0.0
  0
SPLINE
  5
44
330
1F
100
AcDbEntity
  8
Layer 1
 62
   250
370
    18
100
AcDbSpline
210
0.0
220
0.0
230
1.0
 70
    11
 71
     3
 72
    20
 73
    16
 74
     0
 42
0.0000000001
 43
0.0000000001
 40
0.0
 40
0.0
 40
0.0
 40
0.0
 40
0.2
 40
0.2
 40
0.2
 40
0.2
 40
0.4
 40
0.4
 40
0.4
 40
0.4
 40
0.6
 40
0.6
 40
0.6
 40
0.6
 40
1.0
 40
1.0
 40
1.0
 40
1.0
 10
-25.9528
 20
-33.0239
 30
0.0
 10
-20.0429
 20
-37.6748
 30
0.0
 10
-12.8533
 20
-40.7707
 30
0.0
 10
-5.0
 20
-41.7025
 30
0.0
 10
-5.0
 20
-41.7025
 30
0.0
 10
-5.0
 20
-41.7025
 30
0.0
 10
-5.0
 20
-49.7519
 30
0.0
 10
-5.0
 20
-49.7519
 30
0.0
 10
-5.0
 20
-49.7519
 30
0.0
 10
-15.0557
 20
-48.7531
 30
0.0
 10
-24.2344
 20
-44.7752
 30
0.0
 10
-31.6422
 20
-38.7133
 30
0.0
 10
-31.6422
 20
-38.7133
 30
0.0
 10
-31.6422
 20
-38.7133
 30
0.0
 10
-25.9528
 20
-33.0239
 30
0.0
 10
-25.9528
 20
-33.0239
 30
0.0
  0
SPLINE
  5
45
330
1F
100
AcDbEntity
  8
Layer 1
 62
   250
370
    18
100
AcDbSpline
210
0.0
220
0.0
230
1.0
 70
    11
 71
     3
 72
    20
 73
    16
 74
     0
 42
0.0000000001
 43
0.0000000001
 40
0.0
 40
0.0
 40
0.0
 40
0.0
 40
0.2
 40
0.2
 40
0.2
 40
0.2
 40
0.4
 40
0.4
 40
0.4
 40
0.4
 40
0.6
 40
0.6
 40
0.6
 40
0.6
 40
1.0
 40
1.0
 40
1.0
 40
1.0
 10
5.0
 20
-41.7025
 30
0.0
 10
12.8533
 20
-40.7708
 30
0.0
 10
20.0428
 20
-37.6743
 30
0.0
 10
25.9528
 20
-33.0239
 30
0.0
 10
25.9528
 20
-33.0239
 30
0.0
 10
25.9528
 20
-33.0239
 30
0.0
 10
31.6422
 20
-38.7133
 30
0.0
 10
31.6422
 20
-38.7133
 30
0.0
 10
31.6422
 20
-38.7133
 30
0.0
 10
24.2343
 20
-44.775
 30
0.0
 10
15.0559
 20
-48.7534
 30
0.0
 10
5.0
 20
-49.7519
 30
0.0
 10
5.0
 20
-49.7519
 30
0.0
 10
5.0
 20
-49.7519
 30
0.0
 10
5.0
 20
-41.7025
 30
0.0
 10
5.0
 20
-41.7025
 30
0.0
  0
SPLINE
  5
46
330
1F
100
AcDbEntity
  8
Layer 1
 62
   250
370
    18
100
AcDbSpline
210
0.0
220
0.0
230
1.0
 70
    11
 71
     3
 72
    20
 73
    16
 74
     0
 42
0.0000000001
 43
0.0000000001
 40
0.0
 40
0.0
 40
0.0
 40
0.0
 40
0.2
 40
0.2
 40
0.2
 40
0.2
 40
0.4
 40
0.4
 40
0.4
 40
0.4
 40
0.6
 40
0.6
 40
0.6
 40
0.6
 40
1.0
 40
1.0
 40
1.0
 40
1.0
 10
33.0239
 20
-25.9528
 30
0.0
 10
37.6749
 20
-20.043
 30
0.0
 10
40.7707
 20
-12.8534
 30
0.0
 10
41.7025
 20
-5.0
 30
0.0
 10
41.7025
 20
-5.0
 30
0.0
 10
41.7025
 20
-5.0
 30
0.0
 10
49.7519
 20
-5.0
 30
0.0
 10
49.7519
 20
-5.0
 30
0.0
 10
49.7519
 20
-5.0
 30
0.0
 10
48.7532
 20
-15.0558
 30
0.0
 10
44.7755
 20
-24.2349
 30
0.0
 10
38.7133
 20
-31.6422
 30
0.0
 10
38.7133
 20
-31.6422
 30
0.0
 10
38.7133
 20
-31.6422
 30
0.0
 10
33.0239
 20
-25.9528
 30
0.0
 10
33.0239
 20
-25.9528
 30
0.0
  0
SPLINE
  5
47
330
1F
100
AcDbEntity
  8
Layer 1
 62
   250
370
    18
100
AcDbSpline
210
0.0
220
0.0
230
1.0
 70
    11
 71
     3
 72
    20
 73
    16
 74
     0
 42
0.0000000001
 43
0.0000000001
 40
0.0
 40
0.0
 40
0.0
 40
0.0
 40
0.2
 40
0.2
 40
0.2
 40
0.2
 40
0.4
 40
0.4
 40
0.4
 40
0.4
 40
0.6
 40
0.6
 40
0.6
 40
0.6
 40
1.0
 40
1.0
 40
1.0
 40
1.0
 10
41.7025
 20
5.0
 30
0.0
 10
40.7708
 20
12.8533
 30
0.0
 10
37.6743
 20
20.0428
 30
0.0
 10
33.0239
 20
25.9528
 30
0.0
 10
33.0239
 20
25.9528
 30
0.0
 10
33.0239
 20
25.9528
 30
0.0
 10
38.7133
 20
31.6422
 30
0.0
 10
38.7133
 20
31.6422
 30
0.0
 10
38.7133
 20
31.6422
 30
0.0
 10
44.775
 20
24.2343
 30
0.0
 10
48.7534
 20
15.0559
 30
0.0
 10
49.7519
 20
5.0
 30
0.0
 10
49.7519
 20
5.0
 30
0.0
 10
49.7519
 20
5.0
 30
0.0
 10
41.7025
 20
5.0
 30
0.0
 10
41.7025
 20
5.0
 30
0.0
  0
SPLINE
  5
48
330
1F
100
AcDbEntity
  8
Layer 1
 62
   250
370
    18
100
AcDbSpline
210
0.0
220
0.0
230
1.0
 70
    11
 71
     3
 72
    20
 73
    16
 74
     0
 42
0.0000000001
 43
0.0000000001
 40
0.0
 40
0.0
 40
0.0
 40
0.0
 40
0.2
 40
0.2
 40
0.2
 40
0.2
 40
0.4
 40
0.4
 40
0.4
 40
0.4
 40
0.6
 40
0.6
 40
0.6
 40
0.6
 40
1.0
 40
1.0
 40
1.0
 40
1.0
 10
25.9528
 20
33.0239
 30
0.0
 10
20.043
 20
37.6749
 30
0.0
 10
12.8534
 20
40.7707
 30
0.0
 10
5.0
 20
41.7025
 30
0.0
 10
5.0
 20
41.7025
 30
0.0
 10
5.0
 20
41.7025
 30
0.0
 10
5.0
 20
49.7519
 30
0.0
 10
5.0
 20
49.7519
 30
0.0
 10
5.0
 20
49.7519
 30
0.0
 10
15.0558
 20
48.7532
 30
0.0
 10
24.2349
 20
44.7755
 30
0.0
 10
31.6422
 20
38.7133
 30
0.0
 10
31.6422
 20
38.7133
 30
0.0
 10
31.6422
 20
38.7133
 30
0.0
 10
25.9528
 20
33.0239
 30
0.0
 10
25.9528
 20
33.0239
 30
0.0
  0
SPLINE
  5
49
330
1F
100
AcDbEntity
  8
Layer 1
 62
   250
370
    18
100
AcDbSpline
210
0.0
220
0.0
230
1.0
 70
    11
 71
     3
 72
    20
 73
    16
 74
     0
 42
0.0000000001
 43
0.0000000001
 40
0.0
 40
0.0
 40
0.0
 40
0.0
 40
0.2
 40
0.2
 40
0.2
 40
0.2
 40
0.4
 40
0.4
 40
0.4
 40
0.4
 40
0.6
 40
0.6
 40
0.6
 40
0.6
 40
1.0
 40
1.0
 40
1.0
 40
1.0
 10
-5.0
 20
77.335
 30
0.0
 10
-22.6378
 20
76.2115
 30
0.0
 10
-38.6699
 20
69.1895
 30
0.0
 10
-51.1484
 20
58.2195
 30
0.0
 10
-51.1484
 20
58.2195
 30
0.0
 10
-51.1484
 20
58.2195
 30
0.0
 10
-57.5233
 20
64.5944
 30
0.0
 10
-57.5233
 20
64.5944
 30
0.0
 10
-57.5233
 20
64.5944
 30
0.0
 10
-43.3982
 20
77.1808
 30
0.0
 10
-25.1211
 20
85.2056
 30
0.0
 10
-5.0
 20
86.3526
 30
0.0
 10
-5.0
 20
86.3526
 30
0.0
 10
-5.0
 20
86.3526
 30
0.0
 10
-5.0
 20
77.335
 30
0.0
 10
-5.0
 20
77.335
 30
0.0
  0
SPLINE
  5
4A
330
1F
100
AcDbEntity
  8
Layer 1
 62
   250
370
    18
100
AcDbSpline
210
0.0
220
0.0
230
1.0
 70
    11
 71
     3
 72
    20
 73
    16
 74
     0
 42
0.0000000001
 43
0.0000000001
 40
0.0
 40
0.0
 40
0.0
 40
0.0
 40
0.2
 40
0.2
 40
0.2
 40
0.2
 40
0.4
 40
0.4
 40
0.4
 40
0.4
 40
0.6
 40
0.6
 40
0.6
 40
0.6
 40
1.0
 40
1.0
 40
1.0
 40
1.0
 10
-58.2195
 20
51.1484
 30
0.0
 10
-69.1916
 20
38.6716
 30
0.0
 10
-76.2112
 20
22.6375
 30
0.0
 10
-77.335
 20
5.0
 30
0.0
 10
-77.335
 20
5.0
 30
0.0
 10
-77.335
 20
5.0
 30
0.0
 10
-86.3526
 20
5.0
 30
0.0
 10
-86.3526
 20
5.0
 30
0.0
 10
-86.3526
 20
5.0
 30
0.0
 10
-85.2051
 20
25.1207
 30
0.0
 10
-77.1829
 20
43.3999
 30
0.0
 10
-64.5944
 20
57.5233
 30
0.0
 10
-64.5944
 20
57.5233
 30
0.0
 10
-64.5944
 20
57.5233
 30
0.0
 10
-58.2195
 20
51.1484
 30
0.0
 10
-58.2195
 20
51.1484
 30
0.0
  0
SPLINE
  5
4B
330
1F
100
AcDbEntity
  8
Layer 1
 62
   250
370
    18
100
AcDbSpline
210
0.0
220
0.0
230
1.0
 70
    11
 71
     3
 72
    20
 73
    16
 74
     0
 42
0.0000000001
 43
0.0000000001
 40
0.0
 40
0.0
 40
0.0
 40
0.0
 40
0.2
 40
0.2
 40
0.2
 40
0.2
 40
0.4
 40
0.4
 40
0.4
 40
0.4
 40
0.6
 40
0.6
 40
0.6
 40
0.6
 40
1.0
 40
1.0
 40
1.0
 40
1.0
 10
-77.335
 20
-5.0
 30
0.0
 10
-76.2113
 20
-22.6374
 30
0.0
 10
-69.1901
 20
-38.6706
 30
0.0
 10
-58.2195
 20
-51.1484
 30
0.0
 10
-58.2195
 20
-51.1484
 30
0.0
 10
-58.2195
 20
-51.1484
 30
0.0
 10
-64.5944
 20
-57.5233
 30
0.0
 10
-64.5944
 20
-57.5233
 30
0.0
 10
-64.5944
 20
-57.5233
 30
0.0
 10
-77.1816
 20
-43.399
 30
0.0
 10
-85.2051
 20
-25.1207
 30
0.0
 10
-86.3526
 20
-5.0
 30
0.0
 10
-86.3526
 20
-5.0
 30
0.0
 10
-86.3526
 20
-5.0
 30
0.0
 10
-77.335
 20
-5.0
 30
0.0
 10
-77.335
 20
-5.0
 30
0.0
  0
SPLINE
  5
4C
330
1F
100
AcDbEntity
  8
Layer 1
 62
   250
370
    18
100
AcDbSpline
210
0.0
220
0.0
230
1.0
 70
    11
 71
     3
 72
    20
 73
    16
 74
     0
 42
0.0000000001
 43
0.0000000001
 40
0.0
 40
0.0
 40
0.0
 40
0.0
 40
0.2
 40
0.2
 40
0.2
 40
0.2
 40
0.4
 40
0.4
 40
0.4
 40
0.4
 40
0.6
 40
0.6
 40
0.6
 40
0.6
 40
1.0
 40
1.0
 40
1.0
 40
1.0
 10
-51.1484
 20
-58.2195
 30
0.0
 10
-38.6702
 20
-69.1908
 30
0.0
 10
-22.6373
 20
-76.211
 30
0.0
 10
-5.0
 20
-77.335
 30
0.0
 10
-5.0
 20
-77.335
 30
0.0
 10
-5.0
 20
-77.335
 30
0.0
 10
-5.0
 20
-86.3526
 30
0.0
 10
-5.0
 20
-86.3526
 30
0.0
 10
-5.0
 20
-86.3526
 30
0.0
 10
-25.1206
 20
-85.2049
 30
0.0
 10
-43.3985
 20
-77.182
 30
0.0
 10
-57.5233
 20
-64.5944
 30
0.0
 10
-57.5233
 20
-64.5944
 30
0.0
 10
-57.5233
 20
-64.5944
 30
0.0
 10
-51.1484
 20
-58.2195
 30
0.0
 10
-51.1484
 20
-58.2195
 30
0.0
  0
SPLINE
  5
4D
330
1F
100
AcDbEntity
  8
Layer 1
 62
   250
370
    18
100
AcDbSpline
210
0.0
220
0.0
230
1.0
 70
    11
 71
     3
 72
    20
 73
    16
 74
     0
 42
0.0000000001
 43
0.0000000001
 40
0.0
 40
0.0
 40
0.0
 40
0.0
 40
0.2
 40
0.2
 40
0.2
 40
0.2
 40
0.4
 40
0.4
 40
0.4
 40
0.4
 40
0.6
 40
0.6
 40
0.6
 40
0.6
 40
1.0
 40
1.0
 40
1.0
 40
1.0
 10
5.0
 20
-77.335
 30
0.0
 10
22.6378
 20
-76.2115
 30
0.0
 10
38.6699
 20
-69.1895
 30
0.0
 10
51.1484
 20
-58.2195
 30
0.0
 10
51.1484
 20
-58.2195
 30
0.0
 10
51.1484
 20
-58.2195
 30
0.0
 10
57.5233
 20
-64.5944
 30
0.0
 10
57.5233
 20
-64.5944
 30
0.0
 10
57.5233
 20
-64.5944
 30
0.0
 10
43.3982
 20
-77.1808
 30
0.0
 10
25.1211
 20
-85.2056
 30
0.0
 10
5.0
 20
-86.3526
 30
0.0
 10
5.0
 20
-86.3526
 30
0.0
 10
5.0
 20
-86.3526
 30
0.0
 10
5.0
 20
-77.335
 30
0.0
 10
5.0
 20
-77.335
 30
0.0
  0
SPLINE
  5
4E
330
1F
100
AcDbEntity
  8
Layer 1
 62
   250
370
    18
100
AcDbSpline
210
0.0
220
0.0
230
1.0
 70
    11
 71
     3
 72
    20
 73
    16
 74
     0
 42
0.0000000001
 43
0.0000000001
 40
0.0
 40
0.0
 40
0.0
 40
0.0
 40
0.2
 40
0.2
 40
0.2
 40
0.2
 40
0.4
 40
0.4
 40
0.4
 40
0.4
 40
0.6
 40
0.6
 40
0.6
 40
0.6
 40
1.0
 40
1.0
 40
1.0
 40
1.0
 10
58.2195
 20
-51.1484
 30
0.0
 10
69.1916
 20
-38.6716
 30
0.0
 10
76.2112
 20
-22.6375
 30
0.0
 10
77.335
 20
-5.0
 30
0.0
 10
77.335
 20
-5.0
 30
0.0
 10
77.335
 20
-5.0
 30
0.0
 10
86.3526
 20
-5.0
 30
0.0
 10
86.3526
 20
-5.0
 30
0.0
 10
86.3526
 20
-5.0
 30
0.0
 10
85.2051
 20
-25.1207
 30
0.0
 10
77.1829
 20
-43.3999
 30
0.0
 10
64.5944
 20
-57.5233
 30
0.0
 10
64.5944
 20
-57.5233
 30
0.0
 10
64.5944
 20
-57.5233
 30
0.0
 10
58.2195
 20
-51.1484
 30
0.0
 10
58.2195
 20
-51.1484
 30
0.0
  0
SPLINE
  5
4F
330
1F
100
AcDbEntity
  8
Layer 1
 62
   250
370
    18
100
AcDbSpline
210
0.0
220
0.0
230
1.0
 70
    11
 71
     3
 72
    20
 73
    16
 74
     0
 42
0.0000000001
 43
0.0000000001
 40
0.0
 40
0.0
 40
0.0
 40
0.0
 40
0.2
 40
0.2
 40
0.2
 40
0.2
 40
0.4
 40
0.4
 40
0.4
 40
0.4
 40
0.6
 40
0.6
 40
0.6
 40
0.6
 40
1.0
 40
1.0
 40
1.0
 40
1.0
 10
77.335
 20
5.0
 30
0.0
 10
76.2115
 20
22.6378
 30
0.0
 10
69.1895
 20
38.6699
 30
0.0
 10
58.2195
 20
51.1484
 30
0.0
 10
58.2195
 20
51.1484
 30
0.0
 10
58.2195
 20
51.1484
 30
0.0
 10
64.5944
 20
57.5233
 30
0.0
 10
64.5944
 20
57.5233
 30
0.0
 10
64.5944
 20
57.5233
 30
0.0
 10
77.1808
 20
43.3982
 30
0.0
 10
85.2056
 20
25.1211
 30
0.0
 10
86.3526
 20
5.0
 30
0.0
 10
86.3526
 20
5.0
 30
0.0
 10
86.3526
 20
5.0
 30
0.0
 10
77.335
 20
5.0
 30
0.0
 10
77.335
 20
5.0
 30
0.0
  0
SPLINE
  5
50
330
1F
100
AcDbEntity
  8
Layer 1
 62
   250
370
    18
100
AcDbSpline
210
0.0
220
0.0
230
1.0
 70
    11
 71
     3
 72
    20
 73
    16
 74
     0
 42
0.0000000001
 43
0.0000000001
 40
0.0
 40
0.0
 40
0.0
 40
0.0
 40
0.2
 40
0.2
 40
0.2
 40
0.2
 40
0.4
 40
0.4
 40
0.4
 40
0.4
 40
0.6
 40
0.6
 40
0.6
 40
0.6
 40
1.0
 40
1.0
 40
1.0
 40
1.0
 10
51.1484
 20
58.2195
 30
0.0
 10
38.6716
 20
69.1916
 30
0.0
 10
22.6375
 20
76.2112
 30
0.0
 10
5.0
 20
77.335
 30
0.0
 10
5.0
 20
77.335
 30
0.0
 10
5.0
 20
77.335
 30
0.0
 10
5.0
 20
86.3526
 30
0.0
 10
5.0
 20
86.3526
 30
0.0
 10
5.0
 20
86.3526
 30
0.0
 10
25.1207
 20
85.2051
 30
0.0
 10
43.3999
 20
77.1829
 30
0.0
 10
57.5233
 20
64.5944
 30
0.0
 10
57.5233
 20
64.5944
 30
0.0
 10
57.5233
 20
64.5944
 30
0.0
 10
51.1484
 20
58.2195
 30
0.0
 10
51.1484
 20
58.2195
 30
0.0
  0
SPLINE
  5
51
330
1F
100
AcDbEntity
  8
Layer 1
 62
   250
370
    18
100
AcDbSpline
210
0.0
220
0.0
230
1.0
 70
    11
 71
     3
 72
    20
 73
    16
 74
     0
 42
0.0000000001
 43
0.0000000001
 40
0.0
 40
0.0
 40
0.0
 40
0.0
 40
0.2
 40
0.2
 40
0.2
 40
0.2
 40
0.4
 40
0.4
 40
0.4
 40
0.4
 40
0.6
 40
0.6
 40
0.6
 40
0.6
 40
1.0
 40
1.0
 40
1.0
 40
1.0
 10
-5.0
 20
114.8853
 30
0.0
 10
-32.9867
 20
113.6876
 30
0.0
 10
-58.3806
 20
102.4898
 30
0.0
 10
-77.7018
 20
84.7729
 30
0.0
 10
-77.7018
 20
84.7729
 30
0.0
 10
-77.7018
 20
84.7729
 30
0.0
 10
-98.9271
 20
105.9982
 30
0.0
 10
-98.9271
 20
105.9982
 30
0.0
 10
-98.9271
 20
105.9982
 30
0.0
 10
-74.1528
 20
129.1268
 30
0.0
 10
-41.2681
 20
143.6751
 30
0.0
 10
-5.0
 20
144.9048
 30
0.0
 10
-5.0
 20
144.9048
 30
0.0
 10
-5.0
 20
144.9048
 30
0.0
 10
-5.0
 20
114.8853
 30
0.0
 10
-5.0
 20
114.8853
 30
0.0
  0
SPLINE
  5
52
330
1F
100
AcDbEntity
  8
Layer 1
 62
   250
370
    18
100
AcDbSpline
210
0.0
220
0.0
230
1.0
 70
    11
 71
     3
 72
    20
 73
    16
 74
     0
 42
0.0000000001
 43
0.0000000001
 40
0.0
 40
0.0
 40
0.0
 40
0.0
 40
0.2
 40
0.2
 40
0.2
 40
0.2
 40
0.4
 40
0.4
 40
0.4
 40
0.4
 40
0.6
 40
0.6
 40
0.6
 40
0.6
 40
1.0
 40
1.0
 40
1.0
 40
1.0
 10
-84.7729
 20
77.7018
 30
0.0
 10
-102.4923
 20
58.3827
 30
0.0
 10
-113.6873
 20
32.9865
 30
0.0
 10
-114.8853
 20
5.0
 30
0.0
 10
-114.8853
 20
5.0
 30
0.0
 10
-114.8853
 20
5.0
 30
0.0
 10
-144.9048
 20
5.0
 30
0.0
 10
-144.9048
 20
5.0
 30
0.0
 10
-144.9048
 20
5.0
 30
0.0
 10
-143.6746
 20
41.2678
 30
0.0
 10
-129.1301
 20
74.1555
 30
0.0
 10
-105.9982
 20
98.9271
 30
0.0
 10
-105.9982
 20
98.9271
 30
0.0
 10
-105.9982
 20
98.9271
 30
0.0
 10
-84.7729
 20
77.7018
 30
0.0
 10
-84.7729
 20
77.7018
 30
0.0
  0
SPLINE
  5
53
330
1F
100
AcDbEntity
  8
Layer 1
 62
   250
370
    18
100
AcDbSpline
210
0.0
220
0.0
230
1.0
 70
    11
 71
     3
 72
    20
 73
    16
 74
     0
 42
0.0000000001
 43
0.0000000001
 40
0.0
 40
0.0
 40
0.0
 40
0.0
 40
0.2
 40
0.2
 40
0.2
 40
0.2
 40
0.4
 40
0.4
 40
0.4
 40
0.4
 40
0.6
 40
0.6
 40
0.6
 40
0.6
 40
1.0
 40
1.0
 40
1.0
 40
1.0
 10
-114.8853
 20
-5.0
 30
0.0
 10
-113.6873
 20
-32.9864
 30
0.0
 10
-102.4907
 20
-58.3814
 30
0.0
 10
-84.7729
 20
-77.7018
 30
0.0
 10
-84.7729
 20
-77.7018
 30
0.0
 10
-84.7729
 20
-77.7018
 30
0.0
 10
-105.9982
 20
-98.9271
 30
0.0
 10
-105.9982
 20
-98.9271
 30
0.0
 10
-105.9982
 20
-98.9271
 30
0.0
 10
-129.1283
 20
-74.1531
 30
0.0
 10
-143.6751
 20
-41.2681
 30
0.0
 10
-144.9048
 20
-5.0
 30
0.0
 10
-144.9048
 20
-5.0
 30
0.0
 10
-144.9048
 20
-5.0
 30
0.0
 10
-114.8853
 20
-5.0
 30
0.0
 10
-114.8853
 20
-5.0
 30
0.0
  0
SPLINE
  5
54
330
1F
100
AcDbEntity
  8
Layer 1
 62
   250
370
    18
100
AcDbSpline
210
0.0
220
0.0
230
1.0
 70
    11
 71
     3
 72
    20
 73
    16
 74
     0
 42
0.0000000001
 43
0.0000000001
 40
0.0
 40
0.0
 40
0.0
 40
0.0
 40
0.2
 40
0.2
 40
0.2
 40
0.2
 40
0.4
 40
0.4
 40
0.4
 40
0.4
 40
0.6
 40
0.6
 40
0.6
 40
0.6
 40
1.0
 40
1.0
 40
1.0
 40
1.0
 10
-77.7018
 20
-84.7729
 30
0.0
 10
-58.3811
 20
-102.4915
 30
0.0
 10
-32.9864
 20
-113.6872
 30
0.0
 10
-5.0
 20
-114.8853
 30
0.0
 10
-5.0
 20
-114.8853
 30
0.0
 10
-5.0
 20
-114.8853
 30
0.0
 10
-5.0
 20
-144.9048
 30
0.0
 10
-5.0
 20
-144.9048
 30
0.0
 10
-5.0
 20
-144.9048
 30
0.0
 10
-41.2675
 20
-143.6745
 30
0.0
 10
-74.1535
 20
-129.1292
 30
0.0
 10
-98.9271
 20
-105.9982
 30
0.0
 10
-98.9271
 20
-105.9982
 30
0.0
 10
-98.9271
 20
-105.9982
 30
0.0
 10
-77.7018
 20
-84.7729
 30
0.0
 10
-77.7018
 20
-84.7729
 30
0.0
  0
SPLINE
  5
55
330
1F
100
AcDbEntity
  8
Layer 1
 62
   250
370
    18
100
AcDbSpline
210
0.0
220
0.0
230
1.0
 70
    11
 71
     3
 72
    20
 73
    16
 74
     0
 42
0.0000000001
 43
0.0000000001
 40
0.0
 40
0.0
 40
0.0
 40
0.0
 40
0.2
 40
0.2
 40
0.2
 40
0.2
 40
0.4
 40
0.4
 40
0.4
 40
0.4
 40
0.6
 40
0.6
 40
0.6
 40
0.6
 40
1.0
 40
1.0
 40
1.0
 40
1.0
 10
5.0
 20
-114.8853
 30
0.0
 10
32.9867
 20
-113.6876
 30
0.0
 10
58.3806
 20
-102.4898
 30
0.0
 10
77.7018
 20
-84.7729
 30
0.0
 10
77.7018
 20
-84.7729
 30
0.0
 10
77.7018
 20
-84.7729
 30
0.0
 10
98.9271
 20
-105.9982
 30
0.0
 10
98.9271
 20
-105.9982
 30
0.0
 10
98.9271
 20
-105.9982
 30
0.0
 10
74.1528
 20
-129.1268
 30
0.0
 10
41.2681
 20
-143.6751
 30
0.0
 10
5.0
 20
-144.9048
 30
0.0
 10
5.0
 20
-144.9048
 30
0.0
 10
5.0
 20
-144.9048
 30
0.0
 10
5.0
 20
-114.8853
 30
0.0
 10
5.0
 20
-114.8853
 30
0.0
  0
SPLINE
  5
56
330
1F
100
AcDbEntity
  8
Layer 1
 62
   250
370
    18
100
AcDbSpline
210
0.0
220
0.0
230
1.0
 70
    11
 71
     3
 72
    20
 73
    16
 74
     0
 42
0.0000000001
 43
0.0000000001
 40
0.0
 40
0.0
 40
0.0
 40
0.0
 40
0.2
 40
0.2
 40
0.2
 40
0.2
 40
0.4
 40
0.4
 40
0.4
 40
0.4
 40
0.6
 40
0.6
 40
0.6
 40
0.6
 40
1.0
 40
1.0
 40
1.0
 40
1.0
 10
84.7729
 20
-77.7018
 30
0.0
 10
102.4923
 20
-58.3827
 30
0.0
 10
113.6873
 20
-32.9865
 30
0.0
 10
114.8853
 20
-5.0
 30
0.0
 10
114.8853
 20
-5.0
 30
0.0
 10
114.8853
 20
-5.0
 30
0.0
 10
144.9048
 20
-5.0
 30
0.0
 10
144.9048
 20
-5.0
 30
0.0
 10
144.9048
 20
-5.0
 30
0.0
 10
143.6746
 20
-41.2678
 30
0.0
 10
129.13
 20
-74.1555
 30
0.0
 10
105.9982
 20
-98.9271
 30
0.0
 10
105.9982
 20
-98.9271
 30
0.0
 10
105.9982
 20
-98.9271
 30
0.0
 10
84.7729
 20
-77.7018
 30
0.0
 10
84.7729
 20
-77.7018
 30
0.0
  0
SPLINE
  5
57
330
1F
100
AcDbEntity
  8
Layer 1
 62
   250
370
    18
100
AcDbSpline
210
0.0
220
0.0
230
1.0
 70
    11
 71
     3
 72
    20
 73
    16
 74
     0
 42
0.0000000001
 43
0.0000000001
 40
0.0
 40
0.0
 40
0.0
 40
0.0
 40
0.2
 40
0.2
 40
0.2
 40
0.2
 40
0.4
 40
0.4
 40
0.4
 40
0.4
 40
0.6
 40
0.6
 40
0.6
 40
0.6
 40
1.0
 40
1.0
 40
1.0
 40
1.0
 10
114.8853
 20
5.0
 30
0.0
 10
113.6876
 20
32.9867
 30
0.0
 10
102.4898
 20
58.3806
 30
0.0
 10
84.7729
 20
77.7018
 30
0.0
 10
84.7729
 20
77.7018
 30
0.0
 10
84.7729
 20
77.7018
 30
0.0
 10
105.9982
 20
98.9271
 30
0.0
 10
105.9982
 20
98.9271
 30
0.0
 10
105.9982
 20
98.9271
 30
0.0
 10
129.1268
 20
74.1528
 30
0.0
 10
143.6751
 20
41.2681
 30
0.0
 10
144.9048
 20
5.0
 30
0.0
 10
144.9048
 20
5.0
 30
0.0
 10
144.9048
 20
5.0
 30
0.0
 10
114.8853
 20
5.0
 30
0.0
 10
114.8853
 20
5.0
 30
0.0
  0
SPLINE
  5
58
330
1F
100
AcDbEntity
  8
Layer 1
 62
   250
370
    18
100
AcDbSpline
210
0.0
220
0.0
230
1.0
 70
    11
 71
     3
 72
    20
 73
    16
 74
     0
 42
0.0000000001
 43
0.0000000001
 40
0.0
 40
0.0
 40
0.0
 40
0.0
 40
0.2
 40
0.2
 40
0.2
 40
0.2
 40
0.4
 40
0.4
 40
0.4
 40
0.4
 40
0.6
 40
0.6
 40
0.6
 40
0.6
 40
1.0
 40
1.0
 40
1.0
 40
1.0
 10
77.7018
 20
84.7729
 30
0.0
 10
58.3827
 20
102.4923
 30
0.0
 10
32.9865
 20
113.6873
 30
0.0
 10
5.0
 20
114.8853
 30
0.0
 10
5.0
 20
114.8853
 30
0.0
 10
5.0
 20
114.8853
 30
0.0
 10
5.0
 20
144.9048
 30
0.0
 10
5.0
 20
144.9048
 30
0.0
 10
5.0
 20
144.9048
 30
0.0
 10
41.2678
 20
143.6746
 30
0.0
 10
74.1555
 20
129.1301
 30
0.0
 10
98.9271
 20
105.9982
 30
0.0
 10
98.9271
 20
105.9982
 30
0.0
 10
98.9271
 20
105.9982
 30
0.0
 10
77.7018
 20
84.7729
 30
0.0
 10
77.7018
 20
84.7729
 30
0.0
  0
SPLINE
  5
59
330
1F
100
AcDbEntity
  8
Layer 1
 62
   250
370
    18
100
AcDbSpline
210
0.0
220
0.0
230
1.0
 70
    11
 71
     3
 72
    20
 73
    16
 74
     0
 42
0.0000000001
 43
0.0000000001
 40
0.0
 40
0.0
 40
0.0
 40
0.0
 40
0.2
 40
0.2
 40
0.2
 40
0.2
 40
0.4
 40
0.4
 40
0.4
 40
0.4
 40
0.6
 40
0.6
 40
0.6
 40
0.6
 40
1.0
 40
1.0
 40
1.0
 40
1.0
 10
-305.0
 20
82.3449
 30
0.0
 10
-324.0173
 20
81.2076
 30
0.0
 10
-341.2963
 20
73.6287
 30
0.0
 10
-354.6901
 20
61.7612
 30
0.0
 10
-354.6901
 20
61.7612
 30
0.0
 10
-354.6901
 20
61.7612
 30
0.0
 10
-398.9272
 20
105.9983
 30
0.0
 10
-398.9272
 20
105.9983
 30
0.0
 10
-398.9272
 20
105.9983
 30
0.0
 10
-374.1529
 20
129.1268
 30
0.0
 10
-341.2682
 20
143.6751
 30
0.0
 10
-305.0
 20
144.9048
 30
0.0
 10
-305.0
 20
144.9048
 30
0.0
 10
-305.0
 20
144.9048
 30
0.0
 10
-305.0
 20
82.3449
 30
0.0
 10
-305.0
 20
82.3449
 30
0.0
  0
SPLINE
  5
5A
330
1F
100
AcDbEntity
  8
Layer 1
 62
   250
370
    18
100
AcDbSpline
210
0.0
220
0.0
230
1.0
 70
    11
 71
     3
 72
    20
 73
    16
 74
     0
 42
0.0000000001
 43
0.0000000001
 40
0.0
 40
0.0
 40
0.0
 40
0.0
 40
0.2
 40
0.2
 40
0.2
 40
0.2
 40
0.4
 40
0.4
 40
0.4
 40
0.4
 40
0.6
 40
0.6
 40
0.6
 40
0.6
 40
1.0
 40
1.0
 40
1.0
 40
1.0
 10
-361.7612
 20
54.6901
 30
0.0
 10
-373.631
 20
41.2982
 30
0.0
 10
-381.2072
 20
24.0171
 30
0.0
 10
-382.3449
 20
5.0
 30
0.0
 10
-382.3449
 20
5.0
 30
0.0
 10
-382.3449
 20
5.0
 30
0.0
 10
-444.9048
 20
5.0
 30
0.0
 10
-444.9048
 20
5.0
 30
0.0
 10
-444.9048
 20
5.0
 30
0.0
 10
-443.6746
 20
41.2678
 30
0.0
 10
-429.1302
 20
74.1556
 30
0.0
 10
-405.9983
 20
98.9272
 30
0.0
 10
-405.9983
 20
98.9272
 30
0.0
 10
-405.9983
 20
98.9272
 30
0.0
 10
-361.7612
 20
54.6901
 30
0.0
 10
-361.7612
 20
54.6901
 30
0.0
  0
SPLINE
  5
5B
330
1F
100
AcDbEntity
  8
Layer 1
 62
   250
370
    18
100
AcDbSpline
210
0.0
220
0.0
230
1.0
 70
    11
 71
     3
 72
    20
 73
    16
 74
     0
 42
0.0000000001
 43
0.0000000001
 40
0.0
 40
0.0
 40
0.0
 40
0.0
 40
0.2
 40
0.2
 40
0.2
 40
0.2
 40
0.4
 40
0.4
 40
0.4
 40
0.4
 40
0.6
 40
0.6
 40
0.6
 40
0.6
 40
1.0
 40
1.0
 40
1.0
 40
1.0
 10
-382.3449
 20
-5.0
 30
0.0
 10
-381.2073
 20
-24.0169
 30
0.0
 10
-373.6294
 20
-41.2972
 30
0.0
 10
-361.7612
 20
-54.6901
 30
0.0
 10
-361.7612
 20
-54.6901
 30
0.0
 10
-361.7612
 20
-54.6901
 30
0.0
 10
-405.9983
 20
-98.9272
 30
0.0
 10
-405.9983
 20
-98.9272
 30
0.0
 10
-405.9983
 20
-98.9272
 30
0.0
 10
-429.1284
 20
-74.1533
 30
0.0
 10
-443.6751
 20
-41.2682
 30
0.0
 10
-444.9048
 20
-5.0
 30
0.0
 10
-444.9048
 20
-5.0
 30
0.0
 10
-444.9048
 20
-5.0
 30
0.0
 10
-382.3449
 20
-5.0
 30
0.0
 10
-382.3449
 20
-5.0
 30
0.0
  0
SPLINE
  5
5C
330
1F
100
AcDbEntity
  8
Layer 1
 62
   250
370
    18
100
AcDbSpline
210
0.0
220
0.0
230
1.0
 70
    11
 71
     3
 72
    20
 73
    16
 74
     0
 42
0.0000000001
 43
0.0000000001
 40
0.0
 40
0.0
 40
0.0
 40
0.0
 40
0.2
 40
0.2
 40
0.2
 40
0.2
 40
0.4
 40
0.4
 40
0.4
 40
0.4
 40
0.6
 40
0.6
 40
0.6
 40
0.6
 40
1.0
 40
1.0
 40
1.0
 40
1.0
 10
-354.6901
 20
-61.7612
 30
0.0
 10
-341.2967
 20
-73.6301
 30
0.0
 10
-324.0167
 20
-81.2071
 30
0.0
 10
-305.0
 20
-82.3449
 30
0.0
 10
-305.0
 20
-82.3449
 30
0.0
 10
-305.0
 20
-82.3449
 30
0.0
 10
-305.0
 20
-144.9048
 30
0.0
 10
-305.0
 20
-144.9048
 30
0.0
 10
-305.0
 20
-144.9048
 30
0.0
 10
-341.2676
 20
-143.6745
 30
0.0
 10
-374.1535
 20
-129.1293
 30
0.0
 10
-398.9272
 20
-105.9983
 30
0.0
 10
-398.9272
 20
-105.9983
 30
0.0
 10
-398.9272
 20
-105.9983
 30
0.0
 10
-354.6901
 20
-61.7612
 30
0.0
 10
-354.6901
 20
-61.7612
 30
0.0
  0
SPLINE
  5
5D
330
1F
100
AcDbEntity
  8
Layer 1
 62
   250
370
    18
100
AcDbSpline
210
0.0
220
0.0
230
1.0
 70
    11
 71
     3
 72
    20
 73
    16
 74
     0
 42
0.0000000001
 43
0.0000000001
 40
0.0
 40
0.0
 40
0.0
 40
0.0
 40
0.2
 40
0.2
 40
0.2
 40
0.2
 40
0.4
 40
0.4
 40
0.4
 40
0.4
 40
0.6
 40
0.6
 40
0.6
 40
0.6
 40
1.0
 40
1.0
 40
1.0
 40
1.0
 10
-295.0
 20
-82.3449
 30
0.0
 10
-275.9827
 20
-81.2076
 30
0.0
 10
-258.7037
 20
-73.6287
 30
0.0
 10
-245.3099
 20
-61.7612
 30
0.0
 10
-245.3099
 20
-61.7612
 30
0.0
 10
-245.3099
 20
-61.7612
 30
0.0
 10
-201.0728
 20
-105.9983
 30
0.0
 10
-201.0728
 20
-105.9983
 30
0.0
 10
-201.0728
 20
-105.9983
 30
0.0
 10
-225.8471
 20
-129.1268
 30
0.0
 10
-258.7318
 20
-143.6751
 30
0.0
 10
-295.0
 20
-144.9048
 30
0.0
 10
-295.0
 20
-144.9048
 30
0.0
 10
-295.0
 20
-144.9048
 30
0.0
 10
-295.0
 20
-82.3449
 30
0.0
 10
-295.0
 20
-82.3449
 30
0.0
  0
SPLINE
  5
5E
330
1F
100
AcDbEntity
  8
Layer 1
 62
   250
370
    18
100
AcDbSpline
210
0.0
220
0.0
230
1.0
 70
    11
 71
     3
 72
    20
 73
    16
 74
     0
 42
0.0000000001
 43
0.0000000001
 40
0.0
 40
0.0
 40
0.0
 40
0.0
 40
0.2
 40
0.2
 40
0.2
 40
0.2
 40
0.4
 40
0.4
 40
0.4
 40
0.4
 40
0.6
 40
0.6
 40
0.6
 40
0.6
 40
1.0
 40
1.0
 40
1.0
 40
1.0
 10
-238.2388
 20
-54.6901
 30
0.0
 10
-226.369
 20
-41.2982
 30
0.0
 10
-218.7928
 20
-24.0171
 30
0.0
 10
-217.6551
 20
-5.0
 30
0.0
 10
-217.6551
 20
-5.0
 30
0.0
 10
-217.6551
 20
-5.0
 30
0.0
 10
-155.0952
 20
-5.0
 30
0.0
 10
-155.0952
 20
-5.0
 30
0.0
 10
-155.0952
 20
-5.0
 30
0.0
 10
-156.3254
 20
-41.2678
 30
0.0
 10
-170.8698
 20
-74.1556
 30
0.0
 10
-194.0017
 20
-98.9272
 30
0.0
 10
-194.0017
 20
-98.9272
 30
0.0
 10
-194.0017
 20
-98.9272
 30
0.0
 10
-238.2388
 20
-54.6901
 30
0.0
 10
-238.2388
 20
-54.6901
 30
0.0
  0
SPLINE
  5
5F
330
1F
100
AcDbEntity
  8
Layer 1
 62
   250
370
    18
100
AcDbSpline
210
0.0
220
0.0
230
1.0
 70
    11
 71
     3
 72
    20
 73
    16
 74
     0
 42
0.0000000001
 43
0.0000000001
 40
0.0
 40
0.0
 40
0.0
 40
0.0
 40
0.2
 40
0.2
 40
0.2
 40
0.2
 40
0.4
 40
0.4
 40
0.4
 40
0.4
 40
0.6
 40
0.6
 40
0.6
 40
0.6
 40
1.0
 40
1.0
 40
1.0
 40
1.0
 10
-217.6551
 20
5.0
 30
0.0
 10
-218.7924
 20
24.0173
 30
0.0
 10
-226.3713
 20
41.2963
 30
0.0
 10
-238.2388
 20
54.6901
 30
0.0
 10
-238.2388
 20
54.6901
 30
0.0
 10
-238.2388
 20
54.6901
 30
0.0
 10
-194.0017
 20
98.9272
 30
0.0
 10
-194.0017
 20
98.9272
 30
0.0
 10
-194.0017
 20
98.9272
 30
0.0
 10
-170.8732
 20
74.1529
 30
0.0
 10
-156.3249
 20
41.2682
 30
0.0
 10
-155.0952
 20
5.0
 30
0.0
 10
-155.0952
 20
5.0
 30
0.0
 10
-155.0952
 20
5.0
 30
0.0
 10
-217.6551
 20
5.0
 30
0.0
 10
-217.6551
 20
5.0
 30
0.0
  0
SPLINE
  5
60
330
1F
100
AcDbEntity
  8
Layer 1
 62
   250
370
    18
100
AcDbSpline
210
0.0
220
0.0
230
1.0
 70
    11
 71
     3
 72
    20
 73
    16
 74
     0
 42
0.0000000001
 43
0.0000000001
 40
0.0
 40
0.0
 40
0.0
 40
0.0
 40
0.2
 40
0.2
 40
0.2
 40
0.2
 40
0.4
 40
0.4
 40
0.4
 40
0.4
 40
0.6
 40
0.6
 40
0.6
 40
0.6
 40
1.0
 40
1.0
 40
1.0
 40
1.0
 10
-245.3099
 20
61.7612
 30
0.0
 10
-258.7018
 20
73.631
 30
0.0
 10
-275.9829
 20
81.2072
 30
0.0
 10
-295.0
 20
82.3449
 30
0.0
 10
-295.0
 20
82.3449
 30
0.0
 10
-295.0
 20
82.3449
 30
0.0
 10
-295.0
 20
144.9048
 30
0.0
 10
-295.0
 20
144.9048
 30
0.0
 10
-295.0
 20
144.9048
 30
0.0
 10
-258.7322
 20
143.6746
 30
0.0
 10
-225.8444
 20
129.1302
 30
0.0
 10
-201.0728
 20
105.9983
 30
0.0
 10
-201.0728
 20
105.9983
 30
0.0
 10
-201.0728
 20
105.9983
 30
0.0
 10
-245.3099
 20
61.7612
 30
0.0
 10
-245.3099
 20
61.7612
 30
0.0
  0
SPLINE
  5
61
330
1F
100
AcDbEntity
  8
Layer 1
 62
   250
370
    18
100
AcDbSpline
210
0.0
220
0.0
230
1.0
 70
    11
 71
     3
 72
    20
 73
    16
 74
     0
 42
0.0000000001
 43
0.0000000001
 40
0.0
 40
0.0
 40
0.0
 40
0.0
 40
0.2
 40
0.2
 40
0.2
 40
0.2
 40
0.4
 40
0.4
 40
0.4
 40
0.4
 40
0.6
 40
0.6
 40
0.6
 40
0.6
 40
1.0
 40
1.0
 40
1.0
 40
1.0
 10
-305.0
 20
54.7714
 30
0.0
 10
-316.4333
 20
53.7408
 30
0.0
 10
-326.8569
 20
49.213
 30
0.0
 10
-335.1935
 20
42.2646
 30
0.0
 10
-335.1935
 20
42.2646
 30
0.0
 10
-335.1935
 20
42.2646
 30
0.0
 10
-345.8361
 20
52.9072
 30
0.0
 10
-345.8361
 20
52.9072
 30
0.0
 10
-345.8361
 20
52.9072
 30
0.0
 10
-334.7332
 20
62.5335
 30
0.0
 10
-320.5692
 20
68.7213
 30
0.0
 10
-305.0
 20
69.8203
 30
0.0
 10
-305.0
 20
69.8203
 30
0.0
 10
-305.0
 20
69.8203
 30
0.0
 10
-305.0
 20
54.7714
 30
0.0
 10
-305.0
 20
54.7714
 30
0.0
  0
SPLINE
  5
62
330
1F
100
AcDbEntity
  8
Layer 1
 62
   250
370
    18
100
AcDbSpline
210
0.0
220
0.0
230
1.0
 70
    11
 71
     3
 72
    20
 73
    16
 74
     0
 42
0.0000000001
 43
0.0000000001
 40
0.0
 40
0.0
 40
0.0
 40
0.0
 40
0.2
 40
0.2
 40
0.2
 40
0.2
 40
0.4
 40
0.4
 40
0.4
 40
0.4
 40
0.6
 40
0.6
 40
0.6
 40
0.6
 40
1.0
 40
1.0
 40
1.0
 40
1.0
 10
-342.2646
 20
35.1935
 30
0.0
 10
-349.2143
 20
26.8577
 30
0.0
 10
-353.7406
 20
16.433
 30
0.0
 10
-354.7714
 20
5.0
 30
0.0
 10
-354.7714
 20
5.0
 30
0.0
 10
-354.7714
 20
5.0
 30
0.0
 10
-369.8203
 20
5.0
 30
0.0
 10
-369.8203
 20
5.0
 30
0.0
 10
-369.8203
 20
5.0
 30
0.0
 10
-368.7213
 20
20.5693
 30
0.0
 10
-362.5345
 20
34.7338
 30
0.0
 10
-352.9072
 20
45.8361
 30
0.0
 10
-352.9072
 20
45.8361
 30
0.0
 10
-352.9072
 20
45.8361
 30
0.0
 10
-342.2646
 20
35.1935
 30
0.0
 10
-342.2646
 20
35.1935
 30
0.0
  0
SPLINE
  5
63
330
1F
100
AcDbEntity
  8
Layer 1
 62
   250
370
    18
100
AcDbSpline
210
0.0
220
0.0
230
1.0
 70
    11
 71
     3
 72
    20
 73
    16
 74
     0
 42
0.0000000001
 43
0.0000000001
 40
0.0
 40
0.0
 40
0.0
 40
0.0
 40
0.2
 40
0.2
 40
0.2
 40
0.2
 40
0.4
 40
0.4
 40
0.4
 40
0.4
 40
0.6
 40
0.6
 40
0.6
 40
0.6
 40
1.0
 40
1.0
 40
1.0
 40
1.0
 10
-354.7714
 20
-5.0
 30
0.0
 10
-353.7407
 20
-16.433
 30
0.0
 10
-349.213
 20
-26.8572
 30
0.0
 10
-342.2646
 20
-35.1935
 30
0.0
 10
-342.2646
 20
-35.1935
 30
0.0
 10
-342.2646
 20
-35.1935
 30
0.0
 10
-352.9072
 20
-45.8361
 30
0.0
 10
-352.9072
 20
-45.8361
 30
0.0
 10
-352.9072
 20
-45.8361
 30
0.0
 10
-362.5335
 20
-34.7332
 30
0.0
 10
-368.7213
 20
-20.5692
 30
0.0
 10
-369.8203
 20
-5.0
 30
0.0
 10
-369.8203
 20
-5.0
 30
0.0
 10
-369.8203
 20
-5.0
 30
0.0
 10
-354.7714
 20
-5.0
 30
0.0
 10
-354.7714
 20
-5.0
 30
0.0
  0
SPLINE
  5
64
330
1F
100
AcDbEntity
  8
Layer 1
 62
   250
370
    18
100
AcDbSpline
210
0.0
220
0.0
230
1.0
 70
    11
 71
     3
 72
    20
 73
    16
 74
     0
 42
0.0000000001
 43
0.0000000001
 40
0.0
 40
0.0
 40
0.0
 40
0.0
 40
0.2
 40
0.2
 40
0.2
 40
0.2
 40
0.4
 40
0.4
 40
0.4
 40
0.4
 40
0.6
 40
0.6
 40
0.6
 40
0.6
 40
1.0
 40
1.0
 40
1.0
 40
1.0
 10
-335.1935
 20
-42.2646
 30
0.0
 10
-326.857
 20
-49.2139
 30
0.0
 10
-316.4329
 20
-53.7405
 30
0.0
 10
-305.0
 20
-54.7714
 30
0.0
 10
-305.0
 20
-54.7714
 30
0.0
 10
-305.0
 20
-54.7714
 30
0.0
 10
-305.0
 20
-69.8203
 30
0.0
 10
-305.0
 20
-69.8203
 30
0.0
 10
-305.0
 20
-69.8203
 30
0.0
 10
-320.5691
 20
-68.7212
 30
0.0
 10
-334.7335
 20
-62.5343
 30
0.0
 10
-345.8361
 20
-52.9072
 30
0.0
 10
-345.8361
 20
-52.9072
 30
0.0
 10
-345.8361
 20
-52.9072
 30
0.0
 10
-335.1935
 20
-42.2646
 30
0.0
 10
-335.1935
 20
-42.2646
 30
0.0
  0
SPLINE
  5
65
330
1F
100
AcDbEntity
  8
Layer 1
 62
   250
370
    18
100
AcDbSpline
210
0.0
220
0.0
230
1.0
 70
    11
 71
     3
 72
    20
 73
    16
 74
     0
 42
0.0000000001
 43
0.0000000001
 40
0.0
 40
0.0
 40
0.0
 40
0.0
 40
0.2
 40
0.2
 40
0.2
 40
0.2
 40
0.4
 40
0.4
 40
0.4
 40
0.4
 40
0.6
 40
0.6
 40
0.6
 40
0.6
 40
1.0
 40
1.0
 40
1.0
 40
1.0
 10
-295.0
 20
-54.7714
 30
0.0
 10
-283.5667
 20
-53.7408
 30
0.0
 10
-273.1431
 20
-49.213
 30
0.0
 10
-264.8065
 20
-42.2646
 30
0.0
 10
-264.8065
 20
-42.2646
 30
0.0
 10
-264.8065
 20
-42.2646
 30
0.0
 10
-254.1639
 20
-52.9072
 30
0.0
 10
-254.1639
 20
-52.9072
 30
0.0
 10
-254.1639
 20
-52.9072
 30
0.0
 10
-265.2668
 20
-62.5335
 30
0.0
 10
-279.4308
 20
-68.7213
 30
0.0
 10
-295.0
 20
-69.8203
 30
0.0
 10
-295.0
 20
-69.8203
 30
0.0
 10
-295.0
 20
-69.8203
 30
0.0
 10
-295.0
 20
-54.7714
 30
0.0
 10
-295.0
 20
-54.7714
 30
0.0
  0
SPLINE
  5
66
330
1F
100
AcDbEntity
  8
Layer 1
 62
   250
370
    18
100
AcDbSpline
210
0.0
220
0.0
230
1.0
 70
    11
 71
     3
 72
    20
 73
    16
 74
     0
 42
0.0000000001
 43
0.0000000001
 40
0.0
 40
0.0
 40
0.0
 40
0.0
 40
0.2
 40
0.2
 40
0.2
 40
0.2
 40
0.4
 40
0.4
 40
0.4
 40
0.4
 40
0.6
 40
0.6
 40
0.6
 40
0.6
 40
1.0
 40
1.0
 40
1.0
 40
1.0
 10
-257.7354
 20
-35.1935
 30
0.0
 10
-250.7857
 20
-26.8577
 30
0.0
 10
-246.2594
 20
-16.433
 30
0.0
 10
-245.2286
 20
-5.0
 30
0.0
 10
-245.2286
 20
-5.0
 30
0.0
 10
-245.2286
 20
-5.0
 30
0.0
 10
-230.1797
 20
-5.0
 30
0.0
 10
-230.1797
 20
-5.0
 30
0.0
 10
-230.1797
 20
-5.0
 30
0.0
 10
-231.2787
 20
-20.5693
 30
0.0
 10
-237.4655
 20
-34.7338
 30
0.0
 10
-247.0928
 20
-45.8361
 30
0.0
 10
-247.0928
 20
-45.8361
 30
0.0
 10
-247.0928
 20
-45.8361
 30
0.0
 10
-257.7354
 20
-35.1935
 30
0.0
 10
-257.7354
 20
-35.1935
 30
0.0
  0
SPLINE
  5
67
330
1F
100
AcDbEntity
  8
Layer 1
 62
   250
370
    18
100
AcDbSpline
210
0.0
220
0.0
230
1.0
 70
    11
 71
     3
 72
    20
 73
    16
 74
     0
 42
0.0000000001
 43
0.0000000001
 40
0.0
 40
0.0
 40
0.0
 40
0.0
 40
0.2
 40
0.2
 40
0.2
 40
0.2
 40
0.4
 40
0.4
 40
0.4
 40
0.4
 40
0.6
 40
0.6
 40
0.6
 40
0.6
 40
1.0
 40
1.0
 40
1.0
 40
1.0
 10
-245.2286
 20
5.0
 30
0.0
 10
-246.2592
 20
16.4333
 30
0.0
 10
-250.787
 20
26.8569
 30
0.0
 10
-257.7354
 20
35.1935
 30
0.0
 10
-257.7354
 20
35.1935
 30
0.0
 10
-257.7354
 20
35.1935
 30
0.0
 10
-247.0928
 20
45.8361
 30
0.0
 10
-247.0928
 20
45.8361
 30
0.0
 10
-247.0928
 20
45.8361
 30
0.0
 10
-237.4665
 20
34.7332
 30
0.0
 10
-231.2787
 20
20.5692
 30
0.0
 10
-230.1797
 20
5.0
 30
0.0
 10
-230.1797
 20
5.0
 30
0.0
 10
-230.1797
 20
5.0
 30
0.0
 10
-245.2286
 20
5.0
 30
0.0
 10
-245.2286
 20
5.0
 30
0.0
  0
SPLINE
  5
68
330
1F
100
AcDbEntity
  8
Layer 1
 62
   250
370
    18
100
AcDbSpline
210
0.0
220
0.0
230
1.0
 70
    11
 71
     3
 72
    20
 73
    16
 74
     0
 42
0.0000000001
 43
0.0000000001
 40
0.0
 40
0.0
 40
0.0
 40
0.0
 40
0.2
 40
0.2
 40
0.2
 40
0.2
 40
0.4
 40
0.4
 40
0.4
 40
0.4
 40
0.6
 40
0.6
 40
0.6
 40
0.6
 40
1.0
 40
1.0
 40
1.0
 40
1.0
 10
-264.8065
 20
42.2646
 30
0.0
 10
-273.1423
 20
49.2143
 30
0.0
 10
-283.567
 20
53.7406
 30
0.0
 10
-295.0
 20
54.7714
 30
0.0
 10
-295.0
 20
54.7714
 30
0.0
 10
-295.0
 20
54.7714
 30
0.0
 10
-295.0
 20
69.8203
 30
0.0
 10
-295.0
 20
69.8203
 30
0.0
 10
-295.0
 20
69.8203
 30
0.0
 10
-279.4307
 20
68.7213
 30
0.0
 10
-265.2662
 20
62.5345
 30
0.0
 10
-254.1639
 20
52.9072
 30
0.0
 10
-254.1639
 20
52.9072
 30
0.0
 10
-254.1639
 20
52.9072
 30
0.0
 10
-264.8065
 20
42.2646
 30
0.0
 10
-264.8065
 20
42.2646
 30
0.0
  0
SPLINE
  5
69
330
1F
100
AcDbEntity
  8
Layer 1
 62
   250
370
    18
100
AcDbSpline
210
0.0
220
0.0
230
1.0
 70
    11
 71
     3
 72
    20
 73
    16
 74
     0
 42
0.0000000001
 43
0.0000000001
 40
0.0
 40
0.0
 40
0.0
 40
0.0
 40
0.2
 40
0.2
 40
0.2
 40
0.2
 40
0.4
 40
0.4
 40
0.4
 40
0.4
 40
0.6
 40
0.6
 40
0.6
 40
0.6
 40
1.0
 40
1.0
 40
1.0
 40
1.0
 10
-155.0
 20
-172.7229
 30
0.0
 10
-185.0569
 20
-173.9301
 30
0.0
 10
-212.3227
 20
-185.965
 30
0.0
 10
-233.0082
 20
-205.0337
 30
0.0
 10
-233.0082
 20
-205.0337
 30
0.0
 10
-233.0082
 20
-205.0337
 30
0.0
 10
-248.9272
 20
-189.1147
 30
0.0
 10
-248.9272
 20
-189.1147
 30
0.0
 10
-248.9272
 20
-189.1147
 30
0.0
 10
-224.1529
 20
-165.9862
 30
0.0
 10
-191.2682
 20
-151.4379
 30
0.0
 10
-155.0
 20
-150.2082
 30
0.0
 10
-155.0
 20
-150.2082
 30
0.0
 10
-155.0
 20
-150.2082
 30
0.0
 10
-155.0
 20
-172.7229
 30
0.0
 10
-155.0
 20
-172.7229
 30
0.0
  0
SPLINE
  5
6A
330
1F
100
AcDbEntity
  8
Layer 1
 62
   250
370
    18
100
AcDbSpline
210
0.0
220
0.0
230
1.0
 70
    11
 71
     3
 72
    20
 73
    16
 74
     0
 42
0.0000000001
 43
0.0000000001
 40
0.0
 40
0.0
 40
0.0
 40
0.0
 40
0.2
 40
0.2
 40
0.2
 40
0.2
 40
0.4
 40
0.4
 40
0.4
 40
0.4
 40
0.6
 40
0.6
 40
0.6
 40
0.6
 40
1.0
 40
1.0
 40
1.0
 40
1.0
 10
-240.0793
 20
-212.1048
 30
0.0
 10
-259.1513
 20
-232.7876
 30
0.0
 10
-271.1825
 20
-260.0564
 30
0.0
 10
-272.3901
 20
-290.113
 30
0.0
 10
-272.3901
 20
-290.113
 30
0.0
 10
-272.3901
 20
-290.113
 30
0.0
 10
-294.9048
 20
-290.113
 30
0.0
 10
-294.9048
 20
-290.113
 30
0.0
 10
-294.9048
 20
-290.113
 30
0.0
 10
-293.6746
 20
-253.8452
 30
0.0
 10
-279.1302
 20
-220.9574
 30
0.0
 10
-255.9983
 20
-196.1858
 30
0.0
 10
-255.9983
 20
-196.1858
 30
0.0
 10
-255.9983
 20
-196.1858
 30
0.0
 10
-240.0793
 20
-212.1048
 30
0.0
 10
-240.0793
 20
-212.1048
 30
0.0
  0
SPLINE
  5
6B
330
1F
100
AcDbEntity
  8
Layer 1
 62
   250
370
    18
100
AcDbSpline
210
0.0
220
0.0
230
1.0
 70
    11
 71
     3
 72
    20
 73
    16
 74
     0
 42
0.0000000001
 43
0.0000000001
 40
0.0
 40
0.0
 40
0.0
 40
0.0
 40
0.2
 40
0.2
 40
0.2
 40
0.2
 40
0.4
 40
0.4
 40
0.4
 40
0.4
 40
0.6
 40
0.6
 40
0.6
 40
0.6
 40
1.0
 40
1.0
 40
1.0
 40
1.0
 10
-272.3901
 20
-300.113
 30
0.0
 10
-271.1824
 20
-330.1695
 30
0.0
 10
-259.1493
 20
-357.4366
 30
0.0
 10
-240.0793
 20
-378.1212
 30
0.0
 10
-240.0793
 20
-378.1212
 30
0.0
 10
-240.0793
 20
-378.1212
 30
0.0
 10
-255.9983
 20
-394.0402
 30
0.0
 10
-255.9983
 20
-394.0402
 30
0.0
 10
-255.9983
 20
-394.0402
 30
0.0
 10
-279.1284
 20
-369.2663
 30
0.0
 10
-293.6751
 20
-336.3812
 30
0.0
 10
-294.9048
 20
-300.113
 30
0.0
 10
-294.9048
 20
-300.113
 30
0.0
 10
-294.9048
 20
-300.113
 30
0.0
 10
-272.3901
 20
-300.113
 30
0.0
 10
-272.3901
 20
-300.113
 30
0.0
  0
SPLINE
  5
6C
330
1F
100
AcDbEntity
  8
Layer 1
 62
   250
370
    18
100
AcDbSpline
210
0.0
220
0.0
230
1.0
 70
    11
 71
     3
 72
    20
 73
    16
 74
     0
 42
0.0000000001
 43
0.0000000001
 40
0.0
 40
0.0
 40
0.0
 40
0.0
 40
0.2
 40
0.2
 40
0.2
 40
0.2
 40
0.4
 40
0.4
 40
0.4
 40
0.4
 40
0.6
 40
0.6
 40
0.6
 40
0.6
 40
1.0
 40
1.0
 40
1.0
 40
1.0
 10
-233.0082
 20
-385.1923
 30
0.0
 10
-212.3233
 20
-404.2631
 30
0.0
 10
-185.0565
 20
-416.2953
 30
0.0
 10
-155.0
 20
-417.5031
 30
0.0
 10
-155.0
 20
-417.5031
 30
0.0
 10
-155.0
 20
-417.5031
 30
0.0
 10
-155.0
 20
-440.0178
 30
0.0
 10
-155.0
 20
-440.0178
 30
0.0
 10
-155.0
 20
-440.0178
 30
0.0
 10
-191.2676
 20
-438.7875
 30
0.0
 10
-224.1535
 20
-424.2423
 30
0.0
 10
-248.9272
 20
-401.1113
 30
0.0
 10
-248.9272
 20
-401.1113
 30
0.0
 10
-248.9272
 20
-401.1113
 30
0.0
 10
-233.0082
 20
-385.1923
 30
0.0
 10
-233.0082
 20
-385.1923
 30
0.0
  0
SPLINE
  5
6D
330
1F
100
AcDbEntity
  8
Layer 1
 62
   250
370
    18
100
AcDbSpline
210
0.0
220
0.0
230
1.0
 70
    11
 71
     3
 72
    20
 73
    16
 74
     0
 42
0.0000000001
 43
0.0000000001
 40
0.0
 40
0.0
 40
0.0
 40
0.0
 40
0.2
 40
0.2
 40
0.2
 40
0.2
 40
0.4
 40
0.4
 40
0.4
 40
0.4
 40
0.6
 40
0.6
 40
0.6
 40
0.6
 40
1.0
 40
1.0
 40
1.0
 40
1.0
 10
-145.0
 20
-417.5031
 30
0.0
 10
-114.9431
 20
-416.2959
 30
0.0
 10
-87.6773
 20
-404.261
 30
0.0
 10
-66.9918
 20
-385.1923
 30
0.0
 10
-66.9918
 20
-385.1923
 30
0.0
 10
-66.9918
 20
-385.1923
 30
0.0
 10
-51.0728
 20
-401.1113
 30
0.0
 10
-51.0728
 20
-401.1113
 30
0.0
 10
-51.0728
 20
-401.1113
 30
0.0
 10
-75.8471
 20
-424.2398
 30
0.0
 10
-108.7318
 20
-438.7881
 30
0.0
 10
-145.0
 20
-440.0178
 30
0.0
 10
-145.0
 20
-440.0178
 30
0.0
 10
-145.0
 20
-440.0178
 30
0.0
 10
-145.0
 20
-417.5031
 30
0.0
 10
-145.0
 20
-417.5031
 30
0.0
  0
SPLINE
  5
6E
330
1F
100
AcDbEntity
  8
Layer 1
 62
   250
370
    18
100
AcDbSpline
210
0.0
220
0.0
230
1.0
 70
    11
 71
     3
 72
    20
 73
    16
 74
     0
 42
0.0000000001
 43
0.0000000001
 40
0.0
 40
0.0
 40
0.0
 40
0.0
 40
0.2
 40
0.2
 40
0.2
 40
0.2
 40
0.4
 40
0.4
 40
0.4
 40
0.4
 40
0.6
 40
0.6
 40
0.6
 40
0.6
 40
1.0
 40
1.0
 40
1.0
 40
1.0
 10
-59.9207
 20
-378.1212
 30
0.0
 10
-40.8487
 20
-357.4384
 30
0.0
 10
-28.8175
 20
-330.1696
 30
0.0
 10
-27.6099
 20
-300.113
 30
0.0
 10
-27.6099
 20
-300.113
 30
0.0
 10
-27.6099
 20
-300.113
 30
0.0
 10
-5.0952
 20
-300.113
 30
0.0
 10
-5.0952
 20
-300.113
 30
0.0
 10
-5.0952
 20
-300.113
 30
0.0
 10
-6.3254
 20
-336.3808
 30
0.0
 10
-20.8698
 20
-369.2686
 30
0.0
 10
-44.0017
 20
-394.0402
 30
0.0
 10
-44.0017
 20
-394.0402
 30
0.0
 10
-44.0017
 20
-394.0402
 30
0.0
 10
-59.9207
 20
-378.1212
 30
0.0
 10
-59.9207
 20
-378.1212
 30
0.0
  0
SPLINE
  5
6F
330
1F
100
AcDbEntity
  8
Layer 1
 62
   250
370
    18
100
AcDbSpline
210
0.0
220
0.0
230
1.0
 70
    11
 71
     3
 72
    20
 73
    16
 74
     0
 42
0.0000000001
 43
0.0000000001
 40
0.0
 40
0.0
 40
0.0
 40
0.0
 40
0.2
 40
0.2
 40
0.2
 40
0.2
 40
0.4
 40
0.4
 40
0.4
 40
0.4
 40
0.6
 40
0.6
 40
0.6
 40
0.6
 40
1.0
 40
1.0
 40
1.0
 40
1.0
 10
-27.6099
 20
-290.113
 30
0.0
 10
-28.8171
 20
-260.0561
 30
0.0
 10
-40.852
 20
-232.7903
 30
0.0
 10
-59.9207
 20
-212.1048
 30
0.0
 10
-59.9207
 20
-212.1048
 30
0.0
 10
-59.9207
 20
-212.1048
 30
0.0
 10
-44.0017
 20
-196.1858
 30
0.0
 10
-44.0017
 20
-196.1858
 30
0.0
 10
-44.0017
 20
-196.1858
 30
0.0
 10
-20.8732
 20
-220.9601
 30
0.0
 10
-6.3249
 20
-253.8448
 30
0.0
 10
-5.0952
 20
-290.113
 30
0.0
 10
-5.0952
 20
-290.113
 30
0.0
 10
-5.0952
 20
-290.113
 30
0.0
 10
-27.6099
 20
-290.113
 30
0.0
 10
-27.6099
 20
-290.113
 30
0.0
  0
SPLINE
  5
70
330
1F
100
AcDbEntity
  8
Layer 1
 62
   250
370
    18
100
AcDbSpline
210
0.0
220
0.0
230
1.0
 70
    11
 71
     3
 72
    20
 73
    16
 74
     0
 42
0.0000000001
 43
0.0000000001
 40
0.0
 40
0.0
 40
0.0
 40
0.0
 40
0.2
 40
0.2
 40
0.2
 40
0.2
 40
0.4
 40
0.4
 40
0.4
 40
0.4
 40
0.6
 40
0.6
 40
0.6
 40
0.6
 40
1.0
 40
1.0
 40
1.0
 40
1.0
 10
-66.9918
 20
-205.0337
 30
0.0
 10
-87.6746
 20
-185.9617
 30
0.0
 10
-114.9434
 20
-173.9305
 30
0.0
 10
-145.0
 20
-172.7229
 30
0.0
 10
-145.0
 20
-172.7229
 30
0.0
 10
-145.0
 20
-172.7229
 30
0.0
 10
-145.0
 20
-150.2082
 30
0.0
 10
-145.0
 20
-150.2082
 30
0.0
 10
-145.0
 20
-150.2082
 30
0.0
 10
-108.7322
 20
-151.4384
 30
0.0
 10
-75.8444
 20
-165.9828
 30
0.0
 10
-51.0728
 20
-189.1147
 30
0.0
 10
-51.0728
 20
-189.1147
 30
0.0
 10
-51.0728
 20
-189.1147
 30
0.0
 10
-66.9918
 20
-205.0337
 30
0.0
 10
-66.9918
 20
-205.0337
 30
0.0
  0
SPLINE
  5
71
330
1F
100
AcDbEntity
  8
Layer 1
 62
   250
370
    18
100
AcDbSpline
210
0.0
220
0.0
230
1.0
 70
    11
 71
     3
 72
    20
 73
    16
 74
     0
 42
0.0000000001
 43
0.0000000001
 40
0.0
 40
0.0
 40
0.0
 40
0.0
 40
0.2
 40
0.2
 40
0.2
 40
0.2
 40
0.4
 40
0.4
 40
0.4
 40
0.4
 40
0.6
 40
0.6
 40
0.6
 40
0.6
 40
1.0
 40
1.0
 40
1.0
 40
1.0
 10
-155.0
 20
-265.5302
 30
0.0
 10
-159.558
 20
-266.295
 30
0.0
 10
-163.7679
 20
-268.0858
 30
0.0
 10
-167.3825
 20
-270.6594
 30
0.0
 10
-167.3825
 20
-270.6594
 30
0.0
 10
-167.3825
 20
-270.6594
 30
0.0
 10
-195.836
 20
-242.2059
 30
0.0
 10
-195.836
 20
-242.2059
 30
0.0
 10
-195.836
 20
-242.2059
 30
0.0
 10
-184.7332
 20
-232.5795
 30
0.0
 10
-170.5692
 20
-226.3917
 30
0.0
 10
-155.0
 20
-225.2927
 30
0.0
 10
-155.0
 20
-225.2927
 30
0.0
 10
-155.0
 20
-225.2927
 30
0.0
 10
-155.0
 20
-265.5302
 30
0.0
 10
-155.0
 20
-265.5302
 30
0.0
  0
SPLINE
  5
72
330
1F
100
AcDbEntity
  8
Layer 1
 62
   250
370
    18
100
AcDbSpline
210
0.0
220
0.0
230
1.0
 70
    11
 71
     3
 72
    20
 73
    16
 74
     0
 42
0.0000000001
 43
0.0000000001
 40
0.0
 40
0.0
 40
0.0
 40
0.0
 40
0.2
 40
0.2
 40
0.2
 40
0.2
 40
0.4
 40
0.4
 40
0.4
 40
0.4
 40
0.6
 40
0.6
 40
0.6
 40
0.6
 40
1.0
 40
1.0
 40
1.0
 40
1.0
 10
-174.4536
 20
-277.7305
 30
0.0
 10
-177.0276
 20
-281.345
 30
0.0
 10
-178.8179
 20
-285.555
 30
0.0
 10
-179.5828
 20
-290.113
 30
0.0
 10
-179.5828
 20
-290.113
 30
0.0
 10
-179.5828
 20
-290.113
 30
0.0
 10
-219.8203
 20
-290.113
 30
0.0
 10
-219.8203
 20
-290.113
 30
0.0
 10
-219.8203
 20
-290.113
 30
0.0
 10
-218.7213
 20
-274.5438
 30
0.0
 10
-212.5344
 20
-260.3793
 30
0.0
 10
-202.9071
 20
-249.277
 30
0.0
 10
-202.9071
 20
-249.277
 30
0.0
 10
-202.9071
 20
-249.277
 30
0.0
 10
-174.4536
 20
-277.7305
 30
0.0
 10
-174.4536
 20
-277.7305
 30
0.0
  0
SPLINE
  5
73
330
1F
100
AcDbEntity
  8
Layer 1
 62
   250
370
    18
100
AcDbSpline
210
0.0
220
0.0
230
1.0
 70
    11
 71
     3
 72
    20
 73
    16
 74
     0
 42
0.0000000001
 43
0.0000000001
 40
0.0
 40
0.0
 40
0.0
 40
0.0
 40
0.2
 40
0.2
 40
0.2
 40
0.2
 40
0.4
 40
0.4
 40
0.4
 40
0.4
 40
0.6
 40
0.6
 40
0.6
 40
0.6
 40
1.0
 40
1.0
 40
1.0
 40
1.0
 10
-179.5828
 20
-300.113
 30
0.0
 10
-178.8179
 20
-304.671
 30
0.0
 10
-177.0269
 20
-308.8808
 30
0.0
 10
-174.4536
 20
-312.4955
 30
0.0
 10
-174.4536
 20
-312.4955
 30
0.0
 10
-174.4536
 20
-312.4955
 30
0.0
 10
-202.9071
 20
-340.949
 30
0.0
 10
-202.9071
 20
-340.949
 30
0.0
 10
-202.9071
 20
-340.949
 30
0.0
 10
-212.5333
 20
-329.8461
 30
0.0
 10
-218.7212
 20
-315.6821
 30
0.0
 10
-219.8203
 20
-300.113
 30
0.0
 10
-219.8203
 20
-300.113
 30
0.0
 10
-219.8203
 20
-300.113
 30
0.0
 10
-179.5828
 20
-300.113
 30
0.0
 10
-179.5828
 20
-300.113
 30
0.0
  0
SPLINE
  5
74
330
1F
100
AcDbEntity
  8
Layer 1
 62
   250
370
    18
100
AcDbSpline
210
0.0
220
0.0
230
1.0
 70
    11
 71
     3
 72
    20
 73
    16
 74
     0
 42
0.0000000001
 43
0.0000000001
 40
0.0
 40
0.0
 40
0.0
 40
0.0
 40
0.2
 40
0.2
 40
0.2
 40
0.2
 40
0.4
 40
0.4
 40
0.4
 40
0.4
 40
0.6
 40
0.6
 40
0.6
 40
0.6
 40
1.0
 40
1.0
 40
1.0
 40
1.0
 10
-167.3825
 20
-319.5666
 30
0.0
 10
-163.768
 20
-322.1405
 30
0.0
 10
-159.558
 20
-323.9309
 30
0.0
 10
-155.0
 20
-324.6958
 30
0.0
 10
-155.0
 20
-324.6958
 30
0.0
 10
-155.0
 20
-324.6958
 30
0.0
 10
-155.0
 20
-364.9333
 30
0.0
 10
-155.0
 20
-364.9333
 30
0.0
 10
-155.0
 20
-364.9333
 30
0.0
 10
-170.5691
 20
-363.8342
 30
0.0
 10
-184.7334
 20
-357.6473
 30
0.0
 10
-195.836
 20
-348.0201
 30
0.0
 10
-195.836
 20
-348.0201
 30
0.0
 10
-195.836
 20
-348.0201
 30
0.0
 10
-167.3825
 20
-319.5666
 30
0.0
 10
-167.3825
 20
-319.5666
 30
0.0
  0
SPLINE
  5
75
330
1F
100
AcDbEntity
  8
Layer 1
 62
   250
370
    18
100
AcDbSpline
210
0.0
220
0.0
230
1.0
 70
    11
 71
     3
 72
    20
 73
    16
 74
     0
 42
0.0000000001
 43
0.0000000001
 40
0.0
 40
0.0
 40
0.0
 40
0.0
 40
0.2
 40
0.2
 40
0.2
 40
0.2
 40
0.4
 40
0.4
 40
0.4
 40
0.4
 40
0.6
 40
0.6
 40
0.6
 40
0.6
 40
1.0
 40
1.0
 40
1.0
 40
1.0
 10
-145.0
 20
-324.6958
 30
0.0
 10
-140.442
 20
-323.931
 30
0.0
 10
-136.2321
 20
-322.1402
 30
0.0
 10
-132.6175
 20
-319.5666
 30
0.0
 10
-132.6175
 20
-319.5666
 30
0.0
 10
-132.6175
 20
-319.5666
 30
0.0
 10
-104.164
 20
-348.0201
 30
0.0
 10
-104.164
 20
-348.0201
 30
0.0
 10
-104.164
 20
-348.0201
 30
0.0
 10
-115.2668
 20
-357.6465
 30
0.0
 10
-129.4308
 20
-363.8343
 30
0.0
 10
-145.0
 20
-364.9333
 30
0.0
 10
-145.0
 20
-364.9333
 30
0.0
 10
-145.0
 20
-364.9333
 30
0.0
 10
-145.0
 20
-324.6958
 30
0.0
 10
-145.0
 20
-324.6958
 30
0.0
  0
SPLINE
  5
76
330
1F
100
AcDbEntity
  8
Layer 1
 62
   250
370
    18
100
AcDbSpline
210
0.0
220
0.0
230
1.0
 70
    11
 71
     3
 72
    20
 73
    16
 74
     0
 42
0.0000000001
 43
0.0000000001
 40
0.0
 40
0.0
 40
0.0
 40
0.0
 40
0.2
 40
0.2
 40
0.2
 40
0.2
 40
0.4
 40
0.4
 40
0.4
 40
0.4
 40
0.6
 40
0.6
 40
0.6
 40
0.6
 40
1.0
 40
1.0
 40
1.0
 40
1.0
 10
-125.5464
 20
-312.4955
 30
0.0
 10
-122.9724
 20
-308.881
 30
0.0
 10
-121.1821
 20
-304.671
 30
0.0
 10
-120.4172
 20
-300.113
 30
0.0
 10
-120.4172
 20
-300.113
 30
0.0
 10
-120.4172
 20
-300.113
 30
0.0
 10
-80.1797
 20
-300.113
 30
0.0
 10
-80.1797
 20
-300.113
 30
0.0
 10
-80.1797
 20
-300.113
 30
0.0
 10
-81.2787
 20
-315.6822
 30
0.0
 10
-87.4656
 20
-329.8467
 30
0.0
 10
-97.0929
 20
-340.949
 30
0.0
 10
-97.0929
 20
-340.949
 30
0.0
 10
-97.0929
 20
-340.949
 30
0.0
 10
-125.5464
 20
-312.4955
 30
0.0
 10
-125.5464
 20
-312.4955
 30
0.0
  0
SPLINE
  5
77
330
1F
100
AcDbEntity
  8
Layer 1
 62
   250
370
    18
100
AcDbSpline
210
0.0
220
0.0
230
1.0
 70
    11
 71
     3
 72
    20
 73
    16
 74
     0
 42
0.0000000001
 43
0.0000000001
 40
0.0
 40
0.0
 40
0.0
 40
0.0
 40
0.2
 40
0.2
 40
0.2
 40
0.2
 40
0.4
 40
0.4
 40
0.4
 40
0.4
 40
0.6
 40
0.6
 40
0.6
 40
0.6
 40
1.0
 40
1.0
 40
1.0
 40
1.0
 10
-120.4172
 20
-290.113
 30
0.0
 10
-121.182
 20
-285.555
 30
0.0
 10
-122.9728
 20
-281.3451
 30
0.0
 10
-125.5464
 20
-277.7305
 30
0.0
 10
-125.5464
 20
-277.7305
 30
0.0
 10
-125.5464
 20
-277.7305
 30
0.0
 10
-97.0929
 20
-249.277
 30
0.0
 10
-97.0929
 20
-249.277
 30
0.0
 10
-97.0929
 20
-249.277
 30
0.0
 10
-87.4665
 20
-260.3798
 30
0.0
 10
-81.2787
 20
-274.5438
 30
0.0
 10
-80.1797
 20
-290.113
 30
0.0
 10
-80.1797
 20
-290.113
 30
0.0
 10
-80.1797
 20
-290.113
 30
0.0
 10
-120.4172
 20
-290.113
 30
0.0
 10
-120.4172
 20
-290.113
 30
0.0
  0
SPLINE
  5
78
330
1F
100
AcDbEntity
  8
Layer 1
 62
   250
370
    18
100
AcDbSpline
210
0.0
220
0.0
230
1.0
 70
    11
 71
     3
 72
    20
 73
    16
 74
     0
 42
0.0000000001
 43
0.0000000001
 40
0.0
 40
0.0
 40
0.0
 40
0.0
 40
0.2
 40
0.2
 40
0.2
 40
0.2
 40
0.4
 40
0.4
 40
0.4
 40
0.4
 40
0.6
 40
0.6
 40
0.6
 40
0.6
 40
1.0
 40
1.0
 40
1.0
 40
1.0
 10
-132.6175
 20
-270.6594
 30
0.0
 10
-136.232
 20
-268.0854
 30
0.0
 10
-140.442
 20
-266.2951
 30
0.0
 10
-145.0
 20
-265.5302
 30
0.0
 10
-145.0
 20
-265.5302
 30
0.0
 10
-145.0
 20
-265.5302
 30
0.0
 10
-145.0
 20
-225.2927
 30
0.0
 10
-145.0
 20
-225.2927
 30
0.0
 10
-145.0
 20
-225.2927
 30
0.0
 10
-129.4308
 20
-226.3917
 30
0.0
 10
-115.2663
 20
-232.5786
 30
0.0
 10
-104.164
 20
-242.2059
 30
0.0
 10
-104.164
 20
-242.2059
 30
0.0
 10
-104.164
 20
-242.2059
 30
0.0
 10
-132.6175
 20
-270.6594
 30
0.0
 10
-132.6175
 20
-270.6594
 30
0.0
  0
SPLINE
  5
79
330
1F
100
AcDbEntity
  8
Layer 1
 62
   250
370
    18
100
AcDbSpline
210
0.0
220
0.0
230
1.0
 70
    11
 71
     3
 72
    20
 73
    16
 74
     0
 42
0.0000000001
 43
0.0000000001
 40
0.0
 40
0.0
 40
0.0
 40
0.0
 40
0.2
 40
0.2
 40
0.2
 40
0.2
 40
0.4
 40
0.4
 40
0.4
 40
0.4
 40
0.6
 40
0.6
 40
0.6
 40
0.6
 40
1.0
 40
1.0
 40
1.0
 40
1.0
 10
-150.0
 20
-275.113
 30
0.0
 10
-161.0457
 20
-275.113
 30
0.0
 10
-170.0
 20
-284.0673
 30
0.0
 10
-170.0
 20
-295.113
 30
0.0
 10
-170.0
 20
-295.113
 30
0.0
 10
-170.0
 20
-306.1587
 30
0.0
 10
-161.0457
 20
-315.113
 30
0.0
 10
-150.0
 20
-315.113
 30
0.0
 10
-150.0
 20
-315.113
 30
0.0
 10
-138.9543
 20
-315.113
 30
0.0
 10
-130.0
 20
-306.1587
 30
0.0
 10
-130.0
 20
-295.113
 30
0.0
 10
-130.0
 20
-295.113
 30
0.0
 10
-130.0
 20
-284.0673
 30
0.0
 10
-138.9543
 20
-275.113
 30
0.0
 10
-150.0
 20
-275.113
 30
0.0
  0
SPLINE
  5
7A
330
1F
100
AcDbEntity
  8
Layer 1
 62
   250
370
    18
100
AcDbSpline
210
0.0
220
0.0
230
1.0
 70
    11
 71
     3
 72
    20
 73
    16
 74
     0
 42
0.0000000001
 43
0.0000000001
 40
0.0
 40
0.0
 40
0.0
 40
0.0
 40
0.2
 40
0.2
 40
0.2
 40
0.2
 40
0.4
 40
0.4
 40
0.4
 40
0.4
 40
0.6
 40
0.6
 40
0.6
 40
0.6
 40
1.0
 40
1.0
 40
1.0
 40
1.0
 10
-455.0
 20
-195.2376
 30
0.0
 10
-478.8471
 20
-196.412
 30
0.0
 10
-500.4966
 20
-205.9401
 30
0.0
 10
-517.0857
 20
-220.9562
 30
0.0
 10
-517.0857
 20
-220.9562
 30
0.0
 10
-517.0857
 20
-220.9562
 30
0.0
 10
-548.9272
 20
-189.1147
 30
0.0
 10
-548.9272
 20
-189.1147
 30
0.0
 10
-548.9272
 20
-189.1147
 30
0.0
 10
-524.1529
 20
-165.9862
 30
0.0
 10
-491.2682
 20
-151.4379
 30
0.0
 10
-455.0
 20
-150.2082
 30
0.0
 10
-455.0
 20
-150.2082
 30
0.0
 10
-455.0
 20
-150.2082
 30
0.0
 10
-455.0
 20
-195.2376
 30
0.0
 10
-455.0
 20
-195.2376
 30
0.0
  0
SPLINE
  5
7B
330
1F
100
AcDbEntity
  8
Layer 1
 62
   250
370
    18
100
AcDbSpline
210
0.0
220
0.0
230
1.0
 70
    11
 71
     3
 72
    20
 73
    16
 74
     0
 42
0.0000000001
 43
0.0000000001
 40
0.0
 40
0.0
 40
0.0
 40
0.0
 40
0.2
 40
0.2
 40
0.2
 40
0.2
 40
0.4
 40
0.4
 40
0.4
 40
0.4
 40
0.6
 40
0.6
 40
0.6
 40
0.6
 40
1.0
 40
1.0
 40
1.0
 40
1.0
 10
-524.1568
 20
-228.0273
 30
0.0
 10
-539.1736
 20
-244.6159
 30
0.0
 10
-548.7009
 20
-266.266
 30
0.0
 10
-549.8754
 20
-290.113
 30
0.0
 10
-549.8754
 20
-290.113
 30
0.0
 10
-549.8754
 20
-290.113
 30
0.0
 10
-594.9048
 20
-290.113
 30
0.0
 10
-594.9048
 20
-290.113
 30
0.0
 10
-594.9048
 20
-290.113
 30
0.0
 10
-593.6746
 20
-253.8452
 30
0.0
 10
-579.1302
 20
-220.9574
 30
0.0
 10
-555.9983
 20
-196.1858
 30
0.0
 10
-555.9983
 20
-196.1858
 30
0.0
 10
-555.9983
 20
-196.1858
 30
0.0
 10
-524.1568
 20
-228.0273
 30
0.0
 10
-524.1568
 20
-228.0273
 30
0.0
  0
SPLINE
  5
7C
330
1F
100
AcDbEntity
  8
Layer 1
 62
   250
370
    18
100
AcDbSpline
210
0.0
220
0.0
230
1.0
 70
    11
 71
     3
 72
    20
 73
    16
 74
     0
 42
0.0000000001
 43
0.0000000001
 40
0.0
 40
0.0
 40
0.0
 40
0.0
 40
0.2
 40
0.2
 40
0.2
 40
0.2
 40
0.4
 40
0.4
 40
0.4
 40
0.4
 40
0.6
 40
0.6
 40
0.6
 40
0.6
 40
1.0
 40
1.0
 40
1.0
 40
1.0
 10
-549.8754
 20
-300.113
 30
0.0
 10
-548.701
 20
-323.96
 30
0.0
 10
-539.1731
 20
-345.6099
 30
0.0
 10
-524.1568
 20
-362.1987
 30
0.0
 10
-524.1568
 20
-362.1987
 30
0.0
 10
-524.1568
 20
-362.1987
 30
0.0
 10
-555.9983
 20
-394.0402
 30
0.0
 10
-555.9983
 20
-394.0402
 30
0.0
 10
-555.9983
 20
-394.0402
 30
0.0
 10
-579.1284
 20
-369.2663
 30
0.0
 10
-593.6751
 20
-336.3812
 30
0.0
 10
-594.9048
 20
-300.113
 30
0.0
 10
-594.9048
 20
-300.113
 30
0.0
 10
-594.9048
 20
-300.113
 30
0.0
 10
-549.8754
 20
-300.113
 30
0.0
 10
-549.8754
 20
-300.113
 30
0.0
  0
SPLINE
  5
7D
330
1F
100
AcDbEntity
  8
Layer 1
 62
   250
370
    18
100
AcDbSpline
210
0.0
220
0.0
230
1.0
 70
    11
 71
     3
 72
    20
 73
    16
 74
     0
 42
0.0000000001
 43
0.0000000001
 40
0.0
 40
0.0
 40
0.0
 40
0.0
 40
0.2
 40
0.2
 40
0.2
 40
0.2
 40
0.4
 40
0.4
 40
0.4
 40
0.4
 40
0.6
 40
0.6
 40
0.6
 40
0.6
 40
1.0
 40
1.0
 40
1.0
 40
1.0
 10
-517.0857
 20
-369.2698
 30
0.0
 10
-500.4967
 20
-384.2863
 30
0.0
 10
-478.847
 20
-393.8139
 30
0.0
 10
-455.0
 20
-394.9884
 30
0.0
 10
-455.0
 20
-394.9884
 30
0.0
 10
-455.0
 20
-394.9884
 30
0.0
 10
-455.0
 20
-440.0178
 30
0.0
 10
-455.0
 20
-440.0178
 30
0.0
 10
-455.0
 20
-440.0178
 30
0.0
 10
-491.2676
 20
-438.7875
 30
0.0
 10
-524.1535
 20
-424.2423
 30
0.0
 10
-548.9272
 20
-401.1113
 30
0.0
 10
-548.9272
 20
-401.1113
 30
0.0
 10
-548.9272
 20
-401.1113
 30
0.0
 10
-517.0857
 20
-369.2698
 30
0.0
 10
-517.0857
 20
-369.2698
 30
0.0
  0
SPLINE
  5
7E
330
1F
100
AcDbEntity
  8
Layer 1
 62
   250
370
    18
100
AcDbSpline
210
0.0
220
0.0
230
1.0
 70
    11
 71
     3
 72
    20
 73
    16
 74
     0
 42
0.0000000001
 43
0.0000000001
 40
0.0
 40
0.0
 40
0.0
 40
0.0
 40
0.2
 40
0.2
 40
0.2
 40
0.2
 40
0.4
 40
0.4
 40
0.4
 40
0.4
 40
0.6
 40
0.6
 40
0.6
 40
0.6
 40
1.0
 40
1.0
 40
1.0
 40
1.0
 10
-445.0
 20
-394.9884
 30
0.0
 10
-421.1529
 20
-393.814
 30
0.0
 10
-399.5034
 20
-384.2859
 30
0.0
 10
-382.9143
 20
-369.2698
 30
0.0
 10
-382.9143
 20
-369.2698
 30
0.0
 10
-382.9143
 20
-369.2698
 30
0.0
 10
-351.0728
 20
-401.1113
 30
0.0
 10
-351.0728
 20
-401.1113
 30
0.0
 10
-351.0728
 20
-401.1113
 30
0.0
 10
-375.8471
 20
-424.2398
 30
0.0
 10
-408.7318
 20
-438.7881
 30
0.0
 10
-445.0
 20
-440.0178
 30
0.0
 10
-445.0
 20
-440.0178
 30
0.0
 10
-445.0
 20
-440.0178
 30
0.0
 10
-445.0
 20
-394.9884
 30
0.0
 10
-445.0
 20
-394.9884
 30
0.0
  0
SPLINE
  5
7F
330
1F
100
AcDbEntity
  8
Layer 1
 62
   250
370
    18
100
AcDbSpline
210
0.0
220
0.0
230
1.0
 70
    11
 71
     3
 72
    20
 73
    16
 74
     0
 42
0.0000000001
 43
0.0000000001
 40
0.0
 40
0.0
 40
0.0
 40
0.0
 40
0.2
 40
0.2
 40
0.2
 40
0.2
 40
0.4
 40
0.4
 40
0.4
 40
0.4
 40
0.6
 40
0.6
 40
0.6
 40
0.6
 40
1.0
 40
1.0
 40
1.0
 40
1.0
 10
-375.8432
 20
-362.1987
 30
0.0
 10
-360.8264
 20
-345.6101
 30
0.0
 10
-351.2991
 20
-323.96
 30
0.0
 10
-350.1246
 20
-300.113
 30
0.0
 10
-350.1246
 20
-300.113
 30
0.0
 10
-350.1246
 20
-300.113
 30
0.0
 10
-305.0952
 20
-300.113
 30
0.0
 10
-305.0952
 20
-300.113
 30
0.0
 10
-305.0952
 20
-300.113
 30
0.0
 10
-306.3254
 20
-336.3808
 30
0.0
 10
-320.8698
 20
-369.2686
 30
0.0
 10
-344.0017
 20
-394.0402
 30
0.0
 10
-344.0017
 20
-394.0402
 30
0.0
 10
-344.0017
 20
-394.0402
 30
0.0
 10
-375.8432
 20
-362.1987
 30
0.0
 10
-375.8432
 20
-362.1987
 30
0.0
  0
SPLINE
  5
80
330
1F
100
AcDbEntity
  8
Layer 1
 62
   250
370
    18
100
AcDbSpline
210
0.0
220
0.0
230
1.0
 70
    11
 71
     3
 72
    20
 73
    16
 74
     0
 42
0.0000000001
 43
0.0000000001
 40
0.0
 40
0.0
 40
0.0
 40
0.0
 40
0.2
 40
0.2
 40
0.2
 40
0.2
 40
0.4
 40
0.4
 40
0.4
 40
0.4
 40
0.6
 40
0.6
 40
0.6
 40
0.6
 40
1.0
 40
1.0
 40
1.0
 40
1.0
 10
-350.1246
 20
-290.113
 30
0.0
 10
-351.299
 20
-266.2659
 30
0.0
 10
-360.8271
 20
-244.6164
 30
0.0
 10
-375.8432
 20
-228.0273
 30
0.0
 10
-375.8432
 20
-228.0273
 30
0.0
 10
-375.8432
 20
-228.0273
 30
0.0
 10
-344.0017
 20
-196.1858
 30
0.0
 10
-344.0017
 20
-196.1858
 30
0.0
 10
-344.0017
 20
-196.1858
 30
0.0
 10
-320.8732
 20
-220.9601
 30
0.0
 10
-306.3249
 20
-253.8448
 30
0.0
 10
-305.0952
 20
-290.113
 30
0.0
 10
-305.0952
 20
-290.113
 30
0.0
 10
-305.0952
 20
-290.113
 30
0.0
 10
-350.1246
 20
-290.113
 30
0.0
 10
-350.1246
 20
-290.113
 30
0.0
  0
SPLINE
  5
81
330
1F
100
AcDbEntity
  8
Layer 1
 62
   250
370
    18
100
AcDbSpline
210
0.0
220
0.0
230
1.0
 70
    11
 71
     3
 72
    20
 73
    16
 74
     0
 42
0.0000000001
 43
0.0000000001
 40
0.0
 40
0.0
 40
0.0
 40
0.0
 40
0.2
 40
0.2
 40
0.2
 40
0.2
 40
0.4
 40
0.4
 40
0.4
 40
0.4
 40
0.6
 40
0.6
 40
0.6
 40
0.6
 40
1.0
 40
1.0
 40
1.0
 40
1.0
 10
-382.9143
 20
-220.9562
 30
0.0
 10
-399.5029
 20
-205.9394
 30
0.0
 10
-421.153
 20
-196.4121
 30
0.0
 10
-445.0
 20
-195.2376
 30
0.0
 10
-445.0
 20
-195.2376
 30
0.0
 10
-445.0
 20
-195.2376
 30
0.0
 10
-445.0
 20
-150.2082
 30
0.0
 10
-445.0
 20
-150.2082
 30
0.0
 10
-445.0
 20
-150.2082
 30
0.0
 10
-408.7322
 20
-151.4384
 30
0.0
 10
-375.8444
 20
-165.9828
 30
0.0
 10
-351.0728
 20
-189.1147
 30
0.0
 10
-351.0728
 20
-189.1147
 30
0.0
 10
-351.0728
 20
-189.1147
 30
0.0
 10
-382.9143
 20
-220.9562
 30
0.0
 10
-382.9143
 20
-220.9562
 30
0.0
  0
SPLINE
  5
82
330
1F
100
AcDbEntity
  8
Layer 1
 62
   250
370
    18
100
AcDbSpline
210
0.0
220
0.0
230
1.0
 70
    11
 71
     3
 72
    20
 73
    16
 74
     0
 42
0.0000000001
 43
0.0000000001
 40
0.0
 40
0.0
 40
0.0
 40
0.0
 40
0.2
 40
0.2
 40
0.2
 40
0.2
 40
0.4
 40
0.4
 40
0.4
 40
0.4
 40
0.6
 40
0.6
 40
0.6
 40
0.6
 40
1.0
 40
1.0
 40
1.0
 40
1.0
 10
-450.0
 20
-232.613
 30
0.0
 10
-484.5178
 20
-232.613
 30
0.0
 10
-512.5
 20
-260.5952
 30
0.0
 10
-512.5
 20
-295.113
 30
0.0
 10
-512.5
 20
-295.113
 30
0.0
 10
-512.5
 20
-329.6308
 30
0.0
 10
-484.5178
 20
-357.613
 30
0.0
 10
-450.0
 20
-357.613
 30
0.0
 10
-450.0
 20
-357.613
 30
0.0
 10
-415.4822
 20
-357.613
 30
0.0
 10
-387.5
 20
-329.6308
 30
0.0
 10
-387.5
 20
-295.113
 30
0.0
 10
-387.5
 20
-295.113
 30
0.0
 10
-387.5
 20
-260.5952
 30
0.0
 10
-415.4822
 20
-232.613
 30
0.0
 10
-450.0
 20
-232.613
 30
0.0
  0
SPLINE
  5
83
330
1F
100
AcDbEntity
  8
Layer 1
 62
   250
370
    18
100
AcDbSpline
210
0.0
220
0.0
230
1.0
 70
    11
 71
     3
 72
    20
 73
    16
 74
     0
 42
0.0000000001
 43
0.0000000001
 40
0.0
 40
0.0
 40
0.0
 40
0.0
 40
0.2
 40
0.2
 40
0.2
 40
0.2
 40
0.4
 40
0.4
 40
0.4
 40
0.4
 40
0.6
 40
0.6
 40
0.6
 40
0.6
 40
1.0
 40
1.0
 40
1.0
 40
1.0
 10
-305.0
 20
21.9415
 30
0.0
 10
-307.5116
 20
21.3716
 30
0.0
 10
-309.863
 20
20.381
 30
0.0
 10
-311.9776
 20
19.0487
 30
0.0
 10
-311.9776
 20
19.0487
 30
0.0
 10
-311.9776
 20
19.0487
 30
0.0
 10
-326.3084
 20
33.3795
 30
0.0
 10
-326.3084
 20
33.3795
 30
0.0
 10
-326.3084
 20
33.3795
 30
0.0
 10
-320.3042
 20
38.1176
 30
0.0
 10
-312.9909
 20
41.269
 30
0.0
 10
-305.0
 20
42.2057
 30
0.0
 10
-305.0
 20
42.2057
 30
0.0
 10
-305.0
 20
42.2057
 30
0.0
 10
-305.0
 20
21.9415
 30
0.0
 10
-305.0
 20
21.9415
 30
0.0
  0
SPLINE
  5
84
330
1F
100
AcDbEntity
  8
Layer 1
 62
   250
370
    18
100
AcDbSpline
210
0.0
220
0.0
230
1.0
 70
    11
 71
     3
 72
    20
 73
    16
 74
     0
 42
0.0000000001
 43
0.0000000001
 40
0.0
 40
0.0
 40
0.0
 40
0.0
 40
0.2
 40
0.2
 40
0.2
 40
0.2
 40
0.4
 40
0.4
 40
0.4
 40
0.4
 40
0.6
 40
0.6
 40
0.6
 40
0.6
 40
1.0
 40
1.0
 40
1.0
 40
1.0
 10
-319.0487
 20
11.9776
 30
0.0
 10
-320.3813
 20
9.8632
 30
0.0
 10
-321.3713
 20
7.5114
 30
0.0
 10
-321.9415
 20
5.0
 30
0.0
 10
-321.9415
 20
5.0
 30
0.0
 10
-321.9415
 20
5.0
 30
0.0
 10
-342.2057
 20
5.0
 30
0.0
 10
-342.2057
 20
5.0
 30
0.0
 10
-342.2057
 20
5.0
 30
0.0
 10
-341.269
 20
12.9908
 30
0.0
 10
-338.1183
 20
20.3047
 30
0.0
 10
-333.3795
 20
26.3084
 30
0.0
 10
-333.3795
 20
26.3084
 30
0.0
 10
-333.3795
 20
26.3084
 30
0.0
 10
-319.0487
 20
11.9776
 30
0.0
 10
-319.0487
 20
11.9776
 30
0.0
  0
SPLINE
  5
85
330
1F
100
AcDbEntity
  8
Layer 1
 62
   250
370
    18
100
AcDbSpline
210
0.0
220
0.0
230
1.0
 70
    11
 71
     3
 72
    20
 73
    16
 74
     0
 42
0.0000000001
 43
0.0000000001
 40
0.0
 40
0.0
 40
0.0
 40
0.0
 40
0.2
 40
0.2
 40
0.2
 40
0.2
 40
0.4
 40
0.4
 40
0.4
 40
0.4
 40
0.6
 40
0.6
 40
0.6
 40
0.6
 40
1.0
 40
1.0
 40
1.0
 40
1.0
 10
-321.9415
 20
-5.0
 30
0.0
 10
-321.3715
 20
-7.5114
 30
0.0
 10
-320.3812
 20
-9.8631
 30
0.0
 10
-319.0487
 20
-11.9776
 30
0.0
 10
-319.0487
 20
-11.9776
 30
0.0
 10
-319.0487
 20
-11.9776
 30
0.0
 10
-333.3795
 20
-26.3084
 30
0.0
 10
-333.3795
 20
-26.3084
 30
0.0
 10
-333.3795
 20
-26.3084
 30
0.0
 10
-338.1173
 20
-20.3042
 30
0.0
 10
-341.2689
 20
-12.9907
 30
0.0
 10
-342.2057
 20
-5.0
 30
0.0
 10
-342.2057
 20
-5.0
 30
0.0
 10
-342.2057
 20
-5.0
 30
0.0
 10
-321.9415
 20
-5.0
 30
0.0
 10
-321.9415
 20
-5.0
 30
0.0
  0
SPLINE
  5
86
330
1F
100
AcDbEntity
  8
Layer 1
 62
   250
370
    18
100
AcDbSpline
210
0.0
220
0.0
230
1.0
 70
    11
 71
     3
 72
    20
 73
    16
 74
     0
 42
0.0000000001
 43
0.0000000001
 40
0.0
 40
0.0
 40
0.0
 40
0.0
 40
0.2
 40
0.2
 40
0.2
 40
0.2
 40
0.4
 40
0.4
 40
0.4
 40
0.4
 40
0.6
 40
0.6
 40
0.6
 40
0.6
 40
1.0
 40
1.0
 40
1.0
 40
1.0
 10
-311.9776
 20
-19.0487
 30
0.0
 10
-309.863
 20
-20.3811
 30
0.0
 10
-307.5113
 20
-21.3711
 30
0.0
 10
-305.0
 20
-21.9415
 30
0.0
 10
-305.0
 20
-21.9415
 30
0.0
 10
-305.0
 20
-21.9415
 30
0.0
 10
-305.0
 20
-42.2057
 30
0.0
 10
-305.0
 20
-42.2057
 30
0.0
 10
-305.0
 20
-42.2057
 30
0.0
 10
-312.9907
 20
-41.2689
 30
0.0
 10
-320.3044
 20
-38.1181
 30
0.0
 10
-326.3084
 20
-33.3795
 30
0.0
 10
-326.3084
 20
-33.3795
 30
0.0
 10
-326.3084
 20
-33.3795
 30
0.0
 10
-311.9776
 20
-19.0487
 30
0.0
 10
-311.9776
 20
-19.0487
 30
0.0
  0
SPLINE
  5
87
330
1F
100
AcDbEntity
  8
Layer 1
 62
   250
370
    18
100
AcDbSpline
210
0.0
220
0.0
230
1.0
 70
    11
 71
     3
 72
    20
 73
    16
 74
     0
 42
0.0000000001
 43
0.0000000001
 40
0.0
 40
0.0
 40
0.0
 40
0.0
 40
0.2
 40
0.2
 40
0.2
 40
0.2
 40
0.4
 40
0.4
 40
0.4
 40
0.4
 40
0.6
 40
0.6
 40
0.6
 40
0.6
 40
1.0
 40
1.0
 40
1.0
 40
1.0
 10
-295.0
 20
-21.9415
 30
0.0
 10
-292.4884
 20
-21.3716
 30
0.0
 10
-290.137
 20
-20.381
 30
0.0
 10
-288.0224
 20
-19.0487
 30
0.0
 10
-288.0224
 20
-19.0487
 30
0.0
 10
-288.0224
 20
-19.0487
 30
0.0
 10
-273.6916
 20
-33.3795
 30
0.0
 10
-273.6916
 20
-33.3795
 30
0.0
 10
-273.6916
 20
-33.3795
 30
0.0
 10
-279.6958
 20
-38.1176
 30
0.0
 10
-287.0091
 20
-41.269
 30
0.0
 10
-295.0
 20
-42.2057
 30
0.0
 10
-295.0
 20
-42.2057
 30
0.0
 10
-295.0
 20
-42.2057
 30
0.0
 10
-295.0
 20
-21.9415
 30
0.0
 10
-295.0
 20
-21.9415
 30
0.0
  0
SPLINE
  5
88
330
1F
100
AcDbEntity
  8
Layer 1
 62
   250
370
    18
100
AcDbSpline
210
0.0
220
0.0
230
1.0
 70
    11
 71
     3
 72
    20
 73
    16
 74
     0
 42
0.0000000001
 43
0.0000000001
 40
0.0
 40
0.0
 40
0.0
 40
0.0
 40
0.2
 40
0.2
 40
0.2
 40
0.2
 40
0.4
 40
0.4
 40
0.4
 40
0.4
 40
0.6
 40
0.6
 40
0.6
 40
0.6
 40
1.0
 40
1.0
 40
1.0
 40
1.0
 10
-280.9513
 20
-11.9776
 30
0.0
 10
-279.6187
 20
-9.8632
 30
0.0
 10
-278.6287
 20
-7.5114
 30
0.0
 10
-278.0585
 20
-5.0
 30
0.0
 10
-278.0585
 20
-5.0
 30
0.0
 10
-278.0585
 20
-5.0
 30
0.0
 10
-257.7943
 20
-5.0
 30
0.0
 10
-257.7943
 20
-5.0
 30
0.0
 10
-257.7943
 20
-5.0
 30
0.0
 10
-258.731
 20
-12.9908
 30
0.0
 10
-261.8817
 20
-20.3047
 30
0.0
 10
-266.6205
 20
-26.3084
 30
0.0
 10
-266.6205
 20
-26.3084
 30
0.0
 10
-266.6205
 20
-26.3084
 30
0.0
 10
-280.9513
 20
-11.9776
 30
0.0
 10
-280.9513
 20
-11.9776
 30
0.0
  0
SPLINE
  5
89
330
1F
100
AcDbEntity
  8
Layer 1
 62
   250
370
    18
100
AcDbSpline
210
0.0
220
0.0
230
1.0
 70
    11
 71
     3
 72
    20
 73
    16
 74
     0
 42
0.0000000001
 43
0.0000000001
 40
0.0
 40
0.0
 40
0.0
 40
0.0
 40
0.2
 40
0.2
 40
0.2
 40
0.2
 40
0.4
 40
0.4
 40
0.4
 40
0.4
 40
0.6
 40
0.6
 40
0.6
 40
0.6
 40
1.0
 40
1.0
 40
1.0
 40
1.0
 10
-278.0585
 20
5.0
 30
0.0
 10
-278.6284
 20
7.5116
 30
0.0
 10
-279.619
 20
9.863
 30
0.0
 10
-280.9513
 20
11.9776
 30
0.0
 10
-280.9513
 20
11.9776
 30
0.0
 10
-280.9513
 20
11.9776
 30
0.0
 10
-266.6205
 20
26.3084
 30
0.0
 10
-266.6205
 20
26.3084
 30
0.0
 10
-266.6205
 20
26.3084
 30
0.0
 10
-261.8824
 20
20.3042
 30
0.0
 10
-258.731
 20
12.9909
 30
0.0
 10
-257.7943
 20
5.0
 30
0.0
 10
-257.7943
 20
5.0
 30
0.0
 10
-257.7943
 20
5.0
 30
0.0
 10
-278.0585
 20
5.0
 30
0.0
 10
-278.0585
 20
5.0
 30
0.0
  0
SPLINE
  5
8A
330
1F
100
AcDbEntity
  8
Layer 1
 62
   250
370
    18
100
AcDbSpline
210
0.0
220
0.0
230
1.0
 70
    11
 71
     3
 72
    20
 73
    16
 74
     0
 42
0.0000000001
 43
0.0000000001
 40
0.0
 40
0.0
 40
0.0
 40
0.0
 40
0.2
 40
0.2
 40
0.2
 40
0.2
 40
0.4
 40
0.4
 40
0.4
 40
0.4
 40
0.6
 40
0.6
 40
0.6
 40
0.6
 40
1.0
 40
1.0
 40
1.0
 40
1.0
 10
-288.0224
 20
19.0487
 30
0.0
 10
-290.1368
 20
20.3813
 30
0.0
 10
-292.4886
 20
21.3713
 30
0.0
 10
-295.0
 20
21.9415
 30
0.0
 10
-295.0
 20
21.9415
 30
0.0
 10
-295.0
 20
21.9415
 30
0.0
 10
-295.0
 20
42.2057
 30
0.0
 10
-295.0
 20
42.2057
 30
0.0
 10
-295.0
 20
42.2057
 30
0.0
 10
-287.0092
 20
41.269
 30
0.0
 10
-279.6953
 20
38.1183
 30
0.0
 10
-273.6916
 20
33.3795
 30
0.0
 10
-273.6916
 20
33.3795
 30
0.0
 10
-273.6916
 20
33.3795
 30
0.0
 10
-288.0224
 20
19.0487
 30
0.0
 10
-288.0224
 20
19.0487
 30
0.0
  0
ENDSEC
  0
SECTION
  2
OBJECTS
  0
DICTIONARY
  5
C
330
0
100
AcDbDictionary
281
     1
  3
ACAD_GROUP
350
D
  3
ACAD_LAYOUT
350
1A
  3
ACAD_MATERIAL
350
3B
  3
ACAD_MLEADERSTYLE
350
AC
  3
ACAD_MLINESTYLE
350
17
  3
ACAD_PLOTSETTINGS
350
19
  3
ACAD_PLOTSTYLENAME
350
E
  3
ACAD_TABLESTYLE
350
AB
  3
ACAD_VISUALSTYLE
350
2A
  0
DICTIONARY
  5
D
102
{ACAD_REACTORS
330
C
102
}
330
C
100
AcDbDictionary
281
     1
  0
DICTIONARY
  5
1A
102
{ACAD_REACTORS
330
C
102
}
330
C
100
AcDbDictionary
281
     1
  3
Layout1
350
1E
  3
Layout2
350
26
  3
Model
350
22
  0
DICTIONARY
  5
3B
102
{ACAD_REACTORS
330
C
102
}
330
C
100
AcDbDictionary
281
     1
  3
ByBlock
350
3D
  3
ByLayer
350
3C
  3
Global
350
3E
  0
DICTIONARY
  5
AC
102
{ACAD_REACTORS
330
C
102
}
330
C
100
AcDbDictionary
281
     1
  0
DICTIONARY
  5
17
102
{ACAD_REACTORS
330
C
102
}
330
C
100
AcDbDictionary
281
     1
  3
Standard
350
18
  0
DICTIONARY
  5
19
102
{ACAD_REACTORS
330
C
102
}
330
C
100
AcDbDictionary
281
     1
  0
ACDBDICTIONARYWDFLT
  5
E
102
{ACAD_REACTORS
330
C
102
}
330
C
100
AcDbDictionary
281
     1
  3
Normal
350
F
100
AcDbDictionaryWithDefault
340
F
  0
DICTIONARY
  5
AB
102
{ACAD_REACTORS
330
C
102
}
330
C
100
AcDbDictionary
281
     1
  0
DICTIONARY
  5
2A
102
{ACAD_REACTORS
330
C
102
}
330
C
100
AcDbDictionary
281
     1
  3
2dWireframe
350
2F
  3
3D Hidden
350
31
  3
3dWireframe
350
30
  3
Basic
350
32
  3
Brighten
350
36
  3
ColorChange
350
3A
  3
Conceptual
350
34
  3
Dim
350
35
  3
Facepattern
350
39
  3
Flat
350
2B
  3
FlatWithEdges
350
2C
  3
Gouraud
350
2D
  3
GouraudWithEdges
350
2E
  3
Linepattern
350
38
  3
Realistic
350
33
  3
Thicken
350
37
  0
LAYOUT
  5
1E
102
{ACAD_REACTORS
330
1A
102
}
330
1A
100
AcDbPlotSettings
  1

  2
none_device
  4

  6

 40
0.0
 41
0.0
 42
0.0
 43
0.0
 44
0.0
 45
0.0
 46
0.0
 47
0.0
 48
0.0
 49
0.0
140
0.0
141
0.0
142
1.0
143
1.0
 70
   688
 72
     0
 73
     0
 74
     5
  7

 75
    16
 76
     0
 77
     2
 78
   300
147
1.0
148
0.0
149
0.0
100
AcDbLayout
  1
Layout1
 70
     1
 71
     1
 10
0.0
 20
0.0
 11
12.0
 21
9.0
 12
0.0
 22
0.0
 32
0.0
 14
1.000000000000000E+20
 24
1.000000000000000E+20
 34
1.000000000000000E+20
 15
-1.000000000000000E+20
 25
-1.000000000000000E+20
 35
-1.000000000000000E+20
146
0.0
 13
0.0
 23
0.0
 33
0.0
 16
1.0
 26
0.0
 36
0.0
 17
0.0
 27
1.0
 37
0.0
 76
     0
330
1B
  0
LAYOUT
  5
26
102
{ACAD_REACTORS
330
1A
102
}
330
1A
100
AcDbPlotSettings
  1

  2
none_device
  4

  6

 40
0.0
 41
0.0
 42
0.0
 43
0.0
 44
0.0
 45
0.0
 46
0.0
 47
0.0
 48
0.0
 49
0.0
140
0.0
141
0.0
142
1.0
143
1.0
 70
   688
 72
     0
 73
     0
 74
     5
  7

 75
    16
 76
     0
 77
     2
 78
   300
147
1.0
148
0.0
149
0.0
100
AcDbLayout
  1
Layout2
 70
     1
 71
     2
 10
0.0
 20
0.0
 11
0.0
 21
0.0
 12
0.0
 22
0.0
 32
0.0
 14
0.0
 24
0.0
 34
0.0
 15
0.0
 25
0.0
 35
0.0
146
0.0
 13
0.0
 23
0.0
 33
0.0
 16
1.0
 26
0.0
 36
0.0
 17
0.0
 27
1.0
 37
0.0
 76
     0
330
23
  0
LAYOUT
  5
22
102
{ACAD_REACTORS
330
1A
102
}
330
1A
100
AcDbPlotSettings
  1

  2
none_device
  4

  6

 40
0.0
 41
0.0
 42
0.0
 43
0.0
 44
0.0
 45
0.0
 46
0.0
 47
0.0
 48
0.0
 49
0.0
140
0.0
141
0.0
142
1.0
143
1.0
 70
  1712
 72
     0
 73
     0
 74
     0
  7

 75
     0
 76
     0
 77
     2
 78
   300
147
1.0
148
0.0
149
0.0
100
AcDbLayout
  1
Model
 70
     1
 71
     0
 10
0.0
 20
0.0
 11
12.0
 21
9.0
 12
0.0
 22
0.0
 32
0.0
 14
-594.996
 24
-440.109
 34
0.0
 15
144.996
 25
144.996
 35
0.0
146
0.0
 13
0.0
 23
0.0
 33
0.0
 16
1.0
 26
0.0
 36
0.0
 17
0.0
 27
1.0
 37
0.0
 76
     0
330
1F
331
29
  0
MATERIAL
  5
3D
102
{ACAD_REACTORS
330
3B
102
}
330
3B
100
AcDbMaterial
  1
ByBlock
 72
     1
 94
      127
  0
MATERIAL
  5
3C
102
{ACAD_REACTORS
330
3B
102
}
330
3B
100
AcDbMaterial
  1
ByLayer
 72
     1
 94
      127
  0
MATERIAL
  5
3E
102
{ACAD_REACTORS
330
3B
102
}
330
3B
100
AcDbMaterial
  1
Global
 72
     1
 94
      127
  0
MLINESTYLE
  5
18
102
{ACAD_REACTORS
330
17
102
}
330
17
100
AcDbMlineStyle
  2
Standard
 70
     0
  3

 62
   256
 51
90.0
 52
90.0
 71
     2
 49
0.5
 62
   256
  6
BYLAYER
 49
-0.5
 62
   256
  6
BYLAYER
  0
ACDBPLACEHOLDER
  5
F
102
{ACAD_REACTORS
330
E
102
}
330
E
  0
VISUALSTYLE
  5
2F
102
{ACAD_REACTORS
330
2A
102
}
102
{ACAD_XDICTIONARY
360
93
102
}
330
2A
100
AcDbVisualStyle
  2
2dWireframe
 70
     4
 71
     0
 72
     2
 73
     0
 90
        0
 40
-0.6
 41
-30.0
 62
     5
 63
     7
421
 16777215
 74
     1
 91
        4
 64
     7
 65
   257
 75
     1
175
     1
 42
1.0
 92
        0
 66
   257
 43
1.0
 76
     1
 77
     6
 78
     2
 67
     7
 79
     5
170
     0
171
     0
290
     0
174
     0
 93
        1
 44
0.0
173
     0
291
     0
 45
0.0
  0
VISUALSTYLE
  5
31
102
{ACAD_REACTORS
330
2A
102
}
102
{ACAD_XDICTIONARY
360
97
102
}
330
2A
100
AcDbVisualStyle
  2
3D Hidden
 70
     6
 71
     1
 72
     2
 73
     2
 90
        0
 40
-0.6
 41
-30.0
 62
     5
 63
     7
421
 16777215
 74
     2
 91
        2
 64
     7
 65
   257
 75
     2
175
     1
 42
40.0
 92
        0
 66
   257
 43
1.0
 76
     1
 77
     6
 78
     2
 67
     7
 79
     3
170
     0
171
     0
290
     0
174
     0
 93
        1
 44
0.0
173
     0
291
     0
 45
0.0
  0
VISUALSTYLE
  5
30
102
{ACAD_REACTORS
330
2A
102
}
102
{ACAD_XDICTIONARY
360
95
102
}
330
2A
100
AcDbVisualStyle
  2
3dWireframe
 70
     5
 71
     0
 72
     2
 73
     0
 90
        0
 40
-0.6
 41
-30.0
 62
     5
 63
     7
421
 16777215
 74
     1
 91
        4
 64
     7
 65
   257
 75
     1
175
     1
 42
1.0
 92
        0
 66
   257
 43
1.0
 76
     1
 77
     6
 78
     2
 67
     7
 79
     5
170
     0
171
     0
290
     0
174
     0
 93
        1
 44
0.0
173
     0
291
     0
 45
0.0
  0
VISUALSTYLE
  5
32
102
{ACAD_REACTORS
330
2A
102
}
102
{ACAD_XDICTIONARY
360
99
102
}
330
2A
100
AcDbVisualStyle
  2
Basic
 70
     7
 71
     1
 72
     0
 73
     1
 90
        0
 40
-0.6
 41
-30.0
 62
     5
 63
     7
421
 16777215
 74
     0
 91
        4
 64
     7
 65
   257
 75
     1
175
     1
 42
1.0
 92
        8
 66
     7
 43
1.0
 76
     1
 77
     6
 78
     2
 67
     7
 79
     5
170
     0
171
     0
290
     0
174
     0
 93
        1
 44
0.0
173
     0
291
     1
 45
0.0
  0
VISUALSTYLE
  5
36
102
{ACAD_REACTORS
330
2A
102
}
102
{ACAD_XDICTIONARY
360
A1
102
}
330
2A
100
AcDbVisualStyle
  2
Brighten
 70
    12
 71
     2
 72
     2
 73
     0
 90
        0
 40
-0.6
 41
-30.0
 62
     5
 63
     7
421
 16777215
 74
     1
 91
        4
 64
     7
 65
   257
 75
     1
175
     1
 42
1.0
 92
        8
 66
     7
 43
1.0
 76
     1
 77
     6
 78
     2
 67
     7
 79
     5
170
     0
171
     0
290
     0
174
     0
 93
        1
 44
50.0
173
     0
291
     1
 45
0.0
  0
VISUALSTYLE
  5
3A
102
{ACAD_REACTORS
330
2A
102
}
102
{ACAD_XDICTIONARY
360
A9
102
}
330
2A
100
AcDbVisualStyle
  2
ColorChange
 70
    16
 71
     2
 72
     2
 73
     3
 90
        0
 40
-0.6
 41
-30.0
 62
     5
 63
     8
421
  8421504
 74
     1
 91
        4
 64
     7
 65
   257
 75
     1
175
     1
 42
1.0
 92
        8
 66
     8
424
  8421504
 43
1.0
 76
     1
 77
     6
 78
     2
 67
     7
 79
     5
170
     0
171
     0
290
     0
174
     0
 93
        1
 44
0.0
173
     0
291
     1
 45
0.0
  0
VISUALSTYLE
  5
34
102
{ACAD_REACTORS
330
2A
102
}
102
{ACAD_XDICTIONARY
360
9D
102
}
330
2A
100
AcDbVisualStyle
  2
Conceptual
 70
     9
 71
     3
 72
     2
 73
     0
 90
        0
 40
-0.6
 41
-30.0
 62
     5
 63
     7
421
 16777215
 74
     2
 91
        2
 64
     7
 65
   257
 75
     1
175
     1
 42
40.0
 92
        8
 66
     7
 43
1.0
 76
     1
 77
     6
 78
     2
 67
     7
 79
     3
170
     0
171
     0
290
     0
174
     0
 93
        1
 44
0.0
173
     0
291
     0
 45
0.0
  0
VISUALSTYLE
  5
35
102
{ACAD_REACTORS
330
2A
102
}
102
{ACAD_XDICTIONARY
360
9F
102
}
330
2A
100
AcDbVisualStyle
  2
Dim
 70
    11
 71
     2
 72
     2
 73
     0
 90
        0
 40
-0.6
 41
-30.0
 62
     5
 63
     7
421
 16777215
 74
     1
 91
        4
 64
     7
 65
   257
 75
     1
175
     1
 42
1.0
 92
        8
 66
     7
 43
1.0
 76
     1
 77
     6
 78
     2
 67
     7
 79
     5
170
     0
171
     0
290
     0
174
     0
 93
        1
 44
-50.0
173
     0
291
     1
 45
0.0
  0
VISUALSTYLE
  5
39
102
{ACAD_REACTORS
330
2A
102
}
102
{ACAD_XDICTIONARY
360
A7
102
}
330
2A
100
AcDbVisualStyle
  2
Facepattern
 70
    15
 71
     2
 72
     2
 73
     0
 90
        0
 40
-0.6
 41
-30.0
 62
     5
 63
     7
421
 16777215
 74
     1
 91
        4
 64
     7
 65
   257
 75
     1
175
     1
 42
1.0
 92
        8
 66
     7
 43
1.0
 76
     1
 77
     6
 78
     2
 67
     7
 79
     5
170
     0
171
     0
290
     0
174
     0
 93
        1
 44
0.0
173
     0
291
     1
 45
0.0
  0
VISUALSTYLE
  5
2B
102
{ACAD_REACTORS
330
2A
102
}
102
{ACAD_XDICTIONARY
360
8B
102
}
330
2A
100
AcDbVisualStyle
  2
Flat
 70
     0
 71
     2
 72
     1
 73
     1
 90
        2
 40
-0.6
 41
30.0
 62
     5
 63
     7
421
 16777215
 74
     0
 91
        4
 64
     7
 65
   257
 75
     1
175
     1
 42
1.0
 92
        8
 66
     7
 43
1.0
 76
     1
 77
     6
 78
     2
 67
     7
 79
     5
170
     0
171
     0
290
     0
174
     0
 93
       13
 44
0.0
173
     0
291
     1
 45
0.0
  0
VISUALSTYLE
  5
2C
102
{ACAD_REACTORS
330
2A
102
}
102
{ACAD_XDICTIONARY
360
8D
102
}
330
2A
100
AcDbVisualStyle
  2
FlatWithEdges
 70
     1
 71
     2
 72
     1
 73
     1
 90
        2
 40
-0.6
 41
30.0
 62
     5
 63
     7
421
 16777215
 74
     1
 91
        4
 64
     7
 65
   257
 75
     1
175
     1
 42
1.0
 92
        0
 66
   257
 43
1.0
 76
     1
 77
     6
 78
     2
 67
     7
 79
     5
170
     0
171
     0
290
     0
174
     0
 93
       13
 44
0.0
173
     0
291
     1
 45
0.0
  0
VISUALSTYLE
  5
2D
102
{ACAD_REACTORS
330
2A
102
}
102
{ACAD_XDICTIONARY
360
8F
102
}
330
2A
100
AcDbVisualStyle
  2
Gouraud
 70
     2
 71
     2
 72
     2
 73
     1
 90
        2
 40
-0.6
 41
30.0
 62
     5
 63
     7
421
 16777215
 74
     0
 91
        4
 64
     7
 65
   257
 75
     1
175
     1
 42
1.0
 92
        0
 66
     7
 43
1.0
 76
     1
 77
     6
 78
     2
 67
     7
 79
     5
170
     0
171
     0
290
     0
174
     0
 93
       13
 44
0.0
173
     0
291
     1
 45
0.0
  0
VISUALSTYLE
  5
2E
102
{ACAD_REACTORS
330
2A
102
}
102
{ACAD_XDICTIONARY
360
91
102
}
330
2A
100
AcDbVisualStyle
  2
GouraudWithEdges
 70
     3
 71
     2
 72
     2
 73
     1
 90
        2
 40
-0.6
 41
30.0
 62
     5
 63
     7
421
 16777215
 74
     1
 91
        4
 64
     7
 65
   257
 75
     1
175
     1
 42
1.0
 92
        0
 66
   257
 43
1.0
 76
     1
 77
     6
 78
     2
 67
     7
 79
     5
170
     0
171
     0
290
     0
174
     0
 93
       13
 44
0.0
173
     0
291
     1
 45
0.0
  0
VISUALSTYLE
  5
38
102
{ACAD_REACTORS
330
2A
102
}
102
{ACAD_XDICTIONARY
360
A5
102
}
330
2A
100
AcDbVisualStyle
  2
Linepattern
 70
    14
 71
     2
 72
     2
 73
     0
 90
        0
 40
-0.6
 41
-30.0
 62
     5
 63
     7
421
 16777215
 74
     1
 91
        4
 64
     7
 65
   257
 75
     7
175
     7
 42
1.0
 92
        8
 66
     7
 43
1.0
 76
     1
 77
     6
 78
     2
 67
     7
 79
     5
170
     0
171
     0
290
     0
174
     0
 93
        1
 44
0.0
173
     0
291
     1
 45
0.0
  0
VISUALSTYLE
  5
33
102
{ACAD_REACTORS
330
2A
102
}
102
{ACAD_XDICTIONARY
360
9B
102
}
330
2A
100
AcDbVisualStyle
  2
Realistic
 70
     8
 71
     2
 72
     2
 73
     0
 90
        0
 40
-0.6
 41
-30.0
 62
     5
 63
     7
421
 16777215
 74
     1
 91
        0
 64
     7
 65
   257
 75
     1
175
     1
 42
1.0
 92
        8
 66
     8
424
  7895160
 43
1.0
 76
     1
 77
     6
 78
     2
 67
     7
 79
     5
170
     0
171
     0
290
     0
174
     0
 93
       13
 44
0.0
173
     0
291
     0
 45
0.0
  0
VISUALSTYLE
  5
37
102
{ACAD_REACTORS
330
2A
102
}
102
{ACAD_XDICTIONARY
360
A3
102
}
330
2A
100
AcDbVisualStyle
  2
Thicken
 70
    13
 71
     2
 72
     2
 73
     0
 90
        0
 40
-0.6
 41
-30.0
 62
     5
 63
     7
421
 16777215
 74
     1
 91
        4
 64
     7
 65
   257
 75
     1
175
     1
 42
1.0
 92
       12
 66
     7
 43
1.0
 76
     1
 77
     6
 78
     2
 67
     7
 79
     5
170
     0
171
     0
290
     0
174
     0
 93
        1
 44
0.0
173
     0
291
     1
 45
0.0
  0
DICTIONARY
  5
93
330
2F
100
AcDbDictionary
280
     1
281
     1
  3
ACAD_XREC_ROUNDTRIP
360
94
  0
DICTIONARY
  5
97
330
31
100
AcDbDictionary
280
     1
281
     1
  3
ACAD_XREC_ROUNDTRIP
360
98
  0
DICTIONARY
  5
95
330
30
100
AcDbDictionary
280
     1
281
     1
  3
ACAD_XREC_ROUNDTRIP
360
96
  0
DICTIONARY
  5
99
330
32
100
AcDbDictionary
280
     1
281
     1
  3
ACAD_XREC_ROUNDTRIP
360
9A
  0
DICTIONARY
  5
A1
330
36
100
AcDbDictionary
280
     1
281
     1
  3
ACAD_XREC_ROUNDTRIP
360
A2
  0
DICTIONARY
  5
A9
330
3A
100
AcDbDictionary
280
     1
281
     1
  3
ACAD_XREC_ROUNDTRIP
360
AA
  0
DICTIONARY
  5
9D
330
34
100
AcDbDictionary
280
     1
281
     1
  3
ACAD_XREC_ROUNDTRIP
360
9E
  0
DICTIONARY
  5
9F
330
35
100
AcDbDictionary
280
     1
281
     1
  3
ACAD_XREC_ROUNDTRIP
360
A0
  0
DICTIONARY
  5
A7
330
39
100
AcDbDictionary
280
     1
281
     1
  3
ACAD_XREC_ROUNDTRIP
360
A8
  0
DICTIONARY
  5
8B
330
2B
100
AcDbDictionary
280
     1
281
     1
  3
ACAD_XREC_ROUNDTRIP
360
8C
  0
DICTIONARY
  5
8D
330
2C
100
AcDbDictionary
280
     1
281
     1
  3
ACAD_XREC_ROUNDTRIP
360
8E
  0
DICTIONARY
  5
8F
330
2D
100
AcDbDictionary
280
     1
281
     1
  3
ACAD_XREC_ROUNDTRIP
360
90
  0
DICTIONARY
  5
91
330
2E
100
AcDbDictionary
280
     1
281
     1
  3
ACAD_XREC_ROUNDTRIP
360
92
  0
DICTIONARY
  5
A5
330
38
100
AcDbDictionary
280
     1
281
     1
  3
ACAD_XREC_ROUNDTRIP
360
A6
  0
DICTIONARY
  5
9B
330
33
100
AcDbDictionary
280
     1
281
     1
  3
ACAD_XREC_ROUNDTRIP
360
9C
  0
DICTIONARY
  5
A3
330
37
100
AcDbDictionary
280
     1
281
     1
  3
ACAD_XREC_ROUNDTRIP
360
A4
  0
XRECORD
  5
94
102
{ACAD_REACTORS
330
93
102
}
330
93
100
AcDbXrecord
280
     1
102
RTVSPropertyOp0
 70
     1
102
RTVSPropertyOp1
 70
     1
102
RTVSPropertyOp2
 70
     1
102
RTVSPropertyOp3
 70
     1
102
RTVSPropertyOp4
 70
     1
102
RTVSPropertyOp5
 70
     1
102
RTVSPropertyOp6
 70
     1
102
RTVSPropertyOp7
 70
     1
102
RTVSPropertyOp8
 70
     1
102
RTVSPropertyOp9
 70
     1
102
RTVSPropertyOp10
 70
     1
102
RTVSPropertyOp11
 70
     1
102
RTVSPropertyOp12
 70
     1
102
RTVSPropertyOp13
 70
     1
102
RTVSPropertyOp14
 70
     1
102
RTVSPropertyOp15
 70
     1
102
RTVSPropertyOp16
 70
     1
102
RTVSPropertyOp17
 70
     1
102
RTVSPropertyOp18
 70
     1
102
RTVSPropertyOp19
 70
     1
102
RTVSPropertyOp20
 70
     1
102
RTVSPropertyOp21
 70
     1
102
RTVSPropertyOp22
 70
     1
102
RTVSPropertyOp23
 70
     1
102
RTVSPropertyOp24
 70
     1
102
RTVSPropertyOp25
 70
     1
102
RTVSPropertyOp26
 70
     1
102
RTVSPropertyOp27
 70
     1
  0
XRECORD
  5
98
102
{ACAD_REACTORS
330
97
102
}
330
97
100
AcDbXrecord
280
     1
102
RTVSPropertyOp0
 70
     1
102
RTVSPropertyOp1
 70
     1
102
RTVSPropertyOp2
 70
     1
102
RTVSPropertyOp3
 70
     1
102
RTVSPropertyOp4
 70
     1
102
RTVSPropertyOp5
 70
     1
102
RTVSPropertyOp6
 70
     1
102
RTVSPropertyOp7
 70
     1
102
RTVSPropertyOp8
 70
     1
102
RTVSPropertyOp9
 70
     1
102
RTVSPropertyOp10
 70
     1
102
RTVSPropertyOp11
 70
     1
102
RTVSPropertyOp12
 70
     1
102
RTVSPropertyOp13
 70
     1
102
RTVSPropertyOp14
 70
     1
102
RTVSPropertyOp15
 70
     1
102
RTVSPropertyOp16
 70
     1
102
RTVSPropertyOp17
 70
     1
102
RTVSPropertyOp18
 70
     1
102
RTVSPropertyOp19
 70
     1
102
RTVSPropertyOp20
 70
     1
102
RTVSPropertyOp21
 70
     1
102
RTVSPropertyOp22
 70
     1
102
RTVSPropertyOp23
 70
     1
102
RTVSPropertyOp24
 70
     1
102
RTVSPropertyOp25
 70
     1
102
RTVSPropertyOp26
 70
     1
102
RTVSPropertyOp27
 70
     1
  0
XRECORD
  5
96
102
{ACAD_REACTORS
330
95
102
}
330
95
100
AcDbXrecord
280
     1
102
RTVSPropertyOp0
 70
     1
102
RTVSPropertyOp1
 70
     1
102
RTVSPropertyOp2
 70
     1
102
RTVSPropertyOp3
 70
     1
102
RTVSPropertyOp4
 70
     1
102
RTVSPropertyOp5
 70
     1
102
RTVSPropertyOp6
 70
     1
102
RTVSPropertyOp7
 70
     1
102
RTVSPropertyOp8
 70
     1
102
RTVSPropertyOp9
 70
     1
102
RTVSPropertyOp10
 70
     1
102
RTVSPropertyOp11
 70
     1
102
RTVSPropertyOp12
 70
     1
102
RTVSPropertyOp13
 70
     1
102
RTVSPropertyOp14
 70
     1
102
RTVSPropertyOp15
 70
     1
102
RTVSPropertyOp16
 70
     1
102
RTVSPropertyOp17
 70
     1
102
RTVSPropertyOp18
 70
     1
102
RTVSPropertyOp19
 70
     1
102
RTVSPropertyOp20
 70
     1
102
RTVSPropertyOp21
 70
     1
102
RTVSPropertyOp22
 70
     1
102
RTVSPropertyOp23
 70
     1
102
RTVSPropertyOp24
 70
     1
102
RTVSPropertyOp25
 70
     1
102
RTVSPropertyOp26
 70
     1
102
RTVSPropertyOp27
 70
     1
  0
XRECORD
  5
9A
102
{ACAD_REACTORS
330
99
102
}
330
99
100
AcDbXrecord
280
     1
102
RTVSPropertyOp0
 70
     1
102
RTVSPropertyOp1
 70
     1
102
RTVSPropertyOp2
 70
     1
102
RTVSPropertyOp3
 70
     1
102
RTVSPropertyOp4
 70
     1
102
RTVSPropertyOp5
 70
     1
102
RTVSPropertyOp6
 70
     1
102
RTVSPropertyOp7
 70
     1
102
RTVSPropertyOp8
 70
     1
102
RTVSPropertyOp9
 70
     1
102
RTVSPropertyOp10
 70
     1
102
RTVSPropertyOp11
 70
     1
102
RTVSPropertyOp12
 70
     1
102
RTVSPropertyOp13
 70
     1
102
RTVSPropertyOp14
 70
     1
102
RTVSPropertyOp15
 70
     1
102
RTVSPropertyOp16
 70
     1
102
RTVSPropertyOp17
 70
     1
102
RTVSPropertyOp18
 70
     1
102
RTVSPropertyOp19
 70
     1
102
RTVSPropertyOp20
 70
     1
102
RTVSPropertyOp21
 70
     1
102
RTVSPropertyOp22
 70
     1
102
RTVSPropertyOp23
 70
     1
102
RTVSPropertyOp24
 70
     1
102
RTVSPropertyOp25
 70
     1
102
RTVSPropertyOp26
 70
     1
102
RTVSPropertyOp27
 70
     1
  0
XRECORD
  5
A2
102
{ACAD_REACTORS
330
A1
102
}
330
A1
100
AcDbXrecord
280
     1
102
RTVSPropertyOp0
 70
     1
102
RTVSPropertyOp1
 70
     1
102
RTVSPropertyOp2
 70
     1
102
RTVSPropertyOp3
 70
     1
102
RTVSPropertyOp4
 70
     1
102
RTVSPropertyOp5
 70
     1
102
RTVSPropertyOp6
 70
     1
102
RTVSPropertyOp7
 70
     1
102
RTVSPropertyOp8
 70
     1
102
RTVSPropertyOp9
 70
     1
102
RTVSPropertyOp10
 70
     1
102
RTVSPropertyOp11
 70
     1
102
RTVSPropertyOp12
 70
     1
102
RTVSPropertyOp13
 70
     1
102
RTVSPropertyOp14
 70
     1
102
RTVSPropertyOp15
 70
     1
102
RTVSPropertyOp16
 70
     1
102
RTVSPropertyOp17
 70
     1
102
RTVSPropertyOp18
 70
     1
102
RTVSPropertyOp19
 70
     1
102
RTVSPropertyOp20
 70
     1
102
RTVSPropertyOp21
 70
     1
102
RTVSPropertyOp22
 70
     1
102
RTVSPropertyOp23
 70
     1
102
RTVSPropertyOp24
 70
     1
102
RTVSPropertyOp25
 70
     1
102
RTVSPropertyOp26
 70
     1
102
RTVSPropertyOp27
 70
     1
  0
XRECORD
  5
AA
102
{ACAD_REACTORS
330
A9
102
}
330
A9
100
AcDbXrecord
280
     1
102
RTVSPropertyOp0
 70
     1
102
RTVSPropertyOp1
 70
     1
102
RTVSPropertyOp2
 70
     1
102
RTVSPropertyOp3
 70
     1
102
RTVSPropertyOp4
 70
     1
102
RTVSPropertyOp5
 70
     1
102
RTVSPropertyOp6
 70
     1
102
RTVSPropertyOp7
 70
     1
102
RTVSPropertyOp8
 70
     1
102
RTVSPropertyOp9
 70
     1
102
RTVSPropertyOp10
 70
     1
102
RTVSPropertyOp11
 70
     1
102
RTVSPropertyOp12
 70
     1
102
RTVSPropertyOp13
 70
     1
102
RTVSPropertyOp14
 70
     1
102
RTVSPropertyOp15
 70
     1
102
RTVSPropertyOp16
 70
     1
102
RTVSPropertyOp17
 70
     1
102
RTVSPropertyOp18
 70
     1
102
RTVSPropertyOp19
 70
     1
102
RTVSPropertyOp20
 70
     1
102
RTVSPropertyOp21
 70
     1
102
RTVSPropertyOp22
 70
     1
102
RTVSPropertyOp23
 70
     1
102
RTVSPropertyOp24
 70
     1
102
RTVSPropertyOp25
 70
     1
102
RTVSPropertyOp26
 70
     1
102
RTVSPropertyOp27
 70
     1
  0
XRECORD
  5
9E
102
{ACAD_REACTORS
330
9D
102
}
330
9D
100
AcDbXrecord
280
     1
102
RTVSPropertyOp0
 70
     1
102
RTVSPropertyOp1
 70
     1
102
RTVSPropertyOp2
 70
     1
102
RTVSPropertyOp3
 70
     1
102
RTVSPropertyOp4
 70
     1
102
RTVSPropertyOp5
 70
     1
102
RTVSPropertyOp6
 70
     1
102
RTVSPropertyOp7
 70
     1
102
RTVSPropertyOp8
 70
     1
102
RTVSPropertyOp9
 70
     1
102
RTVSPropertyOp10
 70
     1
102
RTVSPropertyOp11
 70
     1
102
RTVSPropertyOp12
 70
     1
102
RTVSPropertyOp13
 70
     1
102
RTVSPropertyOp14
 70
     1
102
RTVSPropertyOp15
 70
     1
102
RTVSPropertyOp16
 70
     1
102
RTVSPropertyOp17
 70
     1
102
RTVSPropertyOp18
 70
     1
102
RTVSPropertyOp19
 70
     1
102
RTVSPropertyOp20
 70
     1
102
RTVSPropertyOp21
 70
     1
102
RTVSPropertyOp22
 70
     1
102
RTVSPropertyOp23
 70
     1
102
RTVSPropertyOp24
 70
     1
102
RTVSPropertyOp25
 70
     1
102
RTVSPropertyOp26
 70
     1
102
RTVSPropertyOp27
 70
     1
  0
XRECORD
  5
A0
102
{ACAD_REACTORS
330
9F
102
}
330
9F
100
AcDbXrecord
280
     1
102
RTVSPropertyOp0
 70
     1
102
RTVSPropertyOp1
 70
     1
102
RTVSPropertyOp2
 70
     1
102
RTVSPropertyOp3
 70
     1
102
RTVSPropertyOp4
 70
     1
102
RTVSPropertyOp5
 70
     1
102
RTVSPropertyOp6
 70
     1
102
RTVSPropertyOp7
 70
     1
102
RTVSPropertyOp8
 70
     1
102
RTVSPropertyOp9
 70
     1
102
RTVSPropertyOp10
 70
     1
102
RTVSPropertyOp11
 70
     1
102
RTVSPropertyOp12
 70
     1
102
RTVSPropertyOp13
 70
     1
102
RTVSPropertyOp14
 70
     1
102
RTVSPropertyOp15
 70
     1
102
RTVSPropertyOp16
 70
     1
102
RTVSPropertyOp17
 70
     1
102
RTVSPropertyOp18
 70
     1
102
RTVSPropertyOp19
 70
     1
102
RTVSPropertyOp20
 70
     1
102
RTVSPropertyOp21
 70
     1
102
RTVSPropertyOp22
 70
     1
102
RTVSPropertyOp23
 70
     1
102
RTVSPropertyOp24
 70
     1
102
RTVSPropertyOp25
 70
     1
102
RTVSPropertyOp26
 70
     1
102
RTVSPropertyOp27
 70
     1
  0
XRECORD
  5
A8
102
{ACAD_REACTORS
330
A7
102
}
330
A7
100
AcDbXrecord
280
     1
102
RTVSPropertyOp0
 70
     1
102
RTVSPropertyOp1
 70
     1
102
RTVSPropertyOp2
 70
     1
102
RTVSPropertyOp3
 70
     1
102
RTVSPropertyOp4
 70
     1
102
RTVSPropertyOp5
 70
     1
102
RTVSPropertyOp6
 70
     1
102
RTVSPropertyOp7
 70
     1
102
RTVSPropertyOp8
 70
     1
102
RTVSPropertyOp9
 70
     1
102
RTVSPropertyOp10
 70
     1
102
RTVSPropertyOp11
 70
     1
102
RTVSPropertyOp12
 70
     1
102
RTVSPropertyOp13
 70
     1
102
RTVSPropertyOp14
 70
     1
102
RTVSPropertyOp15
 70
     1
102
RTVSPropertyOp16
 70
     1
102
RTVSPropertyOp17
 70
     1
102
RTVSPropertyOp18
 70
     1
102
RTVSPropertyOp19
 70
     1
102
RTVSPropertyOp20
 70
     1
102
RTVSPropertyOp21
 70
     1
102
RTVSPropertyOp22
 70
     1
102
RTVSPropertyOp23
 70
     1
102
RTVSPropertyOp24
 70
     1
102
RTVSPropertyOp25
 70
     1
102
RTVSPropertyOp26
 70
     1
102
RTVSPropertyOp27
 70
     1
  0
XRECORD
  5
8C
102
{ACAD_REACTORS
330
8B
102
}
330
8B
100
AcDbXrecord
280
     1
102
RTVSPropertyOp0
 70
     1
102
RTVSPropertyOp1
 70
     1
102
RTVSPropertyOp2
 70
     1
102
RTVSPropertyOp3
 70
     1
102
RTVSPropertyOp4
 70
     1
102
RTVSPropertyOp5
 70
     1
102
RTVSPropertyOp6
 70
     1
102
RTVSPropertyOp7
 70
     1
102
RTVSPropertyOp8
 70
     1
102
RTVSPropertyOp9
 70
     1
102
RTVSPropertyOp10
 70
     1
102
RTVSPropertyOp11
 70
     1
102
RTVSPropertyOp12
 70
     1
102
RTVSPropertyOp13
 70
     1
102
RTVSPropertyOp14
 70
     1
102
RTVSPropertyOp15
 70
     1
102
RTVSPropertyOp16
 70
     1
102
RTVSPropertyOp17
 70
     1
102
RTVSPropertyOp18
 70
     1
102
RTVSPropertyOp19
 70
     1
102
RTVSPropertyOp20
 70
     1
102
RTVSPropertyOp21
 70
     1
102
RTVSPropertyOp22
 70
     1
102
RTVSPropertyOp23
 70
     1
102
RTVSPropertyOp24
 70
     1
102
RTVSPropertyOp25
 70
     1
102
RTVSPropertyOp26
 70
     1
102
RTVSPropertyOp27
 70
     1
  0
XRECORD
  5
8E
102
{ACAD_REACTORS
330
8D
102
}
330
8D
100
AcDbXrecord
280
     1
102
RTVSPropertyOp0
 70
     1
102
RTVSPropertyOp1
 70
     1
102
RTVSPropertyOp2
 70
     1
102
RTVSPropertyOp3
 70
     1
102
RTVSPropertyOp4
 70
     1
102
RTVSPropertyOp5
 70
     1
102
RTVSPropertyOp6
 70
     1
102
RTVSPropertyOp7
 70
     1
102
RTVSPropertyOp8
 70
     1
102
RTVSPropertyOp9
 70
     1
102
RTVSPropertyOp10
 70
     1
102
RTVSPropertyOp11
 70
     1
102
RTVSPropertyOp12
 70
     1
102
RTVSPropertyOp13
 70
     1
102
RTVSPropertyOp14
 70
     1
102
RTVSPropertyOp15
 70
     1
102
RTVSPropertyOp16
 70
     1
102
RTVSPropertyOp17
 70
     1
102
RTVSPropertyOp18
 70
     1
102
RTVSPropertyOp19
 70
     1
102
RTVSPropertyOp20
 70
     1
102
RTVSPropertyOp21
 70
     1
102
RTVSPropertyOp22
 70
     1
102
RTVSPropertyOp23
 70
     1
102
RTVSPropertyOp24
 70
     1
102
RTVSPropertyOp25
 70
     1
102
RTVSPropertyOp26
 70
     1
102
RTVSPropertyOp27
 70
     1
  0
XRECORD
  5
90
102
{ACAD_REACTORS
330
8F
102
}
330
8F
100
AcDbXrecord
280
     1
102
RTVSPropertyOp0
 70
     1
102
RTVSPropertyOp1
 70
     1
102
RTVSPropertyOp2
 70
     1
102
RTVSPropertyOp3
 70
     1
102
RTVSPropertyOp4
 70
     1
102
RTVSPropertyOp5
 70
     1
102
RTVSPropertyOp6
 70
     1
102
RTVSPropertyOp7
 70
     1
102
RTVSPropertyOp8
 70
     1
102
RTVSPropertyOp9
 70
     1
102
RTVSPropertyOp10
 70
     1
102
RTVSPropertyOp11
 70
     1
102
RTVSPropertyOp12
 70
     1
102
RTVSPropertyOp13
 70
     1
102
RTVSPropertyOp14
 70
     1
102
RTVSPropertyOp15
 70
     1
102
RTVSPropertyOp16
 70
     1
102
RTVSPropertyOp17
 70
     1
102
RTVSPropertyOp18
 70
     1
102
RTVSPropertyOp19
 70
     1
102
RTVSPropertyOp20
 70
     1
102
RTVSPropertyOp21
 70
     1
102
RTVSPropertyOp22
 70
     1
102
RTVSPropertyOp23
 70
     1
102
RTVSPropertyOp24
 70
     1
102
RTVSPropertyOp25
 70
     1
102
RTVSPropertyOp26
 70
     1
102
RTVSPropertyOp27
 70
     1
  0
XRECORD
  5
92
102
{ACAD_REACTORS
330
91
102
}
330
91
100
AcDbXrecord
280
     1
102
RTVSPropertyOp0
 70
     1
102
RTVSPropertyOp1
 70
     1
102
RTVSPropertyOp2
 70
     1
102
RTVSPropertyOp3
 70
     1
102
RTVSPropertyOp4
 70
     1
102
RTVSPropertyOp5
 70
     1
102
RTVSPropertyOp6
 70
     1
102
RTVSPropertyOp7
 70
     1
102
RTVSPropertyOp8
 70
     1
102
RTVSPropertyOp9
 70
     1
102
RTVSPropertyOp10
 70
     1
102
RTVSPropertyOp11
 70
     1
102
RTVSPropertyOp12
 70
     1
102
RTVSPropertyOp13
 70
     1
102
RTVSPropertyOp14
 70
     1
102
RTVSPropertyOp15
 70
     1
102
RTVSPropertyOp16
 70
     1
102
RTVSPropertyOp17
 70
     1
102
RTVSPropertyOp18
 70
     1
102
RTVSPropertyOp19
 70
     1
102
RTVSPropertyOp20
 70
     1
102
RTVSPropertyOp21
 70
     1
102
RTVSPropertyOp22
 70
     1
102
RTVSPropertyOp23
 70
     1
102
RTVSPropertyOp24
 70
     1
102
RTVSPropertyOp25
 70
     1
102
RTVSPropertyOp26
 70
     1
102
RTVSPropertyOp27
 70
     1
  0
XRECORD
  5
A6
102
{ACAD_REACTORS
330
A5
102
}
330
A5
100
AcDbXrecord
280
     1
102
RTVSPropertyOp0
 70
     1
102
RTVSPropertyOp1
 70
     1
102
RTVSPropertyOp2
 70
     1
102
RTVSPropertyOp3
 70
     1
102
RTVSPropertyOp4
 70
     1
102
RTVSPropertyOp5
 70
     1
102
RTVSPropertyOp6
 70
     1
102
RTVSPropertyOp7
 70
     1
102
RTVSPropertyOp8
 70
     1
102
RTVSPropertyOp9
 70
     1
102
RTVSPropertyOp10
 70
     1
102
RTVSPropertyOp11
 70
     1
102
RTVSPropertyOp12
 70
     1
102
RTVSPropertyOp13
 70
     1
102
RTVSPropertyOp14
 70
     1
102
RTVSPropertyOp15
 70
     1
102
RTVSPropertyOp16
 70
     1
102
RTVSPropertyOp17
 70
     1
102
RTVSPropertyOp18
 70
     1
102
RTVSPropertyOp19
 70
     1
102
RTVSPropertyOp20
 70
     1
102
RTVSPropertyOp21
 70
     1
102
RTVSPropertyOp22
 70
     1
102
RTVSPropertyOp23
 70
     1
102
RTVSPropertyOp24
 70
     1
102
RTVSPropertyOp25
 70
     1
102
RTVSPropertyOp26
 70
     1
102
RTVSPropertyOp27
 70
     1
  0
XRECORD
  5
9C
102
{ACAD_REACTORS
330
9B
102
}
330
9B
100
AcDbXrecord
280
     1
102
RTVSPropertyOp0
 70
     1
102
RTVSPropertyOp1
 70
     1
102
RTVSPropertyOp2
 70
     1
102
RTVSPropertyOp3
 70
     1
102
RTVSPropertyOp4
 70
     1
102
RTVSPropertyOp5
 70
     1
102
RTVSPropertyOp6
 70
     1
102
RTVSPropertyOp7
 70
     1
102
RTVSPropertyOp8
 70
     1
102
RTVSPropertyOp9
 70
     1
102
RTVSPropertyOp10
 70
     1
102
RTVSPropertyOp11
 70
     1
102
RTVSPropertyOp12
 70
     1
102
RTVSPropertyOp13
 70
     1
102
RTVSPropertyOp14
 70
     1
102
RTVSPropertyOp15
 70
     1
102
RTVSPropertyOp16
 70
     1
102
RTVSPropertyOp17
 70
     1
102
RTVSPropertyOp18
 70
     1
102
RTVSPropertyOp19
 70
     1
102
RTVSPropertyOp20
 70
     1
102
RTVSPropertyOp21
 70
     1
102
RTVSPropertyOp22
 70
     1
102
RTVSPropertyOp23
 70
     1
102
RTVSPropertyOp24
 70
     1
102
RTVSPropertyOp25
 70
     1
102
RTVSPropertyOp26
 70
     1
102
RTVSPropertyOp27
 70
     1
  0
XRECORD
  5
A4
102
{ACAD_REACTORS
330
A3
102
}
330
A3
100
AcDbXrecord
280
     1
102
RTVSPropertyOp0
 70
     1
102
RTVSPropertyOp1
 70
     1
102
RTVSPropertyOp2
 70
     1
102
RTVSPropertyOp3
 70
     1
102
RTVSPropertyOp4
 70
     1
102
RTVSPropertyOp5
 70
     1
102
RTVSPropertyOp6
 70
     1
102
RTVSPropertyOp7
 70
     1
102
RTVSPropertyOp8
 70
     1
102
RTVSPropertyOp9
 70
     1
102
RTVSPropertyOp10
 70
     1
102
RTVSPropertyOp11
 70
     1
102
RTVSPropertyOp12
 70
     1
102
RTVSPropertyOp13
 70
     1
102
RTVSPropertyOp14
 70
     1
102
RTVSPropertyOp15
 70
     1
102
RTVSPropertyOp16
 70
     1
102
RTVSPropertyOp17
 70
     1
102
RTVSPropertyOp18
 70
     1
102
RTVSPropertyOp19
 70
     1
102
RTVSPropertyOp20
 70
     1
102
RTVSPropertyOp21
 70
     1
102
RTVSPropertyOp22
 70
     1
102
RTVSPropertyOp23
 70
     1
102
RTVSPropertyOp24
 70
     1
102
RTVSPropertyOp25
 70
     1
102
RTVSPropertyOp26
 70
     1
102
RTVSPropertyOp27
 70
     1
  0
ENDSEC
  0
EOF
