  0
SECTION
  2
HEADER
  9
$ACADVER
  1
AC1015
  9
$ACADMAINTVER
 70
     6
  9
$DWGCODEPAGE
  3
ANSI_1252
  9
$INSBASE
 10
0.0
 20
0.0
 30
0.0
  9
$EXTMIN
 10
0.0
 20
0.0
 30
0.0
  9
$EXTMAX
 10
5000.0
 20
5000.0
 30
0.0
  9
$LIMMIN
 10
0.0
 20
0.0
  9
$LIMMAX
 10
5000.0
 20
5000.0
  9
$ORTHOMODE
 70
     0
  9
$REGENMODE
 70
     1
  9
$FILLMODE
 70
     1
  9
$QTEXTMODE
 70
     0
  9
$MIRRTEXT
 70
     1
  9
$LTSCALE
 40
1.0
  9
$ATTMODE
 70
     1
  9
$TEXTSIZE
 40
3.5
  9
$TRACEWID
 40
1.0
  9
$TEXTSTYLE
  7
Standard
  9
$CLAYER
  8
0
  9
$CELTYPE
  6
ByLayer
  9
$CECOLOR
 62
   256
  9
$CELTSCALE
 40
1.0
  9
$DISPSILH
 70
     0
  9
$DIMSCALE
 40
1.0
  9
$DIMASZ
 40
3.302
  9
$DIMEXO
 40
1.0
  9
$DIMDLI
 40
3.75
  9
$DIMRND
 40
0.0
  9
$DIMDLE
 40
0.0
  9
$DIMEXE
 40
1.0
  9
$DIMTP
 40
0.0
  9
$DIMTM
 40
0.0
  9
$DIMTXT
 40
3.5
  9
$DIMCEN
 40
2.5
  9
$DIMTSZ
 40
0.0
  9
$DIMTOL
 70
     0
  9
$DIMLIM
 70
     0
  9
$DIMTIH
 70
     1
  9
$DIMTOH
 70
     1
  9
$DIMSE1
 70
     0
  9
$DIMSE2
 70
     0
  9
$DIMTAD
 70
     1
  9
$DIMZIN
 70
     0
  9
$DIMBLK
  1

  9
$DIMASO
 70
     1
  9
$DIMSHO
 70
     1
  9
$DIMPOST
  1

  9
$DIMAPOST
  1

  9
$DIMALT
 70
     0
  9
$DIMALTD
 70
     3
  9
$DIMALTF
 40
0.0393700787
  9
$DIMLFAC
 40
5.0
  9
$DIMTOFL
 70
     1
  9
$DIMTVP
 40
0.0
  9
$DIMTIX
 70
     0
  9
$DIMSOXD
 70
     0
  9
$DIMSAH
 70
     0
  9
$DIMBLK1
  1

  9
$DIMBLK2
  1

  9
$DIMSTYLE
  2
ISO-25
  9
$DIMCLRD
 70
     0
  9
$DIMCLRE
 70
     0
  9
$DIMCLRT
 70
     0
  9
$DIMTFAC
 40
1.0
  9
$DIMGAP
 40
1.524
  9
$DIMJUST
 70
     0
  9
$DIMSD1
 70
     0
  9
$DIMSD2
 70
     0
  9
$DIMTOLJ
 70
     0
  9
$DIMTZIN
 70
     0
  9
$DIMALTZ
 70
     0
  9
$DIMALTTZ
 70
     0
  9
$DIMUPT
 70
     0
  9
$DIMDEC
 70
     2
  9
$DIMTDEC
 70
     2
  9
$DIMALTU
 70
     2
  9
$DIMALTTD
 70
     3
  9
$DIMTXSTY
  7
Standard
  9
$DIMAUNIT
 70
     0
  9
$DIMADEC
 70
     2
  9
$DIMALTRND
 40
0.0
  9
$DIMAZIN
 70
     0
  9
$DIMDSEP
 70
    44
  9
$DIMATFIT
 70
     3
  9
$DIMFRAC
 70
     0
  9
$DIMLDRBLK
  1

  9
$DIMLUNIT
 70
     2
  9
$DIMLWD
 70
    -2
  9
$DIMLWE
 70
    -2
  9
$DIMTMOVE
 70
     0
  9
$LUNITS
 70
     2
  9
$LUPREC
 70
     2
  9
$SKETCHINC
 40
1.0
  9
$FILLETRAD
 40
10.0
  9
$AUNITS
 70
     0
  9
$AUPREC
 70
     2
  9
$MENU
  1
.
  9
$ELEVATION
 40
0.0
  9
$PELEVATION
 40
0.0
  9
$THICKNESS
 40
0.0
  9
$LIMCHECK
 70
     0
  9
$CHAMFERA
 40
10.0
  9
$CHAMFERB
 40
10.0
  9
$CHAMFERC
 40
20.0
  9
$CHAMFERD
 40
0.0
  9
$SKPOLY
 70
     0
  9
$TDCREATE
 40
2457076.900829815
  9
$TDUCREATE
 40
2457076.359163148
  9
$TDUPDATE
 40
2457076.90083066
  9
$TDUUPDATE
 40
2457076.359163993
  9
$TDINDWG
 40
0.0000000116
  9
$TDUSRTIMER
 40
0.0000000116
  9
$USRTIMER
 70
     1
  9
$ANGBASE
 50
0.0
  9
$ANGDIR
 70
     0
  9
$PDMODE
 70
     0
  9
$PDSIZE
 40
-1.0
  9
$PLINEWID
 40
0.0
  9
$SPLFRAME
 70
     0
  9
$SPLINETYPE
 70
     6
  9
$SPLINESEGS
 70
     8
  9
$HANDSEED
  5
430
  9
$SURFTAB1
 70
     6
  9
$SURFTAB2
 70
     6
  9
$SURFTYPE
 70
     6
  9
$SURFU
 70
     6
  9
$SURFV
 70
     6
  9
$UCSBASE
  2

  9
$UCSNAME
  2

  9
$UCSORG
 10
0.0
 20
0.0
 30
0.0
  9
$UCSXDIR
 10
1.0
 20
0.0
 30
0.0
  9
$UCSYDIR
 10
0.0
 20
1.0
 30
0.0
  9
$UCSORTHOREF
  2

  9
$UCSORTHOVIEW
 70
     0
  9
$UCSORGTOP
 10
0.0
 20
0.0
 30
0.0
  9
$UCSORGBOTTOM
 10
0.0
 20
0.0
 30
0.0
  9
$UCSORGLEFT
 10
0.0
 20
0.0
 30
0.0
  9
$UCSORGRIGHT
 10
0.0
 20
0.0
 30
0.0
  9
$UCSORGFRONT
 10
0.0
 20
0.0
 30
0.0
  9
$UCSORGBACK
 10
0.0
 20
0.0
 30
0.0
  9
$PUCSBASE
  2

  9
$PUCSNAME
  2

  9
$PUCSORG
 10
0.0
 20
0.0
 30
0.0
  9
$PUCSXDIR
 10
1.0
 20
0.0
 30
0.0
  9
$PUCSYDIR
 10
0.0
 20
1.0
 30
0.0
  9
$PUCSORTHOREF
  2

  9
$PUCSORTHOVIEW
 70
     0
  9
$PUCSORGTOP
 10
0.0
 20
0.0
 30
0.0
  9
$PUCSORGBOTTOM
 10
0.0
 20
0.0
 30
0.0
  9
$PUCSORGLEFT
 10
0.0
 20
0.0
 30
0.0
  9
$PUCSORGRIGHT
 10
0.0
 20
0.0
 30
0.0
  9
$PUCSORGFRONT
 10
0.0
 20
0.0
 30
0.0
  9
$PUCSORGBACK
 10
0.0
 20
0.0
 30
0.0
  9
$USERI1
 70
     0
  9
$USERI2
 70
     0
  9
$USERI3
 70
     0
  9
$USERI4
 70
     0
  9
$USERI5
 70
     0
  9
$USERR1
 40
0.0
  9
$USERR2
 40
0.0
  9
$USERR3
 40
0.0
  9
$USERR4
 40
0.0
  9
$USERR5
 40
0.0
  9
$WORLDVIEW
 70
     1
  9
$SHADEDGE
 70
     3
  9
$SHADEDIF
 70
    70
  9
$TILEMODE
 70
     1
  9
$MAXACTVP
 70
    64
  9
$PINSBASE
 10
0.0
 20
0.0
 30
0.0
  9
$PLIMCHECK
 70
     0
  9
$PEXTMIN
 10
1.0000000000E+20
 20
1.0000000000E+20
 30
1.0000000000E+20
  9
$PEXTMAX
 10
-1.0000000000E+20
 20
-1.0000000000E+20
 30
-1.0000000000E+20
  9
$PLIMMIN
 10
0.0
 20
0.0
  9
$PLIMMAX
 10
420.0
 20
297.0
  9
$UNITMODE
 70
     0
  9
$VISRETAIN
 70
     1
  9
$PLINEGEN
 70
     0
  9
$PSLTSCALE
 70
     1
  9
$TREEDEPTH
 70
  3020
  9
$CMLSTYLE
  2
Standard
  9
$CMLJUST
 70
     0
  9
$CMLSCALE
 40
20.0
  9
$PROXYGRAPHICS
 70
     1
  9
$MEASUREMENT
 70
     1
  9
$CELWEIGHT
370
    -1
  9
$ENDCAPS
280
     0
  9
$JOINSTYLE
280
     0
  9
$LWDISPLAY
290
     1
  9
$INSUNITS
 70
     4
  9
$HYPERLINKBASE
  1

  9
$STYLESHEET
  1

  9
$XEDIT
290
     1
  9
$CEPSNTYPE
380
     0
  9
$PSTYLEMODE
290
     1
  9
$FINGERPRINTGUID
  2
{FBDD0690-AABA-4D2C-B084-8B9B1FC1F95B}
  9
$VERSIONGUID
  2
{FAEB1C32-E019-11D5-929B-00C0DF256EC4}
  9
$EXTNAMES
290
     1
  9
$PSVPSCALE
 40
0.0
  9
$OLESTARTUP
290
     0
  0
ENDSEC
  0
SECTION
  2
CLASSES
  0
CLASS
  1
ACDBDICTIONARYWDFLT
  2
AcDbDictionaryWithDefault
  3
ObjectDBX Classes
 90
        0
280
     0
281
     0
  0
CLASS
  1
VISUALSTYLE
  2
AcDbVisualStyle
  3
ObjectDBX Classes
 90
     4095
280
     0
281
     0
  0
CLASS
  1
MATERIAL
  2
AcDbMaterial
  3
ObjectDBX Classes
 90
     1153
280
     0
281
     0
  0
CLASS
  1
ACDBPLACEHOLDER
  2
AcDbPlaceHolder
  3
ObjectDBX Classes
 90
        0
280
     0
281
     0
  0
CLASS
  1
LAYOUT
  2
AcDbLayout
  3
ObjectDBX Classes
 90
        0
280
     0
281
     0
  0
ENDSEC
  0
SECTION
  2
TABLES
  0
TABLE
  2
VPORT
  5
8
330
0
100
AcDbSymbolTable
 70
     1
  0
VPORT
  5
29
330
8
100
AcDbSymbolTableRecord
100
AcDbViewportTableRecord
  2
*Active
 70
     0
 10
0.0
 20
0.0
 11
1.0
 21
1.0
 12
2500.0
 22
2500.0
 13
0.0
 23
0.0
 14
10.0
 24
10.0
 15
10.0
 25
10.0
 16
0.0
 26
0.0
 36
1.0
 17
0.0
 27
0.0
 37
0.0
 40
5000.0
 41
1.0
 42
50.0
 43
0.0
 44
0.0
 50
0.0
 51
0.0
 71
     0
 72
  2000
 73
     1
 74
     3
 75
     0
 76
     0
 77
     0
 78
     0
281
     0
 65
     1
110
0.0
120
0.0
130
0.0
111
1.0
121
0.0
131
0.0
112
0.0
122
1.0
132
0.0
 79
     0
146
0.0
  0
ENDTAB
  0
TABLE
  2
LTYPE
  5
5
330
0
100
AcDbSymbolTable
 70
     6
  0
LTYPE
  5
14
330
5
100
AcDbSymbolTableRecord
100
AcDbLinetypeTableRecord
  2
ByBlock
 70
     0
  3

 72
    65
 73
     0
 40
0.0
  0
LTYPE
  5
15
330
5
100
AcDbSymbolTableRecord
100
AcDbLinetypeTableRecord
  2
ByLayer
 70
     0
  3

 72
    65
 73
     0
 40
0.0
  0
LTYPE
  5
16
330
5
100
AcDbSymbolTableRecord
100
AcDbLinetypeTableRecord
  2
Continuous
 70
     0
  3
Solid line
 72
    65
 73
     0
 40
0.0
  0
LTYPE
  5
3F
330
5
100
AcDbSymbolTableRecord
100
AcDbLinetypeTableRecord
  2
HIDDEN
 70
     0
  3
Hidden __ __ __ __ __ __ __ __ __ __ __ __ __ __
 72
    65
 73
     2
 40
1.905
 49
1.27
 74
     0
 49
-0.635
 74
     0
  0
LTYPE
  5
40
330
5
100
AcDbSymbolTableRecord
100
AcDbLinetypeTableRecord
  2
PHANTOM
 70
     0
  3
Phantom ______  __  __  ______  __  __  ______
 72
    65
 73
     6
 40
12.7
 49
6.35
 74
     0
 49
-1.27
 74
     0
 49
1.27
 74
     0
 49
-1.27
 74
     0
 49
1.27
 74
     0
 49
-1.27
 74
     0
  0
LTYPE
  5
41
330
5
100
AcDbSymbolTableRecord
100
AcDbLinetypeTableRecord
  2
CENTER
 70
     0
  3
Center ____ _ ____ _ ____ _ ____ _ ____ _ ____
 72
    65
 73
     4
 40
10.16
 49
6.35
 74
     0
 49
-1.27
 74
     0
 49
1.27
 74
     0
 49
-1.27
 74
     0
  0
LTYPE
  5
42
330
5
100
AcDbSymbolTableRecord
100
AcDbLinetypeTableRecord
  2
CENTERX2
 70
     0
  3
Center (2x) ________  __  ________  __  _____
 72
    65
 73
     4
 40
20.32
 49
12.7
 74
     0
 49
-2.54
 74
     0
 49
2.54
 74
     0
 49
-2.54
 74
     0
  0
LTYPE
  5
43
330
5
100
AcDbSymbolTableRecord
100
AcDbLinetypeTableRecord
  2
DOT2
 70
     0
  3
Dot (.5x) ........................................
 72
    65
 73
     2
 40
0.635
 49
0.0
 74
     0
 49
-0.635
 74
     0
  0
ENDTAB
  0
TABLE
  2
LAYER
  5
2
330
0
100
AcDbSymbolTable
 70
     1
  0
LAYER
  5
10
330
2
100
AcDbSymbolTableRecord
100
AcDbLayerTableRecord
  2
0
 70
     0
 62
     7
  6
Continuous
370
    -3
390
F
  0
ENDTAB
  0
TABLE
  2
STYLE
  5
3
330
0
100
AcDbSymbolTable
 70
     1
  0
STYLE
  5
11
330
3
100
AcDbSymbolTableRecord
100
AcDbTextStyleTableRecord
  2
Standard
 70
     0
 40
0.0
 41
1.0
 50
0.0
 71
     0
 42
3.5
  3
txt
  4

  0
ENDTAB
  0
TABLE
  2
VIEW
  5
6
330
0
100
AcDbSymbolTable
 70
     0
  0
ENDTAB
  0
TABLE
  2
UCS
  5
7
330
0
100
AcDbSymbolTable
 70
     0
  0
ENDTAB
  0
TABLE
  2
APPID
  5
9
330
0
100
AcDbSymbolTable
 70
     1
  0
APPID
  5
12
330
9
100
AcDbSymbolTableRecord
100
AcDbRegAppTableRecord
  2
ACAD
 70
     0
  0
ENDTAB
  0
TABLE
  2
DIMSTYLE
  5
A
330
0
100
AcDbSymbolTable
 70
     1
100
AcDbDimStyleTable
  0
DIMSTYLE
105
27
330
A
100
AcDbSymbolTableRecord
100
AcDbDimStyleTableRecord
  2
ISO-25
 70
     0
 41
2.5
 42
0.625
 43
3.75
 44
1.25
 73
     0
 74
     0
 77
     1
 78
     8
140
2.5
141
2.5
143
0.0393700787
147
0.625
171
     3
172
     1
178
     0
271
     2
272
     2
274
     3
278
    44
283
     0
284
     8
340
11
  0
ENDTAB
  0
TABLE
  2
BLOCK_RECORD
  5
1
330
0
100
AcDbSymbolTable
 70
     1
  0
BLOCK_RECORD
  5
1F
330
1
100
AcDbSymbolTableRecord
100
AcDbBlockTableRecord
  2
*Model_Space
340
22
  0
BLOCK_RECORD
  5
1B
330
1
100
AcDbSymbolTableRecord
100
AcDbBlockTableRecord
  2
*Paper_Space
340
1E
  0
BLOCK_RECORD
  5
23
330
1
100
AcDbSymbolTableRecord
100
AcDbBlockTableRecord
  2
*Paper_Space0
340
26
  0
ENDTAB
  0
ENDSEC
  0
SECTION
  2
BLOCKS
  0
BLOCK
  5
20
330
1F
100
AcDbEntity
  8
0
100
AcDbBlockBegin
  2
*Model_Space
 70
     0
 10
0.0
 20
0.0
 30
0.0
  3
*Model_Space
  1

  0
ENDBLK
  5
21
330
1F
100
AcDbEntity
  8
0
100
AcDbBlockEnd
  0
BLOCK
  5
1C
330
1B
100
AcDbEntity
 67
     1
  8
0
100
AcDbBlockBegin
  2
*Paper_Space
 70
     0
 10
0.0
 20
0.0
 30
0.0
  3
*Paper_Space
  1

  0
ENDBLK
  5
1D
330
1B
100
AcDbEntity
 67
     1
  8
0
100
AcDbBlockEnd
  0
BLOCK
  5
24
330
23
100
AcDbEntity
  8
0
100
AcDbBlockBegin
  2
*Paper_Space0
 70
     0
 10
0.0
 20
0.0
 30
0.0
  3
*Paper_Space0
  1

  0
ENDBLK
  5
25
330
23
100
AcDbEntity
  8
0
100
AcDbBlockEnd
  0
ENDSEC
  0
SECTION
  2
ENTITIES
  0
ARC
  5
44
330
1F
100
AcDbEntity
  8
0
  6
Continuous
 62
     7
370
    15
100
AcDbCircle
 10
3638.3398803899
 20
253.9754334874
 30
0.0
 40
0.4984337720213787
100
AcDbArc
 50
359.8199313613
 51
90.0459762525
  0
ARC
  5
45
330
1F
100
AcDbEntity
  8
0
  6
Continuous
 62
     7
370
    15
100
AcDbCircle
 10
1739.3390318292
 20
253.9754334874
 30
0.0
 40
0.4984337720213781
100
AcDbArc
 50
89.9540237474
 51
180.1800686387
  0
LINE
  5
46
330
1F
100
AcDbEntity
  8
0
  6
Continuous
 62
     7
370
    15
100
AcDbLine
 10
1739.3394317908
 20
254.4738670989
 30
0.0
 11
3638.3394804282
 21
254.4738670989
 31
0.0
  0
LINE
  5
47
330
1F
100
AcDbEntity
  8
0
  6
Continuous
 62
     7
370
    15
100
AcDbLine
 10
3638.8383117003
 20
236.6738666027
 30
0.0
 11
3638.8383117003
 21
253.973867017
 31
0.0
  0
LINE
  5
48
330
1F
100
AcDbEntity
  8
0
  6
Continuous
 62
     7
370
    15
100
AcDbLine
 10
1738.8406005187
 20
236.6738666027
 30
0.0
 11
1738.8406005187
 21
253.973867017
 31
0.0
  0
ARC
  5
49
330
1F
100
AcDbEntity
  8
0
  6
Continuous
 62
     7
370
    15
100
AcDbCircle
 10
3638.3398803899
 20
236.6723001323
 30
0.0
 40
0.4984337720214063
100
AcDbArc
 50
269.9540237475
 51
0.1800686387
  0
LINE
  5
4A
330
1F
100
AcDbEntity
  8
0
  6
Continuous
 62
     7
370
    15
100
AcDbLine
 10
3638.3394804282
 20
236.1738665208
 30
0.0
 11
1739.3394317908
 21
236.1738665208
 31
0.0
  0
ARC
  5
4B
330
1F
100
AcDbEntity
  8
0
  6
Continuous
 62
     7
370
    15
100
AcDbCircle
 10
1739.3390318292
 20
236.6723001323
 30
0.0
 40
0.4984337720214065
100
AcDbArc
 50
179.8199313613
 51
270.0459762526
  0
ARC
  5
4C
330
1F
100
AcDbEntity
  8
0
  6
Continuous
 62
     7
370
    15
100
AcDbCircle
 10
3638.4382845519
 20
2303.5302695268
 30
0.0
 40
0.5000479973441698
100
AcDbArc
 50
270.1320961002
 51
0.2363642345
  0
ARC
  5
4D
330
1F
100
AcDbEntity
  8
0
  6
Continuous
 62
     7
370
    15
100
AcDbCircle
 10
1739.4374924556
 20
2303.5271216734
 30
0.0
 40
0.4969026645249501
100
AcDbArc
 50
179.3991633925
 51
270.2255306341
  0
LWPOLYLINE
  5
4E
330
1F
100
AcDbEntity
  8
0
  6
Continuous
 62
     7
370
    15
100
AcDbPolyline
 90
       78
 70
   128
 43
0.0
 10
1738.9406171126
 20
2303.532332386
 10
1739.3450942321
 20
2312.5142755165
 10
1740.4641118331
 20
2321.4356603279
 10
1742.4417939467
 20
2330.883473362
 10
1745.1756801886
 20
2340.1705922737
 10
1748.5959139151
 20
2349.2343129768
 10
1752.6326980872
 20
2358.0119313851
 10
1758.4830131812
 20
2368.6141671791
 10
1765.109917192
 20
2378.7896337166
 10
1772.4034395499
 20
2388.5309400215
 10
1780.2535500808
 20
2397.8311719551
 10
1788.5504570289
 20
2406.6827001228
 10
1802.2369947715
 20
2419.7096528664
 10
1816.7205062194
 20
2431.8983258858
 10
1831.8747487349
 20
2443.3099927559
 10
1847.5735988898
 20
2454.0054502144
 10
1863.6909332557
 20
2464.0462102547
 10
1880.1006284041
 20
2473.493308033
 10
1905.0901141448
 20
2486.6690339699
 10
1930.6134190841
 20
2498.8329114571
 10
1956.5767255111
 20
2510.0757779732
 10
1982.886036901
 20
2520.4882325783
 10
2009.4476547522
 20
2530.1608743324
 10
2043.6665621085
 20
2541.5620507851
 10
2078.2101359649
 20
2551.9835652962
 10
2113.0172815604
 20
2561.504572834
 10
2148.0269041343
 20
2570.2039899483
 10
2151.515563993
 20
2571.0265340462
 10
2165.4874887748
 20
2574.2439927712
 10
2193.5122218413
 20
2580.3365411415
 10
2221.6287460608
 20
2585.9908761635
 10
2266.8426242156
 20
2594.1955747261
 10
2312.2402932925
 20
2601.4032067909
 10
2357.7863481326
 20
2607.6600255623
 10
2403.4452643676
 20
2613.0132379189
 10
2449.1816070361
 20
2617.5095739021
 10
2509.0091582818
 20
2622.1527757301
 10
2568.9418223185
 20
2625.436037983
 10
2628.9338488562
 20
2627.3860635414
 10
2688.939456107
 20
2628.0300321236
 10
2742.5083015544
 20
2627.516001667
 10
2796.0674222989
 20
2625.9627046242
 10
2849.5848086162
 20
2623.3529748573
 10
2903.0284639878
 20
2619.6698846474
 10
2954.3099906726
 20
2615.094870533
 10
3005.4910090251
 20
2609.4588937416
 10
3056.5312114043
 20
2602.7142705574
 10
3094.7137382312
 20
2596.8944730415
 10
3132.7913310809
 20
2590.3825463905
 10
3170.7344856543
 20
2583.1365289345
 10
3208.513578443
 20
2575.1151742592
 10
3246.9620313926
 20
2566.061705555
 10
3285.1897683425
 20
2556.0619535103
 10
3323.123773603
 20
2545.0198354378
 10
3360.6909122748
 20
2532.8397454872
 10
3387.2615304274
 20
2523.4002771034
 10
3413.615366487
 20
2513.2493676796
 10
3439.6511521621
 20
2502.2921266213
 10
3465.2674999518
 20
2490.4341401711
 10
3490.3630223555
 20
2477.5800408974
 10
3514.8362722678
 20
2463.6354150429
 10
3528.8660731597
 20
2454.8902215614
 10
3542.6064338965
 20
2445.653885807
 10
3555.971166162
 20
2435.8842076912
 10
3568.8742604537
 20
2425.5399407997
 10
3581.2295284552
 20
2414.5786466255
 10
3590.4433336539
 20
2405.545205082
 10
3599.2188062949
 20
2396.0320653572
 10
3607.4383464141
 20
2386.0370816841
 10
3614.9845924659
 20
2375.5581082955
 10
3621.7398848815
 20
2364.5932378426
 10
3626.6042795463
 20
2355.2157582893
 10
3630.7861414237
 20
2345.4801740303
 10
3634.1909375472
 20
2335.4561032906
 10
3636.7239561362
 20
2325.2131642952
 10
3638.0463447852
 20
2317.1138467445
 10
3638.7823429389
 20
2308.9406194344
 10
3638.9383282943
 20
2303.532332386
  0
LINE
  5
4F
330
1F
100
AcDbEntity
  8
0
  6
Continuous
 62
     7
370
    15
100
AcDbLine
 10
3638.4383049292
 20
2303.0302228584
 30
0.0
 11
3552.7894702239
 21
2303.0302228584
 31
0.0
  0
ARC
  5
50
330
1F
100
AcDbEntity
  8
0
  6
Continuous
 62
     7
370
    15
100
AcDbCircle
 10
3543.5394561095
 20
2374.0033188573
 30
0.0
 40
9.25
100
AcDbArc
 50
0.0
 51
180.0
  0
LINE
  5
51
330
1F
100
AcDbEntity
  8
0
  6
Continuous
 62
     7
370
    15
100
AcDbLine
 10
3534.2894401832
 20
2374.0033807411
 30
0.0
 11
3534.2894401832
 21
2303.0302228584
 31
0.0
  0
LINE
  5
52
330
1F
100
AcDbEntity
  8
0
  6
Continuous
 62
     7
370
    15
100
AcDbLine
 10
3534.2894401832
 20
2303.0302228584
 30
0.0
 11
3324.489435224
 21
2303.0302228584
 31
0.0
  0
LINE
  5
53
330
1F
100
AcDbEntity
  8
0
  6
Continuous
 62
     7
370
    15
100
AcDbLine
 10
3324.489435224
 20
2425.2159299507
 30
0.0
 11
3324.489435224
 21
2303.0302228584
 31
0.0
  0
ARC
  5
54
330
1F
100
AcDbEntity
  8
0
  6
Continuous
 62
     7
370
    15
100
AcDbCircle
 10
3315.2394561095
 20
2425.2158595894
 30
0.0
 40
9.250000000000455
100
AcDbArc
 50
0.0
 51
180.0
  0
LINE
  5
55
330
1F
100
AcDbEntity
  8
0
  6
Continuous
 62
     7
370
    15
100
AcDbLine
 10
3305.9894647879
 20
2425.2159299507
 30
0.0
 11
3305.9894647879
 21
2303.0302228584
 31
0.0
  0
LINE
  5
56
330
1F
100
AcDbEntity
  8
0
  6
Continuous
 62
     7
370
    15
100
AcDbLine
 10
3305.9894647879
 20
2303.0302228584
 30
0.0
 11
3041.1894526763
 21
2303.0302228584
 31
0.0
  0
LINE
  5
57
330
1F
100
AcDbEntity
  8
0
  6
Continuous
 62
     7
370
    15
100
AcDbLine
 10
3041.1894526763
 20
2454.5688333168
 30
0.0
 11
3041.1894526763
 21
2303.0302228584
 31
0.0
  0
ARC
  5
58
330
1F
100
AcDbEntity
  8
0
  6
Continuous
 62
     7
370
    15
100
AcDbCircle
 10
3031.9394561095
 20
2454.5687467734
 30
0.0
 40
9.250000000000455
100
AcDbArc
 50
0.0
 51
180.0
  0
LINE
  5
59
330
1F
100
AcDbEntity
  8
0
  6
Continuous
 62
     7
370
    15
100
AcDbLine
 10
3022.6894524379
 20
2454.5688333168
 30
0.0
 11
3022.6894524379
 21
2303.0302228584
 31
0.0
  0
LINE
  5
5A
330
1F
100
AcDbEntity
  8
0
  6
Continuous
 62
     7
370
    15
100
AcDbLine
 10
2698.1894560588
 20
2465.530127491
 30
0.0
 11
2698.1894560588
 21
2303.0302228584
 31
0.0
  0
ARC
  5
5B
330
1F
100
AcDbEntity
  8
0
  6
Continuous
 62
     7
370
    15
100
AcDbCircle
 10
2688.9394561095
 20
2465.5301128113
 30
0.0
 40
9.25
100
AcDbArc
 50
0.0
 51
180.0
  0
LINE
  5
5C
330
1F
100
AcDbEntity
  8
0
  6
Continuous
 62
     7
370
    15
100
AcDbLine
 10
2355.1894631667
 20
2303.0302228584
 30
0.0
 11
2679.6894558204
 21
2303.0302228584
 31
0.0
  0
LINE
  5
5D
330
1F
100
AcDbEntity
  8
0
  6
Continuous
 62
     7
370
    15
100
AcDbLine
 10
2355.1894631667
 20
2454.5688333168
 30
0.0
 11
2355.1894631667
 21
2303.0302228584
 31
0.0
  0
ARC
  5
5E
330
1F
100
AcDbEntity
  8
0
  6
Continuous
 62
     7
370
    15
100
AcDbCircle
 10
2345.9394561095
 20
2454.5687467734
 30
0.0
 40
9.25
100
AcDbArc
 50
0.0
 51
180.0
  0
LINE
  5
5F
330
1F
100
AcDbEntity
  8
0
  6
Continuous
 62
     7
370
    15
100
AcDbLine
 10
2336.6894629283
 20
2454.5688333168
 30
0.0
 11
2336.6894629283
 21
2303.0302228584
 31
0.0
  0
LINE
  5
60
330
1F
100
AcDbEntity
  8
0
  6
Continuous
 62
     7
370
    15
100
AcDbLine
 10
2071.8894806189
 20
2303.0302228584
 30
0.0
 11
2336.6894629283
 21
2303.0302228584
 31
0.0
  0
LINE
  5
61
330
1F
100
AcDbEntity
  8
0
  6
Continuous
 62
     7
370
    15
100
AcDbLine
 10
2071.8894806189
 20
2425.2159299507
 30
0.0
 11
2071.8894806189
 21
2303.0302228584
 31
0.0
  0
ARC
  5
62
330
1F
100
AcDbEntity
  8
0
  6
Continuous
 62
     7
370
    15
100
AcDbCircle
 10
2062.6394561095
 20
2425.2158595894
 30
0.0
 40
9.250000000000455
100
AcDbArc
 50
0.0
 51
180.0
  0
LINE
  5
63
330
1F
100
AcDbEntity
  8
0
  6
Continuous
 62
     7
370
    15
100
AcDbLine
 10
1843.5894456191
 20
2303.0302228584
 30
0.0
 11
2053.3894505782
 21
2303.0302228584
 31
0.0
  0
LINE
  5
64
330
1F
100
AcDbEntity
  8
0
  6
Continuous
 62
     7
370
    15
100
AcDbLine
 10
1843.5894456191
 20
2374.0033807411
 30
0.0
 11
1843.5894456191
 21
2303.0302228584
 31
0.0
  0
ARC
  5
65
330
1F
100
AcDbEntity
  8
0
  6
Continuous
 62
     7
370
    15
100
AcDbCircle
 10
1834.3394561095
 20
2374.0033188573
 30
0.0
 40
9.25
100
AcDbArc
 50
0.0
 51
180.0
  0
LINE
  5
66
330
1F
100
AcDbEntity
  8
0
  6
Continuous
 62
     7
370
    15
100
AcDbLine
 10
1739.440580873
 20
2303.0302228584
 30
0.0
 11
1825.089475183
 21
2303.0302228584
 31
0.0
  0
LINE
  5
67
330
1F
100
AcDbEntity
  8
0
  6
Continuous
 62
     7
370
    15
100
AcDbLine
 10
3552.7894702239
 20
2374.0033807411
 30
0.0
 11
3552.7894702239
 21
2303.0302228584
 31
0.0
  0
LINE
  5
68
330
1F
100
AcDbEntity
  8
0
  6
Continuous
 62
     7
370
    15
100
AcDbLine
 10
2679.6894558204
 20
2465.530127491
 30
0.0
 11
2679.6894558204
 21
2303.0302228584
 31
0.0
  0
LINE
  5
69
330
1F
100
AcDbEntity
  8
0
  6
Continuous
 62
     7
370
    15
100
AcDbLine
 10
3022.6894524379
 20
2303.0302228584
 30
0.0
 11
2698.1894560588
 21
2303.0302228584
 31
0.0
  0
LINE
  5
6A
330
1F
100
AcDbEntity
  8
0
  6
Continuous
 62
     7
370
    15
100
AcDbLine
 10
1825.089475183
 20
2374.0033807411
 30
0.0
 11
1825.089475183
 21
2303.0302228584
 31
0.0
  0
LINE
  5
6B
330
1F
100
AcDbEntity
  8
0
  6
Continuous
 62
     7
370
    15
100
AcDbLine
 10
2053.3894505782
 20
2425.2159299507
 30
0.0
 11
2053.3894505782
 21
2303.0302228584
 31
0.0
  0
LINE
  5
6C
330
1F
100
AcDbEntity
  8
0
  6
Continuous
 62
     7
370
    15
100
AcDbLine
 10
1739.4394483848
 20
2303.0302228584
 30
0.0
 11
1739.440580873
 21
2303.0302228584
 31
0.0
  0
LINE
  5
6D
330
1F
100
AcDbEntity
  8
0
  6
Continuous
 62
     7
370
    15
100
AcDbLine
 10
3638.4394374175
 20
2303.0302228584
 30
0.0
 11
3638.4383049292
 21
2303.0302228584
 31
0.0
  0
LINE
  5
6E
330
1F
100
AcDbEntity
  8
0
  6
Continuous
 62
     7
370
    15
100
AcDbLine
 10
1967.3592057509
 20
-390.4261288986
 30
0.0
 11
2688.8394561095
 21
-390.4261288986
 31
0.0
  0
ARC
  5
6F
330
1F
100
AcDbEntity
  8
0
  6
Continuous
 62
     7
370
    15
100
AcDbCircle
 10
1967.3587318779
 20
-389.9280658902
 30
0.0
 40
0.4980632338275234
100
AcDbArc
 50
179.7744855609
 51
270.0545130155
  0
ARC
  5
70
330
1F
100
AcDbEntity
  8
0
  6
Continuous
 62
     7
370
    15
100
AcDbCircle
 10
3410.3201803411
 20
-389.9280658902
 30
0.0
 40
0.4980632338278707
100
AcDbArc
 50
269.9454869845
 51
0.2255144391
  0
LINE
  5
71
330
1F
100
AcDbEntity
  8
0
  6
Continuous
 62
     7
370
    15
100
AcDbLine
 10
3410.3197064681
 20
-390.4261288986
 30
0.0
 11
2688.8394561095
 21
-390.4261288986
 31
0.0
  0
LINE
  5
72
330
1F
100
AcDbEntity
  8
0
  6
Continuous
 62
     7
370
    15
100
AcDbLine
 10
1966.860672502
 20
-389.9261055336
 30
0.0
 11
1966.860672502
 21
-372.6261554108
 31
0.0
  0
LINE
  5
73
330
1F
100
AcDbEntity
  8
0
  6
Continuous
 62
     7
370
    15
100
AcDbLine
 10
3410.818239717
 20
-389.9261055336
 30
0.0
 11
3410.818239717
 21
-372.6261554108
 31
0.0
  0
ARC
  5
74
330
1F
100
AcDbEntity
  8
0
  6
Continuous
 62
     7
370
    15
100
AcDbCircle
 10
1967.3587318779
 20
-372.6241950541
 30
0.0
 40
0.4980632338275802
100
AcDbArc
 50
89.9454869845
 51
180.2255144391
  0
LINE
  5
75
330
1F
100
AcDbEntity
  8
0
  6
Continuous
 62
     7
370
    15
100
AcDbLine
 10
2688.8394561095
 20
-372.1261320457
 30
0.0
 11
1967.3592057509
 21
-372.1261320457
 31
0.0
  0
LINE
  5
76
330
1F
100
AcDbEntity
  8
0
  6
Continuous
 62
     7
370
    15
100
AcDbLine
 10
2688.8394561095
 20
-372.1261320457
 30
0.0
 11
3410.3197064681
 21
-372.1261320457
 31
0.0
  0
ARC
  5
77
330
1F
100
AcDbEntity
  8
0
  6
Continuous
 62
     7
370
    15
100
AcDbCircle
 10
3410.3201803411
 20
-372.6241950541
 30
0.0
 40
0.4980632338275807
100
AcDbArc
 50
359.7744855609
 51
90.0545130156
  0
ARC
  5
78
330
1F
100
AcDbEntity
  8
0
  6
Continuous
 62
     7
370
    15
100
AcDbCircle
 10
1967.4610412932
 20
1565.1578949195
 30
0.0
 40
0.5003588923385076
100
AcDbArc
 50
179.7036018923
 51
269.791712919
  0
LWPOLYLINE
  5
79
330
1F
100
AcDbEntity
  8
0
  6
Continuous
 62
     7
370
    15
100
AcDbPolyline
 90
       35
 70
   128
 43
0.0
 10
2688.939456107
 20
1811.650723423
 10
2657.2497394366
 20
1811.4132585182
 10
2625.5672257824
 20
1810.6981219902
 10
2583.3207723184
 20
1808.9970054283
 10
2541.109001307
 20
1806.4237537041
 10
2498.9629444165
 20
1802.9502334252
 10
2456.9136407657
 20
1798.5484304085
 10
2414.6105256362
 20
1793.134302105
 10
2372.4402394576
 20
1786.6682710304
 10
2330.4651584906
 20
1779.06391045
 10
2288.7475397868
 20
1770.2345552101
 10
2261.7266681476
 20
1763.7735309258
 10
2234.8531391902
 20
1756.6911878243
 10
2208.1711497588
 20
1748.9294709816
 10
2181.7248668952
 20
1740.4306831017
 10
2160.430809526
 20
1732.9414786949
 10
2139.3327322287
 20
1724.8550357475
 10
2118.5068097396
 20
1716.0961331978
 10
2098.0290379805
 20
1706.5891923561
 10
2077.975710897
 20
1696.2586345329
 10
2063.2819738669
 20
1687.9324617043
 10
2048.9046182914
 20
1678.9948644295
 10
2034.9838342948
 20
1669.3724097862
 10
2021.6597523971
 20
1658.99202248
 10
2009.0726223273
 20
1647.7805080071
 10
2001.7683115287
 20
1640.4276790276
 10
1994.8665705008
 20
1632.6697768822
 10
1988.4698596282
 20
1624.5025100365
 10
1982.6808777137
 20
1615.9213485375
 10
1978.4057941718
 20
1608.4519328728
 10
1974.6833648963
 20
1600.6622018471
 10
1971.6032352729
 20
1592.6066341057
 10
1969.2551102919
 20
1584.3399467125
 10
1967.5728287978
 20
1574.8135747566
 10
1966.960689096
 20
1565.160483326
  0
ARC
  5
7A
330
1F
100
AcDbEntity
  8
0
  6
Continuous
 62
     7
370
    15
100
AcDbCircle
 10
3410.4209326176
 20
1565.1548340401
 30
0.0
 40
0.4972961777171089
100
AcDbArc
 50
269.8606414081
 51
0.6508942052
  0
LWPOLYLINE
  5
7B
330
1F
100
AcDbEntity
  8
0
  6
Continuous
 62
     7
370
    15
100
AcDbPolyline
 90
       35
 70
   128
 43
0.0
 10
2688.939456107
 20
1811.650723423
 10
2720.6291724427
 20
1811.4132585182
 10
2752.3116823716
 20
1810.6981219902
 10
2794.5581432862
 20
1808.9970054283
 10
2836.7699142976
 20
1806.4237537041
 10
2878.9159711881
 20
1802.9502334252
 10
2920.9652748389
 20
1798.5484304085
 10
2963.2683899684
 20
1793.134302105
 10
3005.438676147
 20
1786.6682710304
 10
3047.4137571139
 20
1779.06391045
 10
3089.1313758178
 20
1770.2345552101
 10
3116.152247457
 20
1763.7735309258
 10
3143.0257764144
 20
1756.6911878243
 10
3169.7077658458
 20
1748.9294709816
 10
3196.1540785117
 20
1740.4306831017
 10
3217.4480762763
 20
1732.9414786949
 10
3238.5461535735
 20
1724.8550357475
 10
3259.3721356673
 20
1716.0961331978
 10
3279.8498478217
 20
1706.5891923561
 10
3299.9032345099
 20
1696.2586345329
 10
3314.5969119353
 20
1687.9324617043
 10
3328.9742675109
 20
1678.9948644295
 10
3342.8951111121
 20
1669.3724097862
 10
3356.2191334052
 20
1658.99202248
 10
3368.8062634749
 20
1647.7805080071
 10
3376.1105742736
 20
1640.4276790276
 10
3383.0123749061
 20
1632.6697768822
 10
3389.4090857787
 20
1624.5025100365
 10
3395.1980080886
 20
1615.9213485375
 10
3399.4730916304
 20
1608.4519328728
 10
3403.195520906
 20
1600.6622018471
 10
3406.2756505294
 20
1592.6066341057
 10
3408.6237755103
 20
1584.3399467125
 10
3410.3060570044
 20
1574.8135747566
 10
3410.9181967063
 20
1565.160483326
  0
ARC
  5
7C
330
1F
100
AcDbEntity
  8
0
  6
Continuous
 62
     7
370
    15
100
AcDbCircle
 10
3315.2394561095
 20
1626.0946692158
 30
0.0
 40
9.25
100
AcDbArc
 50
0.0
 51
180.0
  0
LINE
  5
7D
330
1F
100
AcDbEntity
  8
0
  6
Continuous
 62
     7
370
    15
100
AcDbLine
 10
3305.9894647879
 20
1564.6575393334
 30
0.0
 11
3041.1894526763
 21
1564.6575393334
 31
0.0
  0
LINE
  5
7E
330
1F
100
AcDbEntity
  8
0
  6
Continuous
 62
     7
370
    15
100
AcDbLine
 10
3041.1894526763
 20
1673.3272971764
 30
0.0
 11
3041.1894526763
 21
1564.6575393334
 31
0.0
  0
LINE
  5
7F
330
1F
100
AcDbEntity
  8
0
  6
Continuous
 62
     7
370
    15
100
AcDbLine
 10
3022.6894524379
 20
1673.3272971764
 30
0.0
 11
3022.6894524379
 21
1564.6575393334
 31
0.0
  0
LINE
  5
80
330
1F
100
AcDbEntity
  8
0
  6
Continuous
 62
     7
370
    15
100
AcDbLine
 10
3022.6894524379
 20
1564.6575393334
 30
0.0
 11
2698.1894560588
 21
1564.6575393334
 31
0.0
  0
LINE
  5
81
330
1F
100
AcDbEntity
  8
0
  6
Continuous
 62
     7
370
    15
100
AcDbLine
 10
2698.1894560588
 20
1688.1541909828
 30
0.0
 11
2698.1894560588
 21
1564.6575393334
 31
0.0
  0
ARC
  5
82
330
1F
100
AcDbEntity
  8
0
  6
Continuous
 62
     7
370
    15
100
AcDbCircle
 10
2688.9394561095
 20
1688.1541451081
 30
0.0
 40
9.25
100
AcDbArc
 50
0.0
 51
180.0
  0
LINE
  5
83
330
1F
100
AcDbEntity
  8
0
  6
Continuous
 62
     7
370
    15
100
AcDbLine
 10
2679.6894558204
 20
1688.1541909828
 30
0.0
 11
2679.6894558204
 21
1564.6575393334
 31
0.0
  0
LINE
  5
84
330
1F
100
AcDbEntity
  8
0
  6
Continuous
 62
     7
370
    15
100
AcDbLine
 10
2355.1894631667
 20
1564.6575393334
 30
0.0
 11
2679.6894558204
 21
1564.6575393334
 31
0.0
  0
LINE
  5
85
330
1F
100
AcDbEntity
  8
0
  6
Continuous
 62
     7
370
    15
100
AcDbLine
 10
2355.1894631667
 20
1673.3272971764
 30
0.0
 11
2355.1894631667
 21
1564.6575393334
 31
0.0
  0
LINE
  5
86
330
1F
100
AcDbEntity
  8
0
  6
Continuous
 62
     7
370
    15
100
AcDbLine
 10
2336.6894629283
 20
1673.3272971764
 30
0.0
 11
2336.6894629283
 21
1564.6575393334
 31
0.0
  0
LINE
  5
87
330
1F
100
AcDbEntity
  8
0
  6
Continuous
 62
     7
370
    15
100
AcDbLine
 10
2071.8894806189
 20
1564.6575393334
 30
0.0
 11
2336.6894629283
 21
1564.6575393334
 31
0.0
  0
LINE
  5
88
330
1F
100
AcDbEntity
  8
0
  6
Continuous
 62
     7
370
    15
100
AcDbLine
 10
2053.3894505782
 20
1626.0946693077
 30
0.0
 11
2053.3894505782
 21
1564.6575393334
 31
0.0
  0
LINE
  5
89
330
1F
100
AcDbEntity
  8
0
  6
Continuous
 62
     7
370
    15
100
AcDbLine
 10
1967.4606528563
 20
1564.6575393334
 30
0.0
 11
2053.3894505782
 21
1564.6575393334
 31
0.0
  0
ARC
  5
8A
330
1F
100
AcDbEntity
  8
0
  6
Continuous
 62
     7
370
    15
100
AcDbCircle
 10
3031.9394561095
 20
1673.3273341261
 30
0.0
 40
9.250000000000455
100
AcDbArc
 50
0.0
 51
180.0
  0
ARC
  5
8B
330
1F
100
AcDbEntity
  8
0
  6
Continuous
 62
     7
370
    15
100
AcDbCircle
 10
2345.9394561095
 20
1673.3273341261
 30
0.0
 40
9.25
100
AcDbArc
 50
0.0
 51
180.0
  0
LINE
  5
8C
330
1F
100
AcDbEntity
  8
0
  6
Continuous
 62
     7
370
    15
100
AcDbLine
 10
3410.4182329459
 20
1564.6575393334
 30
0.0
 11
3324.489435224
 21
1564.6575393334
 31
0.0
  0
ARC
  5
8D
330
1F
100
AcDbEntity
  8
0
  6
Continuous
 62
     7
370
    15
100
AcDbCircle
 10
2062.6394561095
 20
1626.0946692158
 30
0.0
 40
9.25
100
AcDbArc
 50
0.0
 51
180.0
  0
LINE
  5
8E
330
1F
100
AcDbEntity
  8
0
  6
Continuous
 62
     7
370
    15
100
AcDbLine
 10
2071.8894806189
 20
1626.0946693077
 30
0.0
 11
2071.8894806189
 21
1564.6575393334
 31
0.0
  0
LINE
  5
8F
330
1F
100
AcDbEntity
  8
0
  6
Continuous
 62
     7
370
    15
100
AcDbLine
 10
3324.489435224
 20
1626.0946693077
 30
0.0
 11
3324.489435224
 21
1564.6575393334
 31
0.0
  0
LINE
  5
90
330
1F
100
AcDbEntity
  8
0
  6
Continuous
 62
     7
370
    15
100
AcDbLine
 10
3305.9894647879
 20
1626.0946693077
 30
0.0
 11
3305.9894647879
 21
1564.6575393334
 31
0.0
  0
LINE
  5
91
330
1F
100
AcDbEntity
  8
0
  6
Continuous
 62
     7
370
    15
100
AcDbLine
 10
3410.419723062
 20
1564.6575393334
 30
0.0
 11
3410.4182329459
 21
1564.6575393334
 31
0.0
  0
LINE
  5
92
330
1F
100
AcDbEntity
  8
0
  6
Continuous
 62
     7
370
    15
100
AcDbLine
 10
1967.4592223449
 20
1564.6575393334
 30
0.0
 11
1967.4606528563
 21
1564.6575393334
 31
0.0
  0
LWPOLYLINE
  5
93
330
1F
100
AcDbEntity
  8
0
  6
Continuous
 62
     7
370
    15
100
AcDbPolyline
 90
       35
 70
   128
 43
0.0
 10
2688.939456107
 20
3478.2933892861
 10
2720.6291724427
 20
3478.0559243813
 10
2752.3116823716
 20
3477.3409070625
 10
2794.5581432862
 20
3475.6397905007
 10
2836.7699142976
 20
3473.0665387764
 10
2878.9159711881
 20
3469.5930184975
 10
2920.9652748389
 20
3465.1910962715
 10
2963.2683899684
 20
3459.7770871773
 10
3005.438676147
 20
3453.3109368935
 10
3047.4137571139
 20
3445.706576313
 10
3089.1313758178
 20
3436.8772210732
 10
3116.152247457
 20
3430.4163159981
 10
3143.0257764144
 20
3423.3338536873
 10
3169.7077658458
 20
3415.5721368446
 10
3196.1540785117
 20
3407.073468174
 10
3217.4480762763
 20
3399.5840253487
 10
3238.5461535735
 20
3391.4978208199
 10
3259.3721356673
 20
3382.7387990608
 10
3279.8498478217
 20
3373.2318582192
 10
3299.9032345099
 20
3362.9014196053
 10
3314.5969119353
 20
3354.5751275673
 10
3328.9742675109
 20
3345.6375302925
 10
3342.8951111121
 20
3336.01495644
 10
3356.2191334052
 20
3325.6346883431
 10
3368.8062634749
 20
3314.4232930794
 10
3376.1105742736
 20
3307.0704640999
 10
3383.0123749061
 20
3299.3125619545
 10
3389.4090857787
 20
3291.1452951088
 10
3395.1980080886
 20
3282.5641336098
 10
3399.4730916304
 20
3275.0947179451
 10
3403.195520906
 20
3267.3048677101
 10
3406.2756505294
 20
3259.249419178
 10
3408.6237755103
 20
3250.9827317848
 10
3410.3060570044
 20
3241.4562406197
 10
3410.9181967063
 20
3231.803149189
  0
ARC
  5
94
330
1F
100
AcDbEntity
  8
0
  6
Continuous
 62
     7
370
    15
100
AcDbCircle
 10
3410.4213008004
 20
3231.7972527904
 30
0.0
 40
0.4969308893821737
100
AcDbArc
 50
269.8180875801
 51
0.6798665334
  0
ARC
  5
95
330
1F
100
AcDbEntity
  8
0
  6
Continuous
 62
     7
370
    15
100
AcDbCircle
 10
1967.4607876348
 20
3231.8004278988
 30
0.0
 40
0.5001059427132224
100
AcDbArc
 50
179.6882276309
 51
269.8206686943
  0
LWPOLYLINE
  5
96
330
1F
100
AcDbEntity
  8
0
  6
Continuous
 62
     7
370
    15
100
AcDbPolyline
 90
       35
 70
   128
 43
0.0
 10
2688.939456107
 20
3478.2933892861
 10
2657.2497394366
 20
3478.0559243813
 10
2625.5672257824
 20
3477.3409070625
 10
2583.3207723184
 20
3475.6397905007
 10
2541.109001307
 20
3473.0665387764
 10
2498.9629444165
 20
3469.5930184975
 10
2456.9136407657
 20
3465.1910962715
 10
2414.6105256362
 20
3459.7770871773
 10
2372.4402394576
 20
3453.3109368935
 10
2330.4651584906
 20
3445.706576313
 10
2288.7475397868
 20
3436.8772210732
 10
2261.7266681476
 20
3430.4163159981
 10
2234.8531391902
 20
3423.3338536873
 10
2208.1711497588
 20
3415.5721368446
 10
2181.7248668952
 20
3407.073468174
 10
2160.430809526
 20
3399.5840253487
 10
2139.3327322287
 20
3391.4978208199
 10
2118.5068097396
 20
3382.7387990608
 10
2098.0290379805
 20
3373.2318582192
 10
2077.975710897
 20
3362.9014196053
 10
2063.2819738669
 20
3354.5751275673
 10
2048.9046182914
 20
3345.6375302925
 10
2034.9838342948
 20
3336.01495644
 10
2021.6597523971
 20
3325.6346883431
 10
2009.0726223273
 20
3314.4232930794
 10
2001.7683115287
 20
3307.0704640999
 10
1994.8665705008
 20
3299.3125619545
 10
1988.4698596282
 20
3291.1452951088
 10
1982.6808777137
 20
3282.5641336098
 10
1978.4057941718
 20
3275.0947179451
 10
1974.6833648963
 20
3267.3048677101
 10
1971.6032352729
 20
3259.249419178
 10
1969.2551102919
 20
3250.9827317848
 10
1967.5728287978
 20
3241.4562406197
 10
1966.960689096
 20
3231.803149189
  0
LINE
  5
97
330
1F
100
AcDbEntity
  8
0
  6
Continuous
 62
     7
370
    15
100
AcDbLine
 10
3410.4182329459
 20
3231.3003244057
 30
0.0
 11
3324.489435224
 21
3231.3003244057
 31
0.0
  0
LINE
  5
98
330
1F
100
AcDbEntity
  8
0
  6
Continuous
 62
     7
370
    15
100
AcDbLine
 10
3305.9894647879
 20
3231.3003244057
 30
0.0
 11
3041.1894526763
 21
3231.3003244057
 31
0.0
  0
LINE
  5
99
330
1F
100
AcDbEntity
  8
0
  6
Continuous
 62
     7
370
    15
100
AcDbLine
 10
2355.1894631667
 20
3231.3003244057
 30
0.0
 11
2679.6894558204
 21
3231.3003244057
 31
0.0
  0
LINE
  5
9A
330
1F
100
AcDbEntity
  8
0
  6
Continuous
 62
     7
370
    15
100
AcDbLine
 10
2071.8894806189
 20
3292.73745438
 30
0.0
 11
2071.8894806189
 21
3231.3003244057
 31
0.0
  0
ARC
  5
9B
330
1F
100
AcDbEntity
  8
0
  6
Continuous
 62
     7
370
    15
100
AcDbCircle
 10
2062.6394561095
 20
3292.7373691443
 30
0.0
 40
9.25
100
AcDbArc
 50
0.0
 51
180.0
  0
LINE
  5
9C
330
1F
100
AcDbEntity
  8
0
  6
Continuous
 62
     7
370
    15
100
AcDbLine
 10
2053.3894505782
 20
3292.73745438
 30
0.0
 11
2053.3894505782
 21
3231.3003244057
 31
0.0
  0
LINE
  5
9D
330
1F
100
AcDbEntity
  8
0
  6
Continuous
 62
     7
370
    15
100
AcDbLine
 10
2071.8894806189
 20
3231.3003244057
 30
0.0
 11
2336.6894629283
 21
3231.3003244057
 31
0.0
  0
LINE
  5
9E
330
1F
100
AcDbEntity
  8
0
  6
Continuous
 62
     7
370
    15
100
AcDbLine
 10
3324.489435224
 20
3292.73745438
 30
0.0
 11
3324.489435224
 21
3231.3003244057
 31
0.0
  0
LINE
  5
9F
330
1F
100
AcDbEntity
  8
0
  6
Continuous
 62
     7
370
    15
100
AcDbLine
 10
3305.9894647879
 20
3292.73745438
 30
0.0
 11
3305.9894647879
 21
3231.3003244057
 31
0.0
  0
LINE
  5
A0
330
1F
100
AcDbEntity
  8
0
  6
Continuous
 62
     7
370
    15
100
AcDbLine
 10
3022.6894524379
 20
3231.3003244057
 30
0.0
 11
2698.1894560588
 21
3231.3003244057
 31
0.0
  0
LINE
  5
A1
330
1F
100
AcDbEntity
  8
0
  6
Continuous
 62
     7
370
    15
100
AcDbLine
 10
2336.6894629283
 20
3339.9700822487
 30
0.0
 11
2336.6894629283
 21
3231.3003244057
 31
0.0
  0
LINE
  5
A2
330
1F
100
AcDbEntity
  8
0
  6
Continuous
 62
     7
370
    15
100
AcDbLine
 10
1967.4606528563
 20
3231.3003244057
 30
0.0
 11
2053.3894505782
 21
3231.3003244057
 31
0.0
  0
LINE
  5
A3
330
1F
100
AcDbEntity
  8
0
  6
Continuous
 62
     7
370
    15
100
AcDbLine
 10
2355.1894631667
 20
3339.9700822487
 30
0.0
 11
2355.1894631667
 21
3231.3003244057
 31
0.0
  0
ARC
  5
A4
330
1F
100
AcDbEntity
  8
0
  6
Continuous
 62
     7
370
    15
100
AcDbCircle
 10
2688.9394561095
 20
3354.7968450367
 30
0.0
 40
9.25
100
AcDbArc
 50
0.0
 51
180.0
  0
ARC
  5
A5
330
1F
100
AcDbEntity
  8
0
  6
Continuous
 62
     7
370
    15
100
AcDbCircle
 10
3315.2394561095
 20
3292.7373691443
 30
0.0
 40
9.25
100
AcDbArc
 50
0.0
 51
180.0
  0
ARC
  5
A6
330
1F
100
AcDbEntity
  8
0
  6
Continuous
 62
     7
370
    15
100
AcDbCircle
 10
2345.9394561095
 20
3339.9700340547
 30
0.0
 40
9.25
100
AcDbArc
 50
0.0
 51
180.0
  0
LINE
  5
A7
330
1F
100
AcDbEntity
  8
0
  6
Continuous
 62
     7
370
    15
100
AcDbLine
 10
3041.1894526763
 20
3339.9700822487
 30
0.0
 11
3041.1894526763
 21
3231.3003244057
 31
0.0
  0
LINE
  5
A8
330
1F
100
AcDbEntity
  8
0
  6
Continuous
 62
     7
370
    15
100
AcDbLine
 10
3022.6894524379
 20
3339.9700822487
 30
0.0
 11
3022.6894524379
 21
3231.3003244057
 31
0.0
  0
ARC
  5
A9
330
1F
100
AcDbEntity
  8
0
  6
Continuous
 62
     7
370
    15
100
AcDbCircle
 10
3031.9394561095
 20
3339.9700340547
 30
0.0
 40
9.250000000000455
100
AcDbArc
 50
0.0
 51
180.0
  0
LINE
  5
AA
330
1F
100
AcDbEntity
  8
0
  6
Continuous
 62
     7
370
    15
100
AcDbLine
 10
2698.1894560588
 20
3354.7968568459
 30
0.0
 11
2698.1894560588
 21
3231.3003244057
 31
0.0
  0
LINE
  5
AB
330
1F
100
AcDbEntity
  8
0
  6
Continuous
 62
     7
370
    15
100
AcDbLine
 10
2679.6894558204
 20
3354.7968568459
 30
0.0
 11
2679.6894558204
 21
3231.3003244057
 31
0.0
  0
LINE
  5
AC
330
1F
100
AcDbEntity
  8
0
  6
Continuous
 62
     7
370
    15
100
AcDbLine
 10
3410.419723062
 20
3231.3003244057
 30
0.0
 11
3410.4182329459
 21
3231.3003244057
 31
0.0
  0
LINE
  5
AD
330
1F
100
AcDbEntity
  8
0
  6
Continuous
 62
     7
370
    15
100
AcDbLine
 10
1967.4592223449
 20
3231.3003244057
 30
0.0
 11
1967.4606528563
 21
3231.3003244057
 31
0.0
  0
LINE
  5
AE
330
1F
100
AcDbEntity
  8
0
  6
Continuous
 62
     7
370
    15
100
AcDbLine
 10
1966.860672502
 20
863.2738890305
 30
0.0
 11
1966.860672502
 21
880.5738391533
 31
0.0
  0
ARC
  5
AF
330
1F
100
AcDbEntity
  8
0
  6
Continuous
 62
     7
370
    15
100
AcDbCircle
 10
3410.3201803411
 20
863.2719286738
 30
0.0
 40
0.4980632338278707
100
AcDbArc
 50
269.9454869845
 51
0.2255144391
  0
LINE
  5
B0
330
1F
100
AcDbEntity
  8
0
  6
Continuous
 62
     7
370
    15
100
AcDbLine
 10
3410.3197064681
 20
862.7738656654
 30
0.0
 11
2688.8394561095
 21
862.7738656654
 31
0.0
  0
LINE
  5
B1
330
1F
100
AcDbEntity
  8
0
  6
Continuous
 62
     7
370
    15
100
AcDbLine
 10
3410.818239717
 20
863.2738890305
 30
0.0
 11
3410.818239717
 21
880.5738391533
 31
0.0
  0
LINE
  5
B2
330
1F
100
AcDbEntity
  8
0
  6
Continuous
 62
     7
370
    15
100
AcDbLine
 10
1967.3592057509
 20
862.7738656654
 30
0.0
 11
2688.8394561095
 21
862.7738656654
 31
0.0
  0
ARC
  5
B3
330
1F
100
AcDbEntity
  8
0
  6
Continuous
 62
     7
370
    15
100
AcDbCircle
 10
1967.3587318779
 20
863.2719286738
 30
0.0
 40
0.4980632338275234
100
AcDbArc
 50
179.7744855609
 51
270.0545130155
  0
LINE
  5
B4
330
1F
100
AcDbEntity
  8
0
  6
Continuous
 62
     7
370
    15
100
AcDbLine
 10
2688.8394561095
 20
881.0738625183
 30
0.0
 11
3410.3197064681
 21
881.0738625183
 31
0.0
  0
ARC
  5
B5
330
1F
100
AcDbEntity
  8
0
  6
Continuous
 62
     7
370
    15
100
AcDbCircle
 10
3410.3201803411
 20
880.5757995099
 30
0.0
 40
0.4980632338275238
100
AcDbArc
 50
359.7744855609
 51
90.0545130156
  0
ARC
  5
B6
330
1F
100
AcDbEntity
  8
0
  6
Continuous
 62
     7
370
    15
100
AcDbCircle
 10
1967.3587318779
 20
880.5757995099
 30
0.0
 40
0.4980632338275234
100
AcDbArc
 50
89.9454869845
 51
180.2255144391
  0
LINE
  5
B7
330
1F
100
AcDbEntity
  8
0
  6
Continuous
 62
     7
370
    15
100
AcDbLine
 10
2688.8394561095
 20
881.0738625183
 30
0.0
 11
1967.3592057509
 21
881.0738625183
 31
0.0
  0
LINE
  5
B8
330
1F
100
AcDbEntity
  8
0
  6
Continuous
 62
     7
370
    15
100
AcDbLine
 10
1825.089475183
 20
579.3738665238
 30
0.0
 11
1825.149377851
 21
579.3738665238
 31
0.0
  0
ARC
  5
B9
330
1F
100
AcDbEntity
  8
0
  6
Continuous
 62
     7
370
    15
100
AcDbCircle
 10
1824.821809741
 20
578.3262099948
 30
0.0
 40
1.097672569332603
100
AcDbArc
 50
45.6271750053
 51
72.6372344483
  0
ARC
  5
BA
330
1F
100
AcDbEntity
  8
0
  6
Continuous
 62
     7
370
    15
100
AcDbCircle
 10
1863.4142060857
 20
217.0705293247
 30
0.0
 40
53.621698850634
100
AcDbArc
 50
134.8618998227
 51
135.6206086853
  0
LINE
  5
BB
330
1F
100
AcDbEntity
  8
0
  6
Continuous
 62
     7
370
    15
100
AcDbLine
 10
1825.089475183
 20
254.5738836929
 30
0.0
 11
1825.089475183
 21
579.3738665238
 31
0.0
  0
ARC
  5
BC
330
1F
100
AcDbEntity
  8
0
  6
Continuous
 62
     7
370
    15
100
AcDbCircle
 10
1824.821809741
 20
-87.678476375
 30
0.0
 40
1.097672569332563
100
AcDbArc
 50
287.3627655517
 51
314.3728249947
  0
LINE
  5
BD
330
1F
100
AcDbEntity
  8
0
  6
Continuous
 62
     7
370
    15
100
AcDbLine
 10
1825.089475183
 20
-88.726132904
 30
0.0
 11
1825.149377851
 21
-88.726132904
 31
0.0
  0
ARC
  5
BE
330
1F
100
AcDbEntity
  8
0
  6
Continuous
 62
     7
370
    15
100
AcDbCircle
 10
1863.4142060857
 20
273.577204295
 30
0.0
 40
53.62169885063405
100
AcDbArc
 50
224.3793913147
 51
225.1381001773
  0
LINE
  5
BF
330
1F
100
AcDbEntity
  8
0
  6
Continuous
 62
     7
370
    15
100
AcDbLine
 10
1825.089475183
 20
236.0738499268
 30
0.0
 11
1825.089475183
 21
-88.726132904
 31
0.0
  0
LINE
  5
C0
330
1F
100
AcDbEntity
  8
0
  6
Continuous
 62
     7
370
    15
100
AcDbLine
 10
1843.3894720359
 20
579.3738665238
 30
0.0
 11
1843.3894720359
 21
254.5738836929
 31
0.0
  0
ARC
  5
C1
330
1F
100
AcDbEntity
  8
0
  6
Continuous
 62
     7
370
    15
100
AcDbCircle
 10
1804.1712351547
 20
216.1799391777
 30
0.0
 40
54.88319487330028
100
AcDbArc
 50
44.3915040505
 51
45.1328174799
  0
ARC
  5
C2
330
1F
100
AcDbEntity
  8
0
  6
Continuous
 62
     7
370
    15
100
AcDbCircle
 10
1843.6570778733
 20
578.3262099948
 30
0.0
 40
1.09767256933236
100
AcDbArc
 50
107.3627655516
 51
134.3728249947
  0
ARC
  5
C3
330
1F
100
AcDbEntity
  8
0
  6
Continuous
 62
     7
370
    15
100
AcDbCircle
 10
1804.1712351547
 20
274.467794442
 30
0.0
 40
54.8831948733003
100
AcDbArc
 50
314.8671825201
 51
315.6084959495
  0
LINE
  5
C4
330
1F
100
AcDbEntity
  8
0
  6
Continuous
 62
     7
370
    15
100
AcDbLine
 10
1843.3894720359
 20
-88.726132904
 30
0.0
 11
1843.3894720359
 21
236.0738499268
 31
0.0
  0
ARC
  5
C5
330
1F
100
AcDbEntity
  8
0
  6
Continuous
 62
     7
370
    15
100
AcDbCircle
 10
1843.6570778733
 20
-87.678476375
 30
0.0
 40
1.097672569332305
100
AcDbArc
 50
225.6271750053
 51
252.6372344484
  0
LINE
  5
C6
330
1F
100
AcDbEntity
  8
0
  6
Continuous
 62
     7
370
    15
100
AcDbLine
 10
1843.3894720359
 20
254.5738836929
 30
0.0
 11
1843.3894720359
 21
254.5738669291
 31
0.0
  0
LINE
  5
C7
330
1F
100
AcDbEntity
  8
0
  6
Continuous
 62
     7
370
    15
100
AcDbLine
 10
1825.089475183
 20
254.5738836929
 30
0.0
 11
1825.089475183
 21
254.5738669291
 31
0.0
  0
LINE
  5
C8
330
1F
100
AcDbEntity
  8
0
  6
Continuous
 62
     7
370
    15
100
AcDbLine
 10
1843.3894720359
 20
236.0738499268
 30
0.0
 11
1843.3894720359
 21
236.0738666906
 31
0.0
  0
LINE
  5
C9
330
1F
100
AcDbEntity
  8
0
  6
Continuous
 62
     7
370
    15
100
AcDbLine
 10
1825.089475183
 20
236.0738499268
 30
0.0
 11
1825.089475183
 21
236.0738666906
 31
0.0
  0
ARC
  5
CA
330
1F
100
AcDbEntity
  8
0
  6
Continuous
 62
     7
370
    15
100
AcDbCircle
 10
1826.3589608139
 20
597.5741535437
 30
0.0
 40
1.326834865712016
100
AcDbArc
 50
125.4482976375
 51
163.0928724291
  0
ARC
  5
CB
330
1F
100
AcDbEntity
  8
0
  6
Continuous
 62
     7
370
    15
100
AcDbCircle
 10
1842.1195976789
 20
597.5738078883
 30
0.0
 40
1.327307331875272
100
AcDbArc
 50
16.9165235233
 51
54.5487822872
  0
LINE
  5
CC
330
1F
100
AcDbEntity
  8
0
  6
Continuous
 62
     7
370
    15
100
AcDbLine
 10
1843.3894720359
 20
597.9600252762
 30
0.0
 11
1843.3894720359
 21
597.8738667622
 31
0.0
  0
LINE
  5
CD
330
1F
100
AcDbEntity
  8
0
  6
Continuous
 62
     7
370
    15
100
AcDbLine
 10
1825.089475183
 20
597.8738667622
 30
0.0
 11
1825.089475183
 21
597.9600252762
 31
0.0
  0
ARC
  5
CE
330
1F
100
AcDbEntity
  8
0
  6
Continuous
 62
     7
370
    15
100
AcDbCircle
 10
1825.5848369247
 20
640.3456037941
 30
0.0
 40
0.495365415152903
100
AcDbArc
 50
89.4677059991
 51
180.2206533995
  0
LINE
  5
CF
330
1F
100
AcDbEntity
  8
0
  6
Continuous
 62
     7
370
    15
100
AcDbLine
 10
1825.5894389434
 20
640.8409478321
 30
0.0
 11
1825.5894389434
 21
598.6550452366
 31
0.0
  0
LINE
  5
D0
330
1F
100
AcDbEntity
  8
0
  6
Continuous
 62
     7
370
    15
100
AcDbLine
 10
1825.089475183
 20
597.9600252762
 30
0.0
 11
1825.089475183
 21
640.3436960831
 31
0.0
  0
LINE
  5
D1
330
1F
100
AcDbEntity
  8
0
  6
Continuous
 62
     7
370
    15
100
AcDbLine
 10
1842.8894486709
 20
598.6550452366
 30
0.0
 11
1842.8894486709
 21
640.8409478321
 31
0.0
  0
ARC
  5
D2
330
1F
100
AcDbEntity
  8
0
  6
Continuous
 62
     7
370
    15
100
AcDbCircle
 10
1842.8940067385
 20
640.3455002165
 30
0.0
 40
0.4954685820871979
100
AcDbArc
 50
359.791370309
 51
90.5271004662
  0
LINE
  5
D3
330
1F
100
AcDbEntity
  8
0
  6
Continuous
 62
     7
370
    15
100
AcDbLine
 10
1843.3894720359
 20
640.3436960831
 30
0.0
 11
1843.3894720359
 21
597.9600252762
 31
0.0
  0
ARC
  5
D4
330
1F
100
AcDbEntity
  8
0
  6
Continuous
 62
     7
370
    15
100
AcDbCircle
 10
1842.8940067385
 20
-149.6977665968
 30
0.0
 40
0.4954685820871981
100
AcDbArc
 50
269.4728995338
 51
0.208629691
  0
LINE
  5
D5
330
1F
100
AcDbEntity
  8
0
  6
Continuous
 62
     7
370
    15
100
AcDbLine
 10
1842.8894486709
 20
-108.0073116169
 30
0.0
 11
1842.8894486709
 21
-150.1932142124
 31
0.0
  0
ARC
  5
D6
330
1F
100
AcDbEntity
  8
0
  6
Continuous
 62
     7
370
    15
100
AcDbCircle
 10
1842.1195976789
 20
-106.9260742686
 30
0.0
 40
1.327307331875284
100
AcDbArc
 50
305.4512177128
 51
343.0834764767
  0
LINE
  5
D7
330
1F
100
AcDbEntity
  8
0
  6
Continuous
 62
     7
370
    15
100
AcDbLine
 10
1843.3894720359
 20
-149.6959624634
 30
0.0
 11
1843.3894720359
 21
-107.3122916565
 31
0.0
  0
LINE
  5
D8
330
1F
100
AcDbEntity
  8
0
  6
Continuous
 62
     7
370
    15
100
AcDbLine
 10
1825.5894389434
 20
-150.1932142124
 30
0.0
 11
1825.5894389434
 21
-108.0073116169
 31
0.0
  0
ARC
  5
D9
330
1F
100
AcDbEntity
  8
0
  6
Continuous
 62
     7
370
    15
100
AcDbCircle
 10
1825.5848369247
 20
-149.6978701744
 30
0.0
 40
0.4953654151528178
100
AcDbArc
 50
179.7793466005
 51
270.5322940009
  0
ARC
  5
DA
330
1F
100
AcDbEntity
  8
0
  6
Continuous
 62
     7
370
    15
100
AcDbCircle
 10
1826.3589608139
 20
-106.926419924
 30
0.0
 40
1.326834865712051
100
AcDbArc
 50
196.9071275709
 51
234.5517023625
  0
LINE
  5
DB
330
1F
100
AcDbEntity
  8
0
  6
Continuous
 62
     7
370
    15
100
AcDbLine
 10
1825.089475183
 20
-107.3122916565
 30
0.0
 11
1825.089475183
 21
-149.6959624634
 31
0.0
  0
LINE
  5
DC
330
1F
100
AcDbEntity
  8
0
  6
Continuous
 62
     7
370
    15
100
AcDbLine
 10
1843.3894720359
 20
-107.3122916565
 30
0.0
 11
1843.3894720359
 21
-107.2261331425
 31
0.0
  0
LINE
  5
DD
330
1F
100
AcDbEntity
  8
0
  6
Continuous
 62
     7
370
    15
100
AcDbLine
 10
1825.089475183
 20
-107.2261331425
 30
0.0
 11
1825.089475183
 21
-107.3122916565
 31
0.0
  0
LINE
  5
DE
330
1F
100
AcDbEntity
  8
0
  6
Continuous
 62
     7
370
    15
100
AcDbLine
 10
1842.8894486709
 20
640.8409478321
 30
0.0
 11
1825.5894389434
 21
640.8409478321
 31
0.0
  0
LINE
  5
DF
330
1F
100
AcDbEntity
  8
0
  6
Continuous
 62
     7
370
    15
100
AcDbLine
 10
1842.8894486709
 20
-150.1932142124
 30
0.0
 11
1825.5894389434
 21
-150.1932142124
 31
0.0
  0
LWPOLYLINE
  5
E0
330
1F
100
AcDbEntity
  8
0
  6
Continuous
 62
     7
370
    15
100
AcDbPolyline
 90
       15
 70
   128
 43
0.0
 10
3022.7264073176
 20
6445.9602536812
 10
3011.4845242782
 20
6451.6827764168
 10
2994.0941241069
 20
6459.4723882332
 10
2976.3087835593
 20
6466.3707914009
 10
2958.2284596248
 20
6472.4890889778
 10
2939.9531986995
 20
6477.9388608589
 10
2914.802601604
 20
6484.4538869515
 10
2889.4133177085
 20
6490.0166692391
 10
2863.8585415168
 20
6494.7287740364
 10
2855.1324066205
 20
6496.1554708138
 10
2820.0952019973
 20
6501.0249318733
 10
2789.8445409222
 20
6504.2087735787
 10
2759.5025953336
 20
6506.5190496101
 10
2729.1065697057
 20
6507.9862775459
 10
2698.6936647875
 20
6508.6390676155
  0
ARC
  5
E1
330
1F
100
AcDbEntity
  8
0
  6
Continuous
 62
     7
370
    15
100
AcDbCircle
 10
3022.4961476482
 20
6445.5239794506
 30
0.0
 40
0.4933099630314615
100
AcDbArc
 50
359.5532453341
 51
62.1755106648
  0
LINE
  5
E2
330
1F
100
AcDbEntity
  8
0
  6
Continuous
 62
     7
370
    15
100
AcDbLine
 10
3022.989442615
 20
6445.2502431526
 30
0.0
 11
3022.989442615
 21
6445.5201329842
 31
0.0
  0
ARC
  5
E3
330
1F
100
AcDbEntity
  8
0
  6
Continuous
 62
     7
370
    15
100
AcDbCircle
 10
2698.6680842974
 20
6508.1608309341
 30
0.0
 40
0.4789203325198366
100
AcDbArc
 50
86.9382132688
 51
182.0578257789
  0
LINE
  5
E4
330
1F
100
AcDbEntity
  8
0
  6
Continuous
 62
     7
370
    15
100
AcDbLine
 10
2354.8894431872
 20
6445.2502431526
 30
0.0
 11
2354.8894431872
 21
6445.5201329842
 31
0.0
  0
ARC
  5
E5
330
1F
100
AcDbEntity
  8
0
  6
Continuous
 62
     7
370
    15
100
AcDbCircle
 10
2355.382769757
 20
6445.5239449704
 30
0.0
 40
0.4933412973448196
100
AcDbArc
 50
117.822805129
 51
180.4427217003
  0
LWPOLYLINE
  5
E6
330
1F
100
AcDbEntity
  8
0
  6
Continuous
 62
     7
370
    15
100
AcDbPolyline
 90
       15
 70
   128
 43
0.0
 10
2355.1525082869
 20
6445.9602536812
 10
2366.3943913264
 20
6451.6827764168
 10
2383.7847914977
 20
6459.4723882332
 10
2401.5701320453
 20
6466.3707914009
 10
2419.6504261775
 20
6472.4890889778
 10
2437.9257169051
 20
6477.9388608589
 10
2463.0763140006
 20
6484.4538869515
 10
2488.4655978961
 20
6490.0166692391
 10
2514.0203740878
 20
6494.7287740364
 10
2522.7464940829
 20
6496.1554708138
 10
2557.7837136073
 20
6501.0249318733
 10
2588.0343746824
 20
6504.2087735787
 10
2618.376320271
 20
6506.5190496101
 10
2648.7723421736
 20
6507.9862775459
 10
2679.1852480231
 20
6508.6390676155
  0
ARC
  5
E7
330
1F
100
AcDbEntity
  8
0
  6
Continuous
 62
     7
370
    15
100
AcDbCircle
 10
2679.210833323
 20
6508.1608367286
 30
0.0
 40
0.478914803207936
100
AcDbArc
 50
357.9414567682
 51
93.062398366
  0
ARC
  5
E8
330
1F
100
AcDbEntity
  8
0
  6
Continuous
 62
     7
370
    15
100
AcDbCircle
 10
3083.9552689659
 20
6373.8721420614
 30
0.0
 40
0.5013020338680277
100
AcDbArc
 50
270.460953625
 51
0.4756484556
  0
ARC
  5
E9
330
1F
100
AcDbEntity
  8
0
  6
Continuous
 62
     7
370
    15
100
AcDbCircle
 10
3041.9879252857
 20
6433.7720752107
 30
0.0
 40
0.4947327204039925
100
AcDbArc
 50
55.1512765272
 51
146.4462204344
  0
LWPOLYLINE
  5
EA
330
1F
100
AcDbEntity
  8
0
  6
Continuous
 62
     7
370
    15
100
AcDbPolyline
 90
       13
 70
   128
 43
0.0
 10
3084.4565537257
 20
6373.8763036385
 10
3083.7992635054
 20
6381.1886014595
 10
3081.9829609675
 20
6388.4885015144
 10
3079.8782613559
 20
6393.903464283
 10
3077.2503521724
 20
6399.0871610298
 10
3074.0658250136
 20
6404.1859807625
 10
3070.4866555018
 20
6409.0182485237
 10
3069.8324647231
 20
6409.8279180184
 10
3067.1238806529
 20
6412.9912557259
 10
3061.3211598678
 20
6418.9727010384
 10
3055.0711658282
 20
6424.5540799751
 10
3048.7989094539
 20
6429.5189084664
 10
3042.2706213279
 20
6434.1780843392
  0
ARC
  5
EB
330
1F
100
AcDbEntity
  8
0
  6
Continuous
 62
     7
370
    15
100
AcDbCircle
 10
2293.9221361289
 20
6373.870656044
 30
0.0
 40
0.4998061587483071
100
AcDbArc
 50
179.352568575
 51
269.7108293445
  0
LWPOLYLINE
  5
EC
330
1F
100
AcDbEntity
  8
0
  6
Continuous
 62
     7
370
    15
100
AcDbPolyline
 90
       13
 70
   128
 43
0.0
 10
2293.4223618789
 20
6373.8763036385
 10
2294.0796520991
 20
6381.1886014595
 10
2295.895954637
 20
6388.4885015144
 10
2298.0006542487
 20
6393.903464283
 10
2300.6285336299
 20
6399.0871610298
 10
2303.8130905909
 20
6404.1859807625
 10
2307.3922303004
 20
6409.0182485237
 10
2308.0464508815
 20
6409.8279180184
 10
2310.7550349517
 20
6412.9912557259
 10
2316.5577557368
 20
6418.9727010384
 10
2322.8077497764
 20
6424.5540799751
 10
2329.0800061507
 20
6429.5189084664
 10
2335.6082942767
 20
6434.1780843392
  0
ARC
  5
ED
330
1F
100
AcDbEntity
  8
0
  6
Continuous
 62
     7
370
    15
100
AcDbCircle
 10
2335.8909903189
 20
6433.7720752107
 30
0.0
 40
0.4947327204039925
100
AcDbArc
 50
33.5537795656
 51
124.8487234728
  0
ARC
  5
EE
330
1F
100
AcDbEntity
  8
0
  6
Continuous
 62
     7
370
    15
100
AcDbCircle
 10
2688.9394561095
 20
6444.3440992522
 30
0.0
 40
9.250000000003183
100
AcDbArc
 50
180.0
 51
0.0
  0
LINE
  5
EF
330
1F
100
AcDbEntity
  8
0
  6
Continuous
 62
     7
370
    15
100
AcDbLine
 10
2698.1894560588
 20
6444.344252552
 30
0.0
 11
2698.1894560588
 21
6508.1393422737
 31
0.0
  0
ARC
  5
F0
330
1F
100
AcDbEntity
  8
0
  6
Continuous
 62
     7
370
    15
100
AcDbCircle
 10
3032.2394561095
 20
6415.445193072
 30
0.0
 40
9.25
100
AcDbArc
 50
180.0
 51
360.0
  0
LINE
  5
F1
330
1F
100
AcDbEntity
  8
0
  6
Continuous
 62
     7
370
    15
100
AcDbLine
 10
3041.4894428534
 20
6415.445059742
 30
0.0
 11
3041.4894428534
 21
6433.764666523
 31
0.0
  0
LINE
  5
F2
330
1F
100
AcDbEntity
  8
0
  6
Continuous
 62
     7
370
    15
100
AcDbLine
 10
3083.956560163
 20
6373.3708562508
 30
0.0
 11
2293.9223256392
 21
6373.3708562508
 31
0.0
  0
LINE
  5
F3
330
1F
100
AcDbEntity
  8
0
  6
Continuous
 62
     7
370
    15
100
AcDbLine
 10
2336.3894429488
 20
6415.445059742
 30
0.0
 11
2336.3894429488
 21
6433.764666523
 31
0.0
  0
ARC
  5
F4
330
1F
100
AcDbEntity
  8
0
  6
Continuous
 62
     7
370
    15
100
AcDbCircle
 10
2345.6394561095
 20
6415.4451930721
 30
0.0
 40
9.250000000000455
100
AcDbArc
 50
180.0
 51
0.0
  0
LINE
  5
F5
330
1F
100
AcDbEntity
  8
0
  6
Continuous
 62
     7
370
    15
100
AcDbLine
 10
2679.6894558204
 20
6444.344252552
 30
0.0
 11
2679.6894558204
 21
6508.1393422737
 31
0.0
  0
LINE
  5
F6
330
1F
100
AcDbEntity
  8
0
  6
Continuous
 62
     7
370
    15
100
AcDbLine
 10
2354.8894431872
 20
6445.2502431526
 30
0.0
 11
2354.8894431872
 21
6415.445059742
 31
0.0
  0
LINE
  5
F7
330
1F
100
AcDbEntity
  8
0
  6
Continuous
 62
     7
370
    15
100
AcDbLine
 10
3022.989442615
 20
6445.2502431526
 30
0.0
 11
3022.989442615
 21
6415.445059742
 31
0.0
  0
LINE
  5
F8
330
1F
100
AcDbEntity
  8
0
  6
Continuous
 62
     7
370
    15
100
AcDbLine
 10
2293.9223256392
 20
6373.3708562508
 30
0.0
 11
2293.9196136279
 21
6373.3708562508
 31
0.0
  0
LINE
  5
F9
330
1F
100
AcDbEntity
  8
0
  6
Continuous
 62
     7
370
    15
100
AcDbLine
 10
3083.956560163
 20
6373.3708562508
 30
0.0
 11
3083.9593019767
 21
6373.3708562508
 31
0.0
  0
ARC
  5
FA
330
1F
100
AcDbEntity
  8
0
  6
Continuous
 62
     7
370
    15
100
AcDbCircle
 10
2335.8894561095
 20
6433.7646868426
 30
0.0
 40
0.5000000000000947
100
AcDbArc
 50
359.9999999998
 51
34.1409885092
  0
ARC
  5
FB
330
1F
100
AcDbEntity
  8
0
  6
Continuous
 62
     7
370
    15
100
AcDbCircle
 10
3041.9894561095
 20
6433.7646868426
 30
0.0
 40
0.5000000000004547
100
AcDbArc
 50
145.8590114908
 51
180.0000000001
  0
ARC
  5
FC
330
1F
100
AcDbEntity
  8
0
  6
Continuous
 62
     7
370
    15
100
AcDbCircle
 10
2698.6894561095
 20
6508.139310416
 30
0.0
 40
0.5
100
AcDbArc
 50
179.5301299954
 51
180.0
  0
ARC
  5
FD
330
1F
100
AcDbEntity
  8
0
  6
Continuous
 62
     7
370
    15
100
AcDbCircle
 10
2679.1894561095
 20
6508.139310416
 30
0.0
 40
0.5000000000004547
100
AcDbArc
 50
0.0
 51
0.4698700045
  0
LINE
  5
FE
330
1F
100
AcDbEntity
  8
0
  6
Continuous
 62
     7
370
    15
100
AcDbLine
 10
3534.2894401832
 20
254.5738836929
 30
0.0
 11
3534.2894401832
 21
579.3738665238
 31
0.0
  0
ARC
  5
FF
330
1F
100
AcDbEntity
  8
0
  6
Continuous
 62
     7
370
    15
100
AcDbCircle
 10
3534.0220113977
 20
578.3264320235
 30
0.0
 40
1.097390045817038
100
AcDbArc
 50
45.6256758905
 51
72.6455681107
  0
ARC
  5
100
330
1F
100
AcDbEntity
  8
0
  6
Continuous
 62
     7
370
    15
100
AcDbCircle
 10
3573.5076770643
 20
216.1799391777
 30
0.0
 40
54.88319487329996
100
AcDbArc
 50
134.8671825201
 51
135.6084959495
  0
ARC
  5
101
330
1F
100
AcDbEntity
  8
0
  6
Continuous
 62
     7
370
    15
100
AcDbCircle
 10
3534.0220113977
 20
-87.6786984038
 30
0.0
 40
1.097390045817146
100
AcDbArc
 50
287.3544318893
 51
314.3743241095
  0
ARC
  5
102
330
1F
100
AcDbEntity
  8
0
  6
Continuous
 62
     7
370
    15
100
AcDbCircle
 10
3573.5076770643
 20
274.467794442
 30
0.0
 40
54.88319487329998
100
AcDbArc
 50
224.3915040505
 51
225.1328174799
  0
LINE
  5
103
330
1F
100
AcDbEntity
  8
0
  6
Continuous
 62
     7
370
    15
100
AcDbLine
 10
3534.2894401832
 20
236.0738499268
 30
0.0
 11
3534.2894401832
 21
-88.726132904
 31
0.0
  0
LINE
  5
104
330
1F
100
AcDbEntity
  8
0
  6
Continuous
 62
     7
370
    15
100
AcDbLine
 10
3552.529534368
 20
579.3738665238
 30
0.0
 11
3552.589437036
 21
579.3738665238
 31
0.0
  0
LINE
  5
105
330
1F
100
AcDbEntity
  8
0
  6
Continuous
 62
     7
370
    15
100
AcDbLine
 10
3552.589437036
 20
579.3738665238
 30
0.0
 11
3552.589437036
 21
254.5738836929
 31
0.0
  0
ARC
  5
106
330
1F
100
AcDbEntity
  8
0
  6
Continuous
 62
     7
370
    15
100
AcDbCircle
 10
3514.2647061334
 20
217.0705293247
 30
0.0
 40
53.621698850634
100
AcDbArc
 50
44.3793913147
 51
45.1381001773
  0
ARC
  5
107
330
1F
100
AcDbEntity
  8
0
  6
Continuous
 62
     7
370
    15
100
AcDbCircle
 10
3552.857102478
 20
578.3262099948
 30
0.0
 40
1.097672569332603
100
AcDbArc
 50
107.3627655517
 51
134.3728249947
  0
ARC
  5
108
330
1F
100
AcDbEntity
  8
0
  6
Continuous
 62
     7
370
    15
100
AcDbCircle
 10
3514.2647061334
 20
273.577204295
 30
0.0
 40
53.62169885063405
100
AcDbArc
 50
314.8618998227
 51
315.6206086853
  0
LINE
  5
109
330
1F
100
AcDbEntity
  8
0
  6
Continuous
 62
     7
370
    15
100
AcDbLine
 10
3552.589437036
 20
-88.726132904
 30
0.0
 11
3552.589437036
 21
236.0738499268
 31
0.0
  0
LINE
  5
10A
330
1F
100
AcDbEntity
  8
0
  6
Continuous
 62
     7
370
    15
100
AcDbLine
 10
3552.529534368
 20
-88.726132904
 30
0.0
 11
3552.589437036
 21
-88.726132904
 31
0.0
  0
ARC
  5
10B
330
1F
100
AcDbEntity
  8
0
  6
Continuous
 62
     7
370
    15
100
AcDbCircle
 10
3552.857102478
 20
-87.678476375
 30
0.0
 40
1.097672569332563
100
AcDbArc
 50
225.6271750053
 51
252.6372344483
  0
LINE
  5
10C
330
1F
100
AcDbEntity
  8
0
  6
Continuous
 62
     7
370
    15
100
AcDbLine
 10
3552.589437036
 20
254.5738836929
 30
0.0
 11
3552.589437036
 21
254.5738669291
 31
0.0
  0
LINE
  5
10D
330
1F
100
AcDbEntity
  8
0
  6
Continuous
 62
     7
370
    15
100
AcDbLine
 10
3534.2894401832
 20
254.5738836929
 30
0.0
 11
3534.2894401832
 21
254.5738669291
 31
0.0
  0
LINE
  5
10E
330
1F
100
AcDbEntity
  8
0
  6
Continuous
 62
     7
370
    15
100
AcDbLine
 10
3552.589437036
 20
236.0738499268
 30
0.0
 11
3552.589437036
 21
236.0738666906
 31
0.0
  0
LINE
  5
10F
330
1F
100
AcDbEntity
  8
0
  6
Continuous
 62
     7
370
    15
100
AcDbLine
 10
3534.2894401832
 20
236.0738499268
 30
0.0
 11
3534.2894401832
 21
236.0738666906
 31
0.0
  0
ARC
  5
110
330
1F
100
AcDbEntity
  8
0
  6
Continuous
 62
     7
370
    15
100
AcDbCircle
 10
3535.5593145401
 20
597.5738078883
 30
0.0
 40
1.32730733187549
100
AcDbArc
 50
125.4512177128
 51
163.0834764767
  0
ARC
  5
111
330
1F
100
AcDbEntity
  8
0
  6
Continuous
 62
     7
370
    15
100
AcDbCircle
 10
3551.3199514052
 20
597.5741535437
 30
0.0
 40
1.326834865711884
100
AcDbArc
 50
16.9071275709
 51
54.5517023625
  0
LINE
  5
112
330
1F
100
AcDbEntity
  8
0
  6
Continuous
 62
     7
370
    15
100
AcDbLine
 10
3552.589437036
 20
597.9600252762
 30
0.0
 11
3552.589437036
 21
597.8738667622
 31
0.0
  0
LINE
  5
113
330
1F
100
AcDbEntity
  8
0
  6
Continuous
 62
     7
370
    15
100
AcDbLine
 10
3534.2894401832
 20
597.8738667622
 30
0.0
 11
3534.2894401832
 21
597.9600252762
 31
0.0
  0
LINE
  5
114
330
1F
100
AcDbEntity
  8
0
  6
Continuous
 62
     7
370
    15
100
AcDbLine
 10
3552.0894732757
 20
598.6550452366
 30
0.0
 11
3552.0894732757
 21
640.8409478321
 31
0.0
  0
ARC
  5
115
330
1F
100
AcDbEntity
  8
0
  6
Continuous
 62
     7
370
    15
100
AcDbCircle
 10
3552.0940752943
 20
640.3456037941
 30
0.0
 40
0.4953654151529073
100
AcDbArc
 50
359.7793466005
 51
90.532294001
  0
LINE
  5
116
330
1F
100
AcDbEntity
  8
0
  6
Continuous
 62
     7
370
    15
100
AcDbLine
 10
3552.589437036
 20
640.3436960831
 30
0.0
 11
3552.589437036
 21
597.9600252762
 31
0.0
  0
ARC
  5
117
330
1F
100
AcDbEntity
  8
0
  6
Continuous
 62
     7
370
    15
100
AcDbCircle
 10
3534.7849054806
 20
640.3455002165
 30
0.0
 40
0.4954685820876527
100
AcDbArc
 50
89.4728995338
 51
180.208629691
  0
LINE
  5
118
330
1F
100
AcDbEntity
  8
0
  6
Continuous
 62
     7
370
    15
100
AcDbLine
 10
3534.7894635482
 20
640.8409478321
 30
0.0
 11
3534.7894635482
 21
598.6550452366
 31
0.0
  0
LINE
  5
119
330
1F
100
AcDbEntity
  8
0
  6
Continuous
 62
     7
370
    15
100
AcDbLine
 10
3534.2894401832
 20
597.9600252762
 30
0.0
 11
3534.2894401832
 21
640.3436960831
 31
0.0
  0
LINE
  5
11A
330
1F
100
AcDbEntity
  8
0
  6
Continuous
 62
     7
370
    15
100
AcDbLine
 10
3534.7894635482
 20
-150.1932142124
 30
0.0
 11
3534.7894635482
 21
-108.0073116169
 31
0.0
  0
ARC
  5
11B
330
1F
100
AcDbEntity
  8
0
  6
Continuous
 62
     7
370
    15
100
AcDbCircle
 10
3534.7849054806
 20
-149.6977665968
 30
0.0
 40
0.4954685820876528
100
AcDbArc
 50
179.791370309
 51
270.5271004662
  0
ARC
  5
11C
330
1F
100
AcDbEntity
  8
0
  6
Continuous
 62
     7
370
    15
100
AcDbCircle
 10
3535.5593145401
 20
-106.9260742686
 30
0.0
 40
1.327307331875502
100
AcDbArc
 50
196.9165235233
 51
234.5487822872
  0
LINE
  5
11D
330
1F
100
AcDbEntity
  8
0
  6
Continuous
 62
     7
370
    15
100
AcDbLine
 10
3534.2894401832
 20
-107.3122916565
 30
0.0
 11
3534.2894401832
 21
-149.6959624634
 31
0.0
  0
ARC
  5
11E
330
1F
100
AcDbEntity
  8
0
  6
Continuous
 62
     7
370
    15
100
AcDbCircle
 10
3552.0940752943
 20
-149.6978701744
 30
0.0
 40
0.495365415152822
100
AcDbArc
 50
269.467705999
 51
0.2206533995
  0
LINE
  5
11F
330
1F
100
AcDbEntity
  8
0
  6
Continuous
 62
     7
370
    15
100
AcDbLine
 10
3552.0894732757
 20
-108.0073116169
 30
0.0
 11
3552.0894732757
 21
-150.1932142124
 31
0.0
  0
ARC
  5
120
330
1F
100
AcDbEntity
  8
0
  6
Continuous
 62
     7
370
    15
100
AcDbCircle
 10
3551.3199514052
 20
-106.926419924
 30
0.0
 40
1.326834865711919
100
AcDbArc
 50
305.4482976375
 51
343.0928724291
  0
LINE
  5
121
330
1F
100
AcDbEntity
  8
0
  6
Continuous
 62
     7
370
    15
100
AcDbLine
 10
3552.589437036
 20
-149.6959624634
 30
0.0
 11
3552.589437036
 21
-107.3122916565
 31
0.0
  0
LINE
  5
122
330
1F
100
AcDbEntity
  8
0
  6
Continuous
 62
     7
370
    15
100
AcDbLine
 10
3552.589437036
 20
-107.3122916565
 30
0.0
 11
3552.589437036
 21
-107.2261331425
 31
0.0
  0
LINE
  5
123
330
1F
100
AcDbEntity
  8
0
  6
Continuous
 62
     7
370
    15
100
AcDbLine
 10
3534.2894401832
 20
-107.2261331425
 30
0.0
 11
3534.2894401832
 21
-107.3122916565
 31
0.0
  0
LINE
  5
124
330
1F
100
AcDbEntity
  8
0
  6
Continuous
 62
     7
370
    15
100
AcDbLine
 10
3552.0894732757
 20
640.8409478321
 30
0.0
 11
3534.7894635482
 21
640.8409478321
 31
0.0
  0
LINE
  5
125
330
1F
100
AcDbEntity
  8
0
  6
Continuous
 62
     7
370
    15
100
AcDbLine
 10
3552.0894732757
 20
-150.1932142124
 30
0.0
 11
3534.7894635482
 21
-150.1932142124
 31
0.0
  0
LWPOLYLINE
  5
126
330
1F
100
AcDbEntity
  8
0
  6
Continuous
 62
     7
370
    15
100
AcDbPolyline
 90
       15
 70
   128
 43
0.0
 10
3022.7264073176
 20
3965.5079545632
 10
3011.4845242782
 20
3971.2304772987
 10
2994.0941241069
 20
3979.0200891152
 10
2976.3087835593
 20
3985.9184922829
 10
2958.2284596248
 20
3992.0367898598
 10
2939.9531986995
 20
3997.4865617409
 10
2914.802601604
 20
4004.001826252
 10
2889.4133177085
 20
4009.5646085396
 10
2863.8585415168
 20
4014.2764749184
 10
2855.1324066205
 20
4015.7034101143
 10
2820.0952019973
 20
4020.5728711739
 10
2789.8445409222
 20
4023.756236042
 10
2759.5025953336
 20
4026.0667504921
 10
2729.1065697057
 20
4027.5339784279
 10
2698.6936647875
 20
4028.1870069161
  0
ARC
  5
127
330
1F
100
AcDbEntity
  8
0
  6
Continuous
 62
     7
370
    15
100
AcDbCircle
 10
3022.4961476482
 20
3965.0716803326
 30
0.0
 40
0.4933099630314651
100
AcDbArc
 50
359.553245334
 51
62.1755106648
  0
LINE
  5
128
330
1F
100
AcDbEntity
  8
0
  6
Continuous
 62
     7
370
    15
100
AcDbLine
 10
3022.989442615
 20
3964.7979440346
 30
0.0
 11
3022.989442615
 21
3965.0678338661
 31
0.0
  0
ARC
  5
129
330
1F
100
AcDbEntity
  8
0
  6
Continuous
 62
     7
370
    15
100
AcDbCircle
 10
2698.6903143393
 20
4027.6861522035
 30
0.0
 40
0.500865918815162
100
AcDbArc
 50
89.6167278199
 51
179.4344218215
  0
LINE
  5
12A
330
1F
100
AcDbEntity
  8
0
  6
Continuous
 62
     7
370
    15
100
AcDbLine
 10
2354.8894431872
 20
3964.7979440346
 30
0.0
 11
2354.8894431872
 21
3965.0678338661
 31
0.0
  0
ARC
  5
12B
330
1F
100
AcDbEntity
  8
0
  6
Continuous
 62
     7
370
    15
100
AcDbCircle
 10
2355.382769757
 20
3965.0716458524
 30
0.0
 40
0.4933412973444999
100
AcDbArc
 50
117.822805129
 51
180.4427217004
  0
LWPOLYLINE
  5
12C
330
1F
100
AcDbEntity
  8
0
  6
Continuous
 62
     7
370
    15
100
AcDbPolyline
 90
       15
 70
   128
 43
0.0
 10
2355.1525082869
 20
3965.5079545632
 10
2366.3943913264
 20
3971.2304772987
 10
2383.7847914977
 20
3979.0200891152
 10
2401.5701320453
 20
3985.9184922829
 10
2419.6504261775
 20
3992.0367898598
 10
2437.9257169051
 20
3997.4865617409
 10
2463.0763140006
 20
4004.001826252
 10
2488.4655978961
 20
4009.5646085396
 10
2514.0203740878
 20
4014.2764749184
 10
2522.7464940829
 20
4015.7034101143
 10
2557.7837136073
 20
4020.5728711739
 10
2588.0343746824
 20
4023.756236042
 10
2618.376320271
 20
4026.0667504921
 10
2648.7723421736
 20
4027.5339784279
 10
2679.1852480231
 20
4028.1870069161
  0
ARC
  5
12D
330
1F
100
AcDbEntity
  8
0
  6
Continuous
 62
     7
370
    15
100
AcDbCircle
 10
2679.1885977029
 20
4027.6861523629
 30
0.0
 40
0.5008657542667397
100
AcDbArc
 50
0.5655601276
 51
90.383184411
  0
LWPOLYLINE
  5
12E
330
1F
100
AcDbEntity
  8
0
  6
Continuous
 62
     7
370
    15
100
AcDbPolyline
 90
       13
 70
   128
 43
0.0
 10
3084.4565537257
 20
3893.4240045204
 10
3083.7992635054
 20
3900.7363023415
 10
3081.9829609675
 20
3908.0362023964
 10
3079.8782613559
 20
3913.451165165
 10
3077.2503521724
 20
3918.6348619118
 10
3074.0658250136
 20
3923.7336816445
 10
3070.4866555018
 20
3928.5659494057
 10
3069.8324647231
 20
3929.3756189003
 10
3067.1238806529
 20
3932.5389566078
 10
3061.3211598678
 20
3938.5206403389
 10
3055.0711658282
 20
3944.1017808571
 10
3048.7989094539
 20
3949.0668477669
 10
3042.2706213279
 20
3953.7257852211
  0
ARC
  5
12F
330
1F
100
AcDbEntity
  8
0
  6
Continuous
 62
     7
370
    15
100
AcDbCircle
 10
3083.9553575469
 20
3893.4197557987
 30
0.0
 40
0.5012141870431343
100
AcDbArc
 50
270.4509080496
 51
0.4856940309
  0
ARC
  5
130
330
1F
100
AcDbEntity
  8
0
  6
Continuous
 62
     7
370
    15
100
AcDbCircle
 10
3041.987952641
 20
3953.3201236481
 30
0.0
 40
0.4944318945454689
100
AcDbArc
 50
55.1308641729
 51
146.5045614284
  0
ARC
  5
131
330
1F
100
AcDbEntity
  8
0
  6
Continuous
 62
     7
370
    15
100
AcDbCircle
 10
2293.9219320885
 20
3893.418156194
 30
0.0
 40
0.4996044408383247
100
AcDbArc
 50
179.3292852389
 51
269.7341126805
  0
LWPOLYLINE
  5
132
330
1F
100
AcDbEntity
  8
0
  6
Continuous
 62
     7
370
    15
100
AcDbPolyline
 90
       13
 70
   128
 43
0.0
 10
2293.4223618789
 20
3893.4240045204
 10
2294.0796520991
 20
3900.7363023415
 10
2295.895954637
 20
3908.0362023964
 10
2298.0006542487
 20
3913.451165165
 10
2300.6285336299
 20
3918.6348619118
 10
2303.8130905909
 20
3923.7336816445
 10
2307.3922303004
 20
3928.5659494057
 10
2308.0464508815
 20
3929.3756189003
 10
2310.7550349517
 20
3932.5389566078
 10
2316.5577557368
 20
3938.5206403389
 10
2322.8077497764
 20
3944.1017808571
 10
2329.0800061507
 20
3949.0668477669
 10
2335.6082942767
 20
3953.7257852211
  0
ARC
  5
133
330
1F
100
AcDbEntity
  8
0
  6
Continuous
 62
     7
370
    15
100
AcDbCircle
 10
2335.8909629635
 20
3953.3201236481
 30
0.0
 40
0.4944318945454689
100
AcDbArc
 50
33.4954385716
 51
124.8691358271
  0
ARC
  5
134
330
1F
100
AcDbEntity
  8
0
  6
Continuous
 62
     7
370
    15
100
AcDbCircle
 10
2688.9394561095
 20
3963.8918074841
 30
0.0
 40
9.250000000003183
100
AcDbArc
 50
180.0
 51
0.0
  0
LINE
  5
135
330
1F
100
AcDbEntity
  8
0
  6
Continuous
 62
     7
370
    15
100
AcDbLine
 10
2698.1894560588
 20
3963.8917150154
 30
0.0
 11
2698.1894560588
 21
4027.6870431557
 31
0.0
  0
LINE
  5
136
330
1F
100
AcDbEntity
  8
0
  6
Continuous
 62
     7
370
    15
100
AcDbLine
 10
3041.4894428534
 20
3934.9929990425
 30
0.0
 11
3041.4894428534
 21
3953.3123674049
 31
0.0
  0
LINE
  5
137
330
1F
100
AcDbEntity
  8
0
  6
Continuous
 62
     7
370
    15
100
AcDbLine
 10
3083.956560163
 20
3892.9185571327
 30
0.0
 11
2293.9223256392
 21
3892.9185571327
 31
0.0
  0
LINE
  5
138
330
1F
100
AcDbEntity
  8
0
  6
Continuous
 62
     7
370
    15
100
AcDbLine
 10
2336.3894429488
 20
3934.9929990425
 30
0.0
 11
2336.3894429488
 21
3953.3123674049
 31
0.0
  0
LINE
  5
139
330
1F
100
AcDbEntity
  8
0
  6
Continuous
 62
     7
370
    15
100
AcDbLine
 10
2679.6894558204
 20
3963.8917150154
 30
0.0
 11
2679.6894558204
 21
4027.6870431557
 31
0.0
  0
ARC
  5
13A
330
1F
100
AcDbEntity
  8
0
  6
Continuous
 62
     7
370
    15
100
AcDbCircle
 10
2345.6394561095
 20
3934.992901304
 30
0.0
 40
9.250000000000455
100
AcDbArc
 50
180.0
 51
0.0
  0
ARC
  5
13B
330
1F
100
AcDbEntity
  8
0
  6
Continuous
 62
     7
370
    15
100
AcDbCircle
 10
3032.2394561095
 20
3934.9929013039
 30
0.0
 40
9.25
100
AcDbArc
 50
180.0
 51
360.0
  0
LINE
  5
13C
330
1F
100
AcDbEntity
  8
0
  6
Continuous
 62
     7
370
    15
100
AcDbLine
 10
2354.8894431872
 20
3964.7979440346
 30
0.0
 11
2354.8894431872
 21
3934.9929990425
 31
0.0
  0
LINE
  5
13D
330
1F
100
AcDbEntity
  8
0
  6
Continuous
 62
     7
370
    15
100
AcDbLine
 10
3022.989442615
 20
3964.7979440346
 30
0.0
 11
3022.989442615
 21
3934.9929990425
 31
0.0
  0
LINE
  5
13E
330
1F
100
AcDbEntity
  8
0
  6
Continuous
 62
     7
370
    15
100
AcDbLine
 10
2293.9223256392
 20
3892.9185571327
 30
0.0
 11
2293.9196136279
 21
3892.9185571327
 31
0.0
  0
LINE
  5
13F
330
1F
100
AcDbEntity
  8
0
  6
Continuous
 62
     7
370
    15
100
AcDbLine
 10
3083.956560163
 20
3892.9185571327
 30
0.0
 11
3083.9593019767
 21
3892.9185571327
 31
0.0
  0
ARC
  5
140
330
1F
100
AcDbEntity
  8
0
  6
Continuous
 62
     7
370
    15
100
AcDbCircle
 10
2335.8894561095
 20
3953.3123950745
 30
0.0
 40
0.5
100
AcDbArc
 50
359.9999999998
 51
34.1409885092
  0
ARC
  5
141
330
1F
100
AcDbEntity
  8
0
  6
Continuous
 62
     7
370
    15
100
AcDbCircle
 10
3041.9894561095
 20
3953.3123950745
 30
0.0
 40
0.5000000000004547
100
AcDbArc
 50
145.8590114908
 51
180.0000000001
  0
ARC
  5
142
330
1F
100
AcDbEntity
  8
0
  6
Continuous
 62
     7
370
    15
100
AcDbCircle
 10
2698.6894561095
 20
4027.6870186479
 30
0.0
 40
0.5
100
AcDbArc
 50
179.5301299954
 51
180.0
  0
ARC
  5
143
330
1F
100
AcDbEntity
  8
0
  6
Continuous
 62
     7
370
    15
100
AcDbCircle
 10
2679.1894561095
 20
4027.6870186479
 30
0.0
 40
0.5000000000004547
100
AcDbArc
 50
0.0
 51
0.4698700045
  0
ARC
  5
144
330
1F
100
AcDbEntity
  8
0
  6
Continuous
 62
     7
370
    15
100
AcDbCircle
 10
2072.0717274672
 20
4289.7467387616
 30
0.0
 40
0.4823958237454971
100
AcDbArc
 50
120.4092955569
 51
181.1619444826
  0
LWPOLYLINE
  5
145
330
1F
100
AcDbEntity
  8
0
  6
Continuous
 62
     7
370
    15
100
AcDbPolyline
 90
       13
 70
   128
 43
0.0
 10
2071.827551393
 20
4290.1627721443
 10
2082.003435163
 20
4296.2128820076
 10
2100.7240023894
 20
4306.3990773811
 10
2119.8775377555
 20
4315.7727422371
 10
2139.3622961326
 20
4324.4220914497
 10
2159.3399253173
 20
4332.5240316048
 10
2179.5520391745
 20
4340.0366010323
 10
2199.9526527209
 20
4347.0117749825
 10
2217.4025979323
 20
4352.5507154122
 10
2252.5986042304
 20
4362.6639547005
 10
2288.1492581649
 20
4371.6208638802
 10
2311.9198289199
 20
4376.9876660957
 10
2335.792562036
 20
4381.9215001717
  0
ARC
  5
146
330
1F
100
AcDbEntity
  8
0
  6
Continuous
 62
     7
370
    15
100
AcDbCircle
 10
2335.8838510411
 20
4381.4226555571
 30
0.0
 40
0.5071288120150269
100
AcDbArc
 50
11.9467706165
 51
100.3704281465
  0
LINE
  5
147
330
1F
100
AcDbEntity
  8
0
  6
Continuous
 62
     7
370
    15
100
AcDbLine
 10
2071.5894308371
 20
4289.4289197579
 30
0.0
 11
2071.5894308371
 21
4289.7369565621
 31
0.0
  0
ARC
  5
148
330
1F
100
AcDbEntity
  8
0
  6
Continuous
 62
     7
370
    15
100
AcDbCircle
 10
3041.9950547303
 20
4381.4226702228
 30
0.0
 40
0.5071161560975134
100
AcDbArc
 50
79.6281807354
 51
168.0546205014
  0
LWPOLYLINE
  5
149
330
1F
100
AcDbEntity
  8
0
  6
Continuous
 62
     7
370
    15
100
AcDbPolyline
 90
       13
 70
   128
 43
0.0
 10
3306.0513940139
 20
4290.1627721443
 10
3295.8754506392
 20
4296.2128820076
 10
3277.1549430175
 20
4306.3990773811
 10
3258.0014076514
 20
4315.7727422371
 10
3238.5165896697
 20
4324.4220914497
 10
3218.5390200896
 20
4332.5240316048
 10
3198.3268466277
 20
4340.0366010323
 10
3177.9262330813
 20
4347.0117749825
 10
3160.4763176722
 20
4352.5507154122
 10
3125.2803113742
 20
4362.6639547005
 10
3089.7296574397
 20
4371.6208638802
 10
3065.9590866847
 20
4376.9876660957
 10
3042.0863535685
 20
4381.9215001717
  0
ARC
  5
14A
330
1F
100
AcDbEntity
  8
0
  6
Continuous
 62
     7
370
    15
100
AcDbCircle
 10
3305.8073568007
 20
4289.7468839012
 30
0.0
 40
0.482200365219081
100
AcDbArc
 50
358.8203351491
 51
59.5962049534
  0
LINE
  5
14B
330
1F
100
AcDbEntity
  8
0
  6
Continuous
 62
     7
370
    15
100
AcDbLine
 10
3306.2894549651
 20
4289.4289197579
 30
0.0
 11
3306.2894549651
 21
4289.7369565621
 31
0.0
  0
ARC
  5
14C
330
1F
100
AcDbEntity
  8
0
  6
Continuous
 62
     7
370
    15
100
AcDbCircle
 10
2698.6900177672
 20
4413.7752946075
 30
0.0
 40
0.5005636329202074
100
AcDbArc
 50
89.7947960519
 51
179.6860930255
  0
LWPOLYLINE
  5
14D
330
1F
100
AcDbEntity
  8
0
  6
Continuous
 62
     7
370
    15
100
AcDbPolyline
 90
       11
 70
   128
 43
0.0
 10
3022.5796606822
 20
4385.6355847969
 10
2982.5495388789
 20
4392.4286069527
 10
2942.3597362323
 20
4398.2069196358
 10
2901.9507673068
 20
4403.0463399544
 10
2861.4432719035
 20
4406.9802465096
 10
2857.9804059548
 20
4407.2758855476
 10
2844.1236224456
 20
4408.3940686836
 10
2816.3870629353
 20
4410.3324117317
 10
2788.6203807278
 20
4411.8797483101
 10
2743.6802257283
 20
4413.5725202217
 10
2698.6918105243
 20
4414.2758550301
  0
ARC
  5
14E
330
1F
100
AcDbEntity
  8
0
  6
Continuous
 62
     7
370
    15
100
AcDbCircle
 10
3022.4627532008
 20
4385.1215663377
 30
0.0
 40
0.5271454596024555
100
AcDbArc
 50
2.3834593065
 51
77.1867139153
  0
LINE
  5
14F
330
1F
100
AcDbEntity
  8
0
  6
Continuous
 62
     7
370
    15
100
AcDbLine
 10
3022.989442615
 20
4385.0519361153
 30
0.0
 11
3022.989442615
 21
4385.1434888497
 31
0.0
  0
ARC
  5
150
330
1F
100
AcDbEntity
  8
0
  6
Continuous
 62
     7
370
    15
100
AcDbCircle
 10
2355.4162193572
 20
4385.1214870093
 30
0.0
 40
0.527235444815866
100
AcDbArc
 50
102.8174093401
 51
177.6083194436
  0
LWPOLYLINE
  5
151
330
1F
100
AcDbEntity
  8
0
  6
Continuous
 62
     7
370
    15
100
AcDbPolyline
 90
       11
 70
   128
 43
0.0
 10
2355.2992549224
 20
4385.6355847969
 10
2395.3293767257
 20
4392.4286069527
 10
2435.5191793723
 20
4398.2069196358
 10
2475.9281333966
 20
4403.0463399544
 10
2516.4356437011
 20
4406.9802465096
 10
2519.8985096497
 20
4407.2758855476
 10
2533.7552782578
 20
4408.3940686836
 10
2561.4918526692
 20
4410.3324117317
 10
2589.2585274262
 20
4411.8797483101
 10
2634.198686151
 20
4413.5725202217
 10
2679.1871022863
 20
4414.2758550301
  0
ARC
  5
152
330
1F
100
AcDbEntity
  8
0
  6
Continuous
 62
     7
370
    15
100
AcDbCircle
 10
2679.1888943847
 20
4413.7752939429
 30
0.0
 40
0.5005642952123243
100
AcDbArc
 50
0.3139826383
 51
90.2051282844
  0
LINE
  5
153
330
1F
100
AcDbEntity
  8
0
  6
Continuous
 62
     7
370
    15
100
AcDbLine
 10
2354.8894431872
 20
4385.0519361153
 30
0.0
 11
2354.8894431872
 21
4385.1434888497
 31
0.0
  0
ARC
  5
154
330
1F
100
AcDbEntity
  8
0
  6
Continuous
 62
     7
370
    15
100
AcDbCircle
 10
3394.6267793127
 20
4173.2079497307
 30
0.0
 40
0.5004254298225174
100
AcDbArc
 50
270.2226703287
 51
0.3024435368
  0
ARC
  5
155
330
1F
100
AcDbEntity
  8
0
  6
Continuous
 62
     7
370
    15
100
AcDbCircle
 10
3325.2947389717
 20
4276.817179403
 30
0.0
 40
0.5229923572740962
100
AcDbArc
 50
56.9891889532
 51
142.1005362737
  0
LWPOLYLINE
  5
156
330
1F
100
AcDbEntity
  8
0
  6
Continuous
 62
     7
370
    15
100
AcDbPolyline
 90
       15
 70
   128
 43
0.0
 10
3395.1271977706
 20
4173.2105912819
 10
3394.6128096862
 20
4181.8690004006
 10
3393.2129946036
 20
4190.4537381783
 10
3390.9849729819
 20
4198.8408269539
 10
3387.5504341407
 20
4207.9910936012
 10
3383.2504358573
 20
4216.8113889351
 10
3378.2175984664
 20
4225.2518834725
 10
3372.5846019072
 20
4233.2637014046
 10
3371.9142880721
 20
4234.1425122872
 10
3369.1693153663
 20
4237.6088800087
 10
3363.3904066367
 20
4244.320601429
 10
3357.2823014541
 20
4250.7354917183
 10
3347.2318854613
 20
4260.1692380562
 10
3336.623152761
 20
4268.9935865059
 10
3325.5796637816
 20
4277.2557439461
  0
ARC
  5
157
330
1F
100
AcDbEntity
  8
0
  6
Continuous
 62
     7
370
    15
100
AcDbCircle
 10
1983.2521654565
 20
4173.2080081597
 30
0.0
 40
0.5004840909848074
100
AcDbArc
 50
179.7042809968
 51
269.7706051376
  0
ARC
  5
158
330
1F
100
AcDbEntity
  8
0
  6
Continuous
 62
     7
370
    15
100
AcDbCircle
 10
2052.5846814604
 20
4276.8200044514
 30
0.0
 40
0.5208857581973143
100
AcDbArc
 50
37.6863532354
 51
123.2239215377
  0
LWPOLYLINE
  5
159
330
1F
100
AcDbEntity
  8
0
  6
Continuous
 62
     7
370
    15
100
AcDbPolyline
 90
       15
 70
   128
 43
0.0
 10
1982.7516880317
 20
4173.2105912819
 10
1983.2660761161
 20
4181.8690004006
 10
1984.6658911986
 20
4190.4537381783
 10
1986.8939128203
 20
4198.8408269539
 10
1990.3284516616
 20
4207.9910936012
 10
1994.6285095496
 20
4216.8113889351
 10
1999.6612873359
 20
4225.2518834725
 10
2005.294283895
 20
4233.2637014046
 10
2005.9645977301
 20
4234.1425122872
 10
2008.709570436
 20
4237.6088800087
 10
2014.4885387702
 20
4244.320601429
 10
2020.5966439528
 20
4250.7354917183
 10
2030.6470003409
 20
4260.1692380562
 10
2041.2557330413
 20
4268.9935865059
 10
2052.2992816253
 20
4277.2557439461
  0
LINE
  5
15A
330
1F
100
AcDbEntity
  8
0
  6
Continuous
 62
     7
370
    15
100
AcDbLine
 10
2336.3894429488
 20
4280.6999387398
 30
0.0
 11
2336.3894429488
 21
4381.4308347359
 31
0.0
  0
ARC
  5
15B
330
1F
100
AcDbEntity
  8
0
  6
Continuous
 62
     7
370
    15
100
AcDbCircle
 10
2345.6394561095
 20
4280.700123464
 30
0.0
 40
9.250000000000455
100
AcDbArc
 50
180.0
 51
0.0
  0
LINE
  5
15C
330
1F
100
AcDbEntity
  8
0
  6
Continuous
 62
     7
370
    15
100
AcDbLine
 10
2679.6894558204
 20
4294.8934735909
 30
0.0
 11
2679.6894558204
 21
4413.7756528511
 31
0.0
  0
ARC
  5
15D
330
1F
100
AcDbEntity
  8
0
  6
Continuous
 62
     7
370
    15
100
AcDbCircle
 10
2688.9394561095
 20
4294.8932457079
 30
0.0
 40
9.250000000001819
100
AcDbArc
 50
180.0
 51
0.0
  0
LINE
  5
15E
330
1F
100
AcDbEntity
  8
0
  6
Continuous
 62
     7
370
    15
100
AcDbLine
 10
2698.1894560588
 20
4294.8934735909
 30
0.0
 11
2698.1894560588
 21
4413.7756528511
 31
0.0
  0
ARC
  5
15F
330
1F
100
AcDbEntity
  8
0
  6
Continuous
 62
     7
370
    15
100
AcDbCircle
 10
3032.2394561095
 20
4280.700123464
 30
0.0
 40
9.25
100
AcDbArc
 50
180.0
 51
0.0
  0
LINE
  5
160
330
1F
100
AcDbEntity
  8
0
  6
Continuous
 62
     7
370
    15
100
AcDbLine
 10
3041.4894428534
 20
4280.6999387398
 30
0.0
 11
3041.4894428534
 21
4381.4308347359
 31
0.0
  0
ARC
  5
161
330
1F
100
AcDbEntity
  8
0
  6
Continuous
 62
     7
370
    15
100
AcDbCircle
 10
3315.5394561095
 20
4234.1446466564
 30
0.0
 40
9.25000000000091
100
AcDbArc
 50
180.0
 51
0.0
  0
LINE
  5
162
330
1F
100
AcDbEntity
  8
0
  6
Continuous
 62
     7
370
    15
100
AcDbLine
 10
3324.7894850058
 20
4234.1446580544
 30
0.0
 11
3324.7894850058
 21
4276.848525013
 31
0.0
  0
LINE
  5
163
330
1F
100
AcDbEntity
  8
0
  6
Continuous
 62
     7
370
    15
100
AcDbLine
 10
3394.6272340102
 20
4172.70752808
 30
0.0
 11
1983.2517113967
 21
4172.70752808
 31
0.0
  0
LINE
  5
164
330
1F
100
AcDbEntity
  8
0
  6
Continuous
 62
     7
370
    15
100
AcDbLine
 10
2053.089460401
 20
4234.1446580544
 30
0.0
 11
2053.089460401
 21
4276.848525013
 31
0.0
  0
ARC
  5
165
330
1F
100
AcDbEntity
  8
0
  6
Continuous
 62
     7
370
    15
100
AcDbCircle
 10
2062.3394561095
 20
4234.1446466564
 30
0.0
 40
9.250000000000455
100
AcDbArc
 50
180.0
 51
0.0
  0
LINE
  5
166
330
1F
100
AcDbEntity
  8
0
  6
Continuous
 62
     7
370
    15
100
AcDbLine
 10
3022.989442615
 20
4385.0519361153
 30
0.0
 11
3022.989442615
 21
4280.6999387398
 31
0.0
  0
LINE
  5
167
330
1F
100
AcDbEntity
  8
0
  6
Continuous
 62
     7
370
    15
100
AcDbLine
 10
2354.8894431872
 20
4385.0519361153
 30
0.0
 11
2354.8894431872
 21
4280.6999387398
 31
0.0
  0
LINE
  5
168
330
1F
100
AcDbEntity
  8
0
  6
Continuous
 62
     7
370
    15
100
AcDbLine
 10
1983.2517113967
 20
4172.70752808
 30
0.0
 11
1983.2501616759
 21
4172.70752808
 31
0.0
  0
LINE
  5
169
330
1F
100
AcDbEntity
  8
0
  6
Continuous
 62
     7
370
    15
100
AcDbLine
 10
3394.6272340102
 20
4172.70752808
 30
0.0
 11
3394.6287241263
 21
4172.70752808
 31
0.0
  0
ARC
  5
16A
330
1F
100
AcDbEntity
  8
0
  6
Continuous
 62
     7
370
    15
100
AcDbCircle
 10
3325.2894561095
 20
4276.8484065975
 30
0.0
 40
0.5000000000001892
100
AcDbArc
 50
144.5692903497
 51
179.9999999999
  0
ARC
  5
16B
330
1F
100
AcDbEntity
  8
0
  6
Continuous
 62
     7
370
    15
100
AcDbCircle
 10
2052.5894561095
 20
4276.8484065975
 30
0.0
 40
0.5
100
AcDbArc
 50
0.0
 51
35.4307096504
  0
ARC
  5
16C
330
1F
100
AcDbEntity
  8
0
  6
Continuous
 62
     7
370
    15
100
AcDbCircle
 10
3041.9894561095
 20
4381.4307679946
 30
0.0
 40
0.5
100
AcDbArc
 50
168.8357863434
 51
180.0
  0
ARC
  5
16D
330
1F
100
AcDbEntity
  8
0
  6
Continuous
 62
     7
370
    15
100
AcDbCircle
 10
2335.8894561095
 20
4381.4307679946
 30
0.0
 40
0.5000000000004547
100
AcDbArc
 50
0.0
 51
11.1642136566
  0
LINE
  5
16E
330
1F
100
AcDbEntity
  8
0
  6
Continuous
 62
     7
370
    15
100
AcDbLine
 10
2698.1894560588
 20
4413.7756528511
 30
0.0
 11
2698.1894560588
 21
4413.7780370369
 31
0.0
  0
LINE
  5
16F
330
1F
100
AcDbEntity
  8
0
  6
Continuous
 62
     7
370
    15
100
AcDbLine
 10
2679.6894558204
 20
4413.7756528511
 30
0.0
 11
2679.6894558204
 21
4413.7780370369
 31
0.0
  0
LINE
  5
170
330
1F
100
AcDbEntity
  8
0
  6
Continuous
 62
     7
370
    15
100
AcDbLine
 10
3306.2894549651
 20
4289.4289197579
 30
0.0
 11
3306.2894549651
 21
4234.1446580544
 31
0.0
  0
LINE
  5
171
330
1F
100
AcDbEntity
  8
0
  6
Continuous
 62
     7
370
    15
100
AcDbLine
 10
2071.5894308371
 20
4289.4289197579
 30
0.0
 11
2071.5894308371
 21
4234.1446580544
 31
0.0
  0
ARC
  5
172
330
1F
100
AcDbEntity
  8
0
  6
Continuous
 62
     7
370
    15
100
AcDbCircle
 10
3325.4191058305
 20
-86.8606242209
 30
0.0
 40
2.185147579239735
100
AcDbArc
 50
221.7727515101
 51
238.618838465
  0
ARC
  5
173
330
1F
100
AcDbEntity
  8
0
  6
Continuous
 62
     7
370
    15
100
AcDbCircle
 10
3250.6273097091
 20
308.8951176648
 30
0.0
 40
103.581118136885
100
AcDbArc
 50
314.9368410424
 51
315.3289056895
  0
LINE
  5
174
330
1F
100
AcDbEntity
  8
0
  6
Continuous
 62
     7
370
    15
100
AcDbLine
 10
3324.2894616408
 20
-88.726132904
 30
0.0
 11
3324.2894616408
 21
236.0738666906
 31
0.0
  0
ARC
  5
175
330
1F
100
AcDbEntity
  8
0
  6
Continuous
 62
     7
370
    15
100
AcDbCircle
 10
3250.6273097091
 20
181.7526159549
 30
0.0
 40
103.5811181368849
100
AcDbArc
 50
44.6710943105
 51
45.0631589576
  0
ARC
  5
176
330
1F
100
AcDbEntity
  8
0
  6
Continuous
 62
     7
370
    15
100
AcDbCircle
 10
3325.4191058305
 20
577.5083578407
 30
0.0
 40
2.185147579239697
100
AcDbArc
 50
121.381161535
 51
138.2272484899
  0
LINE
  5
177
330
1F
100
AcDbEntity
  8
0
  6
Continuous
 62
     7
370
    15
100
AcDbLine
 10
3324.2894616408
 20
579.3738665238
 30
0.0
 11
3324.2894616408
 21
254.5738669291
 31
0.0
  0
LINE
  5
178
330
1F
100
AcDbEntity
  8
0
  6
Continuous
 62
     7
370
    15
100
AcDbLine
 10
3305.9894647879
 20
236.0738666906
 30
0.0
 11
3305.9894647879
 21
-88.726132904
 31
0.0
  0
ARC
  5
179
330
1F
100
AcDbEntity
  8
0
  6
Continuous
 62
     7
370
    15
100
AcDbCircle
 10
3377.2355907724
 20
306.4818775362
 30
0.0
 40
100.166357854759
100
AcDbArc
 50
224.6610082917
 51
225.0664147746
  0
ARC
  5
17A
330
1F
100
AcDbEntity
  8
0
  6
Continuous
 62
     7
370
    15
100
AcDbCircle
 10
3304.859462254
 20
-86.8604312601
 30
0.0
 40
2.185498924099285
100
AcDbArc
 50
301.3865475793
 51
318.2286931379
  0
ARC
  5
17B
330
1F
100
AcDbEntity
  8
0
  6
Continuous
 62
     7
370
    15
100
AcDbCircle
 10
3304.859462254
 20
577.5081648798
 30
0.0
 40
2.185498924099241
100
AcDbArc
 50
41.7713068621
 51
58.6134524207
  0
ARC
  5
17C
330
1F
100
AcDbEntity
  8
0
  6
Continuous
 62
     7
370
    15
100
AcDbCircle
 10
3377.2355907724
 20
184.1658560835
 30
0.0
 40
100.166357854759
100
AcDbArc
 50
134.9335852254
 51
135.3389917083
  0
LINE
  5
17D
330
1F
100
AcDbEntity
  8
0
  6
Continuous
 62
     7
370
    15
100
AcDbLine
 10
3305.9894647879
 20
254.5738669291
 30
0.0
 11
3305.9894647879
 21
579.3738665238
 31
0.0
  0
LINE
  5
17E
330
1F
100
AcDbEntity
  8
0
  6
Continuous
 62
     7
370
    15
100
AcDbLine
 10
3324.2894616408
 20
236.0738666906
 30
0.0
 11
3305.9894647879
 21
236.0738666906
 31
0.0
  0
LINE
  5
17F
330
1F
100
AcDbEntity
  8
0
  6
Continuous
 62
     7
370
    15
100
AcDbLine
 10
3324.2894616408
 20
254.5738669291
 30
0.0
 11
3305.9894647879
 21
254.5738669291
 31
0.0
  0
LINE
  5
180
330
1F
100
AcDbEntity
  8
0
  6
Continuous
 62
     7
370
    15
100
AcDbLine
 10
3305.9976902289
 20
579.3738665238
 30
0.0
 11
3324.2812361998
 21
579.3738665238
 31
0.0
  0
ARC
  5
181
330
1F
100
AcDbEntity
  8
0
  6
Continuous
 62
     7
370
    15
100
AcDbCircle
 10
3305.7923776923
 20
861.6889080324
 30
0.0
 40
1.021621143906683
100
AcDbArc
 50
46.9764602735
 51
74.6001667252
  0
ARC
  5
182
330
1F
100
AcDbEntity
  8
0
  6
Continuous
 62
     7
370
    15
100
AcDbCircle
 10
3308.335245215
 20
596.3934055473
 30
0.0
 40
2.778941039777785
100
AcDbArc
 50
131.6221951323
 51
147.5785700532
  0
LINE
  5
183
330
1F
100
AcDbEntity
  8
0
  6
Continuous
 62
     7
370
    15
100
AcDbLine
 10
3305.9894647879
 20
597.8833140984
 30
0.0
 11
3305.9894647879
 21
862.6738490715
 31
0.0
  0
ARC
  5
184
330
1F
100
AcDbEntity
  8
0
  6
Continuous
 62
     7
370
    15
100
AcDbCircle
 10
3321.9420988513
 20
596.3918714334
 30
0.0
 40
2.781099294965867
100
AcDbArc
 50
32.4306310552
 51
48.3753462232
  0
ARC
  5
185
330
1F
100
AcDbEntity
  8
0
  6
Continuous
 62
     7
370
    15
100
AcDbCircle
 10
3324.4868055099
 20
861.6883422115
 30
0.0
 40
1.022250676573963
100
AcDbArc
 50
105.4085075488
 51
133.0148654525
  0
LINE
  5
186
330
1F
100
AcDbEntity
  8
0
  6
Continuous
 62
     7
370
    15
100
AcDbLine
 10
3324.2151942534
 20
862.6738490715
 30
0.0
 11
3324.2894616408
 21
862.6738490715
 31
0.0
  0
LINE
  5
187
330
1F
100
AcDbEntity
  8
0
  6
Continuous
 62
     7
370
    15
100
AcDbLine
 10
3324.2894616408
 20
862.6738490715
 30
0.0
 11
3324.2894616408
 21
597.8833140984
 31
0.0
  0
LINE
  5
188
330
1F
100
AcDbEntity
  8
0
  6
Continuous
 62
     7
370
    15
100
AcDbLine
 10
3305.9894647879
 20
597.8738667622
 30
0.0
 11
3305.9894647879
 21
597.8833140984
 31
0.0
  0
LINE
  5
189
330
1F
100
AcDbEntity
  8
0
  6
Continuous
 62
     7
370
    15
100
AcDbLine
 10
3324.2894616408
 20
597.8833140984
 30
0.0
 11
3324.2894616408
 21
597.8738667622
 31
0.0
  0
ARC
  5
18A
330
1F
100
AcDbEntity
  8
0
  6
Continuous
 62
     7
370
    15
100
AcDbCircle
 10
3308.335245215
 20
-105.7456719275
 30
0.0
 40
2.778941039777721
100
AcDbArc
 50
212.4214299468
 51
228.3778048677
  0
ARC
  5
18B
330
1F
100
AcDbEntity
  8
0
  6
Continuous
 62
     7
370
    15
100
AcDbCircle
 10
3305.7923776923
 20
-371.0411744126
 30
0.0
 40
1.021621143906557
100
AcDbArc
 50
285.3998332748
 51
313.0235397265
  0
LINE
  5
18C
330
1F
100
AcDbEntity
  8
0
  6
Continuous
 62
     7
370
    15
100
AcDbLine
 10
3305.9894647879
 20
-107.2355804787
 30
0.0
 11
3305.9894647879
 21
-372.0261154518
 31
0.0
  0
LINE
  5
18D
330
1F
100
AcDbEntity
  8
0
  6
Continuous
 62
     7
370
    15
100
AcDbLine
 10
3324.2151942534
 20
-372.0261154518
 30
0.0
 11
3324.2894616408
 21
-372.0261154518
 31
0.0
  0
ARC
  5
18E
330
1F
100
AcDbEntity
  8
0
  6
Continuous
 62
     7
370
    15
100
AcDbCircle
 10
3324.4868055099
 20
-371.0406085918
 30
0.0
 40
1.022250676573921
100
AcDbArc
 50
226.9851345475
 51
254.5914924512
  0
ARC
  5
18F
330
1F
100
AcDbEntity
  8
0
  6
Continuous
 62
     7
370
    15
100
AcDbCircle
 10
3321.9420988513
 20
-105.7441378137
 30
0.0
 40
2.781099294965852
100
AcDbArc
 50
311.6246537768
 51
327.5693689448
  0
LINE
  5
190
330
1F
100
AcDbEntity
  8
0
  6
Continuous
 62
     7
370
    15
100
AcDbLine
 10
3324.2894616408
 20
-372.0261154518
 30
0.0
 11
3324.2894616408
 21
-107.2355804787
 31
0.0
  0
LINE
  5
191
330
1F
100
AcDbEntity
  8
0
  6
Continuous
 62
     7
370
    15
100
AcDbLine
 10
3305.9894647879
 20
-107.2261331425
 30
0.0
 11
3305.9894647879
 21
-107.2355804787
 31
0.0
  0
LINE
  5
192
330
1F
100
AcDbEntity
  8
0
  6
Continuous
 62
     7
370
    15
100
AcDbLine
 10
3324.2894616408
 20
-107.2355804787
 30
0.0
 11
3324.2894616408
 21
-107.2261331425
 31
0.0
  0
ARC
  5
193
330
1F
100
AcDbEntity
  8
0
  6
Continuous
 62
     7
370
    15
100
AcDbCircle
 10
3307.2282285702
 20
880.9066132127
 30
0.0
 40
1.28996694293207
100
AcDbArc
 50
124.940668455
 51
163.8026544994
  0
ARC
  5
194
330
1F
100
AcDbEntity
  8
0
  6
Continuous
 62
     7
370
    15
100
AcDbCircle
 10
3323.0507069588
 20
880.9065566143
 30
0.0
 40
1.289973993040146
100
AcDbArc
 50
16.1998723543
 51
55.0632728663
  0
LINE
  5
195
330
1F
100
AcDbEntity
  8
0
  6
Continuous
 62
     7
370
    15
100
AcDbLine
 10
3305.9894647879
 20
881.1738791123
 30
0.0
 11
3305.9894647879
 21
881.2664451256
 31
0.0
  0
LINE
  5
196
330
1F
100
AcDbEntity
  8
0
  6
Continuous
 62
     7
370
    15
100
AcDbLine
 10
3324.2894616408
 20
881.2664451256
 30
0.0
 11
3324.2894616408
 21
881.1738791123
 31
0.0
  0
ARC
  5
197
330
1F
100
AcDbEntity
  8
0
  6
Continuous
 62
     7
370
    15
100
AcDbCircle
 10
3306.4843830127
 20
951.0166865079
 30
0.0
 40
0.4949310879480704
100
AcDbArc
 50
89.4158926181
 51
180.4130855414
  0
LINE
  5
198
330
1F
100
AcDbEntity
  8
0
  6
Continuous
 62
     7
370
    15
100
AcDbLine
 10
3306.4894285483
 20
951.511591877
 30
0.0
 11
3306.4894285483
 21
881.964057888
 31
0.0
  0
LINE
  5
199
330
1F
100
AcDbEntity
  8
0
  6
Continuous
 62
     7
370
    15
100
AcDbLine
 10
3305.9894647879
 20
881.2664451256
 30
0.0
 11
3305.9894647879
 21
951.0131182327
 31
0.0
  0
LINE
  5
19A
330
1F
100
AcDbEntity
  8
0
  6
Continuous
 62
     7
370
    15
100
AcDbLine
 10
3323.7894382758
 20
881.964057888
 30
0.0
 11
3323.7894382758
 21
951.511591877
 31
0.0
  0
ARC
  5
19B
330
1F
100
AcDbEntity
  8
0
  6
Continuous
 62
     7
370
    15
100
AcDbCircle
 10
3323.7944397503
 20
951.0165831267
 30
0.0
 40
0.4950340165779236
100
AcDbArc
 50
359.5989660963
 51
90.5788859896
  0
LINE
  5
19C
330
1F
100
AcDbEntity
  8
0
  6
Continuous
 62
     7
370
    15
100
AcDbLine
 10
3324.2894616408
 20
951.0131182327
 30
0.0
 11
3324.2894616408
 21
881.2664451256
 31
0.0
  0
ARC
  5
19D
330
1F
100
AcDbEntity
  8
0
  6
Continuous
 62
     7
370
    15
100
AcDbCircle
 10
3323.7944397503
 20
-460.368849507
 30
0.0
 40
0.4950340165779235
100
AcDbArc
 50
269.4211140104
 51
0.4010339038
  0
LINE
  5
19E
330
1F
100
AcDbEntity
  8
0
  6
Continuous
 62
     7
370
    15
100
AcDbLine
 10
3323.7894382758
 20
-391.3163242683
 30
0.0
 11
3323.7894382758
 21
-460.8638582573
 31
0.0
  0
ARC
  5
19F
330
1F
100
AcDbEntity
  8
0
  6
Continuous
 62
     7
370
    15
100
AcDbCircle
 10
3323.0507069588
 20
-390.2588229945
 30
0.0
 40
1.289973993040146
100
AcDbArc
 50
304.9367271337
 51
343.8001276457
  0
LINE
  5
1A0
330
1F
100
AcDbEntity
  8
0
  6
Continuous
 62
     7
370
    15
100
AcDbLine
 10
3324.2894616408
 20
-460.365384613
 30
0.0
 11
3324.2894616408
 21
-390.6187115059
 31
0.0
  0
LINE
  5
1A1
330
1F
100
AcDbEntity
  8
0
  6
Continuous
 62
     7
370
    15
100
AcDbLine
 10
3306.4894285483
 20
-460.8638582573
 30
0.0
 11
3306.4894285483
 21
-391.3163242683
 31
0.0
  0
ARC
  5
1A2
330
1F
100
AcDbEntity
  8
0
  6
Continuous
 62
     7
370
    15
100
AcDbCircle
 10
3306.4843830127
 20
-460.3689528882
 30
0.0
 40
0.4949310879478999
100
AcDbArc
 50
179.5869144586
 51
270.5841073819
  0
ARC
  5
1A3
330
1F
100
AcDbEntity
  8
0
  6
Continuous
 62
     7
370
    15
100
AcDbCircle
 10
3307.2282285702
 20
-390.258879593
 30
0.0
 40
1.289966942932022
100
AcDbArc
 50
196.1973455006
 51
235.059331545
  0
LINE
  5
1A4
330
1F
100
AcDbEntity
  8
0
  6
Continuous
 62
     7
370
    15
100
AcDbLine
 10
3305.9894647879
 20
-390.6187115059
 30
0.0
 11
3305.9894647879
 21
-460.365384613
 31
0.0
  0
LINE
  5
1A5
330
1F
100
AcDbEntity
  8
0
  6
Continuous
 62
     7
370
    15
100
AcDbLine
 10
3305.9894647879
 20
-390.5261454925
 30
0.0
 11
3305.9894647879
 21
-390.6187115059
 31
0.0
  0
LINE
  5
1A6
330
1F
100
AcDbEntity
  8
0
  6
Continuous
 62
     7
370
    15
100
AcDbLine
 10
3324.2894616408
 20
-390.6187115059
 30
0.0
 11
3324.2894616408
 21
-390.5261454925
 31
0.0
  0
LINE
  5
1A7
330
1F
100
AcDbEntity
  8
0
  6
Continuous
 62
     7
370
    15
100
AcDbLine
 10
3323.7894382758
 20
951.511591877
 30
0.0
 11
3306.4894285483
 21
951.511591877
 31
0.0
  0
LINE
  5
1A8
330
1F
100
AcDbEntity
  8
0
  6
Continuous
 62
     7
370
    15
100
AcDbLine
 10
3323.7894382758
 20
-460.8638582573
 30
0.0
 11
3306.4894285483
 21
-460.8638582573
 31
0.0
  0
ARC
  5
1A9
330
1F
100
AcDbEntity
  8
0
  6
Continuous
 62
     7
370
    15
100
AcDbCircle
 10
2072.819449965
 20
-86.8604312601
 30
0.0
 40
2.185498924099285
100
AcDbArc
 50
221.7713068621
 51
238.6134524207
  0
ARC
  5
1AA
330
1F
100
AcDbEntity
  8
0
  6
Continuous
 62
     7
370
    15
100
AcDbCircle
 10
2000.4433214466
 20
306.4818775362
 30
0.0
 40
100.1663578547587
100
AcDbArc
 50
314.9335852254
 51
315.3389917083
  0
LINE
  5
1AB
330
1F
100
AcDbEntity
  8
0
  6
Continuous
 62
     7
370
    15
100
AcDbLine
 10
2071.6894474311
 20
-88.726132904
 30
0.0
 11
2071.6894474311
 21
236.0738666906
 31
0.0
  0
ARC
  5
1AC
330
1F
100
AcDbEntity
  8
0
  6
Continuous
 62
     7
370
    15
100
AcDbCircle
 10
2000.4433214466
 20
184.1658560835
 30
0.0
 40
100.1663578547587
100
AcDbArc
 50
44.6610082917
 51
45.0664147746
  0
ARC
  5
1AD
330
1F
100
AcDbEntity
  8
0
  6
Continuous
 62
     7
370
    15
100
AcDbCircle
 10
2072.819449965
 20
577.5081648798
 30
0.0
 40
2.185498924099241
100
AcDbArc
 50
121.3865475793
 51
138.2286931379
  0
LINE
  5
1AE
330
1F
100
AcDbEntity
  8
0
  6
Continuous
 62
     7
370
    15
100
AcDbLine
 10
2071.6894474311
 20
579.3738665238
 30
0.0
 11
2071.6894474311
 21
254.5738669291
 31
0.0
  0
LINE
  5
1AF
330
1F
100
AcDbEntity
  8
0
  6
Continuous
 62
     7
370
    15
100
AcDbLine
 10
2053.3894505782
 20
236.0738666906
 30
0.0
 11
2053.3894505782
 21
-88.726132904
 31
0.0
  0
ARC
  5
1B0
330
1F
100
AcDbEntity
  8
0
  6
Continuous
 62
     7
370
    15
100
AcDbCircle
 10
2127.0516025099
 20
308.8951176648
 30
0.0
 40
103.5811181368853
100
AcDbArc
 50
224.6710943105
 51
225.0631589576
  0
ARC
  5
1B1
330
1F
100
AcDbEntity
  8
0
  6
Continuous
 62
     7
370
    15
100
AcDbCircle
 10
2052.2602507114
 20
-86.8611574342
 30
0.0
 40
2.184460993895065
100
AcDbArc
 50
301.3784948895
 51
318.2299151354
  0
ARC
  5
1B2
330
1F
100
AcDbEntity
  8
0
  6
Continuous
 62
     7
370
    15
100
AcDbCircle
 10
2052.2602507114
 20
577.5088910539
 30
0.0
 40
2.184460993895028
100
AcDbArc
 50
41.7700848646
 51
58.6215051105
  0
ARC
  5
1B3
330
1F
100
AcDbEntity
  8
0
  6
Continuous
 62
     7
370
    15
100
AcDbCircle
 10
2127.0516025099
 20
181.7526159549
 30
0.0
 40
103.5811181368853
100
AcDbArc
 50
134.9368410424
 51
135.3289056895
  0
LINE
  5
1B4
330
1F
100
AcDbEntity
  8
0
  6
Continuous
 62
     7
370
    15
100
AcDbLine
 10
2053.3894505782
 20
254.5738669291
 30
0.0
 11
2053.3894505782
 21
579.3738665238
 31
0.0
  0
LINE
  5
1B5
330
1F
100
AcDbEntity
  8
0
  6
Continuous
 62
     7
370
    15
100
AcDbLine
 10
2053.3976760192
 20
-88.726132904
 30
0.0
 11
2071.6812219901
 21
-88.726132904
 31
0.0
  0
ARC
  5
1B6
330
1F
100
AcDbEntity
  8
0
  6
Continuous
 62
     7
370
    15
100
AcDbCircle
 10
2055.7368133677
 20
596.3918714334
 30
0.0
 40
2.781099294965867
100
AcDbArc
 50
131.6246537768
 51
147.5693689448
  0
ARC
  5
1B7
330
1F
100
AcDbEntity
  8
0
  6
Continuous
 62
     7
370
    15
100
AcDbCircle
 10
2069.343667004
 20
596.3934055473
 30
0.0
 40
2.778941039778128
100
AcDbArc
 50
32.4214299468
 51
48.3778048677
  0
LINE
  5
1B8
330
1F
100
AcDbEntity
  8
0
  6
Continuous
 62
     7
370
    15
100
AcDbLine
 10
2053.3894505782
 20
597.8738667622
 30
0.0
 11
2053.3894505782
 21
597.8833140984
 31
0.0
  0
LINE
  5
1B9
330
1F
100
AcDbEntity
  8
0
  6
Continuous
 62
     7
370
    15
100
AcDbLine
 10
2071.6894474311
 20
597.8833140984
 30
0.0
 11
2071.6894474311
 21
597.8738667622
 31
0.0
  0
ARC
  5
1BA
330
1F
100
AcDbEntity
  8
0
  6
Continuous
 62
     7
370
    15
100
AcDbCircle
 10
2071.8865345268
 20
861.6889080324
 30
0.0
 40
1.021621143906683
100
AcDbArc
 50
105.3998332748
 51
133.0235397265
  0
LINE
  5
1BB
330
1F
100
AcDbEntity
  8
0
  6
Continuous
 62
     7
370
    15
100
AcDbLine
 10
2071.6894474311
 20
862.6738490715
 30
0.0
 11
2071.6894474311
 21
597.8833140984
 31
0.0
  0
ARC
  5
1BC
330
1F
100
AcDbEntity
  8
0
  6
Continuous
 62
     7
370
    15
100
AcDbCircle
 10
2053.1921067091
 20
861.6883422115
 30
0.0
 40
1.022250676573753
100
AcDbArc
 50
46.9851345476
 51
74.5914924512
  0
LINE
  5
1BD
330
1F
100
AcDbEntity
  8
0
  6
Continuous
 62
     7
370
    15
100
AcDbLine
 10
2053.3894505782
 20
862.6738490715
 30
0.0
 11
2053.4637179656
 21
862.6738490715
 31
0.0
  0
LINE
  5
1BE
330
1F
100
AcDbEntity
  8
0
  6
Continuous
 62
     7
370
    15
100
AcDbLine
 10
2053.3894505782
 20
597.8833140984
 30
0.0
 11
2053.3894505782
 21
862.6738490715
 31
0.0
  0
ARC
  5
1BF
330
1F
100
AcDbEntity
  8
0
  6
Continuous
 62
     7
370
    15
100
AcDbCircle
 10
2055.7368133677
 20
-105.7441378137
 30
0.0
 40
2.781099294965852
100
AcDbArc
 50
212.4306310552
 51
228.3753462232
  0
ARC
  5
1C0
330
1F
100
AcDbEntity
  8
0
  6
Continuous
 62
     7
370
    15
100
AcDbCircle
 10
2069.343667004
 20
-105.7456719275
 30
0.0
 40
2.778941039778082
100
AcDbArc
 50
311.6221951323
 51
327.5785700532
  0
LINE
  5
1C1
330
1F
100
AcDbEntity
  8
0
  6
Continuous
 62
     7
370
    15
100
AcDbLine
 10
2053.3894505782
 20
-107.2261331425
 30
0.0
 11
2053.3894505782
 21
-107.2355804787
 31
0.0
  0
LINE
  5
1C2
330
1F
100
AcDbEntity
  8
0
  6
Continuous
 62
     7
370
    15
100
AcDbLine
 10
2071.6894474311
 20
-107.2355804787
 30
0.0
 11
2071.6894474311
 21
-107.2261331425
 31
0.0
  0
ARC
  5
1C3
330
1F
100
AcDbEntity
  8
0
  6
Continuous
 62
     7
370
    15
100
AcDbCircle
 10
2071.8865345268
 20
-371.0411744126
 30
0.0
 40
1.021621143906557
100
AcDbArc
 50
226.9764602735
 51
254.6001667252
  0
LINE
  5
1C4
330
1F
100
AcDbEntity
  8
0
  6
Continuous
 62
     7
370
    15
100
AcDbLine
 10
2071.6894474311
 20
-372.0261154518
 30
0.0
 11
2071.6894474311
 21
-107.2355804787
 31
0.0
  0
ARC
  5
1C5
330
1F
100
AcDbEntity
  8
0
  6
Continuous
 62
     7
370
    15
100
AcDbCircle
 10
2053.1921067091
 20
-371.0406085918
 30
0.0
 40
1.022250676573699
100
AcDbArc
 50
285.4085075488
 51
313.0148654524
  0
LINE
  5
1C6
330
1F
100
AcDbEntity
  8
0
  6
Continuous
 62
     7
370
    15
100
AcDbLine
 10
2053.3894505782
 20
-372.0261154518
 30
0.0
 11
2053.4637179656
 21
-372.0261154518
 31
0.0
  0
LINE
  5
1C7
330
1F
100
AcDbEntity
  8
0
  6
Continuous
 62
     7
370
    15
100
AcDbLine
 10
2053.3894505782
 20
-107.2355804787
 30
0.0
 11
2053.3894505782
 21
-372.0261154518
 31
0.0
  0
ARC
  5
1C8
330
1F
100
AcDbEntity
  8
0
  6
Continuous
 62
     7
370
    15
100
AcDbCircle
 10
2053.8844724687
 20
951.0165831267
 30
0.0
 40
0.4950340165783774
100
AcDbArc
 50
89.4211140104
 51
180.4010339037
  0
LINE
  5
1C9
330
1F
100
AcDbEntity
  8
0
  6
Continuous
 62
     7
370
    15
100
AcDbLine
 10
2053.8894739432
 20
951.511591877
 30
0.0
 11
2053.8894739432
 21
881.964057888
 31
0.0
  0
ARC
  5
1CA
330
1F
100
AcDbEntity
  8
0
  6
Continuous
 62
     7
370
    15
100
AcDbCircle
 10
2054.628585801
 20
880.9062838565
 30
0.0
 40
1.290415530073642
100
AcDbArc
 50
124.9436430853
 51
163.7932116941
  0
LINE
  5
1CB
330
1F
100
AcDbEntity
  8
0
  6
Continuous
 62
     7
370
    15
100
AcDbLine
 10
2053.3894505782
 20
881.2664451256
 30
0.0
 11
2053.3894505782
 21
951.0131182327
 31
0.0
  0
ARC
  5
1CC
330
1F
100
AcDbEntity
  8
0
  6
Continuous
 62
     7
370
    15
100
AcDbCircle
 10
2070.4506836488
 20
880.9066132127
 30
0.0
 40
1.289966942931708
100
AcDbArc
 50
16.1973455006
 51
55.0593315451
  0
LINE
  5
1CD
330
1F
100
AcDbEntity
  8
0
  6
Continuous
 62
     7
370
    15
100
AcDbLine
 10
2053.3894505782
 20
881.1738791123
 30
0.0
 11
2053.3894505782
 21
881.2664451256
 31
0.0
  0
LINE
  5
1CE
330
1F
100
AcDbEntity
  8
0
  6
Continuous
 62
     7
370
    15
100
AcDbLine
 10
2071.6894474311
 20
881.2664451256
 30
0.0
 11
2071.6894474311
 21
881.1738791123
 31
0.0
  0
LINE
  5
1CF
330
1F
100
AcDbEntity
  8
0
  6
Continuous
 62
     7
370
    15
100
AcDbLine
 10
2071.1894836707
 20
881.964057888
 30
0.0
 11
2071.1894836707
 21
951.511591877
 31
0.0
  0
ARC
  5
1D0
330
1F
100
AcDbEntity
  8
0
  6
Continuous
 62
     7
370
    15
100
AcDbCircle
 10
2071.1945292063
 20
951.0166865079
 30
0.0
 40
0.4949310879480658
100
AcDbArc
 50
359.5869144586
 51
90.5841073818
  0
LINE
  5
1D1
330
1F
100
AcDbEntity
  8
0
  6
Continuous
 62
     7
370
    15
100
AcDbLine
 10
2071.6894474311
 20
951.0131182327
 30
0.0
 11
2071.6894474311
 21
881.2664451256
 31
0.0
  0
LINE
  5
1D2
330
1F
100
AcDbEntity
  8
0
  6
Continuous
 62
     7
370
    15
100
AcDbLine
 10
2053.8894739432
 20
-460.8638582573
 30
0.0
 11
2053.8894739432
 21
-391.3163242683
 31
0.0
  0
ARC
  5
1D3
330
1F
100
AcDbEntity
  8
0
  6
Continuous
 62
     7
370
    15
100
AcDbCircle
 10
2053.8844724687
 20
-460.368849507
 30
0.0
 40
0.4950340165783782
100
AcDbArc
 50
179.5989660962
 51
270.5788859896
  0
ARC
  5
1D4
330
1F
100
AcDbEntity
  8
0
  6
Continuous
 62
     7
370
    15
100
AcDbCircle
 10
2054.628585801
 20
-390.2585502367
 30
0.0
 40
1.290415530073548
100
AcDbArc
 50
196.2067883059
 51
235.0563569147
  0
LINE
  5
1D5
330
1F
100
AcDbEntity
  8
0
  6
Continuous
 62
     7
370
    15
100
AcDbLine
 10
2053.3894505782
 20
-390.6187115059
 30
0.0
 11
2053.3894505782
 21
-460.365384613
 31
0.0
  0
ARC
  5
1D6
330
1F
100
AcDbEntity
  8
0
  6
Continuous
 62
     7
370
    15
100
AcDbCircle
 10
2071.1945292063
 20
-460.3689528882
 30
0.0
 40
0.4949310879478953
100
AcDbArc
 50
269.4158926182
 51
0.4130855414
  0
LINE
  5
1D7
330
1F
100
AcDbEntity
  8
0
  6
Continuous
 62
     7
370
    15
100
AcDbLine
 10
2071.1894836707
 20
-391.3163242683
 30
0.0
 11
2071.1894836707
 21
-460.8638582573
 31
0.0
  0
ARC
  5
1D8
330
1F
100
AcDbEntity
  8
0
  6
Continuous
 62
     7
370
    15
100
AcDbCircle
 10
2070.4506836488
 20
-390.258879593
 30
0.0
 40
1.289966942931586
100
AcDbArc
 50
304.9406684549
 51
343.8026544994
  0
LINE
  5
1D9
330
1F
100
AcDbEntity
  8
0
  6
Continuous
 62
     7
370
    15
100
AcDbLine
 10
2071.6894474311
 20
-460.365384613
 30
0.0
 11
2071.6894474311
 21
-390.6187115059
 31
0.0
  0
LINE
  5
1DA
330
1F
100
AcDbEntity
  8
0
  6
Continuous
 62
     7
370
    15
100
AcDbLine
 10
2053.3894505782
 20
-390.5261454925
 30
0.0
 11
2053.3894505782
 21
-390.6187115059
 31
0.0
  0
LINE
  5
1DB
330
1F
100
AcDbEntity
  8
0
  6
Continuous
 62
     7
370
    15
100
AcDbLine
 10
2071.6894474311
 20
-390.6187115059
 30
0.0
 11
2071.6894474311
 21
-390.5261454925
 31
0.0
  0
LINE
  5
1DC
330
1F
100
AcDbEntity
  8
0
  6
Continuous
 62
     7
370
    15
100
AcDbLine
 10
2071.1894836707
 20
951.511591877
 30
0.0
 11
2053.8894739432
 21
951.511591877
 31
0.0
  0
LINE
  5
1DD
330
1F
100
AcDbEntity
  8
0
  6
Continuous
 62
     7
370
    15
100
AcDbLine
 10
2071.1894836707
 20
-460.8638582573
 30
0.0
 11
2053.8894739432
 21
-460.8638582573
 31
0.0
  0
ARC
  5
1DE
330
1F
100
AcDbEntity
  8
0
  6
Continuous
 62
     7
370
    15
100
AcDbCircle
 10
2072.0717274672
 20
6075.6702197491
 30
0.0
 40
0.4823958237455155
100
AcDbArc
 50
120.4092955569
 51
181.1619444827
  0
ARC
  5
1DF
330
1F
100
AcDbEntity
  8
0
  6
Continuous
 62
     7
370
    15
100
AcDbCircle
 10
2335.9023889292
 20
6167.3732140154
 30
0.0
 40
0.4839178645873893
100
AcDbArc
 50
9.2636099443
 51
103.1177825071
  0
LINE
  5
1E0
330
1F
100
AcDbEntity
  8
0
  6
Continuous
 62
     7
370
    15
100
AcDbLine
 10
2071.5894308371
 20
6075.3524007454
 30
0.0
 11
2071.5894308371
 21
6075.6604375496
 31
0.0
  0
LWPOLYLINE
  5
1E1
330
1F
100
AcDbEntity
  8
0
  6
Continuous
 62
     7
370
    15
100
AcDbPolyline
 90
       13
 70
   128
 43
0.0
 10
2071.827551393
 20
6076.0862531319
 10
2082.003435163
 20
6082.1363629952
 10
2100.7240023894
 20
6092.3225583687
 10
2119.8775377555
 20
6101.6962232247
 10
2139.3622961326
 20
6110.3455724373
 10
2159.3399253173
 20
6118.4475125923
 10
2179.5520391745
 20
6125.9600820198
 10
2199.9526527209
 20
6132.93525597
 10
2217.4025979323
 20
6138.4741963997
 10
2252.5986042304
 20
6148.5869588509
 10
2288.1492581649
 20
6157.5443448677
 10
2311.9198289199
 20
6162.9111470833
 10
2335.792562036
 20
6167.8445043221
  0
ARC
  5
1E2
330
1F
100
AcDbEntity
  8
0
  6
Continuous
 62
     7
370
    15
100
AcDbCircle
 10
3041.976516893
 20
6167.373228623
 30
0.0
 40
0.4839058584565282
100
AcDbArc
 50
76.8806969203
 51
170.7379106284
  0
ARC
  5
1E3
330
1F
100
AcDbEntity
  8
0
  6
Continuous
 62
     7
370
    15
100
AcDbCircle
 10
3305.8073568007
 20
6075.6703648887
 30
0.0
 40
0.482200365219081
100
AcDbArc
 50
358.8203351491
 51
59.5962049534
  0
LINE
  5
1E4
330
1F
100
AcDbEntity
  8
0
  6
Continuous
 62
     7
370
    15
100
AcDbLine
 10
3306.2894549651
 20
6075.3524007454
 30
0.0
 11
3306.2894549651
 21
6075.6604375496
 31
0.0
  0
LWPOLYLINE
  5
1E5
330
1F
100
AcDbEntity
  8
0
  6
Continuous
 62
     7
370
    15
100
AcDbPolyline
 90
       13
 70
   128
 43
0.0
 10
3306.0513940139
 20
6076.0862531319
 10
3295.8754506392
 20
6082.1363629952
 10
3277.1549430175
 20
6092.3225583687
 10
3258.0014076514
 20
6101.6962232247
 10
3238.5165896697
 20
6110.3455724373
 10
3218.5390200896
 20
6118.4475125923
 10
3198.3268466277
 20
6125.9600820198
 10
3177.9262330813
 20
6132.93525597
 10
3160.4763176722
 20
6138.4741963997
 10
3125.2803113742
 20
6148.5869588509
 10
3089.7296574397
 20
6157.5443448677
 10
3065.9590866847
 20
6162.9111470833
 10
3042.0863535685
 20
6167.8445043221
  0
ARC
  5
1E6
330
1F
100
AcDbEntity
  8
0
  6
Continuous
 62
     7
370
    15
100
AcDbCircle
 10
2698.6895502583
 20
6199.6987681162
 30
0.0
 40
0.5000961720780691
100
AcDbArc
 50
89.7410415215
 51
179.6849427407
  0
ARC
  5
1E7
330
1F
100
AcDbEntity
  8
0
  6
Continuous
 62
     7
370
    15
100
AcDbCircle
 10
3022.4957811829
 20
6171.0720789859
 30
0.0
 40
0.4936878699582757
100
AcDbArc
 50
359.4070385339
 51
80.2177677883
  0
LINE
  5
1E8
330
1F
100
AcDbEntity
  8
0
  6
Continuous
 62
     7
370
    15
100
AcDbLine
 10
3022.989442615
 20
6170.9754171028
 30
0.0
 11
3022.989442615
 21
6171.0669698372
 31
0.0
  0
LWPOLYLINE
  5
1E9
330
1F
100
AcDbEntity
  8
0
  6
Continuous
 62
     7
370
    15
100
AcDbPolyline
 90
       11
 70
   128
 43
0.0
 10
3022.5796606822
 20
6171.5585889473
 10
2982.5495388789
 20
6178.3520879402
 10
2942.3597362323
 20
6184.1304006233
 10
2901.9507673068
 20
6188.9698209419
 10
2861.4432719035
 20
6192.9037274971
 10
2857.9804059548
 20
6193.198889698
 10
2844.1236224456
 20
6194.3175496712
 10
2816.3870629353
 20
6196.2554158821
 10
2788.6203807278
 20
6197.8032292976
 10
2743.6802257283
 20
6199.4955243721
 10
2698.6918105243
 20
6200.1988591805
  0
ARC
  5
1EA
330
1F
100
AcDbEntity
  8
0
  6
Continuous
 62
     7
370
    15
100
AcDbCircle
 10
2355.3831881791
 20
6171.0720042469
 30
0.0
 40
0.4937706576009019
100
AcDbArc
 50
99.7869058921
 51
180.5841890739
  0
ARC
  5
1EB
330
1F
100
AcDbEntity
  8
0
  6
Continuous
 62
     7
370
    15
100
AcDbCircle
 10
2679.1893618958
 20
6199.6987674531
 30
0.0
 40
0.5000968322309767
100
AcDbArc
 50
0.3151328186
 51
90.2588829193
  0
LINE
  5
1EC
330
1F
100
AcDbEntity
  8
0
  6
Continuous
 62
     7
370
    15
100
AcDbLine
 10
2354.8894431872
 20
6170.9754171028
 30
0.0
 11
2354.8894431872
 21
6171.0669698372
 31
0.0
  0
LWPOLYLINE
  5
1ED
330
1F
100
AcDbEntity
  8
0
  6
Continuous
 62
     7
370
    15
100
AcDbPolyline
 90
       11
 70
   128
 43
0.0
 10
2355.2992549224
 20
6171.5585889473
 10
2395.3293767257
 20
6178.3520879402
 10
2435.5191793723
 20
6184.1304006233
 10
2475.9281333966
 20
6188.9698209419
 10
2516.4356437011
 20
6192.9037274971
 10
2519.8985096497
 20
6193.198889698
 10
2533.7552782578
 20
6194.3175496712
 10
2561.4918526692
 20
6196.2554158821
 10
2589.2585274262
 20
6197.8032292976
 10
2634.198686151
 20
6199.4955243721
 10
2679.1871022863
 20
6200.1988591805
  0
ARC
  5
1EE
330
1F
100
AcDbEntity
  8
0
  6
Continuous
 62
     7
370
    15
100
AcDbCircle
 10
3394.6264400382
 20
5959.1315284789
 30
0.0
 40
0.5007630390964465
100
AcDbArc
 50
270.2613393077
 51
0.2637745578
  0
ARC
  5
1EF
330
1F
100
AcDbEntity
  8
0
  6
Continuous
 62
     7
370
    15
100
AcDbCircle
 10
3325.2888106656
 20
6062.7754401055
 30
0.0
 40
0.4972452821631348
100
AcDbArc
 50
54.2020355502
 51
144.8876896767
  0
LWPOLYLINE
  5
1F0
330
1F
100
AcDbEntity
  8
0
  6
Continuous
 62
     7
370
    15
100
AcDbPolyline
 90
       15
 70
   128
 43
0.0
 10
3395.1271977706
 20
5959.1338338509
 10
3394.6128096862
 20
5967.7922429695
 10
3393.2129946036
 20
5976.3772191658
 10
3390.9849729819
 20
5984.7643079414
 10
3387.5504341407
 20
5993.9143361702
 10
3383.2504358573
 20
6002.7348699226
 10
3378.2175984664
 20
6011.17536446
 10
3372.5846019072
 20
6019.1871823921
 10
3371.9142880721
 20
6020.0659932747
 10
3369.1693153663
 20
6023.5321225777
 10
3363.3904066367
 20
6030.2440824165
 10
3357.2823014541
 20
6036.6589727059
 10
3347.2318854613
 20
6046.0927190437
 10
3336.623152761
 20
6054.9170674935
 10
3325.5796637816
 20
6063.1787480965
  0
ARC
  5
1F1
330
1F
100
AcDbEntity
  8
0
  6
Continuous
 62
     7
370
    15
100
AcDbCircle
 10
1983.2525049589
 20
5959.1315871337
 30
0.0
 40
0.5008219667354803
100
AcDbArc
 50
179.7429668595
 51
269.731919275
  0
LWPOLYLINE
  5
1F2
330
1F
100
AcDbEntity
  8
0
  6
Continuous
 62
     7
370
    15
100
AcDbPolyline
 90
       15
 70
   128
 43
0.0
 10
1982.7516880317
 20
5959.1338338509
 10
1983.2660761161
 20
5967.7922429695
 10
1984.6658911986
 20
5976.3772191658
 10
1986.8939128203
 20
5984.7643079414
 10
1990.3284516616
 20
5993.9143361702
 10
1994.6285095496
 20
6002.7348699226
 10
1999.6612873359
 20
6011.17536446
 10
2005.294283895
 20
6019.1871823921
 10
2005.9645977301
 20
6020.0659932747
 10
2008.709570436
 20
6023.5321225777
 10
2014.4885387702
 20
6030.2440824165
 10
2020.5966439528
 20
6036.6589727059
 10
2030.6470003409
 20
6046.0927190437
 10
2041.2557330413
 20
6054.9170674935
 10
2052.2992816253
 20
6063.1787480965
  0
ARC
  5
1F3
330
1F
100
AcDbEntity
  8
0
  6
Continuous
 62
     7
370
    15
100
AcDbCircle
 10
2052.5905348079
 20
6062.7778193635
 30
0.0
 40
0.4955524849258474
100
AcDbArc
 50
34.9138846702
 51
125.9963901029
  0
LINE
  5
1F4
330
1F
100
AcDbEntity
  8
0
  6
Continuous
 62
     7
370
    15
100
AcDbLine
 10
2336.3894429488
 20
6066.6234197273
 30
0.0
 11
2336.3894429488
 21
6167.3543157234
 31
0.0
  0
ARC
  5
1F5
330
1F
100
AcDbEntity
  8
0
  6
Continuous
 62
     7
370
    15
100
AcDbCircle
 10
2345.6394561095
 20
6066.6234938149
 30
0.0
 40
9.250000000000455
100
AcDbArc
 50
180.0
 51
0.0
  0
LINE
  5
1F6
330
1F
100
AcDbEntity
  8
0
  6
Continuous
 62
     7
370
    15
100
AcDbLine
 10
2679.6894558204
 20
6080.8164777413
 30
0.0
 11
2679.6894558204
 21
6199.6991338387
 31
0.0
  0
ARC
  5
1F7
330
1F
100
AcDbEntity
  8
0
  6
Continuous
 62
     7
370
    15
100
AcDbCircle
 10
2688.9394561095
 20
6080.8166160587
 30
0.0
 40
9.250000000001819
100
AcDbArc
 50
180.0
 51
0.0
  0
ARC
  5
1F8
330
1F
100
AcDbEntity
  8
0
  6
Continuous
 62
     7
370
    15
100
AcDbCircle
 10
3032.2394561095
 20
6066.6234938149
 30
0.0
 40
9.25
100
AcDbArc
 50
180.0
 51
0.0
  0
LINE
  5
1F9
330
1F
100
AcDbEntity
  8
0
  6
Continuous
 62
     7
370
    15
100
AcDbLine
 10
3041.4894428534
 20
6066.6234197273
 30
0.0
 11
3041.4894428534
 21
6167.3543157234
 31
0.0
  0
ARC
  5
1FA
330
1F
100
AcDbEntity
  8
0
  6
Continuous
 62
     7
370
    15
100
AcDbCircle
 10
3315.5394561095
 20
6020.0680170072
 30
0.0
 40
9.25000000000091
100
AcDbArc
 50
180.0
 51
0.0
  0
LINE
  5
1FB
330
1F
100
AcDbEntity
  8
0
  6
Continuous
 62
     7
370
    15
100
AcDbLine
 10
3324.7894850058
 20
6020.0679006233
 30
0.0
 11
3324.7894850058
 21
6062.7720060005
 31
0.0
  0
LINE
  5
1FC
330
1F
100
AcDbEntity
  8
0
  6
Continuous
 62
     7
370
    15
100
AcDbLine
 10
3394.6272340102
 20
5958.630770649
 30
0.0
 11
1983.2517113967
 21
5958.630770649
 31
0.0
  0
LINE
  5
1FD
330
1F
100
AcDbEntity
  8
0
  6
Continuous
 62
     7
370
    15
100
AcDbLine
 10
2053.089460401
 20
6020.0679006233
 30
0.0
 11
2053.089460401
 21
6062.7720060005
 31
0.0
  0
ARC
  5
1FE
330
1F
100
AcDbEntity
  8
0
  6
Continuous
 62
     7
370
    15
100
AcDbCircle
 10
2062.3394561095
 20
6020.0680170072
 30
0.0
 40
9.250000000000455
100
AcDbArc
 50
180.0
 51
0.0
  0
LINE
  5
1FF
330
1F
100
AcDbEntity
  8
0
  6
Continuous
 62
     7
370
    15
100
AcDbLine
 10
2698.1894560588
 20
6080.8164777413
 30
0.0
 11
2698.1894560588
 21
6199.6991338387
 31
0.0
  0
LINE
  5
200
330
1F
100
AcDbEntity
  8
0
  6
Continuous
 62
     7
370
    15
100
AcDbLine
 10
3022.989442615
 20
6170.9754171028
 30
0.0
 11
3022.989442615
 21
6066.6234197273
 31
0.0
  0
LINE
  5
201
330
1F
100
AcDbEntity
  8
0
  6
Continuous
 62
     7
370
    15
100
AcDbLine
 10
2354.8894431872
 20
6170.9754171028
 30
0.0
 11
2354.8894431872
 21
6066.6234197273
 31
0.0
  0
LINE
  5
202
330
1F
100
AcDbEntity
  8
0
  6
Continuous
 62
     7
370
    15
100
AcDbLine
 10
1983.2517113967
 20
5958.630770649
 30
0.0
 11
1983.2501616759
 21
5958.630770649
 31
0.0
  0
LINE
  5
203
330
1F
100
AcDbEntity
  8
0
  6
Continuous
 62
     7
370
    15
100
AcDbLine
 10
3394.6272340102
 20
5958.630770649
 30
0.0
 11
3394.6287241263
 21
5958.630770649
 31
0.0
  0
ARC
  5
204
330
1F
100
AcDbEntity
  8
0
  6
Continuous
 62
     7
370
    15
100
AcDbCircle
 10
3325.2894561095
 20
6062.7717769483
 30
0.0
 40
0.5000000000007164
100
AcDbArc
 50
144.5692903496
 51
179.9999999999
  0
ARC
  5
205
330
1F
100
AcDbEntity
  8
0
  6
Continuous
 62
     7
370
    15
100
AcDbCircle
 10
2052.5894561095
 20
6062.7717769483
 30
0.0
 40
0.5
100
AcDbArc
 50
0.0
 51
35.4307096504
  0
ARC
  5
206
330
1F
100
AcDbEntity
  8
0
  6
Continuous
 62
     7
370
    15
100
AcDbCircle
 10
3041.9894561095
 20
6167.3541383454
 30
0.0
 40
0.5000000000001649
100
AcDbArc
 50
168.8357863433
 51
180.0
  0
ARC
  5
207
330
1F
100
AcDbEntity
  8
0
  6
Continuous
 62
     7
370
    15
100
AcDbCircle
 10
2335.8894561095
 20
6167.3541383454
 30
0.0
 40
0.5000000000004547
100
AcDbArc
 50
0.0
 51
11.1642136566
  0
LINE
  5
208
330
1F
100
AcDbEntity
  8
0
  6
Continuous
 62
     7
370
    15
100
AcDbLine
 10
2698.1894560588
 20
6199.6991338387
 30
0.0
 11
2698.1894560588
 21
6199.7015180245
 31
0.0
  0
LINE
  5
209
330
1F
100
AcDbEntity
  8
0
  6
Continuous
 62
     7
370
    15
100
AcDbLine
 10
2679.6894558204
 20
6199.6991338387
 30
0.0
 11
2679.6894558204
 21
6199.7015180245
 31
0.0
  0
LINE
  5
20A
330
1F
100
AcDbEntity
  8
0
  6
Continuous
 62
     7
370
    15
100
AcDbLine
 10
3306.2894549651
 20
6075.3524007454
 30
0.0
 11
3306.2894549651
 21
6020.0679006233
 31
0.0
  0
LINE
  5
20B
330
1F
100
AcDbEntity
  8
0
  6
Continuous
 62
     7
370
    15
100
AcDbLine
 10
2071.5894308371
 20
6075.3524007454
 30
0.0
 11
2071.5894308371
 21
6020.0679006233
 31
0.0
  0
LINE
  5
20C
330
1F
100
AcDbEntity
  8
0
  6
Continuous
 62
     7
370
    15
100
AcDbLine
 10
1843.2894554419
 20
4622.3795117989
 30
0.0
 11
1843.2894554419
 21
4622.955531086
 31
0.0
  0
ARC
  5
20D
330
1F
100
AcDbEntity
  8
0
  6
Continuous
 62
     7
370
    15
100
AcDbCircle
 10
1843.7866387861
 20
4622.9565939765
 30
0.0
 40
0.4971844803418693
100
AcDbArc
 50
138.8018785647
 51
180.1224881135
  0
ARC
  5
20E
330
1F
100
AcDbEntity
  8
0
  6
Continuous
 62
     7
370
    15
100
AcDbCircle
 10
2052.5862088381
 20
4745.5779884083
 30
0.0
 40
0.5053854803647126
100
AcDbArc
 50
20.2055944448
 51
109.0097200519
  0
LWPOLYLINE
  5
20F
330
1F
100
AcDbEntity
  8
0
  6
Continuous
 62
     7
370
    15
100
AcDbPolyline
 90
       13
 70
   128
 43
0.0
 10
1843.4125390334
 20
4623.284071888
 10
1853.2359805388
 20
4633.8417234078
 10
1866.3808312697
 20
4646.2585630074
 10
1880.2987542434
 20
4657.8547658577
 10
1894.8655929847
 20
4668.6927976265
 10
1909.9571910186
 20
4678.8332166329
 10
1925.4492130561
 20
4688.3380117073
 10
1941.2176218314
 20
4697.2686948433
 10
1946.5306010528
 20
4700.1344861641
 10
1968.0625405593
 20
4711.0717000618
 10
1995.7358446402
 20
4723.7722577705
 10
2023.8935556693
 20
4735.3946866646
 10
2052.4215903563
 20
4746.0558118477
  0
ARC
  5
210
330
1F
100
AcDbEntity
  8
0
  6
Continuous
 62
     7
370
    15
100
AcDbCircle
 10
3534.0922470161
 20
4622.9565939765
 30
0.0
 40
0.4971844803416419
100
AcDbArc
 50
359.8775118865
 51
41.1981214353
  0
LINE
  5
211
330
1F
100
AcDbEntity
  8
0
  6
Continuous
 62
     7
370
    15
100
AcDbLine
 10
3534.5894303603
 20
4622.3795117989
 30
0.0
 11
3534.5894303603
 21
4622.955531086
 31
0.0
  0
ARC
  5
212
330
1F
100
AcDbEntity
  8
0
  6
Continuous
 62
     7
370
    15
100
AcDbCircle
 10
3325.2926513418
 20
4745.5781355928
 30
0.0
 40
0.5052546739690363
100
AcDbArc
 50
70.9820962044
 51
159.8067309864
  0
LWPOLYLINE
  5
213
330
1F
100
AcDbEntity
  8
0
  6
Continuous
 62
     7
370
    15
100
AcDbPolyline
 90
       13
 70
   128
 43
0.0
 10
3534.4663467688
 20
4623.284071888
 10
3524.6429052634
 20
4633.8417234078
 10
3511.4981141372
 20
4646.2585630074
 10
3497.5801911635
 20
4657.8547658577
 10
3483.0132928176
 20
4668.6927976265
 10
3467.9217543883
 20
4678.8332166329
 10
3452.4296727462
 20
4688.3380117073
 10
3436.6613235755
 20
4697.2686948433
 10
3431.3483443541
 20
4700.1344861641
 10
3409.816345243
 20
4711.0717000618
 10
3382.1431007666
 20
4723.7722577705
 10
3353.9853897376
 20
4735.3946866646
 10
3325.4572954459
 20
4746.0558118477
  0
LINE
  5
214
330
1F
100
AcDbEntity
  8
0
  6
Continuous
 62
     7
370
    15
100
AcDbLine
 10
2071.5894308371
 20
4752.1516980782
 30
0.0
 11
2071.5894308371
 21
4752.3190679207
 31
0.0
  0
ARC
  5
215
330
1F
100
AcDbEntity
  8
0
  6
Continuous
 62
     7
370
    15
100
AcDbCircle
 10
2072.0845881364
 20
4752.3228404474
 30
0.0
 40
0.4951716701978045
100
AcDbArc
 50
108.0955363688
 51
180.4365192144
  0
LWPOLYLINE
  5
216
330
1F
100
AcDbEntity
  8
0
  6
Continuous
 62
     7
370
    15
100
AcDbPolyline
 90
       11
 70
   128
 43
0.0
 10
2071.9307866378
 20
4752.7935208931
 10
2104.3254938407
 20
4763.1051244393
 10
2136.9934883399
 20
4772.5183667793
 10
2169.973095922
 20
4781.137675251
 10
2203.1418886466
 20
4788.9997663155
 10
2206.3441481872
 20
4789.71883675
 10
2219.1675510688
 20
4792.5312223091
 10
2244.8788490577
 20
4797.8570165291
 10
2270.6724312587
 20
4802.8003873482
 10
2303.1934109015
 20
4808.4962072029
 10
2335.8155694289
 20
4813.6431874886
  0
ARC
  5
217
330
1F
100
AcDbEntity
  8
0
  6
Continuous
 62
     7
370
    15
100
AcDbCircle
 10
2335.8903856425
 20
4813.1498974281
 30
0.0
 40
0.4989314077017703
100
AcDbArc
 50
8.3807628411
 51
98.6241973047
  0
LWPOLYLINE
  5
218
330
1F
100
AcDbEntity
  8
0
  6
Continuous
 62
     7
370
    15
100
AcDbPolyline
 90
       11
 70
   128
 43
0.0
 10
3305.9481587691
 20
4752.7935208931
 10
3273.5533919616
 20
4763.1051244393
 10
3240.885457067
 20
4772.5183667793
 10
3207.9057898803
 20
4781.137675251
 10
3174.737026958
 20
4788.9997663155
 10
3171.5347376151
 20
4789.71883675
 10
3158.7113645358
 20
4792.5312223091
 10
3133.0000665469
 20
4797.8570165291
 10
3107.2064843459
 20
4802.8003873482
 10
3074.685504703
 20
4808.4962072029
 10
3042.0633461757
 20
4813.6431874886
  0
ARC
  5
219
330
1F
100
AcDbEntity
  8
0
  6
Continuous
 62
     7
370
    15
100
AcDbCircle
 10
3305.7930761028
 20
4752.3219810455
 30
0.0
 40
0.4963874104223747
100
AcDbArc
 50
359.6637490923
 51
71.7947090317
  0
LINE
  5
21A
330
1F
100
AcDbEntity
  8
0
  6
Continuous
 62
     7
370
    15
100
AcDbLine
 10
3306.2894549651
 20
4752.1516980782
 30
0.0
 11
3306.2894549651
 21
4752.3190679207
 31
0.0
  0
ARC
  5
21B
330
1F
100
AcDbEntity
  8
0
  6
Continuous
 62
     7
370
    15
100
AcDbCircle
 10
3041.988529962
 20
4813.1498974281
 30
0.0
 40
0.4989314077017703
100
AcDbArc
 50
81.3758026953
 51
171.6192371589
  0
LINE
  5
21C
330
1F
100
AcDbEntity
  8
0
  6
Continuous
 62
     7
370
    15
100
AcDbLine
 10
2354.8894431872
 20
4815.8976735726
 30
0.0
 11
2354.8894431872
 21
4815.9672917976
 31
0.0
  0
ARC
  5
21D
330
1F
100
AcDbEntity
  8
0
  6
Continuous
 62
     7
370
    15
100
AcDbCircle
 10
2355.391381089
 20
4815.9658490406
 30
0.0
 40
0.5019399752759534
100
AcDbArc
 50
98.1451499604
 51
179.8353109785
  0
ARC
  5
21E
330
1F
100
AcDbEntity
  8
0
  6
Continuous
 62
     7
370
    15
100
AcDbCircle
 10
2679.1894100836
 20
4838.3535254214
 30
0.0
 40
0.5000459973676872
100
AcDbArc
 50
0.2002640817
 51
90.2105407308
  0
LWPOLYLINE
  5
21F
330
1F
100
AcDbEntity
  8
0
  6
Continuous
 62
     7
370
    15
100
AcDbPolyline
 90
       10
 70
   128
 43
0.0
 10
2355.3202655597
 20
4816.462725605
 10
2408.9397993369
 20
4823.2724370613
 10
2462.7167340798
 20
4828.7846746101
 10
2516.5995564742
 20
4833.058089222
 10
2521.2684330029
 20
4833.3718480721
 10
2539.9497952742
 20
4834.5377149239
 10
2577.3413163109
 20
4836.4484014168
 10
2614.7571113391
 20
4837.8040494576
 10
2646.9690446241
 20
4838.5312261238
 10
2679.1875726042
 20
4838.8535680428
  0
LWPOLYLINE
  5
220
330
1F
100
AcDbEntity
  8
0
  6
Continuous
 62
     7
370
    15
100
AcDbPolyline
 90
       11
 70
   128
 43
0.0
 10
3022.5586500449
 20
4816.462725605
 10
2982.3825862689
 20
4821.6898145332
 10
2942.1171751304
 20
4826.1782827034
 10
2901.7276224179
 20
4829.9624623909
 10
2861.2793591304
 20
4833.058089222
 10
2856.6104826016
 20
4833.3718480721
 10
2837.9291203303
 20
4834.5377149239
 10
2800.5416896624
 20
4836.4479245796
 10
2763.1217968149
 20
4837.8040494576
 10
2730.9124079032
 20
4838.5312261238
 10
2698.6913392751
 20
4838.8535680428
  0
ARC
  5
221
330
1F
100
AcDbEntity
  8
0
  6
Continuous
 62
     7
370
    15
100
AcDbCircle
 10
3022.4875782475
 20
4815.9659172593
 30
0.0
 40
0.5018662498980715
100
AcDbArc
 50
0.1569249686
 51
81.8586888997
  0
LINE
  5
222
330
1F
100
AcDbEntity
  8
0
  6
Continuous
 62
     7
370
    15
100
AcDbLine
 10
3022.989442615
 20
4815.8976735726
 30
0.0
 11
3022.989442615
 21
4815.9672917976
 31
0.0
  0
ARC
  5
223
330
1F
100
AcDbEntity
  8
0
  6
Continuous
 62
     7
370
    15
100
AcDbCircle
 10
2698.689502413
 20
4838.3535257342
 30
0.0
 40
0.5000456823163707
100
AcDbArc
 50
89.7895298751
 51
179.7997716316
  0
ARC
  5
224
330
1F
100
AcDbEntity
  8
0
  6
Continuous
 62
     7
370
    15
100
AcDbCircle
 10
1807.1205547512
 20
4537.5260720956
 30
0.0
 40
0.5008929318331061
100
AcDbArc
 50
179.8057800379
 51
269.7576828014
  0
LWPOLYLINE
  5
225
330
1F
100
AcDbEntity
  8
0
  6
Continuous
 62
     7
370
    15
100
AcDbPolyline
 90
       10
 70
   128
 43
0.0
 10
1806.6196646972
 20
4537.5277700081
 10
1806.9547024054
 20
4545.3483762398
 10
1807.8739252372
 20
4553.12225243
 10
1809.4015922828
 20
4560.9786214485
 10
1811.4913311286
 20
4568.7052907601
 10
1811.8329849524
 20
4569.7934331551
 10
1813.3043256087
 20
4574.1140546455
 10
1816.7256322188
 20
4582.5822057381
 10
1820.7498398108
 20
4590.8324422493
 10
1823.8581624312
 20
4596.4028539314
  0
ARC
  5
226
330
1F
100
AcDbEntity
  8
0
  6
Continuous
 62
     7
370
    15
100
AcDbCircle
 10
1824.2881524138
 20
4596.1547969755
 30
0.0
 40
0.4964107558628729
100
AcDbArc
 50
59.0920373548
 51
150.0197790684
  0
LWPOLYLINE
  5
227
330
1F
100
AcDbEntity
  8
0
  6
Continuous
 62
     7
370
    15
100
AcDbPolyline
 90
       10
 70
   128
 43
0.0
 10
3571.2592807097
 20
4537.5277700081
 10
3570.9242430015
 20
4545.3483762398
 10
3570.0049605651
 20
4553.12225243
 10
3568.4773531241
 20
4560.9786214485
 10
3566.3875546737
 20
4568.7052907601
 10
3566.0459604545
 20
4569.7934331551
 10
3564.5745601935
 20
4574.1140546455
 10
3561.1533131881
 20
4582.5822057381
 10
3557.1291055961
 20
4590.8324422493
 10
3554.0207829757
 20
4596.4028539314
  0
ARC
  5
228
330
1F
100
AcDbEntity
  8
0
  6
Continuous
 62
     7
370
    15
100
AcDbCircle
 10
3570.7583677844
 20
4537.5260950437
 30
0.0
 40
0.5009157257605459
100
AcDbArc
 50
270.238104501
 51
0.1915862544
  0
ARC
  5
229
330
1F
100
AcDbEntity
  8
0
  6
Continuous
 62
     7
370
    15
100
AcDbCircle
 10
3553.5898828819
 20
4596.1512919496
 30
0.0
 40
0.4989572341388162
100
AcDbArc
 50
30.2766313537
 51
120.611552223
  0
ARC
  5
22A
330
1F
100
AcDbEntity
  8
0
  6
Continuous
 62
     7
370
    15
100
AcDbCircle
 10
2062.3394561095
 20
4645.6951718983
 30
0.0
 40
9.25
100
AcDbArc
 50
180.0
 51
0.0
  0
LINE
  5
22B
330
1F
100
AcDbEntity
  8
0
  6
Continuous
 62
     7
370
    15
100
AcDbLine
 10
2336.3894429488
 20
4677.3712339058
 30
0.0
 11
2336.3894429488
 21
4813.1487073555
 31
0.0
  0
ARC
  5
22C
330
1F
100
AcDbEntity
  8
0
  6
Continuous
 62
     7
370
    15
100
AcDbCircle
 10
2345.6394561095
 20
4677.3714553996
 30
0.0
 40
9.25
100
AcDbArc
 50
180.0
 51
0.0
  0
LINE
  5
22D
330
1F
100
AcDbEntity
  8
0
  6
Continuous
 62
     7
370
    15
100
AcDbLine
 10
2679.6894558204
 20
4687.9489125862
 30
0.0
 11
2679.6894558204
 21
4838.353842701
 31
0.0
  0
ARC
  5
22E
330
1F
100
AcDbEntity
  8
0
  6
Continuous
 62
     7
370
    15
100
AcDbCircle
 10
2688.9394561095
 20
4687.9486911613
 30
0.0
 40
9.250000000001364
100
AcDbArc
 50
180.0
 51
0.0
  0
LINE
  5
22F
330
1F
100
AcDbEntity
  8
0
  6
Continuous
 62
     7
370
    15
100
AcDbLine
 10
2698.1894560588
 20
4687.9489125862
 30
0.0
 11
2698.1894560588
 21
4838.353842701
 31
0.0
  0
ARC
  5
230
330
1F
100
AcDbEntity
  8
0
  6
Continuous
 62
     7
370
    15
100
AcDbCircle
 10
3032.2394561095
 20
4677.3714553996
 30
0.0
 40
9.250000000000455
100
AcDbArc
 50
180.0
 51
0.0
  0
LINE
  5
231
330
1F
100
AcDbEntity
  8
0
  6
Continuous
 62
     7
370
    15
100
AcDbLine
 10
3041.4894428534
 20
4677.3712339058
 30
0.0
 11
3041.4894428534
 21
4813.1487073555
 31
0.0
  0
ARC
  5
232
330
1F
100
AcDbEntity
  8
0
  6
Continuous
 62
     7
370
    15
100
AcDbCircle
 10
3315.5394561095
 20
4645.6951718983
 30
0.0
 40
9.250000000000455
100
AcDbArc
 50
180.0
 51
0.0
  0
LINE
  5
233
330
1F
100
AcDbEntity
  8
0
  6
Continuous
 62
     7
370
    15
100
AcDbLine
 10
3324.7894850058
 20
4645.6949414864
 30
0.0
 11
3324.7894850058
 21
4745.5846967354
 31
0.0
  0
ARC
  5
234
330
1F
100
AcDbEntity
  8
0
  6
Continuous
 62
     7
370
    15
100
AcDbCircle
 10
3543.8394561095
 20
4582.1385198536
 30
0.0
 40
9.25
100
AcDbArc
 50
180.0
 51
0.0
  0
LINE
  5
235
330
1F
100
AcDbEntity
  8
0
  6
Continuous
 62
     7
370
    15
100
AcDbLine
 10
3553.089460401
 20
4582.138747181
 30
0.0
 11
3553.089460401
 21
4596.1496534004
 31
0.0
  0
LINE
  5
236
330
1F
100
AcDbEntity
  8
0
  6
Continuous
 62
     7
370
    15
100
AcDbLine
 10
3570.7592573447
 20
4537.0251836434
 30
0.0
 11
1807.1196284575
 21
4537.0251836434
 31
0.0
  0
LINE
  5
237
330
1F
100
AcDbEntity
  8
0
  6
Continuous
 62
     7
370
    15
100
AcDbLine
 10
1824.7894850058
 20
4582.138747181
 30
0.0
 11
1824.7894850058
 21
4596.1496534004
 31
0.0
  0
ARC
  5
238
330
1F
100
AcDbEntity
  8
0
  6
Continuous
 62
     7
370
    15
100
AcDbCircle
 10
1834.0394561095
 20
4582.1385198536
 30
0.0
 40
9.25
100
AcDbArc
 50
180.0
 51
0.0
  0
LINE
  5
239
330
1F
100
AcDbEntity
  8
0
  6
Continuous
 62
     7
370
    15
100
AcDbLine
 10
2053.089460401
 20
4645.6949414864
 30
0.0
 11
2053.089460401
 21
4745.5846967354
 31
0.0
  0
LINE
  5
23A
330
1F
100
AcDbEntity
  8
0
  6
Continuous
 62
     7
370
    15
100
AcDbLine
 10
3022.989442615
 20
4815.8976735726
 30
0.0
 11
3022.989442615
 21
4677.3712339058
 31
0.0
  0
LINE
  5
23B
330
1F
100
AcDbEntity
  8
0
  6
Continuous
 62
     7
370
    15
100
AcDbLine
 10
2354.8894431872
 20
4815.8976735726
 30
0.0
 11
2354.8894431872
 21
4677.3712339058
 31
0.0
  0
LINE
  5
23C
330
1F
100
AcDbEntity
  8
0
  6
Continuous
 62
     7
370
    15
100
AcDbLine
 10
2071.5894308371
 20
4752.1516980782
 30
0.0
 11
2071.5894308371
 21
4645.6949414864
 31
0.0
  0
LINE
  5
23D
330
1F
100
AcDbEntity
  8
0
  6
Continuous
 62
     7
370
    15
100
AcDbLine
 10
3306.2894549651
 20
4752.1516980782
 30
0.0
 11
3306.2894549651
 21
4645.6949414864
 31
0.0
  0
LINE
  5
23E
330
1F
100
AcDbEntity
  8
0
  6
Continuous
 62
     7
370
    15
100
AcDbLine
 10
3570.7592573447
 20
4537.0251836434
 30
0.0
 11
3570.7604494376
 21
4537.0251836434
 31
0.0
  0
LINE
  5
23F
330
1F
100
AcDbEntity
  8
0
  6
Continuous
 62
     7
370
    15
100
AcDbLine
 10
1807.1196284575
 20
4537.0251836434
 30
0.0
 11
1807.1184363646
 21
4537.0251836434
 31
0.0
  0
ARC
  5
240
330
1F
100
AcDbEntity
  8
0
  6
Continuous
 62
     7
370
    15
100
AcDbCircle
 10
1824.2894561095
 20
4596.1498299015
 30
0.0
 40
0.5000000000007574
100
AcDbArc
 50
0.0
 51
59.515397743
  0
ARC
  5
241
330
1F
100
AcDbEntity
  8
0
  6
Continuous
 62
     7
370
    15
100
AcDbCircle
 10
3553.5894561095
 20
4596.1498299015
 30
0.0
 40
0.5
100
AcDbArc
 50
120.484602257
 51
180.0
  0
ARC
  5
242
330
1F
100
AcDbEntity
  8
0
  6
Continuous
 62
     7
370
    15
100
AcDbCircle
 10
2052.5894561095
 20
4745.5847237252
 30
0.0
 40
0.5000000000009095
100
AcDbArc
 50
0.0
 51
19.6013193735
  0
ARC
  5
243
330
1F
100
AcDbEntity
  8
0
  6
Continuous
 62
     7
370
    15
100
AcDbCircle
 10
3325.2894561095
 20
4745.5847237252
 30
0.0
 40
0.5000000000004547
100
AcDbArc
 50
160.3986806263
 51
180.0
  0
ARC
  5
244
330
1F
100
AcDbEntity
  8
0
  6
Continuous
 62
     7
370
    15
100
AcDbCircle
 10
3041.9894561095
 20
4813.1487544531
 30
0.0
 40
0.5
100
AcDbArc
 50
171.5091656016
 51
180.0
  0
ARC
  5
245
330
1F
100
AcDbEntity
  8
0
  6
Continuous
 62
     7
370
    15
100
AcDbCircle
 10
2335.8894561095
 20
4813.1487544531
 30
0.0
 40
0.5000000000004547
100
AcDbArc
 50
0.0
 51
8.4908343985
  0
LINE
  5
246
330
1F
100
AcDbEntity
  8
0
  6
Continuous
 62
     7
370
    15
100
AcDbLine
 10
2698.1894560588
 20
4838.353842701
 30
0.0
 11
2698.1894560588
 21
4838.3552732124
 31
0.0
  0
LINE
  5
247
330
1F
100
AcDbEntity
  8
0
  6
Continuous
 62
     7
370
    15
100
AcDbLine
 10
2679.6894558204
 20
4838.353842701
 30
0.0
 11
2679.6894558204
 21
4838.3552732124
 31
0.0
  0
LINE
  5
248
330
1F
100
AcDbEntity
  8
0
  6
Continuous
 62
     7
370
    15
100
AcDbLine
 10
3534.5894303603
 20
4622.3795117989
 30
0.0
 11
3534.5894303603
 21
4582.138747181
 31
0.0
  0
LINE
  5
249
330
1F
100
AcDbEntity
  8
0
  6
Continuous
 62
     7
370
    15
100
AcDbLine
 10
1843.2894554419
 20
4622.3795117989
 30
0.0
 11
1843.2894554419
 21
4582.138747181
 31
0.0
  0
ARC
  5
24A
330
1F
100
AcDbEntity
  8
0
  6
Continuous
 62
     7
370
    15
100
AcDbCircle
 10
2259.1404771749
 20
331.0624974871
 30
0.0
 40
134.943943836099
100
AcDbArc
 50
314.95750994
 51
315.2583035491
  0
LINE
  5
24B
330
1F
100
AcDbEntity
  8
0
  6
Continuous
 62
     7
370
    15
100
AcDbLine
 10
2354.9894597812
 20
-88.726132904
 30
0.0
 11
2354.9894597812
 21
236.0738666906
 31
0.0
  0
ARC
  5
24C
330
1F
100
AcDbEntity
  8
0
  6
Continuous
 62
     7
370
    15
100
AcDbCircle
 10
2356.7696946904
 20
-86.1745009132
 30
0.0
 40
3.114044848974029
100
AcDbArc
 50
222.92548133
 51
235.0242514126
  0
LINE
  5
24D
330
1F
100
AcDbEntity
  8
0
  6
Continuous
 62
     7
370
    15
100
AcDbLine
 10
2354.9894597812
 20
579.3738665238
 30
0.0
 11
2354.9894597812
 21
254.5738669291
 31
0.0
  0
ARC
  5
24E
330
1F
100
AcDbEntity
  8
0
  6
Continuous
 62
     7
370
    15
100
AcDbCircle
 10
2259.1404771749
 20
159.5852361326
 30
0.0
 40
134.9439438360989
100
AcDbArc
 50
44.7416964509
 51
45.04249006
  0
ARC
  5
24F
330
1F
100
AcDbEntity
  8
0
  6
Continuous
 62
     7
370
    15
100
AcDbCircle
 10
2356.7696946904
 20
576.822234533
 30
0.0
 40
3.114044848974052
100
AcDbArc
 50
124.9757485874
 51
137.07451867
  0
LINE
  5
250
330
1F
100
AcDbEntity
  8
0
  6
Continuous
 62
     7
370
    15
100
AcDbLine
 10
2336.6894629283
 20
254.5738669291
 30
0.0
 11
2336.6894629283
 21
579.3738665238
 31
0.0
  0
ARC
  5
251
330
1F
100
AcDbEntity
  8
0
  6
Continuous
 62
     7
370
    15
100
AcDbCircle
 10
2334.9095342804
 20
576.822463074
 30
0.0
 40
3.113664945364437
100
AcDbArc
 50
42.9262400431
 51
55.0269078793
  0
ARC
  5
252
330
1F
100
AcDbEntity
  8
0
  6
Continuous
 62
     7
370
    15
100
AcDbCircle
 10
2432.0467594255
 20
160.0750737084
 30
0.0
 40
134.2499029551613
100
AcDbArc
 50
134.9567324216
 51
135.2590810675
  0
ARC
  5
253
330
1F
100
AcDbEntity
  8
0
  6
Continuous
 62
     7
370
    15
100
AcDbCircle
 10
2334.9095342804
 20
-86.1747294543
 30
0.0
 40
3.113664945364466
100
AcDbArc
 50
304.9730921207
 51
317.0737599569
  0
LINE
  5
254
330
1F
100
AcDbEntity
  8
0
  6
Continuous
 62
     7
370
    15
100
AcDbLine
 10
2336.6894629283
 20
236.0738666906
 30
0.0
 11
2336.6894629283
 21
-88.726132904
 31
0.0
  0
ARC
  5
255
330
1F
100
AcDbEntity
  8
0
  6
Continuous
 62
     7
370
    15
100
AcDbCircle
 10
2432.0467594255
 20
330.5726599113
 30
0.0
 40
134.2499029551613
100
AcDbArc
 50
224.7409189325
 51
225.0432675784
  0
LINE
  5
256
330
1F
100
AcDbEntity
  8
0
  6
Continuous
 62
     7
370
    15
100
AcDbLine
 10
2336.6894629283
 20
862.6738490715
 30
0.0
 11
2336.7153313441
 21
862.6738490715
 31
0.0
  0
ARC
  5
257
330
1F
100
AcDbEntity
  8
0
  6
Continuous
 62
     7
370
    15
100
AcDbCircle
 10
2335.9884605957
 20
861.1641147687
 30
0.0
 40
1.675601011548798
100
AcDbArc
 50
44.2127628457
 51
64.2912280627
  0
ARC
  5
258
330
1F
100
AcDbEntity
  8
0
  6
Continuous
 62
     7
370
    15
100
AcDbCircle
 10
2339.4383032432
 20
595.9653963235
 30
0.0
 40
3.349528809145744
100
AcDbArc
 50
132.1745889727
 51
145.1513959979
  0
LINE
  5
259
330
1F
100
AcDbEntity
  8
0
  6
Continuous
 62
     7
370
    15
100
AcDbLine
 10
2336.6894629283
 20
597.8793503895
 30
0.0
 11
2336.6894629283
 21
862.6738490715
 31
0.0
  0
ARC
  5
25A
330
1F
100
AcDbEntity
  8
0
  6
Continuous
 62
     7
370
    15
100
AcDbCircle
 10
2352.2398244842
 20
595.9646970044
 30
0.0
 40
3.350580822977868
100
AcDbArc
 50
34.8506499774
 51
47.823365052
  0
LINE
  5
25B
330
1F
100
AcDbEntity
  8
0
  6
Continuous
 62
     7
370
    15
100
AcDbLine
 10
2336.6894629283
 20
597.8738667622
 30
0.0
 11
2336.6894629283
 21
597.8793503895
 31
0.0
  0
LINE
  5
25C
330
1F
100
AcDbEntity
  8
0
  6
Continuous
 62
     7
370
    15
100
AcDbLine
 10
2354.9894597812
 20
597.8793503895
 30
0.0
 11
2354.9894597812
 21
597.8738667622
 31
0.0
  0
ARC
  5
25D
330
1F
100
AcDbEntity
  8
0
  6
Continuous
 62
     7
370
    15
100
AcDbCircle
 10
2355.6906978574
 20
861.163850769
 30
0.0
 40
1.675954075802228
100
AcDbArc
 50
115.7130363325
 51
135.7863881797
  0
LINE
  5
25E
330
1F
100
AcDbEntity
  8
0
  6
Continuous
 62
     7
370
    15
100
AcDbLine
 10
2354.9894597812
 20
862.6738490715
 30
0.0
 11
2354.9894597812
 21
597.8793503895
 31
0.0
  0
ARC
  5
25F
330
1F
100
AcDbEntity
  8
0
  6
Continuous
 62
     7
370
    15
100
AcDbCircle
 10
2352.2398244842
 20
-105.3169633847
 30
0.0
 40
3.350580822977868
100
AcDbArc
 50
312.176634948
 51
325.1493500226
  0
ARC
  5
260
330
1F
100
AcDbEntity
  8
0
  6
Continuous
 62
     7
370
    15
100
AcDbCircle
 10
2339.4383032432
 20
-105.3176627038
 30
0.0
 40
3.349528809145765
100
AcDbArc
 50
214.8486040021
 51
227.8254110273
  0
LINE
  5
261
330
1F
100
AcDbEntity
  8
0
  6
Continuous
 62
     7
370
    15
100
AcDbLine
 10
2336.6894629283
 20
-107.2261331425
 30
0.0
 11
2336.6894629283
 21
-107.2316167698
 31
0.0
  0
LINE
  5
262
330
1F
100
AcDbEntity
  8
0
  6
Continuous
 62
     7
370
    15
100
AcDbLine
 10
2354.9894597812
 20
-107.2316167698
 30
0.0
 11
2354.9894597812
 21
-107.2261331425
 31
0.0
  0
ARC
  5
263
330
1F
100
AcDbEntity
  8
0
  6
Continuous
 62
     7
370
    15
100
AcDbCircle
 10
2355.6906978574
 20
-370.5161171493
 30
0.0
 40
1.675954075802228
100
AcDbArc
 50
224.2136118203
 51
244.2869636675
  0
LINE
  5
264
330
1F
100
AcDbEntity
  8
0
  6
Continuous
 62
     7
370
    15
100
AcDbLine
 10
2354.9894597812
 20
-372.0261154518
 30
0.0
 11
2354.9894597812
 21
-107.2316167698
 31
0.0
  0
ARC
  5
265
330
1F
100
AcDbEntity
  8
0
  6
Continuous
 62
     7
370
    15
100
AcDbCircle
 10
2335.9884605957
 20
-370.516381149
 30
0.0
 40
1.675601011548798
100
AcDbArc
 50
295.7087719373
 51
315.7872371543
  0
LINE
  5
266
330
1F
100
AcDbEntity
  8
0
  6
Continuous
 62
     7
370
    15
100
AcDbLine
 10
2336.6894629283
 20
-372.0261154518
 30
0.0
 11
2336.7153313441
 21
-372.0261154518
 31
0.0
  0
LINE
  5
267
330
1F
100
AcDbEntity
  8
0
  6
Continuous
 62
     7
370
    15
100
AcDbLine
 10
2336.6894629283
 20
-107.2316167698
 30
0.0
 11
2336.6894629283
 21
-372.0261154518
 31
0.0
  0
LINE
  5
268
330
1F
100
AcDbEntity
  8
0
  6
Continuous
 62
     7
370
    15
100
AcDbLine
 10
2336.6894629283
 20
1090.9738840714
 30
0.0
 11
2336.8612137122
 21
1090.9738840714
 31
0.0
  0
ARC
  5
269
330
1F
100
AcDbEntity
  8
0
  6
Continuous
 62
     7
370
    15
100
AcDbCircle
 10
2336.7814765674
 20
1090.2620134874
 30
0.0
 40
0.7163223719814126
100
AcDbArc
 50
55.2812925066
 51
83.6088974379
  0
ARC
  5
26A
330
1F
100
AcDbEntity
  8
0
  6
Continuous
 62
     7
370
    15
100
AcDbCircle
 10
2338.3579396274
 20
880.4120873699
 30
0.0
 40
1.846378953573255
100
AcDbArc
 50
129.2607935713
 51
154.6418061959
  0
LINE
  5
26B
330
1F
100
AcDbEntity
  8
0
  6
Continuous
 62
     7
370
    15
100
AcDbLine
 10
2336.6894629283
 20
881.2028469696
 30
0.0
 11
2336.6894629283
 21
1090.9738840714
 31
0.0
  0
ARC
  5
26C
330
1F
100
AcDbEntity
  8
0
  6
Continuous
 62
     7
370
    15
100
AcDbCircle
 10
2353.3206631624
 20
880.4118369831
 30
0.0
 40
1.84677528508103
100
AcDbArc
 50
25.3609626927
 51
50.7364375401
  0
ARC
  5
26D
330
1F
100
AcDbEntity
  8
0
  6
Continuous
 62
     7
370
    15
100
AcDbCircle
 10
2354.897446142
 20
1090.2620134874
 30
0.0
 40
0.7163223719814126
100
AcDbArc
 50
96.3911025621
 51
124.7187074934
  0
LINE
  5
26E
330
1F
100
AcDbEntity
  8
0
  6
Continuous
 62
     7
370
    15
100
AcDbLine
 10
2354.9894597812
 20
1090.9738840714
 30
0.0
 11
2354.9894597812
 21
881.2028469696
 31
0.0
  0
LINE
  5
26F
330
1F
100
AcDbEntity
  8
0
  6
Continuous
 62
     7
370
    15
100
AcDbLine
 10
2336.6894629283
 20
881.1738791123
 30
0.0
 11
2336.6894629283
 21
881.2028469696
 31
0.0
  0
LINE
  5
270
330
1F
100
AcDbEntity
  8
0
  6
Continuous
 62
     7
370
    15
100
AcDbLine
 10
2354.9894597812
 20
881.2028469696
 30
0.0
 11
2354.9894597812
 21
881.1738791123
 31
0.0
  0
ARC
  5
271
330
1F
100
AcDbEntity
  8
0
  6
Continuous
 62
     7
370
    15
100
AcDbCircle
 10
2353.3206631624
 20
-389.7641033634
 30
0.0
 40
1.84677528508103
100
AcDbArc
 50
309.2635624599
 51
334.6390373073
  0
ARC
  5
272
330
1F
100
AcDbEntity
  8
0
  6
Continuous
 62
     7
370
    15
100
AcDbCircle
 10
2338.3579396274
 20
-389.7643537502
 30
0.0
 40
1.846378953573221
100
AcDbArc
 50
205.358193804
 51
230.7392064287
  0
LINE
  5
273
330
1F
100
AcDbEntity
  8
0
  6
Continuous
 62
     7
370
    15
100
AcDbLine
 10
2336.6894629283
 20
-390.5261454925
 30
0.0
 11
2336.6894629283
 21
-390.5551133499
 31
0.0
  0
LINE
  5
274
330
1F
100
AcDbEntity
  8
0
  6
Continuous
 62
     7
370
    15
100
AcDbLine
 10
2354.9894597812
 20
-390.5551133499
 30
0.0
 11
2354.9894597812
 21
-390.5261454925
 31
0.0
  0
ARC
  5
275
330
1F
100
AcDbEntity
  8
0
  6
Continuous
 62
     7
370
    15
100
AcDbCircle
 10
2354.897446142
 20
-599.6142798677
 30
0.0
 40
0.7163223719814126
100
AcDbArc
 50
235.2812925066
 51
263.6088974379
  0
LINE
  5
276
330
1F
100
AcDbEntity
  8
0
  6
Continuous
 62
     7
370
    15
100
AcDbLine
 10
2354.9894597812
 20
-600.3261504516
 30
0.0
 11
2354.9894597812
 21
-390.5551133499
 31
0.0
  0
ARC
  5
277
330
1F
100
AcDbEntity
  8
0
  6
Continuous
 62
     7
370
    15
100
AcDbCircle
 10
2336.7814765674
 20
-599.6142798677
 30
0.0
 40
0.7163223719814126
100
AcDbArc
 50
276.3911025621
 51
304.7187074934
  0
LINE
  5
278
330
1F
100
AcDbEntity
  8
0
  6
Continuous
 62
     7
370
    15
100
AcDbLine
 10
2336.6894629283
 20
-600.3261504516
 30
0.0
 11
2336.8612137122
 21
-600.3261504516
 31
0.0
  0
LINE
  5
279
330
1F
100
AcDbEntity
  8
0
  6
Continuous
 62
     7
370
    15
100
AcDbLine
 10
2336.6894629283
 20
-390.5551133499
 30
0.0
 11
2336.6894629283
 21
-600.3261504516
 31
0.0
  0
ARC
  5
27A
330
1F
100
AcDbEntity
  8
0
  6
Continuous
 62
     7
370
    15
100
AcDbCircle
 10
2337.5599476472
 20
1109.6097682342
 30
0.0
 40
0.8774616414059391
100
AcDbArc
 50
114.9754949583
 51
172.7699101319
  0
ARC
  5
27B
330
1F
100
AcDbEntity
  8
0
  6
Continuous
 62
     7
370
    15
100
AcDbCircle
 10
2354.1189750623
 20
1109.6097682342
 30
0.0
 40
0.8774616414059391
100
AcDbArc
 50
7.2300898681
 51
65.0245050417
  0
LINE
  5
27C
330
1F
100
AcDbEntity
  8
0
  6
Continuous
 62
     7
370
    15
100
AcDbLine
 10
2336.6894629283
 20
1109.4738545075
 30
0.0
 11
2336.6894629283
 21
1109.7202005043
 31
0.0
  0
LINE
  5
27D
330
1F
100
AcDbEntity
  8
0
  6
Continuous
 62
     7
370
    15
100
AcDbLine
 10
2354.9894597812
 20
1109.7202005043
 30
0.0
 11
2354.9894597812
 21
1109.4738545075
 31
0.0
  0
ARC
  5
27E
330
1F
100
AcDbEntity
  8
0
  6
Continuous
 62
     7
370
    15
100
AcDbCircle
 10
2354.4910832784
 20
1127.1453007782
 30
0.0
 40
0.4983766613415773
100
AcDbArc
 50
359.9542865889
 51
90.1859053241
  0
LINE
  5
27F
330
1F
100
AcDbEntity
  8
0
  6
Continuous
 62
     7
370
    15
100
AcDbLine
 10
2354.9894597812
 20
1127.1449031487
 30
0.0
 11
2354.9894597812
 21
1109.7202005043
 31
0.0
  0
ARC
  5
280
330
1F
100
AcDbEntity
  8
0
  6
Continuous
 62
     7
370
    15
100
AcDbCircle
 10
2337.187839431
 20
1127.1453007782
 30
0.0
 40
0.4983766613415758
100
AcDbArc
 50
89.814094676
 51
180.0457134111
  0
LINE
  5
281
330
1F
100
AcDbEntity
  8
0
  6
Continuous
 62
     7
370
    15
100
AcDbLine
 10
2337.189456491
 20
1127.6436748161
 30
0.0
 11
2337.189456491
 21
1110.4051770821
 31
0.0
  0
LINE
  5
282
330
1F
100
AcDbEntity
  8
0
  6
Continuous
 62
     7
370
    15
100
AcDbLine
 10
2336.6894629283
 20
1109.7202005043
 30
0.0
 11
2336.6894629283
 21
1127.1449031487
 31
0.0
  0
ARC
  5
283
330
1F
100
AcDbEntity
  8
0
  6
Continuous
 62
     7
370
    15
100
AcDbCircle
 10
2354.4910832784
 20
-636.4975671585
 30
0.0
 40
0.4983766613413499
100
AcDbArc
 50
269.8140946759
 51
0.0457134112
  0
ARC
  5
284
330
1F
100
AcDbEntity
  8
0
  6
Continuous
 62
     7
370
    15
100
AcDbCircle
 10
2354.1189750623
 20
-618.9620346145
 30
0.0
 40
0.8774616414060422
100
AcDbArc
 50
294.9754949583
 51
352.7699101319
  0
LINE
  5
285
330
1F
100
AcDbEntity
  8
0
  6
Continuous
 62
     7
370
    15
100
AcDbLine
 10
2354.9894597812
 20
-636.4971695289
 30
0.0
 11
2354.9894597812
 21
-619.0724668846
 31
0.0
  0
LINE
  5
286
330
1F
100
AcDbEntity
  8
0
  6
Continuous
 62
     7
370
    15
100
AcDbLine
 10
2337.189456491
 20
-636.9959411964
 30
0.0
 11
2337.189456491
 21
-619.7574434624
 31
0.0
  0
ARC
  5
287
330
1F
100
AcDbEntity
  8
0
  6
Continuous
 62
     7
370
    15
100
AcDbCircle
 10
2337.187839431
 20
-636.4975671585
 30
0.0
 40
0.4983766613415753
100
AcDbArc
 50
179.9542865888
 51
270.185905324
  0
ARC
  5
288
330
1F
100
AcDbEntity
  8
0
  6
Continuous
 62
     7
370
    15
100
AcDbCircle
 10
2337.5599476472
 20
-618.9620346145
 30
0.0
 40
0.8774616414060422
100
AcDbArc
 50
187.2300898681
 51
245.0245050417
  0
LINE
  5
289
330
1F
100
AcDbEntity
  8
0
  6
Continuous
 62
     7
370
    15
100
AcDbLine
 10
2336.6894629283
 20
-619.0724668846
 30
0.0
 11
2336.6894629283
 21
-636.4971695289
 31
0.0
  0
LINE
  5
28A
330
1F
100
AcDbEntity
  8
0
  6
Continuous
 62
     7
370
    15
100
AcDbLine
 10
2336.6894629283
 20
-618.8261208877
 30
0.0
 11
2336.6894629283
 21
-619.0724668846
 31
0.0
  0
LINE
  5
28B
330
1F
100
AcDbEntity
  8
0
  6
Continuous
 62
     7
370
    15
100
AcDbLine
 10
2354.9894597812
 20
-619.0724668846
 30
0.0
 11
2354.9894597812
 21
-618.8261208877
 31
0.0
  0
LINE
  5
28C
330
1F
100
AcDbEntity
  8
0
  6
Continuous
 62
     7
370
    15
100
AcDbLine
 10
2354.4894662185
 20
1127.6436748161
 30
0.0
 11
2337.189456491
 21
1127.6436748161
 31
0.0
  0
LINE
  5
28D
330
1F
100
AcDbEntity
  8
0
  6
Continuous
 62
     7
370
    15
100
AcDbLine
 10
2354.4894662185
 20
-636.9959411964
 30
0.0
 11
2337.189456491
 21
-636.9959411964
 31
0.0
  0
LINE
  5
28E
330
1F
100
AcDbEntity
  8
0
  6
Continuous
 62
     7
370
    15
100
AcDbLine
 10
1843.2894554419
 20
5587.1383847847
 30
0.0
 11
1843.2894554419
 21
5587.7139272347
 31
0.0
  0
ARC
  5
28F
330
1F
100
AcDbEntity
  8
0
  6
Continuous
 62
     7
370
    15
100
AcDbCircle
 10
1843.7866387861
 20
5587.7149901252
 30
0.0
 40
0.4971844803418693
100
AcDbArc
 50
138.8018785647
 51
180.1224881135
  0
LWPOLYLINE
  5
290
330
1F
100
AcDbEntity
  8
0
  6
Continuous
 62
     7
370
    15
100
AcDbPolyline
 90
       13
 70
   128
 43
0.0
 10
1843.4125390334
 20
5588.0424680367
 10
1853.2359805388
 20
5598.6005963936
 10
1866.3808312697
 20
5611.016959156
 10
1880.2987542434
 20
5622.6136388435
 10
1894.8655929847
 20
5633.4511937752
 10
1909.9571910186
 20
5643.5916127815
 10
1925.4492130561
 20
5653.0968846932
 10
1941.2176218314
 20
5662.0275678291
 10
1946.5306010528
 20
5664.8933591499
 10
1968.0625405593
 20
5675.8300962105
 10
1995.7358446402
 20
5688.5306539192
 10
2023.8935556693
 20
5700.1530828133
 10
2052.4215903563
 20
5710.8142079964
  0
ARC
  5
291
330
1F
100
AcDbEntity
  8
0
  6
Continuous
 62
     7
370
    15
100
AcDbCircle
 10
2052.5864240746
 20
5710.3368380004
 30
0.0
 40
0.5050269970645633
100
AcDbArc
 50
20.1657507427
 51
109.049563754
  0
LWPOLYLINE
  5
292
330
1F
100
AcDbEntity
  8
0
  6
Continuous
 62
     7
370
    15
100
AcDbPolyline
 90
       13
 70
   128
 43
0.0
 10
3534.4663467688
 20
5588.0424680367
 10
3524.6429052634
 20
5598.6005963936
 10
3511.4981141372
 20
5611.016959156
 10
3497.5801911635
 20
5622.6136388435
 10
3483.0132928176
 20
5633.4511937752
 10
3467.9217543883
 20
5643.5916127815
 10
3452.4296727462
 20
5653.0968846932
 10
3436.6613235755
 20
5662.0275678291
 10
3431.3483443541
 20
5664.8933591499
 10
3409.816345243
 20
5675.8300962105
 10
3382.1431007666
 20
5688.5306539192
 10
3353.9853897376
 20
5700.1530828133
 10
3325.4572954459
 20
5710.8142079964
  0
ARC
  5
293
330
1F
100
AcDbEntity
  8
0
  6
Continuous
 62
     7
370
    15
100
AcDbCircle
 10
3534.0922470161
 20
5587.7149901252
 30
0.0
 40
0.4971844803416419
100
AcDbArc
 50
359.8775118865
 51
41.1981214353
  0
LINE
  5
294
330
1F
100
AcDbEntity
  8
0
  6
Continuous
 62
     7
370
    15
100
AcDbLine
 10
3534.5894303603
 20
5587.1383847847
 30
0.0
 11
3534.5894303603
 21
5587.7139272347
 31
0.0
  0
ARC
  5
295
330
1F
100
AcDbEntity
  8
0
  6
Continuous
 62
     7
370
    15
100
AcDbCircle
 10
3325.2924361523
 20
5710.3369850434
 30
0.0
 40
0.5048963591792489
100
AcDbArc
 50
70.9422466555
 51
159.8465805353
  0
LINE
  5
296
330
1F
100
AcDbEntity
  8
0
  6
Continuous
 62
     7
370
    15
100
AcDbLine
 10
2071.5894308371
 20
5716.910571064
 30
0.0
 11
2071.5894308371
 21
5717.0779409065
 31
0.0
  0
ARC
  5
297
330
1F
100
AcDbEntity
  8
0
  6
Continuous
 62
     7
370
    15
100
AcDbCircle
 10
2072.0845865742
 20
5717.0812412766
 30
0.0
 40
0.4951667359848564
100
AcDbArc
 50
108.0955327681
 51
180.3818888873
  0
ARC
  5
298
330
1F
100
AcDbEntity
  8
0
  6
Continuous
 62
     7
370
    15
100
AcDbCircle
 10
2335.8899460994
 20
5777.9082591097
 30
0.0
 40
0.4993712816354842
100
AcDbArc
 50
8.3773248086
 51
98.5655391891
  0
LWPOLYLINE
  5
299
330
1F
100
AcDbEntity
  8
0
  6
Continuous
 62
     7
370
    15
100
AcDbPolyline
 90
       11
 70
   128
 43
0.0
 10
2071.9307866378
 20
5717.5519170418
 10
2104.3254938407
 20
5727.8635205879
 10
2136.9934883399
 20
5737.2772397652
 10
2169.973095922
 20
5745.8960713997
 10
2203.1418886466
 20
5753.7581624642
 10
2206.3441481872
 20
5754.4772328987
 10
2219.1675510688
 20
5757.290095295
 10
2244.8788490577
 20
5762.6158895149
 10
2270.6724312587
 20
5767.5587834969
 10
2303.1934109015
 20
5773.2550801888
 10
2335.8155694289
 20
5778.4020604744
  0
LWPOLYLINE
  5
29A
330
1F
100
AcDbEntity
  8
0
  6
Continuous
 62
     7
370
    15
100
AcDbPolyline
 90
       11
 70
   128
 43
0.0
 10
3305.9481587691
 20
5717.5519170418
 10
3273.5533919616
 20
5727.8635205879
 10
3240.885457067
 20
5737.2772397652
 10
3207.9057898803
 20
5745.8960713997
 10
3174.737026958
 20
5753.7581624642
 10
3171.5347376151
 20
5754.4772328987
 10
3158.7113645358
 20
5757.290095295
 10
3133.0000665469
 20
5762.6158895149
 10
3107.2064843459
 20
5767.5587834969
 10
3074.685504703
 20
5773.2550801888
 10
3042.0633461757
 20
5778.4020604744
  0
ARC
  5
29B
330
1F
100
AcDbEntity
  8
0
  6
Continuous
 62
     7
370
    15
100
AcDbCircle
 10
3305.7930773433
 20
5717.0803807783
 30
0.0
 40
0.4963836182337596
100
AcDbArc
 50
359.7183732269
 51
71.7947157964
  0
LINE
  5
29C
330
1F
100
AcDbEntity
  8
0
  6
Continuous
 62
     7
370
    15
100
AcDbLine
 10
3306.2894549651
 20
5716.910571064
 30
0.0
 11
3306.2894549651
 21
5717.0779409065
 31
0.0
  0
ARC
  5
29D
330
1F
100
AcDbEntity
  8
0
  6
Continuous
 62
     7
370
    15
100
AcDbCircle
 10
3041.9889695052
 20
5777.9082591097
 30
0.0
 40
0.4993712816354842
100
AcDbArc
 50
81.4344608109
 51
171.6226751914
  0
LINE
  5
29E
330
1F
100
AcDbEntity
  8
0
  6
Continuous
 62
     7
370
    15
100
AcDbLine
 10
2354.8894431872
 20
5780.6560697212
 30
0.0
 11
2354.8894431872
 21
5780.7261647835
 31
0.0
  0
ARC
  5
29F
330
1F
100
AcDbEntity
  8
0
  6
Continuous
 62
     7
370
    15
100
AcDbCircle
 10
2355.3913815484
 20
5780.7242431698
 30
0.0
 40
0.501942039462324
100
AcDbArc
 50
98.1451692072
 51
179.780650725
  0
LWPOLYLINE
  5
2A0
330
1F
100
AcDbEntity
  8
0
  6
Continuous
 62
     7
370
    15
100
AcDbPolyline
 90
       10
 70
   128
 43
0.0
 10
2355.3202655597
 20
5781.2211217537
 10
2408.9397993369
 20
5788.0313100472
 10
2462.7167340798
 20
5793.5430707588
 10
2516.5995564742
 20
5797.8164853706
 10
2521.2684330029
 20
5798.1302442207
 10
2539.9497952742
 20
5799.2961110726
 10
2577.3413163109
 20
5801.2067975655
 10
2614.7571113391
 20
5802.5629224434
 10
2646.9690446241
 20
5803.2896222725
 10
2679.1875726042
 20
5803.6124410286
  0
ARC
  5
2A1
330
1F
100
AcDbEntity
  8
0
  6
Continuous
 62
     7
370
    15
100
AcDbCircle
 10
2679.1892250689
 20
5803.1122120613
 30
0.0
 40
0.5002316967179189
100
AcDbArc
 50
0.2215336707
 51
90.1892711418
  0
ARC
  5
2A2
330
1F
100
AcDbEntity
  8
0
  6
Continuous
 62
     7
370
    15
100
AcDbCircle
 10
3022.4875779378
 20
5780.7243115845
 30
0.0
 40
0.5018680988418537
100
AcDbArc
 50
0.2115709724
 51
81.8586833796
  0
LINE
  5
2A3
330
1F
100
AcDbEntity
  8
0
  6
Continuous
 62
     7
370
    15
100
AcDbLine
 10
3022.989442615
 20
5780.6560697212
 30
0.0
 11
3022.989442615
 21
5780.7261647835
 31
0.0
  0
ARC
  5
2A4
330
1F
100
AcDbEntity
  8
0
  6
Continuous
 62
     7
370
    15
100
AcDbCircle
 10
2698.6896874281
 20
5803.112212374
 30
0.0
 40
0.5002313819482601
100
AcDbArc
 50
89.8107994968
 51
179.77850201
  0
LWPOLYLINE
  5
2A5
330
1F
100
AcDbEntity
  8
0
  6
Continuous
 62
     7
370
    15
100
AcDbPolyline
 90
       11
 70
   128
 43
0.0
 10
3022.5586500449
 20
5781.2211217537
 10
2982.3825862689
 20
5786.4482106819
 10
2942.1171751304
 20
5790.9371556893
 10
2901.7276224179
 20
5794.7213353768
 10
2861.2793591304
 20
5797.8164853706
 10
2856.6104826016
 20
5798.1302442207
 10
2837.9291203303
 20
5799.2961110726
 10
2800.5416896624
 20
5801.2063207283
 10
2763.1217968149
 20
5802.5629224434
 10
2730.9124079032
 20
5803.2896222725
 10
2698.6913392751
 20
5803.6124410286
  0
ARC
  5
2A6
330
1F
100
AcDbEntity
  8
0
  6
Continuous
 62
     7
370
    15
100
AcDbCircle
 10
1807.1195378856
 20
5502.2839335896
 30
0.0
 40
0.4998781740546259
100
AcDbArc
 50
179.7441034461
 51
269.8737441293
  0
ARC
  5
2A7
330
1F
100
AcDbEntity
  8
0
  6
Continuous
 62
     7
370
    15
100
AcDbCircle
 10
1824.2881524138
 20
5560.9131931242
 30
0.0
 40
0.4964107558628729
100
AcDbArc
 50
59.0920373548
 51
150.0197790684
  0
LWPOLYLINE
  5
2A8
330
1F
100
AcDbEntity
  8
0
  6
Continuous
 62
     7
370
    15
100
AcDbPolyline
 90
       10
 70
   128
 43
0.0
 10
1806.6196646972
 20
5502.2861661568
 10
1806.9547024054
 20
5510.1067723885
 10
1807.8739252372
 20
5517.8806485787
 10
1809.4015922828
 20
5525.7370175972
 10
1811.4913311286
 20
5533.4636869087
 10
1811.8329849524
 20
5534.5523061409
 10
1813.3043256087
 20
5538.8729276314
 10
1816.7256322188
 20
5547.3410787239
 10
1820.7498398108
 20
5555.590838398
 10
1823.8581624312
 20
5561.1612500801
  0
ARC
  5
2A9
330
1F
100
AcDbEntity
  8
0
  6
Continuous
 62
     7
370
    15
100
AcDbCircle
 10
3570.7593846958
 20
5502.2839563933
 30
0.0
 40
0.4999008979652536
100
AcDbArc
 50
270.122034702
 51
0.2532712713
  0
ARC
  5
2AA
330
1F
100
AcDbEntity
  8
0
  6
Continuous
 62
     7
370
    15
100
AcDbCircle
 10
3553.5898828819
 20
5560.9096880983
 30
0.0
 40
0.4989572341388162
100
AcDbArc
 50
30.2766313537
 51
120.611552223
  0
LWPOLYLINE
  5
2AB
330
1F
100
AcDbEntity
  8
0
  6
Continuous
 62
     7
370
    15
100
AcDbPolyline
 90
       10
 70
   128
 43
0.0
 10
3571.2592807097
 20
5502.2861661568
 10
3570.9242430015
 20
5510.1067723885
 10
3570.0049605651
 20
5517.8806485787
 10
3568.4773531241
 20
5525.7370175972
 10
3566.3875546737
 20
5533.4636869087
 10
3566.0459604545
 20
5534.5523061409
 10
3564.5745601935
 20
5538.8729276314
 10
3561.1533131881
 20
5547.3410787239
 10
3557.1291055961
 20
5555.590838398
 10
3554.0207829757
 20
5561.1612500801
  0
ARC
  5
2AC
330
1F
100
AcDbEntity
  8
0
  6
Continuous
 62
     7
370
    15
100
AcDbCircle
 10
2062.3394561095
 20
5610.4537643146
 30
0.0
 40
9.25
100
AcDbArc
 50
180.0
 51
0.0
  0
LINE
  5
2AD
330
1F
100
AcDbEntity
  8
0
  6
Continuous
 62
     7
370
    15
100
AcDbLine
 10
2336.3894429488
 20
5642.1301068916
 30
0.0
 11
2336.3894429488
 21
5777.9075803414
 31
0.0
  0
ARC
  5
2AE
330
1F
100
AcDbEntity
  8
0
  6
Continuous
 62
     7
370
    15
100
AcDbCircle
 10
2345.6394561095
 20
5642.1300478159
 30
0.0
 40
9.25
100
AcDbArc
 50
180.0
 51
0.0
  0
LINE
  5
2AF
330
1F
100
AcDbEntity
  8
0
  6
Continuous
 62
     7
370
    15
100
AcDbLine
 10
2679.6894558204
 20
5652.7073087349
 30
0.0
 11
2679.6894558204
 21
5803.1122388497
 31
0.0
  0
ARC
  5
2B0
330
1F
100
AcDbEntity
  8
0
  6
Continuous
 62
     7
370
    15
100
AcDbCircle
 10
2688.9394561095
 20
5652.7072835775
 30
0.0
 40
9.250000000001364
100
AcDbArc
 50
180.0
 51
0.0
  0
LINE
  5
2B1
330
1F
100
AcDbEntity
  8
0
  6
Continuous
 62
     7
370
    15
100
AcDbLine
 10
2698.1894560588
 20
5652.7073087349
 30
0.0
 11
2698.1894560588
 21
5803.1122388497
 31
0.0
  0
ARC
  5
2B2
330
1F
100
AcDbEntity
  8
0
  6
Continuous
 62
     7
370
    15
100
AcDbCircle
 10
3032.2394561095
 20
5642.1300478159
 30
0.0
 40
9.250000000000455
100
AcDbArc
 50
180.0
 51
0.0
  0
LINE
  5
2B3
330
1F
100
AcDbEntity
  8
0
  6
Continuous
 62
     7
370
    15
100
AcDbLine
 10
3041.4894428534
 20
5642.1301068916
 30
0.0
 11
3041.4894428534
 21
5777.9075803414
 31
0.0
  0
ARC
  5
2B4
330
1F
100
AcDbEntity
  8
0
  6
Continuous
 62
     7
370
    15
100
AcDbCircle
 10
3315.5394561095
 20
5610.4537643146
 30
0.0
 40
9.250000000000455
100
AcDbArc
 50
180.0
 51
0.0
  0
LINE
  5
2B5
330
1F
100
AcDbEntity
  8
0
  6
Continuous
 62
     7
370
    15
100
AcDbLine
 10
3324.7894850058
 20
5610.4538144722
 30
0.0
 11
3324.7894850058
 21
5710.3430928841
 31
0.0
  0
ARC
  5
2B6
330
1F
100
AcDbEntity
  8
0
  6
Continuous
 62
     7
370
    15
100
AcDbCircle
 10
3543.8394561095
 20
5546.8971122698
 30
0.0
 40
9.25
100
AcDbArc
 50
180.0
 51
0.0
  0
LINE
  5
2B7
330
1F
100
AcDbEntity
  8
0
  6
Continuous
 62
     7
370
    15
100
AcDbLine
 10
3553.089460401
 20
5546.8971433296
 30
0.0
 11
3553.089460401
 21
5560.9085263863
 31
0.0
  0
LINE
  5
2B8
330
1F
100
AcDbEntity
  8
0
  6
Continuous
 62
     7
370
    15
100
AcDbLine
 10
3570.7592573447
 20
5501.7840566292
 30
0.0
 11
1807.1196284575
 21
5501.7840566292
 31
0.0
  0
ARC
  5
2B9
330
1F
100
AcDbEntity
  8
0
  6
Continuous
 62
     7
370
    15
100
AcDbCircle
 10
1834.0394561095
 20
5546.8971122698
 30
0.0
 40
9.25
100
AcDbArc
 50
180.0
 51
0.0
  0
LINE
  5
2BA
330
1F
100
AcDbEntity
  8
0
  6
Continuous
 62
     7
370
    15
100
AcDbLine
 10
2053.089460401
 20
5610.4538144722
 30
0.0
 11
2053.089460401
 21
5710.3430928841
 31
0.0
  0
LINE
  5
2BB
330
1F
100
AcDbEntity
  8
0
  6
Continuous
 62
     7
370
    15
100
AcDbLine
 10
1824.7894850058
 20
5546.8971433296
 30
0.0
 11
1824.7894850058
 21
5560.9085263863
 31
0.0
  0
LINE
  5
2BC
330
1F
100
AcDbEntity
  8
0
  6
Continuous
 62
     7
370
    15
100
AcDbLine
 10
3022.989442615
 20
5780.6560697212
 30
0.0
 11
3022.989442615
 21
5642.1301068916
 31
0.0
  0
LINE
  5
2BD
330
1F
100
AcDbEntity
  8
0
  6
Continuous
 62
     7
370
    15
100
AcDbLine
 10
2354.8894431872
 20
5780.6560697212
 30
0.0
 11
2354.8894431872
 21
5642.1301068916
 31
0.0
  0
LINE
  5
2BE
330
1F
100
AcDbEntity
  8
0
  6
Continuous
 62
     7
370
    15
100
AcDbLine
 10
2071.5894308371
 20
5716.910571064
 30
0.0
 11
2071.5894308371
 21
5610.4538144722
 31
0.0
  0
LINE
  5
2BF
330
1F
100
AcDbEntity
  8
0
  6
Continuous
 62
     7
370
    15
100
AcDbLine
 10
3306.2894549651
 20
5716.910571064
 30
0.0
 11
3306.2894549651
 21
5610.4538144722
 31
0.0
  0
LINE
  5
2C0
330
1F
100
AcDbEntity
  8
0
  6
Continuous
 62
     7
370
    15
100
AcDbLine
 10
3570.7592573447
 20
5501.7840566292
 30
0.0
 11
3570.7604494376
 21
5501.7840566292
 31
0.0
  0
LINE
  5
2C1
330
1F
100
AcDbEntity
  8
0
  6
Continuous
 62
     7
370
    15
100
AcDbLine
 10
1807.1196284575
 20
5501.7840566292
 30
0.0
 11
1807.1184363646
 21
5501.7840566292
 31
0.0
  0
ARC
  5
2C2
330
1F
100
AcDbEntity
  8
0
  6
Continuous
 62
     7
370
    15
100
AcDbCircle
 10
1824.2894561095
 20
5560.9084223178
 30
0.0
 40
0.5000000000007574
100
AcDbArc
 50
0.0
 51
59.515397743
  0
ARC
  5
2C3
330
1F
100
AcDbEntity
  8
0
  6
Continuous
 62
     7
370
    15
100
AcDbCircle
 10
3553.5894561095
 20
5560.9084223178
 30
0.0
 40
0.5
100
AcDbArc
 50
120.484602257
 51
180.0
  0
ARC
  5
2C4
330
1F
100
AcDbEntity
  8
0
  6
Continuous
 62
     7
370
    15
100
AcDbCircle
 10
2052.5894561095
 20
5710.3433161415
 30
0.0
 40
0.5000000000009095
100
AcDbArc
 50
0.0
 51
19.6013193735
  0
ARC
  5
2C5
330
1F
100
AcDbEntity
  8
0
  6
Continuous
 62
     7
370
    15
100
AcDbCircle
 10
3325.2894561095
 20
5710.3433161415
 30
0.0
 40
0.5000000000004547
100
AcDbArc
 50
160.3986806263
 51
180.0
  0
ARC
  5
2C6
330
1F
100
AcDbEntity
  8
0
  6
Continuous
 62
     7
370
    15
100
AcDbCircle
 10
3041.9894561095
 20
5777.9073468694
 30
0.0
 40
0.5
100
AcDbArc
 50
171.5091656015
 51
180.0
  0
ARC
  5
2C7
330
1F
100
AcDbEntity
  8
0
  6
Continuous
 62
     7
370
    15
100
AcDbCircle
 10
2335.8894561095
 20
5777.9073468694
 30
0.0
 40
0.5000000000004547
100
AcDbArc
 50
0.0
 51
8.4908343985
  0
LINE
  5
2C8
330
1F
100
AcDbEntity
  8
0
  6
Continuous
 62
     7
370
    15
100
AcDbLine
 10
2698.1894560588
 20
5803.1122388497
 30
0.0
 11
2698.1894560588
 21
5803.1141461983
 31
0.0
  0
LINE
  5
2C9
330
1F
100
AcDbEntity
  8
0
  6
Continuous
 62
     7
370
    15
100
AcDbLine
 10
2679.6894558204
 20
5803.1122388497
 30
0.0
 11
2679.6894558204
 21
5803.1141461983
 31
0.0
  0
LINE
  5
2CA
330
1F
100
AcDbEntity
  8
0
  6
Continuous
 62
     7
370
    15
100
AcDbLine
 10
3534.5894303603
 20
5587.1383847847
 30
0.0
 11
3534.5894303603
 21
5546.8971433296
 31
0.0
  0
LINE
  5
2CB
330
1F
100
AcDbEntity
  8
0
  6
Continuous
 62
     7
370
    15
100
AcDbLine
 10
1843.2894554419
 20
5587.1383847847
 30
0.0
 11
1843.2894554419
 21
5546.8971433296
 31
0.0
  0
ARC
  5
2CC
330
1F
100
AcDbEntity
  8
0
  6
Continuous
 62
     7
370
    15
100
AcDbCircle
 10
2945.6321527935
 20
330.5726599113
 30
0.0
 40
134.2499029551613
100
AcDbArc
 50
314.9567324216
 51
315.2590810675
  0
LINE
  5
2CD
330
1F
100
AcDbEntity
  8
0
  6
Continuous
 62
     7
370
    15
100
AcDbLine
 10
3040.9894492907
 20
-88.726132904
 30
0.0
 11
3040.9894492907
 21
236.0738666906
 31
0.0
  0
ARC
  5
2CE
330
1F
100
AcDbEntity
  8
0
  6
Continuous
 62
     7
370
    15
100
AcDbCircle
 10
3042.7693779387
 20
-86.1747294543
 30
0.0
 40
3.113664945364194
100
AcDbArc
 50
222.9262400431
 51
235.0269078793
  0
LINE
  5
2CF
330
1F
100
AcDbEntity
  8
0
  6
Continuous
 62
     7
370
    15
100
AcDbLine
 10
3040.9894492907
 20
579.3738665238
 30
0.0
 11
3040.9894492907
 21
254.5738669291
 31
0.0
  0
ARC
  5
2D0
330
1F
100
AcDbEntity
  8
0
  6
Continuous
 62
     7
370
    15
100
AcDbCircle
 10
2945.6321527935
 20
160.0750737084
 30
0.0
 40
134.2499029551613
100
AcDbArc
 50
44.7409189325
 51
45.0432675784
  0
ARC
  5
2D1
330
1F
100
AcDbEntity
  8
0
  6
Continuous
 62
     7
370
    15
100
AcDbCircle
 10
3042.7693779387
 20
576.822463074
 30
0.0
 40
3.113664945364159
100
AcDbArc
 50
124.9730921207
 51
137.0737599569
  0
LINE
  5
2D2
330
1F
100
AcDbEntity
  8
0
  6
Continuous
 62
     7
370
    15
100
AcDbLine
 10
3022.6894524379
 20
254.5738669291
 30
0.0
 11
3022.6894524379
 21
579.3738665238
 31
0.0
  0
ARC
  5
2D3
330
1F
100
AcDbEntity
  8
0
  6
Continuous
 62
     7
370
    15
100
AcDbCircle
 10
3020.9092175287
 20
576.822234533
 30
0.0
 40
3.114044848974342
100
AcDbArc
 50
42.92548133
 51
55.0242514126
  0
ARC
  5
2D4
330
1F
100
AcDbEntity
  8
0
  6
Continuous
 62
     7
370
    15
100
AcDbCircle
 10
3118.5384350442
 20
159.5852361326
 30
0.0
 40
134.9439438360986
100
AcDbArc
 50
134.95750994
 51
135.2583035491
  0
ARC
  5
2D5
330
1F
100
AcDbEntity
  8
0
  6
Continuous
 62
     7
370
    15
100
AcDbCircle
 10
3020.9092175287
 20
-86.1745009132
 30
0.0
 40
3.114044848974323
100
AcDbArc
 50
304.9757485874
 51
317.07451867
  0
LINE
  5
2D6
330
1F
100
AcDbEntity
  8
0
  6
Continuous
 62
     7
370
    15
100
AcDbLine
 10
3022.6894524379
 20
236.0738666906
 30
0.0
 11
3022.6894524379
 21
-88.726132904
 31
0.0
  0
ARC
  5
2D7
330
1F
100
AcDbEntity
  8
0
  6
Continuous
 62
     7
370
    15
100
AcDbCircle
 10
3118.5384350442
 20
331.0624974871
 30
0.0
 40
134.9439438360987
100
AcDbArc
 50
224.7416964509
 51
225.04249006
  0
ARC
  5
2D8
330
1F
100
AcDbEntity
  8
0
  6
Continuous
 62
     7
370
    15
100
AcDbCircle
 10
3025.4390877348
 20
595.9646970044
 30
0.0
 40
3.350580822978579
100
AcDbArc
 50
132.176634948
 51
145.1493500226
  0
ARC
  5
2D9
330
1F
100
AcDbEntity
  8
0
  6
Continuous
 62
     7
370
    15
100
AcDbCircle
 10
3038.2406089759
 20
595.9653963235
 30
0.0
 40
3.349528809146085
100
AcDbArc
 50
34.8486040021
 51
47.8254110273
  0
LINE
  5
2DA
330
1F
100
AcDbEntity
  8
0
  6
Continuous
 62
     7
370
    15
100
AcDbLine
 10
3022.6894524379
 20
597.8738667622
 30
0.0
 11
3022.6894524379
 21
597.8793503895
 31
0.0
  0
LINE
  5
2DB
330
1F
100
AcDbEntity
  8
0
  6
Continuous
 62
     7
370
    15
100
AcDbLine
 10
3040.9894492907
 20
597.8793503895
 30
0.0
 11
3040.9894492907
 21
597.8738667622
 31
0.0
  0
LINE
  5
2DC
330
1F
100
AcDbEntity
  8
0
  6
Continuous
 62
     7
370
    15
100
AcDbLine
 10
3040.9635808749
 20
862.6738490715
 30
0.0
 11
3040.9894492907
 21
862.6738490715
 31
0.0
  0
ARC
  5
2DD
330
1F
100
AcDbEntity
  8
0
  6
Continuous
 62
     7
370
    15
100
AcDbCircle
 10
3041.6904516233
 20
861.1641147687
 30
0.0
 40
1.675601011548798
100
AcDbArc
 50
115.7087719373
 51
135.7872371543
  0
LINE
  5
2DE
330
1F
100
AcDbEntity
  8
0
  6
Continuous
 62
     7
370
    15
100
AcDbLine
 10
3040.9894492907
 20
862.6738490715
 30
0.0
 11
3040.9894492907
 21
597.8793503895
 31
0.0
  0
ARC
  5
2DF
330
1F
100
AcDbEntity
  8
0
  6
Continuous
 62
     7
370
    15
100
AcDbCircle
 10
3021.9882143616
 20
861.163850769
 30
0.0
 40
1.675954075801979
100
AcDbArc
 50
44.2136118203
 51
64.2869636675
  0
LINE
  5
2E0
330
1F
100
AcDbEntity
  8
0
  6
Continuous
 62
     7
370
    15
100
AcDbLine
 10
3022.6894524379
 20
597.8793503895
 30
0.0
 11
3022.6894524379
 21
862.6738490715
 31
0.0
  0
ARC
  5
2E1
330
1F
100
AcDbEntity
  8
0
  6
Continuous
 62
     7
370
    15
100
AcDbCircle
 10
3021.9882143616
 20
-370.5161171493
 30
0.0
 40
1.675954075801979
100
AcDbArc
 50
295.7130363325
 51
315.7863881797
  0
ARC
  5
2E2
330
1F
100
AcDbEntity
  8
0
  6
Continuous
 62
     7
370
    15
100
AcDbCircle
 10
3025.4390877348
 20
-105.3169633847
 30
0.0
 40
3.350580822978579
100
AcDbArc
 50
214.8506499774
 51
227.823365052
  0
LINE
  5
2E3
330
1F
100
AcDbEntity
  8
0
  6
Continuous
 62
     7
370
    15
100
AcDbLine
 10
3022.6894524379
 20
-107.2316167698
 30
0.0
 11
3022.6894524379
 21
-372.0261154518
 31
0.0
  0
ARC
  5
2E4
330
1F
100
AcDbEntity
  8
0
  6
Continuous
 62
     7
370
    15
100
AcDbCircle
 10
3038.2406089759
 20
-105.3176627038
 30
0.0
 40
3.349528809146101
100
AcDbArc
 50
312.1745889727
 51
325.1513959979
  0
LINE
  5
2E5
330
1F
100
AcDbEntity
  8
0
  6
Continuous
 62
     7
370
    15
100
AcDbLine
 10
3040.9635808749
 20
-372.0261154518
 30
0.0
 11
3040.9894492907
 21
-372.0261154518
 31
0.0
  0
ARC
  5
2E6
330
1F
100
AcDbEntity
  8
0
  6
Continuous
 62
     7
370
    15
100
AcDbCircle
 10
3041.6904516233
 20
-370.516381149
 30
0.0
 40
1.675601011548798
100
AcDbArc
 50
224.2127628457
 51
244.2912280627
  0
LINE
  5
2E7
330
1F
100
AcDbEntity
  8
0
  6
Continuous
 62
     7
370
    15
100
AcDbLine
 10
3040.9894492907
 20
-372.0261154518
 30
0.0
 11
3040.9894492907
 21
-107.2316167698
 31
0.0
  0
LINE
  5
2E8
330
1F
100
AcDbEntity
  8
0
  6
Continuous
 62
     7
370
    15
100
AcDbLine
 10
3022.6894524379
 20
-107.2261331425
 30
0.0
 11
3022.6894524379
 21
-107.2316167698
 31
0.0
  0
LINE
  5
2E9
330
1F
100
AcDbEntity
  8
0
  6
Continuous
 62
     7
370
    15
100
AcDbLine
 10
3040.9894492907
 20
-107.2316167698
 30
0.0
 11
3040.9894492907
 21
-107.2261331425
 31
0.0
  0
ARC
  5
2EA
330
1F
100
AcDbEntity
  8
0
  6
Continuous
 62
     7
370
    15
100
AcDbCircle
 10
3022.781466077
 20
1090.2620134874
 30
0.0
 40
0.7163223719814126
100
AcDbArc
 50
55.2812925066
 51
83.6088974379
  0
ARC
  5
2EB
330
1F
100
AcDbEntity
  8
0
  6
Continuous
 62
     7
370
    15
100
AcDbCircle
 10
3024.3582490566
 20
880.4118369831
 30
0.0
 40
1.846775285081411
100
AcDbArc
 50
129.2635624599
 51
154.6390373073
  0
LINE
  5
2EC
330
1F
100
AcDbEntity
  8
0
  6
Continuous
 62
     7
370
    15
100
AcDbLine
 10
3022.6894524379
 20
881.2028469696
 30
0.0
 11
3022.6894524379
 21
1090.9738840714
 31
0.0
  0
LINE
  5
2ED
330
1F
100
AcDbEntity
  8
0
  6
Continuous
 62
     7
370
    15
100
AcDbLine
 10
3040.8176985068
 20
1090.9738840714
 30
0.0
 11
3040.9894492907
 21
1090.9738840714
 31
0.0
  0
ARC
  5
2EE
330
1F
100
AcDbEntity
  8
0
  6
Continuous
 62
     7
370
    15
100
AcDbCircle
 10
3039.3209725916
 20
880.4120873699
 30
0.0
 40
1.846378953572967
100
AcDbArc
 50
25.3581938041
 51
50.7392064287
  0
ARC
  5
2EF
330
1F
100
AcDbEntity
  8
0
  6
Continuous
 62
     7
370
    15
100
AcDbCircle
 10
3040.8974356516
 20
1090.2620134874
 30
0.0
 40
0.7163223719814126
100
AcDbArc
 50
96.3911025621
 51
124.7187074934
  0
LINE
  5
2F0
330
1F
100
AcDbEntity
  8
0
  6
Continuous
 62
     7
370
    15
100
AcDbLine
 10
3040.9894492907
 20
1090.9738840714
 30
0.0
 11
3040.9894492907
 21
881.2028469696
 31
0.0
  0
LINE
  5
2F1
330
1F
100
AcDbEntity
  8
0
  6
Continuous
 62
     7
370
    15
100
AcDbLine
 10
3022.6894524379
 20
881.1738791123
 30
0.0
 11
3022.6894524379
 21
881.2028469696
 31
0.0
  0
LINE
  5
2F2
330
1F
100
AcDbEntity
  8
0
  6
Continuous
 62
     7
370
    15
100
AcDbLine
 10
3040.9894492907
 20
881.2028469696
 30
0.0
 11
3040.9894492907
 21
881.1738791123
 31
0.0
  0
ARC
  5
2F3
330
1F
100
AcDbEntity
  8
0
  6
Continuous
 62
     7
370
    15
100
AcDbCircle
 10
3022.781466077
 20
-599.6142798677
 30
0.0
 40
0.7163223719814126
100
AcDbArc
 50
276.3911025621
 51
304.7187074934
  0
ARC
  5
2F4
330
1F
100
AcDbEntity
  8
0
  6
Continuous
 62
     7
370
    15
100
AcDbCircle
 10
3024.3582490566
 20
-389.7641033634
 30
0.0
 40
1.846775285081411
100
AcDbArc
 50
205.3609626927
 51
230.7364375401
  0
LINE
  5
2F5
330
1F
100
AcDbEntity
  8
0
  6
Continuous
 62
     7
370
    15
100
AcDbLine
 10
3022.6894524379
 20
-390.5551133499
 30
0.0
 11
3022.6894524379
 21
-600.3261504516
 31
0.0
  0
ARC
  5
2F6
330
1F
100
AcDbEntity
  8
0
  6
Continuous
 62
     7
370
    15
100
AcDbCircle
 10
3039.3209725916
 20
-389.7643537502
 30
0.0
 40
1.846378953572923
100
AcDbArc
 50
309.2607935713
 51
334.6418061959
  0
LINE
  5
2F7
330
1F
100
AcDbEntity
  8
0
  6
Continuous
 62
     7
370
    15
100
AcDbLine
 10
3040.8176985068
 20
-600.3261504516
 30
0.0
 11
3040.9894492907
 21
-600.3261504516
 31
0.0
  0
ARC
  5
2F8
330
1F
100
AcDbEntity
  8
0
  6
Continuous
 62
     7
370
    15
100
AcDbCircle
 10
3040.8974356516
 20
-599.6142798677
 30
0.0
 40
0.7163223719814126
100
AcDbArc
 50
235.2812925066
 51
263.6088974379
  0
LINE
  5
2F9
330
1F
100
AcDbEntity
  8
0
  6
Continuous
 62
     7
370
    15
100
AcDbLine
 10
3040.9894492907
 20
-600.3261504516
 30
0.0
 11
3040.9894492907
 21
-390.5551133499
 31
0.0
  0
LINE
  5
2FA
330
1F
100
AcDbEntity
  8
0
  6
Continuous
 62
     7
370
    15
100
AcDbLine
 10
3022.6894524379
 20
-390.5261454925
 30
0.0
 11
3022.6894524379
 21
-390.5551133499
 31
0.0
  0
LINE
  5
2FB
330
1F
100
AcDbEntity
  8
0
  6
Continuous
 62
     7
370
    15
100
AcDbLine
 10
3040.9894492907
 20
-390.5551133499
 30
0.0
 11
3040.9894492907
 21
-390.5261454925
 31
0.0
  0
ARC
  5
2FC
330
1F
100
AcDbEntity
  8
0
  6
Continuous
 62
     7
370
    15
100
AcDbCircle
 10
3040.491072788
 20
1127.1453007782
 30
0.0
 40
0.4983766613415773
100
AcDbArc
 50
359.9542865889
 51
90.1859053241
  0
ARC
  5
2FD
330
1F
100
AcDbEntity
  8
0
  6
Continuous
 62
     7
370
    15
100
AcDbCircle
 10
3040.1189645718
 20
1109.6097682342
 30
0.0
 40
0.8774616414059391
100
AcDbArc
 50
7.2300898681
 51
65.0245050417
  0
LINE
  5
2FE
330
1F
100
AcDbEntity
  8
0
  6
Continuous
 62
     7
370
    15
100
AcDbLine
 10
3040.9894492907
 20
1127.1449031487
 30
0.0
 11
3040.9894492907
 21
1109.7202005043
 31
0.0
  0
ARC
  5
2FF
330
1F
100
AcDbEntity
  8
0
  6
Continuous
 62
     7
370
    15
100
AcDbCircle
 10
3023.1878289406
 20
1127.1453007782
 30
0.0
 40
0.4983766613415758
100
AcDbArc
 50
89.814094676
 51
180.0457134111
  0
LINE
  5
300
330
1F
100
AcDbEntity
  8
0
  6
Continuous
 62
     7
370
    15
100
AcDbLine
 10
3023.1894460006
 20
1127.6436748161
 30
0.0
 11
3023.1894460006
 21
1110.4051770821
 31
0.0
  0
ARC
  5
301
330
1F
100
AcDbEntity
  8
0
  6
Continuous
 62
     7
370
    15
100
AcDbCircle
 10
3023.5599371568
 20
1109.6097682342
 30
0.0
 40
0.8774616414059391
100
AcDbArc
 50
114.9754949583
 51
172.7699101319
  0
LINE
  5
302
330
1F
100
AcDbEntity
  8
0
  6
Continuous
 62
     7
370
    15
100
AcDbLine
 10
3022.6894524379
 20
1109.7202005043
 30
0.0
 11
3022.6894524379
 21
1127.1449031487
 31
0.0
  0
LINE
  5
303
330
1F
100
AcDbEntity
  8
0
  6
Continuous
 62
     7
370
    15
100
AcDbLine
 10
3022.6894524379
 20
1109.4738545075
 30
0.0
 11
3022.6894524379
 21
1109.7202005043
 31
0.0
  0
LINE
  5
304
330
1F
100
AcDbEntity
  8
0
  6
Continuous
 62
     7
370
    15
100
AcDbLine
 10
3040.9894492907
 20
1109.7202005043
 30
0.0
 11
3040.9894492907
 21
1109.4738545075
 31
0.0
  0
LINE
  5
305
330
1F
100
AcDbEntity
  8
0
  6
Continuous
 62
     7
370
    15
100
AcDbLine
 10
3023.1894460006
 20
-636.9959411964
 30
0.0
 11
3023.1894460006
 21
-619.7574434624
 31
0.0
  0
ARC
  5
306
330
1F
100
AcDbEntity
  8
0
  6
Continuous
 62
     7
370
    15
100
AcDbCircle
 10
3023.1878289406
 20
-636.4975671585
 30
0.0
 40
0.4983766613415753
100
AcDbArc
 50
179.9542865888
 51
270.185905324
  0
ARC
  5
307
330
1F
100
AcDbEntity
  8
0
  6
Continuous
 62
     7
370
    15
100
AcDbCircle
 10
3023.5599371568
 20
-618.9620346145
 30
0.0
 40
0.8774616414060422
100
AcDbArc
 50
187.2300898681
 51
245.0245050417
  0
LINE
  5
308
330
1F
100
AcDbEntity
  8
0
  6
Continuous
 62
     7
370
    15
100
AcDbLine
 10
3022.6894524379
 20
-619.0724668846
 30
0.0
 11
3022.6894524379
 21
-636.4971695289
 31
0.0
  0
ARC
  5
309
330
1F
100
AcDbEntity
  8
0
  6
Continuous
 62
     7
370
    15
100
AcDbCircle
 10
3040.1189645718
 20
-618.9620346145
 30
0.0
 40
0.8774616414060422
100
AcDbArc
 50
294.9754949583
 51
352.7699101319
  0
LINE
  5
30A
330
1F
100
AcDbEntity
  8
0
  6
Continuous
 62
     7
370
    15
100
AcDbLine
 10
3022.6894524379
 20
-618.8261208877
 30
0.0
 11
3022.6894524379
 21
-619.0724668846
 31
0.0
  0
LINE
  5
30B
330
1F
100
AcDbEntity
  8
0
  6
Continuous
 62
     7
370
    15
100
AcDbLine
 10
3040.9894492907
 20
-619.0724668846
 30
0.0
 11
3040.9894492907
 21
-618.8261208877
 31
0.0
  0
ARC
  5
30C
330
1F
100
AcDbEntity
  8
0
  6
Continuous
 62
     7
370
    15
100
AcDbCircle
 10
3040.491072788
 20
-636.4975671585
 30
0.0
 40
0.4983766613413499
100
AcDbArc
 50
269.8140946759
 51
0.0457134112
  0
LINE
  5
30D
330
1F
100
AcDbEntity
  8
0
  6
Continuous
 62
     7
370
    15
100
AcDbLine
 10
3040.9894492907
 20
-636.4971695289
 30
0.0
 11
3040.9894492907
 21
-619.0724668846
 31
0.0
  0
LINE
  5
30E
330
1F
100
AcDbEntity
  8
0
  6
Continuous
 62
     7
370
    15
100
AcDbLine
 10
3040.489455728
 20
1127.6436748161
 30
0.0
 11
3023.1894460006
 21
1127.6436748161
 31
0.0
  0
LINE
  5
30F
330
1F
100
AcDbEntity
  8
0
  6
Continuous
 62
     7
370
    15
100
AcDbLine
 10
3040.489455728
 20
-636.9959411964
 30
0.0
 11
3023.1894460006
 21
-636.9959411964
 31
0.0
  0
LINE
  5
310
330
1F
100
AcDbEntity
  8
0
  6
Continuous
 62
     7
370
    15
100
AcDbLine
 10
2679.6894558204
 20
236.0738666906
 30
0.0
 11
2679.6894558204
 21
-88.726132904
 31
0.0
  0
ARC
  5
311
330
1F
100
AcDbEntity
  8
0
  6
Continuous
 62
     7
370
    15
100
AcDbCircle
 10
2765.4914830203
 20
321.0761598492
 30
0.0
 40
120.7782190165408
100
AcDbArc
 50
224.7317345982
 51
225.0677668131
  0
ARC
  5
312
330
1F
100
AcDbEntity
  8
0
  6
Continuous
 62
     7
370
    15
100
AcDbCircle
 10
2677.6305062131
 20
-85.8815256569
 30
0.0
 40
3.513950956160285
100
AcDbArc
 50
305.9511152289
 51
316.737860743
  0
ARC
  5
313
330
1F
100
AcDbEntity
  8
0
  6
Continuous
 62
     7
370
    15
100
AcDbCircle
 10
2677.6305062131
 20
576.5292592766
 30
0.0
 40
3.513950956160178
100
AcDbArc
 50
43.262139257
 51
54.0488847711
  0
ARC
  5
314
330
1F
100
AcDbEntity
  8
0
  6
Continuous
 62
     7
370
    15
100
AcDbCircle
 10
2765.4914830203
 20
169.5715737705
 30
0.0
 40
120.7782190165408
100
AcDbArc
 50
134.9322331869
 51
135.2682654018
  0
LINE
  5
315
330
1F
100
AcDbEntity
  8
0
  6
Continuous
 62
     7
370
    15
100
AcDbLine
 10
2679.6894558204
 20
254.5738669291
 30
0.0
 11
2679.6894558204
 21
579.3738665238
 31
0.0
  0
ARC
  5
316
330
1F
100
AcDbEntity
  8
0
  6
Continuous
 62
     7
370
    15
100
AcDbCircle
 10
2612.1874291987
 20
321.0761598492
 30
0.0
 40
120.7782190165408
100
AcDbArc
 50
314.9322331869
 51
315.2682654018
  0
LINE
  5
317
330
1F
100
AcDbEntity
  8
0
  6
Continuous
 62
     7
370
    15
100
AcDbLine
 10
2697.9894563986
 20
-88.726132904
 30
0.0
 11
2697.9894563986
 21
236.0738666906
 31
0.0
  0
ARC
  5
318
330
1F
100
AcDbEntity
  8
0
  6
Continuous
 62
     7
370
    15
100
AcDbCircle
 10
2700.048406006
 20
-85.8815256569
 30
0.0
 40
3.513950956160275
100
AcDbArc
 50
223.262139257
 51
234.0488847711
  0
LINE
  5
319
330
1F
100
AcDbEntity
  8
0
  6
Continuous
 62
     7
370
    15
100
AcDbLine
 10
2697.9894563986
 20
579.3738665238
 30
0.0
 11
2697.9894563986
 21
254.5738669291
 31
0.0
  0
ARC
  5
31A
330
1F
100
AcDbEntity
  8
0
  6
Continuous
 62
     7
370
    15
100
AcDbCircle
 10
2612.1874291987
 20
169.5715737705
 30
0.0
 40
120.7782190165408
100
AcDbArc
 50
44.7317345982
 51
45.0677668131
  0
ARC
  5
31B
330
1F
100
AcDbEntity
  8
0
  6
Continuous
 62
     7
370
    15
100
AcDbCircle
 10
2700.048406006
 20
576.5292592766
 30
0.0
 40
3.513950956160178
100
AcDbArc
 50
125.9511152289
 51
136.737860743
  0
LINE
  5
31C
330
1F
100
AcDbEntity
  8
0
  6
Continuous
 62
     7
370
    15
100
AcDbLine
 10
2697.9894563986
 20
236.0738666906
 30
0.0
 11
2679.6894558204
 21
236.0738666906
 31
0.0
  0
LINE
  5
31D
330
1F
100
AcDbEntity
  8
0
  6
Continuous
 62
     7
370
    15
100
AcDbLine
 10
2697.9894563986
 20
254.5738669291
 30
0.0
 11
2679.6894558204
 21
254.5738669291
 31
0.0
  0
LINE
  5
31E
330
1F
100
AcDbEntity
  8
0
  6
Continuous
 62
     7
370
    15
100
AcDbLine
 10
2679.693528494
 20
-88.726132904
 30
0.0
 11
2697.985383725
 21
-88.726132904
 31
0.0
  0
LINE
  5
31F
330
1F
100
AcDbEntity
  8
0
  6
Continuous
 62
     7
370
    15
100
AcDbLine
 10
2679.693528494
 20
579.3738665238
 30
0.0
 11
2697.985383725
 21
579.3738665238
 31
0.0
  0
LINE
  5
320
330
1F
100
AcDbEntity
  8
0
  6
Continuous
 62
     7
370
    15
100
AcDbLine
 10
2697.969363114
 20
862.6738490715
 30
0.0
 11
2697.9894563986
 21
862.6738490715
 31
0.0
  0
ARC
  5
321
330
1F
100
AcDbEntity
  8
0
  6
Continuous
 62
     7
370
    15
100
AcDbCircle
 10
2695.100152754
 20
595.8171128556
 30
0.0
 40
3.549272502115978
100
AcDbArc
 50
35.50595351
 51
47.6869304022
  0
ARC
  5
322
330
1F
100
AcDbEntity
  8
0
  6
Continuous
 62
     7
370
    15
100
AcDbCircle
 10
2698.8092515137
 20
861.0535470383
 30
0.0
 40
1.82504553441379
100
AcDbArc
 50
117.4001003368
 51
136.315780908
  0
LINE
  5
323
330
1F
100
AcDbEntity
  8
0
  6
Continuous
 62
     7
370
    15
100
AcDbLine
 10
2697.9894563986
 20
862.6738490715
 30
0.0
 11
2697.9894563986
 21
597.8784861221
 31
0.0
  0
ARC
  5
324
330
1F
100
AcDbEntity
  8
0
  6
Continuous
 62
     7
370
    15
100
AcDbCircle
 10
2682.578759465
 20
595.8171128556
 30
0.0
 40
3.549272502116294
100
AcDbArc
 50
132.3130695978
 51
144.49404649
  0
LINE
  5
325
330
1F
100
AcDbEntity
  8
0
  6
Continuous
 62
     7
370
    15
100
AcDbLine
 10
2679.6894558204
 20
597.8738667622
 30
0.0
 11
2679.6894558204
 21
597.8784861221
 31
0.0
  0
LINE
  5
326
330
1F
100
AcDbEntity
  8
0
  6
Continuous
 62
     7
370
    15
100
AcDbLine
 10
2697.9894563986
 20
597.8784861221
 30
0.0
 11
2697.9894563986
 21
597.8738667622
 31
0.0
  0
LINE
  5
327
330
1F
100
AcDbEntity
  8
0
  6
Continuous
 62
     7
370
    15
100
AcDbLine
 10
2679.6894558204
 20
862.6738490715
 30
0.0
 11
2679.709549105
 21
862.6738490715
 31
0.0
  0
ARC
  5
328
330
1F
100
AcDbEntity
  8
0
  6
Continuous
 62
     7
370
    15
100
AcDbCircle
 10
2678.8696607053
 20
861.0535470383
 30
0.0
 40
1.82504553441379
100
AcDbArc
 50
43.684219092
 51
62.5998996632
  0
LINE
  5
329
330
1F
100
AcDbEntity
  8
0
  6
Continuous
 62
     7
370
    15
100
AcDbLine
 10
2679.6894558204
 20
597.8784861221
 30
0.0
 11
2679.6894558204
 21
862.6738490715
 31
0.0
  0
ARC
  5
32A
330
1F
100
AcDbEntity
  8
0
  6
Continuous
 62
     7
370
    15
100
AcDbCircle
 10
2678.8696607053
 20
-370.4058134186
 30
0.0
 40
1.825045534413639
100
AcDbArc
 50
297.4001003368
 51
316.315780908
  0
LINE
  5
32B
330
1F
100
AcDbEntity
  8
0
  6
Continuous
 62
     7
370
    15
100
AcDbLine
 10
2679.6894558204
 20
-372.0261154518
 30
0.0
 11
2679.709549105
 21
-372.0261154518
 31
0.0
  0
ARC
  5
32C
330
1F
100
AcDbEntity
  8
0
  6
Continuous
 62
     7
370
    15
100
AcDbCircle
 10
2682.578759465
 20
-105.1693792359
 30
0.0
 40
3.54927250211631
100
AcDbArc
 50
215.50595351
 51
227.6869304022
  0
LINE
  5
32D
330
1F
100
AcDbEntity
  8
0
  6
Continuous
 62
     7
370
    15
100
AcDbLine
 10
2679.6894558204
 20
-107.2307525024
 30
0.0
 11
2679.6894558204
 21
-372.0261154518
 31
0.0
  0
ARC
  5
32E
330
1F
100
AcDbEntity
  8
0
  6
Continuous
 62
     7
370
    15
100
AcDbCircle
 10
2695.100152754
 20
-105.1693792359
 30
0.0
 40
3.549272502115999
100
AcDbArc
 50
312.3130695978
 51
324.49404649
  0
LINE
  5
32F
330
1F
100
AcDbEntity
  8
0
  6
Continuous
 62
     7
370
    15
100
AcDbLine
 10
2697.969363114
 20
-372.0261154518
 30
0.0
 11
2697.9894563986
 21
-372.0261154518
 31
0.0
  0
ARC
  5
330
330
1F
100
AcDbEntity
  8
0
  6
Continuous
 62
     7
370
    15
100
AcDbCircle
 10
2698.8092515137
 20
-370.4058134186
 30
0.0
 40
1.825045534413639
100
AcDbArc
 50
223.684219092
 51
242.5998996632
  0
LINE
  5
331
330
1F
100
AcDbEntity
  8
0
  6
Continuous
 62
     7
370
    15
100
AcDbLine
 10
2697.9894563986
 20
-372.0261154518
 30
0.0
 11
2697.9894563986
 21
-107.2307525024
 31
0.0
  0
LINE
  5
332
330
1F
100
AcDbEntity
  8
0
  6
Continuous
 62
     7
370
    15
100
AcDbLine
 10
2679.6894558204
 20
-107.2261331425
 30
0.0
 11
2679.6894558204
 21
-107.2307525024
 31
0.0
  0
LINE
  5
333
330
1F
100
AcDbEntity
  8
0
  6
Continuous
 62
     7
370
    15
100
AcDbLine
 10
2697.9894563986
 20
-107.2307525024
 30
0.0
 11
2697.9894563986
 21
-107.2261331425
 31
0.0
  0
LINE
  5
334
330
1F
100
AcDbEntity
  8
0
  6
Continuous
 62
     7
370
    15
100
AcDbLine
 10
2679.709549105
 20
-372.0261154518
 30
0.0
 11
2697.969363114
 21
-372.0261154518
 31
0.0
  0
LINE
  5
335
330
1F
100
AcDbEntity
  8
0
  6
Continuous
 62
     7
370
    15
100
AcDbLine
 10
2679.709549105
 20
862.6738490715
 30
0.0
 11
2697.969363114
 21
862.6738490715
 31
0.0
  0
ARC
  5
336
330
1F
100
AcDbEntity
  8
0
  6
Continuous
 62
     7
370
    15
100
AcDbCircle
 10
2679.5186297092
 20
-599.3496808331
 30
0.0
 40
1.009238133003334
100
AcDbArc
 50
284.6403451603
 51
311.6582205805
  0
LINE
  5
337
330
1F
100
AcDbEntity
  8
0
  6
Continuous
 62
     7
370
    15
100
AcDbLine
 10
2679.6894558204
 20
-600.3261504516
 30
0.0
 11
2679.7737153677
 21
-600.3261504516
 31
0.0
  0
ARC
  5
338
330
1F
100
AcDbEntity
  8
0
  6
Continuous
 62
     7
370
    15
100
AcDbCircle
 10
2681.4923046455
 20
-389.6192272784
 30
0.0
 40
2.028197474652996
100
AcDbArc
 50
207.2656359003
 51
230.031392413
  0
LINE
  5
339
330
1F
100
AcDbEntity
  8
0
  6
Continuous
 62
     7
370
    15
100
AcDbLine
 10
2679.6894558204
 20
-390.548378025
 30
0.0
 11
2679.6894558204
 21
-600.3261504516
 31
0.0
  0
ARC
  5
33A
330
1F
100
AcDbEntity
  8
0
  6
Continuous
 62
     7
370
    15
100
AcDbCircle
 10
2696.1866075735
 20
-389.6192272784
 30
0.0
 40
2.028197474653337
100
AcDbArc
 50
309.968607587
 51
332.7343640997
  0
LINE
  5
33B
330
1F
100
AcDbEntity
  8
0
  6
Continuous
 62
     7
370
    15
100
AcDbLine
 10
2697.9051968513
 20
-600.3261504516
 30
0.0
 11
2697.9894563986
 21
-600.3261504516
 31
0.0
  0
ARC
  5
33C
330
1F
100
AcDbEntity
  8
0
  6
Continuous
 62
     7
370
    15
100
AcDbCircle
 10
2698.1602825098
 20
-599.3496808331
 30
0.0
 40
1.009238133003334
100
AcDbArc
 50
228.3417794195
 51
255.3596548397
  0
LINE
  5
33D
330
1F
100
AcDbEntity
  8
0
  6
Continuous
 62
     7
370
    15
100
AcDbLine
 10
2697.9894563986
 20
-600.3261504516
 30
0.0
 11
2697.9894563986
 21
-390.548378025
 31
0.0
  0
LINE
  5
33E
330
1F
100
AcDbEntity
  8
0
  6
Continuous
 62
     7
370
    15
100
AcDbLine
 10
2679.6894558204
 20
-390.5261454925
 30
0.0
 11
2679.6894558204
 21
-390.548378025
 31
0.0
  0
LINE
  5
33F
330
1F
100
AcDbEntity
  8
0
  6
Continuous
 62
     7
370
    15
100
AcDbLine
 10
2697.9894563986
 20
-390.548378025
 30
0.0
 11
2697.9894563986
 21
-390.5261454925
 31
0.0
  0
LINE
  5
340
330
1F
100
AcDbEntity
  8
0
  6
Continuous
 62
     7
370
    15
100
AcDbLine
 10
2697.9051968513
 20
1090.9738840714
 30
0.0
 11
2697.9894563986
 21
1090.9738840714
 31
0.0
  0
ARC
  5
341
330
1F
100
AcDbEntity
  8
0
  6
Continuous
 62
     7
370
    15
100
AcDbCircle
 10
2696.1866075735
 20
880.2669608981
 30
0.0
 40
2.028197474653389
100
AcDbArc
 50
27.2656359003
 51
50.031392413
  0
ARC
  5
342
330
1F
100
AcDbEntity
  8
0
  6
Continuous
 62
     7
370
    15
100
AcDbCircle
 10
2698.1602825098
 20
1089.9974144528
 30
0.0
 40
1.009238133003334
100
AcDbArc
 50
104.6403451603
 51
131.6582205805
  0
LINE
  5
343
330
1F
100
AcDbEntity
  8
0
  6
Continuous
 62
     7
370
    15
100
AcDbLine
 10
2697.9894563986
 20
1090.9738840714
 30
0.0
 11
2697.9894563986
 21
881.1961116448
 31
0.0
  0
LINE
  5
344
330
1F
100
AcDbEntity
  8
0
  6
Continuous
 62
     7
370
    15
100
AcDbLine
 10
2679.6894558204
 20
1090.9738840714
 30
0.0
 11
2679.7737153677
 21
1090.9738840714
 31
0.0
  0
ARC
  5
345
330
1F
100
AcDbEntity
  8
0
  6
Continuous
 62
     7
370
    15
100
AcDbCircle
 10
2679.5186297092
 20
1089.9974144528
 30
0.0
 40
1.009238133003334
100
AcDbArc
 50
48.3417794195
 51
75.3596548397
  0
ARC
  5
346
330
1F
100
AcDbEntity
  8
0
  6
Continuous
 62
     7
370
    15
100
AcDbCircle
 10
2681.4923046455
 20
880.2669608981
 30
0.0
 40
2.028197474653084
100
AcDbArc
 50
129.968607587
 51
152.7343640997
  0
LINE
  5
347
330
1F
100
AcDbEntity
  8
0
  6
Continuous
 62
     7
370
    15
100
AcDbLine
 10
2679.6894558204
 20
881.1961116448
 30
0.0
 11
2679.6894558204
 21
1090.9738840714
 31
0.0
  0
LINE
  5
348
330
1F
100
AcDbEntity
  8
0
  6
Continuous
 62
     7
370
    15
100
AcDbLine
 10
2679.6894558204
 20
881.1738791123
 30
0.0
 11
2679.6894558204
 21
881.1961116448
 31
0.0
  0
LINE
  5
349
330
1F
100
AcDbEntity
  8
0
  6
Continuous
 62
     7
370
    15
100
AcDbLine
 10
2697.9894563986
 20
881.1961116448
 30
0.0
 11
2697.9894563986
 21
881.1738791123
 31
0.0
  0
LINE
  5
34A
330
1F
100
AcDbEntity
  8
0
  6
Continuous
 62
     7
370
    15
100
AcDbLine
 10
2679.7737153677
 20
-600.3261504516
 30
0.0
 11
2697.9051968513
 21
-600.3261504516
 31
0.0
  0
LINE
  5
34B
330
1F
100
AcDbEntity
  8
0
  6
Continuous
 62
     7
370
    15
100
AcDbLine
 10
2679.7737153677
 20
1090.9738840714
 30
0.0
 11
2697.9051968513
 21
1090.9738840714
 31
0.0
  0
ARC
  5
34C
330
1F
100
AcDbEntity
  8
0
  6
Continuous
 62
     7
370
    15
100
AcDbCircle
 10
2697.491022787
 20
-704.1765574705
 30
0.0
 40
0.4984337720214921
100
AcDbArc
 50
269.8199313613
 51
0.0459762525
  0
ARC
  5
34D
330
1F
100
AcDbEntity
  8
0
  6
Continuous
 62
     7
370
    15
100
AcDbCircle
 10
2696.7817003487
 20
-618.5929668077
 30
0.0
 40
1.25297867798567
100
AcDbArc
 50
304.3924831306
 51
344.5595968658
  0
LINE
  5
34E
330
1F
100
AcDbEntity
  8
0
  6
Continuous
 62
     7
370
    15
100
AcDbLine
 10
2697.9894563986
 20
-704.1761575088
 30
0.0
 11
2697.9894563986
 21
-618.9265547142
 31
0.0
  0
ARC
  5
34F
330
1F
100
AcDbEntity
  8
0
  6
Continuous
 62
     7
370
    15
100
AcDbCircle
 10
2680.187889432
 20
-704.1765574705
 30
0.0
 40
0.4984337720214921
100
AcDbArc
 50
179.9540237475
 51
270.1800686387
  0
ARC
  5
350
330
1F
100
AcDbEntity
  8
0
  6
Continuous
 62
     7
370
    15
100
AcDbCircle
 10
2680.8972118704
 20
-618.5929668077
 30
0.0
 40
1.252978677985983
100
AcDbArc
 50
195.4404031342
 51
235.6075168693
  0
LINE
  5
351
330
1F
100
AcDbEntity
  8
0
  6
Continuous
 62
     7
370
    15
100
AcDbLine
 10
2679.6894558204
 20
-618.9265547142
 30
0.0
 11
2679.6894558204
 21
-704.1761575088
 31
0.0
  0
LINE
  5
352
330
1F
100
AcDbEntity
  8
0
  6
Continuous
 62
     7
370
    15
100
AcDbLine
 10
2679.6894558204
 20
-618.8261208877
 30
0.0
 11
2679.6894558204
 21
-618.9265547142
 31
0.0
  0
LINE
  5
353
330
1F
100
AcDbEntity
  8
0
  6
Continuous
 62
     7
370
    15
100
AcDbLine
 10
2697.9894563986
 20
-618.9265547142
 30
0.0
 11
2697.9894563986
 21
-618.8261208877
 31
0.0
  0
ARC
  5
354
330
1F
100
AcDbEntity
  8
0
  6
Continuous
 62
     7
370
    15
100
AcDbCircle
 10
2697.491022787
 20
1194.8242910902
 30
0.0
 40
0.4984337720214632
100
AcDbArc
 50
359.9540237475
 51
90.1800686387
  0
ARC
  5
355
330
1F
100
AcDbEntity
  8
0
  6
Continuous
 62
     7
370
    15
100
AcDbCircle
 10
2696.7817003487
 20
1109.2407004274
 30
0.0
 40
1.25297867798567
100
AcDbArc
 50
15.4404031342
 51
55.6075168694
  0
LINE
  5
356
330
1F
100
AcDbEntity
  8
0
  6
Continuous
 62
     7
370
    15
100
AcDbLine
 10
2697.9894563986
 20
1194.8238911286
 30
0.0
 11
2697.9894563986
 21
1109.5742883339
 31
0.0
  0
ARC
  5
357
330
1F
100
AcDbEntity
  8
0
  6
Continuous
 62
     7
370
    15
100
AcDbCircle
 10
2680.187889432
 20
1194.8242910902
 30
0.0
 40
0.4984337720214632
100
AcDbArc
 50
89.8199313613
 51
180.0459762525
  0
ARC
  5
358
330
1F
100
AcDbEntity
  8
0
  6
Continuous
 62
     7
370
    15
100
AcDbCircle
 10
2680.8972118704
 20
1109.2407004274
 30
0.0
 40
1.252978677985983
100
AcDbArc
 50
124.3924831307
 51
164.5595968658
  0
LINE
  5
359
330
1F
100
AcDbEntity
  8
0
  6
Continuous
 62
     7
370
    15
100
AcDbLine
 10
2679.6894558204
 20
1109.5742883339
 30
0.0
 11
2679.6894558204
 21
1194.8238911286
 31
0.0
  0
LINE
  5
35A
330
1F
100
AcDbEntity
  8
0
  6
Continuous
 62
     7
370
    15
100
AcDbLine
 10
2679.6894558204
 20
1109.4738545075
 30
0.0
 11
2679.6894558204
 21
1109.5742883339
 31
0.0
  0
LINE
  5
35B
330
1F
100
AcDbEntity
  8
0
  6
Continuous
 62
     7
370
    15
100
AcDbLine
 10
2697.9894563986
 20
1109.5742883339
 30
0.0
 11
2697.9894563986
 21
1109.4738545075
 31
0.0
  0
LINE
  5
35C
330
1F
100
AcDbEntity
  8
0
  6
Continuous
 62
     7
370
    15
100
AcDbLine
 10
2697.4894563166
 20
-704.674988781
 30
0.0
 11
2680.1894559024
 21
-704.674988781
 31
0.0
  0
LINE
  5
35D
330
1F
100
AcDbEntity
  8
0
  6
Continuous
 62
     7
370
    15
100
AcDbLine
 10
2697.4894563166
 20
1195.3227224007
 30
0.0
 11
2680.1894559024
 21
1195.3227224007
 31
0.0
  0
ARC
  5
35E
330
1F
100
AcDbEntity
  8
0
  6
Continuous
 62
     7
370
    15
100
AcDbCircle
 10
1739.4375461994
 20
5020.7636939262
 30
0.0
 40
0.4969558483637043
100
AcDbArc
 50
179.405383882
 51
270.2193101446
  0
ARC
  5
35F
330
1F
100
AcDbEntity
  8
0
  6
Continuous
 62
     7
370
    15
100
AcDbCircle
 10
1824.289443086
 20
5154.2753128072
 30
0.0
 40
0.5004064500890326
100
AcDbArc
 50
37.0065189947
 51
126.9504063731
  0
LWPOLYLINE
  5
360
330
1F
100
AcDbEntity
  8
0
  6
Continuous
 62
     7
370
    15
100
AcDbPolyline
 90
       15
 70
   128
 43
0.0
 10
1738.9406171126
 20
5020.7688512459
 10
1739.3975463195
 20
5030.3022565498
 10
1740.6585421843
 20
5039.7808255806
 10
1742.6878419204
 20
5049.1091909065
 10
1745.5548253341
 20
5058.5391225472
 10
1749.1417136474
 20
5067.7482785835
 10
1753.3700075431
 20
5076.6884984627
 10
1758.1610884948
 20
5085.3130521431
 10
1760.6500592513
 20
5089.3504323616
 10
1769.1490259452
 20
5101.5855970039
 10
1778.5696592612
 20
5113.1803693428
 10
1788.7608614249
 20
5124.1528691902
 10
1799.571653871
 20
5134.5216931954
 10
1810.8509388251
 20
5144.3054380074
 10
1823.9886369986
 20
5154.6752156868
  0
LWPOLYLINE
  5
361
330
1F
100
AcDbEntity
  8
0
  6
Continuous
 62
     7
370
    15
100
AcDbPolyline
 90
       17
 70
   128
 43
0.0
 10
3638.9383282943
 20
5020.7688512459
 10
3638.6789288802
 20
5027.8713407173
 10
3637.9702892585
 20
5034.9428357735
 10
3636.7991175933
 20
5042.0686902657
 10
3635.1910438819
 20
5049.1091909065
 10
3632.3565449996
 20
5058.4580602303
 10
3628.8239565177
 20
5067.5675573006
 10
3624.5641913695
 20
5076.5902700081
 10
3619.7177973075
 20
5085.3130521431
 10
3617.2288861556
 20
5089.3504323616
 10
3610.2876272483
 20
5099.4832219734
 10
3602.708241014
 20
5109.1663541451
 10
3594.5986118598
 20
5118.3988752022
 10
3585.8009066863
 20
5127.4401845589
 10
3576.5879955573
 20
5136.0695066109
 10
3567.0279469771
 20
5144.3054380074
 10
3553.8902488036
 20
5154.6752156868
  0
ARC
  5
362
330
1F
100
AcDbEntity
  8
0
  6
Continuous
 62
     7
370
    15
100
AcDbCircle
 10
3638.4384538212
 20
5020.7666202025
 30
0.0
 40
0.4998794518587059
100
AcDbArc
 50
270.1127390881
 51
0.2557212466
  0
ARC
  5
363
330
1F
100
AcDbEntity
  8
0
  6
Continuous
 62
     7
370
    15
100
AcDbCircle
 10
3553.5891014084
 20
5154.2779758182
 30
0.0
 40
0.4984869776474268
100
AcDbArc
 50
52.8342476759
 51
143.2101745505
  0
LINE
  5
364
330
1F
100
AcDbEntity
  8
0
  6
Continuous
 62
     7
370
    15
100
AcDbLine
 10
1843.2894554419
 20
5167.7519979134
 30
0.0
 11
1843.2894554419
 21
5168.0862607613
 31
0.0
  0
ARC
  5
365
330
1F
100
AcDbEntity
  8
0
  6
Continuous
 62
     7
370
    15
100
AcDbCircle
 10
1843.8019592524
 20
5168.0795269242
 30
0.0
 40
0.5125480467694264
100
AcDbArc
 50
124.4740245708
 51
179.2472285326
  0
ARC
  5
366
330
1F
100
AcDbEntity
  8
0
  6
Continuous
 62
     7
370
    15
100
AcDbCircle
 10
2052.5907692137
 20
5261.059682681
 30
0.0
 40
0.4979667343007768
100
AcDbArc
 50
16.9010610704
 51
107.3857365461
  0
LWPOLYLINE
  5
367
330
1F
100
AcDbEntity
  8
0
  6
Continuous
 62
     7
370
    15
100
AcDbPolyline
 90
       12
 70
   128
 43
0.0
 10
1843.5118403716
 20
5168.5020627632
 10
1861.1957040114
 20
5179.7673406258
 10
1879.3303575797
 20
5190.326422657
 10
1897.8440370841
 20
5200.2346219673
 10
1916.6650381369
 20
5209.5477285042
 10
1935.7214775367
 20
5218.3224858894
 10
1937.5119414611
 20
5219.116896595
 10
1944.6921553893
 20
5222.2525777474
 10
1973.6863580031
 20
5234.1611089363
 10
1999.7059312148
 20
5243.937701191
 10
2025.972744493
 20
5253.0448140755
 10
2052.4419751449
 20
5261.5348996773
  0
LWPOLYLINE
  5
368
330
1F
100
AcDbEntity
  8
0
  6
Continuous
 62
     7
370
    15
100
AcDbPolyline
 90
       13
 70
   128
 43
0.0
 10
3534.3670454306
 20
5168.5020627632
 10
3519.7060313506
 20
5177.9067220345
 10
3504.7283973975
 20
5186.8102254524
 10
3489.4886818213
 20
5195.2497663155
 10
3466.0337176604
 20
5207.2164716377
 10
3442.1574082656
 20
5218.3224858894
 10
3440.3670039458
 20
5219.116896595
 10
3433.1867900176
 20
5222.2525777474
 10
3404.1925277991
 20
5234.1611089363
 10
3384.7139683051
 20
5241.5530385628
 10
3365.0934901519
 20
5248.5601606026
 10
3345.3207817359
 20
5255.2168073311
 10
3325.436970262
 20
5261.5348996773
  0
ARC
  5
369
330
1F
100
AcDbEntity
  8
0
  6
Continuous
 62
     7
370
    15
100
AcDbCircle
 10
3534.0772807565
 20
5168.0797163658
 30
0.0
 40
0.5121914151583132
100
AcDbArc
 50
0.7321021608
 51
55.5466447359
  0
LINE
  5
36A
330
1F
100
AcDbEntity
  8
0
  6
Continuous
 62
     7
370
    15
100
AcDbLine
 10
3534.5894303603
 20
5167.7519979134
 30
0.0
 11
3534.5894303603
 21
5168.0862607613
 31
0.0
  0
ARC
  5
36B
330
1F
100
AcDbEntity
  8
0
  6
Continuous
 62
     7
370
    15
100
AcDbCircle
 10
3325.2887696753
 20
5261.0584736786
 30
0.0
 40
0.4989440310202501
100
AcDbArc
 50
72.7207861958
 51
162.9879037133
  0
LINE
  5
36C
330
1F
100
AcDbEntity
  8
0
  6
Continuous
 62
     7
370
    15
100
AcDbLine
 10
2071.5894308371
 20
5266.7681874886
 30
0.0
 11
2071.5894308371
 21
5266.9145764961
 31
0.0
  0
ARC
  5
36D
330
1F
100
AcDbEntity
  8
0
  6
Continuous
 62
     7
370
    15
100
AcDbCircle
 10
2072.0935902936
 20
5266.9112211078
 30
0.0
 40
0.5041706221212845
100
AcDbArc
 50
106.6415260346
 51
179.6186786736
  0
ARC
  5
36E
330
1F
100
AcDbEntity
  8
0
  6
Continuous
 62
     7
370
    15
100
AcDbCircle
 10
2335.8920316149
 20
5321.4886724365
 30
0.0
 40
0.4970298291592128
100
AcDbArc
 50
7.4873566978
 51
98.1477425904
  0
LWPOLYLINE
  5
36F
330
1F
100
AcDbEntity
  8
0
  6
Continuous
 62
     7
370
    15
100
AcDbPolyline
 90
       10
 70
   128
 43
0.0
 10
2071.949204473
 20
5267.3942746773
 10
2103.0470338149
 20
5276.0989370003
 10
2134.3254652305
 20
5284.1322126045
 10
2165.809949903
 20
5291.5532292976
 10
2197.4273529334
 20
5298.3867826119
 10
2201.4680114074
 20
5299.2179097786
 10
2217.6487353129
 20
5302.4537267342
 10
2250.0909474177
 20
5308.5119428291
 10
2282.6362159533
 20
5314.0427770271
 10
2335.821589498
 20
5321.9806851997
  0
LWPOLYLINE
  5
370
330
1F
100
AcDbEntity
  8
0
  6
Continuous
 62
     7
370
    15
100
AcDbPolyline
 90
       10
 70
   128
 43
0.0
 10
3305.9296813292
 20
5267.3942746773
 10
3274.8318519874
 20
5276.0989370003
 10
3243.5534205718
 20
5284.1322126045
 10
3212.0689955039
 20
5291.5532292976
 10
3180.4515626712
 20
5298.3867826119
 10
3176.4109041972
 20
5299.2179097786
 10
3160.2301802916
 20
5302.4537267342
 10
3127.7879383845
 20
5308.5119428291
 10
3095.2426996512
 20
5314.0427770271
 10
3042.0572963042
 20
5321.9806851997
  0
ARC
  5
371
330
1F
100
AcDbEntity
  8
0
  6
Continuous
 62
     7
370
    15
100
AcDbCircle
 10
3305.7852955086
 20
5266.9112211078
 30
0.0
 40
0.5041706221212845
100
AcDbArc
 50
0.3813213264
 51
73.3584739654
  0
LINE
  5
372
330
1F
100
AcDbEntity
  8
0
  6
Continuous
 62
     7
370
    15
100
AcDbLine
 10
3306.2894549651
 20
5266.7681874886
 30
0.0
 11
3306.2894549651
 21
5266.9145764961
 31
0.0
  0
ARC
  5
373
330
1F
100
AcDbEntity
  8
0
  6
Continuous
 62
     7
370
    15
100
AcDbCircle
 10
3041.9867103482
 20
5321.4888620582
 30
0.0
 40
0.4968625361179536
100
AcDbArc
 50
81.8327389811
 51
172.532161731
  0
ARC
  5
374
330
1F
100
AcDbEntity
  8
0
  6
Continuous
 62
     7
370
    15
100
AcDbCircle
 10
2698.6893631536
 20
5344.7494813744
 30
0.0
 40
0.4999068890433758
100
AcDbArc
 50
89.7881341042
 51
179.8156286669
  0
LWPOLYLINE
  5
375
330
1F
100
AcDbEntity
  8
0
  6
Continuous
 62
     7
370
    15
100
AcDbPolyline
 90
        9
 70
   128
 43
0.0
 10
3022.5530770106
 20
5324.567526783
 10
2969.5657100959
 20
5330.7654561653
 10
2916.4495524449
 20
5335.8113469734
 10
2863.2452842278
 20
5339.7490682259
 10
2858.0675181432
 20
5340.0747480049
 10
2837.3502251191
 20
5341.2763776436
 10
2795.8849575801
 20
5343.2008924141
 10
2754.3951552791
 20
5344.4940747872
 10
2698.6912116839
 20
5345.2493848457
  0
ARC
  5
376
330
1F
100
AcDbEntity
  8
0
  6
Continuous
 62
     7
370
    15
100
AcDbCircle
 10
3022.4859109441
 20
5324.0684850343
 30
0.0
 40
0.5035414059238066
100
AcDbArc
 50
0.3562769817
 51
82.3346200467
  0
LINE
  5
377
330
1F
100
AcDbEntity
  8
0
  6
Continuous
 62
     7
370
    15
100
AcDbLine
 10
3022.989442615
 20
5324.0077199593
 30
0.0
 11
3022.989442615
 21
5324.0716161385
 31
0.0
  0
ARC
  5
378
330
1F
100
AcDbEntity
  8
0
  6
Continuous
 62
     7
370
    15
100
AcDbCircle
 10
2355.3933267606
 20
5324.0681753855
 30
0.0
 40
0.5038953207483229
100
AcDbArc
 50
97.7003392955
 51
179.6087636762
  0
LWPOLYLINE
  5
379
330
1F
100
AcDbEntity
  8
0
  6
Continuous
 62
     7
370
    15
100
AcDbPolyline
 90
        9
 70
   128
 43
0.0
 10
2355.3258087916
 20
5324.567526783
 10
2408.3132055087
 20
5330.7654561653
 10
2461.4293631596
 20
5335.8113469734
 10
2514.6336313767
 20
5339.7490682259
 10
2519.8113974614
 20
5340.0747480049
 10
2540.5286755843
 20
5341.2763776436
 10
2581.9939580245
 20
5343.2008924141
 10
2623.4837528748
 20
5344.4940747872
 10
2679.1877001954
 20
5345.2493848457
  0
ARC
  5
37A
330
1F
100
AcDbEntity
  8
0
  6
Continuous
 62
     7
370
    15
100
AcDbCircle
 10
2679.1895487256
 20
5344.7494813744
 30
0.0
 40
0.499906889042921
100
AcDbArc
 50
0.1843713331
 51
90.2118658959
  0
LINE
  5
37B
330
1F
100
AcDbEntity
  8
0
  6
Continuous
 62
     7
370
    15
100
AcDbLine
 10
2354.8894431872
 20
5324.0077199593
 30
0.0
 11
2354.8894431872
 21
5324.0716161385
 31
0.0
  0
ARC
  5
37C
330
1F
100
AcDbEntity
  8
0
  6
Continuous
 62
     7
370
    15
100
AcDbCircle
 10
2345.6394561095
 20
5172.382686385
 30
0.0
 40
9.25
100
AcDbArc
 50
180.0
 51
0.0
  0
LINE
  5
37D
330
1F
100
AcDbEntity
  8
0
  6
Continuous
 62
     7
370
    15
100
AcDbLine
 10
2679.6894558204
 20
5344.7496595039
 30
0.0
 11
2679.6894558204
 21
5182.7666463509
 31
0.0
  0
ARC
  5
37E
330
1F
100
AcDbEntity
  8
0
  6
Continuous
 62
     7
370
    15
100
AcDbCircle
 10
2688.9394561095
 20
5182.7666113746
 30
0.0
 40
9.25
100
AcDbArc
 50
180.0
 51
0.0
  0
LINE
  5
37F
330
1F
100
AcDbEntity
  8
0
  6
Continuous
 62
     7
370
    15
100
AcDbLine
 10
2698.1894560588
 20
5344.7496595039
 30
0.0
 11
2698.1894560588
 21
5182.7666463509
 31
0.0
  0
ARC
  5
380
330
1F
100
AcDbEntity
  8
0
  6
Continuous
 62
     7
370
    15
100
AcDbCircle
 10
3032.2394561095
 20
5172.382686385
 30
0.0
 40
9.250000000000455
100
AcDbArc
 50
180.0
 51
0.0
  0
LINE
  5
381
330
1F
100
AcDbEntity
  8
0
  6
Continuous
 62
     7
370
    15
100
AcDbLine
 10
3041.4894428534
 20
5321.4857282295
 30
0.0
 11
3041.4894428534
 21
5172.3825635567
 31
0.0
  0
ARC
  5
382
330
1F
100
AcDbEntity
  8
0
  6
Continuous
 62
     7
370
    15
100
AcDbCircle
 10
3315.5394561095
 20
5143.7632349935
 30
0.0
 40
9.25
100
AcDbArc
 50
180.0
 51
0.0
  0
LINE
  5
383
330
1F
100
AcDbEntity
  8
0
  6
Continuous
 62
     7
370
    15
100
AcDbLine
 10
3324.7894850058
 20
5261.0571088448
 30
0.0
 11
3324.7894850058
 21
5143.7632741585
 31
0.0
  0
ARC
  5
384
330
1F
100
AcDbEntity
  8
0
  6
Continuous
 62
     7
370
    15
100
AcDbCircle
 10
3543.8394561095
 20
5094.276666792
 30
0.0
 40
9.25
100
AcDbArc
 50
180.0
 51
0.0
  0
LINE
  5
385
330
1F
100
AcDbEntity
  8
0
  6
Continuous
 62
     7
370
    15
100
AcDbLine
 10
3553.089460401
 20
5154.2761029854
 30
0.0
 11
3553.089460401
 21
5094.276637043
 31
0.0
  0
LINE
  5
386
330
1F
100
AcDbEntity
  8
0
  6
Continuous
 62
     7
370
    15
100
AcDbLine
 10
3638.4383049292
 20
5020.2667417183
 30
0.0
 11
1739.440580873
 21
5020.2667417183
 31
0.0
  0
LINE
  5
387
330
1F
100
AcDbEntity
  8
0
  6
Continuous
 62
     7
370
    15
100
AcDbLine
 10
1824.7894850058
 20
5154.2761029854
 30
0.0
 11
1824.7894850058
 21
5094.276637043
 31
0.0
  0
ARC
  5
388
330
1F
100
AcDbEntity
  8
0
  6
Continuous
 62
     7
370
    15
100
AcDbCircle
 10
1834.0394561095
 20
5094.276666792
 30
0.0
 40
9.249999999999773
100
AcDbArc
 50
180.0
 51
0.0
  0
LINE
  5
389
330
1F
100
AcDbEntity
  8
0
  6
Continuous
 62
     7
370
    15
100
AcDbLine
 10
2053.089460401
 20
5261.0571088448
 30
0.0
 11
2053.089460401
 21
5143.7632741585
 31
0.0
  0
ARC
  5
38A
330
1F
100
AcDbEntity
  8
0
  6
Continuous
 62
     7
370
    15
100
AcDbCircle
 10
2062.3394561095
 20
5143.7632349935
 30
0.0
 40
9.250000000000455
100
AcDbArc
 50
180.0
 51
0.0
  0
LINE
  5
38B
330
1F
100
AcDbEntity
  8
0
  6
Continuous
 62
     7
370
    15
100
AcDbLine
 10
2336.3894429488
 20
5321.4857282295
 30
0.0
 11
2336.3894429488
 21
5172.3825635567
 31
0.0
  0
LINE
  5
38C
330
1F
100
AcDbEntity
  8
0
  6
Continuous
 62
     7
370
    15
100
AcDbLine
 10
3022.989442615
 20
5172.3825635567
 30
0.0
 11
3022.989442615
 21
5324.0077199593
 31
0.0
  0
LINE
  5
38D
330
1F
100
AcDbEntity
  8
0
  6
Continuous
 62
     7
370
    15
100
AcDbLine
 10
2354.8894431872
 20
5172.3825635567
 30
0.0
 11
2354.8894431872
 21
5324.0077199593
 31
0.0
  0
LINE
  5
38E
330
1F
100
AcDbEntity
  8
0
  6
Continuous
 62
     7
370
    15
100
AcDbLine
 10
3306.2894549651
 20
5143.7632741585
 30
0.0
 11
3306.2894549651
 21
5266.7681874886
 31
0.0
  0
LINE
  5
38F
330
1F
100
AcDbEntity
  8
0
  6
Continuous
 62
     7
370
    15
100
AcDbLine
 10
2071.5894308371
 20
5143.7632741585
 30
0.0
 11
2071.5894308371
 21
5266.7681874886
 31
0.0
  0
LINE
  5
390
330
1F
100
AcDbEntity
  8
0
  6
Continuous
 62
     7
370
    15
100
AcDbLine
 10
3638.4383049292
 20
5020.2667417183
 30
0.0
 11
3638.4394374175
 21
5020.2667417183
 31
0.0
  0
LINE
  5
391
330
1F
100
AcDbEntity
  8
0
  6
Continuous
 62
     7
370
    15
100
AcDbLine
 10
1739.440580873
 20
5020.2667417183
 30
0.0
 11
1739.4394483848
 21
5020.2667417183
 31
0.0
  0
ARC
  5
392
330
1F
100
AcDbEntity
  8
0
  6
Continuous
 62
     7
370
    15
100
AcDbCircle
 10
3553.5894561095
 20
5154.2758878049
 30
0.0
 40
0.500000000000438
100
AcDbArc
 50
143.0518010265
 51
180.0
  0
ARC
  5
393
330
1F
100
AcDbEntity
  8
0
  6
Continuous
 62
     7
370
    15
100
AcDbCircle
 10
1824.2894561095
 20
5154.2758878049
 30
0.0
 40
0.5000000000000745
100
AcDbArc
 50
0.0
 51
36.9481989735
  0
ARC
  5
394
330
1F
100
AcDbEntity
  8
0
  6
Continuous
 62
     7
370
    15
100
AcDbCircle
 10
3325.2894561095
 20
5261.056991531
 30
0.0
 40
0.500000000000573
100
AcDbArc
 50
162.8525787662
 51
180.0
  0
ARC
  5
395
330
1F
100
AcDbEntity
  8
0
  6
Continuous
 62
     7
370
    15
100
AcDbCircle
 10
2052.5894561095
 20
5261.056991531
 30
0.0
 40
0.5
100
AcDbArc
 50
0.0
 51
17.1474212339
  0
ARC
  5
396
330
1F
100
AcDbEntity
  8
0
  6
Continuous
 62
     7
370
    15
100
AcDbCircle
 10
3041.9894561095
 20
5321.485539045
 30
0.0
 40
0.5
100
AcDbArc
 50
172.2066824842
 51
180.0
  0
ARC
  5
397
330
1F
100
AcDbEntity
  8
0
  6
Continuous
 62
     7
370
    15
100
AcDbCircle
 10
2335.8894561095
 20
5321.485539045
 30
0.0
 40
0.5000000000004547
100
AcDbArc
 50
359.9999999999
 51
7.7933175158
  0
LINE
  5
398
330
1F
100
AcDbEntity
  8
0
  6
Continuous
 62
     7
370
    15
100
AcDbLine
 10
2698.1894560588
 20
5344.7510900154
 30
0.0
 11
2698.1894560588
 21
5344.7496595039
 31
0.0
  0
LINE
  5
399
330
1F
100
AcDbEntity
  8
0
  6
Continuous
 62
     7
370
    15
100
AcDbLine
 10
2679.6894558204
 20
5344.7510900154
 30
0.0
 11
2679.6894558204
 21
5344.7496595039
 31
0.0
  0
LINE
  5
39A
330
1F
100
AcDbEntity
  8
0
  6
Continuous
 62
     7
370
    15
100
AcDbLine
 10
1843.2894554419
 20
5094.276637043
 30
0.0
 11
1843.2894554419
 21
5167.7519979134
 31
0.0
  0
LINE
  5
39B
330
1F
100
AcDbEntity
  8
0
  6
Continuous
 62
     7
370
    15
100
AcDbLine
 10
3534.5894303603
 20
5094.276637043
 30
0.0
 11
3534.5894303603
 21
5167.7519979134
 31
0.0
  0
LWPOLYLINE
  5
39C
330
1F
100
AcDbEntity
  8
0
  6
Continuous
 62
     7
370
    15
100
AcDbPolyline
 90
       30
 70
   128
 43
0.0
 10
2688.939456107
 20
1438.7710990563
 10
2720.1846410019
 20
1438.3849801674
 10
2751.4104079885
 20
1437.2201861992
 10
2782.6774847193
 20
1435.2560939446
 10
2813.8813581748
 20
1432.4654044762
 10
2844.9240532203
 20
1428.818434681
 10
2875.8436199708
 20
1424.2483081474
 10
2906.7268129868
 20
1418.654293026
 10
2937.3835083527
 20
1411.9368495598
 10
2957.8154888434
 20
1406.7244233742
 10
2978.0777898116
 20
1400.8717240944
 10
2998.1110897345
 20
1394.3025769844
 10
3013.183882503
 20
1388.7688817635
 10
3028.0621555133
 20
1382.6963605538
 10
3042.6639523787
 20
1376.0057391777
 10
3056.9072273059
 20
1368.6178626671
 10
3067.2592428012
 20
1362.5791968956
 10
3077.284893064
 20
1356.0162486687
 10
3087.02980545
 20
1348.741144146
 10
3096.1866882129
 20
1340.7460155144
 10
3100.6523874087
 20
1336.2645806923
 10
3104.8605051322
 20
1331.541389431
 10
3108.8202801032
 20
1326.4802398338
 10
3112.3956945224
 20
1321.1424054756
 10
3114.8839798255
 20
1316.7552652016
 10
3117.0470025821
 20
1312.19992062
 10
3118.8792791648
 20
1307.3637189522
 10
3120.2754285617
 20
1302.3851813927
 10
3121.2420668883
 20
1296.8895139351
 10
3121.6111090464
 20
1291.2559213295
  0
ARC
  5
39D
330
1F
100
AcDbEntity
  8
0
  6
Continuous
 62
     7
370
    15
100
AcDbCircle
 10
3121.111837624
 20
1291.2503691047
 30
0.0
 40
0.4993022937118842
100
AcDbArc
 50
270.2044024304
 51
0.6371402879
  0
LWPOLYLINE
  5
39E
330
1F
100
AcDbEntity
  8
0
  6
Continuous
 62
     7
370
    15
100
AcDbPolyline
 90
       31
 70
   128
 43
0.0
 10
2256.2678065581
 20
1291.2559213295
 10
2256.6288914962
 20
1296.823591198
 10
2257.6034870429
 20
1302.3851813927
 10
2258.9575257583
 20
1307.2359265938
 10
2260.7265022082
 20
1311.9522037163
 10
2262.9328277392
 20
1316.6358174935
 10
2265.4832210822
 20
1321.1424054756
 10
2268.9957824035
 20
1326.3936938896
 10
2272.8811707778
 20
1331.3773574486
 10
2277.1531250758
 20
1336.1867370262
 10
2281.6922273917
 20
1340.7460155144
 10
2290.6969096942
 20
1348.618477787
 10
2300.2733197493
 20
1355.7923736229
 10
2310.4531374259
 20
1362.4765576973
 10
2320.9716882987
 20
1368.6178626671
 10
2334.9642362876
 20
1375.8830728188
 10
2349.3042197509
 20
1382.4734391823
 10
2363.9130499644
 20
1388.4646596565
 10
2378.7120785994
 20
1393.9324321404
 10
2399.0879562182
 20
1400.6524982109
 10
2419.703444509
 20
1406.6270293846
 10
2440.4953923507
 20
1411.9368495598
 10
2471.018275289
 20
1418.6275901451
 10
2501.7659273429
 20
1424.204081501
 10
2532.8195449395
 20
1428.8005532875
 10
2563.9975574298
 20
1432.4654044762
 10
2572.3576080484
 20
1433.2967700615
 10
2605.8557313366
 20
1436.0170068398
 10
2626.5947502537
 20
1437.2267427101
 10
2647.3512817604
 20
1438.0861224785
 10
2688.939456107
 20
1438.7710990563
  0
ARC
  5
39F
330
1F
100
AcDbEntity
  8
0
  6
Continuous
 62
     7
370
    15
100
AcDbCircle
 10
2256.7670663143
 20
1291.2503576084
 30
0.0
 40
0.4992907560748114
100
AcDbArc
 50
179.3615256649
 51
269.7969316169
  0
LINE
  5
3A0
330
1F
100
AcDbEntity
  8
0
  6
Continuous
 62
     7
370
    15
100
AcDbLine
 10
2355.1894631667
 20
1290.750950779
 30
0.0
 11
2679.6894558204
 21
1290.750950779
 31
0.0
  0
ARC
  5
3A1
330
1F
100
AcDbEntity
  8
0
  6
Continuous
 62
     7
370
    15
100
AcDbCircle
 10
2345.9394561095
 20
1335.8641662671
 30
0.0
 40
9.25
100
AcDbArc
 50
0.0
 51
180.0
  0
LINE
  5
3A2
330
1F
100
AcDbEntity
  8
0
  6
Continuous
 62
     7
370
    15
100
AcDbLine
 10
2256.7677703185
 20
1290.750950779
 30
0.0
 11
2336.6894629283
 21
1290.750950779
 31
0.0
  0
LINE
  5
3A3
330
1F
100
AcDbEntity
  8
0
  6
Continuous
 62
     7
370
    15
100
AcDbLine
 10
3041.1894526763
 20
1335.8641566887
 30
0.0
 11
3041.1894526763
 21
1290.750950779
 31
0.0
  0
ARC
  5
3A4
330
1F
100
AcDbEntity
  8
0
  6
Continuous
 62
     7
370
    15
100
AcDbCircle
 10
2688.9394561095
 20
1364.7610610923
 30
0.0
 40
9.25
100
AcDbArc
 50
0.0
 51
180.0
  0
LINE
  5
3A5
330
1F
100
AcDbEntity
  8
0
  6
Continuous
 62
     7
370
    15
100
AcDbLine
 10
2355.1894631667
 20
1335.8641566887
 30
0.0
 11
2355.1894631667
 21
1290.750950779
 31
0.0
  0
LINE
  5
3A6
330
1F
100
AcDbEntity
  8
0
  6
Continuous
 62
     7
370
    15
100
AcDbLine
 10
3022.6894524379
 20
1335.8641566887
 30
0.0
 11
3022.6894524379
 21
1290.750950779
 31
0.0
  0
LINE
  5
3A7
330
1F
100
AcDbEntity
  8
0
  6
Continuous
 62
     7
370
    15
100
AcDbLine
 10
3121.1111452861
 20
1290.750950779
 30
0.0
 11
3041.1894526763
 21
1290.750950779
 31
0.0
  0
LINE
  5
3A8
330
1F
100
AcDbEntity
  8
0
  6
Continuous
 62
     7
370
    15
100
AcDbLine
 10
2698.1894560588
 20
1364.7610845223
 30
0.0
 11
2698.1894560588
 21
1290.750950779
 31
0.0
  0
ARC
  5
3A9
330
1F
100
AcDbEntity
  8
0
  6
Continuous
 62
     7
370
    15
100
AcDbCircle
 10
3031.9394561095
 20
1335.8641662671
 30
0.0
 40
9.25
100
AcDbArc
 50
0.0
 51
180.0
  0
LINE
  5
3AA
330
1F
100
AcDbEntity
  8
0
  6
Continuous
 62
     7
370
    15
100
AcDbLine
 10
2336.6894629283
 20
1335.8641566887
 30
0.0
 11
2336.6894629283
 21
1290.750950779
 31
0.0
  0
LINE
  5
3AB
330
1F
100
AcDbEntity
  8
0
  6
Continuous
 62
     7
370
    15
100
AcDbLine
 10
2679.6894558204
 20
1364.7610845223
 30
0.0
 11
2679.6894558204
 21
1290.750950779
 31
0.0
  0
LINE
  5
3AC
330
1F
100
AcDbEntity
  8
0
  6
Continuous
 62
     7
370
    15
100
AcDbLine
 10
3022.6894524379
 20
1290.750950779
 30
0.0
 11
2698.1894560588
 21
1290.750950779
 31
0.0
  0
LINE
  5
3AD
330
1F
100
AcDbEntity
  8
0
  6
Continuous
 62
     7
370
    15
100
AcDbLine
 10
2256.7652967257
 20
1290.750950779
 30
0.0
 11
2256.7677703185
 21
1290.750950779
 31
0.0
  0
LINE
  5
3AE
330
1F
100
AcDbEntity
  8
0
  6
Continuous
 62
     7
370
    15
100
AcDbLine
 10
3121.1136188788
 20
1290.750950779
 30
0.0
 11
3121.1111452861
 21
1290.750950779
 31
0.0
  0
LINE
  5
3AF
330
1F
100
AcDbEntity
  8
0
  6
Continuous
 62
     7
370
    15
100
AcDbLine
 10
2688.8394561095
 20
1109.3738379135
 30
0.0
 11
3121.0136320872
 21
1109.3738379135
 31
0.0
  0
ARC
  5
3B0
330
1F
100
AcDbEntity
  8
0
  6
Continuous
 62
     7
370
    15
100
AcDbCircle
 10
3121.0155621194
 20
1108.87826211
 30
0.0
 40
0.4955795617421845
100
AcDbArc
 50
359.4926855031
 51
90.2231386954
  0
ARC
  5
3B1
330
1F
100
AcDbEntity
  8
0
  6
Continuous
 62
     7
370
    15
100
AcDbCircle
 10
3121.0154265333
 20
1091.5695522899
 30
0.0
 40
0.4957144771582428
100
AcDbArc
 50
269.7925934861
 51
0.4984125064
  0
LINE
  5
3B2
330
1F
100
AcDbEntity
  8
0
  6
Continuous
 62
     7
370
    15
100
AcDbLine
 10
3121.0136320872
 20
1091.0738410607
 30
0.0
 11
2688.8394561095
 21
1091.0738410607
 31
0.0
  0
LINE
  5
3B3
330
1F
100
AcDbEntity
  8
0
  6
Continuous
 62
     7
370
    15
100
AcDbLine
 10
3121.5111222548
 20
1091.5738644257
 30
0.0
 11
3121.5111222548
 21
1108.8738741531
 31
0.0
  0
LINE
  5
3B4
330
1F
100
AcDbEntity
  8
0
  6
Continuous
 62
     7
370
    15
100
AcDbLine
 10
2688.8394561095
 20
1091.0738410607
 30
0.0
 11
2256.6652801318
 21
1091.0738410607
 31
0.0
  0
ARC
  5
3B5
330
1F
100
AcDbEntity
  8
0
  6
Continuous
 62
     7
370
    15
100
AcDbCircle
 10
2256.6634856857
 20
1091.5695522899
 30
0.0
 40
0.4957144771585463
100
AcDbArc
 50
179.5015874936
 51
270.2074065138
  0
ARC
  5
3B6
330
1F
100
AcDbEntity
  8
0
  6
Continuous
 62
     7
370
    15
100
AcDbCircle
 10
2256.6633500996
 20
1108.87826211
 30
0.0
 40
0.4955795617421828
100
AcDbArc
 50
89.7768613046
 51
180.5073144969
  0
LINE
  5
3B7
330
1F
100
AcDbEntity
  8
0
  6
Continuous
 62
     7
370
    15
100
AcDbLine
 10
2256.6652801318
 20
1109.3738379135
 30
0.0
 11
2688.8394561095
 21
1109.3738379135
 31
0.0
  0
LINE
  5
3B8
330
1F
100
AcDbEntity
  8
0
  6
Continuous
 62
     7
370
    15
100
AcDbLine
 10
2256.1677899642
 20
1108.8738741531
 30
0.0
 11
2256.1677899642
 21
1091.5738644257
 31
0.0
  0
ARC
  5
3B9
330
1F
100
AcDbEntity
  8
0
  6
Continuous
 62
     7
370
    15
100
AcDbCircle
 10
3121.1116285523
 20
3642.227639583
 30
0.0
 40
0.4995103810685125
100
AcDbArc
 50
270.2282987814
 51
0.6267699668
  0
LWPOLYLINE
  5
3BA
330
1F
100
AcDbEntity
  8
0
  6
Continuous
 62
     7
370
    15
100
AcDbPolyline
 90
       30
 70
   128
 43
0.0
 10
2688.939456107
 20
3789.7481622353
 10
2720.1846410019
 20
3789.3621625557
 10
2751.4104079885
 20
3788.1972493782
 10
2782.6774847193
 20
3786.2331571236
 10
2813.8813581748
 20
3783.4427060738
 10
2844.9240532203
 20
3779.7956170693
 10
2875.8436199708
 20
3775.2253713265
 10
2906.7268129868
 20
3769.631356205
 10
2937.3835083527
 20
3762.9139127388
 10
2957.8154888434
 20
3757.7016057625
 10
2978.0777898116
 20
3751.8489064827
 10
2998.1110897345
 20
3745.2797593727
 10
3013.183882503
 20
3739.7460641518
 10
3028.0621555133
 20
3733.6735429421
 10
3042.6639523787
 20
3726.9828023567
 10
3056.9072273059
 20
3719.5949258461
 10
3067.2592428012
 20
3713.5562600746
 10
3077.284893064
 20
3706.9933118477
 10
3087.02980545
 20
3699.718207325
 10
3096.1866882129
 20
3691.7230786934
 10
3100.6523874087
 20
3687.2417630806
 10
3104.8605051322
 20
3682.51845261
 10
3108.8202801032
 20
3677.4573030129
 10
3112.3956945224
 20
3672.1195878639
 10
3114.8839798255
 20
3667.7324475899
 10
3117.0470025821
 20
3663.176983799
 10
3118.8792791648
 20
3658.3409013405
 10
3120.2754285617
 20
3653.3622445717
 10
3121.2420668883
 20
3647.8666963234
 10
3121.6111090464
 20
3642.2331037178
  0
ARC
  5
3BB
330
1F
100
AcDbEntity
  8
0
  6
Continuous
 62
     7
370
    15
100
AcDbCircle
 10
2256.7672753296
 20
3642.2276280341
 30
0.0
 40
0.4994987855965121
100
AcDbArc
 50
179.3718906584
 51
269.7730405933
  0
LWPOLYLINE
  5
3BC
330
1F
100
AcDbEntity
  8
0
  6
Continuous
 62
     7
370
    15
100
AcDbPolyline
 90
       31
 70
   128
 43
0.0
 10
2256.2678065581
 20
3642.2331037178
 10
2256.6288914962
 20
3647.800654377
 10
2257.6034870429
 20
3653.3622445717
 10
2258.9575257583
 20
3658.2131089821
 10
2260.7265022082
 20
3662.9292668953
 10
2262.9328277392
 20
3667.6129998818
 10
2265.4832210822
 20
3672.1195878639
 10
2268.9957824035
 20
3677.3707570686
 10
2272.8811707778
 20
3682.3544206276
 10
2277.1531250758
 20
3687.1638002052
 10
2281.6922273917
 20
3691.7230786934
 10
2290.6969096942
 20
3699.5956601753
 10
2300.2733197493
 20
3706.7694368019
 10
2310.4531374259
 20
3713.4537400856
 10
2320.9716882987
 20
3719.5949258461
 10
2334.9642362876
 20
3726.8602552071
 10
2349.3042197509
 20
3733.4506215706
 10
2363.9130499644
 20
3739.4418420448
 10
2378.7120785994
 20
3744.9094953194
 10
2399.0879562182
 20
3751.6297998085
 10
2419.703444509
 20
3757.6040925636
 10
2440.4953923507
 20
3762.9139127388
 10
2471.018275289
 20
3769.6046533241
 10
2501.7659273429
 20
3775.1812638893
 10
2532.8195449395
 20
3779.7777356758
 10
2563.9975574298
 20
3783.4427060738
 10
2572.3576080484
 20
3784.2738332405
 10
2605.8557313366
 20
3786.9941892281
 10
2626.5947502537
 20
3788.2039250984
 10
2647.3512817604
 20
3789.0631856575
 10
2688.939456107
 20
3789.7481622353
  0
LINE
  5
3BD
330
1F
100
AcDbEntity
  8
0
  6
Continuous
 62
     7
370
    15
100
AcDbLine
 10
3121.1111452861
 20
3641.7281331673
 30
0.0
 11
3041.1894526763
 21
3641.7281331673
 31
0.0
  0
ARC
  5
3BE
330
1F
100
AcDbEntity
  8
0
  6
Continuous
 62
     7
370
    15
100
AcDbCircle
 10
3031.9394561095
 20
3686.8413105475
 30
0.0
 40
9.25
100
AcDbArc
 50
0.0
 51
180.0
  0
LINE
  5
3BF
330
1F
100
AcDbEntity
  8
0
  6
Continuous
 62
     7
370
    15
100
AcDbLine
 10
3022.6894524379
 20
3686.8412198677
 30
0.0
 11
3022.6894524379
 21
3641.7281331673
 31
0.0
  0
LINE
  5
3C0
330
1F
100
AcDbEntity
  8
0
  6
Continuous
 62
     7
370
    15
100
AcDbLine
 10
2698.1894560588
 20
3715.7382669106
 30
0.0
 11
2698.1894560588
 21
3641.7281331673
 31
0.0
  0
ARC
  5
3C1
330
1F
100
AcDbEntity
  8
0
  6
Continuous
 62
     7
370
    15
100
AcDbCircle
 10
2688.9394561095
 20
3715.7382053727
 30
0.0
 40
9.25
100
AcDbArc
 50
0.0
 51
180.0
  0
LINE
  5
3C2
330
1F
100
AcDbEntity
  8
0
  6
Continuous
 62
     7
370
    15
100
AcDbLine
 10
2355.1894631667
 20
3641.7281331673
 30
0.0
 11
2679.6894558204
 21
3641.7281331673
 31
0.0
  0
LINE
  5
3C3
330
1F
100
AcDbEntity
  8
0
  6
Continuous
 62
     7
370
    15
100
AcDbLine
 10
2355.1894631667
 20
3686.8412198677
 30
0.0
 11
2355.1894631667
 21
3641.7281331673
 31
0.0
  0
ARC
  5
3C4
330
1F
100
AcDbEntity
  8
0
  6
Continuous
 62
     7
370
    15
100
AcDbCircle
 10
2345.9394561095
 20
3686.8413105475
 30
0.0
 40
9.25
100
AcDbArc
 50
0.0
 51
180.0
  0
LINE
  5
3C5
330
1F
100
AcDbEntity
  8
0
  6
Continuous
 62
     7
370
    15
100
AcDbLine
 10
3022.6894524379
 20
3641.7281331673
 30
0.0
 11
2698.1894560588
 21
3641.7281331673
 31
0.0
  0
LINE
  5
3C6
330
1F
100
AcDbEntity
  8
0
  6
Continuous
 62
     7
370
    15
100
AcDbLine
 10
2336.6894629283
 20
3686.8412198677
 30
0.0
 11
2336.6894629283
 21
3641.7281331673
 31
0.0
  0
LINE
  5
3C7
330
1F
100
AcDbEntity
  8
0
  6
Continuous
 62
     7
370
    15
100
AcDbLine
 10
2256.7677703185
 20
3641.7281331673
 30
0.0
 11
2336.6894629283
 21
3641.7281331673
 31
0.0
  0
LINE
  5
3C8
330
1F
100
AcDbEntity
  8
0
  6
Continuous
 62
     7
370
    15
100
AcDbLine
 10
3041.1894526763
 20
3686.8412198677
 30
0.0
 11
3041.1894526763
 21
3641.7281331673
 31
0.0
  0
LINE
  5
3C9
330
1F
100
AcDbEntity
  8
0
  6
Continuous
 62
     7
370
    15
100
AcDbLine
 10
2679.6894558204
 20
3715.7382669106
 30
0.0
 11
2679.6894558204
 21
3641.7281331673
 31
0.0
  0
LINE
  5
3CA
330
1F
100
AcDbEntity
  8
0
  6
Continuous
 62
     7
370
    15
100
AcDbLine
 10
2256.7652967257
 20
3641.7281331673
 30
0.0
 11
2256.7677703185
 21
3641.7281331673
 31
0.0
  0
LINE
  5
3CB
330
1F
100
AcDbEntity
  8
0
  6
Continuous
 62
     7
370
    15
100
AcDbLine
 10
3121.1136188788
 20
3641.7281331673
 30
0.0
 11
3121.1111452861
 21
3641.7281331673
 31
0.0
  0
ARC
  5
3CC
330
1F
100
AcDbEntity
  8
0
  6
Continuous
 62
     7
370
    15
100
AcDbCircle
 10
3121.0155621194
 20
-618.2305284903
 30
0.0
 40
0.4955795617420709
100
AcDbArc
 50
269.7768613046
 51
0.5073144969
  0
LINE
  5
3CD
330
1F
100
AcDbEntity
  8
0
  6
Continuous
 62
     7
370
    15
100
AcDbLine
 10
3121.0136320872
 20
-618.7261042938
 30
0.0
 11
2688.8394561095
 21
-618.7261042938
 31
0.0
  0
LINE
  5
3CE
330
1F
100
AcDbEntity
  8
0
  6
Continuous
 62
     7
370
    15
100
AcDbLine
 10
3121.5111222548
 20
-618.2261405334
 30
0.0
 11
3121.5111222548
 21
-600.926130806
 31
0.0
  0
LINE
  5
3CF
330
1F
100
AcDbEntity
  8
0
  6
Continuous
 62
     7
370
    15
100
AcDbLine
 10
2688.8394561095
 20
-600.4261074409
 30
0.0
 11
3121.0136320872
 21
-600.4261074409
 31
0.0
  0
ARC
  5
3D0
330
1F
100
AcDbEntity
  8
0
  6
Continuous
 62
     7
370
    15
100
AcDbCircle
 10
3121.0154265333
 20
-600.9218186702
 30
0.0
 40
0.4957144771581292
100
AcDbArc
 50
359.5015874935
 51
90.2074065139
  0
LINE
  5
3D1
330
1F
100
AcDbEntity
  8
0
  6
Continuous
 62
     7
370
    15
100
AcDbLine
 10
2688.8394561095
 20
-618.7261042938
 30
0.0
 11
2256.6652801318
 21
-618.7261042938
 31
0.0
  0
ARC
  5
3D2
330
1F
100
AcDbEntity
  8
0
  6
Continuous
 62
     7
370
    15
100
AcDbCircle
 10
2256.6633500996
 20
-618.2305284903
 30
0.0
 40
0.4955795617421579
100
AcDbArc
 50
179.4926855031
 51
270.2231386954
  0
LINE
  5
3D3
330
1F
100
AcDbEntity
  8
0
  6
Continuous
 62
     7
370
    15
100
AcDbLine
 10
2256.1677899642
 20
-600.926130806
 30
0.0
 11
2256.1677899642
 21
-618.2261405334
 31
0.0
  0
ARC
  5
3D4
330
1F
100
AcDbEntity
  8
0
  6
Continuous
 62
     7
370
    15
100
AcDbCircle
 10
2256.6634856857
 20
-600.9218186702
 30
0.0
 40
0.4957144771585463
100
AcDbArc
 50
89.7925934862
 51
180.4984125064
  0
LINE
  5
3D5
330
1F
100
AcDbEntity
  8
0
  6
Continuous
 62
     7
370
    15
100
AcDbLine
 10
2256.6652801318
 20
-600.4261074409
 30
0.0
 11
2688.8394561095
 21
-600.4261074409
 31
0.0
  0
ARC
  5
3D6
330
1F
100
AcDbEntity
  8
0
  6
Continuous
 62
     7
370
    15
100
AcDbCircle
 10
1800.1470156453
 20
1854.8952048536
 30
0.0
 40
0.5003241263811536
100
AcDbArc
 50
179.7543111033
 51
269.8227430462
  0
LWPOLYLINE
  5
3D7
330
1F
100
AcDbEntity
  8
0
  6
Continuous
 62
     7
370
    15
100
AcDbPolyline
 90
       39
 70
   128
 43
0.0
 10
1799.6466961188
 20
1854.897350277
 10
1800.0806775374
 20
1863.8589086189
 10
1801.2735452933
 20
1872.7684917107
 10
1803.1912055297
 20
1881.5353812828
 10
1806.343337564
 20
1891.6437329903
 10
1810.37106183
 20
1901.4749230995
 10
1815.1637521071
 20
1910.9692277565
 10
1820.6109609885
 20
1920.0665654793
 10
1828.8434949202
 20
1931.7193927422
 10
1837.9588332457
 20
1942.7416028633
 10
1847.7946725173
 20
1953.1483354225
 10
1858.1885900779
 20
1962.9543723717
 10
1873.1027450843
 20
1975.4935207024
 10
1888.7409773154
 20
1987.169712986
 10
1904.9734082503
 20
1998.055190052
 10
1921.6703977866
 20
2008.2224311485
 10
1938.7020077987
 20
2017.7435578957
 10
1961.5969863219
 20
2029.4596852913
 10
1984.936317472
 20
2040.308803524
 10
2008.6442437453
 20
2050.3656568184
 10
2032.6451864524
 20
2059.7051086083
 10
2056.863328485
 20
2068.4017839089
 10
2087.9842844291
 20
2078.6554517403
 10
2119.3855610175
 20
2088.0540313377
 10
2151.0159578605
 20
2096.6639222756
 10
2182.8240957541
 20
2104.5512857094
 10
2224.3090179248
 20
2113.8139667168
 10
2266.0272624774
 20
2122.0556201592
 10
2307.9391029162
 20
2129.3307246819
 10
2350.0048127456
 20
2135.6938781395
 10
2392.1846654696
 20
2141.1996783867
 10
2434.4389345927
 20
2145.9026040688
 10
2442.5426032824
 20
2146.7163266792
 10
2474.9848749919
 20
2149.6909560814
 10
2518.3155741973
 20
2152.975768055
 10
2561.7008116526
 20
2155.497878994
 10
2605.1199045463
 20
2157.2733821526
 10
2647.0241826458
 20
2158.289641346
 10
2688.939456107
 20
2158.6270036354
  0
LWPOLYLINE
  5
3D8
330
1F
100
AcDbEntity
  8
0
  6
Continuous
 62
     7
370
    15
100
AcDbPolyline
 90
       38
 70
   128
 43
0.0
 10
2688.939456107
 20
2158.6270036354
 10
2731.3705701811
 20
2158.2811774864
 10
2773.7931292934
 20
2157.2395267143
 10
2816.1897119565
 20
2155.4963292732
 10
2858.6590942426
 20
2153.0359687462
 10
2901.0828342719
 20
2149.8444976463
 10
2943.4399810119
 20
2145.9026040688
 10
2985.619654922
 20
2141.198963131
 10
3027.7053323073
 20
2135.6894673958
 10
3069.6672108455
 20
2129.335731472
 10
3111.6536464972
 20
2122.0622958794
 10
3153.466751842
 20
2113.8249339714
 10
3195.0548496528
 20
2104.5512857094
 10
3226.3466325087
 20
2096.7976750984
 10
3257.4666943831
 20
2088.3457364693
 10
3288.3666363044
 20
2079.1331233635
 10
3318.9980593009
 20
2069.0970124855
 10
3343.6343279166
 20
2060.3025855675
 10
3368.049165277
 20
2050.8480968132
 10
3392.163714437
 20
2040.655464138
 10
3415.8991780562
 20
2029.6466054573
 10
3439.1768780036
 20
2017.7435578957
 10
3460.2824058814
 20
2005.8045091286
 10
3480.7851519866
 20
1992.8632678642
 10
3494.2058530135
 20
1983.4909143105
 10
3507.2092619223
 20
1973.5371770516
 10
3519.6902957244
 20
1962.9543723717
 10
3530.0039854331
 20
1953.2245101586
 10
3539.7474971099
 20
1942.9266156807
 10
3548.9458647056
 20
1931.8297805443
 10
3557.2679248137
 20
1920.0665654793
 10
3562.6634564681
 20
1911.0747279778
 10
3567.4062576575
 20
1901.7240705147
 10
3571.4893546386
 20
1891.7880954399
 10
3574.6876802726
 20
1881.5353812828
 10
3576.7790284438
 20
1871.7873992577
 10
3577.9697504325
 20
1861.8036212578
 10
3578.2322492881
 20
1854.897350277
  0
ARC
  5
3D9
330
1F
100
AcDbEntity
  8
0
  6
Continuous
 62
     7
370
    15
100
AcDbCircle
 10
3577.7319301343
 20
1854.8952046636
 30
0.0
 40
0.5003237544369876
100
AcDbArc
 50
270.1703885968
 51
0.2457108364
  0
LINE
  5
3DA
330
1F
100
AcDbEntity
  8
0
  6
Continuous
 62
     7
370
    15
100
AcDbLine
 10
3577.7322259231
 20
1854.3948831215
 30
0.0
 11
3552.7894702239
 21
1854.3948831215
 31
0.0
  0
ARC
  5
3DB
330
1F
100
AcDbEntity
  8
0
  6
Continuous
 62
     7
370
    15
100
AcDbCircle
 10
3543.5394561095
 20
1896.4692112941
 30
0.0
 40
9.250000000000455
100
AcDbArc
 50
0.0
 51
180.0
  0
LINE
  5
3DC
330
1F
100
AcDbEntity
  8
0
  6
Continuous
 62
     7
370
    15
100
AcDbLine
 10
3534.2894401832
 20
1854.3948831215
 30
0.0
 11
3324.489435224
 21
1854.3948831215
 31
0.0
  0
LINE
  5
3DD
330
1F
100
AcDbEntity
  8
0
  6
Continuous
 62
     7
370
    15
100
AcDbLine
 10
3324.489435224
 20
1962.3875321999
 30
0.0
 11
3324.489435224
 21
1854.3948831215
 31
0.0
  0
ARC
  5
3DE
330
1F
100
AcDbEntity
  8
0
  6
Continuous
 62
     7
370
    15
100
AcDbCircle
 10
3315.2394561095
 20
1962.3875359624
 30
0.0
 40
9.250000000000455
100
AcDbArc
 50
0.0
 51
180.0
  0
LINE
  5
3DF
330
1F
100
AcDbEntity
  8
0
  6
Continuous
 62
     7
370
    15
100
AcDbLine
 10
3305.9894647879
 20
1962.3875321999
 30
0.0
 11
3305.9894647879
 21
1854.3948831215
 31
0.0
  0
LINE
  5
3E0
330
1F
100
AcDbEntity
  8
0
  6
Continuous
 62
     7
370
    15
100
AcDbLine
 10
3305.9894647879
 20
1854.3948831215
 30
0.0
 11
3041.1894526763
 21
1854.3948831215
 31
0.0
  0
LINE
  5
3E1
330
1F
100
AcDbEntity
  8
0
  6
Continuous
 62
     7
370
    15
100
AcDbLine
 10
3022.6894524379
 20
1994.7410525932
 30
0.0
 11
3022.6894524379
 21
1854.3948831215
 31
0.0
  0
LINE
  5
3E2
330
1F
100
AcDbEntity
  8
0
  6
Continuous
 62
     7
370
    15
100
AcDbLine
 10
3022.6894524379
 20
1854.3948831215
 30
0.0
 11
2698.1894560588
 21
1854.3948831215
 31
0.0
  0
LINE
  5
3E3
330
1F
100
AcDbEntity
  8
0
  6
Continuous
 62
     7
370
    15
100
AcDbLine
 10
2355.1894631667
 20
1854.3948831215
 30
0.0
 11
2679.6894558204
 21
1854.3948831215
 31
0.0
  0
LINE
  5
3E4
330
1F
100
AcDbEntity
  8
0
  6
Continuous
 62
     7
370
    15
100
AcDbLine
 10
2071.8894806189
 20
1854.3948831215
 30
0.0
 11
2336.6894629283
 21
1854.3948831215
 31
0.0
  0
ARC
  5
3E5
330
1F
100
AcDbEntity
  8
0
  6
Continuous
 62
     7
370
    15
100
AcDbCircle
 10
2062.6394561095
 20
1962.3875359624
 30
0.0
 40
9.25
100
AcDbArc
 50
0.0
 51
180.0
  0
LINE
  5
3E6
330
1F
100
AcDbEntity
  8
0
  6
Continuous
 62
     7
370
    15
100
AcDbLine
 10
1843.5894456191
 20
1854.3948831215
 30
0.0
 11
2053.3894505782
 21
1854.3948831215
 31
0.0
  0
LINE
  5
3E7
330
1F
100
AcDbEntity
  8
0
  6
Continuous
 62
     7
370
    15
100
AcDbLine
 10
1800.1466598792
 20
1854.3948831215
 30
0.0
 11
1825.089475183
 21
1854.3948831215
 31
0.0
  0
LINE
  5
3E8
330
1F
100
AcDbEntity
  8
0
  6
Continuous
 62
     7
370
    15
100
AcDbLine
 10
2355.1894631667
 20
1994.7410525932
 30
0.0
 11
2355.1894631667
 21
1854.3948831215
 31
0.0
  0
LINE
  5
3E9
330
1F
100
AcDbEntity
  8
0
  6
Continuous
 62
     7
370
    15
100
AcDbLine
 10
2053.3894505782
 20
1962.3875321999
 30
0.0
 11
2053.3894505782
 21
1854.3948831215
 31
0.0
  0
LINE
  5
3EA
330
1F
100
AcDbEntity
  8
0
  6
Continuous
 62
     7
370
    15
100
AcDbLine
 10
2071.8894806189
 20
1962.3875321999
 30
0.0
 11
2071.8894806189
 21
1854.3948831215
 31
0.0
  0
LINE
  5
3EB
330
1F
100
AcDbEntity
  8
0
  6
Continuous
 62
     7
370
    15
100
AcDbLine
 10
3041.1894526763
 20
1994.7410525932
 30
0.0
 11
3041.1894526763
 21
1854.3948831215
 31
0.0
  0
ARC
  5
3EC
330
1F
100
AcDbEntity
  8
0
  6
Continuous
 62
     7
370
    15
100
AcDbCircle
 10
1834.3394561095
 20
1896.4692112941
 30
0.0
 40
9.25
100
AcDbArc
 50
0.0
 51
180.0
  0
ARC
  5
3ED
330
1F
100
AcDbEntity
  8
0
  6
Continuous
 62
     7
370
    15
100
AcDbCircle
 10
2688.9394561095
 20
2006.5109864386
 30
0.0
 40
9.250000000000455
100
AcDbArc
 50
0.0
 51
180.0
  0
LINE
  5
3EE
330
1F
100
AcDbEntity
  8
0
  6
Continuous
 62
     7
370
    15
100
AcDbLine
 10
2336.6894629283
 20
1994.7410525932
 30
0.0
 11
2336.6894629283
 21
1854.3948831215
 31
0.0
  0
LINE
  5
3EF
330
1F
100
AcDbEntity
  8
0
  6
Continuous
 62
     7
370
    15
100
AcDbLine
 10
2679.6894558204
 20
2006.5109433785
 30
0.0
 11
2679.6894558204
 21
1854.3948831215
 31
0.0
  0
ARC
  5
3F0
330
1F
100
AcDbEntity
  8
0
  6
Continuous
 62
     7
370
    15
100
AcDbCircle
 10
2345.9394561095
 20
1994.7410075664
 30
0.0
 40
9.250000000000455
100
AcDbArc
 50
0.0
 51
180.0
  0
LINE
  5
3F1
330
1F
100
AcDbEntity
  8
0
  6
Continuous
 62
     7
370
    15
100
AcDbLine
 10
2698.1894560588
 20
2006.5109433785
 30
0.0
 11
2698.1894560588
 21
1854.3948831215
 31
0.0
  0
LINE
  5
3F2
330
1F
100
AcDbEntity
  8
0
  6
Continuous
 62
     7
370
    15
100
AcDbLine
 10
3534.2894401832
 20
1896.469205822
 30
0.0
 11
3534.2894401832
 21
1854.3948831215
 31
0.0
  0
ARC
  5
3F3
330
1F
100
AcDbEntity
  8
0
  6
Continuous
 62
     7
370
    15
100
AcDbCircle
 10
3031.9394561095
 20
1994.7410075664
 30
0.0
 40
9.25
100
AcDbArc
 50
0.0
 51
180.0
  0
LINE
  5
3F4
330
1F
100
AcDbEntity
  8
0
  6
Continuous
 62
     7
370
    15
100
AcDbLine
 10
1825.089475183
 20
1896.469205822
 30
0.0
 11
1825.089475183
 21
1854.3948831215
 31
0.0
  0
LINE
  5
3F5
330
1F
100
AcDbEntity
  8
0
  6
Continuous
 62
     7
370
    15
100
AcDbLine
 10
3552.7894702239
 20
1896.469205822
 30
0.0
 11
3552.7894702239
 21
1854.3948831215
 31
0.0
  0
LINE
  5
3F6
330
1F
100
AcDbEntity
  8
0
  6
Continuous
 62
     7
370
    15
100
AcDbLine
 10
1843.5894456191
 20
1896.469205822
 30
0.0
 11
1843.5894456191
 21
1854.3948831215
 31
0.0
  0
LINE
  5
3F7
330
1F
100
AcDbEntity
  8
0
  6
Continuous
 62
     7
370
    15
100
AcDbLine
 10
1800.1454677863
 20
1854.3948831215
 30
0.0
 11
1800.1466598792
 21
1854.3948831215
 31
0.0
  0
LINE
  5
3F8
330
1F
100
AcDbEntity
  8
0
  6
Continuous
 62
     7
370
    15
100
AcDbLine
 10
3577.7334180159
 20
1854.3948831215
 30
0.0
 11
3577.7322259231
 21
1854.3948831215
 31
0.0
  0
LINE
  5
3F9
330
1F
100
AcDbEntity
  8
0
  6
Continuous
 62
     7
370
    15
100
AcDbLine
 10
1799.5466795249
 20
597.2738566055
 30
0.0
 11
1799.5466795249
 21
579.9738766804
 31
0.0
  0
LINE
  5
3FA
330
1F
100
AcDbEntity
  8
0
  6
Continuous
 62
     7
370
    15
100
AcDbLine
 10
2688.8394561095
 20
579.4738533154
 30
0.0
 11
1800.0454511924
 21
579.4738533154
 31
0.0
  0
ARC
  5
3FB
330
1F
100
AcDbEntity
  8
0
  6
Continuous
 62
     7
370
    15
100
AcDbCircle
 10
1800.0450585451
 20
579.9722348852
 30
0.0
 40
0.4983817245015976
100
AcDbArc
 50
179.8112528995
 51
270.0451401613
  0
LINE
  5
3FC
330
1F
100
AcDbEntity
  8
0
  6
Continuous
 62
     7
370
    15
100
AcDbLine
 10
2688.8394561095
 20
597.7738799706
 30
0.0
 11
3577.6334610267
 21
597.7738799706
 31
0.0
  0
ARC
  5
3FD
330
1F
100
AcDbEntity
  8
0
  6
Continuous
 62
     7
370
    15
100
AcDbCircle
 10
3577.6338536739
 20
597.2754984007
 30
0.0
 40
0.4983817245016791
100
AcDbArc
 50
359.8112528995
 51
90.0451401613
  0
LINE
  5
3FE
330
1F
100
AcDbEntity
  8
0
  6
Continuous
 62
     7
370
    15
100
AcDbLine
 10
3577.6334610267
 20
579.4738533154
 30
0.0
 11
2688.8394561095
 21
579.4738533154
 31
0.0
  0
ARC
  5
3FF
330
1F
100
AcDbEntity
  8
0
  6
Continuous
 62
     7
370
    15
100
AcDbCircle
 10
3577.6338536739
 20
579.9722348852
 30
0.0
 40
0.4983817245016791
100
AcDbArc
 50
269.9548598387
 51
0.1887471005
  0
ARC
  5
400
330
1F
100
AcDbEntity
  8
0
  6
Continuous
 62
     7
370
    15
100
AcDbCircle
 10
1800.0450585451
 20
597.2754984007
 30
0.0
 40
0.4983817245015976
100
AcDbArc
 50
89.9548598387
 51
180.1887471005
  0
LINE
  5
401
330
1F
100
AcDbEntity
  8
0
  6
Continuous
 62
     7
370
    15
100
AcDbLine
 10
1800.0454511924
 20
597.7738799706
 30
0.0
 11
2688.8394561095
 21
597.7738799706
 31
0.0
  0
LINE
  5
402
330
1F
100
AcDbEntity
  8
0
  6
Continuous
 62
     7
370
    15
100
AcDbLine
 10
3578.1322326941
 20
579.9738766804
 30
0.0
 11
3578.1322326941
 21
597.2738566055
 31
0.0
  0
ARC
  5
403
330
1F
100
AcDbEntity
  8
0
  6
Continuous
 62
     7
370
    15
100
AcDbCircle
 10
1800.1471003589
 20
2800.7418460862
 30
0.0
 40
0.500408010657091
100
AcDbArc
 50
179.7775755376
 51
269.8130731707
  0
LWPOLYLINE
  5
404
330
1F
100
AcDbEntity
  8
0
  6
Continuous
 62
     7
370
    15
100
AcDbPolyline
 90
       39
 70
   128
 43
0.0
 10
1799.6466961188
 20
2800.7437886849
 10
1800.0806775374
 20
2809.7054662361
 10
1801.2735452933
 20
2818.6149301186
 10
1803.1912055297
 20
2827.3820581093
 10
1806.343337564
 20
2837.4902906075
 10
1810.37106183
 20
2847.3214807167
 10
1815.1637521071
 20
2856.8157853737
 10
1820.6109609885
 20
2865.9131230965
 10
1828.8434949202
 20
2877.5658311501
 10
1837.9588332457
 20
2888.5881604805
 10
1847.7946725173
 20
2898.9948930397
 10
1858.1885900779
 20
2908.8010491982
 10
1873.1027450843
 20
2921.3401975289
 10
1888.7409773154
 20
2933.0162706032
 10
1904.9734082503
 20
2943.9017476692
 10
1921.6703977866
 20
2954.0688695564
 10
1938.7020077987
 20
2963.5901155129
 10
1961.5969863219
 20
2975.3062429085
 10
1984.936317472
 20
2986.1554803505
 10
2008.6442437453
 20
2996.2122144356
 10
2032.6451864524
 20
3005.5515470162
 10
2056.863328485
 20
3014.248341526
 10
2087.9842844291
 20
3024.5020093575
 10
2119.3855610175
 20
3033.9007081642
 10
2151.0159578605
 20
3042.5104798927
 10
2182.8240957541
 20
3050.3978433266
 10
2224.3090179248
 20
3059.6606435433
 10
2266.0272624774
 20
3067.9022969856
 10
2307.9391029162
 20
3075.1774015083
 10
2350.0048127456
 20
3081.540554966
 10
2392.1846654696
 20
3087.0461167946
 10
2434.4389345927
 20
3091.749161686
 10
2442.5426032824
 20
3092.5628842964
 10
2474.9848749919
 20
3095.5373944893
 10
2518.3155741973
 20
3098.8223256722
 10
2561.7008116526
 20
3101.3445558205
 10
2605.1199045463
 20
3103.120058979
 10
2647.0241826458
 20
3104.1361989632
 10
2688.939456107
 20
3104.4735612526
  0
ARC
  5
405
330
1F
100
AcDbEntity
  8
0
  6
Continuous
 62
     7
370
    15
100
AcDbCircle
 10
3577.7318454921
 20
2800.7418458355
 30
0.0
 40
0.5004075676084163
100
AcDbArc
 50
270.1800514932
 51
0.2224533694
  0
LWPOLYLINE
  5
406
330
1F
100
AcDbEntity
  8
0
  6
Continuous
 62
     7
370
    15
100
AcDbPolyline
 90
       38
 70
   128
 43
0.0
 10
2688.939456107
 20
3104.4735612526
 10
2731.3705701811
 20
3104.1278543129
 10
2773.7931292934
 20
3103.0862035408
 10
2816.1897119565
 20
3101.3428868904
 10
2858.6590942426
 20
3098.8826455727
 10
2901.0828342719
 20
3095.6911744728
 10
2943.4399810119
 20
3091.749161686
 10
2985.619654922
 20
3087.0456399574
 10
3027.7053323073
 20
3081.536025013
 10
3069.6672108455
 20
3075.1821698799
 10
3111.6536464972
 20
3067.9089727059
 10
3153.466751842
 20
3059.6716107979
 10
3195.0548496528
 20
3050.3978433266
 10
3226.3466325087
 20
3042.6442327156
 10
3257.4666943831
 20
3034.1922940865
 10
3288.3666363044
 20
3024.9795617714
 10
3318.9980593009
 20
3014.9435701027
 10
3343.6343279166
 20
3006.1490239754
 10
3368.049165277
 20
2996.6945352211
 10
3392.163714437
 20
2986.5019025459
 10
3415.8991780562
 20
2975.4931630745
 10
3439.1768780036
 20
2963.5901155129
 10
3460.2824058814
 20
2951.6510667458
 10
3480.7851519866
 20
2938.7099446907
 10
3494.2058530135
 20
2929.3374719277
 10
3507.2092619223
 20
2919.3837346687
 10
3519.6902957244
 20
2908.8010491982
 10
3530.0039854331
 20
2899.071186985
 10
3539.7474971099
 20
2888.7731732979
 10
3548.9458647056
 20
2877.6764573708
 10
3557.2679248137
 20
2865.9131230965
 10
3562.6634564681
 20
2856.9211663857
 10
3567.4062576575
 20
2847.5706281319
 10
3571.4893546386
 20
2837.6347722664
 10
3574.6876802726
 20
2827.3820581093
 10
3576.7790284438
 20
2817.6340760841
 10
3577.9697504325
 20
2807.6502980843
 10
3578.2322492881
 20
2800.7437886849
  0
LINE
  5
407
330
1F
100
AcDbEntity
  8
0
  6
Continuous
 62
     7
370
    15
100
AcDbLine
 10
3577.7322259231
 20
2800.2414407387
 30
0.0
 11
3552.7894702239
 21
2800.2414407387
 31
0.0
  0
LINE
  5
408
330
1F
100
AcDbEntity
  8
0
  6
Continuous
 62
     7
370
    15
100
AcDbLine
 10
3552.7894702239
 20
2842.3158826485
 30
0.0
 11
3552.7894702239
 21
2800.2414407387
 31
0.0
  0
ARC
  5
409
330
1F
100
AcDbEntity
  8
0
  6
Continuous
 62
     7
370
    15
100
AcDbCircle
 10
3543.5394561095
 20
2842.315776785
 30
0.0
 40
9.25
100
AcDbArc
 50
0.0
 51
180.0
  0
LINE
  5
40A
330
1F
100
AcDbEntity
  8
0
  6
Continuous
 62
     7
370
    15
100
AcDbLine
 10
3534.2894401832
 20
2842.3158826485
 30
0.0
 11
3534.2894401832
 21
2800.2414407387
 31
0.0
  0
LINE
  5
40B
330
1F
100
AcDbEntity
  8
0
  6
Continuous
 62
     7
370
    15
100
AcDbLine
 10
3534.2894401832
 20
2800.2414407387
 30
0.0
 11
3324.489435224
 21
2800.2414407387
 31
0.0
  0
LINE
  5
40C
330
1F
100
AcDbEntity
  8
0
  6
Continuous
 62
     7
370
    15
100
AcDbLine
 10
3324.489435224
 20
2908.2340898171
 30
0.0
 11
3324.489435224
 21
2800.2414407387
 31
0.0
  0
LINE
  5
40D
330
1F
100
AcDbEntity
  8
0
  6
Continuous
 62
     7
370
    15
100
AcDbLine
 10
3305.9894647879
 20
2800.2414407387
 30
0.0
 11
3041.1894526763
 21
2800.2414407387
 31
0.0
  0
LINE
  5
40E
330
1F
100
AcDbEntity
  8
0
  6
Continuous
 62
     7
370
    15
100
AcDbLine
 10
3041.1894526763
 20
2940.5874910011
 30
0.0
 11
3041.1894526763
 21
2800.2414407387
 31
0.0
  0
ARC
  5
40F
330
1F
100
AcDbEntity
  8
0
  6
Continuous
 62
     7
370
    15
100
AcDbCircle
 10
3031.9394561095
 20
2940.5875730573
 30
0.0
 40
9.250000000000455
100
AcDbArc
 50
0.0
 51
180.0
  0
LINE
  5
410
330
1F
100
AcDbEntity
  8
0
  6
Continuous
 62
     7
370
    15
100
AcDbLine
 10
3022.6894524379
 20
2940.5874910011
 30
0.0
 11
3022.6894524379
 21
2800.2414407387
 31
0.0
  0
LINE
  5
411
330
1F
100
AcDbEntity
  8
0
  6
Continuous
 62
     7
370
    15
100
AcDbLine
 10
3022.6894524379
 20
2800.2414407387
 30
0.0
 11
2698.1894560588
 21
2800.2414407387
 31
0.0
  0
LINE
  5
412
330
1F
100
AcDbEntity
  8
0
  6
Continuous
 62
     7
370
    15
100
AcDbLine
 10
2698.1894560588
 20
2952.3575009956
 30
0.0
 11
2698.1894560588
 21
2800.2414407387
 31
0.0
  0
ARC
  5
413
330
1F
100
AcDbEntity
  8
0
  6
Continuous
 62
     7
370
    15
100
AcDbCircle
 10
2688.9394561095
 20
2952.3575519295
 30
0.0
 40
9.25
100
AcDbArc
 50
0.0
 51
180.0
  0
LINE
  5
414
330
1F
100
AcDbEntity
  8
0
  6
Continuous
 62
     7
370
    15
100
AcDbLine
 10
2679.6894558204
 20
2952.3575009956
 30
0.0
 11
2679.6894558204
 21
2800.2414407387
 31
0.0
  0
LINE
  5
415
330
1F
100
AcDbEntity
  8
0
  6
Continuous
 62
     7
370
    15
100
AcDbLine
 10
2355.1894631667
 20
2800.2414407387
 30
0.0
 11
2679.6894558204
 21
2800.2414407387
 31
0.0
  0
ARC
  5
416
330
1F
100
AcDbEntity
  8
0
  6
Continuous
 62
     7
370
    15
100
AcDbCircle
 10
2345.9394561095
 20
2940.5875730573
 30
0.0
 40
9.250000000000455
100
AcDbArc
 50
0.0
 51
180.0
  0
LINE
  5
417
330
1F
100
AcDbEntity
  8
0
  6
Continuous
 62
     7
370
    15
100
AcDbLine
 10
2336.6894629283
 20
2940.5874910011
 30
0.0
 11
2336.6894629283
 21
2800.2414407387
 31
0.0
  0
LINE
  5
418
330
1F
100
AcDbEntity
  8
0
  6
Continuous
 62
     7
370
    15
100
AcDbLine
 10
2071.8894806189
 20
2800.2414407387
 30
0.0
 11
2336.6894629283
 21
2800.2414407387
 31
0.0
  0
ARC
  5
419
330
1F
100
AcDbEntity
  8
0
  6
Continuous
 62
     7
370
    15
100
AcDbCircle
 10
2062.6394561095
 20
2908.2341014533
 30
0.0
 40
9.25
100
AcDbArc
 50
0.0
 51
180.0
  0
LINE
  5
41A
330
1F
100
AcDbEntity
  8
0
  6
Continuous
 62
     7
370
    15
100
AcDbLine
 10
1843.5894456191
 20
2800.2414407387
 30
0.0
 11
2053.3894505782
 21
2800.2414407387
 31
0.0
  0
ARC
  5
41B
330
1F
100
AcDbEntity
  8
0
  6
Continuous
 62
     7
370
    15
100
AcDbCircle
 10
1834.3394561095
 20
2842.315776785
 30
0.0
 40
9.25
100
AcDbArc
 50
0.0
 51
180.0
  0
LINE
  5
41C
330
1F
100
AcDbEntity
  8
0
  6
Continuous
 62
     7
370
    15
100
AcDbLine
 10
1825.089475183
 20
2842.3158826485
 30
0.0
 11
1825.089475183
 21
2800.2414407387
 31
0.0
  0
LINE
  5
41D
330
1F
100
AcDbEntity
  8
0
  6
Continuous
 62
     7
370
    15
100
AcDbLine
 10
1800.1466598792
 20
2800.2414407387
 30
0.0
 11
1825.089475183
 21
2800.2414407387
 31
0.0
  0
LINE
  5
41E
330
1F
100
AcDbEntity
  8
0
  6
Continuous
 62
     7
370
    15
100
AcDbLine
 10
2071.8894806189
 20
2908.2340898171
 30
0.0
 11
2071.8894806189
 21
2800.2414407387
 31
0.0
  0
LINE
  5
41F
330
1F
100
AcDbEntity
  8
0
  6
Continuous
 62
     7
370
    15
100
AcDbLine
 10
1843.5894456191
 20
2842.3158826485
 30
0.0
 11
1843.5894456191
 21
2800.2414407387
 31
0.0
  0
ARC
  5
420
330
1F
100
AcDbEntity
  8
0
  6
Continuous
 62
     7
370
    15
100
AcDbCircle
 10
3315.2394561095
 20
2908.2341014533
 30
0.0
 40
9.25
100
AcDbArc
 50
0.0
 51
180.0
  0
LINE
  5
421
330
1F
100
AcDbEntity
  8
0
  6
Continuous
 62
     7
370
    15
100
AcDbLine
 10
2355.1894631667
 20
2940.5874910011
 30
0.0
 11
2355.1894631667
 21
2800.2414407387
 31
0.0
  0
LINE
  5
422
330
1F
100
AcDbEntity
  8
0
  6
Continuous
 62
     7
370
    15
100
AcDbLine
 10
2053.3894505782
 20
2908.2340898171
 30
0.0
 11
2053.3894505782
 21
2800.2414407387
 31
0.0
  0
LINE
  5
423
330
1F
100
AcDbEntity
  8
0
  6
Continuous
 62
     7
370
    15
100
AcDbLine
 10
3305.9894647879
 20
2908.2340898171
 30
0.0
 11
3305.9894647879
 21
2800.2414407387
 31
0.0
  0
LINE
  5
424
330
1F
100
AcDbEntity
  8
0
  6
Continuous
 62
     7
370
    15
100
AcDbLine
 10
1800.1454677863
 20
2800.2414407387
 30
0.0
 11
1800.1466598792
 21
2800.2414407387
 31
0.0
  0
LINE
  5
425
330
1F
100
AcDbEntity
  8
0
  6
Continuous
 62
     7
370
    15
100
AcDbLine
 10
3577.7334180159
 20
2800.2414407387
 30
0.0
 11
3577.7322259231
 21
2800.2414407387
 31
0.0
  0
LINE
  5
426
330
1F
100
AcDbEntity
  8
0
  6
Continuous
 62
     7
370
    15
100
AcDbLine
 10
2688.8394561095
 20
-107.1261463508
 30
0.0
 11
1800.0454511924
 21
-107.1261463508
 31
0.0
  0
ARC
  5
427
330
1F
100
AcDbEntity
  8
0
  6
Continuous
 62
     7
370
    15
100
AcDbCircle
 10
1800.0450585451
 20
-106.627764781
 30
0.0
 40
0.4983817245016403
100
AcDbArc
 50
179.8112528995
 51
270.0451401613
  0
LINE
  5
428
330
1F
100
AcDbEntity
  8
0
  6
Continuous
 62
     7
370
    15
100
AcDbLine
 10
1799.5466795249
 20
-89.3261430607
 30
0.0
 11
1799.5466795249
 21
-106.6261229858
 31
0.0
  0
LINE
  5
429
330
1F
100
AcDbEntity
  8
0
  6
Continuous
 62
     7
370
    15
100
AcDbLine
 10
2688.8394561095
 20
-88.8261196957
 30
0.0
 11
3577.6334610267
 21
-88.8261196957
 31
0.0
  0
ARC
  5
42A
330
1F
100
AcDbEntity
  8
0
  6
Continuous
 62
     7
370
    15
100
AcDbCircle
 10
3577.6338536739
 20
-89.3245012655
 30
0.0
 40
0.498381724501679
100
AcDbArc
 50
359.8112528995
 51
90.0451401613
  0
ARC
  5
42B
330
1F
100
AcDbEntity
  8
0
  6
Continuous
 62
     7
370
    15
100
AcDbCircle
 10
1800.0450585451
 20
-89.3245012655
 30
0.0
 40
0.498381724501626
100
AcDbArc
 50
89.9548598387
 51
180.1887471005
  0
LINE
  5
42C
330
1F
100
AcDbEntity
  8
0
  6
Continuous
 62
     7
370
    15
100
AcDbLine
 10
1800.0454511924
 20
-88.8261196957
 30
0.0
 11
2688.8394561095
 21
-88.8261196957
 31
0.0
  0
LINE
  5
42D
330
1F
100
AcDbEntity
  8
0
  6
Continuous
 62
     7
370
    15
100
AcDbLine
 10
3577.6334610267
 20
-107.1261463508
 30
0.0
 11
2688.8394561095
 21
-107.1261463508
 31
0.0
  0
ARC
  5
42E
330
1F
100
AcDbEntity
  8
0
  6
Continuous
 62
     7
370
    15
100
AcDbCircle
 10
3577.6338536739
 20
-106.627764781
 30
0.0
 40
0.498381724501679
100
AcDbArc
 50
269.9548598387
 51
0.1887471005
  0
LINE
  5
42F
330
1F
100
AcDbEntity
  8
0
  6
Continuous
 62
     7
370
    15
100
AcDbLine
 10
3578.1322326941
 20
-106.6261229858
 30
0.0
 11
3578.1322326941
 21
-89.3261430607
 31
0.0
  0
ENDSEC
  0
SECTION
  2
OBJECTS
  0
DICTIONARY
  5
C
330
0
100
AcDbDictionary
281
     1
  3
ACAD_GROUP
350
D
  3
ACAD_LAYOUT
350
1A
  3
ACAD_MLINESTYLE
350
17
  3
ACAD_PLOTSETTINGS
350
19
  3
ACAD_PLOTSTYLENAME
350
E
  0
DICTIONARY
  5
D
102
{ACAD_REACTORS
330
C
102
}
330
C
100
AcDbDictionary
281
     1
  0
DICTIONARY
  5
1A
102
{ACAD_REACTORS
330
C
102
}
330
C
100
AcDbDictionary
281
     1
  3
Layout1
350
1E
  3
Layout2
350
26
  3
Model
350
22
  0
DICTIONARY
  5
17
102
{ACAD_REACTORS
330
C
102
}
330
C
100
AcDbDictionary
281
     1
  3
Standard
350
18
  0
DICTIONARY
  5
19
102
{ACAD_REACTORS
330
C
102
}
330
C
100
AcDbDictionary
281
     1
  0
ACDBDICTIONARYWDFLT
  5
E
102
{ACAD_REACTORS
330
C
102
}
330
C
100
AcDbDictionary
281
     1
  3
Normal
350
F
100
AcDbDictionaryWithDefault
340
F
  0
LAYOUT
  5
1E
102
{ACAD_REACTORS
330
1A
102
}
330
1A
100
AcDbPlotSettings
  1

  2
none_device
  4

  6

 40
0.0
 41
0.0
 42
0.0
 43
0.0
 44
0.0
 45
0.0
 46
0.0
 47
0.0
 48
0.0
 49
0.0
140
0.0
141
0.0
142
1.0
143
1.0
 70
   688
 72
     0
 73
     0
 74
     5
  7

 75
    16
147
1.0
148
0.0
149
0.0
100
AcDbLayout
  1
Layout1
 70
     1
 71
     1
 10
0.0
 20
0.0
 11
420.0
 21
297.0
 12
0.0
 22
0.0
 32
0.0
 14
1.0000000000E+20
 24
1.0000000000E+20
 34
1.0000000000E+20
 15
-1.0000000000E+20
 25
-1.0000000000E+20
 35
-1.0000000000E+20
146
0.0
 13
0.0
 23
0.0
 33
0.0
 16
1.0
 26
0.0
 36
0.0
 17
0.0
 27
1.0
 37
0.0
 76
     0
330
1B
  0
LAYOUT
  5
26
102
{ACAD_REACTORS
330
1A
102
}
330
1A
100
AcDbPlotSettings
  1

  2
none_device
  4

  6

 40
0.0
 41
0.0
 42
0.0
 43
0.0
 44
0.0
 45
0.0
 46
0.0
 47
0.0
 48
0.0
 49
0.0
140
0.0
141
0.0
142
1.0
143
1.0
 70
   688
 72
     0
 73
     0
 74
     5
  7

 75
    16
147
1.0
148
0.0
149
0.0
100
AcDbLayout
  1
Layout2
 70
     1
 71
     2
 10
0.0
 20
0.0
 11
0.0
 21
0.0
 12
0.0
 22
0.0
 32
0.0
 14
0.0
 24
0.0
 34
0.0
 15
0.0
 25
0.0
 35
0.0
146
0.0
 13
0.0
 23
0.0
 33
0.0
 16
1.0
 26
0.0
 36
0.0
 17
0.0
 27
1.0
 37
0.0
 76
     0
330
23
  0
LAYOUT
  5
22
102
{ACAD_REACTORS
330
1A
102
}
330
1A
100
AcDbPlotSettings
  1

  2
none_device
  4

  6

 40
0.0
 41
0.0
 42
0.0
 43
0.0
 44
0.0
 45
0.0
 46
0.0
 47
0.0
 48
0.0
 49
0.0
140
0.0
141
0.0
142
1.0
143
1.0
 70
  1712
 72
     0
 73
     0
 74
     0
  7

 75
     0
147
1.0
148
0.0
149
0.0
100
AcDbLayout
  1
Model
 70
     1
 71
     0
 10
0.0
 20
0.0
 11
5000.0
 21
5000.0
 12
0.0
 22
0.0
 32
0.0
 14
0.0
 24
0.0
 34
0.0
 15
5000.0
 25
5000.0
 35
0.0
146
0.0
 13
0.0
 23
0.0
 33
0.0
 16
1.0
 26
0.0
 36
0.0
 17
0.0
 27
1.0
 37
0.0
 76
     0
330
1F
331
29
  0
MLINESTYLE
  5
18
102
{ACAD_REACTORS
330
17
102
}
330
17
100
AcDbMlineStyle
  2
Standard
 70
     0
  3

 62
   256
 51
90.0
 52
90.0
 71
     2
 49
0.5
 62
   256
  6
BYLAYER
 49
-0.5
 62
   256
  6
BYLAYER
  0
ACDBPLACEHOLDER
  5
F
102
{ACAD_REACTORS
330
E
102
}
330
E
  0
ENDSEC
  0
EOF
