0
SECTION
2
HEADER
9
$ACADVER
1
AC1003
9
$INSBASE
10
0.0
20
0.0
30
0.0
9
$EXTMIN
10
0.000
20
0.000
30
0.0
9
$EXTMAX
10
480.000
20
698.000
30
0.0
9
$LIMMIN
10
0.000
20
0.000
9
$LIMMAX
10
480.000
20
698.000
9
$LTSCALE
40
1.0
9
$LUNITS
70
2
9
$LUPREC
70
3
9
$LIMCHECK
70
0
9
$UCSNAME
2

9
$UCSORG
10
0.0
20
0.0
30
0.0
9
$UCSXDIR
10
1.0
20
0.0
30
0.0
9
$UCSYDIR
10
0.0
20
1.0
30
0.0
9
$WORLDVIEW
70
1
9
$UNITMODE
70
0
0
ENDSEC
0
SECTION
2
TABLES
0
TABLE
2
VPORT
70
1
0
VPORT
2
*ACTIVE
70
0
10
0.0
20
0.0
11
1.0
21
1.0
12
240.000
22
349.000
13
0.0
23
0.0
14
1.0
24
1.0
15
0.0
25
0.0
16
0.0
26
0.0
36
1.0
17
0.0
27
0.0
37
0.0
40
500.0
41
1.454
42
50.0
43
0.0
44
0.0
50
0.0
51
0.0
71
0
72
100
73
1
74
1
75
0
76
0
77
0
78
0
0
ENDTAB
0
TABLE
2
LTYPE
70
1
0
LTYPE
2
CONTINUOUS
70
64
3
Solid line
72
65
73
0
40
0.000
0
ENDTAB
0
TABLE
2
LAYER
70
1
0
LAYER
2
0
70
64
62
7
6
CONTINUOUS
0
ENDTAB
0
ENDSEC
0
SECTION
2
BLOCKS
0
ENDSEC
0
SECTION
2
ENTITIES
0
POLYLINE
8
0
6
CONTINUOUS
66
1
62
7
10
0.0
20
0.0
30
0.000000
0
VERTEX
8
0
10
109.000000
20
686.000000
0
VERTEX
8
0
10
109.000000
20
687.000000
0
VERTEX
8
0
10
112.000000
20
690.000000
0
VERTEX
8
0
10
119.951220
20
690.439024
0
VERTEX
8
0
10
121.900000
20
691.200000
0
VERTEX
8
0
10
123.000000
20
692.000000
0
VERTEX
8
0
10
128.000000
20
692.000000
0
VERTEX
8
0
10
131.250000
20
690.250000
0
VERTEX
8
0
10
142.000000
20
688.000000
0
SEQEND
0
POLYLINE
8
0
6
CONTINUOUS
66
1
62
7
10
0.0
20
0.0
30
0.000000
0
VERTEX
8
0
10
197.000000
20
644.000000
0
VERTEX
8
0
10
197.000000
20
647.000000
0
VERTEX
8
0
10
194.250000
20
652.250000
0
VERTEX
8
0
10
193.700000
20
654.900000
0
VERTEX
8
0
10
191.000000
20
660.000000
0
VERTEX
8
0
10
179.000000
20
673.000000
0
VERTEX
8
0
10
175.846154
20
674.769231
0
VERTEX
8
0
10
168.846154
20
678.769231
0
VERTEX
8
0
10
155.000000
20
685.000000
0
VERTEX
8
0
10
142.000000
20
688.000000
0
SEQEND
0
POLYLINE
8
0
6
CONTINUOUS
66
1
62
7
10
0.0
20
0.0
30
0.000000
0
VERTEX
8
0
10
180.000000
20
642.000000
0
VERTEX
8
0
10
180.000000
20
643.000000
0
VERTEX
8
0
10
172.250000
20
656.250000
0
VERTEX
8
0
10
171.760000
20
656.820000
0
VERTEX
8
0
10
164.230769
20
668.153846
0
VERTEX
8
0
10
155.000000
20
678.000000
0
VERTEX
8
0
10
142.000000
20
686.000000
0
VERTEX
8
0
10
142.000000
20
688.000000
0
SEQEND
0
POLYLINE
8
0
6
CONTINUOUS
66
1
62
7
10
0.0
20
0.0
30
0.000000
0
VERTEX
8
0
10
180.000000
20
642.000000
0
VERTEX
8
0
10
182.900000
20
642.300000
0
VERTEX
8
0
10
192.000000
20
646.000000
0
VERTEX
8
0
10
194.200000
20
644.400000
0
VERTEX
8
0
10
197.000000
20
644.000000
0
SEQEND
0
POLYLINE
8
0
6
CONTINUOUS
66
1
62
7
10
0.0
20
0.0
30
0.000000
0
VERTEX
8
0
10
66.000000
20
640.000000
0
VERTEX
8
0
10
65.000000
20
643.000000
0
VERTEX
8
0
10
72.230769
20
659.846154
0
VERTEX
8
0
10
73.600000
20
662.200000
0
VERTEX
8
0
10
82.751381
20
673.223757
0
VERTEX
8
0
10
87.900000
20
678.200000
0
VERTEX
8
0
10
90.900000
20
680.200000
0
VERTEX
8
0
10
99.076923
20
684.615385
0
VERTEX
8
0
10
109.000000
20
686.000000
0
SEQEND
0
POLYLINE
8
0
6
CONTINUOUS
66
1
62
7
10
0.0
20
0.0
30
0.000000
0
VERTEX
8
0
10
169.000000
20
637.000000
0
VERTEX
8
0
10
168.200000
20
640.100000
0
VERTEX
8
0
10
158.240000
20
655.180000
0
VERTEX
8
0
10
154.243902
20
660.195122
0
VERTEX
8
0
10
138.180000
20
674.240000
0
VERTEX
8
0
10
130.153846
20
679.230769
0
VERTEX
8
0
10
121.911765
20
682.647059
0
VERTEX
8
0
10
109.000000
20
686.000000
0
SEQEND
0
POLYLINE
8
0
6
CONTINUOUS
66
1
62
7
10
0.0
20
0.0
30
0.000000
0
VERTEX
8
0
10
169.000000
20
637.000000
0
VERTEX
8
0
10
170.000000
20
637.000000
0
VERTEX
8
0
10
179.000000
20
640.000000
0
VERTEX
8
0
10
180.000000
20
642.000000
0
SEQEND
0
POLYLINE
8
0
6
CONTINUOUS
66
1
62
7
10
0.0
20
0.0
30
0.000000
0
VERTEX
8
0
10
203.000000
20
634.000000
0
VERTEX
8
0
10
201.000000
20
636.000000
0
VERTEX
8
0
10
198.000000
20
639.000000
0
VERTEX
8
0
10
197.000000
20
644.000000
0
SEQEND
0
POLYLINE
8
0
6
CONTINUOUS
66
1
62
7
10
0.0
20
0.0
30
0.000000
0
VERTEX
8
0
10
300.000000
20
633.000000
0
VERTEX
8
0
10
300.250000
20
634.750000
0
VERTEX
8
0
10
318.000000
20
649.000000
0
VERTEX
8
0
10
319.000000
20
649.000000
0
SEQEND
0
POLYLINE
8
0
6
CONTINUOUS
66
1
62
7
10
0.0
20
0.0
30
0.000000
0
VERTEX
8
0
10
72.000000
20
632.000000
0
VERTEX
8
0
10
72.000000
20
635.000000
0
VERTEX
8
0
10
73.000000
20
636.000000
0
SEQEND
0
POLYLINE
8
0
6
CONTINUOUS
66
1
62
7
10
0.0
20
0.0
30
0.000000
0
VERTEX
8
0
10
296.000000
20
631.000000
0
VERTEX
8
0
10
300.000000
20
633.000000
0
SEQEND
0
POLYLINE
8
0
6
CONTINUOUS
66
1
62
7
10
0.0
20
0.0
30
0.000000
0
VERTEX
8
0
10
300.000000
20
633.000000
0
VERTEX
8
0
10
301.250000
20
631.250000
0
VERTEX
8
0
10
307.923077
20
632.384615
0
VERTEX
8
0
10
309.100000
20
632.800000
0
VERTEX
8
0
10
317.000000
20
638.000000
0
VERTEX
8
0
10
317.200000
20
638.900000
0
VERTEX
8
0
10
318.580000
20
642.060000
0
VERTEX
8
0
10
319.000000
20
649.000000
0
SEQEND
0
POLYLINE
8
0
6
CONTINUOUS
66
1
62
7
10
0.0
20
0.0
30
0.000000
0
VERTEX
8
0
10
213.000000
20
629.000000
0
VERTEX
8
0
10
212.000000
20
635.000000
0
VERTEX
8
0
10
209.100000
20
638.200000
0
VERTEX
8
0
10
208.000000
20
638.500000
0
VERTEX
8
0
10
205.760000
20
637.180000
0
VERTEX
8
0
10
203.000000
20
634.000000
0
SEQEND
0
POLYLINE
8
0
6
CONTINUOUS
66
1
62
7
10
0.0
20
0.0
30
0.000000
0
VERTEX
8
0
10
73.000000
20
625.000000
0
VERTEX
8
0
10
71.000000
20
626.000000
0
VERTEX
8
0
10
70.250000
20
630.750000
0
VERTEX
8
0
10
72.000000
20
632.000000
0
SEQEND
0
POLYLINE
8
0
6
CONTINUOUS
66
1
62
7
10
0.0
20
0.0
30
0.000000
0
VERTEX
8
0
10
73.000000
20
625.000000
0
VERTEX
8
0
10
75.000000
20
627.000000
0
VERTEX
8
0
10
73.769231
20
629.846154
0
VERTEX
8
0
10
72.000000
20
632.000000
0
SEQEND
0
POLYLINE
8
0
6
CONTINUOUS
66
1
62
7
10
0.0
20
0.0
30
0.000000
0
VERTEX
8
0
10
73.000000
20
623.000000
0
VERTEX
8
0
10
73.000000
20
625.000000
0
SEQEND
0
POLYLINE
8
0
6
CONTINUOUS
66
1
62
7
10
0.0
20
0.0
30
0.000000
0
VERTEX
8
0
10
92.000000
20
622.000000
0
VERTEX
8
0
10
89.660377
20
626.188679
0
VERTEX
8
0
10
88.594595
20
630.932432
0
VERTEX
8
0
10
86.769231
20
634.846154
0
VERTEX
8
0
10
84.250000
20
638.250000
0
VERTEX
8
0
10
80.000000
20
642.000000
0
VERTEX
8
0
10
78.000000
20
643.000000
0
VERTEX
8
0
10
72.000000
20
643.000000
0
VERTEX
8
0
10
69.250000
20
641.750000
0
VERTEX
8
0
10
66.000000
20
640.000000
0
SEQEND
0
POLYLINE
8
0
6
CONTINUOUS
66
1
62
7
10
0.0
20
0.0
30
0.000000
0
VERTEX
8
0
10
80.000000
20
619.000000
0
VERTEX
8
0
10
80.000000
20
623.000000
0
SEQEND
0
POLYLINE
8
0
6
CONTINUOUS
66
1
62
7
10
0.0
20
0.0
30
0.000000
0
VERTEX
8
0
10
208.000000
20
619.000000
0
VERTEX
8
0
10
208.800000
20
621.100000
0
VERTEX
8
0
10
213.000000
20
625.000000
0
VERTEX
8
0
10
213.000000
20
629.000000
0
SEQEND
0
POLYLINE
8
0
6
CONTINUOUS
66
1
62
7
10
0.0
20
0.0
30
0.000000
0
VERTEX
8
0
10
203.000000
20
618.000000
0
VERTEX
8
0
10
208.000000
20
619.000000
0
SEQEND
0
POLYLINE
8
0
6
CONTINUOUS
66
1
62
7
10
0.0
20
0.0
30
0.000000
0
VERTEX
8
0
10
63.000000
20
617.000000
0
VERTEX
8
0
10
62.000000
20
618.000000
0
VERTEX
8
0
10
62.000000
20
631.000000
0
VERTEX
8
0
10
65.200000
20
637.900000
0
VERTEX
8
0
10
66.000000
20
640.000000
0
SEQEND
0
POLYLINE
8
0
6
CONTINUOUS
66
1
62
7
10
0.0
20
0.0
30
0.000000
0
VERTEX
8
0
10
167.000000
20
615.000000
0
VERTEX
8
0
10
166.000000
20
615.000000
0
VERTEX
8
0
10
163.769231
20
618.846154
0
VERTEX
8
0
10
162.230769
20
621.153846
0
VERTEX
8
0
10
158.000000
20
631.000000
0
VERTEX
8
0
10
169.000000
20
637.000000
0
SEQEND
0
POLYLINE
8
0
6
CONTINUOUS
66
1
62
7
10
0.0
20
0.0
30
0.000000
0
VERTEX
8
0
10
167.000000
20
615.000000
0
VERTEX
8
0
10
183.000000
20
620.000000
0
VERTEX
8
0
10
194.900000
20
626.200000
0
VERTEX
8
0
10
196.100000
20
626.800000
0
VERTEX
8
0
10
203.000000
20
634.000000
0
SEQEND
0
POLYLINE
8
0
6
CONTINUOUS
66
1
62
7
10
0.0
20
0.0
30
0.000000
0
VERTEX
8
0
10
195.000000
20
615.000000
0
VERTEX
8
0
10
196.100000
20
615.800000
0
VERTEX
8
0
10
202.000000
20
618.000000
0
VERTEX
8
0
10
203.000000
20
618.000000
0
SEQEND
0
POLYLINE
8
0
6
CONTINUOUS
66
1
62
7
10
0.0
20
0.0
30
0.000000
0
VERTEX
8
0
10
64.000000
20
613.000000
0
VERTEX
8
0
10
63.000000
20
617.000000
0
SEQEND
0
POLYLINE
8
0
6
CONTINUOUS
66
1
62
7
10
0.0
20
0.0
30
0.000000
0
VERTEX
8
0
10
64.000000
20
613.000000
0
VERTEX
8
0
10
66.911765
20
612.647059
0
VERTEX
8
0
10
69.750000
20
612.250000
0
VERTEX
8
0
10
70.000000
20
613.000000
0
VERTEX
8
0
10
70.000000
20
617.000000
0
VERTEX
8
0
10
69.000000
20
618.000000
0
VERTEX
8
0
10
66.000000
20
618.000000
0
VERTEX
8
0
10
64.750000
20
617.250000
0
VERTEX
8
0
10
63.000000
20
617.000000
0
SEQEND
0
POLYLINE
8
0
6
CONTINUOUS
66
1
62
7
10
0.0
20
0.0
30
0.000000
0
VERTEX
8
0
10
82.000000
20
612.000000
0
VERTEX
8
0
10
78.000000
20
615.000000
0
VERTEX
8
0
10
78.800000
20
617.100000
0
VERTEX
8
0
10
80.000000
20
619.000000
0
SEQEND
0
POLYLINE
8
0
6
CONTINUOUS
66
1
62
7
10
0.0
20
0.0
30
0.000000
0
VERTEX
8
0
10
82.000000
20
612.000000
0
VERTEX
8
0
10
84.200000
20
613.900000
0
VERTEX
8
0
10
82.240000
20
618.180000
0
VERTEX
8
0
10
80.000000
20
619.000000
0
SEQEND
0
POLYLINE
8
0
6
CONTINUOUS
66
1
62
7
10
0.0
20
0.0
30
0.000000
0
VERTEX
8
0
10
167.000000
20
611.000000
0
VERTEX
8
0
10
167.000000
20
615.000000
0
SEQEND
0
POLYLINE
8
0
6
CONTINUOUS
66
1
62
7
10
0.0
20
0.0
30
0.000000
0
VERTEX
8
0
10
167.000000
20
611.000000
0
VERTEX
8
0
10
181.911765
20
615.352941
0
VERTEX
8
0
10
204.750000
20
625.250000
0
VERTEX
8
0
10
205.250000
20
625.750000
0
VERTEX
8
0
10
212.000000
20
629.000000
0
VERTEX
8
0
10
213.000000
20
629.000000
0
SEQEND
0
POLYLINE
8
0
6
CONTINUOUS
66
1
62
7
10
0.0
20
0.0
30
0.000000
0
VERTEX
8
0
10
189.000000
20
611.000000
0
VERTEX
8
0
10
190.250000
20
612.750000
0
VERTEX
8
0
10
192.900000
20
614.200000
0
VERTEX
8
0
10
195.000000
20
615.000000
0
SEQEND
0
POLYLINE
8
0
6
CONTINUOUS
66
1
62
7
10
0.0
20
0.0
30
0.000000
0
VERTEX
8
0
10
185.000000
20
610.000000
0
VERTEX
8
0
10
189.000000
20
611.000000
0
SEQEND
0
POLYLINE
8
0
6
CONTINUOUS
66
1
62
7
10
0.0
20
0.0
30
0.000000
0
VERTEX
8
0
10
94.000000
20
609.000000
0
VERTEX
8
0
10
92.430769
20
615.053846
0
VERTEX
8
0
10
92.000000
20
622.000000
0
SEQEND
0
POLYLINE
8
0
6
CONTINUOUS
66
1
62
7
10
0.0
20
0.0
30
0.000000
0
VERTEX
8
0
10
83.000000
20
608.000000
0
VERTEX
8
0
10
83.000000
20
611.000000
0
VERTEX
8
0
10
82.000000
20
612.000000
0
SEQEND
0
POLYLINE
8
0
6
CONTINUOUS
66
1
62
7
10
0.0
20
0.0
30
0.000000
0
VERTEX
8
0
10
265.000000
20
606.000000
0
VERTEX
8
0
10
259.900000
20
607.800000
0
VERTEX
8
0
10
255.000000
20
614.000000
0
VERTEX
8
0
10
254.000000
20
616.000000
0
VERTEX
8
0
10
254.000000
20
618.000000
0
VERTEX
8
0
10
256.000000
20
620.000000
0
VERTEX
8
0
10
257.000000
20
620.000000
0
SEQEND
0
POLYLINE
8
0
6
CONTINUOUS
66
1
62
7
10
0.0
20
0.0
30
0.000000
0
VERTEX
8
0
10
265.000000
20
606.000000
0
VERTEX
8
0
10
264.700000
20
608.900000
0
VERTEX
8
0
10
258.769231
20
617.846154
0
VERTEX
8
0
10
257.000000
20
620.000000
0
SEQEND
0
POLYLINE
8
0
6
CONTINUOUS
66
1
62
7
10
0.0
20
0.0
30
0.000000
0
VERTEX
8
0
10
76.000000
20
604.000000
0
VERTEX
8
0
10
76.000000
20
608.000000
0
SEQEND
0
POLYLINE
8
0
6
CONTINUOUS
66
1
62
7
10
0.0
20
0.0
30
0.000000
0
VERTEX
8
0
10
159.000000
20
602.000000
0
VERTEX
8
0
10
161.100000
20
602.800000
0
VERTEX
8
0
10
181.088235
20
609.647059
0
VERTEX
8
0
10
185.000000
20
610.000000
0
SEQEND
0
POLYLINE
8
0
6
CONTINUOUS
66
1
62
7
10
0.0
20
0.0
30
0.000000
0
VERTEX
8
0
10
78.000000
20
599.000000
0
VERTEX
8
0
10
76.900000
20
599.800000
0
VERTEX
8
0
10
75.000000
20
602.000000
0
VERTEX
8
0
10
76.000000
20
604.000000
0
SEQEND
0
POLYLINE
8
0
6
CONTINUOUS
66
1
62
7
10
0.0
20
0.0
30
0.000000
0
VERTEX
8
0
10
78.000000
20
599.000000
0
VERTEX
8
0
10
80.000000
20
601.000000
0
VERTEX
8
0
10
80.000000
20
602.000000
0
VERTEX
8
0
10
79.100000
20
603.200000
0
VERTEX
8
0
10
76.000000
20
604.000000
0
SEQEND
0
POLYLINE
8
0
6
CONTINUOUS
66
1
62
7
10
0.0
20
0.0
30
0.000000
0
VERTEX
8
0
10
111.000000
20
599.000000
0
VERTEX
8
0
10
109.250000
20
600.250000
0
VERTEX
8
0
10
95.000000
20
624.000000
0
VERTEX
8
0
10
92.000000
20
622.000000
0
SEQEND
0
POLYLINE
8
0
6
CONTINUOUS
66
1
62
7
10
0.0
20
0.0
30
0.000000
0
VERTEX
8
0
10
111.000000
20
599.000000
0
VERTEX
8
0
10
111.900000
20
599.200000
0
VERTEX
8
0
10
128.044554
20
602.554455
0
VERTEX
8
0
10
136.955446
20
603.445545
0
VERTEX
8
0
10
152.923077
20
607.384615
0
VERTEX
8
0
10
167.000000
20
611.000000
0
SEQEND
0
POLYLINE
8
0
6
CONTINUOUS
66
1
62
7
10
0.0
20
0.0
30
0.000000
0
VERTEX
8
0
10
187.000000
20
599.000000
0
VERTEX
8
0
10
183.800000
20
600.900000
0
VERTEX
8
0
10
183.000000
20
602.000000
0
VERTEX
8
0
10
183.000000
20
606.000000
0
VERTEX
8
0
10
185.000000
20
610.000000
0
SEQEND
0
POLYLINE
8
0
6
CONTINUOUS
66
1
62
7
10
0.0
20
0.0
30
0.000000
0
VERTEX
8
0
10
187.000000
20
599.000000
0
VERTEX
8
0
10
187.800000
20
600.100000
0
VERTEX
8
0
10
190.000000
20
605.000000
0
VERTEX
8
0
10
190.000000
20
610.000000
0
VERTEX
8
0
10
189.000000
20
611.000000
0
SEQEND
0
POLYLINE
8
0
6
CONTINUOUS
66
1
62
7
10
0.0
20
0.0
30
0.000000
0
VERTEX
8
0
10
68.000000
20
598.000000
0
VERTEX
8
0
10
66.230769
20
601.153846
0
VERTEX
8
0
10
63.000000
20
608.000000
0
VERTEX
8
0
10
63.000000
20
612.000000
0
VERTEX
8
0
10
64.000000
20
613.000000
0
SEQEND
0
POLYLINE
8
0
6
CONTINUOUS
66
1
62
7
10
0.0
20
0.0
30
0.000000
0
VERTEX
8
0
10
338.000000
20
597.000000
0
VERTEX
8
0
10
337.000000
20
599.000000
0
VERTEX
8
0
10
317.900000
20
607.800000
0
VERTEX
8
0
10
317.100000
20
608.200000
0
VERTEX
8
0
10
301.250000
20
619.250000
0
VERTEX
8
0
10
293.000000
20
626.000000
0
VERTEX
8
0
10
279.959016
20
624.450820
0
VERTEX
8
0
10
270.040984
20
623.549180
0
VERTEX
8
0
10
258.846154
20
621.230769
0
VERTEX
8
0
10
257.000000
20
620.000000
0
SEQEND
0
POLYLINE
8
0
6
CONTINUOUS
66
1
62
7
10
0.0
20
0.0
30
0.000000
0
VERTEX
8
0
10
80.000000
20
596.000000
0
VERTEX
8
0
10
78.000000
20
598.000000
0
VERTEX
8
0
10
78.000000
20
599.000000
0
SEQEND
0
POLYLINE
8
0
6
CONTINUOUS
66
1
62
7
10
0.0
20
0.0
30
0.000000
0
VERTEX
8
0
10
203.000000
20
595.000000
0
VERTEX
8
0
10
199.243902
20
599.195122
0
VERTEX
8
0
10
195.000000
20
614.000000
0
VERTEX
8
0
10
195.000000
20
615.000000
0
SEQEND
0
POLYLINE
8
0
6
CONTINUOUS
66
1
62
7
10
0.0
20
0.0
30
0.000000
0
VERTEX
8
0
10
203.000000
20
595.000000
0
VERTEX
8
0
10
204.000000
20
596.000000
0
VERTEX
8
0
10
203.000000
20
618.000000
0
SEQEND
0
POLYLINE
8
0
6
CONTINUOUS
66
1
62
7
10
0.0
20
0.0
30
0.000000
0
VERTEX
8
0
10
114.000000
20
594.000000
0
VERTEX
8
0
10
111.000000
20
599.000000
0
SEQEND
0
POLYLINE
8
0
6
CONTINUOUS
66
1
62
7
10
0.0
20
0.0
30
0.000000
0
VERTEX
8
0
10
117.000000
20
593.000000
0
VERTEX
8
0
10
114.000000
20
594.000000
0
SEQEND
0
POLYLINE
8
0
6
CONTINUOUS
66
1
62
7
10
0.0
20
0.0
30
0.000000
0
VERTEX
8
0
10
117.000000
20
593.000000
0
VERTEX
8
0
10
128.923077
20
596.384615
0
VERTEX
8
0
10
142.053846
20
599.569231
0
VERTEX
8
0
10
159.000000
20
602.000000
0
SEQEND
0
POLYLINE
8
0
6
CONTINUOUS
66
1
62
7
10
0.0
20
0.0
30
0.000000
0
VERTEX
8
0
10
148.000000
20
593.000000
0
VERTEX
8
0
10
150.100000
20
593.800000
0
VERTEX
8
0
10
159.000000
20
599.000000
0
VERTEX
8
0
10
159.000000
20
602.000000
0
SEQEND
0
POLYLINE
8
0
6
CONTINUOUS
66
1
62
7
10
0.0
20
0.0
30
0.000000
0
VERTEX
8
0
10
329.000000
20
593.000000
0
VERTEX
8
0
10
330.100000
20
593.800000
0
VERTEX
8
0
10
337.200000
20
595.900000
0
VERTEX
8
0
10
338.000000
20
597.000000
0
SEQEND
0
POLYLINE
8
0
6
CONTINUOUS
66
1
62
7
10
0.0
20
0.0
30
0.000000
0
VERTEX
8
0
10
290.000000
20
592.000000
0
VERTEX
8
0
10
289.750000
20
592.750000
0
VERTEX
8
0
10
280.900000
20
595.700000
0
VERTEX
8
0
10
275.204918
20
598.245902
0
VERTEX
8
0
10
265.846154
20
605.769231
0
VERTEX
8
0
10
265.000000
20
606.000000
0
SEQEND
0
POLYLINE
8
0
6
CONTINUOUS
66
1
62
7
10
0.0
20
0.0
30
0.000000
0
VERTEX
8
0
10
290.000000
20
592.000000
0
VERTEX
8
0
10
301.962069
20
592.455172
0
VERTEX
8
0
10
327.000000
20
594.000000
0
VERTEX
8
0
10
329.000000
20
593.000000
0
SEQEND
0
POLYLINE
8
0
6
CONTINUOUS
66
1
62
7
10
0.0
20
0.0
30
0.000000
0
VERTEX
8
0
10
110.000000
20
591.000000
0
VERTEX
8
0
10
108.250000
20
591.250000
0
VERTEX
8
0
10
96.230769
20
606.153846
0
VERTEX
8
0
10
94.000000
20
609.000000
0
SEQEND
0
POLYLINE
8
0
6
CONTINUOUS
66
1
62
7
10
0.0
20
0.0
30
0.000000
0
VERTEX
8
0
10
110.000000
20
591.000000
0
VERTEX
8
0
10
114.000000
20
594.000000
0
SEQEND
0
POLYLINE
8
0
6
CONTINUOUS
66
1
62
7
10
0.0
20
0.0
30
0.000000
0
VERTEX
8
0
10
68.000000
20
598.000000
0
VERTEX
8
0
10
70.000000
20
598.000000
0
VERTEX
8
0
10
73.000000
20
594.000000
0
VERTEX
8
0
10
78.000000
20
589.000000
0
VERTEX
8
0
10
83.000000
20
588.000000
0
VERTEX
8
0
10
84.100000
20
588.700000
0
VERTEX
8
0
10
86.000000
20
589.000000
0
VERTEX
8
0
10
90.000000
20
593.000000
0
VERTEX
8
0
10
91.560976
20
599.048780
0
VERTEX
8
0
10
92.769231
20
606.846154
0
VERTEX
8
0
10
94.000000
20
609.000000
0
SEQEND
0
POLYLINE
8
0
6
CONTINUOUS
66
1
62
7
10
0.0
20
0.0
30
0.000000
0
VERTEX
8
0
10
152.000000
20
587.000000
0
VERTEX
8
0
10
155.000000
20
588.000000
0
SEQEND
0
POLYLINE
8
0
6
CONTINUOUS
66
1
62
7
10
0.0
20
0.0
30
0.000000
0
VERTEX
8
0
10
155.000000
20
588.000000
0
VERTEX
8
0
10
156.000000
20
587.000000
0
VERTEX
8
0
10
162.000000
20
587.000000
0
VERTEX
8
0
10
163.100000
20
587.800000
0
VERTEX
8
0
10
167.750000
20
591.250000
0
VERTEX
8
0
10
169.000000
20
594.000000
0
VERTEX
8
0
10
162.250000
20
594.750000
0
VERTEX
8
0
10
159.900000
20
593.200000
0
VERTEX
8
0
10
156.750000
20
591.250000
0
VERTEX
8
0
10
155.000000
20
588.000000
0
SEQEND
0
POLYLINE
8
0
6
CONTINUOUS
66
1
62
7
10
0.0
20
0.0
30
0.000000
0
VERTEX
8
0
10
177.000000
20
585.000000
0
VERTEX
8
0
10
174.000000
20
591.000000
0
SEQEND
0
POLYLINE
8
0
6
CONTINUOUS
66
1
62
7
10
0.0
20
0.0
30
0.000000
0
VERTEX
8
0
10
183.000000
20
585.000000
0
VERTEX
8
0
10
177.000000
20
585.000000
0
SEQEND
0
POLYLINE
8
0
6
CONTINUOUS
66
1
62
7
10
0.0
20
0.0
30
0.000000
0
VERTEX
8
0
10
223.000000
20
585.000000
0
VERTEX
8
0
10
224.000000
20
589.000000
0
VERTEX
8
0
10
221.750000
20
597.750000
0
VERTEX
8
0
10
221.000000
20
599.000000
0
VERTEX
8
0
10
214.750000
20
610.750000
0
VERTEX
8
0
10
208.000000
20
619.000000
0
SEQEND
0
POLYLINE
8
0
6
CONTINUOUS
66
1
62
7
10
0.0
20
0.0
30
0.000000
0
VERTEX
8
0
10
358.000000
20
585.000000
0
VERTEX
8
0
10
357.200000
20
586.100000
0
VERTEX
8
0
10
338.900000
20
596.800000
0
VERTEX
8
0
10
338.000000
20
597.000000
0
SEQEND
0
POLYLINE
8
0
6
CONTINUOUS
66
1
62
7
10
0.0
20
0.0
30
0.000000
0
VERTEX
8
0
10
313.000000
20
583.000000
0
VERTEX
8
0
10
312.000000
20
585.000000
0
VERTEX
8
0
10
309.100000
20
586.300000
0
VERTEX
8
0
10
308.000000
20
587.000000
0
VERTEX
8
0
10
304.000000
20
587.000000
0
VERTEX
8
0
10
303.000000
20
586.000000
0
VERTEX
8
0
10
303.000000
20
584.000000
0
VERTEX
8
0
10
308.000000
20
582.000000
0
VERTEX
8
0
10
312.000000
20
582.000000
0
VERTEX
8
0
10
313.000000
20
583.000000
0
SEQEND
0
POLYLINE
8
0
6
CONTINUOUS
66
1
62
7
10
0.0
20
0.0
30
0.000000
0
VERTEX
8
0
10
315.000000
20
582.000000
0
VERTEX
8
0
10
313.000000
20
583.000000
0
SEQEND
0
POLYLINE
8
0
6
CONTINUOUS
66
1
62
7
10
0.0
20
0.0
30
0.000000
0
VERTEX
8
0
10
364.000000
20
582.000000
0
VERTEX
8
0
10
363.750000
20
582.750000
0
VERTEX
8
0
10
360.793103
20
584.482759
0
VERTEX
8
0
10
358.000000
20
585.000000
0
SEQEND
0
POLYLINE
8
0
6
CONTINUOUS
66
1
62
7
10
0.0
20
0.0
30
0.000000
0
VERTEX
8
0
10
127.000000
20
580.000000
0
VERTEX
8
0
10
126.000000
20
580.000000
0
VERTEX
8
0
10
117.461538
20
590.307692
0
VERTEX
8
0
10
117.000000
20
593.000000
0
SEQEND
0
POLYLINE
8
0
6
CONTINUOUS
66
1
62
7
10
0.0
20
0.0
30
0.000000
0
VERTEX
8
0
10
369.000000
20
579.000000
0
VERTEX
8
0
10
368.750000
20
579.750000
0
VERTEX
8
0
10
365.000000
20
582.000000
0
VERTEX
8
0
10
364.000000
20
582.000000
0
SEQEND
0
POLYLINE
8
0
6
CONTINUOUS
66
1
62
7
10
0.0
20
0.0
30
0.000000
0
VERTEX
8
0
10
210.000000
20
578.000000
0
VERTEX
8
0
10
208.230769
20
580.153846
0
VERTEX
8
0
10
203.200000
20
594.100000
0
VERTEX
8
0
10
203.000000
20
595.000000
0
SEQEND
0
POLYLINE
8
0
6
CONTINUOUS
66
1
62
7
10
0.0
20
0.0
30
0.000000
0
VERTEX
8
0
10
210.000000
20
578.000000
0
VERTEX
8
0
10
223.000000
20
585.000000
0
SEQEND
0
POLYLINE
8
0
6
CONTINUOUS
66
1
62
7
10
0.0
20
0.0
30
0.000000
0
VERTEX
8
0
10
192.000000
20
575.000000
0
VERTEX
8
0
10
177.250000
20
577.250000
0
VERTEX
8
0
10
176.000000
20
579.000000
0
VERTEX
8
0
10
177.000000
20
585.000000
0
SEQEND
0
POLYLINE
8
0
6
CONTINUOUS
66
1
62
7
10
0.0
20
0.0
30
0.000000
0
VERTEX
8
0
10
192.000000
20
575.000000
0
VERTEX
8
0
10
194.000000
20
576.000000
0
VERTEX
8
0
10
196.000000
20
579.000000
0
VERTEX
8
0
10
197.000000
20
583.000000
0
VERTEX
8
0
10
196.300000
20
587.100000
0
VERTEX
8
0
10
195.600000
20
588.800000
0
VERTEX
8
0
10
187.000000
20
599.000000
0
SEQEND
0
POLYLINE
8
0
6
CONTINUOUS
66
1
62
7
10
0.0
20
0.0
30
0.000000
0
VERTEX
8
0
10
208.000000
20
575.000000
0
VERTEX
8
0
10
210.000000
20
577.000000
0
VERTEX
8
0
10
210.000000
20
578.000000
0
SEQEND
0
POLYLINE
8
0
6
CONTINUOUS
66
1
62
7
10
0.0
20
0.0
30
0.000000
0
VERTEX
8
0
10
377.000000
20
575.000000
0
VERTEX
8
0
10
374.846154
20
576.769231
0
VERTEX
8
0
10
370.000000
20
579.000000
0
VERTEX
8
0
10
369.000000
20
579.000000
0
SEQEND
0
POLYLINE
8
0
6
CONTINUOUS
66
1
62
7
10
0.0
20
0.0
30
0.000000
0
VERTEX
8
0
10
192.000000
20
574.000000
0
VERTEX
8
0
10
192.000000
20
575.000000
0
SEQEND
0
POLYLINE
8
0
6
CONTINUOUS
66
1
62
7
10
0.0
20
0.0
30
0.000000
0
VERTEX
8
0
10
361.000000
20
574.000000
0
VERTEX
8
0
10
364.000000
20
582.000000
0
SEQEND
0
POLYLINE
8
0
6
CONTINUOUS
66
1
62
7
10
0.0
20
0.0
30
0.000000
0
VERTEX
8
0
10
150.000000
20
573.000000
0
VERTEX
8
0
10
150.250000
20
573.750000
0
VERTEX
8
0
10
152.900000
20
574.300000
0
VERTEX
8
0
10
155.000000
20
576.000000
0
VERTEX
8
0
10
155.000000
20
578.000000
0
VERTEX
8
0
10
154.000000
20
579.000000
0
VERTEX
8
0
10
151.000000
20
579.000000
0
VERTEX
8
0
10
147.900000
20
577.200000
0
VERTEX
8
0
10
146.800000
20
576.100000
0
VERTEX
8
0
10
146.250000
20
573.250000
0
VERTEX
8
0
10
150.000000
20
573.000000
0
SEQEND
0
POLYLINE
8
0
6
CONTINUOUS
66
1
62
7
10
0.0
20
0.0
30
0.000000
0
VERTEX
8
0
10
193.000000
20
572.000000
0
VERTEX
8
0
10
192.000000
20
574.000000
0
SEQEND
0
POLYLINE
8
0
6
CONTINUOUS
66
1
62
7
10
0.0
20
0.0
30
0.000000
0
VERTEX
8
0
10
229.000000
20
571.000000
0
VERTEX
8
0
10
230.000000
20
572.000000
0
VERTEX
8
0
10
230.000000
20
574.000000
0
VERTEX
8
0
10
224.750000
20
583.750000
0
VERTEX
8
0
10
223.000000
20
585.000000
0
SEQEND
0
POLYLINE
8
0
6
CONTINUOUS
66
1
62
7
10
0.0
20
0.0
30
0.000000
0
VERTEX
8
0
10
196.000000
20
570.000000
0
VERTEX
8
0
10
195.000000
20
570.000000
0
VERTEX
8
0
10
193.000000
20
572.000000
0
SEQEND
0
POLYLINE
8
0
6
CONTINUOUS
66
1
62
7
10
0.0
20
0.0
30
0.000000
0
VERTEX
8
0
10
196.000000
20
570.000000
0
VERTEX
8
0
10
197.100000
20
570.800000
0
VERTEX
8
0
10
208.000000
20
575.000000
0
SEQEND
0
POLYLINE
8
0
6
CONTINUOUS
66
1
62
7
10
0.0
20
0.0
30
0.000000
0
VERTEX
8
0
10
329.000000
20
593.000000
0
VERTEX
8
0
10
330.464602
20
575.030973
0
VERTEX
8
0
10
332.000000
20
571.000000
0
VERTEX
8
0
10
337.000000
20
569.000000
0
VERTEX
8
0
10
348.100000
20
576.800000
0
VERTEX
8
0
10
349.000000
20
578.000000
0
VERTEX
8
0
10
356.900000
20
584.200000
0
VERTEX
8
0
10
358.000000
20
585.000000
0
SEQEND
0
POLYLINE
8
0
6
CONTINUOUS
66
1
62
7
10
0.0
20
0.0
30
0.000000
0
VERTEX
8
0
10
137.000000
20
567.000000
0
VERTEX
8
0
10
127.240000
20
579.180000
0
VERTEX
8
0
10
127.000000
20
580.000000
0
SEQEND
0
POLYLINE
8
0
6
CONTINUOUS
66
1
62
7
10
0.0
20
0.0
30
0.000000
0
VERTEX
8
0
10
137.000000
20
567.000000
0
VERTEX
8
0
10
137.750000
20
567.250000
0
VERTEX
8
0
10
137.300000
20
574.100000
0
VERTEX
8
0
10
136.700000
20
575.900000
0
VERTEX
8
0
10
135.180000
20
578.240000
0
VERTEX
8
0
10
132.000000
20
581.000000
0
VERTEX
8
0
10
127.000000
20
580.000000
0
SEQEND
0
POLYLINE
8
0
6
CONTINUOUS
66
1
62
7
10
0.0
20
0.0
30
0.000000
0
VERTEX
8
0
10
177.000000
20
567.000000
0
VERTEX
8
0
10
177.000000
20
573.000000
0
SEQEND
0
POLYLINE
8
0
6
CONTINUOUS
66
1
62
7
10
0.0
20
0.0
30
0.000000
0
VERTEX
8
0
10
184.000000
20
567.000000
0
VERTEX
8
0
10
183.000000
20
568.000000
0
VERTEX
8
0
10
177.000000
20
567.000000
0
SEQEND
0
POLYLINE
8
0
6
CONTINUOUS
66
1
62
7
10
0.0
20
0.0
30
0.000000
0
VERTEX
8
0
10
184.000000
20
567.000000
0
VERTEX
8
0
10
193.000000
20
572.000000
0
SEQEND
0
POLYLINE
8
0
6
CONTINUOUS
66
1
62
7
10
0.0
20
0.0
30
0.000000
0
VERTEX
8
0
10
361.000000
20
574.000000
0
VERTEX
8
0
10
357.000000
20
571.000000
0
VERTEX
8
0
10
356.300000
20
568.900000
0
VERTEX
8
0
10
356.250000
20
566.250000
0
VERTEX
8
0
10
359.000000
20
566.000000
0
VERTEX
8
0
10
359.750000
20
566.250000
0
VERTEX
8
0
10
362.000000
20
573.000000
0
VERTEX
8
0
10
361.000000
20
574.000000
0
SEQEND
0
POLYLINE
8
0
6
CONTINUOUS
66
1
62
7
10
0.0
20
0.0
30
0.000000
0
VERTEX
8
0
10
173.000000
20
565.000000
0
VERTEX
8
0
10
177.000000
20
567.000000
0
SEQEND
0
POLYLINE
8
0
6
CONTINUOUS
66
1
62
7
10
0.0
20
0.0
30
0.000000
0
VERTEX
8
0
10
406.000000
20
565.000000
0
VERTEX
8
0
10
405.000000
20
565.000000
0
VERTEX
8
0
10
377.000000
20
575.000000
0
SEQEND
0
POLYLINE
8
0
6
CONTINUOUS
66
1
62
7
10
0.0
20
0.0
30
0.000000
0
VERTEX
8
0
10
406.000000
20
565.000000
0
VERTEX
8
0
10
407.750000
20
567.250000
0
VERTEX
8
0
10
411.541176
20
578.035294
0
VERTEX
8
0
10
413.000000
20
596.000000
0
VERTEX
8
0
10
410.615385
20
611.923077
0
VERTEX
8
0
10
407.700000
20
619.900000
0
VERTEX
8
0
10
403.769231
20
626.846154
0
VERTEX
8
0
10
400.230769
20
632.153846
0
VERTEX
8
0
10
383.100000
20
647.200000
0
VERTEX
8
0
10
376.088235
20
650.352941
0
VERTEX
8
0
10
371.000000
20
652.000000
0
VERTEX
8
0
10
362.000000
20
652.000000
0
VERTEX
8
0
10
350.000000
20
650.000000
0
VERTEX
8
0
10
336.100000
20
655.200000
0
VERTEX
8
0
10
335.000000
20
656.000000
0
VERTEX
8
0
10
329.940000
20
655.420000
0
VERTEX
8
0
10
324.060000
20
654.580000
0
VERTEX
8
0
10
320.250000
20
652.750000
0
VERTEX
8
0
10
319.000000
20
649.000000
0
SEQEND
0
POLYLINE
8
0
6
CONTINUOUS
66
1
62
7
10
0.0
20
0.0
30
0.000000
0
VERTEX
8
0
10
131.000000
20
564.000000
0
VERTEX
8
0
10
130.200000
20
567.100000
0
VERTEX
8
0
10
110.250000
20
589.250000
0
VERTEX
8
0
10
110.000000
20
591.000000
0
SEQEND
0
POLYLINE
8
0
6
CONTINUOUS
66
1
62
7
10
0.0
20
0.0
30
0.000000
0
VERTEX
8
0
10
137.000000
20
564.000000
0
VERTEX
8
0
10
137.000000
20
567.000000
0
SEQEND
0
POLYLINE
8
0
6
CONTINUOUS
66
1
62
7
10
0.0
20
0.0
30
0.000000
0
VERTEX
8
0
10
211.000000
20
564.000000
0
VERTEX
8
0
10
210.647059
20
567.911765
0
VERTEX
8
0
10
208.800000
20
572.900000
0
VERTEX
8
0
10
208.000000
20
575.000000
0
SEQEND
0
POLYLINE
8
0
6
CONTINUOUS
66
1
62
7
10
0.0
20
0.0
30
0.000000
0
VERTEX
8
0
10
211.000000
20
564.000000
0
VERTEX
8
0
10
229.000000
20
571.000000
0
SEQEND
0
POLYLINE
8
0
6
CONTINUOUS
66
1
62
7
10
0.0
20
0.0
30
0.000000
0
VERTEX
8
0
10
120.000000
20
563.000000
0
VERTEX
8
0
10
130.000000
20
563.000000
0
VERTEX
8
0
10
131.000000
20
564.000000
0
SEQEND
0
POLYLINE
8
0
6
CONTINUOUS
66
1
62
7
10
0.0
20
0.0
30
0.000000
0
VERTEX
8
0
10
210.000000
20
563.000000
0
VERTEX
8
0
10
211.000000
20
563.000000
0
VERTEX
8
0
10
211.000000
20
564.000000
0
SEQEND
0
POLYLINE
8
0
6
CONTINUOUS
66
1
62
7
10
0.0
20
0.0
30
0.000000
0
VERTEX
8
0
10
293.000000
20
563.000000
0
VERTEX
8
0
10
294.000000
20
568.000000
0
VERTEX
8
0
10
292.000000
20
570.000000
0
VERTEX
8
0
10
290.000000
20
570.000000
0
SEQEND
0
POLYLINE
8
0
6
CONTINUOUS
66
1
62
7
10
0.0
20
0.0
30
0.000000
0
VERTEX
8
0
10
135.000000
20
562.000000
0
VERTEX
8
0
10
131.000000
20
564.000000
0
SEQEND
0
POLYLINE
8
0
6
CONTINUOUS
66
1
62
7
10
0.0
20
0.0
30
0.000000
0
VERTEX
8
0
10
135.000000
20
562.000000
0
VERTEX
8
0
10
137.000000
20
564.000000
0
SEQEND
0
POLYLINE
8
0
6
CONTINUOUS
66
1
62
7
10
0.0
20
0.0
30
0.000000
0
VERTEX
8
0
10
141.000000
20
562.000000
0
VERTEX
8
0
10
137.000000
20
564.000000
0
SEQEND
0
POLYLINE
8
0
6
CONTINUOUS
66
1
62
7
10
0.0
20
0.0
30
0.000000
0
VERTEX
8
0
10
141.000000
20
562.000000
0
VERTEX
8
0
10
173.000000
20
565.000000
0
SEQEND
0
POLYLINE
8
0
6
CONTINUOUS
66
1
62
7
10
0.0
20
0.0
30
0.000000
0
VERTEX
8
0
10
289.000000
20
561.000000
0
VERTEX
8
0
10
282.000000
20
563.000000
0
VERTEX
8
0
10
276.000000
20
568.000000
0
VERTEX
8
0
10
276.000000
20
571.000000
0
VERTEX
8
0
10
278.230769
20
574.846154
0
VERTEX
8
0
10
280.846154
20
578.230769
0
VERTEX
8
0
10
284.750000
20
581.250000
0
VERTEX
8
0
10
289.200000
20
588.900000
0
VERTEX
8
0
10
290.000000
20
592.000000
0
SEQEND
0
POLYLINE
8
0
6
CONTINUOUS
66
1
62
7
10
0.0
20
0.0
30
0.000000
0
VERTEX
8
0
10
289.000000
20
561.000000
0
VERTEX
8
0
10
290.000000
20
561.000000
0
VERTEX
8
0
10
293.000000
20
563.000000
0
SEQEND
0
POLYLINE
8
0
6
CONTINUOUS
66
1
62
7
10
0.0
20
0.0
30
0.000000
0
VERTEX
8
0
10
187.000000
20
559.000000
0
VERTEX
8
0
10
184.000000
20
567.000000
0
SEQEND
0
POLYLINE
8
0
6
CONTINUOUS
66
1
62
7
10
0.0
20
0.0
30
0.000000
0
VERTEX
8
0
10
193.000000
20
559.000000
0
VERTEX
8
0
10
196.000000
20
570.000000
0
SEQEND
0
POLYLINE
8
0
6
CONTINUOUS
66
1
62
7
10
0.0
20
0.0
30
0.000000
0
VERTEX
8
0
10
193.000000
20
559.000000
0
VERTEX
8
0
10
198.932432
20
559.405405
0
VERTEX
8
0
10
209.000000
20
563.000000
0
VERTEX
8
0
10
210.000000
20
563.000000
0
SEQEND
0
POLYLINE
8
0
6
CONTINUOUS
66
1
62
7
10
0.0
20
0.0
30
0.000000
0
VERTEX
8
0
10
120.000000
20
563.000000
0
VERTEX
8
0
10
116.800000
20
566.900000
0
VERTEX
8
0
10
115.000000
20
573.000000
0
VERTEX
8
0
10
110.000000
20
574.000000
0
VERTEX
8
0
10
103.911765
20
573.352941
0
VERTEX
8
0
10
100.250000
20
572.750000
0
VERTEX
8
0
10
98.000000
20
568.000000
0
VERTEX
8
0
10
98.000000
20
567.000000
0
VERTEX
8
0
10
100.250000
20
562.250000
0
VERTEX
8
0
10
105.100000
20
560.200000
0
VERTEX
8
0
10
115.000000
20
558.000000
0
VERTEX
8
0
10
120.000000
20
563.000000
0
SEQEND
0
POLYLINE
8
0
6
CONTINUOUS
66
1
62
7
10
0.0
20
0.0
30
0.000000
0
VERTEX
8
0
10
192.000000
20
558.000000
0
VERTEX
8
0
10
187.000000
20
559.000000
0
SEQEND
0
POLYLINE
8
0
6
CONTINUOUS
66
1
62
7
10
0.0
20
0.0
30
0.000000
0
VERTEX
8
0
10
192.000000
20
558.000000
0
VERTEX
8
0
10
193.000000
20
559.000000
0
SEQEND
0
POLYLINE
8
0
6
CONTINUOUS
66
1
62
7
10
0.0
20
0.0
30
0.000000
0
VERTEX
8
0
10
173.000000
20
556.000000
0
VERTEX
8
0
10
172.000000
20
558.000000
0
VERTEX
8
0
10
172.700000
20
562.100000
0
VERTEX
8
0
10
173.000000
20
565.000000
0
SEQEND
0
POLYLINE
8
0
6
CONTINUOUS
66
1
62
7
10
0.0
20
0.0
30
0.000000
0
VERTEX
8
0
10
173.000000
20
556.000000
0
VERTEX
8
0
10
179.940000
20
556.420000
0
VERTEX
8
0
10
185.900000
20
558.300000
0
VERTEX
8
0
10
187.000000
20
559.000000
0
SEQEND
0
POLYLINE
8
0
6
CONTINUOUS
66
1
62
7
10
0.0
20
0.0
30
0.000000
0
VERTEX
8
0
10
173.000000
20
555.000000
0
VERTEX
8
0
10
173.000000
20
556.000000
0
SEQEND
0
POLYLINE
8
0
6
CONTINUOUS
66
1
62
7
10
0.0
20
0.0
30
0.000000
0
VERTEX
8
0
10
210.000000
20
553.000000
0
VERTEX
8
0
10
210.000000
20
563.000000
0
SEQEND
0
POLYLINE
8
0
6
CONTINUOUS
66
1
62
7
10
0.0
20
0.0
30
0.000000
0
VERTEX
8
0
10
291.000000
20
553.000000
0
VERTEX
8
0
10
290.250000
20
554.250000
0
VERTEX
8
0
10
289.000000
20
556.000000
0
VERTEX
8
0
10
289.000000
20
561.000000
0
SEQEND
0
POLYLINE
8
0
6
CONTINUOUS
66
1
62
7
10
0.0
20
0.0
30
0.000000
0
VERTEX
8
0
10
138.000000
20
551.000000
0
VERTEX
8
0
10
135.000000
20
562.000000
0
SEQEND
0
POLYLINE
8
0
6
CONTINUOUS
66
1
62
7
10
0.0
20
0.0
30
0.000000
0
VERTEX
8
0
10
146.000000
20
551.000000
0
VERTEX
8
0
10
145.760000
20
552.820000
0
VERTEX
8
0
10
141.300000
20
559.100000
0
VERTEX
8
0
10
141.000000
20
562.000000
0
SEQEND
0
POLYLINE
8
0
6
CONTINUOUS
66
1
62
7
10
0.0
20
0.0
30
0.000000
0
VERTEX
8
0
10
191.000000
20
551.000000
0
VERTEX
8
0
10
192.000000
20
558.000000
0
SEQEND
0
POLYLINE
8
0
6
CONTINUOUS
66
1
62
7
10
0.0
20
0.0
30
0.000000
0
VERTEX
8
0
10
123.000000
20
550.000000
0
VERTEX
8
0
10
136.000000
20
550.000000
0
VERTEX
8
0
10
137.250000
20
550.750000
0
VERTEX
8
0
10
138.000000
20
551.000000
0
SEQEND
0
POLYLINE
8
0
6
CONTINUOUS
66
1
62
7
10
0.0
20
0.0
30
0.000000
0
VERTEX
8
0
10
142.000000
20
550.000000
0
VERTEX
8
0
10
138.000000
20
551.000000
0
SEQEND
0
POLYLINE
8
0
6
CONTINUOUS
66
1
62
7
10
0.0
20
0.0
30
0.000000
0
VERTEX
8
0
10
142.000000
20
550.000000
0
VERTEX
8
0
10
146.000000
20
551.000000
0
SEQEND
0
POLYLINE
8
0
6
CONTINUOUS
66
1
62
7
10
0.0
20
0.0
30
0.000000
0
VERTEX
8
0
10
152.000000
20
550.000000
0
VERTEX
8
0
10
146.000000
20
551.000000
0
SEQEND
0
POLYLINE
8
0
6
CONTINUOUS
66
1
62
7
10
0.0
20
0.0
30
0.000000
0
VERTEX
8
0
10
152.000000
20
550.000000
0
VERTEX
8
0
10
173.000000
20
555.000000
0
SEQEND
0
POLYLINE
8
0
6
CONTINUOUS
66
1
62
7
10
0.0
20
0.0
30
0.000000
0
VERTEX
8
0
10
349.000000
20
550.000000
0
VERTEX
8
0
10
348.000000
20
551.000000
0
VERTEX
8
0
10
348.000000
20
553.000000
0
VERTEX
8
0
10
350.000000
20
556.000000
0
SEQEND
0
POLYLINE
8
0
6
CONTINUOUS
66
1
62
7
10
0.0
20
0.0
30
0.000000
0
VERTEX
8
0
10
349.000000
20
550.000000
0
VERTEX
8
0
10
350.000000
20
550.000000
0
VERTEX
8
0
10
362.000000
20
557.000000
0
VERTEX
8
0
10
365.700000
20
566.100000
0
VERTEX
8
0
10
369.000000
20
579.000000
0
SEQEND
0
POLYLINE
8
0
6
CONTINUOUS
66
1
62
7
10
0.0
20
0.0
30
0.000000
0
VERTEX
8
0
10
173.000000
20
555.000000
0
VERTEX
8
0
10
173.300000
20
552.100000
0
VERTEX
8
0
10
174.900000
20
549.800000
0
VERTEX
8
0
10
178.911765
20
548.647059
0
VERTEX
8
0
10
185.000000
20
548.000000
0
VERTEX
8
0
10
191.000000
20
551.000000
0
SEQEND
0
POLYLINE
8
0
6
CONTINUOUS
66
1
62
7
10
0.0
20
0.0
30
0.000000
0
VERTEX
8
0
10
299.000000
20
547.000000
0
VERTEX
8
0
10
297.750000
20
548.750000
0
VERTEX
8
0
10
293.100000
20
552.200000
0
VERTEX
8
0
10
291.000000
20
553.000000
0
SEQEND
0
POLYLINE
8
0
6
CONTINUOUS
66
1
62
7
10
0.0
20
0.0
30
0.000000
0
VERTEX
8
0
10
299.000000
20
547.000000
0
VERTEX
8
0
10
300.000000
20
547.000000
0
VERTEX
8
0
10
302.000000
20
549.000000
0
VERTEX
8
0
10
302.000000
20
551.000000
0
VERTEX
8
0
10
297.000000
20
560.000000
0
VERTEX
8
0
10
293.000000
20
563.000000
0
SEQEND
0
POLYLINE
8
0
6
CONTINUOUS
66
1
62
7
10
0.0
20
0.0
30
0.000000
0
VERTEX
8
0
10
290.000000
20
546.000000
0
VERTEX
8
0
10
291.000000
20
553.000000
0
SEQEND
0
POLYLINE
8
0
6
CONTINUOUS
66
1
62
7
10
0.0
20
0.0
30
0.000000
0
VERTEX
8
0
10
290.000000
20
546.000000
0
VERTEX
8
0
10
291.250000
20
545.250000
0
VERTEX
8
0
10
296.811321
20
545.660377
0
VERTEX
8
0
10
299.000000
20
547.000000
0
SEQEND
0
POLYLINE
8
0
6
CONTINUOUS
66
1
62
7
10
0.0
20
0.0
30
0.000000
0
VERTEX
8
0
10
198.000000
20
542.000000
0
VERTEX
8
0
10
196.250000
20
544.250000
0
VERTEX
8
0
10
193.750000
20
549.750000
0
VERTEX
8
0
10
191.000000
20
551.000000
0
SEQEND
0
POLYLINE
8
0
6
CONTINUOUS
66
1
62
7
10
0.0
20
0.0
30
0.000000
0
VERTEX
8
0
10
198.000000
20
542.000000
0
VERTEX
8
0
10
202.750000
20
544.250000
0
VERTEX
8
0
10
208.200000
20
550.900000
0
VERTEX
8
0
10
210.000000
20
553.000000
0
SEQEND
0
POLYLINE
8
0
6
CONTINUOUS
66
1
62
7
10
0.0
20
0.0
30
0.000000
0
VERTEX
8
0
10
174.000000
20
540.000000
0
VERTEX
8
0
10
171.846154
20
541.769231
0
VERTEX
8
0
10
167.800000
20
545.900000
0
VERTEX
8
0
10
167.000000
20
547.000000
0
SEQEND
0
POLYLINE
8
0
6
CONTINUOUS
66
1
62
7
10
0.0
20
0.0
30
0.000000
0
VERTEX
8
0
10
197.000000
20
540.000000
0
VERTEX
8
0
10
188.048780
20
540.439024
0
VERTEX
8
0
10
174.900000
20
540.200000
0
VERTEX
8
0
10
174.000000
20
540.000000
0
SEQEND
0
POLYLINE
8
0
6
CONTINUOUS
66
1
62
7
10
0.0
20
0.0
30
0.000000
0
VERTEX
8
0
10
197.000000
20
540.000000
0
VERTEX
8
0
10
198.000000
20
542.000000
0
SEQEND
0
POLYLINE
8
0
6
CONTINUOUS
66
1
62
7
10
0.0
20
0.0
30
0.000000
0
VERTEX
8
0
10
146.000000
20
538.000000
0
VERTEX
8
0
10
142.000000
20
549.000000
0
VERTEX
8
0
10
142.000000
20
550.000000
0
SEQEND
0
POLYLINE
8
0
6
CONTINUOUS
66
1
62
7
10
0.0
20
0.0
30
0.000000
0
VERTEX
8
0
10
142.000000
20
535.000000
0
VERTEX
8
0
10
146.000000
20
538.000000
0
SEQEND
0
POLYLINE
8
0
6
CONTINUOUS
66
1
62
7
10
0.0
20
0.0
30
0.000000
0
VERTEX
8
0
10
166.000000
20
535.000000
0
VERTEX
8
0
10
161.900000
20
537.800000
0
VERTEX
8
0
10
159.000000
20
539.000000
0
VERTEX
8
0
10
153.000000
20
545.000000
0
VERTEX
8
0
10
152.000000
20
550.000000
0
SEQEND
0
POLYLINE
8
0
6
CONTINUOUS
66
1
62
7
10
0.0
20
0.0
30
0.000000
0
VERTEX
8
0
10
166.000000
20
535.000000
0
VERTEX
8
0
10
167.000000
20
535.000000
0
VERTEX
8
0
10
172.750000
20
538.250000
0
VERTEX
8
0
10
174.000000
20
540.000000
0
SEQEND
0
POLYLINE
8
0
6
CONTINUOUS
66
1
62
7
10
0.0
20
0.0
30
0.000000
0
VERTEX
8
0
10
135.000000
20
534.000000
0
VERTEX
8
0
10
115.900000
20
537.800000
0
VERTEX
8
0
10
95.153846
20
546.230769
0
VERTEX
8
0
10
88.000000
20
552.000000
0
VERTEX
8
0
10
85.700000
20
557.900000
0
VERTEX
8
0
10
83.300000
20
567.100000
0
VERTEX
8
0
10
68.800000
20
591.900000
0
VERTEX
8
0
10
68.200000
20
593.100000
0
VERTEX
8
0
10
67.000000
20
597.000000
0
VERTEX
8
0
10
68.000000
20
598.000000
0
SEQEND
0
POLYLINE
8
0
6
CONTINUOUS
66
1
62
7
10
0.0
20
0.0
30
0.000000
0
VERTEX
8
0
10
135.000000
20
534.000000
0
VERTEX
8
0
10
141.000000
20
536.000000
0
VERTEX
8
0
10
142.000000
20
535.000000
0
SEQEND
0
POLYLINE
8
0
6
CONTINUOUS
66
1
62
7
10
0.0
20
0.0
30
0.000000
0
VERTEX
8
0
10
143.000000
20
532.000000
0
VERTEX
8
0
10
142.000000
20
535.000000
0
SEQEND
0
POLYLINE
8
0
6
CONTINUOUS
66
1
62
7
10
0.0
20
0.0
30
0.000000
0
VERTEX
8
0
10
149.000000
20
532.000000
0
VERTEX
8
0
10
143.000000
20
532.000000
0
SEQEND
0
POLYLINE
8
0
6
CONTINUOUS
66
1
62
7
10
0.0
20
0.0
30
0.000000
0
VERTEX
8
0
10
149.000000
20
532.000000
0
VERTEX
8
0
10
149.000000
20
535.000000
0
VERTEX
8
0
10
147.000000
20
538.000000
0
VERTEX
8
0
10
146.000000
20
538.000000
0
SEQEND
0
POLYLINE
8
0
6
CONTINUOUS
66
1
62
7
10
0.0
20
0.0
30
0.000000
0
VERTEX
8
0
10
142.000000
20
530.000000
0
VERTEX
8
0
10
140.000000
20
530.000000
0
SEQEND
0
POLYLINE
8
0
6
CONTINUOUS
66
1
62
7
10
0.0
20
0.0
30
0.000000
0
VERTEX
8
0
10
142.000000
20
530.000000
0
VERTEX
8
0
10
143.000000
20
532.000000
0
SEQEND
0
POLYLINE
8
0
6
CONTINUOUS
66
1
62
7
10
0.0
20
0.0
30
0.000000
0
VERTEX
8
0
10
149.000000
20
530.000000
0
VERTEX
8
0
10
149.000000
20
532.000000
0
SEQEND
0
POLYLINE
8
0
6
CONTINUOUS
66
1
62
7
10
0.0
20
0.0
30
0.000000
0
VERTEX
8
0
10
153.000000
20
529.000000
0
VERTEX
8
0
10
153.000000
20
530.000000
0
VERTEX
8
0
10
149.000000
20
532.000000
0
SEQEND
0
POLYLINE
8
0
6
CONTINUOUS
66
1
62
7
10
0.0
20
0.0
30
0.000000
0
VERTEX
8
0
10
217.000000
20
529.000000
0
VERTEX
8
0
10
216.300000
20
541.100000
0
VERTEX
8
0
10
213.000000
20
552.000000
0
VERTEX
8
0
10
212.000000
20
553.000000
0
VERTEX
8
0
10
210.000000
20
553.000000
0
SEQEND
0
POLYLINE
8
0
6
CONTINUOUS
66
1
62
7
10
0.0
20
0.0
30
0.000000
0
VERTEX
8
0
10
217.000000
20
529.000000
0
VERTEX
8
0
10
218.000000
20
529.000000
0
VERTEX
8
0
10
222.846154
20
531.230769
0
VERTEX
8
0
10
225.750000
20
533.250000
0
VERTEX
8
0
10
230.000000
20
540.000000
0
VERTEX
8
0
10
229.000000
20
543.000000
0
VERTEX
8
0
10
229.000000
20
548.000000
0
VERTEX
8
0
10
230.000000
20
549.000000
0
VERTEX
8
0
10
230.000000
20
570.000000
0
VERTEX
8
0
10
229.000000
20
571.000000
0
SEQEND
0
POLYLINE
8
0
6
CONTINUOUS
66
1
62
7
10
0.0
20
0.0
30
0.000000
0
VERTEX
8
0
10
67.000000
20
528.000000
0
VERTEX
8
0
10
88.000000
20
545.000000
0
SEQEND
0
POLYLINE
8
0
6
CONTINUOUS
66
1
62
7
10
0.0
20
0.0
30
0.000000
0
VERTEX
8
0
10
145.000000
20
528.000000
0
VERTEX
8
0
10
144.000000
20
528.000000
0
VERTEX
8
0
10
142.800000
20
528.900000
0
VERTEX
8
0
10
142.000000
20
530.000000
0
SEQEND
0
POLYLINE
8
0
6
CONTINUOUS
66
1
62
7
10
0.0
20
0.0
30
0.000000
0
VERTEX
8
0
10
145.000000
20
528.000000
0
VERTEX
8
0
10
149.000000
20
530.000000
0
SEQEND
0
POLYLINE
8
0
6
CONTINUOUS
66
1
62
7
10
0.0
20
0.0
30
0.000000
0
VERTEX
8
0
10
150.000000
20
527.000000
0
VERTEX
8
0
10
149.000000
20
530.000000
0
SEQEND
0
POLYLINE
8
0
6
CONTINUOUS
66
1
62
7
10
0.0
20
0.0
30
0.000000
0
VERTEX
8
0
10
150.000000
20
527.000000
0
VERTEX
8
0
10
151.000000
20
527.000000
0
VERTEX
8
0
10
153.000000
20
528.000000
0
VERTEX
8
0
10
153.000000
20
529.000000
0
SEQEND
0
POLYLINE
8
0
6
CONTINUOUS
66
1
62
7
10
0.0
20
0.0
30
0.000000
0
VERTEX
8
0
10
157.000000
20
527.000000
0
VERTEX
8
0
10
154.846154
20
528.769231
0
VERTEX
8
0
10
153.000000
20
529.000000
0
SEQEND
0
POLYLINE
8
0
6
CONTINUOUS
66
1
62
7
10
0.0
20
0.0
30
0.000000
0
VERTEX
8
0
10
392.000000
20
527.000000
0
VERTEX
8
0
10
382.000000
20
533.000000
0
VERTEX
8
0
10
377.800000
20
538.900000
0
VERTEX
8
0
10
377.000000
20
540.000000
0
VERTEX
8
0
10
377.554455
20
553.044554
0
VERTEX
8
0
10
378.405405
20
564.067568
0
VERTEX
8
0
10
377.000000
20
575.000000
0
SEQEND
0
POLYLINE
8
0
6
CONTINUOUS
66
1
62
7
10
0.0
20
0.0
30
0.000000
0
VERTEX
8
0
10
392.000000
20
527.000000
0
VERTEX
8
0
10
398.000000
20
529.000000
0
VERTEX
8
0
10
405.200000
20
537.900000
0
VERTEX
8
0
10
407.000000
20
541.000000
0
VERTEX
8
0
10
407.000000
20
561.000000
0
VERTEX
8
0
10
406.000000
20
565.000000
0
SEQEND
0
POLYLINE
8
0
6
CONTINUOUS
66
1
62
7
10
0.0
20
0.0
30
0.000000
0
VERTEX
8
0
10
163.000000
20
526.000000
0
VERTEX
8
0
10
157.000000
20
527.000000
0
SEQEND
0
POLYLINE
8
0
6
CONTINUOUS
66
1
62
7
10
0.0
20
0.0
30
0.000000
0
VERTEX
8
0
10
163.000000
20
526.000000
0
VERTEX
8
0
10
166.000000
20
535.000000
0
SEQEND
0
POLYLINE
8
0
6
CONTINUOUS
66
1
62
7
10
0.0
20
0.0
30
0.000000
0
VERTEX
8
0
10
298.000000
20
526.000000
0
VERTEX
8
0
10
303.000000
20
530.000000
0
VERTEX
8
0
10
309.200000
20
539.900000
0
VERTEX
8
0
10
310.560976
20
544.048780
0
VERTEX
8
0
10
311.000000
20
552.000000
0
SEQEND
0
POLYLINE
8
0
6
CONTINUOUS
66
1
62
7
10
0.0
20
0.0
30
0.000000
0
VERTEX
8
0
10
145.000000
20
525.000000
0
VERTEX
8
0
10
145.000000
20
528.000000
0
SEQEND
0
POLYLINE
8
0
6
CONTINUOUS
66
1
62
7
10
0.0
20
0.0
30
0.000000
0
VERTEX
8
0
10
149.000000
20
525.000000
0
VERTEX
8
0
10
145.000000
20
525.000000
0
SEQEND
0
POLYLINE
8
0
6
CONTINUOUS
66
1
62
7
10
0.0
20
0.0
30
0.000000
0
VERTEX
8
0
10
149.000000
20
525.000000
0
VERTEX
8
0
10
149.750000
20
525.250000
0
VERTEX
8
0
10
150.000000
20
527.000000
0
SEQEND
0
POLYLINE
8
0
6
CONTINUOUS
66
1
62
7
10
0.0
20
0.0
30
0.000000
0
VERTEX
8
0
10
135.000000
20
534.000000
0
VERTEX
8
0
10
133.250000
20
530.750000
0
VERTEX
8
0
10
132.000000
20
528.000000
0
VERTEX
8
0
10
135.000000
20
525.000000
0
VERTEX
8
0
10
144.000000
20
524.000000
0
VERTEX
8
0
10
145.000000
20
525.000000
0
SEQEND
0
POLYLINE
8
0
6
CONTINUOUS
66
1
62
7
10
0.0
20
0.0
30
0.000000
0
VERTEX
8
0
10
199.000000
20
524.000000
0
VERTEX
8
0
10
197.000000
20
540.000000
0
SEQEND
0
POLYLINE
8
0
6
CONTINUOUS
66
1
62
7
10
0.0
20
0.0
30
0.000000
0
VERTEX
8
0
10
165.000000
20
523.000000
0
VERTEX
8
0
10
163.000000
20
525.000000
0
VERTEX
8
0
10
163.000000
20
526.000000
0
SEQEND
0
POLYLINE
8
0
6
CONTINUOUS
66
1
62
7
10
0.0
20
0.0
30
0.000000
0
VERTEX
8
0
10
165.000000
20
523.000000
0
VERTEX
8
0
10
166.000000
20
524.000000
0
VERTEX
8
0
10
198.000000
20
523.000000
0
VERTEX
8
0
10
199.000000
20
524.000000
0
SEQEND
0
POLYLINE
8
0
6
CONTINUOUS
66
1
62
7
10
0.0
20
0.0
30
0.000000
0
VERTEX
8
0
10
209.000000
20
523.000000
0
VERTEX
8
0
10
207.000000
20
525.000000
0
VERTEX
8
0
10
200.000000
20
523.000000
0
VERTEX
8
0
10
199.000000
20
524.000000
0
SEQEND
0
POLYLINE
8
0
6
CONTINUOUS
66
1
62
7
10
0.0
20
0.0
30
0.000000
0
VERTEX
8
0
10
209.000000
20
523.000000
0
VERTEX
8
0
10
217.000000
20
529.000000
0
SEQEND
0
POLYLINE
8
0
6
CONTINUOUS
66
1
62
7
10
0.0
20
0.0
30
0.000000
0
VERTEX
8
0
10
395.000000
20
519.000000
0
VERTEX
8
0
10
392.000000
20
527.000000
0
SEQEND
0
POLYLINE
8
0
6
CONTINUOUS
66
1
62
7
10
0.0
20
0.0
30
0.000000
0
VERTEX
8
0
10
156.000000
20
516.000000
0
VERTEX
8
0
10
157.000000
20
527.000000
0
SEQEND
0
POLYLINE
8
0
6
CONTINUOUS
66
1
62
7
10
0.0
20
0.0
30
0.000000
0
VERTEX
8
0
10
180.000000
20
516.000000
0
VERTEX
8
0
10
177.932432
20
516.594595
0
VERTEX
8
0
10
168.000000
20
519.000000
0
VERTEX
8
0
10
165.000000
20
523.000000
0
SEQEND
0
POLYLINE
8
0
6
CONTINUOUS
66
1
62
7
10
0.0
20
0.0
30
0.000000
0
VERTEX
8
0
10
180.000000
20
516.000000
0
VERTEX
8
0
10
189.946154
20
517.430769
0
VERTEX
8
0
10
207.000000
20
521.000000
0
VERTEX
8
0
10
209.000000
20
523.000000
0
SEQEND
0
POLYLINE
8
0
6
CONTINUOUS
66
1
62
7
10
0.0
20
0.0
30
0.000000
0
VERTEX
8
0
10
329.000000
20
515.000000
0
VERTEX
8
0
10
334.750000
20
520.250000
0
VERTEX
8
0
10
344.200000
20
531.900000
0
VERTEX
8
0
10
349.000000
20
550.000000
0
SEQEND
0
POLYLINE
8
0
6
CONTINUOUS
66
1
62
7
10
0.0
20
0.0
30
0.000000
0
VERTEX
8
0
10
149.000000
20
525.000000
0
VERTEX
8
0
10
149.000000
20
524.000000
0
VERTEX
8
0
10
142.250000
20
510.250000
0
VERTEX
8
0
10
147.100000
20
510.700000
0
VERTEX
8
0
10
148.900000
20
511.300000
0
VERTEX
8
0
10
154.900000
20
515.200000
0
VERTEX
8
0
10
156.000000
20
516.000000
0
SEQEND
0
POLYLINE
8
0
6
CONTINUOUS
66
1
62
7
10
0.0
20
0.0
30
0.000000
0
VERTEX
8
0
10
178.000000
20
503.000000
0
VERTEX
8
0
10
177.100000
20
503.200000
0
VERTEX
8
0
10
174.000000
20
506.000000
0
VERTEX
8
0
10
165.100000
20
512.200000
0
VERTEX
8
0
10
159.000000
20
513.000000
0
VERTEX
8
0
10
156.750000
20
515.750000
0
VERTEX
8
0
10
156.000000
20
516.000000
0
SEQEND
0
POLYLINE
8
0
6
CONTINUOUS
66
1
62
7
10
0.0
20
0.0
30
0.000000
0
VERTEX
8
0
10
178.000000
20
503.000000
0
VERTEX
8
0
10
183.000000
20
506.000000
0
VERTEX
8
0
10
183.000000
20
509.000000
0
VERTEX
8
0
10
180.600000
20
512.300000
0
VERTEX
8
0
10
180.000000
20
516.000000
0
SEQEND
0
POLYLINE
8
0
6
CONTINUOUS
66
1
62
7
10
0.0
20
0.0
30
0.000000
0
VERTEX
8
0
10
402.000000
20
502.000000
0
VERTEX
8
0
10
401.000000
20
517.000000
0
VERTEX
8
0
10
400.250000
20
518.250000
0
VERTEX
8
0
10
399.750000
20
518.750000
0
VERTEX
8
0
10
396.000000
20
519.000000
0
VERTEX
8
0
10
395.000000
20
519.000000
0
SEQEND
0
POLYLINE
8
0
6
CONTINUOUS
66
1
62
7
10
0.0
20
0.0
30
0.000000
0
VERTEX
8
0
10
67.000000
20
500.000000
0
VERTEX
8
0
10
73.000000
20
505.000000
0
SEQEND
0
POLYLINE
8
0
6
CONTINUOUS
66
1
62
7
10
0.0
20
0.0
30
0.000000
0
VERTEX
8
0
10
44.000000
20
498.000000
0
VERTEX
8
0
10
44.000000
20
499.000000
0
VERTEX
8
0
10
48.000000
20
507.000000
0
VERTEX
8
0
10
59.750000
20
522.250000
0
VERTEX
8
0
10
67.000000
20
528.000000
0
SEQEND
0
POLYLINE
8
0
6
CONTINUOUS
66
1
62
7
10
0.0
20
0.0
30
0.000000
0
VERTEX
8
0
10
44.000000
20
498.000000
0
VERTEX
8
0
10
48.000000
20
498.000000
0
VERTEX
8
0
10
49.000000
20
499.000000
0
VERTEX
8
0
10
50.769231
20
504.153846
0
VERTEX
8
0
10
52.000000
20
505.000000
0
VERTEX
8
0
10
56.000000
20
505.000000
0
VERTEX
8
0
10
57.700000
20
510.100000
0
VERTEX
8
0
10
58.000000
20
512.000000
0
VERTEX
8
0
10
64.000000
20
518.000000
0
VERTEX
8
0
10
65.750000
20
517.750000
0
VERTEX
8
0
10
67.000000
20
516.000000
0
VERTEX
8
0
10
69.100000
20
516.800000
0
VERTEX
8
0
10
70.750000
20
517.250000
0
VERTEX
8
0
10
70.339623
20
522.811321
0
VERTEX
8
0
10
69.230769
20
525.153846
0
VERTEX
8
0
10
68.100000
20
527.200000
0
VERTEX
8
0
10
67.000000
20
528.000000
0
SEQEND
0
POLYLINE
8
0
6
CONTINUOUS
66
1
62
7
10
0.0
20
0.0
30
0.000000
0
VERTEX
8
0
10
340.000000
20
493.000000
0
VERTEX
8
0
10
340.000000
20
494.000000
0
VERTEX
8
0
10
343.000000
20
497.000000
0
VERTEX
8
0
10
344.900000
20
497.300000
0
VERTEX
8
0
10
349.846154
20
500.230769
0
VERTEX
8
0
10
352.900000
20
502.200000
0
VERTEX
8
0
10
371.100000
20
511.700000
0
VERTEX
8
0
10
379.053846
20
513.569231
0
VERTEX
8
0
10
389.793103
20
515.517241
0
VERTEX
8
0
10
392.153846
20
516.769231
0
VERTEX
8
0
10
395.000000
20
519.000000
0
SEQEND
0
POLYLINE
8
0
6
CONTINUOUS
66
1
62
7
10
0.0
20
0.0
30
0.000000
0
VERTEX
8
0
10
337.000000
20
492.000000
0
VERTEX
8
0
10
340.000000
20
493.000000
0
SEQEND
0
POLYLINE
8
0
6
CONTINUOUS
66
1
62
7
10
0.0
20
0.0
30
0.000000
0
VERTEX
8
0
10
329.000000
20
491.000000
0
VERTEX
8
0
10
328.800000
20
491.900000
0
VERTEX
8
0
10
322.250000
20
502.250000
0
VERTEX
8
0
10
321.250000
20
503.250000
0
VERTEX
8
0
10
313.900000
20
507.800000
0
VERTEX
8
0
10
292.900000
20
511.700000
0
VERTEX
8
0
10
285.250000
20
515.250000
0
VERTEX
8
0
10
283.750000
20
516.750000
0
VERTEX
8
0
10
279.000000
20
523.000000
0
VERTEX
8
0
10
280.300000
20
526.900000
0
VERTEX
8
0
10
282.250000
20
530.750000
0
VERTEX
8
0
10
283.750000
20
532.250000
0
VERTEX
8
0
10
285.846154
20
544.230769
0
VERTEX
8
0
10
288.153846
20
545.769231
0
VERTEX
8
0
10
290.000000
20
546.000000
0
SEQEND
0
POLYLINE
8
0
6
CONTINUOUS
66
1
62
7
10
0.0
20
0.0
30
0.000000
0
VERTEX
8
0
10
329.000000
20
491.000000
0
VERTEX
8
0
10
337.000000
20
492.000000
0
SEQEND
0
POLYLINE
8
0
6
CONTINUOUS
66
1
62
7
10
0.0
20
0.0
30
0.000000
0
VERTEX
8
0
10
53.000000
20
483.000000
0
VERTEX
8
0
10
55.760000
20
486.180000
0
VERTEX
8
0
10
57.000000
20
488.000000
0
VERTEX
8
0
10
57.000000
20
489.000000
0
SEQEND
0
POLYLINE
8
0
6
CONTINUOUS
66
1
62
7
10
0.0
20
0.0
30
0.000000
0
VERTEX
8
0
10
197.000000
20
482.000000
0
VERTEX
8
0
10
195.900000
20
482.800000
0
VERTEX
8
0
10
178.000000
20
502.000000
0
VERTEX
8
0
10
178.000000
20
503.000000
0
SEQEND
0
POLYLINE
8
0
6
CONTINUOUS
66
1
62
7
10
0.0
20
0.0
30
0.000000
0
VERTEX
8
0
10
348.000000
20
480.000000
0
VERTEX
8
0
10
348.000000
20
481.000000
0
VERTEX
8
0
10
346.800000
20
488.900000
0
VERTEX
8
0
10
346.200000
20
490.100000
0
VERTEX
8
0
10
343.750000
20
491.750000
0
VERTEX
8
0
10
340.000000
20
493.000000
0
SEQEND
0
POLYLINE
8
0
6
CONTINUOUS
66
1
62
7
10
0.0
20
0.0
30
0.000000
0
VERTEX
8
0
10
348.000000
20
480.000000
0
VERTEX
8
0
10
351.911765
20
480.352941
0
VERTEX
8
0
10
400.100000
20
501.800000
0
VERTEX
8
0
10
402.000000
20
502.000000
0
SEQEND
0
POLYLINE
8
0
6
CONTINUOUS
66
1
62
7
10
0.0
20
0.0
30
0.000000
0
VERTEX
8
0
10
53.000000
20
483.000000
0
VERTEX
8
0
10
53.250000
20
477.250000
0
VERTEX
8
0
10
55.000000
20
476.000000
0
VERTEX
8
0
10
57.000000
20
476.000000
0
VERTEX
8
0
10
58.250000
20
476.750000
0
VERTEX
8
0
10
63.000000
20
489.000000
0
VERTEX
8
0
10
69.900000
20
495.200000
0
VERTEX
8
0
10
76.250000
20
498.750000
0
VERTEX
8
0
10
77.200000
20
499.900000
0
VERTEX
8
0
10
80.000000
20
504.000000
0
VERTEX
8
0
10
80.000000
20
511.000000
0
VERTEX
8
0
10
77.000000
20
514.000000
0
VERTEX
8
0
10
72.750000
20
512.250000
0
VERTEX
8
0
10
70.900000
20
511.200000
0
VERTEX
8
0
10
57.000000
20
500.000000
0
VERTEX
8
0
10
48.000000
20
491.000000
0
VERTEX
8
0
10
47.500000
20
488.000000
0
VERTEX
8
0
10
47.800000
20
486.900000
0
VERTEX
8
0
10
50.000000
20
484.000000
0
VERTEX
8
0
10
53.000000
20
483.000000
0
SEQEND
0
POLYLINE
8
0
6
CONTINUOUS
66
1
62
7
10
0.0
20
0.0
30
0.000000
0
VERTEX
8
0
10
339.000000
20
474.000000
0
VERTEX
8
0
10
335.352941
20
480.088235
0
VERTEX
8
0
10
334.700000
20
485.100000
0
VERTEX
8
0
10
337.000000
20
492.000000
0
SEQEND
0
POLYLINE
8
0
6
CONTINUOUS
66
1
62
7
10
0.0
20
0.0
30
0.000000
0
VERTEX
8
0
10
339.000000
20
474.000000
0
VERTEX
8
0
10
343.100000
20
474.800000
0
VERTEX
8
0
10
348.000000
20
479.000000
0
VERTEX
8
0
10
348.000000
20
480.000000
0
SEQEND
0
POLYLINE
8
0
6
CONTINUOUS
66
1
62
7
10
0.0
20
0.0
30
0.000000
0
VERTEX
8
0
10
223.000000
20
473.000000
0
VERTEX
8
0
10
223.000000
20
474.000000
0
VERTEX
8
0
10
220.000000
20
477.000000
0
VERTEX
8
0
10
206.000000
20
483.000000
0
VERTEX
8
0
10
198.000000
20
483.000000
0
VERTEX
8
0
10
197.000000
20
482.000000
0
SEQEND
0
POLYLINE
8
0
6
CONTINUOUS
66
1
62
7
10
0.0
20
0.0
30
0.000000
0
VERTEX
8
0
10
236.000000
20
470.000000
0
VERTEX
8
0
10
232.200000
20
478.100000
0
VERTEX
8
0
10
230.250000
20
481.250000
0
VERTEX
8
0
10
224.900000
20
484.700000
0
VERTEX
8
0
10
217.000000
20
488.000000
0
VERTEX
8
0
10
210.000000
20
495.000000
0
VERTEX
8
0
10
202.000000
20
512.000000
0
VERTEX
8
0
10
202.000000
20
513.000000
0
SEQEND
0
POLYLINE
8
0
6
CONTINUOUS
66
1
62
7
10
0.0
20
0.0
30
0.000000
0
VERTEX
8
0
10
325.000000
20
465.000000
0
VERTEX
8
0
10
319.000000
20
478.000000
0
VERTEX
8
0
10
319.000000
20
484.000000
0
VERTEX
8
0
10
329.000000
20
490.000000
0
VERTEX
8
0
10
329.000000
20
491.000000
0
SEQEND
0
POLYLINE
8
0
6
CONTINUOUS
66
1
62
7
10
0.0
20
0.0
30
0.000000
0
VERTEX
8
0
10
325.000000
20
465.000000
0
VERTEX
8
0
10
326.000000
20
465.000000
0
VERTEX
8
0
10
338.200000
20
472.900000
0
VERTEX
8
0
10
339.000000
20
474.000000
0
SEQEND
0
POLYLINE
8
0
6
CONTINUOUS
66
1
62
7
10
0.0
20
0.0
30
0.000000
0
VERTEX
8
0
10
205.000000
20
463.000000
0
VERTEX
8
0
10
197.000000
20
482.000000
0
SEQEND
0
POLYLINE
8
0
6
CONTINUOUS
66
1
62
7
10
0.0
20
0.0
30
0.000000
0
VERTEX
8
0
10
205.000000
20
463.000000
0
VERTEX
8
0
10
205.900000
20
463.200000
0
VERTEX
8
0
10
221.900000
20
472.200000
0
VERTEX
8
0
10
223.000000
20
473.000000
0
SEQEND
0
POLYLINE
8
0
6
CONTINUOUS
66
1
62
7
10
0.0
20
0.0
30
0.000000
0
VERTEX
8
0
10
54.000000
20
454.000000
0
VERTEX
8
0
10
54.250000
20
457.750000
0
VERTEX
8
0
10
55.647059
20
460.088235
0
VERTEX
8
0
10
56.000000
20
463.000000
0
VERTEX
8
0
10
59.900000
20
466.200000
0
VERTEX
8
0
10
61.000000
20
467.000000
0
SEQEND
0
POLYLINE
8
0
6
CONTINUOUS
66
1
62
7
10
0.0
20
0.0
30
0.000000
0
VERTEX
8
0
10
171.000000
20
451.000000
0
VERTEX
8
0
10
150.100000
20
458.200000
0
VERTEX
8
0
10
133.932432
20
463.594595
0
VERTEX
8
0
10
129.067568
20
464.405405
0
VERTEX
8
0
10
123.964706
20
465.541176
0
VERTEX
8
0
10
110.955446
20
466.554455
0
VERTEX
8
0
10
97.000000
20
468.000000
0
VERTEX
8
0
10
96.000000
20
467.000000
0
VERTEX
8
0
10
93.000000
20
467.000000
0
VERTEX
8
0
10
92.000000
20
468.000000
0
VERTEX
8
0
10
73.964706
20
467.458824
0
VERTEX
8
0
10
61.000000
20
467.000000
0
SEQEND
0
POLYLINE
8
0
6
CONTINUOUS
66
1
62
7
10
0.0
20
0.0
30
0.000000
0
VERTEX
8
0
10
229.000000
20
451.000000
0
VERTEX
8
0
10
228.000000
20
451.000000
0
VERTEX
8
0
10
225.750000
20
451.750000
0
VERTEX
8
0
10
225.250000
20
452.250000
0
VERTEX
8
0
10
224.500000
20
455.000000
0
VERTEX
8
0
10
225.000000
20
465.000000
0
VERTEX
8
0
10
223.580000
20
471.940000
0
VERTEX
8
0
10
223.000000
20
473.000000
0
SEQEND
0
POLYLINE
8
0
6
CONTINUOUS
66
1
62
7
10
0.0
20
0.0
30
0.000000
0
VERTEX
8
0
10
229.000000
20
451.000000
0
VERTEX
8
0
10
229.800000
20
452.100000
0
VERTEX
8
0
10
236.000000
20
470.000000
0
SEQEND
0
POLYLINE
8
0
6
CONTINUOUS
66
1
62
7
10
0.0
20
0.0
30
0.000000
0
VERTEX
8
0
10
226.000000
20
441.000000
0
VERTEX
8
0
10
229.000000
20
451.000000
0
SEQEND
0
POLYLINE
8
0
6
CONTINUOUS
66
1
62
7
10
0.0
20
0.0
30
0.000000
0
VERTEX
8
0
10
48.000000
20
440.000000
0
VERTEX
8
0
10
47.000000
20
441.000000
0
VERTEX
8
0
10
47.000000
20
444.000000
0
VERTEX
8
0
10
51.000000
20
452.000000
0
VERTEX
8
0
10
53.000000
20
454.000000
0
VERTEX
8
0
10
54.000000
20
454.000000
0
SEQEND
0
POLYLINE
8
0
6
CONTINUOUS
66
1
62
7
10
0.0
20
0.0
30
0.000000
0
VERTEX
8
0
10
177.000000
20
438.000000
0
VERTEX
8
0
10
149.100000
20
447.300000
0
VERTEX
8
0
10
130.932432
20
452.594595
0
VERTEX
8
0
10
96.053846
20
457.430769
0
VERTEX
8
0
10
88.000000
20
458.000000
0
VERTEX
8
0
10
64.019931
20
456.521664
0
VERTEX
8
0
10
55.000000
20
454.000000
0
VERTEX
8
0
10
54.000000
20
454.000000
0
SEQEND
0
POLYLINE
8
0
6
CONTINUOUS
66
1
62
7
10
0.0
20
0.0
30
0.000000
0
VERTEX
8
0
10
177.000000
20
438.000000
0
VERTEX
8
0
10
174.569231
20
454.946154
0
VERTEX
8
0
10
172.750000
20
460.750000
0
VERTEX
8
0
10
170.200000
20
465.100000
0
VERTEX
8
0
10
164.756098
20
471.804878
0
VERTEX
8
0
10
160.100000
20
477.200000
0
VERTEX
8
0
10
149.900000
20
482.700000
0
VERTEX
8
0
10
142.900000
20
484.700000
0
VERTEX
8
0
10
109.000000
20
493.000000
0
VERTEX
8
0
10
95.000000
20
493.000000
0
VERTEX
8
0
10
81.750000
20
488.250000
0
VERTEX
8
0
10
81.100000
20
487.800000
0
VERTEX
8
0
10
66.800000
20
477.100000
0
VERTEX
8
0
10
65.750000
20
475.250000
0
VERTEX
8
0
10
61.300000
20
469.900000
0
VERTEX
8
0
10
61.000000
20
467.000000
0
SEQEND
0
POLYLINE
8
0
6
CONTINUOUS
66
1
62
7
10
0.0
20
0.0
30
0.000000
0
VERTEX
8
0
10
181.000000
20
425.000000
0
VERTEX
8
0
10
179.900000
20
425.800000
0
VERTEX
8
0
10
156.900000
20
435.700000
0
VERTEX
8
0
10
119.932432
20
444.594595
0
VERTEX
8
0
10
115.067568
20
445.405405
0
VERTEX
8
0
10
80.000000
20
449.000000
0
VERTEX
8
0
10
68.000000
20
449.000000
0
VERTEX
8
0
10
59.100000
20
445.800000
0
VERTEX
8
0
10
48.000000
20
440.000000
0
SEQEND
0
POLYLINE
8
0
6
CONTINUOUS
66
1
62
7
10
0.0
20
0.0
30
0.000000
0
VERTEX
8
0
10
181.000000
20
425.000000
0
VERTEX
8
0
10
182.000000
20
426.000000
0
VERTEX
8
0
10
181.384615
20
428.076923
0
VERTEX
8
0
10
180.615385
20
431.923077
0
VERTEX
8
0
10
178.750000
20
435.750000
0
VERTEX
8
0
10
178.000000
20
436.000000
0
VERTEX
8
0
10
177.000000
20
438.000000
0
SEQEND
0
POLYLINE
8
0
6
CONTINUOUS
66
1
62
7
10
0.0
20
0.0
30
0.000000
0
VERTEX
8
0
10
48.000000
20
414.000000
0
VERTEX
8
0
10
47.466926
20
415.029183
0
VERTEX
8
0
10
46.000000
20
437.000000
0
VERTEX
8
0
10
48.000000
20
440.000000
0
SEQEND
0
POLYLINE
8
0
6
CONTINUOUS
66
1
62
7
10
0.0
20
0.0
30
0.000000
0
VERTEX
8
0
10
231.000000
20
414.000000
0
VERTEX
8
0
10
226.750000
20
419.750000
0
VERTEX
8
0
10
223.100000
20
424.200000
0
VERTEX
8
0
10
217.000000
20
427.000000
0
SEQEND
0
POLYLINE
8
0
6
CONTINUOUS
66
1
62
7
10
0.0
20
0.0
30
0.000000
0
VERTEX
8
0
10
234.000000
20
412.000000
0
VERTEX
8
0
10
231.000000
20
414.000000
0
SEQEND
0
POLYLINE
8
0
6
CONTINUOUS
66
1
62
7
10
0.0
20
0.0
30
0.000000
0
VERTEX
8
0
10
234.000000
20
412.000000
0
VERTEX
8
0
10
237.750000
20
414.250000
0
VERTEX
8
0
10
243.000000
20
429.000000
0
VERTEX
8
0
10
242.000000
20
438.000000
0
VERTEX
8
0
10
245.000000
20
448.000000
0
VERTEX
8
0
10
245.000000
20
455.000000
0
VERTEX
8
0
10
243.700000
20
457.900000
0
VERTEX
8
0
10
243.300000
20
459.100000
0
VERTEX
8
0
10
239.750000
20
468.750000
0
VERTEX
8
0
10
239.250000
20
469.250000
0
VERTEX
8
0
10
236.000000
20
470.000000
0
SEQEND
0
POLYLINE
8
0
6
CONTINUOUS
66
1
62
7
10
0.0
20
0.0
30
0.000000
0
VERTEX
8
0
10
197.000000
20
408.000000
0
VERTEX
8
0
10
198.000000
20
411.000000
0
VERTEX
8
0
10
194.700000
20
426.900000
0
VERTEX
8
0
10
192.700000
20
431.900000
0
VERTEX
8
0
10
191.000000
20
436.000000
0
VERTEX
8
0
10
191.000000
20
448.000000
0
VERTEX
8
0
10
193.200000
20
451.900000
0
VERTEX
8
0
10
196.820000
20
457.240000
0
VERTEX
8
0
10
205.000000
20
463.000000
0
SEQEND
0
POLYLINE
8
0
6
CONTINUOUS
66
1
62
7
10
0.0
20
0.0
30
0.000000
0
VERTEX
8
0
10
49.000000
20
406.000000
0
VERTEX
8
0
10
47.800000
20
407.900000
0
VERTEX
8
0
10
47.000000
20
409.000000
0
VERTEX
8
0
10
48.000000
20
414.000000
0
SEQEND
0
POLYLINE
8
0
6
CONTINUOUS
66
1
62
7
10
0.0
20
0.0
30
0.000000
0
VERTEX
8
0
10
197.000000
20
408.000000
0
VERTEX
8
0
10
197.900000
20
407.800000
0
VERTEX
8
0
10
202.000000
20
406.000000
0
VERTEX
8
0
10
209.000000
20
406.000000
0
VERTEX
8
0
10
218.900000
20
411.200000
0
VERTEX
8
0
10
220.053846
20
411.569231
0
VERTEX
8
0
10
229.900000
20
413.300000
0
VERTEX
8
0
10
231.000000
20
414.000000
0
SEQEND
0
POLYLINE
8
0
6
CONTINUOUS
66
1
62
7
10
0.0
20
0.0
30
0.000000
0
VERTEX
8
0
10
232.000000
20
403.000000
0
VERTEX
8
0
10
234.000000
20
412.000000
0
SEQEND
0
POLYLINE
8
0
6
CONTINUOUS
66
1
62
7
10
0.0
20
0.0
30
0.000000
0
VERTEX
8
0
10
166.000000
20
399.000000
0
VERTEX
8
0
10
161.067568
20
399.405405
0
VERTEX
8
0
10
135.970817
20
406.533074
0
VERTEX
8
0
10
121.029183
20
407.466926
0
VERTEX
8
0
10
118.100000
20
408.300000
0
VERTEX
8
0
10
110.088235
20
410.352941
0
VERTEX
8
0
10
58.000000
20
415.000000
0
VERTEX
8
0
10
48.000000
20
414.000000
0
SEQEND
0
POLYLINE
8
0
6
CONTINUOUS
66
1
62
7
10
0.0
20
0.0
30
0.000000
0
VERTEX
8
0
10
49.000000
20
397.000000
0
VERTEX
8
0
10
48.000000
20
399.000000
0
VERTEX
8
0
10
48.000000
20
404.000000
0
VERTEX
8
0
10
49.000000
20
406.000000
0
SEQEND
0
POLYLINE
8
0
6
CONTINUOUS
66
1
62
7
10
0.0
20
0.0
30
0.000000
0
VERTEX
8
0
10
161.000000
20
394.000000
0
VERTEX
8
0
10
141.900000
20
394.800000
0
VERTEX
8
0
10
123.940000
20
401.580000
0
VERTEX
8
0
10
117.000000
20
403.000000
0
VERTEX
8
0
10
113.946154
20
402.430769
0
VERTEX
8
0
10
106.000000
20
401.000000
0
VERTEX
8
0
10
92.923077
20
402.615385
0
VERTEX
8
0
10
87.911765
20
403.647059
0
VERTEX
8
0
10
76.000000
20
406.000000
0
VERTEX
8
0
10
75.000000
20
405.000000
0
VERTEX
8
0
10
73.000000
20
405.000000
0
VERTEX
8
0
10
64.000000
20
407.000000
0
VERTEX
8
0
10
51.000000
20
407.000000
0
VERTEX
8
0
10
49.000000
20
406.000000
0
SEQEND
0
POLYLINE
8
0
6
CONTINUOUS
66
1
62
7
10
0.0
20
0.0
30
0.000000
0
VERTEX
8
0
10
203.000000
20
387.000000
0
VERTEX
8
0
10
201.900000
20
387.800000
0
VERTEX
8
0
10
198.800000
20
391.900000
0
VERTEX
8
0
10
196.420000
20
398.060000
0
VERTEX
8
0
10
195.580000
20
403.940000
0
VERTEX
8
0
10
196.200000
20
406.900000
0
VERTEX
8
0
10
197.000000
20
408.000000
0
SEQEND
0
POLYLINE
8
0
6
CONTINUOUS
66
1
62
7
10
0.0
20
0.0
30
0.000000
0
VERTEX
8
0
10
203.000000
20
387.000000
0
VERTEX
8
0
10
209.000000
20
394.000000
0
VERTEX
8
0
10
223.000000
20
401.000000
0
VERTEX
8
0
10
232.000000
20
403.000000
0
SEQEND
0
POLYLINE
8
0
6
CONTINUOUS
66
1
62
7
10
0.0
20
0.0
30
0.000000
0
VERTEX
8
0
10
157.000000
20
385.000000
0
VERTEX
8
0
10
138.024862
20
386.472376
0
VERTEX
8
0
10
120.088235
20
390.352941
0
VERTEX
8
0
10
118.923077
20
390.615385
0
VERTEX
8
0
10
102.100000
20
395.300000
0
VERTEX
8
0
10
101.000000
20
396.000000
0
VERTEX
8
0
10
88.000000
20
396.000000
0
VERTEX
8
0
10
87.000000
20
395.000000
0
VERTEX
8
0
10
54.037931
20
397.455172
0
VERTEX
8
0
10
53.000000
20
398.000000
0
VERTEX
8
0
10
49.900000
20
397.200000
0
VERTEX
8
0
10
49.000000
20
397.000000
0
SEQEND
0
POLYLINE
8
0
6
CONTINUOUS
66
1
62
7
10
0.0
20
0.0
30
0.000000
0
VERTEX
8
0
10
157.000000
20
385.000000
0
VERTEX
8
0
10
160.100000
20
385.800000
0
VERTEX
8
0
10
164.240000
20
389.820000
0
VERTEX
8
0
10
168.000000
20
395.000000
0
VERTEX
8
0
10
168.750000
20
395.250000
0
VERTEX
8
0
10
177.250000
20
407.750000
0
VERTEX
8
0
10
177.750000
20
408.250000
0
VERTEX
8
0
10
182.000000
20
417.000000
0
VERTEX
8
0
10
182.000000
20
424.000000
0
VERTEX
8
0
10
181.000000
20
425.000000
0
SEQEND
0
POLYLINE
8
0
6
CONTINUOUS
66
1
62
7
10
0.0
20
0.0
30
0.000000
0
VERTEX
8
0
10
139.000000
20
376.000000
0
VERTEX
8
0
10
143.076923
20
377.615385
0
VERTEX
8
0
10
155.000000
20
380.000000
0
VERTEX
8
0
10
156.000000
20
381.000000
0
VERTEX
8
0
10
157.000000
20
385.000000
0
SEQEND
0
POLYLINE
8
0
6
CONTINUOUS
66
1
62
7
10
0.0
20
0.0
30
0.000000
0
VERTEX
8
0
10
49.000000
20
397.000000
0
VERTEX
8
0
10
50.405405
20
388.067568
0
VERTEX
8
0
10
52.200000
20
384.100000
0
VERTEX
8
0
10
54.769231
20
378.846154
0
VERTEX
8
0
10
68.060000
20
376.420000
0
VERTEX
8
0
10
110.000000
20
374.000000
0
VERTEX
8
0
10
129.000000
20
374.000000
0
VERTEX
8
0
10
130.076923
20
374.615385
0
VERTEX
8
0
10
139.000000
20
376.000000
0
SEQEND
0
POLYLINE
8
0
6
CONTINUOUS
66
1
62
7
10
0.0
20
0.0
30
0.000000
0
VERTEX
8
0
10
264.000000
20
351.000000
0
VERTEX
8
0
10
263.750000
20
351.750000
0
VERTEX
8
0
10
256.000000
20
356.000000
0
VERTEX
8
0
10
252.000000
20
360.000000
0
VERTEX
8
0
10
237.230769
20
383.153846
0
VERTEX
8
0
10
235.800000
20
385.900000
0
VERTEX
8
0
10
233.439024
20
394.048780
0
VERTEX
8
0
10
233.000000
20
402.000000
0
VERTEX
8
0
10
232.000000
20
403.000000
0
SEQEND
0
POLYLINE
8
0
6
CONTINUOUS
66
1
62
7
10
0.0
20
0.0
30
0.000000
0
VERTEX
8
0
10
264.000000
20
351.000000
0
VERTEX
8
0
10
267.846154
20
352.230769
0
VERTEX
8
0
10
272.750000
20
355.250000
0
VERTEX
8
0
10
274.384615
20
363.923077
0
VERTEX
8
0
10
279.245902
20
372.795082
0
VERTEX
8
0
10
283.527027
20
378.337838
0
VERTEX
8
0
10
288.647059
20
395.088235
0
VERTEX
8
0
10
289.352941
20
397.911765
0
VERTEX
8
0
10
301.300000
20
425.900000
0
VERTEX
8
0
10
304.200000
20
431.900000
0
VERTEX
8
0
10
318.240000
20
454.820000
0
VERTEX
8
0
10
324.800000
20
464.100000
0
VERTEX
8
0
10
325.000000
20
465.000000
0
SEQEND
0
POLYLINE
8
0
6
CONTINUOUS
66
1
62
7
10
0.0
20
0.0
30
0.000000
0
VERTEX
8
0
10
228.000000
20
314.000000
0
VERTEX
8
0
10
203.352941
20
384.088235
0
VERTEX
8
0
10
203.000000
20
387.000000
0
SEQEND
0
POLYLINE
8
0
6
CONTINUOUS
66
1
62
7
10
0.0
20
0.0
30
0.000000
0
VERTEX
8
0
10
282.000000
20
313.000000
0
VERTEX
8
0
10
283.000000
20
315.000000
0
VERTEX
8
0
10
275.200000
20
324.100000
0
VERTEX
8
0
10
274.750000
20
325.750000
0
VERTEX
8
0
10
271.900000
20
325.200000
0
VERTEX
8
0
10
268.800000
20
323.100000
0
VERTEX
8
0
10
269.230769
20
320.153846
0
VERTEX
8
0
10
271.000000
20
317.000000
0
VERTEX
8
0
10
275.000000
20
313.000000
0
VERTEX
8
0
10
282.000000
20
313.000000
0
SEQEND
0
POLYLINE
8
0
6
CONTINUOUS
66
1
62
7
10
0.0
20
0.0
30
0.000000
0
VERTEX
8
0
10
292.000000
20
266.000000
0
VERTEX
8
0
10
277.846154
20
276.769231
0
VERTEX
8
0
10
277.000000
20
277.000000
0
VERTEX
8
0
10
273.760000
20
280.820000
0
VERTEX
8
0
10
271.240000
20
284.180000
0
VERTEX
8
0
10
263.200000
20
298.100000
0
VERTEX
8
0
10
255.700000
20
312.900000
0
VERTEX
8
0
10
253.000000
20
324.000000
0
VERTEX
8
0
10
253.000000
20
329.000000
0
VERTEX
8
0
10
260.300000
20
343.900000
0
VERTEX
8
0
10
264.000000
20
351.000000
0
SEQEND
0
POLYLINE
8
0
6
CONTINUOUS
66
1
62
7
10
0.0
20
0.0
30
0.000000
0
VERTEX
8
0
10
292.000000
20
266.000000
0
VERTEX
8
0
10
296.911765
20
267.352941
0
VERTEX
8
0
10
324.900000
20
281.200000
0
VERTEX
8
0
10
329.100000
20
282.800000
0
VERTEX
8
0
10
337.820000
20
287.240000
0
VERTEX
8
0
10
346.195122
20
293.756098
0
VERTEX
8
0
10
362.750000
20
312.250000
0
VERTEX
8
0
10
368.752941
20
319.211765
0
VERTEX
8
0
10
372.800000
20
326.100000
0
VERTEX
8
0
10
383.000000
20
342.000000
0
SEQEND
0
POLYLINE
8
0
6
CONTINUOUS
66
1
62
7
10
0.0
20
0.0
30
0.000000
0
VERTEX
8
0
10
290.000000
20
258.000000
0
VERTEX
8
0
10
292.000000
20
266.000000
0
SEQEND
0
POLYLINE
8
0
6
CONTINUOUS
66
1
62
7
10
0.0
20
0.0
30
0.000000
0
VERTEX
8
0
10
214.000000
20
256.000000
0
VERTEX
8
0
10
215.750000
20
256.250000
0
VERTEX
8
0
10
216.405405
20
261.932432
0
VERTEX
8
0
10
217.477358
20
284.979245
0
VERTEX
8
0
10
224.250000
20
301.750000
0
VERTEX
8
0
10
228.000000
20
314.000000
0
SEQEND
0
POLYLINE
8
0
6
CONTINUOUS
66
1
62
7
10
0.0
20
0.0
30
0.000000
0
VERTEX
8
0
10
29.000000
20
255.000000
0
VERTEX
8
0
10
28.430769
20
260.053846
0
VERTEX
8
0
10
25.455172
20
302.037931
0
VERTEX
8
0
10
25.000000
20
313.000000
0
VERTEX
8
0
10
19.615385
20
346.923077
0
VERTEX
8
0
10
18.000000
20
356.000000
0
VERTEX
8
0
10
18.000000
20
389.000000
0
VERTEX
8
0
10
19.445545
20
398.955446
0
VERTEX
8
0
10
21.420000
20
414.940000
0
VERTEX
8
0
10
29.700000
20
459.100000
0
VERTEX
8
0
10
31.700000
20
466.100000
0
VERTEX
8
0
10
40.750000
20
492.250000
0
VERTEX
8
0
10
44.000000
20
498.000000
0
SEQEND
0
POLYLINE
8
0
6
CONTINUOUS
66
1
62
7
10
0.0
20
0.0
30
0.000000
0
VERTEX
8
0
10
228.000000
20
314.000000
0
VERTEX
8
0
10
242.647059
20
280.911765
0
VERTEX
8
0
10
248.230769
20
267.153846
0
VERTEX
8
0
10
254.750000
20
258.750000
0
VERTEX
8
0
10
263.000000
20
254.000000
0
VERTEX
8
0
10
282.964706
20
255.458824
0
VERTEX
8
0
10
287.900000
20
257.200000
0
VERTEX
8
0
10
290.000000
20
258.000000
0
SEQEND
0
POLYLINE
8
0
6
CONTINUOUS
66
1
62
7
10
0.0
20
0.0
30
0.000000
0
VERTEX
8
0
10
162.000000
20
249.000000
0
VERTEX
8
0
10
170.000000
20
250.000000
0
VERTEX
8
0
10
186.053846
20
254.569231
0
VERTEX
8
0
10
192.946154
20
255.430769
0
VERTEX
8
0
10
213.000000
20
256.000000
0
VERTEX
8
0
10
214.000000
20
256.000000
0
SEQEND
0
POLYLINE
8
0
6
CONTINUOUS
66
1
62
7
10
0.0
20
0.0
30
0.000000
0
VERTEX
8
0
10
117.000000
20
231.000000
0
VERTEX
8
0
10
113.250000
20
244.250000
0
VERTEX
8
0
10
109.580000
20
258.940000
0
VERTEX
8
0
10
108.000000
20
267.000000
0
VERTEX
8
0
10
108.569231
20
277.053846
0
VERTEX
8
0
10
110.352941
20
287.911765
0
VERTEX
8
0
10
126.200000
20
330.900000
0
VERTEX
8
0
10
131.400000
20
345.800000
0
VERTEX
8
0
10
134.647059
20
353.088235
0
VERTEX
8
0
10
135.352941
20
355.911765
0
VERTEX
8
0
10
138.615385
20
371.076923
0
VERTEX
8
0
10
139.000000
20
376.000000
0
SEQEND
0
POLYLINE
8
0
6
CONTINUOUS
66
1
62
7
10
0.0
20
0.0
30
0.000000
0
VERTEX
8
0
10
66.000000
20
222.000000
0
VERTEX
8
0
10
64.250000
20
226.250000
0
VERTEX
8
0
10
53.300000
20
257.100000
0
VERTEX
8
0
10
50.700000
20
264.900000
0
VERTEX
8
0
10
48.000000
20
275.000000
0
VERTEX
8
0
10
48.000000
20
288.000000
0
VERTEX
8
0
10
49.352941
20
291.911765
0
VERTEX
8
0
10
54.430769
20
319.946154
0
VERTEX
8
0
10
55.430769
20
327.946154
0
VERTEX
8
0
10
58.300000
20
342.900000
0
VERTEX
8
0
10
64.000000
20
367.000000
0
VERTEX
8
0
10
64.000000
20
373.000000
0
SEQEND
0
POLYLINE
8
0
6
CONTINUOUS
66
1
62
7
10
0.0
20
0.0
30
0.000000
0
VERTEX
8
0
10
129.000000
20
212.000000
0
VERTEX
8
0
10
128.200000
20
216.100000
0
VERTEX
8
0
10
123.000000
20
227.000000
0
VERTEX
8
0
10
119.000000
20
231.000000
0
VERTEX
8
0
10
117.000000
20
231.000000
0
SEQEND
0
POLYLINE
8
0
6
CONTINUOUS
66
1
62
7
10
0.0
20
0.0
30
0.000000
0
VERTEX
8
0
10
30.000000
20
204.000000
0
VERTEX
8
0
10
28.000000
20
212.000000
0
VERTEX
8
0
10
30.533074
20
229.029183
0
VERTEX
8
0
10
31.000000
20
244.000000
0
VERTEX
8
0
10
30.000000
20
246.000000
0
VERTEX
8
0
10
30.000000
20
250.000000
0
SEQEND
0
POLYLINE
8
0
6
CONTINUOUS
66
1
62
7
10
0.0
20
0.0
30
0.000000
0
VERTEX
8
0
10
455.000000
20
204.000000
0
VERTEX
8
0
10
455.000000
20
205.000000
0
VERTEX
8
0
10
457.804878
20
207.243902
0
VERTEX
8
0
10
462.195122
20
210.756098
0
VERTEX
8
0
10
470.250000
20
219.750000
0
VERTEX
8
0
10
471.230769
20
221.846154
0
VERTEX
8
0
10
473.000000
20
224.000000
0
VERTEX
8
0
10
473.000000
20
227.000000
0
VERTEX
8
0
10
466.700000
20
240.900000
0
VERTEX
8
0
10
465.484404
20
246.014679
0
VERTEX
8
0
10
462.520767
20
316.980831
0
VERTEX
8
0
10
453.544828
20
382.962069
0
VERTEX
8
0
10
451.569231
20
398.946154
0
VERTEX
8
0
10
444.647059
20
423.911765
0
VERTEX
8
0
10
433.700000
20
458.900000
0
VERTEX
8
0
10
426.800000
20
472.900000
0
VERTEX
8
0
10
421.230769
20
481.153846
0
VERTEX
8
0
10
410.000000
20
494.000000
0
VERTEX
8
0
10
409.000000
20
494.000000
0
VERTEX
8
0
10
402.000000
20
502.000000
0
SEQEND
0
POLYLINE
8
0
6
CONTINUOUS
66
1
62
7
10
0.0
20
0.0
30
0.000000
0
VERTEX
8
0
10
134.000000
20
199.000000
0
VERTEX
8
0
10
133.352941
20
203.088235
0
VERTEX
8
0
10
131.600000
20
208.800000
0
VERTEX
8
0
10
130.230769
20
211.153846
0
VERTEX
8
0
10
129.000000
20
212.000000
0
SEQEND
0
POLYLINE
8
0
6
CONTINUOUS
66
1
62
7
10
0.0
20
0.0
30
0.000000
0
VERTEX
8
0
10
300.000000
20
198.000000
0
VERTEX
8
0
10
303.750000
20
201.250000
0
VERTEX
8
0
10
303.750000
20
205.750000
0
VERTEX
8
0
10
301.200000
20
210.100000
0
VERTEX
8
0
10
294.430769
20
229.053846
0
VERTEX
8
0
10
293.000000
20
245.000000
0
VERTEX
8
0
10
291.405405
20
250.067568
0
VERTEX
8
0
10
290.000000
20
258.000000
0
SEQEND
0
POLYLINE
8
0
6
CONTINUOUS
66
1
62
7
10
0.0
20
0.0
30
0.000000
0
VERTEX
8
0
10
69.000000
20
196.000000
0
VERTEX
8
0
10
66.088235
20
196.352941
0
VERTEX
8
0
10
53.970817
20
198.533074
0
VERTEX
8
0
10
39.029183
20
199.466926
0
VERTEX
8
0
10
36.100000
20
201.200000
0
VERTEX
8
0
10
30.000000
20
204.000000
0
SEQEND
0
POLYLINE
8
0
6
CONTINUOUS
66
1
62
7
10
0.0
20
0.0
30
0.000000
0
VERTEX
8
0
10
398.000000
20
193.000000
0
VERTEX
8
0
10
396.800000
20
194.900000
0
VERTEX
8
0
10
396.000000
20
196.000000
0
VERTEX
8
0
10
396.000000
20
201.000000
0
VERTEX
8
0
10
397.000000
20
202.000000
0
VERTEX
8
0
10
396.000000
20
204.000000
0
VERTEX
8
0
10
394.000000
20
205.000000
0
VERTEX
8
0
10
391.900000
20
204.200000
0
VERTEX
8
0
10
391.000000
20
204.000000
0
SEQEND
0
POLYLINE
8
0
6
CONTINUOUS
66
1
62
7
10
0.0
20
0.0
30
0.000000
0
VERTEX
8
0
10
398.000000
20
193.000000
0
VERTEX
8
0
10
417.940000
20
196.420000
0
VERTEX
8
0
10
445.100000
20
200.800000
0
VERTEX
8
0
10
454.000000
20
204.000000
0
VERTEX
8
0
10
455.000000
20
204.000000
0
SEQEND
0
POLYLINE
8
0
6
CONTINUOUS
66
1
62
7
10
0.0
20
0.0
30
0.000000
0
VERTEX
8
0
10
337.000000
20
192.000000
0
VERTEX
8
0
10
338.000000
20
195.000000
0
VERTEX
8
0
10
340.900000
20
197.200000
0
VERTEX
8
0
10
342.900000
20
198.200000
0
VERTEX
8
0
10
363.053846
20
202.569231
0
VERTEX
8
0
10
369.946154
20
203.430769
0
VERTEX
8
0
10
377.000000
20
205.000000
0
VERTEX
8
0
10
390.000000
20
205.000000
0
VERTEX
8
0
10
391.000000
20
204.000000
0
SEQEND
0
POLYLINE
8
0
6
CONTINUOUS
66
1
62
7
10
0.0
20
0.0
30
0.000000
0
VERTEX
8
0
10
317.000000
20
191.000000
0
VERTEX
8
0
10
311.000000
20
192.000000
0
VERTEX
8
0
10
310.000000
20
191.000000
0
VERTEX
8
0
10
300.000000
20
192.000000
0
VERTEX
8
0
10
299.000000
20
193.000000
0
VERTEX
8
0
10
300.000000
20
198.000000
0
SEQEND
0
POLYLINE
8
0
6
CONTINUOUS
66
1
62
7
10
0.0
20
0.0
30
0.000000
0
VERTEX
8
0
10
324.000000
20
191.000000
0
VERTEX
8
0
10
322.000000
20
192.000000
0
VERTEX
8
0
10
318.900000
20
191.200000
0
VERTEX
8
0
10
317.000000
20
191.000000
0
SEQEND
0
POLYLINE
8
0
6
CONTINUOUS
66
1
62
7
10
0.0
20
0.0
30
0.000000
0
VERTEX
8
0
10
324.000000
20
191.000000
0
VERTEX
8
0
10
329.000000
20
193.000000
0
VERTEX
8
0
10
331.067568
20
192.405405
0
VERTEX
8
0
10
337.000000
20
192.000000
0
SEQEND
0
POLYLINE
8
0
6
CONTINUOUS
66
1
62
7
10
0.0
20
0.0
30
0.000000
0
VERTEX
8
0
10
141.000000
20
187.000000
0
VERTEX
8
0
10
134.000000
20
199.000000
0
SEQEND
0
POLYLINE
8
0
6
CONTINUOUS
66
1
62
7
10
0.0
20
0.0
30
0.000000
0
VERTEX
8
0
10
141.000000
20
186.000000
0
VERTEX
8
0
10
141.000000
20
187.000000
0
SEQEND
0
POLYLINE
8
0
6
CONTINUOUS
66
1
62
7
10
0.0
20
0.0
30
0.000000
0
VERTEX
8
0
10
207.000000
20
186.000000
0
VERTEX
8
0
10
207.750000
20
186.250000
0
VERTEX
8
0
10
215.200000
20
192.900000
0
VERTEX
8
0
10
216.200000
20
194.900000
0
VERTEX
8
0
10
218.000000
20
219.000000
0
VERTEX
8
0
10
215.647059
20
226.911765
0
VERTEX
8
0
10
213.000000
20
236.000000
0
VERTEX
8
0
10
214.000000
20
256.000000
0
SEQEND
0
POLYLINE
8
0
6
CONTINUOUS
66
1
62
7
10
0.0
20
0.0
30
0.000000
0
VERTEX
8
0
10
82.000000
20
185.000000
0
VERTEX
8
0
10
81.000000
20
185.000000
0
VERTEX
8
0
10
78.769231
20
187.846154
0
VERTEX
8
0
10
68.000000
20
207.000000
0
VERTEX
8
0
10
67.700000
20
208.900000
0
VERTEX
8
0
10
67.000000
20
210.000000
0
VERTEX
8
0
10
69.000000
20
212.000000
0
VERTEX
8
0
10
89.750000
20
218.250000
0
VERTEX
8
0
10
94.000000
20
220.000000
0
VERTEX
8
0
10
109.000000
20
227.000000
0
VERTEX
8
0
10
116.100000
20
230.800000
0
VERTEX
8
0
10
117.000000
20
231.000000
0
SEQEND
0
POLYLINE
8
0
6
CONTINUOUS
66
1
62
7
10
0.0
20
0.0
30
0.000000
0
VERTEX
8
0
10
82.000000
20
185.000000
0
VERTEX
8
0
10
87.000000
20
188.000000
0
VERTEX
8
0
10
95.250000
20
191.750000
0
VERTEX
8
0
10
104.250000
20
199.750000
0
VERTEX
8
0
10
109.000000
20
203.000000
0
VERTEX
8
0
10
112.100000
20
204.800000
0
VERTEX
8
0
10
121.100000
20
210.700000
0
VERTEX
8
0
10
129.000000
20
212.000000
0
SEQEND
0
POLYLINE
8
0
6
CONTINUOUS
66
1
62
7
10
0.0
20
0.0
30
0.000000
0
VERTEX
8
0
10
170.000000
20
185.000000
0
VERTEX
8
0
10
167.946154
20
185.569231
0
VERTEX
8
0
10
143.000000
20
188.000000
0
VERTEX
8
0
10
141.000000
20
187.000000
0
SEQEND
0
POLYLINE
8
0
6
CONTINUOUS
66
1
62
7
10
0.0
20
0.0
30
0.000000
0
VERTEX
8
0
10
170.000000
20
185.000000
0
VERTEX
8
0
10
170.900000
20
185.200000
0
VERTEX
8
0
10
172.000000
20
186.000000
0
VERTEX
8
0
10
184.000000
20
186.000000
0
VERTEX
8
0
10
185.000000
20
185.000000
0
VERTEX
8
0
10
200.000000
20
185.000000
0
VERTEX
8
0
10
203.911765
20
186.352941
0
VERTEX
8
0
10
206.100000
20
186.200000
0
VERTEX
8
0
10
207.000000
20
186.000000
0
SEQEND
0
POLYLINE
8
0
6
CONTINUOUS
66
1
62
7
10
0.0
20
0.0
30
0.000000
0
VERTEX
8
0
10
207.000000
20
184.000000
0
VERTEX
8
0
10
207.000000
20
186.000000
0
SEQEND
0
POLYLINE
8
0
6
CONTINUOUS
66
1
62
7
10
0.0
20
0.0
30
0.000000
0
VERTEX
8
0
10
18.000000
20
181.000000
0
VERTEX
8
0
10
18.200000
20
181.900000
0
VERTEX
8
0
10
30.000000
20
204.000000
0
SEQEND
0
POLYLINE
8
0
6
CONTINUOUS
66
1
62
7
10
0.0
20
0.0
30
0.000000
0
VERTEX
8
0
10
340.000000
20
178.000000
0
VERTEX
8
0
10
337.000000
20
192.000000
0
SEQEND
0
POLYLINE
8
0
6
CONTINUOUS
66
1
62
7
10
0.0
20
0.0
30
0.000000
0
VERTEX
8
0
10
318.000000
20
177.000000
0
VERTEX
8
0
10
317.000000
20
191.000000
0
SEQEND
0
POLYLINE
8
0
6
CONTINUOUS
66
1
62
7
10
0.0
20
0.0
30
0.000000
0
VERTEX
8
0
10
324.000000
20
177.000000
0
VERTEX
8
0
10
323.000000
20
181.000000
0
VERTEX
8
0
10
323.000000
20
187.000000
0
VERTEX
8
0
10
324.000000
20
191.000000
0
SEQEND
0
POLYLINE
8
0
6
CONTINUOUS
66
1
62
7
10
0.0
20
0.0
30
0.000000
0
VERTEX
8
0
10
300.000000
20
198.000000
0
VERTEX
8
0
10
297.100000
20
197.700000
0
VERTEX
8
0
10
293.250000
20
195.750000
0
VERTEX
8
0
10
290.000000
20
192.000000
0
VERTEX
8
0
10
290.000000
20
182.000000
0
VERTEX
8
0
10
291.700000
20
178.900000
0
VERTEX
8
0
10
292.000000
20
177.000000
0
VERTEX
8
0
10
293.000000
20
176.000000
0
VERTEX
8
0
10
314.000000
20
176.000000
0
VERTEX
8
0
10
317.000000
20
177.000000
0
VERTEX
8
0
10
318.000000
20
177.000000
0
SEQEND
0
POLYLINE
8
0
6
CONTINUOUS
66
1
62
7
10
0.0
20
0.0
30
0.000000
0
VERTEX
8
0
10
322.000000
20
176.000000
0
VERTEX
8
0
10
318.000000
20
177.000000
0
SEQEND
0
POLYLINE
8
0
6
CONTINUOUS
66
1
62
7
10
0.0
20
0.0
30
0.000000
0
VERTEX
8
0
10
322.000000
20
176.000000
0
VERTEX
8
0
10
324.000000
20
177.000000
0
SEQEND
0
POLYLINE
8
0
6
CONTINUOUS
66
1
62
7
10
0.0
20
0.0
30
0.000000
0
VERTEX
8
0
10
335.000000
20
176.000000
0
VERTEX
8
0
10
324.000000
20
177.000000
0
SEQEND
0
POLYLINE
8
0
6
CONTINUOUS
66
1
62
7
10
0.0
20
0.0
30
0.000000
0
VERTEX
8
0
10
335.000000
20
176.000000
0
VERTEX
8
0
10
340.000000
20
178.000000
0
SEQEND
0
POLYLINE
8
0
6
CONTINUOUS
66
1
62
7
10
0.0
20
0.0
30
0.000000
0
VERTEX
8
0
10
91.000000
20
173.000000
0
VERTEX
8
0
10
89.000000
20
174.000000
0
VERTEX
8
0
10
82.200000
20
183.100000
0
VERTEX
8
0
10
82.000000
20
185.000000
0
SEQEND
0
POLYLINE
8
0
6
CONTINUOUS
66
1
62
7
10
0.0
20
0.0
30
0.000000
0
VERTEX
8
0
10
91.000000
20
173.000000
0
VERTEX
8
0
10
100.195122
20
180.756098
0
VERTEX
8
0
10
106.100000
20
183.800000
0
VERTEX
8
0
10
108.100000
20
184.800000
0
VERTEX
8
0
10
123.250000
20
192.750000
0
VERTEX
8
0
10
134.000000
20
199.000000
0
SEQEND
0
POLYLINE
8
0
6
CONTINUOUS
66
1
62
7
10
0.0
20
0.0
30
0.000000
0
VERTEX
8
0
10
204.000000
20
171.000000
0
VERTEX
8
0
10
204.420000
20
177.940000
0
VERTEX
8
0
10
206.300000
20
182.900000
0
VERTEX
8
0
10
207.000000
20
184.000000
0
SEQEND
0
POLYLINE
8
0
6
CONTINUOUS
66
1
62
7
10
0.0
20
0.0
30
0.000000
0
VERTEX
8
0
10
193.000000
20
170.000000
0
VERTEX
8
0
10
191.900000
20
170.700000
0
VERTEX
8
0
10
181.923077
20
172.615385
0
VERTEX
8
0
10
173.000000
20
175.000000
0
VERTEX
8
0
10
171.000000
20
177.000000
0
VERTEX
8
0
10
170.000000
20
185.000000
0
SEQEND
0
POLYLINE
8
0
6
CONTINUOUS
66
1
62
7
10
0.0
20
0.0
30
0.000000
0
VERTEX
8
0
10
193.000000
20
170.000000
0
VERTEX
8
0
10
204.000000
20
171.000000
0
SEQEND
0
POLYLINE
8
0
6
CONTINUOUS
66
1
62
7
10
0.0
20
0.0
30
0.000000
0
VERTEX
8
0
10
193.000000
20
169.000000
0
VERTEX
8
0
10
193.000000
20
170.000000
0
SEQEND
0
POLYLINE
8
0
6
CONTINUOUS
66
1
62
7
10
0.0
20
0.0
30
0.000000
0
VERTEX
8
0
10
413.000000
20
168.000000
0
VERTEX
8
0
10
436.959016
20
171.450820
0
VERTEX
8
0
10
446.900000
20
175.300000
0
VERTEX
8
0
10
455.000000
20
178.000000
0
SEQEND
0
POLYLINE
8
0
6
CONTINUOUS
66
1
62
7
10
0.0
20
0.0
30
0.000000
0
VERTEX
8
0
10
449.000000
20
161.000000
0
VERTEX
8
0
10
449.700000
20
162.100000
0
VERTEX
8
0
10
449.750000
20
164.750000
0
VERTEX
8
0
10
449.000000
20
165.000000
0
VERTEX
8
0
10
447.000000
20
165.000000
0
VERTEX
8
0
10
445.800000
20
163.100000
0
VERTEX
8
0
10
445.000000
20
162.000000
0
VERTEX
8
0
10
446.000000
20
161.000000
0
VERTEX
8
0
10
449.000000
20
161.000000
0
SEQEND
0
POLYLINE
8
0
6
CONTINUOUS
66
1
62
7
10
0.0
20
0.0
30
0.000000
0
VERTEX
8
0
10
161.000000
20
145.000000
0
VERTEX
8
0
10
160.200000
20
150.100000
0
VERTEX
8
0
10
142.750000
20
182.750000
0
VERTEX
8
0
10
141.000000
20
186.000000
0
SEQEND
0
POLYLINE
8
0
6
CONTINUOUS
66
1
62
7
10
0.0
20
0.0
30
0.000000
0
VERTEX
8
0
10
324.000000
20
141.000000
0
VERTEX
8
0
10
324.300000
20
142.900000
0
VERTEX
8
0
10
334.580000
20
170.060000
0
VERTEX
8
0
10
335.000000
20
176.000000
0
SEQEND
0
POLYLINE
8
0
6
CONTINUOUS
66
1
62
7
10
0.0
20
0.0
30
0.000000
0
VERTEX
8
0
10
308.000000
20
140.000000
0
VERTEX
8
0
10
308.439024
20
147.951220
0
VERTEX
8
0
10
322.000000
20
175.000000
0
VERTEX
8
0
10
322.000000
20
176.000000
0
SEQEND
0
POLYLINE
8
0
6
CONTINUOUS
66
1
62
7
10
0.0
20
0.0
30
0.000000
0
VERTEX
8
0
10
228.000000
20
138.000000
0
VERTEX
8
0
10
228.000000
20
140.000000
0
VERTEX
8
0
10
208.000000
20
184.000000
0
VERTEX
8
0
10
207.000000
20
184.000000
0
SEQEND
0
POLYLINE
8
0
6
CONTINUOUS
66
1
62
7
10
0.0
20
0.0
30
0.000000
0
VERTEX
8
0
10
402.000000
20
132.000000
0
VERTEX
8
0
10
398.700000
20
147.900000
0
VERTEX
8
0
10
392.430769
20
177.053846
0
VERTEX
8
0
10
391.439024
20
185.048780
0
VERTEX
8
0
10
390.000000
20
198.000000
0
VERTEX
8
0
10
391.000000
20
204.000000
0
SEQEND
0
POLYLINE
8
0
6
CONTINUOUS
66
1
62
7
10
0.0
20
0.0
30
0.000000
0
VERTEX
8
0
10
402.000000
20
132.000000
0
VERTEX
8
0
10
404.000000
20
132.000000
0
VERTEX
8
0
10
406.000000
20
134.000000
0
VERTEX
8
0
10
406.000000
20
136.000000
0
VERTEX
8
0
10
397.647059
20
183.911765
0
VERTEX
8
0
10
397.000000
20
185.000000
0
VERTEX
8
0
10
397.000000
20
191.000000
0
VERTEX
8
0
10
398.000000
20
193.000000
0
SEQEND
0
POLYLINE
8
0
6
CONTINUOUS
66
1
62
7
10
0.0
20
0.0
30
0.000000
0
VERTEX
8
0
10
128.000000
20
131.000000
0
VERTEX
8
0
10
118.752941
20
142.788235
0
VERTEX
8
0
10
112.000000
20
151.000000
0
VERTEX
8
0
10
111.000000
20
151.000000
0
VERTEX
8
0
10
91.000000
20
173.000000
0
SEQEND
0
POLYLINE
8
0
6
CONTINUOUS
66
1
62
7
10
0.0
20
0.0
30
0.000000
0
VERTEX
8
0
10
128.000000
20
131.000000
0
VERTEX
8
0
10
129.100000
20
131.800000
0
VERTEX
8
0
10
137.088235
20
133.647059
0
VERTEX
8
0
10
150.900000
20
138.200000
0
VERTEX
8
0
10
161.000000
20
145.000000
0
SEQEND
0
POLYLINE
8
0
6
CONTINUOUS
66
1
62
7
10
0.0
20
0.0
30
0.000000
0
VERTEX
8
0
10
376.000000
20
128.000000
0
VERTEX
8
0
10
374.000000
20
129.000000
0
VERTEX
8
0
10
358.951220
20
128.439024
0
VERTEX
8
0
10
351.000000
20
128.000000
0
VERTEX
8
0
10
349.800000
20
128.900000
0
VERTEX
8
0
10
347.647059
20
134.911765
0
VERTEX
8
0
10
345.560976
20
146.951220
0
VERTEX
8
0
10
345.405405
20
148.067568
0
VERTEX
8
0
10
340.647059
20
176.911765
0
VERTEX
8
0
10
340.000000
20
178.000000
0
SEQEND
0
POLYLINE
8
0
6
CONTINUOUS
66
1
62
7
10
0.0
20
0.0
30
0.000000
0
VERTEX
8
0
10
376.000000
20
128.000000
0
VERTEX
8
0
10
376.250000
20
128.750000
0
VERTEX
8
0
10
400.900000
20
131.200000
0
VERTEX
8
0
10
402.000000
20
132.000000
0
SEQEND
0
POLYLINE
8
0
6
CONTINUOUS
66
1
62
7
10
0.0
20
0.0
30
0.000000
0
VERTEX
8
0
10
213.000000
20
125.000000
0
VERTEX
8
0
10
212.000000
20
125.000000
0
VERTEX
8
0
10
206.647059
20
140.911765
0
VERTEX
8
0
10
206.300000
20
142.100000
0
VERTEX
8
0
10
203.760000
20
148.820000
0
VERTEX
8
0
10
201.240000
20
152.180000
0
VERTEX
8
0
10
193.000000
20
169.000000
0
SEQEND
0
POLYLINE
8
0
6
CONTINUOUS
66
1
62
7
10
0.0
20
0.0
30
0.000000
0
VERTEX
8
0
10
213.000000
20
125.000000
0
VERTEX
8
0
10
214.000000
20
126.000000
0
VERTEX
8
0
10
214.000000
20
141.000000
0
VERTEX
8
0
10
213.000000
20
146.000000
0
VERTEX
8
0
10
212.750000
20
146.750000
0
VERTEX
8
0
10
207.200000
20
164.100000
0
VERTEX
8
0
10
204.000000
20
171.000000
0
SEQEND
0
POLYLINE
8
0
6
CONTINUOUS
66
1
62
7
10
0.0
20
0.0
30
0.000000
0
VERTEX
8
0
10
131.000000
20
119.000000
0
VERTEX
8
0
10
128.000000
20
131.000000
0
SEQEND
0
POLYLINE
8
0
6
CONTINUOUS
66
1
62
7
10
0.0
20
0.0
30
0.000000
0
VERTEX
8
0
10
194.000000
20
94.000000
0
VERTEX
8
0
10
195.000000
20
95.000000
0
VERTEX
8
0
10
194.352941
20
97.088235
0
VERTEX
8
0
10
193.647059
20
99.911765
0
VERTEX
8
0
10
187.769231
20
115.846154
0
VERTEX
8
0
10
183.240000
20
122.180000
0
VERTEX
8
0
10
177.250000
20
128.250000
0
VERTEX
8
0
10
161.000000
20
145.000000
0
SEQEND
0
POLYLINE
8
0
6
CONTINUOUS
66
1
62
7
10
0.0
20
0.0
30
0.000000
0
VERTEX
8
0
10
144.000000
20
78.000000
0
VERTEX
8
0
10
140.700000
20
85.900000
0
VERTEX
8
0
10
136.420000
20
105.060000
0
VERTEX
8
0
10
135.352941
20
112.088235
0
VERTEX
8
0
10
134.000000
20
117.000000
0
VERTEX
8
0
10
132.000000
20
119.000000
0
VERTEX
8
0
10
131.000000
20
119.000000
0
SEQEND
0
POLYLINE
8
0
6
CONTINUOUS
66
1
62
7
10
0.0
20
0.0
30
0.000000
0
VERTEX
8
0
10
144.000000
20
78.000000
0
VERTEX
8
0
10
162.932432
20
81.405405
0
VERTEX
8
0
10
181.750000
20
89.250000
0
VERTEX
8
0
10
182.250000
20
89.750000
0
VERTEX
8
0
10
194.000000
20
94.000000
0
SEQEND
0
POLYLINE
8
0
6
CONTINUOUS
66
1
62
7
10
0.0
20
0.0
30
0.000000
0
VERTEX
8
0
10
198.000000
20
68.000000
0
VERTEX
8
0
10
197.549180
20
78.959016
0
VERTEX
8
0
10
195.750000
20
92.750000
0
VERTEX
8
0
10
194.000000
20
94.000000
0
SEQEND
0
POLYLINE
8
0
6
CONTINUOUS
66
1
62
7
10
0.0
20
0.0
30
0.000000
0
VERTEX
8
0
10
174.000000
20
65.000000
0
VERTEX
8
0
10
178.900000
20
67.200000
0
VERTEX
8
0
10
186.750000
20
69.250000
0
VERTEX
8
0
10
187.000000
20
70.000000
0
VERTEX
8
0
10
186.000000
20
73.000000
0
VERTEX
8
0
10
183.000000
20
76.000000
0
VERTEX
8
0
10
175.750000
20
78.750000
0
VERTEX
8
0
10
175.250000
20
79.250000
0
VERTEX
8
0
10
173.000000
20
80.000000
0
VERTEX
8
0
10
169.000000
20
76.000000
0
VERTEX
8
0
10
167.800000
20
68.900000
0
VERTEX
8
0
10
168.200000
20
68.100000
0
VERTEX
8
0
10
170.000000
20
65.000000
0
VERTEX
8
0
10
174.000000
20
65.000000
0
SEQEND
0
POLYLINE
8
0
6
CONTINUOUS
66
1
62
7
10
0.0
20
0.0
30
0.000000
0
VERTEX
8
0
10
150.000000
20
59.000000
0
VERTEX
8
0
10
148.800000
20
60.900000
0
VERTEX
8
0
10
144.300000
20
75.100000
0
VERTEX
8
0
10
144.000000
20
78.000000
0
SEQEND
0
POLYLINE
8
0
6
CONTINUOUS
66
1
62
7
10
0.0
20
0.0
30
0.000000
0
VERTEX
8
0
10
150.000000
20
59.000000
0
VERTEX
8
0
10
152.000000
20
60.000000
0
VERTEX
8
0
10
160.923077
20
58.615385
0
VERTEX
8
0
10
162.000000
20
58.000000
0
VERTEX
8
0
10
174.000000
20
58.000000
0
VERTEX
8
0
10
192.000000
20
66.000000
0
VERTEX
8
0
10
197.000000
20
68.000000
0
VERTEX
8
0
10
198.000000
20
68.000000
0
SEQEND
0
POLYLINE
8
0
6
CONTINUOUS
66
1
62
7
10
0.0
20
0.0
30
0.000000
0
VERTEX
8
0
10
260.000000
20
54.000000
0
VERTEX
8
0
10
247.250000
20
75.250000
0
VERTEX
8
0
10
239.405405
20
98.067568
0
VERTEX
8
0
10
239.000000
20
103.000000
0
VERTEX
8
0
10
231.000000
20
129.000000
0
VERTEX
8
0
10
230.000000
20
133.000000
0
SEQEND
0
POLYLINE
8
0
6
CONTINUOUS
66
1
62
7
10
0.0
20
0.0
30
0.000000
0
VERTEX
8
0
10
159.000000
20
47.000000
0
VERTEX
8
0
10
159.000000
20
50.000000
0
SEQEND
0
POLYLINE
8
0
6
CONTINUOUS
66
1
62
7
10
0.0
20
0.0
30
0.000000
0
VERTEX
8
0
10
150.000000
20
59.000000
0
VERTEX
8
0
10
151.000000
20
49.000000
0
VERTEX
8
0
10
155.000000
20
46.000000
0
VERTEX
8
0
10
159.000000
20
47.000000
0
SEQEND
0
POLYLINE
8
0
6
CONTINUOUS
66
1
62
7
10
0.0
20
0.0
30
0.000000
0
VERTEX
8
0
10
174.000000
20
46.000000
0
VERTEX
8
0
10
174.000000
20
49.000000
0
SEQEND
0
POLYLINE
8
0
6
CONTINUOUS
66
1
62
7
10
0.0
20
0.0
30
0.000000
0
VERTEX
8
0
10
159.000000
20
47.000000
0
VERTEX
8
0
10
164.000000
20
43.000000
0
VERTEX
8
0
10
167.000000
20
42.000000
0
VERTEX
8
0
10
174.000000
20
46.000000
0
SEQEND
0
POLYLINE
8
0
6
CONTINUOUS
66
1
62
7
10
0.0
20
0.0
30
0.000000
0
VERTEX
8
0
10
174.000000
20
46.000000
0
VERTEX
8
0
10
175.000000
20
46.000000
0
VERTEX
8
0
10
176.200000
20
44.100000
0
VERTEX
8
0
10
176.800000
20
42.900000
0
VERTEX
8
0
10
180.000000
20
40.000000
0
VERTEX
8
0
10
183.000000
20
40.000000
0
VERTEX
8
0
10
186.200000
20
41.900000
0
VERTEX
8
0
10
187.900000
20
44.200000
0
VERTEX
8
0
10
190.100000
20
44.200000
0
VERTEX
8
0
10
191.000000
20
43.000000
0
VERTEX
8
0
10
193.000000
20
41.000000
0
VERTEX
8
0
10
196.000000
20
41.000000
0
VERTEX
8
0
10
200.000000
20
46.000000
0
VERTEX
8
0
10
200.000000
20
56.000000
0
VERTEX
8
0
10
198.000000
20
67.000000
0
VERTEX
8
0
10
198.000000
20
68.000000
0
SEQEND
0
POLYLINE
8
0
6
CONTINUOUS
66
1
62
7
10
0.0
20
0.0
30
0.000000
0
VERTEX
8
0
10
454.000000
20
30.000000
0
VERTEX
8
0
10
454.647059
20
33.088235
0
VERTEX
8
0
10
457.569231
20
55.053846
0
VERTEX
8
0
10
458.430769
20
61.946154
0
VERTEX
8
0
10
462.200000
20
75.900000
0
VERTEX
8
0
10
467.300000
20
87.900000
0
VERTEX
8
0
10
471.000000
20
107.000000
0
VERTEX
8
0
10
469.513141
20
149.987516
0
VERTEX
8
0
10
466.700000
20
176.900000
0
VERTEX
8
0
10
465.647059
20
180.911765
0
VERTEX
8
0
10
460.200000
20
190.100000
0
VERTEX
8
0
10
455.000000
20
204.000000
0
SEQEND
0
POLYLINE
8
0
6
CONTINUOUS
66
1
62
7
10
0.0
20
0.0
30
0.000000
0
VERTEX
8
0
10
179.000000
20
19.000000
0
VERTEX
8
0
10
178.000000
20
36.000000
0
SEQEND
0
POLYLINE
8
0
6
CONTINUOUS
66
1
62
7
10
0.0
20
0.0
30
0.000000
0
VERTEX
8
0
10
213.000000
20
125.000000
0
VERTEX
8
0
10
211.700000
20
118.100000
0
VERTEX
8
0
10
208.250000
20
88.750000
0
VERTEX
8
0
10
207.000000
20
78.000000
0
VERTEX
8
0
10
207.000000
20
65.000000
0
VERTEX
8
0
10
211.300000
20
39.100000
0
VERTEX
8
0
10
216.700000
20
23.900000
0
VERTEX
8
0
10
219.250000
20
18.250000
0
VERTEX
8
0
10
252.923077
20
25.384615
0
VERTEX
8
0
10
266.750000
20
28.250000
0
VERTEX
8
0
10
260.000000
20
54.000000
0
SEQEND
0
POLYLINE
8
0
6
CONTINUOUS
66
1
62
7
10
0.0
20
0.0
30
0.000000
0
VERTEX
8
0
10
180.000000
20
7.000000
0
VERTEX
8
0
10
180.000000
20
14.000000
0
SEQEND
0
POLYLINE
8
0
6
CONTINUOUS
66
1
62
7
10
0.0
20
0.0
30
0.000000
0
VERTEX
8
0
10
366.000000
20
7.000000
0
VERTEX
8
0
10
365.000000
20
9.000000
0
VERTEX
8
0
10
369.594595
20
30.067568
0
VERTEX
8
0
10
370.405405
20
34.932432
0
VERTEX
8
0
10
377.700000
20
75.100000
0
VERTEX
8
0
10
378.300000
20
76.900000
0
VERTEX
8
0
10
379.000000
20
78.000000
0
VERTEX
8
0
10
379.000000
20
93.000000
0
VERTEX
8
0
10
375.000000
20
126.000000
0
VERTEX
8
0
10
376.000000
20
128.000000
0
SEQEND
0
POLYLINE
8
0
6
CONTINUOUS
66
1
62
7
10
0.0
20
0.0
30
0.000000
0
VERTEX
8
0
10
67.000000
20
6.000000
0
VERTEX
8
0
10
66.569231
20
13.946154
0
VERTEX
8
0
10
62.420000
20
101.060000
0
VERTEX
8
0
10
60.580000
20
113.940000
0
VERTEX
8
0
10
55.464602
20
140.030973
0
VERTEX
8
0
10
54.000000
20
161.000000
0
VERTEX
8
0
10
58.384615
20
181.923077
0
VERTEX
8
0
10
60.000000
20
192.000000
0
SEQEND
0
POLYLINE
8
0
6
CONTINUOUS
66
1
62
7
10
0.0
20
0.0
30
0.000000
0
VERTEX
8
0
10
133.000000
20
6.000000
0
VERTEX
8
0
10
130.000000
20
20.000000
0
VERTEX
8
0
10
131.000000
20
113.000000
0
VERTEX
8
0
10
130.000000
20
114.000000
0
VERTEX
8
0
10
131.000000
20
119.000000
0
SEQEND
0
POLYLINE
8
0
6
CONTINUOUS
66
1
62
7
10
0.0
20
0.0
30
0.000000
0
VERTEX
8
0
10
296.000000
20
170.000000
0
VERTEX
8
0
10
294.000000
20
162.000000
0
VERTEX
8
0
10
294.527624
20
147.975138
0
VERTEX
8
0
10
296.464602
20
115.030973
0
VERTEX
8
0
10
297.300000
20
112.100000
0
VERTEX
8
0
10
297.700000
20
110.900000
0
VERTEX
8
0
10
300.531034
20
94.972414
0
VERTEX
8
0
10
301.468966
20
79.027586
0
VERTEX
8
0
10
303.517241
20
72.206897
0
VERTEX
8
0
10
305.400000
20
68.200000
0
VERTEX
8
0
10
310.000000
20
59.000000
0
VERTEX
8
0
10
310.000000
20
26.000000
0
VERTEX
8
0
10
309.000000
20
25.000000
0
VERTEX
8
0
10
309.580000
20
14.940000
0
VERTEX
8
0
10
311.000000
20
7.000000
0
VERTEX
8
0
10
312.000000
20
6.000000
0
VERTEX
8
0
10
365.000000
20
6.000000
0
VERTEX
8
0
10
366.000000
20
7.000000
0
SEQEND
0
POLYLINE
8
0
6
CONTINUOUS
66
1
62
7
10
0.0
20
0.0
30
0.000000
0
VERTEX
8
0
10
14.000000
20
173.000000
0
VERTEX
8
0
10
13.250000
20
170.750000
0
VERTEX
8
0
10
10.000000
20
158.000000
0
VERTEX
8
0
10
10.481529
20
131.017197
0
VERTEX
8
0
10
11.384615
20
126.076923
0
VERTEX
8
0
10
16.250000
20
113.250000
0
VERTEX
8
0
10
22.300000
20
98.100000
0
VERTEX
8
0
10
34.250000
20
77.250000
0
VERTEX
8
0
10
40.750000
20
63.750000
0
VERTEX
8
0
10
43.455172
20
40.037931
0
VERTEX
8
0
10
46.250000
20
6.250000
0
VERTEX
8
0
10
48.000000
20
5.000000
0
VERTEX
8
0
10
55.000000
20
7.000000
0
VERTEX
8
0
10
62.000000
20
7.000000
0
VERTEX
8
0
10
67.000000
20
6.000000
0
SEQEND
0
POLYLINE
8
0
6
CONTINUOUS
66
1
62
7
10
0.0
20
0.0
30
0.000000
0
VERTEX
8
0
10
67.000000
20
6.000000
0
VERTEX
8
0
10
78.962069
20
5.544828
0
VERTEX
8
0
10
132.000000
20
5.000000
0
VERTEX
8
0
10
133.000000
20
6.000000
0
SEQEND
0
POLYLINE
8
0
6
CONTINUOUS
66
1
62
7
10
0.0
20
0.0
30
0.000000
0
VERTEX
8
0
10
133.000000
20
6.000000
0
VERTEX
8
0
10
134.000000
20
5.000000
0
VERTEX
8
0
10
179.750000
20
6.250000
0
VERTEX
8
0
10
180.000000
20
7.000000
0
SEQEND
0
POLYLINE
8
0
6
CONTINUOUS
66
1
62
7
10
0.0
20
0.0
30
0.000000
0
VERTEX
8
0
10
448.000000
20
5.000000
0
VERTEX
8
0
10
438.044554
20
6.445545
0
VERTEX
8
0
10
371.932432
20
6.594595
0
VERTEX
8
0
10
366.000000
20
7.000000
0
SEQEND
0
POLYLINE
8
0
6
CONTINUOUS
66
1
62
7
10
0.0
20
0.0
30
0.000000
0
VERTEX
8
0
10
448.000000
20
5.000000
0
VERTEX
8
0
10
448.750000
20
5.250000
0
VERTEX
8
0
10
452.647059
20
23.088235
0
VERTEX
8
0
10
453.000000
20
26.000000
0
SEQEND
0
POLYLINE
8
0
6
CONTINUOUS
66
1
62
7
10
0.0
20
0.0
30
0.000000
0
VERTEX
8
0
10
180.000000
20
7.000000
0
VERTEX
8
0
10
251.000000
20
4.000000
0
VERTEX
8
0
10
266.923077
20
6.384615
0
VERTEX
8
0
10
282.750000
20
7.250000
0
VERTEX
8
0
10
282.647059
20
10.911765
0
VERTEX
8
0
10
281.352941
20
15.088235
0
VERTEX
8
0
10
275.200000
20
30.100000
0
VERTEX
8
0
10
272.200000
20
38.100000
0
VERTEX
8
0
10
266.760000
20
47.820000
0
VERTEX
8
0
10
264.000000
20
52.000000
0
VERTEX
8
0
10
262.100000
20
53.200000
0
VERTEX
8
0
10
260.000000
20
54.000000
0
SEQEND
0
POLYLINE
8
0
6
CONTINUOUS
66
1
62
7
10
0.0
20
0.0
30
0.000000
0
VERTEX
8
0
10
448.000000
20
3.000000
0
VERTEX
8
0
10
448.000000
20
5.000000
0
SEQEND
0
ENDSEC
0
EOF
