  0
SECTION
  2
HEADER
  9
$ACADVER
  1
AC1015
  9
$ACADMAINTVER
 70
     6
  9
$DWGCODEPAGE
  3
DOS850
  9
$INSBASE
 10
0.0
 20
0.0
 30
0.0
  9
$EXTMIN
 10
-1.996055
 20
0.107079
 30
1.000000E+20
  9
$EXTMAX
 10
2.336453
 20
3.776256
 30
-1.000000E+20
  9
$LIMMIN
 10
0.0
 20
0.0
  9
$LIMMAX
 10
0.0
 20
0.0
  9
$ORTHOMODE
 70
     0
  9
$REGENMODE
 70
     1
  9
$FILLMODE
 70
     1
  9
$QTEXTMODE
 70
     0
  9
$MIRRTEXT
 70
     1
  9
$LTSCALE
 40
1.0
  9
$ATTMODE
 70
     1
  9
$TEXTSIZE
 40
0.2
  9
$TRACEWID
 40
0.05
  9
$TEXTSTYLE
  7
Standard
  9
$CLAYER
  8
0
  9
$CELTYPE
  6
Continuous
  9
$CECOLOR
 62
   256
  9
$CELTSCALE
 40
1.0
  9
$DISPSILH
 70
     0
  9
$DIMSCALE
 40
1.0
  9
$DIMASZ
 40
0.18
  9
$DIMEXO
 40
0.0625
  9
$DIMDLI
 40
0.38
  9
$DIMRND
 40
0.0
  9
$DIMDLE
 40
0.0
  9
$DIMEXE
 40
0.18
  9
$DIMTP
 40
0.0
  9
$DIMTM
 40
0.0
  9
$DIMTXT
 40
0.18
  9
$DIMCEN
 40
0.09
  9
$DIMTSZ
 40
0.0
  9
$DIMTOL
 70
     0
  9
$DIMLIM
 70
     0
  9
$DIMTIH
 70
     1
  9
$DIMTOH
 70
     1
  9
$DIMSE1
 70
     0
  9
$DIMSE2
 70
     0
  9
$DIMTAD
 70
     0
  9
$DIMZIN
 70
     0
  9
$DIMBLK
  1

  9
$DIMASO
 70
     1
  9
$DIMSHO
 70
     1
  9
$DIMPOST
  1

  9
$DIMAPOST
  1

  9
$DIMALT
 70
     0
  9
$DIMALTD
 70
     2
  9
$DIMALTF
 40
25.4
  9
$DIMLFAC
 40
1.0
  9
$DIMTOFL
 70
     0
  9
$DIMTVP
 40
0.0
  9
$DIMTIX
 70
     0
  9
$DIMSOXD
 70
     0
  9
$DIMSAH
 70
     0
  9
$DIMBLK1
  1

  9
$DIMBLK2
  1

  9
$DIMSTYLE
  2
Standard
  9
$DIMCLRD
 70
     0
  9
$DIMCLRE
 70
     0
  9
$DIMCLRT
 70
     0
  9
$DIMTFAC
 40
1.0
  9
$DIMGAP
 40
0.09
  9
$DIMJUST
 70
     0
  9
$DIMSD1
 70
     0
  9
$DIMSD2
 70
     0
  9
$DIMTOLJ
 70
     1
  9
$DIMTZIN
 70
     0
  9
$DIMALTZ
 70
     0
  9
$DIMALTTZ
 70
     0
  9
$DIMUPT
 70
     0
  9
$DIMDEC
 70
     4
  9
$DIMTDEC
 70
     4
  9
$DIMALTU
 70
     2
  9
$DIMALTTD
 70
     2
  9
$DIMTXSTY
  7
Standard
  9
$DIMAUNIT
 70
     0
  9
$DIMADEC
 70
     0
  9
$DIMALTRND
 40
0.0
  9
$DIMAZIN
 70
     0
  9
$DIMDSEP
 70
     0
  9
$DIMATFIT
 70
     3
  9
$DIMFRAC
 70
     0
  9
$DIMLDRBLK
  1

  9
$DIMLUNIT
 70
     2
  9
$DIMLWD
 70
     0
  9
$DIMLWE
 70
     0
  9
$DIMTMOVE
 70
     0
  9
$LUNITS
 70
     2
  9
$LUPREC
 70
     4
  9
$SKETCHINC
 40
0.1
  9
$FILLETRAD
 40
0.0
  9
$AUNITS
 70
     0
  9
$AUPREC
 70
     0
  9
$MENU
  1
acad
  9
$ELEVATION
 40
0.0
  9
$PELEVATION
 40
0.0
  9
$THICKNESS
 40
0.0
  9
$LIMCHECK
 70
     0
  9
$CHAMFERA
 40
0.0
  9
$CHAMFERB
 40
0.0
  9
$CHAMFERC
 40
0.0
  9
$CHAMFERD
 40
0.0
  9
$SKPOLY
 70
     0
  9
$TDCREATE
 40
0.000000000
  9
$TDUCREATE
 40
0.000000000
  9
$TDUPDATE
 40
0.000000000
  9
$TDUUPDATE
 40
0.000000000
  9
$TDINDWG
 40
0.0000000000
  9
$TDUSRTIMER
 40
0.0000000000
  9
$USRTIMER
 70
     1
  9
$ANGBASE
 50
0.0
  9
$ANGDIR
 70
     0
  9
$PDMODE
 70
     0
  9
$PDSIZE
 40
0.0
  9
$PLINEWID
 40
0.0
  9
$SPLFRAME
 70
     0
  9
$SPLINETYPE
 70
     6
  9
$SPLINESEGS
 70
     8
  9
$HANDSEED
  5
2F
  9
$SURFTAB1
 70
     6
  9
$SURFTAB2
 70
     6
  9
$SURFTYPE
 70
     6
  9
$SURFU
 70
     6
  9
$SURFV
 70
     6
  9
$UCSBASE
  2

  9
$UCSNAME
  2

  9
$UCSORG
 10
0.0
 20
0.0
 30
0.0
  9
$UCSXDIR
 10
1.0
 20
0.0
 30
0.0
  9
$UCSYDIR
 10
0.0
 20
1.0
 30
0.0
  9
$UCSORTHOREF
  2

  9
$UCSORTHOVIEW
 70
     0
  9
$UCSORGTOP
 10
0.0
 20
0.0
 30
0.0
  9
$UCSORGBOTTOM
 10
0.0
 20
0.0
 30
0.0
  9
$UCSORGLEFT
 10
0.0
 20
0.0
 30
0.0
  9
$UCSORGRIGHT
 10
0.0
 20
0.0
 30
0.0
  9
$UCSORGFRONT
 10
0.0
 20
0.0
 30
0.0
  9
$UCSORGBACK
 10
0.0
 20
0.0
 30
0.0
  9
$PUCSBASE
  2

  9
$PUCSNAME
  2

  9
$PUCSORG
 10
0.0
 20
0.0
 30
0.0
  9
$PUCSXDIR
 10
1.0
 20
0.0
 30
0.0
  9
$PUCSYDIR
 10
0.0
 20
1.0
 30
0.0
  9
$PUCSORTHOREF
  2

  9
$PUCSORTHOVIEW
 70
     0
  9
$PUCSORGTOP
 10
0.0
 20
0.0
 30
0.0
  9
$PUCSORGBOTTOM
 10
0.0
 20
0.0
 30
0.0
  9
$PUCSORGLEFT
 10
0.0
 20
0.0
 30
0.0
  9
$PUCSORGRIGHT
 10
0.0
 20
0.0
 30
0.0
  9
$PUCSORGFRONT
 10
0.0
 20
0.0
 30
0.0
  9
$PUCSORGBACK
 10
0.0
 20
0.0
 30
0.0
  9
$USERI1
 70
     0
  9
$USERI2
 70
     0
  9
$USERI3
 70
     0
  9
$USERI4
 70
     0
  9
$USERI5
 70
     0
  9
$USERR1
 40
0.0
  9
$USERR2
 40
0.0
  9
$USERR3
 40
0.0
  9
$USERR4
 40
0.0
  9
$USERR5
 40
0.0
  9
$WORLDVIEW
 70
     1
  9
$SHADEDGE
 70
     3
  9
$SHADEDIF
 70
    70
  9
$TILEMODE
 70
     1
  9
$MAXACTVP
 70
    16
  9
$PINSBASE
 10
0.0
 20
0.0
 30
0.0
  9
$PLIMCHECK
 70
     0
  9
$PEXTMIN
 10
1.000000E+20
 20
1.000000E+20
 30
1.000000E+20
  9
$PEXTMAX
 10
-1.000000E+20
 20
-1.000000E+20
 30
-1.000000E+20
  9
$PLIMMIN
 10
0.0
 20
0.0
  9
$PLIMMAX
 10
12.0
 20
9.0
  9
$UNITMODE
 70
     0
  9
$VISRETAIN
 70
     0
  9
$PLINEGEN
 70
     1
  9
$PSLTSCALE
 70
     0
  9
$TREEDEPTH
 70
  3020
  9
$CMLSTYLE
  2
Standard
  9
$CMLJUST
 70
     0
  9
$CMLSCALE
 40
1.0
  9
$PROXYGRAPHICS
 70
     0
  9
$MEASUREMENT
 70
     0
  9
$CELWEIGHT
370
     0
  9
$ENDCAPS
280
     0
  9
$JOINSTYLE
280
     0
  9
$LWDISPLAY
290
     0
  9
$INSUNITS
 70
     1
  9
$HYPERLINKBASE
  1

  9
$XEDIT
290
     1
  9
$CEPSNTYPE
380
     0
  9
$PSTYLEMODE
290
     1
  9
$FINGERPRINTGUID
  2

  9
$VERSIONGUID
  2

  9
$EXTNAMES
290
     1
  9
$PSVPSCALE
 40
0.0
  0
ENDSEC
  0
SECTION
  2
CLASSES
  0
CLASS
  1
LWPOLYLINE
  2
AcDbPolyline
  3
AutoCAD 2000
 90
    32768
280
     0
281
     1
  0
CLASS
  1
IMAGE
  2
AcDbRasterImage
  3
ISM
 90
    32895
280
     0
281
     1
  0
CLASS
  1
OLE2FRAME
  2
AcDbOle2Frame
  3
AutoCAD 2000
 90
    32768
280
     0
281
     1
  0
CLASS
  1
HATCH
  2
AcDbHatch
  3
AutoCAD 2000
 90
    32768
280
     0
281
     1
  0
CLASS
  1
DICTIONARYVAR
  2
AcDbDictionaryVar
  3
AutoCAD 2000
 90
    32768
280
     0
281
     0
  0
CLASS
  1
RASTERVARIABLES
  2
AcDbRasterVariables
  3
ISM
 90
    32768
280
     0
281
     0
  0
CLASS
  1
IMAGEDEF
  2
AcDbRasterImageDef
  3
ISM
 90
    32768
280
     0
281
     0
  0
CLASS
  1
IMAGEDEF_REACTOR
  2
AcDbRasterImageDefReactor
  3
ISM
 90
    32769
280
     0
281
     0
  0
CLASS
  1
IDBUFFER
  2
AcDbIdBuffer
  3
AutoCAD 2000
 90
    32768
280
     0
281
     0
  0
CLASS
  1
SPATIAL_FILTER
  2
AcDbSpatialFilter
  3
AutoCAD 2000
 90
    32768
280
     0
281
     0
  0
CLASS
  1
XRECORD
  2
AcDbXrecord
  3
AutoCAD 2000
 90
    32768
280
     0
281
     0
  0
CLASS
  1
SORTENTSTABLE
  2
AcDbSortentsTable
  3
AutoCAD 2000
 90
    32768
280
     0
281
     0
  0
CLASS
  1
LAYER_INDEX
  2
AcDbLayerIndex
  3
AutoCAD 2000
 90
    32768
280
     0
281
     0
  0
CLASS
  1
SPATIAL_INDEX
  2
AcDbSpatialIndex
  3
AutoCAD 2000
 90
    32768
280
     0
281
     0
  0
CLASS
  1
OBJECT_PTR
  2
CAseDLPNTableRecord
  3
\"ASE-LPNTableRecord\"
 90
    32769
280
     0
281
     0
  0
CLASS
  1
LAYOUT
  2
AcDbLayout
  3
AutoCAD 2000
 90
        0
280
     0
281
     0
  0
CLASS
  1
PLOTSETTINGS
  2
AcDbPlotSettings
  3
AutoCAD 2000
 90
    32768
280
     0
281
     0
  0
CLASS
  1
ACDBDICTIONARYWDFLT
  2
AcDbDictionaryWithDefault
  3
AutoCAD 2000
 90
        0
280
     0
281
     0
  0
CLASS
  1
ACDBPLACEHOLDER
  2
AcDbPlaceHolder
  3
AutoCAD 2000
 90
        0
280
     0
281
     0
  0
CLASS
  1
VBA_PROJECT
  2
AcDbVbaProject
  3
acadvba
 90
    32768
280
     0
281
     0
  0
CLASS
  1
WIPEOUT
  2
AcDbWipeout
  3
WipeOut|AutoCAD Express Tool|expresstools@autodesk.com
 90
    32895
280
     0
281
     1
  0
CLASS
  1
WIPEOUTVARIABLES
  2
AcDbWipeoutVariables
  3
WipeOut|AutoCAD Express Tool|expresstools@autodesk.com
 90
        0
280
     0
281
     0
  0
CLASS
  1
RTEXT
  2
RText
  3
RText|AutoCAD Express Tool|expresstools@autodesk.com
 90
    32768
280
     0
281
     1
  0
CLASS
  1
ARCALIGNEDTEXT
  2
AcDbArcAlignedText
  3
ATEXT|AutoCAD Express Tool|expresstools@autodesk.com
 90
    32768
280
     0
281
     1
  0
ENDSEC
  0
SECTION
  2
TABLES
  0
TABLE
  2
VPORT
  5
7
100
AcDbSymbolTable
 70
     1
  0
VPORT
  5
15
100
AcDbSymbolTableRecord
100
AcDbViewportTableRecord
  2
*ACTIVE
 70
     0
 10
0.0
 20
0.0
 11
1.0
 21
1.0
 12
6.591288
 22
4.579184
 13
0.0
 23
0.0
 14
1.0
 24
1.0
 15
0.0
 25
0.0
 16
0.0
 26
0.0
 36
1.0
 17
0.0
 27
0.0
 37
0.0
 40
9.158369
 41
0.688564
 42
50.0
 43
0.0
 44
0.0
 50
0.0
 51
0.0
 71
     0
 72
   100
 73
     1
 74
     1
 75
     0
 76
     0
 77
     0
 78
     0
281
     0
 65
     0
110
0.0
120
0.0
130
0.0
111
1.0
121
0.0
131
0.0
112
0.0
122
1.0
132
0.0
345
0
346
0
 79
     0
146
0.0
  0
ENDTAB
  0
TABLE
  2
LTYPE
  5
4
100
AcDbSymbolTable
 70
     3
  0
LTYPE
  5
11
100
AcDbSymbolTableRecord
100
AcDbLinetypeTableRecord
  2
ByBlock
 70
    64
  3

 72
    65
 73
     0
 40
0.0
  0
LTYPE
  5
12
100
AcDbSymbolTableRecord
100
AcDbLinetypeTableRecord
  2
ByLayer
 70
    64
  3

 72
    65
 73
     0
 40
0.0
  0
LTYPE
  5
13
100
AcDbSymbolTableRecord
100
AcDbLinetypeTableRecord
  2
Continuous
 70
    64
  3
Solid line
 72
    65
 73
     0
 40
0.0
  0
ENDTAB
  0
TABLE
  2
LAYER
  5
2
100
AcDbSymbolTable
 70
     2
  0
LAYER
  5
14
100
AcDbSymbolTableRecord
100
AcDbLayerTableRecord
  2
0
 70
     0
 62
     7
  6
Continuous
290
     1
370
    -3
390
1D
  0
LAYER
  5
24
100
AcDbSymbolTableRecord
100
AcDbLayerTableRecord
  2
Layer 1
 70
     0
 62
     7
  6
Continuous
290
     1
370
    -3
390
1F
  0
ENDTAB
  0
TABLE
  2
STYLE
  5
3
100
AcDbSymbolTable
 70
     1
  0
STYLE
  5
17
100
AcDbSymbolTableRecord
100
AcDbTextStyleTableRecord
  2
Standard
 70
     0
 40
0.0
 41
1.0
 50
0.0
 71
     0
 42
0.0
  3
txt
  4

  0
ENDTAB
  0
TABLE
  2
VIEW
  5
5
100
AcDbSymbolTable
 70
     0
  0
ENDTAB
  0
TABLE
  2
UCS
  5
6
100
AcDbSymbolTable
 70
     0
  0
ENDTAB
  0
TABLE
  2
APPID
  5
8
100
AcDbSymbolTable
 70
     1
  0
APPID
  5
16
100
AcDbSymbolTableRecord
100
AcDbRegAppTableRecord
  2
ACAD
 70
     0
  0
ENDTAB
  0
TABLE
  2
DIMSTYLE
  5
9
100
AcDbSymbolTable
 70
     1
100
AcDbDimStyleTable
 71
     0
  0
DIMSTYLE
105
18
100
AcDbSymbolTableRecord
100
AcDbDimStyleTableRecord
  2
Standard
 70
     0
  3

  4

 40
1.0
 41
0.18
 42
0.0625
 43
0.38
 44
0.18
 45
0.0
 46
0.0
 47
0.0
 48
0.0
 71
     0
 72
     0
 73
     1
 74
     1
 75
     0
 76
     0
 77
     0
 78
     0
 79
     0
140
0.18
141
0.09
142
0.0
143
25.4
144
1.0
145
0.0
146
1.0
147
0.09
148
0.0
170
     0
171
     2
172
     0
173
     0
174
     0
175
     0
176
     0
177
     0
178
     0
179
     0
271
     4
272
     4
273
     2
274
     2
275
     0
276
     0
277
     2
278
    46
279
     0
280
     0
281
     0
282
     0
283
     1
284
     0
285
     0
286
     0
288
     0
340
17
341
0
342
0
343
0
344
0
371
    -2
372
    -2
  0
ENDTAB
  0
TABLE
  2
BLOCK_RECORD
  5
1
100
AcDbSymbolTable
 70
     0
  0
BLOCK_RECORD
  5
A
100
AcDbSymbolTableRecord
100
AcDbBlockTableRecord
  2
*MODEL_SPACE
340
20
  0
BLOCK_RECORD
  5
B
100
AcDbSymbolTableRecord
100
AcDbBlockTableRecord
  2
*PAPER_SPACE
340
21
  0
ENDTAB
  0
ENDSEC
  0
SECTION
  2
BLOCKS
  0
BLOCK
  5
D
100
AcDbEntity
  8
0
100
AcDbBlockBegin
  2
*MODEL_SPACE
 70
     0
 10
0.0
 20
0.0
 30
0.0
  3
*MODEL_SPACE
  1

  0
ENDBLK
  5
E
100
AcDbEntity
  8
0
100
AcDbBlockEnd
  0
BLOCK
  5
F
100
AcDbEntity
 67
     1
  8
0
100
AcDbBlockBegin
  2
*PAPER_SPACE
 70
     0
 10
0.0
 20
0.0
 30
0.0
  3
*PAPER_SPACE
  1

  0
ENDBLK
  5
10
100
AcDbEntity
 67
     1
  8
0
100
AcDbBlockEnd
  0
ENDSEC
  0
SECTION
  2
ENTITIES
  0
SPLINE
  5
25
100
AcDbEntity
  8
Layer 1
100
AcDbSpline
210
0.0
220
0.0
230
1.0
 70
     1
 71
     3
 72
   552
 73
   548
 74
     0
 42
0.0000000001
 43
0.0000000001
 40
0.0
 40
0.0
 40
0.0
 40
0.0
 40
0.0072992700729927
 40
0.0072992700729927
 40
0.0072992700729927
 40
0.0072992700729927
 40
0.0145985401459854
 40
0.0145985401459854
 40
0.0145985401459854
 40
0.0145985401459854
 40
0.0218978102189781
 40
0.0218978102189781
 40
0.0218978102189781
 40
0.0218978102189781
 40
0.0291970802919708
 40
0.0291970802919708
 40
0.0291970802919708
 40
0.0291970802919708
 40
0.0364963503649635
 40
0.0364963503649635
 40
0.0364963503649635
 40
0.0364963503649635
 40
0.0437956204379562
 40
0.0437956204379562
 40
0.0437956204379562
 40
0.0437956204379562
 40
0.0510948905109489
 40
0.0510948905109489
 40
0.0510948905109489
 40
0.0510948905109489
 40
0.0583941605839416
 40
0.0583941605839416
 40
0.0583941605839416
 40
0.0583941605839416
 40
0.0656934306569343
 40
0.0656934306569343
 40
0.0656934306569343
 40
0.0656934306569343
 40
0.072992700729927
 40
0.072992700729927
 40
0.072992700729927
 40
0.072992700729927
 40
0.0802919708029197
 40
0.0802919708029197
 40
0.0802919708029197
 40
0.0802919708029197
 40
0.0875912408759124
 40
0.0875912408759124
 40
0.0875912408759124
 40
0.0875912408759124
 40
0.0948905109489051
 40
0.0948905109489051
 40
0.0948905109489051
 40
0.0948905109489051
 40
0.1021897810218978
 40
0.1021897810218978
 40
0.1021897810218978
 40
0.1021897810218978
 40
0.1094890510948905
 40
0.1094890510948905
 40
0.1094890510948905
 40
0.1094890510948905
 40
0.1167883211678832
 40
0.1167883211678832
 40
0.1167883211678832
 40
0.1167883211678832
 40
0.1240875912408759
 40
0.1240875912408759
 40
0.1240875912408759
 40
0.1240875912408759
 40
0.1313868613138687
 40
0.1313868613138687
 40
0.1313868613138687
 40
0.1313868613138687
 40
0.1386861313868613
 40
0.1386861313868613
 40
0.1386861313868613
 40
0.1386861313868613
 40
0.145985401459854
 40
0.145985401459854
 40
0.145985401459854
 40
0.145985401459854
 40
0.1532846715328467
 40
0.1532846715328467
 40
0.1532846715328467
 40
0.1532846715328467
 40
0.1605839416058394
 40
0.1605839416058394
 40
0.1605839416058394
 40
0.1605839416058394
 40
0.1678832116788321
 40
0.1678832116788321
 40
0.1678832116788321
 40
0.1678832116788321
 40
0.1751824817518248
 40
0.1751824817518248
 40
0.1751824817518248
 40
0.1751824817518248
 40
0.1824817518248175
 40
0.1824817518248175
 40
0.1824817518248175
 40
0.1824817518248175
 40
0.1897810218978102
 40
0.1897810218978102
 40
0.1897810218978102
 40
0.1897810218978102
 40
0.1970802919708029
 40
0.1970802919708029
 40
0.1970802919708029
 40
0.1970802919708029
 40
0.2043795620437956
 40
0.2043795620437956
 40
0.2043795620437956
 40
0.2043795620437956
 40
0.2116788321167883
 40
0.2116788321167883
 40
0.2116788321167883
 40
0.2116788321167883
 40
0.218978102189781
 40
0.218978102189781
 40
0.218978102189781
 40
0.218978102189781
 40
0.2262773722627736
 40
0.2262773722627736
 40
0.2262773722627736
 40
0.2262773722627736
 40
0.2335766423357663
 40
0.2335766423357663
 40
0.2335766423357663
 40
0.2335766423357663
 40
0.240875912408759
 40
0.240875912408759
 40
0.240875912408759
 40
0.240875912408759
 40
0.2481751824817517
 40
0.2481751824817517
 40
0.2481751824817517
 40
0.2481751824817517
 40
0.2554744525547444
 40
0.2554744525547444
 40
0.2554744525547444
 40
0.2554744525547444
 40
0.2627737226277371
 40
0.2627737226277371
 40
0.2627737226277371
 40
0.2627737226277371
 40
0.2700729927007298
 40
0.2700729927007298
 40
0.2700729927007298
 40
0.2700729927007298
 40
0.2773722627737225
 40
0.2773722627737225
 40
0.2773722627737225
 40
0.2773722627737225
 40
0.2846715328467152
 40
0.2846715328467152
 40
0.2846715328467152
 40
0.2846715328467152
 40
0.2919708029197079
 40
0.2919708029197079
 40
0.2919708029197079
 40
0.2919708029197079
 40
0.2992700729927006
 40
0.2992700729927006
 40
0.2992700729927006
 40
0.2992700729927006
 40
0.3065693430656933
 40
0.3065693430656933
 40
0.3065693430656933
 40
0.3065693430656933
 40
0.313868613138686
 40
0.313868613138686
 40
0.313868613138686
 40
0.313868613138686
 40
0.3211678832116787
 40
0.3211678832116787
 40
0.3211678832116787
 40
0.3211678832116787
 40
0.3284671532846714
 40
0.3284671532846714
 40
0.3284671532846714
 40
0.3284671532846714
 40
0.3357664233576641
 40
0.3357664233576641
 40
0.3357664233576641
 40
0.3357664233576641
 40
0.3430656934306567
 40
0.3430656934306567
 40
0.3430656934306567
 40
0.3430656934306567
 40
0.3503649635036494
 40
0.3503649635036494
 40
0.3503649635036494
 40
0.3503649635036494
 40
0.3576642335766421
 40
0.3576642335766421
 40
0.3576642335766421
 40
0.3576642335766421
 40
0.3649635036496348
 40
0.3649635036496348
 40
0.3649635036496348
 40
0.3649635036496348
 40
0.3722627737226275
 40
0.3722627737226275
 40
0.3722627737226275
 40
0.3722627737226275
 40
0.3795620437956202
 40
0.3795620437956202
 40
0.3795620437956202
 40
0.3795620437956202
 40
0.3868613138686129
 40
0.3868613138686129
 40
0.3868613138686129
 40
0.3868613138686129
 40
0.3941605839416056
 40
0.3941605839416056
 40
0.3941605839416056
 40
0.3941605839416056
 40
0.4014598540145983
 40
0.4014598540145983
 40
0.4014598540145983
 40
0.4014598540145983
 40
0.408759124087591
 40
0.408759124087591
 40
0.408759124087591
 40
0.408759124087591
 40
0.4160583941605837
 40
0.4160583941605837
 40
0.4160583941605837
 40
0.4160583941605837
 40
0.4233576642335764
 40
0.4233576642335764
 40
0.4233576642335764
 40
0.4233576642335764
 40
0.430656934306569
 40
0.430656934306569
 40
0.430656934306569
 40
0.430656934306569
 40
0.4379562043795617
 40
0.4379562043795617
 40
0.4379562043795617
 40
0.4379562043795617
 40
0.4452554744525544
 40
0.4452554744525544
 40
0.4452554744525544
 40
0.4452554744525544
 40
0.4525547445255471
 40
0.4525547445255471
 40
0.4525547445255471
 40
0.4525547445255471
 40
0.4598540145985398
 40
0.4598540145985398
 40
0.4598540145985398
 40
0.4598540145985398
 40
0.4671532846715325
 40
0.4671532846715325
 40
0.4671532846715325
 40
0.4671532846715325
 40
0.4744525547445252
 40
0.4744525547445252
 40
0.4744525547445252
 40
0.4744525547445252
 40
0.4817518248175179
 40
0.4817518248175179
 40
0.4817518248175179
 40
0.4817518248175179
 40
0.4890510948905106
 40
0.4890510948905106
 40
0.4890510948905106
 40
0.4890510948905106
 40
0.4963503649635033
 40
0.4963503649635033
 40
0.4963503649635033
 40
0.4963503649635033
 40
0.503649635036496
 40
0.503649635036496
 40
0.503649635036496
 40
0.503649635036496
 40
0.5109489051094887
 40
0.5109489051094887
 40
0.5109489051094887
 40
0.5109489051094887
 40
0.5182481751824813
 40
0.5182481751824813
 40
0.5182481751824813
 40
0.5182481751824813
 40
0.525547445255474
 40
0.525547445255474
 40
0.525547445255474
 40
0.525547445255474
 40
0.5328467153284667
 40
0.5328467153284667
 40
0.5328467153284667
 40
0.5328467153284667
 40
0.5401459854014594
 40
0.5401459854014594
 40
0.5401459854014594
 40
0.5401459854014594
 40
0.5474452554744521
 40
0.5474452554744521
 40
0.5474452554744521
 40
0.5474452554744521
 40
0.5547445255474448
 40
0.5547445255474448
 40
0.5547445255474448
 40
0.5547445255474448
 40
0.5620437956204375
 40
0.5620437956204375
 40
0.5620437956204375
 40
0.5620437956204375
 40
0.5693430656934302
 40
0.5693430656934302
 40
0.5693430656934302
 40
0.5693430656934302
 40
0.5766423357664229
 40
0.5766423357664229
 40
0.5766423357664229
 40
0.5766423357664229
 40
0.5839416058394156
 40
0.5839416058394156
 40
0.5839416058394156
 40
0.5839416058394156
 40
0.5912408759124083
 40
0.5912408759124083
 40
0.5912408759124083
 40
0.5912408759124083
 40
0.598540145985401
 40
0.598540145985401
 40
0.598540145985401
 40
0.598540145985401
 40
0.6058394160583936
 40
0.6058394160583936
 40
0.6058394160583936
 40
0.6058394160583936
 40
0.6131386861313863
 40
0.6131386861313863
 40
0.6131386861313863
 40
0.6131386861313863
 40
0.620437956204379
 40
0.620437956204379
 40
0.620437956204379
 40
0.620437956204379
 40
0.6277372262773717
 40
0.6277372262773717
 40
0.6277372262773717
 40
0.6277372262773717
 40
0.6350364963503644
 40
0.6350364963503644
 40
0.6350364963503644
 40
0.6350364963503644
 40
0.6423357664233571
 40
0.6423357664233571
 40
0.6423357664233571
 40
0.6423357664233571
 40
0.6496350364963498
 40
0.6496350364963498
 40
0.6496350364963498
 40
0.6496350364963498
 40
0.6569343065693425
 40
0.6569343065693425
 40
0.6569343065693425
 40
0.6569343065693425
 40
0.6642335766423352
 40
0.6642335766423352
 40
0.6642335766423352
 40
0.6642335766423352
 40
0.6715328467153279
 40
0.6715328467153279
 40
0.6715328467153279
 40
0.6715328467153279
 40
0.6788321167883206
 40
0.6788321167883206
 40
0.6788321167883206
 40
0.6788321167883206
 40
0.6861313868613133
 40
0.6861313868613133
 40
0.6861313868613133
 40
0.6861313868613133
 40
0.6934306569343059
 40
0.6934306569343059
 40
0.6934306569343059
 40
0.6934306569343059
 40
0.7007299270072986
 40
0.7007299270072986
 40
0.7007299270072986
 40
0.7007299270072986
 40
0.7080291970802913
 40
0.7080291970802913
 40
0.7080291970802913
 40
0.7080291970802913
 40
0.715328467153284
 40
0.715328467153284
 40
0.715328467153284
 40
0.715328467153284
 40
0.7226277372262767
 40
0.7226277372262767
 40
0.7226277372262767
 40
0.7226277372262767
 40
0.7299270072992694
 40
0.7299270072992694
 40
0.7299270072992694
 40
0.7299270072992694
 40
0.7372262773722621
 40
0.7372262773722621
 40
0.7372262773722621
 40
0.7372262773722621
 40
0.7445255474452548
 40
0.7445255474452548
 40
0.7445255474452548
 40
0.7445255474452548
 40
0.7518248175182475
 40
0.7518248175182475
 40
0.7518248175182475
 40
0.7518248175182475
 40
0.7591240875912402
 40
0.7591240875912402
 40
0.7591240875912402
 40
0.7591240875912402
 40
0.7664233576642329
 40
0.7664233576642329
 40
0.7664233576642329
 40
0.7664233576642329
 40
0.7737226277372256
 40
0.7737226277372256
 40
0.7737226277372256
 40
0.7737226277372256
 40
0.7810218978102183
 40
0.7810218978102183
 40
0.7810218978102183
 40
0.7810218978102183
 40
0.7883211678832109
 40
0.7883211678832109
 40
0.7883211678832109
 40
0.7883211678832109
 40
0.7956204379562036
 40
0.7956204379562036
 40
0.7956204379562036
 40
0.7956204379562036
 40
0.8029197080291963
 40
0.8029197080291963
 40
0.8029197080291963
 40
0.8029197080291963
 40
0.810218978102189
 40
0.810218978102189
 40
0.810218978102189
 40
0.810218978102189
 40
0.8175182481751817
 40
0.8175182481751817
 40
0.8175182481751817
 40
0.8175182481751817
 40
0.8248175182481744
 40
0.8248175182481744
 40
0.8248175182481744
 40
0.8248175182481744
 40
0.8321167883211671
 40
0.8321167883211671
 40
0.8321167883211671
 40
0.8321167883211671
 40
0.8394160583941598
 40
0.8394160583941598
 40
0.8394160583941598
 40
0.8394160583941598
 40
0.8467153284671525
 40
0.8467153284671525
 40
0.8467153284671525
 40
0.8467153284671525
 40
0.8540145985401452
 40
0.8540145985401452
 40
0.8540145985401452
 40
0.8540145985401452
 40
0.8613138686131379
 40
0.8613138686131379
 40
0.8613138686131379
 40
0.8613138686131379
 40
0.8686131386861306
 40
0.8686131386861306
 40
0.8686131386861306
 40
0.8686131386861306
 40
0.8759124087591232
 40
0.8759124087591232
 40
0.8759124087591232
 40
0.8759124087591232
 40
0.8832116788321159
 40
0.8832116788321159
 40
0.8832116788321159
 40
0.8832116788321159
 40
0.8905109489051086
 40
0.8905109489051086
 40
0.8905109489051086
 40
0.8905109489051086
 40
0.8978102189781013
 40
0.8978102189781013
 40
0.8978102189781013
 40
0.8978102189781013
 40
0.905109489051094
 40
0.905109489051094
 40
0.905109489051094
 40
0.905109489051094
 40
0.9124087591240867
 40
0.9124087591240867
 40
0.9124087591240867
 40
0.9124087591240867
 40
0.9197080291970794
 40
0.9197080291970794
 40
0.9197080291970794
 40
0.9197080291970794
 40
0.9270072992700721
 40
0.9270072992700721
 40
0.9270072992700721
 40
0.9270072992700721
 40
0.9343065693430648
 40
0.9343065693430648
 40
0.9343065693430648
 40
0.9343065693430648
 40
0.9416058394160575
 40
0.9416058394160575
 40
0.9416058394160575
 40
0.9416058394160575
 40
0.9489051094890502
 40
0.9489051094890502
 40
0.9489051094890502
 40
0.9489051094890502
 40
0.9562043795620429
 40
0.9562043795620429
 40
0.9562043795620429
 40
0.9562043795620429
 40
0.9635036496350355
 40
0.9635036496350355
 40
0.9635036496350355
 40
0.9635036496350355
 40
0.9708029197080282
 40
0.9708029197080282
 40
0.9708029197080282
 40
0.9708029197080282
 40
0.9781021897810209
 40
0.9781021897810209
 40
0.9781021897810209
 40
0.9781021897810209
 40
0.9854014598540136
 40
0.9854014598540136
 40
0.9854014598540136
 40
0.9854014598540136
 40
0.9927007299270063
 40
0.9927007299270063
 40
0.9927007299270063
 40
0.9927007299270063
 40
1.0
 40
1.0
 40
1.0
 40
1.0
 10
-1.8243267716535434
 20
3.546216535433071
 30
0.0
 10
-1.1900748031496065
 20
3.9248031496062992
 30
0.0
 10
-0.6210511811023622
 20
3.722736220472441
 30
0.0
 10
-0.6153818897637795
 20
3.7206850393700788
 30
0.0
 10
-0.6153818897637795
 20
3.7206850393700788
 30
0.0
 10
-0.4597283464566929
 20
3.6545196850393702
 30
0.0
 10
-0.3598070866141733
 20
3.6367992125984254
 30
0.0
 10
-0.3588307086614174
 20
3.6366299212598427
 30
0.0
 10
-0.3588307086614174
 20
3.6366299212598427
 30
0.0
 10
-0.3588307086614174
 20
3.6366299212598427
 30
0.0
 10
-0.3577874015748032
 20
3.636437007874016
 30
0.0
 10
-0.3577874015748032
 20
3.636437007874016
 30
0.0
 10
-0.3577874015748032
 20
3.636437007874016
 30
0.0
 10
-0.3577874015748032
 20
3.636437007874016
 30
0.0
 10
-0.3567677165354331
 20
3.6361338582677165
 30
0.0
 10
-0.3567677165354331
 20
3.6361338582677165
 30
0.0
 10
-0.3567677165354331
 20
3.6361338582677165
 30
0.0
 10
-0.3511692913385827
 20
3.6342874015748032
 30
0.0
 10
-0.2244566929133858
 20
3.5926614173228346
 30
0.0
 10
-0.1896535433070866
 20
3.5247716535433073
 30
0.0
 10
-0.1896535433070866
 20
3.5247716535433073
 30
0.0
 10
-0.1784370078740158
 20
3.5268149606299213
 30
0.0
 10
-0.1643464566929134
 20
3.5273149606299214
 30
0.0
 10
-0.1465905511811024
 20
3.5251023622047244
 30
0.0
 10
-0.1465905511811024
 20
3.5251023622047244
 30
0.0
 10
-0.1465905511811024
 20
3.5251023622047244
 30
0.0
 10
-0.0701614173228347
 20
3.5380236220472443
 30
0.0
 10
-0.0457755905511811
 20
3.4877086614173232
 30
0.0
 10
-0.0457755905511811
 20
3.4877086614173232
 30
0.0
 10
-0.0457755905511811
 20
3.4877086614173232
 30
0.0
 10
-0.0261771653543307
 20
3.4733858267716538
 30
0.0
 10
-0.0009606299212598
 20
3.4530472440944884
 30
0.0
 10
-0.0009606299212598
 20
3.4530472440944884
 30
0.0
 10
0.0036732283464567
 20
3.4492992125984254
 30
0.0
 10
0.0105629921259843
 20
3.4528385826771655
 30
0.0
 10
0.0161377952755906
 20
3.4496732283464566
 30
0.0
 10
0.0161377952755906
 20
3.4496732283464566
 30
0.0
 10
0.0499645669291339
 20
3.4305590551181102
 30
0.0
 10
0.1148267716535433
 20
3.3657559055118114
 30
0.0
 10
0.1334212598425197
 20
3.3422755905511812
 30
0.0
 10
0.1334212598425197
 20
3.3422755905511812
 30
0.0
 10
0.1334212598425197
 20
3.3422755905511812
 30
0.0
 10
0.340763779527559
 20
3.1707755905511812
 30
0.0
 10
0.2516377952755906
 20
3.0499527559055117
 30
0.0
 10
0.2516377952755906
 20
3.0499527559055117
 30
0.0
 10
0.2516377952755906
 20
3.0499527559055117
 30
0.0
 10
0.2966299212598426
 20
2.8431968503937011
 30
0.0
 10
0.2782086614173229
 20
2.7575669291338585
 30
0.0
 10
0.2782086614173229
 20
2.7575669291338585
 30
0.0
 10
0.2782086614173229
 20
2.7575669291338585
 30
0.0
 10
0.2580118110236221
 20
2.6965590551181102
 30
0.0
 10
0.2580118110236221
 20
2.6965590551181102
 30
0.0
 10
0.2580118110236221
 20
2.6965590551181102
 30
0.0
 10
0.2580118110236221
 20
2.6965590551181102
 30
0.0
 10
0.341740157480315
 20
2.5044921259842519
 30
0.0
 10
0.2811929133858268
 20
2.3859763779527561
 30
0.0
 10
0.2811929133858268
 20
2.3859763779527561
 30
0.0
 10
0.2811929133858268
 20
2.3859763779527561
 30
0.0
 10
0.4167204724409449
 20
2.296933070866142
 30
0.0
 10
0.3084173228346457
 20
2.0211614173228347
 30
0.0
 10
0.3084173228346457
 20
2.0211614173228347
 30
0.0
 10
0.3084173228346457
 20
2.0211614173228347
 30
0.0
 10
0.4046062992125984
 20
2.127472440944882
 30
0.0
 10
0.4818779527559055
 20
2.0886141732283465
 30
0.0
 10
0.4818779527559055
 20
2.0886141732283465
 30
0.0
 10
0.4818779527559055
 20
2.0886141732283465
 30
0.0
 10
0.5550236220472441
 20
2.104003937007874
 30
0.0
 10
0.5530708661417323
 20
2.0641929133858268
 30
0.0
 10
0.5530708661417323
 20
2.0641929133858268
 30
0.0
 10
0.5530708661417323
 20
2.0641929133858268
 30
0.0
 10
0.5563818897637796
 20
2.0198346456692913
 30
0.0
 10
0.5380984251968504
 20
1.9986141732283464
 30
0.0
 10
0.5380984251968504
 20
1.9986141732283464
 30
0.0
 10
0.5380984251968504
 20
1.9986141732283464
 30
0.0
 10
0.6462086614173228
 20
2.0116299212598427
 30
0.0
 10
0.7406535433070867
 20
2.0087952755905514
 30
0.0
 10
0.7406535433070867
 20
2.0087952755905514
 30
0.0
 10
0.7406535433070867
 20
2.0087952755905514
 30
0.0
 10
0.8189409448818898
 20
1.9551220472440947
 30
0.0
 10
0.8333188976377953
 20
1.8966929133858268
 30
0.0
 10
0.8333188976377953
 20
1.8966929133858268
 30
0.0
 10
0.8333188976377953
 20
1.8966929133858268
 30
0.0
 10
1.1011377952755905
 20
1.9613031496062994
 30
0.0
 10
1.316716535433071
 20
1.7295629921259843
 30
0.0
 10
1.316716535433071
 20
1.7295629921259843
 30
0.0
 10
1.316716535433071
 20
1.7295629921259843
 30
0.0
 10
1.3561023622047244
 20
1.732507874015748
 30
0.0
 10
1.4751102362204724
 20
1.8652795275590552
 30
0.0
 10
1.4751102362204724
 20
1.8652795275590552
 30
0.0
 10
1.4751102362204724
 20
1.8652795275590552
 30
0.0
 10
1.7414251968503938
 20
2.0834763779527559
 30
0.0
 10
1.9088661417322836
 20
1.8331889763779528
 30
0.0
 10
1.9088661417322836
 20
1.8331889763779528
 30
0.0
 10
1.9088661417322836
 20
1.8331889763779528
 30
0.0
 10
1.8637677165354332
 20
1.8397519685039372
 30
0.0
 10
1.8663464566929135
 20
1.8052637795275592
 30
0.0
 10
1.8663464566929135
 20
1.8052637795275592
 30
0.0
 10
1.8663464566929135
 20
1.8052637795275592
 30
0.0
 10
1.9421496062992127
 20
1.6522677165354331
 30
0.0
 10
1.9385275590551181
 20
1.5677322834645671
 30
0.0
 10
1.9385275590551181
 20
1.5677322834645671
 30
0.0
 10
1.9385275590551181
 20
1.5677322834645671
 30
0.0
 10
1.9082007874015749
 20
1.5753503937007876
 30
0.0
 10
1.9082007874015749
 20
1.5753503937007876
 30
0.0
 10
1.9082007874015749
 20
1.5753503937007876
 30
0.0
 10
1.9082007874015749
 20
1.5753503937007876
 30
0.0
 10
1.8411141732283465
 20
1.0795866141732284
 30
0.0
 10
2.2044133858267716
 20
1.2603346456692914
 30
0.0
 10
2.2044133858267716
 20
1.2603346456692914
 30
0.0
 10
2.2044133858267716
 20
1.2603346456692914
 30
0.0
 10
2.2066102362204725
 20
1.2307559055118111
 30
0.0
 10
2.1876614173228348
 20
1.2194409448818897
 30
0.0
 10
2.1876614173228348
 20
1.2194409448818897
 30
0.0
 10
2.1876614173228348
 20
1.2194409448818897
 30
0.0
 10
2.2711456692913385
 20
1.2306377952755907
 30
0.0
 10
2.3364527559055119
 20
1.2850787401574804
 30
0.0
 10
2.3364527559055119
 20
1.2850787401574804
 30
0.0
 10
2.3364527559055119
 20
1.2850787401574804
 30
0.0
 10
2.3149409448818901
 20
1.1744488188976379
 30
0.0
 10
2.1882440944881889
 20
1.1451535433070867
 30
0.0
 10
2.1882440944881889
 20
1.1451535433070867
 30
0.0
 10
2.1882440944881889
 20
1.1451535433070867
 30
0.0
 10
2.2435669291338582
 20
1.1343858267716536
 30
0.0
 10
2.2435669291338582
 20
1.1343858267716536
 30
0.0
 10
2.2435669291338582
 20
1.1343858267716536
 30
0.0
 10
2.2435669291338582
 20
1.1343858267716536
 30
0.0
 10
1.7356062992125985
 20
1.0320354330708661
 30
0.0
 10
1.6430905511811025
 20
1.3424173228346457
 30
0.0
 10
1.6430905511811025
 20
1.3424173228346457
 30
0.0
 10
1.6430905511811025
 20
1.3424173228346457
 30
0.0
 10
1.5571968503937008
 20
1.4301377952755907
 30
0.0
 10
1.5974527559055118
 20
1.6215787401574804
 30
0.0
 10
1.5974527559055118
 20
1.6215787401574804
 30
0.0
 10
1.5974527559055118
 20
1.6215787401574804
 30
0.0
 10
1.6063346456692913
 20
1.7015708661417324
 30
0.0
 10
1.5103070866141732
 20
1.6596929133858269
 30
0.0
 10
1.5103070866141732
 20
1.6596929133858269
 30
0.0
 10
1.5103070866141732
 20
1.6596929133858269
 30
0.0
 10
1.423755905511811
 20
1.6235000000000002
 30
0.0
 10
1.3840039370078741
 20
1.6254921259842521
 30
0.0
 10
1.3840039370078741
 20
1.6254921259842521
 30
0.0
 10
1.3840039370078741
 20
1.6254921259842521
 30
0.0
 10
1.5459094488188978
 20
1.3152992125984253
 30
0.0
 10
1.2615275590551183
 20
1.1404251968503938
 30
0.0
 10
1.2615275590551183
 20
1.1404251968503938
 30
0.0
 10
1.2615275590551183
 20
1.1404251968503938
 30
0.0
 10
1.0068346456692914
 20
1.0321968503937009
 30
0.0
 10
0.9727637795275591
 20
0.8908346456692914
 30
0.0
 10
0.9727637795275591
 20
0.8908346456692914
 30
0.0
 10
0.9727637795275591
 20
0.8908346456692914
 30
0.0
 10
0.9648149606299213
 20
0.7316062992125985
 30
0.0
 10
0.948744094488189
 20
0.6808385826771654
 30
0.0
 10
0.948744094488189
 20
0.6808385826771654
 30
0.0
 10
0.948744094488189
 20
0.6808385826771654
 30
0.0
 10
0.9921456692913386
 20
0.5651023622047244
 30
0.0
 10
0.9013503937007874
 20
0.5186732283464567
 30
0.0
 10
0.9013503937007874
 20
0.5186732283464567
 30
0.0
 10
0.9013503937007874
 20
0.5186732283464567
 30
0.0
 10
0.7472992125984252
 20
0.4575787401574804
 30
0.0
 10
0.6626496062992127
 20
0.3967283464566929
 30
0.0
 10
0.6626496062992127
 20
0.3967283464566929
 30
0.0
 10
0.6626496062992127
 20
0.3967283464566929
 30
0.0
 10
0.5938149606299212
 20
0.3221811023622048
 30
0.0
 10
0.5675590551181102
 20
0.2755905511811024
 30
0.0
 10
0.5675590551181102
 20
0.2755905511811024
 30
0.0
 10
0.5675590551181102
 20
0.2755905511811024
 30
0.0
 10
0.4892952755905512
 20
0.1953661417322835
 30
0.0
 10
0.4460157480314961
 20
0.177255905511811
 30
0.0
 10
0.4460157480314961
 20
0.177255905511811
 30
0.0
 10
0.4460157480314961
 20
0.177255905511811
 30
0.0
 10
0.4431259842519685
 20
0.0828858267716535
 30
0.0
 10
0.2460629921259843
 20
0.1326496062992126
 30
0.0
 10
0.2460629921259843
 20
0.1326496062992126
 30
0.0
 10
0.2460629921259843
 20
0.1326496062992126
 30
0.0
 10
0.2513267716535433
 20
0.1751023622047244
 30
0.0
 10
0.2634645669291339
 20
0.1864685039370079
 30
0.0
 10
0.2634645669291339
 20
0.1864685039370079
 30
0.0
 10
0.248751968503937
 20
0.1764173228346457
 30
0.0
 10
0.1863582677165354
 20
0.1367992125984252
 30
0.0
 10
0.1498188976377953
 20
0.1601811023622047
 30
0.0
 10
0.1498188976377953
 20
0.1601811023622047
 30
0.0
 10
0.1498188976377953
 20
0.1601811023622047
 30
0.0
 10
0.1510551181102362
 20
0.2098228346456693
 30
0.0
 10
0.280503937007874
 20
0.2690551181102363
 30
0.0
 10
0.280503937007874
 20
0.2690551181102363
 30
0.0
 10
0.280503937007874
 20
0.2690551181102363
 30
0.0
 10
0.4024094488188977
 20
0.3624370078740158
 30
0.0
 10
0.443996062992126
 20
0.4696574803149606
 30
0.0
 10
0.443996062992126
 20
0.4696574803149606
 30
0.0
 10
0.443996062992126
 20
0.4696574803149606
 30
0.0
 10
0.5142401574803149
 20
0.6583031496062992
 30
0.0
 10
0.5205748031496064
 20
0.7728267716535433
 30
0.0
 10
0.5205748031496064
 20
0.7728267716535433
 30
0.0
 10
0.5205748031496064
 20
0.7728267716535433
 30
0.0
 10
0.5315748031496064
 20
0.9570984251968504
 30
0.0
 10
0.5606141732283465
 20
1.0336062992125985
 30
0.0
 10
0.5606141732283465
 20
1.0336062992125985
 30
0.0
 10
0.5895826771653544
 20
1.1100905511811023
 30
0.0
 10
0.5643976377952756
 20
1.0487716535433071
 30
0.0
 10
0.5643976377952756
 20
1.0487716535433071
 30
0.0
 10
0.5643976377952756
 20
1.0487716535433071
 30
0.0
 10
0.5643976377952756
 20
1.0487716535433071
 30
0.0
 10
0.5355748031496064
 20
1.0366929133858269
 30
0.0
 10
0.5215629921259842
 20
1.0257401574803151
 30
0.0
 10
0.5215629921259842
 20
1.0257401574803151
 30
0.0
 10
0.5215629921259842
 20
1.0257401574803151
 30
0.0
 10
0.5156771653543307
 20
0.970748031496063
 30
0.0
 10
0.4727913385826772
 20
0.9477165354330709
 30
0.0
 10
0.4727913385826772
 20
0.9477165354330709
 30
0.0
 10
0.4727913385826772
 20
0.9477165354330709
 30
0.0
 10
0.4207598425196851
 20
0.9140866141732283
 30
0.0
 10
0.4059645669291339
 20
0.912984251968504
 30
0.0
 10
0.4059645669291339
 20
0.912984251968504
 30
0.0
 10
0.4059645669291339
 20
0.912984251968504
 30
0.0
 10
0.2309015748031496
 20
0.8007440944881891
 30
0.0
 10
0.2478267716535433
 20
0.9061614173228347
 30
0.0
 10
0.2478267716535433
 20
0.9061614173228347
 30
0.0
 10
0.2478267716535433
 20
0.9061614173228347
 30
0.0
 10
0.1730275590551181
 20
0.8460354330708662
 30
0.0
 10
-0.1739606299212599
 20
0.8449291338582677
 30
0.0
 10
-0.1739606299212599
 20
0.8449291338582677
 30
0.0
 10
-0.1739606299212599
 20
0.8449291338582677
 30
0.0
 10
-0.261744094488189
 20
0.7590314960629921
 30
0.0
 10
-0.4570984251968504
 20
0.7196574803149607
 30
0.0
 10
-0.4570984251968504
 20
0.7196574803149607
 30
0.0
 10
-0.4570984251968504
 20
0.7196574803149607
 30
0.0
 10
-0.5485275590551182
 20
0.6830905511811024
 30
0.0
 10
-0.5561771653543307
 20
0.652763779527559
 30
0.0
 10
-0.5561771653543307
 20
0.652763779527559
 30
0.0
 10
-0.5561771653543307
 20
0.652763779527559
 30
0.0
 10
-0.5291181102362205
 20
0.5556535433070866
 30
0.0
 10
-0.4272283464566929
 20
0.5186496062992126
 30
0.0
 10
-0.4272283464566929
 20
0.5186496062992126
 30
0.0
 10
-0.4272283464566929
 20
0.5186496062992126
 30
0.0
 10
-0.3526850393700788
 20
0.4498661417322835
 30
0.0
 10
-0.2648385826771654
 20
0.4019094488188977
 30
0.0
 10
-0.2648385826771654
 20
0.4019094488188977
 30
0.0
 10
-0.2648385826771654
 20
0.4019094488188977
 30
0.0
 10
-0.1996220472440945
 20
0.3918700787401575
 30
0.0
 10
-0.1777322834645669
 20
0.363751968503937
 30
0.0
 10
-0.1777322834645669
 20
0.363751968503937
 30
0.0
 10
-0.1777322834645669
 20
0.363751968503937
 30
0.0
 10
-0.1672637795275591
 20
0.2901732283464567
 30
0.0
 10
-0.133992125984252
 20
0.2431338582677166
 30
0.0
 10
-0.133992125984252
 20
0.2431338582677166
 30
0.0
 10
-0.133992125984252
 20
0.2431338582677166
 30
0.0
 10
-0.1067834645669291
 20
0.2103937007874016
 30
0.0
 10
-0.1807007874015748
 20
0.2048858267716535
 30
0.0
 10
-0.1807007874015748
 20
0.2048858267716535
 30
0.0
 10
-0.1807007874015748
 20
0.2048858267716535
 30
0.0
 10
-0.275484251968504
 20
0.2126850393700787
 30
0.0
 10
-0.3374291338582677
 20
0.3122007874015748
 30
0.0
 10
-0.3374291338582677
 20
0.3122007874015748
 30
0.0
 10
-0.3374291338582677
 20
0.3122007874015748
 30
0.0
 10
-0.5506023622047245
 20
0.4450118110236221
 30
0.0
 10
-0.6334094488188977
 20
0.5578385826771654
 30
0.0
 10
-0.6334094488188977
 20
0.5578385826771654
 30
0.0
 10
-0.6334094488188977
 20
0.5578385826771654
 30
0.0
 10
-0.688744094488189
 20
0.5685354330708662
 30
0.0
 10
-0.6913110236220472
 20
0.6030275590551182
 30
0.0
 10
-0.6913110236220472
 20
0.6030275590551182
 30
0.0
 10
-0.6913110236220472
 20
0.6030275590551182
 30
0.0
 10
-0.6847716535433072
 20
0.6481456692913387
 30
0.0
 10
-0.6907952755905512
 20
0.6625669291338583
 30
0.0
 10
-0.6907952755905512
 20
0.6625669291338583
 30
0.0
 10
-0.6907952755905512
 20
0.6625669291338583
 30
0.0
 10
-0.6941023622047244
 20
0.7069488188976378
 30
0.0
 10
-0.6455472440944882
 20
0.7204921259842519
 30
0.0
 10
-0.6455472440944882
 20
0.7204921259842519
 30
0.0
 10
-0.6455472440944882
 20
0.7204921259842519
 30
0.0
 10
-0.6037165354330709
 20
0.7583031496062992
 30
0.0
 10
-0.6037165354330709
 20
0.7583031496062992
 30
0.0
 10
-0.6037165354330709
 20
0.7583031496062992
 30
0.0
 10
-0.6037165354330709
 20
0.7583031496062992
 30
0.0
 10
-0.782484251968504
 20
0.6953779527559055
 30
0.0
 10
-0.885240157480315
 20
0.6778188976377954
 30
0.0
 10
-0.885240157480315
 20
0.6778188976377954
 30
0.0
 10
-0.885240157480315
 20
0.6778188976377954
 30
0.0
 10
-0.948228346456693
 20
0.658244094488189
 30
0.0
 10
-0.9814566929133859
 20
0.5715039370078741
 30
0.0
 10
-0.9814566929133859
 20
0.5715039370078741
 30
0.0
 10
-0.9814566929133859
 20
0.5715039370078741
 30
0.0
 10
-1.0248464566929134
 20
0.4889173228346457
 30
0.0
 10
-1.0692952755905512
 20
0.2873228346456693
 30
0.0
 10
-1.0692952755905512
 20
0.2873228346456693
 30
0.0
 10
-1.0692952755905512
 20
0.2873228346456693
 30
0.0
 10
-1.0316141732283466
 20
0.1810275590551181
 30
0.0
 10
-1.0438228346456693
 20
0.1454803149606299
 30
0.0
 10
-1.0438228346456693
 20
0.1454803149606299
 30
0.0
 10
-1.0438228346456693
 20
0.1454803149606299
 30
0.0
 10
-1.1918779527559056
 20
0.0699055118110236
 30
0.0
 10
-1.2410590551181102
 20
0.1307755905511811
 30
0.0
 10
-1.2410590551181102
 20
0.1307755905511811
 30
0.0
 10
-1.2410590551181102
 20
0.1307755905511811
 30
0.0
 10
-1.2389173228346457
 20
0.234996062992126
 30
0.0
 10
-1.1929094488188976
 20
0.2830393700787402
 30
0.0
 10
-1.1929094488188976
 20
0.2830393700787402
 30
0.0
 10
-1.1929094488188976
 20
0.2830393700787402
 30
0.0
 10
-1.1503188976377954
 20
0.5093031496062992
 30
0.0
 10
-1.0985078740157481
 20
0.6122913385826772
 30
0.0
 10
-1.0985078740157481
 20
0.6122913385826772
 30
0.0
 10
-1.0985078740157481
 20
0.6122913385826772
 30
0.0
 10
-1.0739173228346457
 20
0.7480314960629921
 30
0.0
 10
-1.0018031496062993
 20
0.7781771653543308
 30
0.0
 10
-1.0018031496062993
 20
0.7781771653543308
 30
0.0
 10
-1.0018031496062993
 20
0.7781771653543308
 30
0.0
 10
-0.8308228346456693
 20
0.9446574803149607
 30
0.0
 10
-0.7446535433070867
 20
0.9857952755905513
 30
0.0
 10
-0.7446535433070867
 20
0.9857952755905513
 30
0.0
 10
-0.7446535433070867
 20
0.9857952755905513
 30
0.0
 10
-0.865259842519685
 20
1.1403661417322835
 30
0.0
 10
-0.8321496062992126
 20
1.3609803149606299
 30
0.0
 10
-0.8321496062992126
 20
1.3609803149606299
 30
0.0
 10
-0.8321496062992126
 20
1.3609803149606299
 30
0.0
 10
-0.8881259842519685
 20
1.5798976377952756
 30
0.0
 10
-0.9493661417322835
 20
1.6694803149606299
 30
0.0
 10
-0.9493661417322835
 20
1.6694803149606299
 30
0.0
 10
-0.9493661417322835
 20
1.6694803149606299
 30
0.0
 10
-1.0792913385826772
 20
1.821212598425197
 30
0.0
 10
-1.110728346456693
 20
1.8436377952755907
 30
0.0
 10
-1.110728346456693
 20
1.8436377952755907
 30
0.0
 10
-1.110728346456693
 20
1.8436377952755907
 30
0.0
 10
-1.1700669291338583
 20
1.7748031496062993
 30
0.0
 10
-1.3044133858267717
 20
1.7152007874015749
 30
0.0
 10
-1.3044133858267717
 20
1.7152007874015749
 30
0.0
 10
-1.3044133858267717
 20
1.7152007874015749
 30
0.0
 10
-1.2983779527559056
 20
1.6993661417322836
 30
0.0
 10
-1.2983779527559056
 20
1.6993661417322836
 30
0.0
 10
-1.2983779527559056
 20
1.6993661417322836
 30
0.0
 10
-1.2983779527559056
 20
1.6993661417322836
 30
0.0
 10
-1.306220472440945
 20
1.6684291338582677
 30
0.0
 10
-1.337468503937008
 20
1.6928818897637796
 30
0.0
 10
-1.337468503937008
 20
1.6928818897637796
 30
0.0
 10
-1.337468503937008
 20
1.6928818897637796
 30
0.0
 10
-1.3485354330708661
 20
1.642488188976378
 30
0.0
 10
-1.4345551181102363
 20
1.6658307086614175
 30
0.0
 10
-1.4345551181102363
 20
1.6658307086614175
 30
0.0
 10
-1.4345551181102363
 20
1.6658307086614175
 30
0.0
 10
-1.4189015748031497
 20
1.7215157480314962
 30
0.0
 10
-1.4189015748031497
 20
1.7215157480314962
 30
0.0
 10
-1.4189015748031497
 20
1.7215157480314962
 30
0.0
 10
-1.4189015748031497
 20
1.7215157480314962
 30
0.0
 10
-1.4720157480314962
 20
1.7026968503937008
 30
0.0
 10
-1.4864330708661417
 20
1.6966377952755907
 30
0.0
 10
-1.4864330708661417
 20
1.6966377952755907
 30
0.0
 10
-1.4864330708661417
 20
1.6966377952755907
 30
0.0
 10
-1.545720472440945
 20
1.6277716535433071
 30
0.0
 10
-1.5698740157480315
 20
1.6854645669291339
 30
0.0
 10
-1.5698740157480315
 20
1.6854645669291339
 30
0.0
 10
-1.5698740157480315
 20
1.6854645669291339
 30
0.0
 10
-1.5762913385826771
 20
1.7157992125984252
 30
0.0
 10
-1.5769685039370078
 20
1.7556062992125985
 30
0.0
 10
-1.5769685039370078
 20
1.7556062992125985
 30
0.0
 10
-1.5880118110236221
 20
1.7691889763779529
 30
0.0
 10
-1.6021023622047246
 20
1.7953897637795275
 30
0.0
 10
-1.589992125984252
 20
1.8336968503937008
 30
0.0
 10
-1.589992125984252
 20
1.8336968503937008
 30
0.0
 10
-1.5823543307086614
 20
1.8579291338582677
 30
0.0
 10
-1.5679094488188976
 20
1.869472440944882
 30
0.0
 10
-1.5536417322834646
 20
1.8750787401574804
 30
0.0
 10
-1.5536417322834646
 20
1.8750787401574804
 30
0.0
 10
-1.5488110236220474
 20
1.8843228346456693
 30
0.0
 10
-1.5432086614173228
 20
1.8931732283464568
 30
0.0
 10
-1.5363740157480315
 20
1.9011062992125984
 30
0.0
 10
-1.5363740157480315
 20
1.9011062992125984
 30
0.0
 10
-1.5363740157480315
 20
1.9011062992125984
 30
0.0
 10
-1.3698425196850395
 20
2.126732283464567
 30
0.0
 10
-1.3698425196850395
 20
2.126732283464567
 30
0.0
 10
-1.3698425196850395
 20
2.126732283464567
 30
0.0
 10
-1.3698425196850395
 20
2.126732283464567
 30
0.0
 10
-1.3924685039370079
 20
2.1647322834645668
 30
0.0
 10
-1.3210984251968505
 20
2.2047440944881891
 30
0.0
 10
-1.3210984251968505
 20
2.2047440944881891
 30
0.0
 10
-1.3210984251968505
 20
2.2047440944881891
 30
0.0
 10
-1.3354055118110237
 20
2.2631811023622048
 30
0.0
 10
-1.2351732283464567
 20
2.3152559055118109
 30
0.0
 10
-1.2351732283464567
 20
2.3152559055118109
 30
0.0
 10
-1.2351732283464567
 20
2.3152559055118109
 30
0.0
 10
-1.2288385826771655
 20
2.4297480314960631
 30
0.0
 10
-1.1680354330708662
 20
2.4788818897637794
 30
0.0
 10
-1.1680354330708662
 20
2.4788818897637794
 30
0.0
 10
-1.1680354330708662
 20
2.4788818897637794
 30
0.0
 10
-1.1241850393700787
 20
2.4226850393700787
 30
0.0
 10
-1.1137283464566929
 20
2.3491062992125986
 30
0.0
 10
-1.1137283464566929
 20
2.3491062992125986
 30
0.0
 10
-1.1137283464566929
 20
2.3491062992125986
 30
0.0
 10
-1.0799685039370079
 20
2.3615433070866141
 30
0.0
 10
-1.0395354330708662
 20
2.3513149606299213
 30
0.0
 10
-1.0395354330708662
 20
2.3513149606299213
 30
0.0
 10
-1.0395354330708662
 20
2.3513149606299213
 30
0.0
 10
-0.9997677165354331
 20
2.3939724409448822
 30
0.0
 10
-0.9379055118110237
 20
2.3622204724409448
 30
0.0
 10
-0.9379055118110237
 20
2.3622204724409448
 30
0.0
 10
-0.9379055118110237
 20
2.3622204724409448
 30
0.0
 10
-0.9162874015748032
 20
2.3516968503937008
 30
0.0
 10
-0.8889803149606299
 20
2.3319763779527558
 30
0.0
 10
-0.8889803149606299
 20
2.3319763779527558
 30
0.0
 10
-0.8763149606299213
 20
2.3245905511811022
 30
0.0
 10
-0.8558740157480316
 20
2.3160866141732286
 30
0.0
 10
-0.8411850393700788
 20
2.3072834645669293
 30
0.0
 10
-0.8411850393700788
 20
2.3072834645669293
 30
0.0
 10
-0.8342795275590551
 20
2.3143346456692915
 30
0.0
 10
-0.8268464566929135
 20
2.320933070866142
 30
0.0
 10
-0.8188031496062993
 20
2.3270511811023624
 30
0.0
 10
-0.8188031496062993
 20
2.3270511811023624
 30
0.0
 10
-0.7941456692913386
 20
2.3456692913385826
 30
0.0
 10
-0.7656496062992126
 20
2.3581377952755904
 30
0.0
 10
-0.7350787401574803
 20
2.3644921259842522
 30
0.0
 10
-0.7350787401574803
 20
2.3644921259842522
 30
0.0
 10
-0.7336141732283464
 20
2.3650629921259845
 30
0.0
 10
-0.7321338582677166
 20
2.3657125984251968
 30
0.0
 10
-0.7306141732283464
 20
2.366236220472441
 30
0.0
 10
-0.7306141732283464
 20
2.366236220472441
 30
0.0
 10
-0.712968503937008
 20
2.3723543307086614
 30
0.0
 10
-0.6940748031496064
 20
2.3731732283464568
 30
0.0
 10
-0.674736220472441
 20
2.3688267716535436
 30
0.0
 10
-0.674736220472441
 20
2.3688267716535436
 30
0.0
 10
-0.6683188976377953
 20
2.3684606299212598
 30
0.0
 10
-0.6618503937007875
 20
2.3679724409448819
 30
0.0
 10
-0.6553385826771654
 20
2.3670511811023625
 30
0.0
 10
-0.6553385826771654
 20
2.3670511811023625
 30
0.0
 10
-0.6265708661417323
 20
2.3630669291338582
 30
0.0
 10
-0.5983858267716535
 20
2.3540984251968506
 30
0.0
 10
-0.5716259842519685
 20
2.3408307086614175
 30
0.0
 10
-0.5716259842519685
 20
2.3408307086614175
 30
0.0
 10
-0.5371338582677165
 20
2.3660118110236223
 30
0.0
 10
-0.4968937007874016
 20
2.3824173228346459
 30
0.0
 10
-0.4968937007874016
 20
2.3824173228346459
 30
0.0
 10
-0.4968937007874016
 20
2.3824173228346459
 30
0.0
 10
-0.4706220472440945
 20
2.428988188976378
 30
0.0
 10
-0.4200826771653544
 20
2.4823582677165357
 30
0.0
 10
-0.4200826771653544
 20
2.4823582677165357
 30
0.0
 10
-0.4200826771653544
 20
2.4823582677165357
 30
0.0
 10
-0.4290354330708662
 20
2.536232283464567
 30
0.0
 10
-0.3370866141732284
 20
2.6323149606299214
 30
0.0
 10
-0.3370866141732284
 20
2.6323149606299214
 30
0.0
 10
-0.3370866141732284
 20
2.6323149606299214
 30
0.0
 10
-0.3062598425196851
 20
2.6842007874015748
 30
0.0
 10
-0.3462834645669292
 20
2.7556141732283463
 30
0.0
 10
-0.3462834645669292
 20
2.7556141732283463
 30
0.0
 10
-0.3462834645669292
 20
2.7556141732283463
 30
0.0
 10
-0.3518031496062992
 20
2.8295078740157482
 30
0.0
 10
-0.2424291338582677
 20
2.892196850393701
 30
0.0
 10
-0.2424291338582677
 20
2.892196850393701
 30
0.0
 10
-0.2424291338582677
 20
2.892196850393701
 30
0.0
 10
-0.2430826771653543
 20
2.9008228346456693
 30
0.0
 10
-0.2644685039370079
 20
2.9215472440944885
 30
0.0
 10
-0.2644685039370079
 20
2.9215472440944885
 30
0.0
 10
-0.2644685039370079
 20
2.9215472440944885
 30
0.0
 10
-0.2691614173228347
 20
2.9348110236220473
 30
0.0
 10
-0.2632637795275591
 20
2.9389960629921261
 30
0.0
 10
-0.2632637795275591
 20
2.9389960629921261
 30
0.0
 10
-0.2632637795275591
 20
2.9389960629921261
 30
0.0
 10
-0.2592204724409449
 20
2.9343582677165356
 30
0.0
 10
-0.239488188976378
 20
2.9358307086614173
 30
0.0
 10
-0.239488188976378
 20
2.9358307086614173
 30
0.0
 10
-0.239488188976378
 20
2.9358307086614173
 30
0.0
 10
-0.239488188976378
 20
2.9358307086614173
 30
0.0
 10
-0.2352007874015748
 20
2.9448110236220475
 30
0.0
 10
-0.2352007874015748
 20
2.9448110236220475
 30
0.0
 10
-0.2352007874015748
 20
2.9448110236220475
 30
0.0
 10
-0.2600472440944882
 20
2.9454448818897641
 30
0.0
 10
-0.2516535433070866
 20
2.9658818897637795
 30
0.0
 10
-0.2516535433070866
 20
2.9658818897637795
 30
0.0
 10
-0.2516535433070866
 20
2.9658818897637795
 30
0.0
 10
-0.2519370078740157
 20
2.9695866141732283
 30
0.0
 10
-0.2525748031496063
 20
2.978216535433071
 30
0.0
 10
-0.2525748031496063
 20
2.978216535433071
 30
0.0
 10
-0.2525748031496063
 20
2.978216535433071
 30
0.0
 10
-0.2577834645669291
 20
2.9815511811023625
 30
0.0
 10
-0.2574842519685039
 20
2.9939685039370079
 30
0.0
 10
-0.2574842519685039
 20
2.9939685039370079
 30
0.0
 10
-0.2574842519685039
 20
2.9939685039370079
 30
0.0
 10
-0.2574842519685039
 20
2.9939685039370079
 30
0.0
 10
-0.2504330708661418
 20
2.9994409448818899
 30
0.0
 10
-0.2504330708661418
 20
2.9994409448818899
 30
0.0
 10
-0.2504330708661418
 20
2.9994409448818899
 30
0.0
 10
-0.2504330708661418
 20
2.9994409448818899
 30
0.0
 10
-0.2618110236220473
 20
3.0023031496062993
 30
0.0
 10
-0.2618110236220473
 20
3.0023031496062993
 30
0.0
 10
-0.2618110236220473
 20
3.0023031496062993
 30
0.0
 10
-0.2621929133858268
 20
3.0072559055118111
 30
0.0
 10
-0.2623267716535433
 20
3.0258425196850394
 30
0.0
 10
-0.2623267716535433
 20
3.0258425196850394
 30
0.0
 10
-0.2623267716535433
 20
3.0258425196850394
 30
0.0
 10
-0.2844094488188976
 20
3.022929133858268
 30
0.0
 10
-0.2794724409448819
 20
3.0394330708661417
 30
0.0
 10
-0.2794724409448819
 20
3.0394330708661417
 30
0.0
 10
-0.2794724409448819
 20
3.0394330708661417
 30
0.0
 10
-0.2758897637795276
 20
3.058244094488189
 30
0.0
 10
-0.2652283464566929
 20
3.0813425196850397
 30
0.0
 10
-0.2652283464566929
 20
3.0813425196850397
 30
0.0
 10
-0.2652283464566929
 20
3.0813425196850397
 30
0.0
 10
-0.267984251968504
 20
3.0849173228346456
 30
0.0
 10
-0.266248031496063
 20
3.0949488188976377
 30
0.0
 10
-0.266248031496063
 20
3.0949488188976377
 30
0.0
 10
-0.266248031496063
 20
3.0949488188976377
 30
0.0
 10
-0.2668858267716536
 20
3.1035551181102363
 30
0.0
 10
-0.2592637795275591
 20
3.1177755905511813
 30
0.0
 10
-0.2592637795275591
 20
3.1177755905511813
 30
0.0
 10
-0.2592637795275591
 20
3.1177755905511813
 30
0.0
 10
-0.3192125984251968
 20
3.1070826771653546
 30
0.0
 10
-0.3725433070866142
 20
3.0745905511811027
 30
0.0
 10
-0.3725433070866142
 20
3.0745905511811027
 30
0.0
 10
-0.3725433070866142
 20
3.0745905511811027
 30
0.0
 10
-0.3900787401574803
 20
3.0609251968503939
 30
0.0
 10
-0.3948149606299213
 20
3.0741811023622048
 30
0.0
 10
-0.3948149606299213
 20
3.0741811023622048
 30
0.0
 10
-0.3948149606299213
 20
3.0741811023622048
 30
0.0
 10
-0.3948149606299213
 20
3.0741811023622048
 30
0.0
 10
-0.3994645669291339
 20
3.1866102362204725
 30
0.0
 10
-0.2818858267716536
 20
3.2214212598425198
 30
0.0
 10
-0.2818858267716536
 20
3.2214212598425198
 30
0.0
 10
-0.2818858267716536
 20
3.2214212598425198
 30
0.0
 10
-0.2666929133858268
 20
3.3167716535433072
 30
0.0
 10
-0.224755905511811
 20
3.3198976377952758
 30
0.0
 10
-0.224755905511811
 20
3.3198976377952758
 30
0.0
 10
-0.224755905511811
 20
3.3198976377952758
 30
0.0
 10
-0.2175669291338583
 20
3.3153464566929136
 30
0.0
 10
-0.1960708661417323
 20
3.3147086614173231
 30
0.0
 10
-0.1960708661417323
 20
3.3147086614173231
 30
0.0
 10
-0.1962047244094488
 20
3.3547874015748032
 30
0.0
 10
-0.1918228346456693
 20
3.3917165354330709
 30
0.0
 10
-0.1909409448818898
 20
3.3987322834645672
 30
0.0
 10
-0.1909409448818898
 20
3.3987322834645672
 30
0.0
 10
-0.1908622047244095
 20
3.4067362204724412
 30
0.0
 10
-0.1913110236220472
 20
3.4145354330708662
 30
0.0
 10
-0.1920984251968504
 20
3.4221771653543307
 30
0.0
 10
-0.1920984251968504
 20
3.4221771653543307
 30
0.0
 10
-0.2078582677165354
 20
3.422468503937008
 30
0.0
 10
-0.2234409448818898
 20
3.424992125984252
 30
0.0
 10
-0.2331377952755906
 20
3.4322559055118114
 30
0.0
 10
-0.2331377952755906
 20
3.4322559055118114
 30
0.0
 10
-0.4981811023622048
 20
3.3860748031496066
 30
0.0
 10
-0.8953976377952756
 20
3.2466732283464568
 30
0.0
 10
-0.8994527559055119
 20
3.2452440944881893
 30
0.0
 10
-0.8994527559055119
 20
3.2452440944881893
 30
0.0
 10
-1.2665866141732285
 20
3.1137007874015747
 30
0.0
 10
-1.8577440944881891
 20
3.2744251968503937
 30
0.0
 10
-1.8826889763779528
 20
3.2813031496062992
 30
0.0
 10
-1.8826889763779528
 20
3.2813031496062992
 30
0.0
 10
-1.9531377952755906
 20
3.2973188976377954
 30
0.0
 10
-1.9902322834645669
 20
3.3234685039370082
 30
0.0
 10
-1.9954803149606299
 20
3.3609803149606301
 30
0.0
 10
-1.9954803149606299
 20
3.3609803149606301
 30
0.0
 10
-2.0069960629921262
 20
3.4433228346456692
 30
0.0
 10
-1.8430157480314961
 20
3.5359055118110239
 30
0.0
 10
-1.8243267716535434
 20
3.546216535433071
 30
0.0
  0
SPLINE
  5
26
100
AcDbEntity
  8
Layer 1
 62
     7
100
AcDbSpline
210
0.0
220
0.0
230
1.0
 70
     1
 71
     3
 72
    60
 73
    56
 74
     0
 42
0.0000000001
 43
0.0000000001
 40
0.0
 40
0.0
 40
0.0
 40
0.0
 40
0.0714285714285714
 40
0.0714285714285714
 40
0.0714285714285714
 40
0.0714285714285714
 40
0.1428571428571429
 40
0.1428571428571429
 40
0.1428571428571429
 40
0.1428571428571429
 40
0.2142857142857143
 40
0.2142857142857143
 40
0.2142857142857143
 40
0.2142857142857143
 40
0.2857142857142857
 40
0.2857142857142857
 40
0.2857142857142857
 40
0.2857142857142857
 40
0.3571428571428571
 40
0.3571428571428571
 40
0.3571428571428571
 40
0.3571428571428571
 40
0.4285714285714285
 40
0.4285714285714285
 40
0.4285714285714285
 40
0.4285714285714285
 40
0.4999999999999999
 40
0.4999999999999999
 40
0.4999999999999999
 40
0.4999999999999999
 40
0.5714285714285713
 40
0.5714285714285713
 40
0.5714285714285713
 40
0.5714285714285713
 40
0.6428571428571427
 40
0.6428571428571427
 40
0.6428571428571427
 40
0.6428571428571427
 40
0.7142857142857141
 40
0.7142857142857141
 40
0.7142857142857141
 40
0.7142857142857141
 40
0.7857142857142855
 40
0.7857142857142855
 40
0.7857142857142855
 40
0.7857142857142855
 40
0.8571428571428569
 40
0.8571428571428569
 40
0.8571428571428569
 40
0.8571428571428569
 40
0.9285714285714283
 40
0.9285714285714283
 40
0.9285714285714283
 40
0.9285714285714283
 40
1.0
 40
1.0
 40
1.0
 40
1.0
 10
-0.0306771653543307
 20
3.3096102362204727
 30
0.0
 10
-0.0306771653543307
 20
3.3096102362204727
 30
0.0
 10
-0.0057637795275591
 20
3.242023622047244
 30
0.0
 10
-0.0031850393700787
 20
3.207503937007874
 30
0.0
 10
-0.0031850393700787
 20
3.207503937007874
 30
0.0
 10
-0.0031850393700787
 20
3.207503937007874
 30
0.0
 10
-0.0161102362204724
 20
3.2087401574803152
 30
0.0
 10
0.0703228346456693
 20
3.1805118110236221
 30
0.0
 10
0.0703228346456693
 20
3.1805118110236221
 30
0.0
 10
0.0641929133858268
 20
3.2013543307086616
 30
0.0
 10
0.0527874015748032
 20
3.2289685039370082
 30
0.0
 10
0.0573188976377953
 20
3.2588070866141732
 30
0.0
 10
0.0573188976377953
 20
3.2588070866141732
 30
0.0
 10
0.0573188976377953
 20
3.2588070866141732
 30
0.0
 10
-0.0096417322834646
 20
3.3069212598425199
 30
0.0
 10
-0.0621574803149606
 20
3.3800629921259846
 30
0.0
 10
-0.0621574803149606
 20
3.3800629921259846
 30
0.0
 10
-0.0638425196850394
 20
3.3823897637795275
 30
0.0
 10
-0.064492125984252
 20
3.3930984251968503
 30
0.0
 10
-0.0662007874015748
 20
3.3955590551181105
 30
0.0
 10
-0.0662007874015748
 20
3.3955590551181105
 30
0.0
 10
-0.0723976377952756
 20
3.404425196850394
 30
0.0
 10
-0.0798464566929134
 20
3.4056377952755907
 30
0.0
 10
-0.0863818897637795
 20
3.4158503937007874
 30
0.0
 10
-0.0863818897637795
 20
3.4158503937007874
 30
0.0
 10
-0.0863818897637795
 20
3.4158503937007874
 30
0.0
 10
-0.1124803149606299
 20
3.4329488188976378
 30
0.0
 10
-0.1406771653543307
 20
3.4270826771653544
 30
0.0
 10
-0.1406771653543307
 20
3.4270826771653544
 30
0.0
 10
-0.1406771653543307
 20
3.4270826771653544
 30
0.0
 10
-0.149736220472441
 20
3.4252007874015749
 30
0.0
 10
-0.1624055118110236
 20
3.423740157480315
 30
0.0
 10
-0.1624055118110236
 20
3.423740157480315
 30
0.0
 10
-0.1616181102362205
 20
3.4153149606299213
 30
0.0
 10
-0.1611299212598425
 20
3.4066023622047243
 30
0.0
 10
-0.1612244094488189
 20
3.3977559055118109
 30
0.0
 10
-0.1612244094488189
 20
3.3977559055118109
 30
0.0
 10
-0.1612244094488189
 20
3.3977559055118109
 30
0.0
 10
-0.1612125984251969
 20
3.3968425196850394
 30
0.0
 10
-0.1612125984251969
 20
3.3968425196850394
 30
0.0
 10
-0.1612125984251969
 20
3.3968425196850394
 30
0.0
 10
-0.1612125984251969
 20
3.3968425196850394
 30
0.0
 10
-0.1613346456692913
 20
3.3959251968503938
 30
0.0
 10
-0.1613346456692913
 20
3.3959251968503938
 30
0.0
 10
-0.1613346456692913
 20
3.3959251968503938
 30
0.0
 10
-0.1635157480314961
 20
3.3795905511811024
 30
0.0
 10
-0.1663937007874016
 20
3.3479330708661417
 30
0.0
 10
-0.1664212598425197
 20
3.315992125984252
 30
0.0
 10
-0.1664212598425197
 20
3.315992125984252
 30
0.0
 10
-0.155
 20
3.3171692913385828
 30
0.0
 10
-0.1416535433070866
 20
3.3191102362204727
 30
0.0
 10
-0.1257992125984252
 20
3.3222913385826773
 30
0.0
 10
-0.1257992125984252
 20
3.3222913385826773
 30
0.0
 10
-0.1257992125984252
 20
3.3222913385826773
 30
0.0
 10
-0.0772165354330709
 20
3.3358267716535432
 30
0.0
 10
-0.0306771653543307
 20
3.3096102362204727
 30
0.0
  0
SPLINE
  5
27
100
AcDbEntity
  8
Layer 1
 62
     7
100
AcDbSpline
210
0.0
220
0.0
230
1.0
 70
     1
 71
     3
 72
    32
 73
    28
 74
     0
 42
0.0000000001
 43
0.0000000001
 40
0.0
 40
0.0
 40
0.0
 40
0.0
 40
0.1428571428571429
 40
0.1428571428571429
 40
0.1428571428571429
 40
0.1428571428571429
 40
0.2857142857142857
 40
0.2857142857142857
 40
0.2857142857142857
 40
0.2857142857142857
 40
0.4285714285714286
 40
0.4285714285714286
 40
0.4285714285714286
 40
0.4285714285714286
 40
0.5714285714285714
 40
0.5714285714285714
 40
0.5714285714285714
 40
0.5714285714285714
 40
0.7142857142857142
 40
0.7142857142857142
 40
0.7142857142857142
 40
0.7142857142857142
 40
0.857142857142857
 40
0.857142857142857
 40
0.857142857142857
 40
0.857142857142857
 40
1.0
 40
1.0
 40
1.0
 40
1.0
 10
-0.3962795275590552
 20
2.0375551181102365
 30
0.0
 10
-0.3601181102362205
 20
2.0160984251968506
 30
0.0
 10
-0.3277716535433071
 20
2.01151968503937
 30
0.0
 10
-0.3112913385826772
 20
2.0246220472440948
 30
0.0
 10
-0.3112913385826772
 20
2.0246220472440948
 30
0.0
 10
-0.3033031496062992
 20
2.0309881889763779
 30
0.0
 10
-0.2984724409448819
 20
2.0411574803149608
 30
0.0
 10
-0.2968582677165355
 20
2.0548740157480316
 30
0.0
 10
-0.2968582677165355
 20
2.0548740157480316
 30
0.0
 10
-0.2923582677165355
 20
2.0940944881889765
 30
0.0
 10
-0.3153858267716536
 20
2.1521574803149606
 30
0.0
 10
-0.355492125984252
 20
2.2026692913385828
 30
0.0
 10
-0.355492125984252
 20
2.2026692913385828
 30
0.0
 10
-0.3807913385826772
 20
2.2345275590551181
 30
0.0
 10
-0.4082952755905512
 20
2.2581141732283467
 30
0.0
 10
-0.4338228346456693
 20
2.273212598425197
 30
0.0
 10
-0.4338228346456693
 20
2.273212598425197
 30
0.0
 10
-0.4338228346456693
 20
2.2700787401574805
 30
0.0
 10
-0.4338622047244095
 20
2.2681574803149607
 30
0.0
 10
-0.4338622047244095
 20
2.2681574803149607
 30
0.0
 10
-0.4338622047244095
 20
2.2681574803149607
 30
0.0
 10
-0.4343228346456693
 20
2.2550157480314961
 30
0.0
 10
-0.4414448818897638
 20
2.2444370078740157
 30
0.0
 10
-0.4512086614173229
 20
2.2359921259842519
 30
0.0
 10
-0.4512086614173229
 20
2.2359921259842519
 30
0.0
 10
-0.4082283464566929
 20
2.1739291338582678
 30
0.0
 10
-0.3902283464566929
 20
2.1027204724409452
 30
0.0
 10
-0.3962795275590552
 20
2.0375551181102365
 30
0.0
  0
SPLINE
  5
28
100
AcDbEntity
  8
Layer 1
 62
     7
100
AcDbSpline
210
0.0
220
0.0
230
1.0
 70
     1
 71
     3
 72
    28
 73
    24
 74
     0
 42
0.0000000001
 43
0.0000000001
 40
0.0
 40
0.0
 40
0.0
 40
0.0
 40
0.1666666666666667
 40
0.1666666666666667
 40
0.1666666666666667
 40
0.1666666666666667
 40
0.3333333333333333
 40
0.3333333333333333
 40
0.3333333333333333
 40
0.3333333333333333
 40
0.5
 40
0.5
 40
0.5
 40
0.5
 40
0.6666666666666666
 40
0.6666666666666666
 40
0.6666666666666666
 40
0.6666666666666666
 40
0.8333333333333333
 40
0.8333333333333333
 40
0.8333333333333333
 40
0.8333333333333333
 40
1.0
 40
1.0
 40
1.0
 40
1.0
 10
-0.4766141732283465
 20
2.2201062992125986
 30
0.0
 10
-0.4766141732283465
 20
2.2201062992125986
 30
0.0
 10
-0.5148897637795276
 20
2.2071574803149607
 30
0.0
 10
-0.517496062992126
 20
2.2064645669291338
 30
0.0
 10
-0.517496062992126
 20
2.2064645669291338
 30
0.0
 10
-0.5090590551181102
 20
2.1875511811023625
 30
0.0
 10
-0.5014763779527559
 20
2.167677165354331
 30
0.0
 10
-0.4952637795275591
 20
2.1467874015748034
 30
0.0
 10
-0.4952637795275591
 20
2.1467874015748034
 30
0.0
 10
-0.4935826771653544
 20
2.1411850393700789
 30
0.0
 10
-0.4920787401574803
 20
2.135523622047244
 30
0.0
 10
-0.4906102362204725
 20
2.129968503937008
 30
0.0
 10
-0.4906102362204725
 20
2.129968503937008
 30
0.0
 10
-0.4856338582677165
 20
2.1225787401574805
 30
0.0
 10
-0.4803464566929134
 20
2.1152598425196851
 30
0.0
 10
-0.4746496062992126
 20
2.1080629921259844
 30
0.0
 10
-0.4746496062992126
 20
2.1080629921259844
 30
0.0
 10
-0.4585748031496063
 20
2.0878700787401576
 30
0.0
 10
-0.4416771653543307
 20
2.0710551181102361
 30
0.0
 10
-0.4248858267716535
 20
2.057507874015748
 30
0.0
 10
-0.4248858267716535
 20
2.057507874015748
 30
0.0
 10
-0.4238661417322835
 20
2.1114881889763781
 30
0.0
 10
-0.4409566929133859
 20
2.1691456692913387
 30
0.0
 10
-0.4766141732283465
 20
2.2201062992125986
 30
0.0
  0
SPLINE
  5
29
100
AcDbEntity
  8
Layer 1
 62
     7
100
AcDbSpline
210
0.0
220
0.0
230
1.0
 70
     1
 71
     3
 72
    20
 73
    16
 74
     0
 42
0.0000000001
 43
0.0000000001
 40
0.0
 40
0.0
 40
0.0
 40
0.0
 40
0.25
 40
0.25
 40
0.25
 40
0.25
 40
0.5
 40
0.5
 40
0.5
 40
0.5
 40
0.75
 40
0.75
 40
0.75
 40
0.75
 40
1.0
 40
1.0
 40
1.0
 40
1.0
 10
-0.4281929133858268
 20
2.0227559055118109
 30
0.0
 10
-0.4452283464566929
 20
2.0347480314960631
 30
0.0
 10
-0.4621811023622047
 20
2.049736220472441
 30
0.0
 10
-0.4783779527559056
 20
2.0671220472440948
 30
0.0
 10
-0.4783779527559056
 20
2.0671220472440948
 30
0.0
 10
-0.4779291338582677
 20
2.0637401574803151
 30
0.0
 10
-0.4776850393700788
 20
2.0604566929133861
 30
0.0
 10
-0.4773464566929134
 20
2.0571220472440945
 30
0.0
 10
-0.4773464566929134
 20
2.0571220472440945
 30
0.0
 10
-0.4615314960629922
 20
2.0451141732283467
 30
0.0
 10
-0.4452952755905512
 20
2.0326377952755905
 30
0.0
 10
-0.4288307086614173
 20
2.019720472440945
 30
0.0
 10
-0.4288307086614173
 20
2.019720472440945
 30
0.0
 10
-0.4286259842519685
 20
2.0207755905511813
 30
0.0
 10
-0.4283582677165355
 20
2.0217283464566931
 30
0.0
 10
-0.4281929133858268
 20
2.0227559055118109
 30
0.0
  0
SPLINE
  5
2A
100
AcDbEntity
  8
Layer 1
 62
     7
100
AcDbSpline
210
0.0
220
0.0
230
1.0
 70
     1
 71
     3
 72
    20
 73
    16
 74
     0
 42
0.0000000001
 43
0.0000000001
 40
0.0
 40
0.0
 40
0.0
 40
0.0
 40
0.25
 40
0.25
 40
0.25
 40
0.25
 40
0.5
 40
0.5
 40
0.5
 40
0.5
 40
0.75
 40
0.75
 40
0.75
 40
0.75
 40
1.0
 40
1.0
 40
1.0
 40
1.0
 10
-0.8009015748031496
 20
2.3034055118110235
 30
0.0
 10
-0.8058937007874016
 20
2.299685039370079
 30
0.0
 10
-0.8104488188976379
 20
2.2955708661417322
 30
0.0
 10
-0.8149251968503938
 20
2.2913937007874017
 30
0.0
 10
-0.8149251968503938
 20
2.2913937007874017
 30
0.0
 10
-0.8116141732283465
 20
2.2893858267716536
 30
0.0
 10
-0.8083740157480315
 20
2.2873700787401576
 30
0.0
 10
-0.8050393700787402
 20
2.2853031496062992
 30
0.0
 10
-0.8050393700787402
 20
2.2853031496062992
 30
0.0
 10
-0.8020118110236221
 20
2.2931220472440947
 30
0.0
 10
-0.7986771653543308
 20
2.3005551181102364
 30
0.0
 10
-0.7949212598425197
 20
2.3074370078740158
 30
0.0
 10
-0.7949212598425197
 20
2.3074370078740158
 30
0.0
 10
-0.7968858267716535
 20
2.3061023622047245
 30
0.0
 10
-0.7990039370078741
 20
2.3048818897637795
 30
0.0
 10
-0.8009015748031496
 20
2.3034055118110235
 30
0.0
  0
SPLINE
  5
2B
100
AcDbEntity
  8
Layer 1
 62
     7
100
AcDbSpline
210
0.0
220
0.0
230
1.0
 70
     1
 71
     3
 72
    44
 73
    40
 74
     0
 42
0.0000000001
 43
0.0000000001
 40
0.0
 40
0.0
 40
0.0
 40
0.0
 40
0.1
 40
0.1
 40
0.1
 40
0.1
 40
0.2
 40
0.2
 40
0.2
 40
0.2
 40
0.3
 40
0.3
 40
0.3
 40
0.3
 40
0.4
 40
0.4
 40
0.4
 40
0.4
 40
0.5
 40
0.5
 40
0.5
 40
0.5
 40
0.6
 40
0.6
 40
0.6
 40
0.6
 40
0.7
 40
0.7
 40
0.7
 40
0.7
 40
0.7999999999999999
 40
0.7999999999999999
 40
0.7999999999999999
 40
0.7999999999999999
 40
0.8999999999999999
 40
0.8999999999999999
 40
0.8999999999999999
 40
0.8999999999999999
 40
1.0
 40
1.0
 40
1.0
 40
1.0
 10
-0.6561377952755906
 20
2.330692913385827
 30
0.0
 10
-0.664007874015748
 20
2.3347559055118112
 30
0.0
 10
-0.671724409448819
 20
2.3376102362204727
 30
0.0
 10
-0.6792637795275591
 20
2.339507874015748
 30
0.0
 10
-0.6792637795275591
 20
2.339507874015748
 30
0.0
 10
-0.6954606299212599
 20
2.340244094488189
 30
0.0
 10
-0.711248031496063
 20
2.3388858267716537
 30
0.0
 10
-0.726507874015748
 20
2.3359133858267715
 30
0.0
 10
-0.726507874015748
 20
2.3359133858267715
 30
0.0
 10
-0.7499291338582678
 20
2.3253503937007873
 30
0.0
 10
-0.7676968503937008
 20
2.3014055118110237
 30
0.0
 10
-0.778984251968504
 20
2.2690866141732284
 30
0.0
 10
-0.778984251968504
 20
2.2690866141732284
 30
0.0
 10
-0.7401377952755905
 20
2.2446062992125984
 30
0.0
 10
-0.7013858267716536
 20
2.2188425196850394
 30
0.0
 10
-0.6713307086614173
 20
2.1959291338582676
 30
0.0
 10
-0.6713307086614173
 20
2.1959291338582676
 30
0.0
 10
-0.6713307086614173
 20
2.1959291338582676
 30
0.0
 10
-0.6020196850393701
 20
2.1500039370078743
 30
0.0
 10
-0.5107795275590551
 20
2.0822244094488189
 30
0.0
 10
-0.5107795275590551
 20
2.0822244094488189
 30
0.0
 10
-0.5127322834645669
 20
2.09401968503937
 30
0.0
 10
-0.5152007874015748
 20
2.1058937007874015
 30
0.0
 10
-0.5181574803149607
 20
2.1178503937007873
 30
0.0
 10
-0.5181574803149607
 20
2.1178503937007873
 30
0.0
 10
-0.5373110236220473
 20
2.1471692913385829
 30
0.0
 10
-0.5509291338582677
 20
2.1773188976377953
 30
0.0
 10
-0.558007874015748
 20
2.2053188976377953
 30
0.0
 10
-0.558007874015748
 20
2.2053188976377953
 30
0.0
 10
-0.5944803149606299
 20
2.215933070866142
 30
0.0
 10
-0.616224409448819
 20
2.2545472440944883
 30
0.0
 10
-0.616224409448819
 20
2.2545472440944883
 30
0.0
 10
-0.616224409448819
 20
2.2545472440944883
 30
0.0
 10
-0.6229488188976379
 20
2.2696377952755906
 30
0.0
 10
-0.6205511811023622
 20
2.2843818897637798
 30
0.0
 10
-0.6129291338582678
 20
2.2982165354330708
 30
0.0
 10
-0.6129291338582678
 20
2.2982165354330708
 30
0.0
 10
-0.6267480314960631
 20
2.3119212598425198
 30
0.0
 10
-0.6412874015748031
 20
2.3230708661417325
 30
0.0
 10
-0.6561377952755906
 20
2.330692913385827
 30
0.0
  0
SPLINE
  5
2C
100
AcDbEntity
  8
Layer 1
 62
     7
100
AcDbSpline
210
0.0
220
0.0
230
1.0
 70
     1
 71
     3
 72
    68
 73
    64
 74
     0
 42
0.0000000001
 43
0.0000000001
 40
0.0
 40
0.0
 40
0.0
 40
0.0
 40
0.0625
 40
0.0625
 40
0.0625
 40
0.0625
 40
0.125
 40
0.125
 40
0.125
 40
0.125
 40
0.1875
 40
0.1875
 40
0.1875
 40
0.1875
 40
0.25
 40
0.25
 40
0.25
 40
0.25
 40
0.3125
 40
0.3125
 40
0.3125
 40
0.3125
 40
0.375
 40
0.375
 40
0.375
 40
0.375
 40
0.4375
 40
0.4375
 40
0.4375
 40
0.4375
 40
0.5
 40
0.5
 40
0.5
 40
0.5
 40
0.5625
 40
0.5625
 40
0.5625
 40
0.5625
 40
0.625
 40
0.625
 40
0.625
 40
0.625
 40
0.6875
 40
0.6875
 40
0.6875
 40
0.6875
 40
0.75
 40
0.75
 40
0.75
 40
0.75
 40
0.8125
 40
0.8125
 40
0.8125
 40
0.8125
 40
0.875
 40
0.875
 40
0.875
 40
0.875
 40
0.9375
 40
0.9375
 40
0.9375
 40
0.9375
 40
1.0
 40
1.0
 40
1.0
 40
1.0
 10
-0.1947677165354331
 20
2.1868661417322834
 30
0.0
 10
-0.1947677165354331
 20
2.1868661417322834
 30
0.0
 10
-0.2367755905511811
 20
2.2184094488188979
 30
0.0
 10
-0.2275118110236221
 20
2.2934763779527558
 30
0.0
 10
-0.2275118110236221
 20
2.2934763779527558
 30
0.0
 10
-0.2275118110236221
 20
2.2934763779527558
 30
0.0
 10
-0.2030669291338583
 20
2.3647165354330708
 30
0.0
 10
-0.214992125984252
 20
2.4579724409448818
 30
0.0
 10
-0.214992125984252
 20
2.4579724409448818
 30
0.0
 10
-0.214992125984252
 20
2.4579724409448818
 30
0.0
 10
-0.2759448818897638
 20
2.3443976377952755
 30
0.0
 10
-0.3540551181102362
 20
2.3286456692913386
 30
0.0
 10
-0.3540551181102362
 20
2.3286456692913386
 30
0.0
 10
-0.3540551181102362
 20
2.3286456692913386
 30
0.0
 10
-0.3672952755905512
 20
2.2875551181102365
 30
0.0
 10
-0.4223070866141733
 20
2.3009685039370078
 30
0.0
 10
-0.4223070866141733
 20
2.3009685039370078
 30
0.0
 10
-0.3916811023622047
 20
2.2834921259842522
 30
0.0
 10
-0.3602125984251969
 20
2.2562834645669292
 30
0.0
 10
-0.3323149606299213
 20
2.2211299212598425
 30
0.0
 10
-0.3323149606299213
 20
2.2211299212598425
 30
0.0
 10
-0.2868228346456693
 20
2.1638622047244094
 30
0.0
 10
-0.261988188976378
 20
2.0988818897637795
 30
0.0
 10
-0.2673976377952756
 20
2.051543307086614
 30
0.0
 10
-0.2673976377952756
 20
2.051543307086614
 30
0.0
 10
-0.2698818897637795
 20
2.02996062992126
 30
0.0
 10
-0.2786732283464567
 20
2.0126574803149606
 30
0.0
 10
-0.2928464566929134
 20
2.0013937007874016
 30
0.0
 10
-0.2928464566929134
 20
2.0013937007874016
 30
0.0
 10
-0.318996062992126
 20
1.9806377952755907
 30
0.0
 10
-0.359007874015748
 20
1.9838897637795276
 30
0.0
 10
-0.4012165354330709
 20
2.0061220472440944
 30
0.0
 10
-0.4012165354330709
 20
2.0061220472440944
 30
0.0
 10
-0.4017165354330709
 20
2.0038307086614173
 30
0.0
 10
-0.4024212598425197
 20
2.0015984251968506
 30
0.0
 10
-0.4030078740157481
 20
1.9992992125984252
 30
0.0
 10
-0.4030078740157481
 20
1.9992992125984252
 30
0.0
 10
-0.3661141732283465
 20
1.9698622047244094
 30
0.0
 10
-0.3286259842519685
 20
1.9386574803149608
 30
0.0
 10
-0.2928700787401575
 20
1.9068464566929135
 30
0.0
 10
-0.2928700787401575
 20
1.9068464566929135
 30
0.0
 10
-0.2928700787401575
 20
1.9068464566929135
 30
0.0
 10
-0.2700433070866142
 20
1.9333661417322836
 30
0.0
 10
-0.2503385826771654
 20
1.9348385826771655
 30
0.0
 10
-0.2503385826771654
 20
1.9348385826771655
 30
0.0
 10
-0.2503385826771654
 20
1.9348385826771655
 30
0.0
 10
-0.2392283464566929
 20
1.9852283464566929
 30
0.0
 10
-0.2141929133858268
 20
1.9821614173228348
 30
0.0
 10
-0.2141929133858268
 20
1.9821614173228348
 30
0.0
 10
-0.2141929133858268
 20
1.9821614173228348
 30
0.0
 10
-0.1981574803149606
 20
2.0329173228346455
 30
0.0
 10
-0.2208110236220472
 20
2.0708740157480316
 30
0.0
 10
-0.2208110236220472
 20
2.0708740157480316
 30
0.0
 10
-0.2208110236220472
 20
2.0708740157480316
 30
0.0
 10
-0.2719448818897638
 20
2.0918700787401576
 30
0.0
 10
-0.2336259842519685
 20
2.1095826771653545
 30
0.0
 10
-0.2336259842519685
 20
2.1095826771653545
 30
0.0
 10
-0.2336259842519685
 20
2.1095826771653545
 30
0.0
 10
-0.1346299212598425
 20
2.112031496062992
 30
0.0
 10
-0.1346299212598425
 20
2.112031496062992
 30
0.0
 10
-0.1346299212598425
 20
2.112031496062992
 30
0.0
 10
-0.1346299212598425
 20
2.112031496062992
 30
0.0
 10
-0.1291771653543307
 20
2.1719015748031496
 30
0.0
 10
-0.1947677165354331
 20
2.1868661417322834
 30
0.0
  0
SPLINE
  5
2D
100
AcDbEntity
  8
Layer 1
 62
     7
100
AcDbSpline
210
0.0
220
0.0
230
1.0
 70
     1
 71
     3
 72
    40
 73
    36
 74
     0
 42
0.0000000001
 43
0.0000000001
 40
0.0
 40
0.0
 40
0.0
 40
0.0
 40
0.1111111111111111
 40
0.1111111111111111
 40
0.1111111111111111
 40
0.1111111111111111
 40
0.2222222222222222
 40
0.2222222222222222
 40
0.2222222222222222
 40
0.2222222222222222
 40
0.3333333333333333
 40
0.3333333333333333
 40
0.3333333333333333
 40
0.3333333333333333
 40
0.4444444444444444
 40
0.4444444444444444
 40
0.4444444444444444
 40
0.4444444444444444
 40
0.5555555555555556
 40
0.5555555555555556
 40
0.5555555555555556
 40
0.5555555555555556
 40
0.6666666666666667
 40
0.6666666666666667
 40
0.6666666666666667
 40
0.6666666666666667
 40
0.7777777777777779
 40
0.7777777777777779
 40
0.7777777777777779
 40
0.7777777777777779
 40
0.8888888888888891
 40
0.8888888888888891
 40
0.8888888888888891
 40
0.8888888888888891
 40
1.0
 40
1.0
 40
1.0
 40
1.0
 10
-1.875472440944882
 20
3.3100551181102364
 30
0.0
 10
-1.8687598425196852
 20
3.3082401574803151
 30
0.0
 10
-1.2676456692913387
 20
3.1448346456692913
 30
0.0
 10
-0.9093818897637795
 20
3.2731968503937008
 30
0.0
 10
-0.9093818897637795
 20
3.2731968503937008
 30
0.0
 10
-0.9052992125984253
 20
3.2746496062992128
 30
0.0
 10
-0.5141299212598426
 20
3.4119094488188977
 30
0.0
 10
-0.2466614173228346
 20
3.459972440944882
 30
0.0
 10
-0.2466614173228346
 20
3.459972440944882
 30
0.0
 10
-0.2480433070866142
 20
3.4716023622047247
 30
0.0
 10
-0.245740157480315
 20
3.486751968503937
 30
0.0
 10
-0.2304133858267717
 20
3.5001220472440946
 30
0.0
 10
-0.2304133858267717
 20
3.5001220472440946
 30
0.0
 10
-0.2304133858267717
 20
3.5001220472440946
 30
0.0
 10
-0.2275118110236221
 20
3.5072047244094491
 30
0.0
 10
-0.2176102362204725
 20
3.5140157480314964
 30
0.0
 10
-0.2176102362204725
 20
3.5140157480314964
 30
0.0
 10
-0.2441102362204725
 20
3.5597992125984255
 30
0.0
 10
-0.3306732283464567
 20
3.5963503937007877
 30
0.0
 10
-0.3650551181102362
 20
3.6075748031496064
 30
0.0
 10
-0.3650551181102362
 20
3.6075748031496064
 30
0.0
 10
-0.3762874015748032
 20
3.6096259842519687
 30
0.0
 10
-0.4740629921259843
 20
3.628437007874016
 30
0.0
 10
-0.6263149606299213
 20
3.6931456692913387
 30
0.0
 10
-0.6263149606299213
 20
3.6931456692913387
 30
0.0
 10
-0.6311811023622047
 20
3.6948700787401578
 30
0.0
 10
-1.1875
 20
3.8917913385826775
 30
0.0
 10
-1.8095669291338583
 20
3.520456692913386
 30
0.0
 10
-1.8095669291338583
 20
3.520456692913386
 30
0.0
 10
-1.8738700787401577
 20
3.4851181102362205
 30
0.0
 10
-1.9726692913385828
 20
3.4119645669291341
 30
0.0
 10
-1.9660905511811024
 20
3.3651181102362204
 30
0.0
 10
-1.9660905511811024
 20
3.3651181102362204
 30
0.0
 10
-1.9619645669291339
 20
3.3357204724409448
 30
0.0
 10
-1.9145629921259844
 20
3.318968503937008
 30
0.0
 10
-1.875472440944882
 20
3.3100551181102364
 30
0.0
  0
SPLINE
  5
2E
100
AcDbEntity
  8
Layer 1
 62
     7
100
AcDbSpline
210
0.0
220
0.0
230
1.0
 70
     1
 71
     3
 72
    20
 73
    16
 74
     0
 42
0.0000000001
 43
0.0000000001
 40
0.0
 40
0.0
 40
0.0
 40
0.0
 40
0.25
 40
0.25
 40
0.25
 40
0.25
 40
0.5
 40
0.5
 40
0.5
 40
0.5
 40
0.75
 40
0.75
 40
0.75
 40
0.75
 40
1.0
 40
1.0
 40
1.0
 40
1.0
 10
0.7710354330708662
 20
0.8708149606299213
 30
0.0
 10
0.7710354330708662
 20
0.8708149606299213
 30
0.0
 10
0.7882598425196851
 20
0.7729409448818898
 30
0.0
 10
0.770232283464567
 20
0.6823700787401575
 30
0.0
 10
0.770232283464567
 20
0.6823700787401575
 30
0.0
 10
0.770232283464567
 20
0.6823700787401575
 30
0.0
 10
0.7351574803149606
 20
0.6202559055118111
 30
0.0
 10
0.7384685039370079
 20
0.5758937007874015
 30
0.0
 10
0.7384685039370079
 20
0.5758937007874015
 30
0.0
 10
0.7384685039370079
 20
0.5758937007874015
 30
0.0
 10
0.6959488188976378
 20
0.5479173228346457
 30
0.0
 10
0.6765905511811023
 20
0.5415511811023622
 30
0.0
 10
0.6765905511811023
 20
0.5415511811023622
 30
0.0
 10
0.6765905511811023
 20
0.5415511811023622
 30
0.0
 10
0.75248031496063
 20
0.7206535433070866
 30
0.0
 10
0.7710354330708662
 20
0.8708149606299213
 30
0.0
  0
ENDSEC
  0
SECTION
  2
OBJECTS
  0
DICTIONARY
  5
19
100
AcDbDictionary
280
     0
281
     1
  3
ACAD_GROUP
350
1A
  3
ACAD_MLINESTYLE
350
1B
  3
ACAD_LAYOUT
350
1E
  3
ACAD_PLOTSETTINGS
350
22
  3
ACAD_PLOTSTYLENAME
350
1F
  3
ACAD_WIPEOUT_VARS
350
23
  0
DICTIONARY
  5
1A
102
{ACAD_REACTORS
330
19
102
}
100
AcDbDictionary
280
     0
281
     1
  0
DICTIONARY
  5
1B
102
{ACAD_REACTORS
330
19
102
}
100
AcDbDictionary
280
     0
281
     1
  3
Standard
350
1C
  0
MLINESTYLE
  5
1C
102
{ACAD_REACTORS
330
1B
102
}
100
AcDbMlineStyle
  2
Standard
 70
     0
  3

 62
     0
 51
90.0
 52
90.0
 71
     2
 49
0.5
 62
   256
  6
BYLAYER
 49
-0.5
 62
   256
  6
BYLAYER
  0
ACDBDICTIONARYWDFLT
  5
1F
102
{ACAD_REACTORS
330
19
102
}
100
AcDbDictionary
281
     1
  3
Normal
350
1D
100
AcDbDictionaryWithDefault
340
1D
  0
ACDBPLACEHOLDER
  5
1D
102
{ACAD_REACTORS
330
1F
102
}
  0
LAYOUT
  5
20
102
{ACAD_REACTORS
330
1E
102
}
100
AcDbPlotSettings
  1

  2

  4

  6

 40
0.0
 41
0.0
 42
0.0
 43
0.0
 44
0.0
 45
0.0
 46
0.0
 47
0.0
 48
0.0
 49
0.0
140
0.0
141
0.0
142
1.0
143
1.0
 70
  1024
 72
     0
 73
     0
 74
     0
  7

 75
     0
147
1.0
148
0.0
149
0.0
100
AcDbLayout
  1
Model
 70
     0
 71
     0
 10
0.0
 20
0.0
 11
0.0
 21
0.0
 12
0.0
 22
0.0
 32
0.0
 14
0.0
 24
0.0
 34
0.0
 15
0.0
 25
0.0
 35
0.0
146
0.0
 13
0.0
 23
0.0
 33
0.0
 16
0.0
 26
0.0
 36
0.0
 17
0.0
 27
0.0
 37
0.0
 76
     0
330
A
331
0
345
0
346
0
  0
LAYOUT
  5
21
102
{ACAD_REACTORS
330
1E
102
}
100
AcDbPlotSettings
  1

  2

  4

  6

 40
0.0
 41
0.0
 42
0.0
 43
0.0
 44
0.0
 45
0.0
 46
0.0
 47
0.0
 48
0.0
 49
0.0
140
0.0
141
0.0
142
1.0
143
1.0
 70
     0
 72
     0
 73
     0
 74
     0
  7

 75
     0
147
1.0
148
0.0
149
0.0
100
AcDbLayout
  1
Layout1
 70
     0
 71
     0
 10
0.0
 20
0.0
 11
0.0
 21
0.0
 12
0.0
 22
0.0
 32
0.0
 14
0.0
 24
0.0
 34
0.0
 15
0.0
 25
0.0
 35
0.0
146
0.0
 13
0.0
 23
0.0
 33
0.0
 16
0.0
 26
0.0
 36
0.0
 17
0.0
 27
0.0
 37
0.0
 76
     0
330
B
331
0
345
0
346
0
  0
DICTIONARY
  5
1E
102
{ACAD_REACTORS
330
19
102
}
100
AcDbDictionary
280
     0
281
     1
  3
Layout1
350
21
  3
Model
350
20
  0
DICTIONARY
  5
22
102
{ACAD_REACTORS
330
19
102
}
100
AcDbDictionary
280
     0
281
     1
  0
WIPEOUTVARIABLES
  5
23
100
AcDbWipeoutVariables
 70
     1
  0
ENDSEC
  0
EOF
