  0
SECTION
  2
HEADER
  9
$ACADVER
  1
AC1009
  9
$LIMMIN
 10
0.000000
 20
0.000000
  9
$LIMMAX
 10
239.673849
 20
132.138432
  0
ENDSEC
  0
SECTION
  2
TABLES
  0
TABLE
  2
LTYPE
 70
     4
  0
LTYPE
  2
CONTINUOUS
 70
     0
  3
Solid line
 72
    65
 73
     0
 40
0.000000
  0
LTYPE
  2
HIDDEN
 70
     0
  3
 _ _ _ _ _ _ _ _ _ _ _
 72
    65
 73
     2
 40
0.375000
 49
0.250000
 49
-0.125000
  0
LTYPE
  2
DASHED
 70
     0
  3
 ___ ___ ___ ___ ___ ___ ___ 
 72
    65
 73
     2
 40
0.750000
 49
0.500000
 49
-0.250000
  0
LTYPE
  2
CENTER
 70
     0
  3
___ _ ___ _ ___ _ ___
 72
    65
 73
     4
 40
2.000000
 49
1.250000
 49
-0.250000
 49
0.250000
 49
-0.250000
  0
LTYPE
  2
BORDER
 70
     0
  3
___ ___ . ___ ___ . ___ ___
 72
    65
 73
     6
 40
1.750000
 49
0.500000
 49
-0.250000
 49
0.500000
 49
-0.250000
 49
0.000000
 49
-0.250000
  0
LTYPE
  2
DOT
 70
     0
  3
.................
 72
    65
 73
     2
 40
0.250000
 49
0.000000
 49
-0.250000
  0
LTYPE
  2
DASHDOT
 70
     0
  3
__ . __ . __ . __
 72
    65
 73
     4
 40
1.000000
 49
0.500000
 49
-0.250000
 49
0.000000
 49
-0.250000
  0
LTYPE
  2
DIVIDE
 70
     0
  3
___ .. ___ .. ___ .. ___
 72
    65
 73
     6
 40
1.250000
 49
0.500000
 49
-0.250000
 49
0.000000
 49
-0.250000
 49
0.000000
 49
-0.250000
  0
ENDTAB
  0
TABLE
  2
LAYER
 70
     8
  0
LAYER
  2
BLACK
 70
     0
 62
     1
  6
CONTINUOUS
  0
LAYER
  2
WHITE
 70
     0
 62
     7
  6
CONTINUOUS
  0
LAYER
  2
RED
 70
     0
 62
     1
  6
CONTINUOUS
  0
LAYER
  2
YELLOW
 70
     0
 62
     2
  6
CONTINUOUS
  0
LAYER
  2
GREEN
 70
     0
 62
     3
  6
CONTINUOUS
  0
LAYER
  2
CYAN
 70
     0
 62
     4
  6
CONTINUOUS
  0
LAYER
  2
BLUE
 70
     0
 62
     5
  6
CONTINUOUS
  0
LAYER
  2
MAGENTA
 70
     0
 62
     6
  6
CONTINUOUS
  0
ENDTAB
  0
ENDSEC
  0
SECTION
  2
BLOCKS
  0
ENDSEC
  0
SECTION
  2
ENTITIES
  0
ARC
  8
WHITE
 10
55.229449
 20
40.628242
 30
0.000000
 40
4.798775
 50
166.802000
 51
227.722000
  6
CONTINUOUS
  0
ARC
  8
WHITE
 10
74.044849
 20
54.382392
 30
0.000000
 40
28.024571
 50
-141.867395
 51
-120.207866
  6
CONTINUOUS
  0
ARC
  8
WHITE
 10
59.484730
 20
29.259067
 30
0.000000
 40
1.014594
 50
-112.352388
 51
63.045340
  6
CONTINUOUS
  0
ARC
  8
WHITE
 10
69.273535
 20
54.428723
 30
0.000000
 40
28.020567
 50
-145.318662
 51
-111.291555
  6
CONTINUOUS
  0
LINE
  8
WHITE
 10
46.231399
 20
38.484692
 30
0.000000
 11
47.591149
 21
42.989192
 31
0.000000
  6
CONTINUOUS
  0
LINE
  8
WHITE
 10
47.591149
 20
42.989192
 30
0.000000
 11
46.583149
 21
43.293692
 31
0.000000
  6
CONTINUOUS
  0
LINE
  8
WHITE
 10
46.583149
 20
43.293692
 30
0.000000
 11
45.485862
 21
39.650158
 31
0.000000
  6
CONTINUOUS
  0
ARC
  8
WHITE
 10
45.325599
 20
44.169392
 30
0.000000
 40
4.522075
 50
-137.148382
 51
-87.969000
  6
CONTINUOUS
  0
ARC
  8
WHITE
 10
43.396449
 20
42.591092
 30
0.000000
 40
2.040220
 50
130.427592
 51
227.207000
  6
CONTINUOUS
  0
ARC
  8
WHITE
 10
41.811649
 20
45.660792
 30
0.000000
 40
1.539060
 50
-80.208000
 51
180.562149
  6
CONTINUOUS
  0
ARC
  8
WHITE
 10
39.755999
 20
46.880092
 30
0.000000
 40
1.338165
 50
-146.109922
 51
-67.288000
  6
CONTINUOUS
  0
ARC
  8
WHITE
 10
38.139849
 20
45.713742
 30
0.000000
 40
0.657205
 50
39.744000
 51
156.444556
  6
CONTINUOUS
  0
ARC
  8
WHITE
 10
36.439249
 20
46.464742
 30
0.000000
 40
1.201835
 50
-167.893373
 51
-23.975000
  6
CONTINUOUS
  0
ARC
  8
WHITE
 10
34.424749
 20
46.018292
 30
0.000000
 40
0.861625
 50
13.038700
 51
140.212333
  6
CONTINUOUS
  0
ARC
  8
WHITE
 10
33.059799
 20
47.603642
 30
0.000000
 40
1.250240
 50
-172.533732
 51
-55.793000
  6
CONTINUOUS
  0
ARC
  8
WHITE
 10
30.935949
 20
47.478942
 30
0.000000
 40
0.885040
 50
-2.445000
 51
134.225460
  6
CONTINUOUS
  0
ARC
  8
WHITE
 10
29.799549
 20
49.267742
 30
0.000000
 40
1.265925
 50
-179.543178
 51
-65.791000
  6
CONTINUOUS
  0
ARC
  8
WHITE
 10
27.710399
 20
48.906292
 30
0.000000
 40
0.895120
 50
23.111700
 51
200.989337
  6
CONTINUOUS
  0
ARC
  8
WHITE
 10
4.525414
 20
43.708492
 30
0.000000
 40
22.875250
 50
1.814829
 51
12.310400
  6
CONTINUOUS
  0
ARC
  8
WHITE
 10
22.846199
 20
45.266242
 30
0.000000
 40
4.618785
 50
-90.565056
 51
-10.394000
  6
CONTINUOUS
  0
LINE
  8
WHITE
 10
22.800649
 20
40.647692
 30
0.000000
 11
23.078899
 21
42.941942
 31
0.000000
  6
CONTINUOUS
  0
LINE
  8
WHITE
 10
23.078899
 20
42.941942
 30
0.000000
 11
23.603899
 21
47.236442
 31
0.000000
  6
CONTINUOUS
  0
LINE
  8
WHITE
 10
23.603899
 20
47.236442
 30
0.000000
 11
24.653899
 21
55.814992
 31
0.000000
  6
CONTINUOUS
  0
LINE
  8
WHITE
 10
24.653899
 20
55.814992
 30
0.000000
 11
23.609149
 21
55.940992
 31
0.000000
  6
CONTINUOUS
  0
LINE
  8
WHITE
 10
23.609149
 20
55.940992
 30
0.000000
 11
23.147149
 21
52.166192
 31
0.000000
  6
CONTINUOUS
  0
LINE
  8
WHITE
 10
23.147149
 20
52.166192
 30
0.000000
 11
22.690399
 21
48.391442
 31
0.000000
  6
CONTINUOUS
  0
LINE
  8
WHITE
 10
22.690399
 20
48.391442
 30
0.000000
 11
22.228399
 21
44.611442
 31
0.000000
  6
CONTINUOUS
  0
LINE
  8
WHITE
 10
22.228399
 20
44.611442
 30
0.000000
 11
21.719147
 21
40.469137
 31
0.000000
  6
CONTINUOUS
  0
ARC
  8
WHITE
 10
27.863299
 20
12.734042
 30
0.000000
 40
28.407500
 50
102.491000
 51
119.875774
  6
CONTINUOUS
  0
ARC
  8
WHITE
 10
11.529849
 20
40.395642
 30
0.000000
 40
3.733920
 50
-127.928322
 51
-54.221000
  6
CONTINUOUS
  0
ARC
  8
WHITE
 10
13.253199
 20
44.199792
 30
0.000000
 40
7.855100
 50
-145.121138
 51
-120.769000
  6
CONTINUOUS
  0
ARC
  8
WHITE
 10
7.617034
 20
40.116357
 30
0.000000
 40
0.905252
 50
69.231413
 51
206.820754
  6
CONTINUOUS
  0
ARC
  8
WHITE
 10
6.072735
 20
57.268492
 30
0.000000
 40
16.412050
 50
-83.474000
 51
-38.800816
  6
CONTINUOUS
  0
ARC
  8
WHITE
 10
17.330549
 20
48.564142
 30
0.000000
 40
2.201030
 50
-45.867000
 51
117.730131
  6
CONTINUOUS
  0
ARC
  8
WHITE
 10
1.732374
 20
95.315992
 30
0.000000
 40
47.114300
 50
-79.645246
 51
-71.981000
  6
CONTINUOUS
  0
ARC
  8
WHITE
 10
7.934484
 20
67.701031
 30
0.000000
 40
18.868528
 50
-91.902989
 51
-83.101516
  6
CONTINUOUS
  0
ARC
  8
WHITE
 10
3.259709
 20
44.706192
 30
0.000000
 40
5.787950
 50
45.619600
 51
72.414507
  6
CONTINUOUS
  0
ARC
  8
WHITE
 10
5.575973
 20
50.991769
 30
0.000000
 40
0.955019
 50
98.887836
 51
233.538651
  6
CONTINUOUS
  0
ARC
  8
WHITE
 10
2.656759
 20
56.046492
 30
0.000000
 40
4.958210
 50
-56.013000
 51
-21.628528
  6
CONTINUOUS
  0
ARC
  8
WHITE
 10
9.046419
 20
52.764992
 30
0.000000
 40
2.298720
 50
84.645804
 51
140.765000
  6
CONTINUOUS
  0
LINE
  8
WHITE
 10
9.260919
 20
55.053692
 30
0.000000
 11
8.714919
 21
53.252942
 31
0.000000
  6
CONTINUOUS
  0
LINE
  8
WHITE
 10
8.714919
 20
53.252942
 30
0.000000
 11
9.722919
 21
52.948442
 31
0.000000
  6
CONTINUOUS
  0
LINE
  8
WHITE
 10
9.722919
 20
52.948442
 30
0.000000
 11
10.820169
 21
56.591992
 31
0.000000
  6
CONTINUOUS
  0
LINE
  8
WHITE
 10
10.820169
 20
56.591992
 30
0.000000
 11
12.421399
 21
61.720992
 31
0.000000
  6
CONTINUOUS
  0
LINE
  8
WHITE
 10
12.421399
 20
61.720992
 30
0.000000
 11
13.754597
 21
61.720792
 31
0.000000
  6
CONTINUOUS
  0
ARC
  8
WHITE
 10
54.621099
 20
16.214292
 30
0.000000
 40
61.163000
 50
124.579765
 51
131.925000
  6
CONTINUOUS
  0
ARC
  8
WHITE
 10
24.795471
 20
58.308407
 30
0.000000
 40
9.600811
 50
63.532670
 51
120.602621
  6
CONTINUOUS
  0
ARC
  8
WHITE
 10
22.749749
 20
55.870992
 30
0.000000
 40
12.716350
 50
24.861499
 51
60.174100
  6
CONTINUOUS
  0
ARC
  8
WHITE
 10
30.444299
 20
59.399492
 30
0.000000
 40
4.251600
 50
-58.670733
 51
25.312800
  6
CONTINUOUS
  0
ARC
  8
WHITE
 10
30.916599
 20
67.417492
 30
0.000000
 40
11.778700
 50
-95.008949
 51
-81.513000
  6
CONTINUOUS
  0
ARC
  8
WHITE
 10
29.735699
 20
54.976392
 30
0.000000
 40
0.723545
 50
77.834400
 51
300.063886
  6
CONTINUOUS
  0
ARC
  8
WHITE
 10
30.921049
 20
53.132742
 30
0.000000
 40
1.469460
 50
11.518529
 51
124.055000
  6
CONTINUOUS
  0
ARC
  8
WHITE
 10
32.884099
 20
53.226742
 30
0.000000
 40
0.559905
 50
159.134000
 51
376.327257
  6
CONTINUOUS
  0
ARC
  8
WHITE
 10
34.165149
 20
52.638992
 30
0.000000
 40
1.052785
 50
23.182240
 51
134.944000
  6
CONTINUOUS
  0
ARC
  8
WHITE
 10
35.713799
 20
52.832992
 30
0.000000
 40
0.621295
 50
159.219000
 51
376.690076
  6
CONTINUOUS
  0
ARC
  8
WHITE
 10
37.266799
 20
53.106392
 30
0.000000
 40
0.962575
 50
16.774702
 51
185.662000
  6
CONTINUOUS
  0
ARC
  8
WHITE
 10
38.734399
 20
53.342192
 30
0.000000
 40
0.547615
 50
175.601000
 51
355.599973
  6
CONTINUOUS
  0
ARC
  8
WHITE
 10
46.677749
 20
50.717342
 30
0.000000
 40
7.835300
 50
147.450626
 51
160.753000
  6
CONTINUOUS
  0
ARC
  8
WHITE
 10
40.776299
 20
54.234792
 30
0.000000
 40
0.990840
 50
11.297660
 51
135.204000
  6
CONTINUOUS
  0
ARC
  8
WHITE
 10
42.467949
 20
54.439492
 30
0.000000
 40
0.720120
 50
-179.157000
 51
12.625908
  6
CONTINUOUS
  0
ARC
  8
WHITE
 10
44.470599
 20
54.905942
 30
0.000000
 40
1.336165
 50
25.136836
 51
193.373000
  6
CONTINUOUS
  0
ARC
  8
WHITE
 10
46.429649
 20
55.777492
 30
0.000000
 40
0.808780
 50
-157.922000
 51
20.560047
  6
CONTINUOUS
  0
ARC
  8
WHITE
 10
48.605317
 20
56.108666
 30
0.000000
 40
1.419192
 50
33.725437
 51
181.903533
  6
CONTINUOUS
  0
ARC
  8
WHITE
 10
51.875649
 20
56.784492
 30
0.000000
 40
2.092985
 50
176.929000
 51
211.728275
  6
CONTINUOUS
  0
ARC
  8
WHITE
 10
50.443749
 20
55.967492
 30
0.000000
 40
0.449247
 50
-140.838000
 51
-26.414439
  6
CONTINUOUS
  0
ARC
  8
WHITE
 10
58.830849
 20
51.992242
 30
0.000000
 40
8.832400
 50
138.390566
 51
154.694000
  6
CONTINUOUS
  0
ARC
  8
WHITE
 10
52.989399
 20
57.063992
 30
0.000000
 40
1.100385
 50
-10.966723
 51
133.860000
  6
CONTINUOUS
  0
ARC
  8
WHITE
 10
49.649149
 20
56.833492
 30
0.000000
 40
4.420580
 50
-21.018574
 51
0.274337
  6
CONTINUOUS
  0
LINE
  8
WHITE
 10
53.775649
 20
55.247942
 30
0.000000
 11
52.793899
 21
51.572942
 31
0.000000
  6
CONTINUOUS
  0
LINE
  8
WHITE
 10
52.793899
 20
51.572942
 30
0.000000
 11
53.807149
 21
51.299942
 31
0.000000
  6
CONTINUOUS
  0
LINE
  8
WHITE
 10
53.807149
 20
51.299942
 30
0.000000
 11
54.925229
 21
55.473747
 31
0.000000
  6
CONTINUOUS
  0
ARC
  8
WHITE
 10
52.012649
 20
166.330992
 30
0.000000
 40
110.895500
 50
-88.495000
 51
-87.034468
  6
CONTINUOUS
  0
LINE
  8
WHITE
 10
57.749849
 20
55.583992
 30
0.000000
 11
56.768349
 21
51.914192
 31
0.000000
  6
CONTINUOUS
  0
LINE
  8
WHITE
 10
56.768349
 20
51.914192
 30
0.000000
 11
57.781349
 21
51.641192
 31
0.000000
  6
CONTINUOUS
  0
LINE
  8
WHITE
 10
57.781349
 20
51.641192
 30
0.000000
 11
58.783937
 21
55.400167
 31
0.000000
  6
CONTINUOUS
  0
ARC
  8
WHITE
 10
58.823316
 20
45.293452
 30
0.000000
 40
10.106792
 50
73.319294
 51
90.223245
  6
CONTINUOUS
  0
LINE
  8
WHITE
 10
61.724349
 20
54.974942
 30
0.000000
 11
60.742349
 21
51.294692
 31
0.000000
  6
CONTINUOUS
  0
LINE
  8
WHITE
 10
60.742349
 20
51.294692
 30
0.000000
 11
61.755849
 21
51.026942
 31
0.000000
  6
CONTINUOUS
  0
LINE
  8
WHITE
 10
61.755849
 20
51.026942
 30
0.000000
 11
62.826751
 21
55.032687
 31
0.000000
  6
CONTINUOUS
  0
ARC
  8
WHITE
 10
63.062349
 20
49.137042
 30
0.000000
 40
5.900350
 50
68.541741
 51
92.288400
  6
CONTINUOUS
  0
LINE
  8
WHITE
 10
65.220849
 20
54.628442
 30
0.000000
 11
65.084349
 21
54.014192
 31
0.000000
  6
CONTINUOUS
  0
LINE
  8
WHITE
 10
65.084349
 20
54.014192
 30
0.000000
 11
64.102349
 21
50.339192
 31
0.000000
  6
CONTINUOUS
  0
LINE
  8
WHITE
 10
64.102349
 20
50.339192
 30
0.000000
 11
65.115849
 21
50.066192
 31
0.000000
  6
CONTINUOUS
  0
LINE
  8
WHITE
 10
65.115849
 20
50.066192
 30
0.000000
 11
66.228771
 21
54.245178
 31
0.000000
  6
CONTINUOUS
  0
ARC
  8
WHITE
 10
65.815349
 20
47.556292
 30
0.000000
 40
6.701650
 50
61.058539
 51
86.463200
  6
CONTINUOUS
  0
LINE
  8
WHITE
 10
69.058349
 20
53.420942
 30
0.000000
 11
68.853849
 21
52.575692
 31
0.000000
  6
CONTINUOUS
  0
LINE
  8
WHITE
 10
68.853849
 20
52.575692
 30
0.000000
 11
67.871849
 21
48.900692
 31
0.000000
  6
CONTINUOUS
  0
LINE
  8
WHITE
 10
67.871849
 20
48.900692
 30
0.000000
 11
68.885349
 21
48.627692
 31
0.000000
  6
CONTINUOUS
  0
LINE
  8
WHITE
 10
68.885349
 20
48.627692
 30
0.000000
 11
69.998005
 21
52.806679
 31
0.000000
  6
CONTINUOUS
  0
ARC
  8
WHITE
 10
69.593168
 20
48.139537
 30
0.000000
 40
4.684666
 50
51.360657
 51
85.042455
  6
CONTINUOUS
  0
LINE
  8
WHITE
 10
72.518349
 20
51.798692
 30
0.000000
 11
71.431349
 21
47.735192
 31
0.000000
  6
CONTINUOUS
  0
LINE
  8
WHITE
 10
71.431349
 20
47.735192
 30
0.000000
 11
72.449849
 21
47.467442
 31
0.000000
  6
CONTINUOUS
  0
LINE
  8
WHITE
 10
72.449849
 20
47.467442
 30
0.000000
 11
73.457801
 21
51.252638
 31
0.000000
  6
CONTINUOUS
  0
ARC
  8
WHITE
 10
68.518349
 20
41.991092
 30
0.000000
 40
10.496400
 50
46.869824
 51
61.927700
  6
CONTINUOUS
  0
LINE
  8
WHITE
 10
75.694349
 20
49.651442
 30
0.000000
 11
75.694349
 21
49.567442
 31
0.000000
  6
CONTINUOUS
  0
LINE
  8
WHITE
 10
75.694349
 20
49.567442
 30
0.000000
 11
74.996349
 21
45.824192
 31
0.000000
  6
CONTINUOUS
  0
LINE
  8
WHITE
 10
74.996349
 20
45.824192
 30
0.000000
 11
76.030349
 21
45.635192
 31
0.000000
  6
CONTINUOUS
  0
LINE
  8
WHITE
 10
76.030349
 20
45.635192
 30
0.000000
 11
76.634173
 21
48.874410
 31
0.000000
  6
CONTINUOUS
  0
ARC
  8
WHITE
 10
67.634340
 20
35.776672
 30
0.000000
 40
15.891750
 50
43.373939
 51
55.505922
  6
CONTINUOUS
  0
LINE
  8
WHITE
 10
79.185849
 20
46.690442
 30
0.000000
 11
78.492849
 21
42.952442
 31
0.000000
  6
CONTINUOUS
  0
LINE
  8
WHITE
 10
78.492849
 20
42.952442
 30
0.000000
 11
79.526849
 21
42.758192
 31
0.000000
  6
CONTINUOUS
  0
LINE
  8
WHITE
 10
79.526849
 20
42.758192
 30
0.000000
 11
80.062370
 21
45.650923
 31
0.000000
  6
CONTINUOUS
  0
ARC
  8
WHITE
 10
71.836837
 20
36.146958
 30
0.000000
 40
12.569198
 50
35.470686
 51
49.124322
  6
CONTINUOUS
  0
LINE
  8
WHITE
 10
82.073349
 20
43.440692
 30
0.000000
 11
81.637349
 21
39.660692
 31
0.000000
  6
CONTINUOUS
  0
LINE
  8
WHITE
 10
81.637349
 20
39.660692
 30
0.000000
 11
82.682349
 21
39.539942
 31
0.000000
  6
CONTINUOUS
  0
LINE
  8
WHITE
 10
82.682349
 20
39.539942
 30
0.000000
 11
83.143966
 21
43.566664
 31
0.000000
  6
CONTINUOUS
  0
ARC
  8
WHITE
 10
84.066515
 20
42.611110
 30
0.000000
 40
1.328225
 50
26.532870
 51
133.993182
  6
CONTINUOUS
  0
LINE
  8
WHITE
 10
85.254849
 20
43.204442
 30
0.000000
 11
85.186486
 21
40.553170
 31
0.000000
  6
CONTINUOUS
  0
ARC
  8
WHITE
 10
85.552468
 20
40.480943
 30
0.000000
 40
0.373042
 50
168.836121
 51
326.474405
  6
CONTINUOUS
  0
ARC
  8
WHITE
 10
86.836333
 20
39.548241
 30
0.000000
 40
1.214309
 50
-31.711842
 51
143.243119
  6
CONTINUOUS
  0
LINE
  8
WHITE
 10
87.869349
 20
38.909942
 30
0.000000
 11
87.507062
 21
37.707696
 31
0.000000
  6
CONTINUOUS
  0
ARC
  8
WHITE
 10
88.120196
 20
37.467828
 30
0.000000
 40
0.658385
 50
158.633803
 51
326.988668
  6
CONTINUOUS
  0
ARC
  8
WHITE
 10
89.503402
 20
36.222423
 30
0.000000
 40
1.215320
 50
-41.732419
 51
133.146026
  6
CONTINUOUS
  0
LINE
  8
WHITE
 10
90.410349
 20
35.413442
 30
0.000000
 11
89.843039
 21
34.295167
 31
0.000000
  6
CONTINUOUS
  0
ARC
  8
WHITE
 10
90.400349
 20
33.948042
 30
0.000000
 40
0.656575
 50
148.083000
 51
317.254794
  6
CONTINUOUS
  0
ARC
  8
WHITE
 10
92.012349
 20
32.813942
 30
0.000000
 40
1.323060
 50
-35.642560
 51
148.644000
  6
CONTINUOUS
  0
ARC
  8
WHITE
 10
93.724126
 20
31.499394
 30
0.000000
 40
0.837020
 50
139.505720
 51
312.540450
  6
CONTINUOUS
  0
ARC
  8
WHITE
 10
95.267543
 20
30.357668
 30
0.000000
 40
1.109567
 50
-25.504288
 51
151.759937
  6
CONTINUOUS
  0
ARC
  8
WHITE
 10
97.487349
 20
29.095542
 30
0.000000
 40
1.449015
 50
147.227000
 51
231.700852
  6
CONTINUOUS
  0
LINE
  8
WHITE
 10
96.589349
 20
27.958442
 30
0.000000
 11
94.447349
 21
24.829442
 31
0.000000
  6
CONTINUOUS
  0
LINE
  8
WHITE
 10
94.447349
 20
24.829442
 30
0.000000
 11
93.476349
 21
25.538192
 31
0.000000
  6
CONTINUOUS
  0
LINE
  8
WHITE
 10
93.476349
 20
25.538192
 30
0.000000
 11
91.948349
 21
26.651192
 31
0.000000
  6
CONTINUOUS
  0
LINE
  8
WHITE
 10
91.948349
 20
26.651192
 30
0.000000
 11
88.761849
 21
28.966442
 31
0.000000
  6
CONTINUOUS
  0
LINE
  8
WHITE
 10
88.761849
 20
28.966442
 30
0.000000
 11
88.142349
 21
28.115942
 31
0.000000
  6
CONTINUOUS
  0
LINE
  8
WHITE
 10
88.142349
 20
28.115942
 30
0.000000
 11
91.276349
 21
25.837442
 31
0.000000
  6
CONTINUOUS
  0
LINE
  8
WHITE
 10
91.276349
 20
25.837442
 30
0.000000
 11
92.977349
 21
24.603692
 31
0.000000
  6
CONTINUOUS
  0
LINE
  8
WHITE
 10
92.977349
 20
24.603692
 30
0.000000
 11
93.854349
 21
23.963192
 31
0.000000
  6
CONTINUOUS
  0
LINE
  8
WHITE
 10
93.854349
 20
23.963192
 30
0.000000
 11
91.360285
 21
20.314462
 31
0.000000
  6
CONTINUOUS
  0
ARC
  8
WHITE
 10
103.970349
 20
40.270092
 30
0.000000
 40
23.605950
 50
-133.006685
 51
-122.289000
  6
CONTINUOUS
  0
ARC
  8
WHITE
 10
86.503849
 20
23.081542
 30
0.000000
 40
1.367265
 50
-3.097000
 51
76.216325
  6
CONTINUOUS
  0
ARC
  8
WHITE
 10
86.024806
 20
25.864385
 30
0.000000
 40
1.662727
 50
172.039529
 51
298.948414
  6
CONTINUOUS
  0
ARC
  8
WHITE
 10
83.422849
 20
26.451392
 30
0.000000
 40
1.019690
 50
-20.478000
 51
108.630339
  6
CONTINUOUS
  0
ARC
  8
WHITE
 10
83.963881
 20
29.170290
 30
0.000000
 40
1.955236
 50
167.883624
 51
243.684083
  6
CONTINUOUS
  0
ARC
  8
WHITE
 10
80.867349
 20
28.997092
 30
0.000000
 40
1.320780
 50
26.222500
 51
99.445568
  6
CONTINUOUS
  0
ARC
  8
WHITE
 10
80.887575
 20
31.443521
 30
0.000000
 40
1.167912
 50
145.446046
 51
258.293399
  6
CONTINUOUS
  0
ARC
  8
WHITE
 10
78.697349
 20
32.520492
 30
0.000000
 40
1.296410
 50
-18.649000
 51
94.870939
  6
CONTINUOUS
  0
ARC
  8
WHITE
 10
78.638956
 20
34.932168
 30
0.000000
 40
1.121210
 50
154.583003
 51
267.358063
  6
CONTINUOUS
  0
ARC
  8
WHITE
 10
76.559849
 20
35.781592
 30
0.000000
 40
1.128195
 50
-19.048000
 51
107.571938
  6
CONTINUOUS
  0
ARC
  8
WHITE
 10
75.895364
 20
38.320693
 30
0.000000
 40
1.498945
 50
-171.384364
 51
-77.521742
  6
CONTINUOUS
  0
ARC
  8
WHITE
 10
73.342272
 20
38.547460
 30
0.000000
 40
1.162265
 50
-22.849256
 51
117.122299
  6
CONTINUOUS
  0
ARC
  8
WHITE
 10
72.376849
 20
41.198742
 30
0.000000
 40
1.674465
 50
175.679323
 51
285.077000
  6
CONTINUOUS
  0
ARC
  8
WHITE
 10
69.914421
 20
41.550894
 30
0.000000
 40
0.824260
 50
-15.913190
 51
122.810303
  6
CONTINUOUS
  0
ARC
  8
WHITE
 10
68.660351
 20
43.854872
 30
0.000000
 40
1.802210
 50
178.980720
 51
296.617092
  6
CONTINUOUS
  0
ARC
  8
WHITE
 10
65.824467
 20
43.492834
 30
0.000000
 40
1.106520
 50
20.864508
 51
134.213266
  6
CONTINUOUS
  0
ARC
  8
WHITE
 10
64.109308
 20
45.414350
 30
0.000000
 40
1.470922
 50
-165.544198
 51
-50.098729
  6
CONTINUOUS
  0
ARC
  8
WHITE
 10
61.895849
 20
45.278792
 30
0.000000
 40
0.822400
 50
-16.359000
 51
153.095747
  6
CONTINUOUS
  0
ARC
  8
WHITE
 10
59.997849
 20
46.685042
 30
0.000000
 40
1.557505
 50
-154.232650
 51
-41.603000
  6
CONTINUOUS
  0
ARC
  8
WHITE
 10
57.734849
 20
45.860842
 30
0.000000
 40
0.872770
 50
9.702340
 51
156.227833
  6
CONTINUOUS
  0
ARC
  8
WHITE
 10
55.470199
 20
46.779692
 30
0.000000
 40
1.571805
 50
-163.306058
 51
-21.147000
  6
CONTINUOUS
  0
ARC
  8
WHITE
 10
53.432999
 20
45.440542
 30
0.000000
 40
1.034710
 50
59.078700
 51
151.820634
  6
CONTINUOUS
  0
ARC
  8
WHITE
 10
73.279349
 20
33.675642
 30
0.000000
 40
24.105250
 50
149.447000
 51
160.495550
  6
CONTINUOUS
  0
ARC
  8
WHITE
 10
214.187849
 20
44.264392
 30
0.000000
 40
2.516635
 50
-82.176000
 51
-54.222000
  6
CONTINUOUS
  0
ARC
  8
WHITE
 10
211.337226
 20
46.977385
 30
0.000000
 40
6.425468
 50
-47.729600
 51
-32.669384
  6
CONTINUOUS
  0
ARC
  8
WHITE
 10
218.130260
 20
42.663711
 30
0.000000
 40
1.621775
 50
36.788571
 51
148.587309
  6
CONTINUOUS
  0
ARC
  8
WHITE
 10
338.269970
 20
130.764599
 30
0.000000
 40
147.359222
 50
-143.752538
 51
-142.518010
  6
CONTINUOUS
  0
ARC
  8
WHITE
 10
223.476231
 20
42.432882
 30
0.000000
 40
2.525952
 50
-148.010939
 51
-50.648650
  6
CONTINUOUS
  0
ARC
  8
WHITE
 10
215.045349
 20
50.428742
 30
0.000000
 40
14.129270
 50
-44.760820
 51
-28.014000
  6
CONTINUOUS
  0
ARC
  8
WHITE
 10
228.615809
 20
42.385843
 30
0.000000
 40
1.783585
 50
14.998781
 51
127.943313
  6
CONTINUOUS
  0
ARC
  8
WHITE
 10
232.542898
 20
43.724069
 30
0.000000
 40
2.372192
 50
-158.312318
 51
-29.279976
  6
CONTINUOUS
  0
LINE
  8
WHITE
 10
234.612019
 20
42.563883
 30
0.000000
 11
235.835349
 21
46.532942
 31
0.000000
  6
CONTINUOUS
  0
LINE
  8
WHITE
 10
235.835349
 20
46.532942
 30
0.000000
 11
235.068849
 21
46.769192
 31
0.000000
  6
CONTINUOUS
  0
LINE
  8
WHITE
 10
235.068849
 20
46.769192
 30
0.000000
 11
231.372849
 21
47.924192
 31
0.000000
  6
CONTINUOUS
  0
LINE
  8
WHITE
 10
231.372849
 20
47.924192
 30
0.000000
 11
231.682349
 21
48.926942
 31
0.000000
  6
CONTINUOUS
  0
LINE
  8
WHITE
 10
231.682349
 20
48.926942
 30
0.000000
 11
236.144849
 21
47.535692
 31
0.000000
  6
CONTINUOUS
  0
LINE
  8
WHITE
 10
236.144849
 20
47.535692
 30
0.000000
 11
237.173849
 21
50.879942
 31
0.000000
  6
CONTINUOUS
  0
ARC
  8
WHITE
 10
235.821259
 20
50.526836
 30
0.000000
 40
1.397921
 50
14.631055
 51
75.048711
  6
CONTINUOUS
  0
ARC
  8
WHITE
 10
236.644408
 20
53.644930
 30
0.000000
 40
1.827005
 50
156.936695
 51
255.336604
  6
CONTINUOUS
  0
LINE
  8
WHITE
 10
234.963431
 20
54.360656
 30
0.000000
 11
235.730349
 21
56.854492
 31
0.000000
  6
CONTINUOUS
  0
ARC
  8
WHITE
 10
232.672788
 20
57.365627
 30
0.000000
 40
3.099990
 50
-9.490420
 51
82.671241
  6
CONTINUOUS
  0
LINE
  8
WHITE
 10
233.068230
 20
60.440292
 30
0.000000
 11
232.070849
 21
56.318992
 31
0.000000
  6
CONTINUOUS
  0
LINE
  8
WHITE
 10
232.070849
 20
56.318992
 30
0.000000
 11
231.052349
 21
56.565492
 31
0.000000
  6
CONTINUOUS
  0
LINE
  8
WHITE
 10
231.052349
 20
56.565492
 30
0.000000
 11
231.981849
 21
60.392992
 31
0.000000
  6
CONTINUOUS
  0
LINE
  8
WHITE
 10
231.981849
 20
60.392992
 30
0.000000
 11
232.905849
 21
64.225492
 31
0.000000
  6
CONTINUOUS
  0
LINE
  8
WHITE
 10
232.905849
 20
64.225492
 30
0.000000
 11
233.834849
 21
68.052492
 31
0.000000
  6
CONTINUOUS
  0
ARC
  8
WHITE
 10
231.104349
 20
69.073492
 30
0.000000
 40
2.915145
 50
-20.501986
 51
48.612600
  6
CONTINUOUS
  0
ARC
  8
WHITE
 10
233.887349
 20
73.307992
 30
0.000000
 40
2.219060
 50
-176.746000
 51
-112.681861
  6
CONTINUOUS
  0
ARC
  8
WHITE
 10
224.542329
 20
73.716218
 30
0.000000
 40
7.149473
 50
-4.284964
 51
22.186677
  6
CONTINUOUS
  0
ARC
  8
WHITE
 10
229.261276
 20
75.345123
 30
0.000000
 40
2.182041
 50
29.392348
 51
145.574730
  6
CONTINUOUS
  0
ARC
  8
WHITE
 10
224.863349
 20
77.943992
 30
0.000000
 40
2.934934
 50
-99.069000
 51
-27.722362
  6
CONTINUOUS
  0
LINE
  8
WHITE
 10
224.400722
 20
75.045672
 30
0.000000
 11
224.337849
 21
75.050992
 31
0.000000
  6
CONTINUOUS
  0
LINE
  8
WHITE
 10
224.337849
 20
75.050992
 30
0.000000
 11
224.306349
 21
72.310492
 31
0.000000
  6
CONTINUOUS
  0
LINE
  8
WHITE
 10
224.306349
 20
72.310492
 30
0.000000
 11
224.264349
 21
68.435992
 31
0.000000
  6
CONTINUOUS
  0
LINE
  8
WHITE
 10
224.264349
 20
68.435992
 30
0.000000
 11
223.214349
 21
68.451492
 31
0.000000
  6
CONTINUOUS
  0
LINE
  8
WHITE
 10
223.214349
 20
68.451492
 30
0.000000
 11
223.287849
 21
75.171492
 31
0.000000
  6
CONTINUOUS
  0
ARC
  8
WHITE
 10
222.685849
 20
78.142492
 30
0.000000
 40
3.031377
 50
-133.490000
 51
-78.545503
  6
CONTINUOUS
  0
ARC
  8
WHITE
 10
217.855198
 20
74.330750
 30
0.000000
 40
3.183130
 50
30.437455
 51
65.152984
  6
CONTINUOUS
  0
ARC
  8
WHITE
 10
218.062849
 20
75.648992
 30
0.000000
 40
1.934499
 50
54.262429
 51
171.873000
  6
CONTINUOUS
  0
ARC
  8
WHITE
 10
221.801696
 20
73.785588
 30
0.000000
 40
6.044278
 50
159.296119
 51
182.737240
  6
CONTINUOUS
  0
ARC
  8
WHITE
 10
213.380462
 20
73.491061
 30
0.000000
 40
2.383860
 50
-58.678169
 51
0.141287
  6
CONTINUOUS
  0
ARC
  8
WHITE
 10
215.129164
 20
69.869933
 30
0.000000
 40
1.664571
 50
107.822200
 51
194.448606
  6
CONTINUOUS
  0
LINE
  8
WHITE
 10
213.517240
 20
69.454603
 30
0.000000
 11
214.934849
 21
61.957492
 31
0.000000
  6
CONTINUOUS
  0
LINE
  8
WHITE
 10
214.934849
 20
61.957492
 30
0.000000
 11
215.333849
 21
60.151492
 31
0.000000
  6
CONTINUOUS
  0
LINE
  8
WHITE
 10
215.333849
 20
60.151492
 30
0.000000
 11
216.116349
 21
56.355492
 31
0.000000
  6
CONTINUOUS
  0
LINE
  8
WHITE
 10
216.116349
 20
56.355492
 30
0.000000
 11
215.087349
 21
56.145492
 31
0.000000
  6
CONTINUOUS
  0
LINE
  8
WHITE
 10
215.087349
 20
56.145492
 30
0.000000
 11
214.294349
 21
60.004492
 31
0.000000
  6
CONTINUOUS
  0
LINE
  8
WHITE
 10
214.294349
 20
60.004492
 30
0.000000
 11
214.173849
 21
60.592492
 31
0.000000
  6
CONTINUOUS
  0
ARC
  8
WHITE
 10
215.306707
 20
56.433590
 30
0.000000
 40
4.310434
 50
105.237322
 51
137.554172
  6
CONTINUOUS
  0
ARC
  8
WHITE
 10
214.462349
 20
57.441992
 30
0.000000
 40
3.011850
 50
140.871139
 51
199.438000
  6
CONTINUOUS
  0
ARC
  8
WHITE
 10
84.714042
 20
21.327064
 30
0.000000
 40
131.676000
 50
14.319100
 51
15.465570
  6
CONTINUOUS
  0
ARC
  8
WHITE
 10
211.370185
 20
53.526070
 30
0.000000
 40
0.999115
 50
-66.128684
 51
21.573540
  6
CONTINUOUS
  0
ARC
  8
WHITE
 10
213.973349
 20
47.115292
 30
0.000000
 40
5.920585
 50
111.801292
 51
124.260000
  6
CONTINUOUS
  0
ARC
  8
WHITE
 10
211.154849
 20
51.148142
 30
0.000000
 40
1.002609
 50
120.876283
 51
202.826000
  6
CONTINUOUS
  0
LINE
  8
WHITE
 10
210.230692
 20
50.759169
 30
0.000000
 11
210.787349
 21
48.428192
 31
0.000000
  6
CONTINUOUS
  0
LINE
  8
WHITE
 10
210.787349
 20
48.428192
 30
0.000000
 11
215.333849
 21
49.567442
 31
0.000000
  6
CONTINUOUS
  0
LINE
  8
WHITE
 10
215.333849
 20
49.567442
 30
0.000000
 11
215.591349
 21
48.548942
 31
0.000000
  6
CONTINUOUS
  0
LINE
  8
WHITE
 10
215.591349
 20
48.548942
 30
0.000000
 11
211.769349
 21
47.593442
 31
0.000000
  6
CONTINUOUS
  0
LINE
  8
WHITE
 10
211.769349
 20
47.593442
 30
0.000000
 11
211.034349
 21
47.404442
 31
0.000000
  6
CONTINUOUS
  0
LINE
  8
WHITE
 10
211.034349
 20
47.404442
 30
0.000000
 11
212.131349
 21
42.815942
 31
0.000000
  6
CONTINUOUS
  0
ARC
  8
WHITE
 10
214.187849
 20
44.264392
 30
0.000000
 40
2.515393
 50
-144.841901
 51
-82.176000
  6
CONTINUOUS
  0
LINE
  8
WHITE
 10
220.337349
 20
51.289442
 30
0.000000
 11
222.447849
 21
43.907942
 31
0.000000
  6
CONTINUOUS
  0
ARC
  8
WHITE
 10
223.530469
 20
44.458856
 30
0.000000
 40
1.214731
 50
-153.029774
 51
-32.683693
  6
CONTINUOUS
  0
LINE
  8
WHITE
 10
224.552866
 20
43.802900
 30
0.000000
 11
226.962849
 21
51.709442
 31
0.000000
  6
CONTINUOUS
  0
LINE
  8
WHITE
 10
226.962849
 20
51.709442
 30
0.000000
 11
229.939349
 21
66.897492
 31
0.000000
  6
CONTINUOUS
  0
ARC
  8
WHITE
 10
228.493849
 20
67.217992
 30
0.000000
 40
1.480605
 50
-12.501525
 51
176.146701
  6
CONTINUOUS
  0
LINE
  8
WHITE
 10
227.016591
 20
67.317492
 30
0.000000
 11
226.261450
 21
56.106022
 31
0.000000
  6
CONTINUOUS
  0
ARC
  8
WHITE
 10
224.569349
 20
56.219992
 30
0.000000
 40
1.695935
 50
-74.392000
 51
-3.853299
  6
CONTINUOUS
  0
ARC
  8
WHITE
 10
224.645349
 20
55.132742
 30
0.000000
 40
0.665510
 50
-142.558000
 51
-55.149363
  6
CONTINUOUS
  0
LINE
  8
WHITE
 10
224.117022
 20
54.728192
 30
0.000000
 11
224.222349
 21
58.665492
 31
0.000000
  6
CONTINUOUS
  0
LINE
  8
WHITE
 10
224.222349
 20
58.665492
 30
0.000000
 11
223.172349
 21
58.696992
 31
0.000000
  6
CONTINUOUS
  0
LINE
  8
WHITE
 10
223.172349
 20
58.696992
 30
0.000000
 11
223.072343
 21
54.822452
 31
0.000000
  6
CONTINUOUS
  0
ARC
  8
WHITE
 10
222.552849
 20
55.232192
 30
0.000000
 40
0.661635
 50
-125.947340
 51
-38.263897
  6
CONTINUOUS
  0
ARC
  8
WHITE
 10
222.640849
 20
56.320492
 30
0.000000
 40
1.692370
 50
-177.126651
 51
-106.349927
  6
CONTINUOUS
  0
LINE
  8
WHITE
 10
220.950607
 20
56.235657
 30
0.000000
 11
220.387226
 21
67.460295
 31
0.000000
  6
CONTINUOUS
  0
ARC
  8
WHITE
 10
218.906849
 20
67.385992
 30
0.000000
 40
1.482240
 50
2.873349
 51
191.641000
  6
CONTINUOUS
  0
LINE
  8
WHITE
 10
217.455097
 20
67.086908
 30
0.000000
 11
220.174349
 21
51.851192
 31
0.000000
  6
CONTINUOUS
  0
LINE
  8
WHITE
 10
220.174349
 20
51.851192
 30
0.000000
 11
220.337349
 21
51.289442
 31
0.000000
  6
CONTINUOUS
  0
ARC
  8
WHITE
 10
170.567849
 20
66.593492
 30
0.000000
 40
24.430350
 50
97.074700
 51
108.067000
  6
CONTINUOUS
  0
ARC
  8
WHITE
 10
170.584526
 20
66.599214
 30
0.000000
 40
24.430089
 50
108.108345
 51
140.261795
  6
CONTINUOUS
  0
ARC
  8
WHITE
 10
205.888391
 20
32.036621
 30
0.000000
 40
73.782000
 50
137.147335
 51
143.911201
  6
CONTINUOUS
  0
ARC
  8
WHITE
 10
139.388349
 20
83.003992
 30
0.000000
 40
10.180350
 50
-58.927263
 51
-47.510000
  6
CONTINUOUS
  0
ARC
  8
WHITE
 10
101.973739
 20
145.435130
 30
0.000000
 40
82.964174
 50
-62.432423
 51
-59.048970
  6
CONTINUOUS
  0
ARC
  8
WHITE
 10
140.279913
 20
72.294201
 30
0.000000
 40
0.413687
 50
-167.617612
 51
-77.549966
  6
CONTINUOUS
  0
LINE
  8
WHITE
 10
139.875849
 20
72.205492
 30
0.000000
 11
138.757349
 21
74.546992
 31
0.000000
  6
CONTINUOUS
  0
LINE
  8
WHITE
 10
138.757349
 20
74.546992
 30
0.000000
 11
142.621349
 21
76.483992
 31
0.000000
  6
CONTINUOUS
  0
LINE
  8
WHITE
 10
142.621349
 20
76.483992
 30
0.000000
 11
142.148849
 21
77.423992
 31
0.000000
  6
CONTINUOUS
  0
LINE
  8
WHITE
 10
142.148849
 20
77.423992
 30
0.000000
 11
138.295349
 21
75.491992
 31
0.000000
  6
CONTINUOUS
  0
LINE
  8
WHITE
 10
138.295349
 20
75.491992
 30
0.000000
 11
137.187491
 21
77.801703
 31
0.000000
  6
CONTINUOUS
  0
ARC
  8
WHITE
 10
136.873039
 20
78.706058
 30
0.000000
 40
0.957465
 50
-70.827000
 51
39.394907
  6
CONTINUOUS
  0
ARC
  8
WHITE
 10
138.989335
 20
79.970406
 30
0.000000
 40
1.525006
 50
79.925065
 51
205.506202
  6
CONTINUOUS
  0
ARC
  8
WHITE
 10
141.482330
 20
96.423772
 30
0.000000
 40
15.116700
 50
-98.468674
 51
-89.104703
  6
CONTINUOUS
  0
ARC
  8
WHITE
 10
140.037849
 20
85.886492
 30
0.000000
 40
4.876360
 50
-69.839000
 51
-46.600023
  6
CONTINUOUS
  0
ARC
  8
WHITE
 10
178.391630
 20
47.647111
 30
0.000000
 40
49.285566
 50
112.869220
 51
135.252328
  6
CONTINUOUS
  0
ARC
  8
WHITE
 10
151.882849
 20
114.252992
 30
0.000000
 40
22.434350
 50
-70.862000
 51
-44.479229
  6
CONTINUOUS
  0
ARC
  8
WHITE
 10
170.339253
 20
97.180233
 30
0.000000
 40
2.798810
 50
21.671706
 51
151.064368
  6
CONTINUOUS
  0
ARC
  8
WHITE
 10
174.174349
 20
98.691492
 30
0.000000
 40
1.323345
 50
-158.840000
 51
-41.786040
  6
CONTINUOUS
  0
ARC
  8
WHITE
 10
177.519608
 20
94.907053
 30
0.000000
 40
3.740106
 50
103.083407
 51
129.095657
  6
CONTINUOUS
  0
ARC
  8
WHITE
 10
176.951220
 20
96.628841
 30
0.000000
 40
1.941276
 50
20.233938
 51
98.241018
  6
CONTINUOUS
  0
ARC
  8
WHITE
 10
179.497786
 20
97.489236
 30
0.000000
 40
0.749315
 50
-165.390767
 51
-56.444630
  6
CONTINUOUS
  0
ARC
  8
WHITE
 10
180.396529
 20
94.569734
 30
0.000000
 40
2.345655
 50
34.825160
 51
101.921997
  6
CONTINUOUS
  0
ARC
  8
WHITE
 10
149.162849
 20
32.788542
 30
0.000000
 40
71.300500
 50
48.579174
 51
62.285700
  6
CONTINUOUS
  0
ARC
  8
WHITE
 10
204.413046
 20
95.914828
 30
0.000000
 40
12.593100
 50
-129.906167
 51
-83.051086
  6
CONTINUOUS
  0
ARC
  8
WHITE
 10
205.941849
 20
82.757992
 30
0.000000
 40
0.656260
 50
16.240850
 51
90.457100
  6
CONTINUOUS
  0
ARC
  8
WHITE
 10
209.164349
 20
83.379492
 30
0.000000
 40
2.629200
 50
-170.411000
 51
-139.324424
  6
CONTINUOUS
  0
ARC
  8
WHITE
 10
207.788349
 20
82.079992
 30
0.000000
 40
0.743960
 50
-146.173000
 51
10.607301
  6
CONTINUOUS
  0
ARC
  8
WHITE
 10
216.153226
 20
82.153659
 30
0.000000
 40
7.633871
 50
150.542655
 51
179.525026
  6
CONTINUOUS
  0
ARC
  8
WHITE
 10
212.440102
 20
82.977924
 30
0.000000
 40
4.146293
 50
74.790928
 51
135.038800
  6
CONTINUOUS
  0
LINE
  8
WHITE
 10
213.527849
 20
86.978992
 30
0.000000
 11
212.992349
 21
85.718992
 31
0.000000
  6
CONTINUOUS
  0
LINE
  8
WHITE
 10
212.992349
 20
85.718992
 30
0.000000
 11
211.459349
 21
82.085992
 31
0.000000
  6
CONTINUOUS
  0
LINE
  8
WHITE
 10
211.459349
 20
82.085992
 30
0.000000
 11
212.425349
 21
81.676492
 31
0.000000
  6
CONTINUOUS
  0
LINE
  8
WHITE
 10
212.425349
 20
81.676492
 30
0.000000
 11
214.541321
 21
86.669236
 31
0.000000
  6
CONTINUOUS
  0
ARC
  8
WHITE
 10
212.142324
 20
83.209474
 30
0.000000
 40
4.210123
 50
2.927595
 51
55.262588
  6
CONTINUOUS
  0
ARC
  8
WHITE
 10
204.665345
 20
87.177918
 30
0.000000
 40
12.269804
 50
-41.249570
 51
-17.812725
  6
CONTINUOUS
  0
ARC
  8
WHITE
 10
215.989332
 20
77.621251
 30
0.000000
 40
2.560660
 50
145.055777
 51
171.107690
  6
CONTINUOUS
  0
ARC
  8
WHITE
 10
205.521349
 20
75.677992
 30
0.000000
 40
8.275550
 50
-11.246601
 51
16.418400
  6
CONTINUOUS
  0
ARC
  8
WHITE
 10
211.742849
 20
74.452492
 30
0.000000
 40
1.934590
 50
-138.739712
 51
-11.585000
  6
CONTINUOUS
  0
ARC
  8
WHITE
 10
181.493955
 20
48.873282
 30
0.000000
 40
37.680000
 50
40.165208
 51
45.866664
  6
CONTINUOUS
  0
ARC
  8
WHITE
 10
206.116349
 20
74.882492
 30
0.000000
 40
1.918220
 50
32.637100
 51
128.472098
  6
CONTINUOUS
  0
ARC
  8
WHITE
 10
203.939684
 20
77.990618
 30
0.000000
 40
1.883481
 50
-138.240497
 51
-58.527729
  6
CONTINUOUS
  0
ARC
  8
WHITE
 10
230.659849
 20
116.078992
 30
0.000000
 40
48.361950
 50
-133.202267
 51
-125.560000
  6
CONTINUOUS
  0
ARC
  8
WHITE
 10
146.779360
 20
16.534399
 30
0.000000
 40
81.922500
 50
51.700747
 51
59.745857
  6
CONTINUOUS
  0
ARC
  8
WHITE
 10
177.438349
 20
73.927492
 30
0.000000
 40
17.073600
 50
51.551500
 51
99.126059
  6
CONTINUOUS
  0
ARC
  8
WHITE
 10
174.436815
 20
91.987098
 30
0.000000
 40
1.237386
 50
-161.961827
 51
-76.277612
  6
CONTINUOUS
  0
ARC
  8
WHITE
 10
172.276349
 20
91.724992
 30
0.000000
 40
0.991315
 50
-7.014000
 51
171.171142
  6
CONTINUOUS
  0
ARC
  8
WHITE
 10
168.363650
 20
95.184937
 30
0.000000
 40
4.420953
 50
-100.487723
 51
-48.435441
  6
CONTINUOUS
  0
ARC
  8
WHITE
 10
168.666349
 20
84.552992
 30
0.000000
 40
17.795650
 50
114.598000
 51
128.302000
  6
CONTINUOUS
  0
ARC
  8
WHITE
 10
187.666349
 20
49.987392
 30
0.000000
 40
57.070421
 50
121.748357
 51
139.402000
  6
CONTINUOUS
  0
ARC
  8
WHITE
 10
141.295631
 20
89.090415
 30
0.000000
 40
3.617365
 50
-105.442633
 51
-32.893671
  6
CONTINUOUS
  0
ARC
  8
WHITE
 10
137.650022
 20
82.411347
 30
0.000000
 40
4.169657
 50
49.960588
 51
113.374392
  6
CONTINUOUS
  0
ARC
  8
WHITE
 10
150.258975
 20
51.363053
 30
0.000000
 40
37.679671
 50
112.243194
 51
117.948840
  6
CONTINUOUS
  0
ARC
  8
WHITE
 10
131.726882
 20
86.376176
 30
0.000000
 40
1.935825
 50
169.717527
 51
296.781820
  6
CONTINUOUS
  0
ARC
  8
WHITE
 10
137.959719
 20
85.194461
 30
0.000000
 40
8.279650
 50
141.724135
 51
169.370366
  6
CONTINUOUS
  0
ARC
  8
WHITE
 10
128.955943
 20
90.889906
 30
0.000000
 40
2.567254
 50
-12.750971
 51
13.250989
  6
CONTINUOUS
  0
ARC
  8
WHITE
 10
143.030917
 20
95.542448
 30
0.000000
 40
12.268750
 50
175.931472
 51
199.344955
  6
CONTINUOUS
  0
ARC
  8
WHITE
 10
134.612538
 20
94.656536
 30
0.000000
 40
4.203935
 50
102.882644
 51
155.304678
  6
CONTINUOUS
  0
LINE
  8
WHITE
 10
133.675251
 20
98.754652
 30
0.000000
 11
133.748849
 21
94.879992
 31
0.000000
  6
CONTINUOUS
  0
LINE
  8
WHITE
 10
133.748849
 20
94.879992
 30
0.000000
 11
134.798849
 21
94.900992
 31
0.000000
  6
CONTINUOUS
  0
LINE
  8
WHITE
 10
134.798849
 20
94.900992
 30
0.000000
 11
134.725349
 21
98.670492
 31
0.000000
  6
CONTINUOUS
  0
ARC
  8
WHITE
 10
134.242415
 20
94.549337
 30
0.000000
 40
4.149355
 50
23.093833
 51
83.316330
  6
CONTINUOUS
  0
ARC
  8
WHITE
 10
130.493849
 20
95.151992
 30
0.000000
 40
7.634512
 50
-21.281000
 51
7.714849
  6
CONTINUOUS
  0
ARC
  8
WHITE
 10
138.232667
 20
91.981208
 30
0.000000
 40
0.741906
 50
147.383030
 51
304.938130
  6
CONTINUOUS
  0
ARC
  8
WHITE
 10
137.444486
 20
93.698803
 30
0.000000
 40
2.623131
 50
-62.454748
 51
-31.484325
  6
CONTINUOUS
  0
ARC
  8
WHITE
 10
140.198349
 20
91.930492
 30
0.000000
 40
0.652581
 50
67.524800
 51
142.381050
  6
CONTINUOUS
  0
ARC
  8
WHITE
 10
141.026218
 20
100.397965
 30
0.000000
 40
7.885629
 50
-94.206119
 51
-47.028825
  6
CONTINUOUS
  0
ARC
  8
WHITE
 10
117.565974
 20
137.918077
 30
0.000000
 40
52.014423
 50
-56.332546
 51
-41.490241
  6
CONTINUOUS
  0
ARC
  8
WHITE
 10
139.866077
 20
131.698807
 30
0.000000
 40
32.789065
 50
-59.458297
 51
-50.889469
  6
CONTINUOUS
  0
ARC
  8
WHITE
 10
164.073513
 20
104.304559
 30
0.000000
 40
4.028165
 50
112.300512
 51
151.011063
  6
CONTINUOUS
  0
ARC
  8
WHITE
 10
162.834849
 20
109.863992
 30
0.000000
 40
1.855335
 50
-98.988856
 51
-28.397000
  6
CONTINUOUS
  0
ARC
  8
WHITE
 10
166.670993
 20
107.742379
 30
0.000000
 40
2.528590
 50
51.907453
 51
150.652622
  6
CONTINUOUS
  0
ARC
  8
WHITE
 10
168.875349
 20
110.687492
 30
0.000000
 40
1.152127
 50
-124.007349
 51
-16.659000
  6
CONTINUOUS
  0
ARC
  8
WHITE
 10
171.486349
 20
109.889992
 30
0.000000
 40
1.577965
 50
34.438800
 51
162.777508
  6
CONTINUOUS
  0
ARC
  8
WHITE
 10
183.277049
 20
123.456241
 30
0.000000
 40
16.451451
 50
-129.612190
 51
-114.649689
  6
CONTINUOUS
  0
ARC
  8
WHITE
 10
187.138462
 20
133.930866
 30
0.000000
 40
27.595426
 50
-112.865665
 51
-99.300057
  6
CONTINUOUS
  0
ARC
  8
WHITE
 10
177.177428
 20
79.329427
 30
0.000000
 40
27.916200
 50
44.064158
 51
78.634254
  6
CONTINUOUS
  0
ARC
  8
WHITE
 10
200.355349
 20
101.920492
 30
0.000000
 40
4.451273
 50
-134.472507
 51
-71.072000
  6
CONTINUOUS
  0
ARC
  8
WHITE
 10
202.408811
 20
96.486775
 30
0.000000
 40
1.366685
 50
7.720245
 51
116.489264
  6
CONTINUOUS
  0
ARC
  8
WHITE
 10
200.670849
 20
95.729992
 30
0.000000
 40
3.232085
 50
-12.083000
 51
16.914888
  6
CONTINUOUS
  0
ARC
  8
WHITE
 10
205.395908
 20
94.339621
 30
0.000000
 40
1.719731
 50
155.476334
 51
223.399771
  6
CONTINUOUS
  0
LINE
  8
WHITE
 10
204.146390
 20
93.158020
 30
0.000000
 11
202.114349
 21
91.294492
 31
0.000000
  6
CONTINUOUS
  0
LINE
  8
WHITE
 10
202.114349
 20
91.294492
 30
0.000000
 11
201.710349
 21
91.719492
 31
0.000000
  6
CONTINUOUS
  0
LINE
  8
WHITE
 10
201.710349
 20
91.719492
 30
0.000000
 11
198.985349
 21
94.564992
 31
0.000000
  6
CONTINUOUS
  0
LINE
  8
WHITE
 10
198.985349
 20
94.564992
 30
0.000000
 11
198.224349
 21
93.835492
 31
0.000000
  6
CONTINUOUS
  0
LINE
  8
WHITE
 10
198.224349
 20
93.835492
 30
0.000000
 11
201.353349
 21
90.569992
 31
0.000000
  6
CONTINUOUS
  0
LINE
  8
WHITE
 10
201.353349
 20
90.569992
 30
0.000000
 11
198.376349
 21
87.886992
 31
0.000000
  6
CONTINUOUS
  0
LINE
  8
WHITE
 10
198.376349
 20
87.886992
 30
0.000000
 11
190.895349
 21
95.462992
 31
0.000000
  6
CONTINUOUS
  0
ARC
  8
WHITE
 10
172.605795
 20
80.015965
 30
0.000000
 40
23.939893
 50
40.183832
 51
85.715857
  6
CONTINUOUS
  0
ARC
  8
WHITE
 10
173.981349
 20
106.040992
 30
0.000000
 40
2.191264
 50
-134.264000
 51
-79.140927
  6
CONTINUOUS
  0
ARC
  8
WHITE
 10
171.743349
 20
103.978492
 30
0.000000
 40
0.863343
 50
34.843158
 51
176.171000
  6
CONTINUOUS
  0
ARC
  8
WHITE
 10
169.112121
 20
104.103980
 30
0.000000
 40
1.771170
 50
-86.913603
 51
-2.195051
  6
CONTINUOUS
  0
ARC
  8
WHITE
 10
168.656098
 20
84.547969
 30
0.000000
 40
17.795954
 50
88.224477
 51
114.561259
  6
CONTINUOUS
  0
ARC
  8
WHITE
 10
103.144349
 20
129.996992
 30
0.000000
 40
40.616450
 50
-92.523000
 51
-77.599000
  6
CONTINUOUS
  0
ARC
  8
WHITE
 10
112.292023
 20
88.448776
 30
0.000000
 40
1.926905
 50
38.809441
 51
102.747917
  6
CONTINUOUS
  0
ARC
  8
WHITE
 10
115.603753
 20
90.271275
 30
0.000000
 40
1.911787
 50
-161.239816
 51
-40.417589
  6
CONTINUOUS
  0
ARC
  8
WHITE
 10
117.571349
 20
87.971992
 30
0.000000
 40
1.177002
 50
23.624900
 51
115.789719
  6
CONTINUOUS
  0
ARC
  8
WHITE
 10
112.529349
 20
88.314492
 30
0.000000
 40
6.121773
 50
-61.254000
 51
1.209350
  6
CONTINUOUS
  0
ARC
  8
WHITE
 10
117.947110
 20
79.452677
 30
0.000000
 40
4.281363
 50
125.293443
 51
209.732414
  6
CONTINUOUS
  0
ARC
  8
WHITE
 10
116.455858
 20
77.470353
 30
0.000000
 40
2.230936
 50
-176.375900
 51
-88.937160
  6
CONTINUOUS
  0
ARC
  8
WHITE
 10
117.738967
 20
72.498826
 30
0.000000
 40
3.009125
 50
35.170882
 51
114.371655
  6
CONTINUOUS
  0
ARC
  8
WHITE
 10
112.906378
 20
69.155801
 30
0.000000
 40
8.885250
 50
-5.362000
 51
34.842407
  6
CONTINUOUS
  0
ARC
  8
WHITE
 10
122.802759
 20
67.952240
 30
0.000000
 40
1.114380
 50
160.431003
 51
258.301884
  6
CONTINUOUS
  0
ARC
  8
WHITE
 10
122.266595
 20
72.808505
 30
0.000000
 40
5.955584
 50
-87.014189
 51
-25.473129
  6
CONTINUOUS
  0
ARC
  8
WHITE
 10
125.374742
 20
71.612815
 30
0.000000
 40
2.647870
 50
-31.049977
 51
43.136823
  6
CONTINUOUS
  0
ARC
  8
WHITE
 10
132.425848
 20
77.014070
 30
0.000000
 40
6.252750
 50
179.900130
 51
215.048824
  6
CONTINUOUS
  0
ARC
  8
WHITE
 10
140.468849
 20
75.785992
 30
0.000000
 40
14.349330
 50
155.902000
 51
175.046693
  6
CONTINUOUS
  0
ARC
  8
WHITE
 10
124.735004
 20
83.209754
 30
0.000000
 40
3.064735
 50
-30.705727
 51
36.216270
  6
CONTINUOUS
  0
ARC
  8
WHITE
 10
118.626349
 20
77.089992
 30
0.000000
 40
11.684652
 50
42.743079
 51
59.293800
  6
CONTINUOUS
  0
ARC
  8
WHITE
 10
125.821849
 20
88.730492
 30
0.000000
 40
2.012823
 50
157.070000
 51
232.370937
  6
CONTINUOUS
  0
LINE
  8
WHITE
 10
123.968079
 20
89.514700
 30
0.000000
 11
122.540349
 21
90.385992
 31
0.000000
  6
CONTINUOUS
  0
LINE
  8
WHITE
 10
122.540349
 20
90.385992
 30
0.000000
 11
119.657849
 21
92.139492
 31
0.000000
  6
CONTINUOUS
  0
LINE
  8
WHITE
 10
119.657849
 20
92.139492
 30
0.000000
 11
120.203849
 21
93.037492
 31
0.000000
  6
CONTINUOUS
  0
LINE
  8
WHITE
 10
120.203849
 20
93.037492
 30
0.000000
 11
123.133349
 21
91.252492
 31
0.000000
  6
CONTINUOUS
  0
LINE
  8
WHITE
 10
123.133349
 20
91.252492
 30
0.000000
 11
124.277849
 21
90.553992
 31
0.000000
  6
CONTINUOUS
  0
ARC
  8
WHITE
 10
113.893849
 20
98.193492
 30
0.000000
 40
12.891447
 50
-36.341886
 51
-28.009000
  6
CONTINUOUS
  0
ARC
  8
WHITE
 10
122.331349
 20
92.662492
 30
0.000000
 40
2.990111
 50
-10.072580
 51
77.656300
  6
CONTINUOUS
  0
ARC
  8
WHITE
 10
127.023941
 20
98.937570
 30
0.000000
 40
5.261200
 50
-167.678711
 51
-140.392593
  6
CONTINUOUS
  0
ARC
  8
WHITE
 10
119.724849
 20
97.305992
 30
0.000000
 40
2.218234
 50
13.261989
 51
145.394000
  6
CONTINUOUS
  0
ARC
  8
WHITE
 10
116.494849
 20
99.157992
 30
0.000000
 40
1.524032
 50
-111.108000
 51
-22.866796
  6
CONTINUOUS
  0
ARC
  8
WHITE
 10
114.030849
 20
95.352492
 30
0.000000
 40
3.057835
 50
51.220968
 51
92.086400
  6
CONTINUOUS
  0
ARC
  8
WHITE
 10
116.701840
 20
94.049624
 30
0.000000
 40
5.171052
 50
122.551423
 51
147.848771
  6
CONTINUOUS
  0
ARC
  8
WHITE
 10
97.521349
 20
137.741487
 30
0.000000
 40
43.533900
 50
-90.301316
 51
-70.121850
  6
CONTINUOUS
  0
ARC
  8
WHITE
 10
97.508349
 20
115.591492
 30
0.000000
 40
21.384394
 50
-123.920000
 51
-90.578589
  6
CONTINUOUS
  0
ARC
  8
WHITE
 10
83.664849
 20
96.071992
 30
0.000000
 40
2.607282
 50
42.888042
 51
112.137000
  6
CONTINUOUS
  0
ARC
  8
WHITE
 10
81.873070
 20
99.731140
 30
0.000000
 40
1.484040
 50
-117.809815
 51
-56.954164
  6
CONTINUOUS
  0
ARC
  8
WHITE
 10
77.606490
 20
95.608814
 30
0.000000
 40
4.546362
 50
38.170864
 51
66.178031
  6
CONTINUOUS
  0
ARC
  8
WHITE
 10
79.564495
 20
96.975977
 30
0.000000
 40
2.794524
 50
92.496970
 51
153.939528
  6
CONTINUOUS
  0
LINE
  8
WHITE
 10
77.054088
 20
98.203666
 30
0.000000
 11
80.582349
 21
96.454992
 31
0.000000
  6
CONTINUOUS
  0
LINE
  8
WHITE
 10
80.582349
 20
96.454992
 30
0.000000
 11
80.120349
 21
95.515492
 31
0.000000
  6
CONTINUOUS
  0
LINE
  8
WHITE
 10
80.120349
 20
95.515492
 30
0.000000
 11
76.644849
 21
97.231992
 31
0.000000
  6
CONTINUOUS
  0
ARC
  8
WHITE
 10
78.797240
 20
96.006300
 30
0.000000
 40
2.476915
 50
150.340386
 51
222.466431
  6
CONTINUOUS
  0
ARC
  8
WHITE
 10
76.072849
 20
91.188992
 30
0.000000
 40
3.270482
 50
44.553600
 51
74.077069
  6
CONTINUOUS
  0
ARC
  8
WHITE
 10
80.115867
 20
93.362238
 30
0.000000
 40
1.716755
 50
175.949311
 51
271.378222
  6
CONTINUOUS
  0
ARC
  8
WHITE
 10
84.939349
 20
68.449492
 30
0.000000
 40
23.684306
 50
92.680600
 51
101.648902
  6
CONTINUOUS
  0
ARC
  8
WHITE
 10
62.237850
 20
-94.249121
 30
0.000000
 40
187.604000
 50
80.964165
 51
83.390422
  6
CONTINUOUS
  0
ARC
  8
WHITE
 10
103.144349
 20
129.996992
 30
0.000000
 40
40.615486
 50
-106.363899
 51
-92.523000
  6
CONTINUOUS
  0
ARC
  8
WHITE
 10
46.795999
 20
-106.033008
 30
0.000000
 40
187.603000
 50
72.959900
 51
75.388314
  6
CONTINUOUS
  0
ARC
  8
WHITE
 10
99.213542
 20
115.631835
 30
0.000000
 40
40.450964
 50
-126.109780
 51
-97.230944
  6
CONTINUOUS
  0
ARC
  8
WHITE
 10
74.232229
 20
81.403081
 30
0.000000
 40
1.924450
 50
53.593774
 51
117.536776
  6
CONTINUOUS
  0
ARC
  8
WHITE
 10
71.929280
 20
84.396224
 30
0.000000
 40
1.911247
 50
-163.391689
 51
-42.316745
  6
CONTINUOUS
  0
ARC
  8
WHITE
 10
69.204483
 20
83.083337
 30
0.000000
 40
1.177130
 50
40.635578
 51
132.606053
  6
CONTINUOUS
  0
ARC
  8
WHITE
 10
73.961651
 20
81.374065
 30
0.000000
 40
6.122200
 50
155.120589
 51
217.594898
  6
CONTINUOUS
  0
ARC
  8
WHITE
 10
65.441011
 20
75.428113
 30
0.000000
 40
4.284319
 50
-53.359160
 51
31.068137
  6
CONTINUOUS
  0
ARC
  8
WHITE
 10
66.014349
 20
73.014492
 30
0.000000
 40
2.232295
 50
-114.775848
 51
-27.307000
  6
CONTINUOUS
  0
ARC
  8
WHITE
 10
62.841849
 20
68.976992
 30
0.000000
 40
3.007830
 50
41.949900
 51
121.210300
  6
CONTINUOUS
  0
ARC
  8
WHITE
 10
65.924523
 20
63.968599
 30
0.000000
 40
8.888750
 50
121.476311
 51
161.654277
  6
CONTINUOUS
  0
ARC
  8
WHITE
 10
56.379349
 20
66.839492
 30
0.000000
 40
1.110610
 50
-101.997245
 51
-3.777000
  6
CONTINUOUS
  0
ARC
  8
WHITE
 10
58.820856
 20
71.076262
 30
0.000000
 40
5.956247
 50
-178.236777
 51
-116.658057
  6
CONTINUOUS
  0
ARC
  8
WHITE
 10
55.493299
 20
71.230492
 30
0.000000
 40
2.647470
 50
113.140134
 51
187.324000
  6
CONTINUOUS
  0
ARC
  8
WHITE
 10
51.196499
 20
79.002492
 30
0.000000
 40
6.252550
 50
-58.613000
 51
-23.488222
  6
CONTINUOUS
  0
ARC
  8
WHITE
 10
43.338449
 20
81.123992
 30
0.000000
 40
14.354050
 50
-18.748000
 51
0.381352
  6
CONTINUOUS
  0
ARC
  8
WHITE
 10
60.730849
 20
81.595492
 30
0.000000
 40
3.061900
 50
120.130360
 51
187.053000
  6
CONTINUOUS
  0
ARC
  8
WHITE
 10
63.865534
 20
73.538577
 30
0.000000
 40
11.680047
 50
97.019852
 51
113.576246
  6
CONTINUOUS
  0
ARC
  8
WHITE
 10
61.951349
 20
87.085992
 30
0.000000
 40
2.014605
 50
-76.019000
 51
-0.654130
  6
CONTINUOUS
  0
LINE
  8
WHITE
 10
63.965849
 20
87.062992
 30
0.000000
 11
65.619849
 21
87.288492
 31
0.000000
  6
CONTINUOUS
  0
LINE
  8
WHITE
 10
65.619849
 20
87.288492
 30
0.000000
 11
68.963849
 21
87.739992
 31
0.000000
  6
CONTINUOUS
  0
LINE
  8
WHITE
 10
68.963849
 20
87.739992
 30
0.000000
 11
68.827349
 21
88.779492
 31
0.000000
  6
CONTINUOUS
  0
LINE
  8
WHITE
 10
68.827349
 20
88.779492
 30
0.000000
 11
65.430849
 21
88.322992
 31
0.000000
  6
CONTINUOUS
  0
LINE
  8
WHITE
 10
65.430849
 20
88.322992
 30
0.000000
 11
64.097018
 21
88.139346
 31
0.000000
  6
CONTINUOUS
  0
ARC
  8
WHITE
 10
76.675912
 20
90.974672
 30
0.000000
 40
12.894481
 50
-175.630216
 51
-167.297617
  6
CONTINUOUS
  0
ARC
  8
WHITE
 10
66.727849
 20
89.288992
 30
0.000000
 40
2.992725
 50
78.682091
 51
166.410000
  6
CONTINUOUS
  0
ARC
  8
WHITE
 10
64.948016
 20
96.922825
 30
0.000000
 40
5.261900
 50
-63.264940
 51
-35.994112
  6
CONTINUOUS
  0
ARC
  8
WHITE
 10
70.976349
 20
92.496492
 30
0.000000
 40
2.217185
 50
10.922910
 51
143.014000
  6
CONTINUOUS
  0
ARC
  8
WHITE
 10
74.676347
 20
92.894871
 30
0.000000
 40
1.523225
 50
179.182427
 51
267.616754
  6
CONTINUOUS
  0
ARC
  8
WHITE
 10
75.405349
 20
88.422492
 30
0.000000
 40
3.055010
 50
64.219529
 51
105.032000
  6
CONTINUOUS
  0
ARC
  8
WHITE
 10
72.445422
 20
88.294506
 30
0.000000
 40
5.165310
 50
8.559788
 51
33.873130
  6
CONTINUOUS
  0
ARC
  8
WHITE
 10
107.536225
 20
120.620660
 30
0.000000
 40
43.529850
 50
-133.534590
 51
-113.356403
  6
CONTINUOUS
  0
ARC
  8
WHITE
 10
98.664042
 20
100.329410
 30
0.000000
 40
21.384200
 50
-113.086562
 51
-79.734694
  6
CONTINUOUS
  0
ARC
  8
WHITE
 10
103.514439
 20
76.893400
 30
0.000000
 40
2.610075
 50
44.277075
 51
113.472001
  6
CONTINUOUS
  0
ARC
  8
WHITE
 10
106.623849
 20
79.528492
 30
0.000000
 40
1.483275
 50
-146.766000
 51
-86.000817
  6
CONTINUOUS
  0
ARC
  8
WHITE
 10
108.866849
 20
74.042492
 30
0.000000
 40
4.541870
 50
90.035782
 51
118.104000
  6
CONTINUOUS
  0
ARC
  8
WHITE
 10
107.629849
 20
76.075492
 30
0.000000
 40
2.795995
 50
2.459735
 51
63.806500
  6
CONTINUOUS
  0
LINE
  8
WHITE
 10
110.423349
 20
76.195492
 30
0.000000
 11
106.485849
 21
76.011492
 31
0.000000
  6
CONTINUOUS
  0
LINE
  8
WHITE
 10
106.485849
 20
76.011492
 30
0.000000
 11
106.532849
 21
74.961492
 31
0.000000
  6
CONTINUOUS
  0
LINE
  8
WHITE
 10
106.532849
 20
74.961492
 30
0.000000
 11
110.407317
 21
75.140251
 31
0.000000
  6
CONTINUOUS
  0
ARC
  8
WHITE
 10
107.945210
 20
74.883431
 30
0.000000
 40
2.475465
 50
-66.098852
 51
5.954943
  6
CONTINUOUS
  0
ARC
  8
WHITE
 10
108.510090
 20
69.375527
 30
0.000000
 40
3.274160
 50
82.310828
 51
111.797755
  6
CONTINUOUS
  0
ARC
  8
WHITE
 10
105.675653
 20
72.992583
 30
0.000000
 40
1.718405
 50
-114.880477
 51
-19.619661
  6
CONTINUOUS
  0
ARC
  8
WHITE
 10
91.253266
 20
52.115006
 30
0.000000
 40
23.683000
 50
54.658471
 51
63.632959
  6
CONTINUOUS
  0
ARC
  8
WHITE
 10
163.159849
 20
100.948992
 30
0.000000
 40
36.487600
 50
-92.384000
 51
-79.471000
  6
CONTINUOUS
  0
ARC
  8
WHITE
 10
179.318294
 20
37.093134
 30
0.000000
 40
29.548350
 50
93.615607
 51
108.735552
  6
CONTINUOUS
  0
ARC
  8
WHITE
 10
177.381849
 20
64.125492
 30
0.000000
 40
2.458264
 50
27.337900
 51
88.297010
  6
CONTINUOUS
  0
ARC
  8
WHITE
 10
180.449235
 20
66.079115
 30
0.000000
 40
1.208716
 50
-136.977240
 51
-21.153455
  6
CONTINUOUS
  0
ARC
  8
WHITE
 10
192.641349
 20
48.794642
 30
0.000000
 40
20.156775
 50
111.091000
 51
123.294273
  6
CONTINUOUS
  0
ARC
  8
WHITE
 10
183.487155
 20
73.402429
 30
0.000000
 40
6.104691
 50
-71.858893
 51
-28.171616
  6
CONTINUOUS
  0
ARC
  8
WHITE
 10
194.785849
 20
63.978992
 30
0.000000
 40
8.820542
 50
107.317000
 51
132.131997
  6
CONTINUOUS
  0
ARC
  8
WHITE
 10
197.338349
 20
67.733492
 30
0.000000
 40
6.970290
 50
115.152000
 51
137.976161
  6
CONTINUOUS
  0
ARC
  8
WHITE
 10
231.638658
 20
-67.346827
 30
0.000000
 40
146.217500
 50
103.976595
 51
104.764406
  6
CONTINUOUS
  0
ARC
  8
WHITE
 10
194.533384
 20
80.547652
 30
0.000000
 40
6.266906
 50
-73.403484
 51
-58.423929
  6
CONTINUOUS
  0
ARC
  8
WHITE
 10
198.094159
 20
74.776063
 30
0.000000
 40
0.514830
 50
-77.171355
 51
122.845886
  6
CONTINUOUS
  0
ARC
  8
WHITE
 10
201.279682
 20
68.655948
 30
0.000000
 40
6.402796
 50
118.663683
 51
140.053913
  6
CONTINUOUS
  0
ARC
  8
WHITE
 10
194.257671
 20
74.165629
 30
0.000000
 40
2.534235
 50
-67.012909
 51
-33.497886
  6
CONTINUOUS
  0
ARC
  8
WHITE
 10
188.920903
 20
84.175371
 30
0.000000
 40
13.869650
 50
-70.218625
 51
-62.861947
  6
CONTINUOUS
  0
ARC
  8
WHITE
 10
199.036849
 20
65.373992
 30
0.000000
 40
7.903330
 50
133.317572
 51
145.241000
  6
CONTINUOUS
  0
ARC
  8
WHITE
 10
193.242446
 20
70.062623
 30
0.000000
 40
0.722152
 50
-165.343081
 51
-95.900642
  6
CONTINUOUS
  0
ARC
  8
WHITE
 10
192.364066
 20
73.165538
 30
0.000000
 40
3.904936
 50
-78.116109
 51
-47.212791
  6
CONTINUOUS
  0
ARC
  8
WHITE
 10
194.395605
 20
71.941589
 30
0.000000
 40
1.755330
 50
-69.281438
 51
-34.579327
  6
CONTINUOUS
  0
ARC
  8
WHITE
 10
197.153574
 20
62.928525
 30
0.000000
 40
8.123600
 50
87.593531
 51
99.299499
  6
CONTINUOUS
  0
ARC
  8
WHITE
 10
196.804755
 20
73.585331
 30
0.000000
 40
2.632388
 50
-74.806026
 51
-39.782033
  6
CONTINUOUS
  0
ARC
  8
WHITE
 10
199.677349
 20
70.231492
 30
0.000000
 40
1.873227
 50
51.694200
 51
116.973150
  6
CONTINUOUS
  0
ARC
  8
WHITE
 10
200.632849
 20
75.312992
 30
0.000000
 40
3.617434
 50
-86.741637
 51
-58.092000
  6
CONTINUOUS
  0
ARC
  8
WHITE
 10
202.872849
 20
69.348992
 30
0.000000
 40
2.911617
 50
64.862800
 51
96.466885
  6
CONTINUOUS
  0
ARC
  8
WHITE
 10
204.471138
 20
73.307413
 30
0.000000
 40
1.371069
 50
-105.286409
 51
-42.652761
  6
CONTINUOUS
  0
ARC
  8
WHITE
 10
208.366944
 20
61.133069
 30
0.000000
 40
11.610150
 50
94.018015
 51
104.400477
  6
CONTINUOUS
  0
ARC
  8
WHITE
 10
207.645945
 20
72.110309
 30
0.000000
 40
0.611415
 50
-84.404777
 51
98.704101
  6
CONTINUOUS
  0
ARC
  8
WHITE
 10
211.276599
 20
48.764525
 30
0.000000
 40
23.016002
 50
98.925768
 51
110.178147
  6
CONTINUOUS
  0
ARC
  8
WHITE
 10
202.372472
 20
74.352579
 30
0.000000
 40
4.099850
 50
-102.964586
 51
-76.386549
  6
CONTINUOUS
  0
ARC
  8
WHITE
 10
198.501215
 20
75.271023
 30
0.000000
 40
5.732050
 50
-85.156668
 51
-59.008902
  6
CONTINUOUS
  0
ARC
  8
WHITE
 10
198.671566
 20
68.509428
 30
0.000000
 40
1.095847
 50
73.370369
 51
139.718751
  6
CONTINUOUS
  0
ARC
  8
WHITE
 10
196.565052
 20
70.005526
 30
0.000000
 40
1.494825
 50
-80.705881
 51
-31.794677
  6
CONTINUOUS
  0
ARC
  8
WHITE
 10
194.481849
 20
79.219492
 30
0.000000
 40
10.939021
 50
-85.104000
 51
-77.730678
  6
CONTINUOUS
  0
ARC
  8
WHITE
 10
195.321257
 20
67.681932
 30
0.000000
 40
0.645338
 50
81.605569
 51
281.702605
  6
CONTINUOUS
  0
ARC
  8
WHITE
 10
195.601611
 20
69.812505
 30
0.000000
 40
2.766537
 50
-93.096830
 51
-51.984273
  6
CONTINUOUS
  0
ARC
  8
WHITE
 10
198.423978
 20
63.921072
 30
0.000000
 40
3.876705
 50
77.887197
 51
106.769561
  6
CONTINUOUS
  0
ARC
  8
WHITE
 10
199.020700
 20
71.874011
 30
0.000000
 40
4.168183
 50
-87.019148
 51
-58.632249
  6
CONTINUOUS
  0
ARC
  8
WHITE
 10
201.966735
 20
67.464611
 30
0.000000
 40
1.151510
 50
43.858521
 51
132.393844
  6
CONTINUOUS
  0
ARC
  8
WHITE
 10
203.522515
 20
70.184618
 30
0.000000
 40
2.054502
 50
-110.678108
 51
-62.161409
  6
CONTINUOUS
  0
ARC
  8
WHITE
 10
205.166701
 20
66.236112
 30
0.000000
 40
2.239060
 50
51.129230
 51
107.808042
  6
CONTINUOUS
  0
ARC
  8
WHITE
 10
207.479349
 20
69.018992
 30
0.000000
 40
1.379989
 50
-131.117614
 51
-79.003000
  6
CONTINUOUS
  0
ARC
  8
WHITE
 10
203.948039
 20
-28.603956
 30
0.000000
 40
96.343000
 50
86.298452
 51
87.742765
  6
CONTINUOUS
  0
ARC
  8
WHITE
 10
210.005677
 20
66.920019
 30
0.000000
 40
0.638970
 50
-85.328516
 51
75.295143
  6
CONTINUOUS
  0
ARC
  8
WHITE
 10
208.791388
 20
76.720331
 30
0.000000
 40
10.513700
 50
-98.811727
 51
-83.082181
  6
CONTINUOUS
  0
ARC
  8
WHITE
 10
206.848849
 20
68.687992
 30
0.000000
 40
2.380528
 50
-100.388000
 51
-81.983975
  6
CONTINUOUS
  0
ARC
  8
WHITE
 10
207.383171
 20
59.952267
 30
0.000000
 40
6.466394
 50
98.569633
 51
104.603236
  6
CONTINUOUS
  0
ARC
  8
WHITE
 10
205.203494
 20
67.663897
 30
0.000000
 40
1.554440
 50
-123.484393
 51
-69.304381
  6
CONTINUOUS
  0
ARC
  8
WHITE
 10
204.011349
 20
63.065492
 30
0.000000
 40
3.318850
 50
84.214677
 51
117.849000
  6
CONTINUOUS
  0
ARC
  8
WHITE
 10
201.596661
 20
69.165558
 30
0.000000
 40
3.281500
 50
-109.278521
 51
-74.728505
  6
CONTINUOUS
  0
ARC
  8
WHITE
 10
200.117071
 20
64.424559
 30
0.000000
 40
1.690584
 50
76.447378
 51
139.971672
  6
CONTINUOUS
  0
ARC
  8
WHITE
 10
197.225849
 20
69.527992
 30
0.000000
 40
4.321869
 50
-96.475000
 51
-68.318552
  6
CONTINUOUS
  0
ARC
  8
WHITE
 10
190.257349
 20
106.761492
 30
0.000000
 40
42.030586
 50
-82.432000
 51
-81.129601
  6
CONTINUOUS
  0
ARC
  8
WHITE
 10
195.961561
 20
64.539556
 30
0.000000
 40
0.582362
 50
106.834698
 51
256.420224
  6
CONTINUOUS
  0
ARC
  8
WHITE
 10
196.672849
 20
66.036492
 30
0.000000
 40
2.230513
 50
-112.345659
 51
-56.665000
  6
CONTINUOUS
  0
ARC
  8
WHITE
 10
199.074907
 20
61.931145
 30
0.000000
 40
2.531705
 50
71.002317
 51
117.686733
  6
CONTINUOUS
  0
ARC
  8
WHITE
 10
203.186298
 20
73.927052
 30
0.000000
 40
10.149202
 50
-108.898463
 51
-104.105937
  6
CONTINUOUS
  0
ARC
  8
WHITE
 10
200.433979
 20
69.229527
 30
0.000000
 40
5.153193
 50
-86.898637
 51
-72.504797
  6
CONTINUOUS
  0
ARC
  8
WHITE
 10
202.224349
 20
62.592992
 30
0.000000
 40
1.738528
 50
46.941600
 51
97.974371
  6
CONTINUOUS
  0
ARC
  8
WHITE
 10
204.195965
 20
65.028414
 30
0.000000
 40
1.404639
 50
-123.956928
 51
-67.927197
  6
CONTINUOUS
  0
ARC
  8
WHITE
 10
205.177276
 20
62.403083
 30
0.000000
 40
1.399165
 50
38.828321
 51
108.911048
  6
CONTINUOUS
  0
ARC
  8
WHITE
 10
207.434849
 20
64.297992
 30
0.000000
 40
1.548826
 50
-138.925105
 51
-87.756000
  6
CONTINUOUS
  0
ARC
  8
WHITE
 10
201.012849
 20
21.320442
 30
0.000000
 40
41.933931
 50
79.607900
 51
81.106868
  6
CONTINUOUS
  0
ARC
  8
WHITE
 10
208.489998
 20
62.073422
 30
0.000000
 40
0.500625
 50
-109.197682
 51
79.989021
  6
CONTINUOUS
  0
ARC
  8
WHITE
 10
207.659036
 20
60.497879
 30
0.000000
 40
1.288443
 50
58.857484
 51
97.988631
  6
CONTINUOUS
  0
ARC
  8
WHITE
 10
204.397349
 20
96.637992
 30
0.000000
 40
35.000188
 50
-88.039000
 51
-84.947157
  6
CONTINUOUS
  0
ARC
  8
WHITE
 10
205.305709
 20
63.669098
 30
0.000000
 40
2.031565
 50
-127.000046
 51
-81.812487
  6
CONTINUOUS
  0
ARC
  8
WHITE
 10
203.592349
 20
59.300492
 30
0.000000
 40
2.789629
 50
79.868205
 51
112.172000
  6
CONTINUOUS
  0
ARC
  8
WHITE
 10
202.145585
 20
63.931348
 30
0.000000
 40
2.085165
 50
-121.405599
 51
-79.107476
  6
CONTINUOUS
  0
ARC
  8
WHITE
 10
200.429349
 20
60.802492
 30
0.000000
 40
1.488872
 50
64.981034
 51
134.869000
  6
CONTINUOUS
  0
ARC
  8
WHITE
 10
199.188993
 20
80.920337
 30
0.000000
 40
19.063600
 50
-95.416962
 51
-89.429006
  6
CONTINUOUS
  0
ARC
  8
WHITE
 10
196.846349
 20
57.342992
 30
0.000000
 40
4.630825
 50
83.266361
 51
90.814300
  6
CONTINUOUS
  0
ARC
  8
WHITE
 10
196.954349
 20
61.498492
 30
0.000000
 40
0.505682
 50
110.103585
 51
277.095000
  6
CONTINUOUS
  0
ARC
  8
WHITE
 10
197.396179
 20
58.392144
 30
0.000000
 40
2.632115
 50
48.428441
 51
98.287231
  6
CONTINUOUS
  0
ARC
  8
WHITE
 10
200.198400
 20
62.052273
 30
0.000000
 40
1.993444
 50
-121.976418
 51
-78.460969
  6
CONTINUOUS
  0
ARC
  8
WHITE
 10
200.502349
 20
57.920492
 30
0.000000
 40
2.180688
 50
35.292400
 51
87.508143
  6
CONTINUOUS
  0
ARC
  8
WHITE
 10
203.204849
 20
59.732492
 30
0.000000
 40
1.075152
 50
-149.102407
 51
-99.199000
  6
CONTINUOUS
  0
ARC
  8
WHITE
 10
202.843869
 20
57.784215
 30
0.000000
 40
0.906790
 50
-5.024101
 51
77.964177
  6
CONTINUOUS
  0
ARC
  8
WHITE
 10
203.187084
 20
57.626845
 30
0.000000
 40
0.565490
 50
-122.173125
 51
7.924000
  6
CONTINUOUS
  0
ARC
  8
WHITE
 10
204.185291
 20
60.764233
 30
0.000000
 40
3.842395
 50
-128.885040
 51
-109.764403
  6
CONTINUOUS
  0
ARC
  8
WHITE
 10
201.307349
 20
55.751992
 30
0.000000
 40
2.074279
 50
77.021847
 51
102.316000
  6
CONTINUOUS
  0
ARC
  8
WHITE
 10
201.036849
 20
59.348992
 30
0.000000
 40
1.579881
 50
-147.850000
 51
-96.248008
  6
CONTINUOUS
  0
ARC
  8
WHITE
 10
199.299849
 20
58.250992
 30
0.000000
 40
0.475091
 50
32.790068
 51
120.488000
  6
CONTINUOUS
  0
ARC
  8
WHITE
 10
198.555349
 20
59.951992
 30
0.000000
 40
1.386269
 50
-130.093000
 51
-68.704274
  6
CONTINUOUS
  0
ARC
  8
WHITE
 10
196.352623
 20
57.069295
 30
0.000000
 40
2.244225
 50
54.288656
 51
123.113113
  6
CONTINUOUS
  0
ARC
  8
WHITE
 10
194.175849
 20
61.295992
 30
0.000000
 40
2.532218
 50
-126.640000
 51
-67.946723
  6
CONTINUOUS
  0
ARC
  8
WHITE
 10
179.632423
 20
-264.193176
 30
0.000000
 40
323.719735
 50
87.692777
 51
88.503535
  6
CONTINUOUS
  0
ARC
  8
WHITE
 10
187.883117
 20
62.723296
 30
0.000000
 40
3.313390
 50
-126.260750
 51
-86.481739
  6
CONTINUOUS
  0
ARC
  8
WHITE
 10
184.053349
 20
51.903692
 30
0.000000
 40
8.359747
 50
77.073892
 51
100.634000
  6
CONTINUOUS
  0
ARC
  8
WHITE
 10
182.664338
 20
66.157266
 30
0.000000
 40
6.039300
 50
-114.838110
 51
-91.457965
  6
CONTINUOUS
  0
ARC
  8
WHITE
 10
179.632349
 20
59.525992
 30
0.000000
 40
1.252635
 50
66.716348
 51
157.022000
  6
CONTINUOUS
  0
ARC
  8
WHITE
 10
177.236600
 20
60.986290
 30
0.000000
 40
1.577160
 50
-128.836708
 51
-38.015027
  6
CONTINUOUS
  0
ARC
  8
WHITE
 10
171.154349
 20
52.308142
 30
0.000000
 40
9.024296
 50
55.640160
 51
98.289600
  6
CONTINUOUS
  0
ARC
  8
WHITE
 10
158.125696
 20
151.737499
 30
0.000000
 40
91.256000
 50
-90.168648
 51
-82.616346
  6
CONTINUOUS
  0
ARC
  8
WHITE
 10
154.984993
 20
38.589805
 30
0.000000
 40
22.079685
 50
82.525865
 51
100.368866
  6
CONTINUOUS
  0
ARC
  8
WHITE
 10
148.990349
 20
67.217992
 30
0.000000
 40
7.198494
 50
-90.758000
 51
-73.697834
  6
CONTINUOUS
  0
ARC
  8
WHITE
 10
148.974349
 20
61.636992
 30
0.000000
 40
1.618810
 50
-134.753000
 51
-92.805385
  6
CONTINUOUS
  0
ARC
  8
WHITE
 10
147.399349
 20
57.305992
 30
0.000000
 40
3.211091
 50
82.208628
 51
122.995000
  6
CONTINUOUS
  0
ARC
  8
WHITE
 10
144.704349
 20
61.857992
 30
0.000000
 40
2.085867
 50
-166.152000
 51
-63.018422
  6
CONTINUOUS
  0
ARC
  8
WHITE
 10
140.987871
 20
61.512233
 30
0.000000
 40
1.698097
 50
-5.186678
 51
93.692456
  6
CONTINUOUS
  0
ARC
  8
WHITE
 10
140.836244
 20
64.923294
 30
0.000000
 40
1.717010
 50
152.090504
 51
271.410603
  6
CONTINUOUS
  0
LINE
  8
WHITE
 10
139.318943
 20
65.726986
 30
0.000000
 11
139.702349
 21
66.865992
 31
0.000000
  6
CONTINUOUS
  0
LINE
  8
WHITE
 10
139.702349
 20
66.865992
 30
0.000000
 11
140.027849
 21
66.645492
 31
0.000000
  6
CONTINUOUS
  0
LINE
  8
WHITE
 10
140.027849
 20
66.645492
 30
0.000000
 11
143.303849
 21
64.456492
 31
0.000000
  6
CONTINUOUS
  0
LINE
  8
WHITE
 10
143.303849
 20
64.456492
 30
0.000000
 11
143.886849
 21
65.332992
 31
0.000000
  6
CONTINUOUS
  0
LINE
  8
WHITE
 10
143.886849
 20
65.332992
 30
0.000000
 11
140.663349
 21
67.485492
 31
0.000000
  6
CONTINUOUS
  0
LINE
  8
WHITE
 10
140.663349
 20
67.485492
 30
0.000000
 11
140.201349
 21
67.795492
 31
0.000000
  6
CONTINUOUS
  0
ARC
  8
WHITE
 10
142.563069
 20
66.844550
 30
0.000000
 40
2.545980
 50
104.680126
 51
158.067911
  6
CONTINUOUS
  0
ARC
  8
WHITE
 10
142.160641
 20
67.149211
 30
0.000000
 40
2.171820
 50
43.554947
 51
96.418314
  6
CONTINUOUS
  0
ARC
  8
WHITE
 10
144.432349
 20
69.501492
 30
0.000000
 40
1.104194
 50
-129.191755
 51
-47.876000
  6
CONTINUOUS
  0
ARC
  8
WHITE
 10
145.859962
 20
67.238905
 30
0.000000
 40
1.598720
 50
52.317320
 51
115.448714
  6
CONTINUOUS
  0
ARC
  8
WHITE
 10
152.076349
 20
74.216492
 30
0.000000
 40
7.751075
 50
-132.525654
 51
-117.290000
  6
CONTINUOUS
  0
ARC
  8
WHITE
 10
162.461236
 20
104.004465
 30
0.000000
 40
39.235637
 50
-110.809106
 51
-104.483153
  6
CONTINUOUS
  0
ARC
  8
WHITE
 10
163.187945
 20
100.943312
 30
0.000000
 40
36.483105
 50
-106.791111
 51
-92.428457
  6
CONTINUOUS
  0
ARC
  8
WHITE
 10
179.685849
 20
84.752992
 30
0.000000
 40
36.481600
 50
-98.190000
 51
-87.104000
  6
CONTINUOUS
  0
ARC
  8
WHITE
 10
179.693349
 20
84.753492
 30
0.000000
 40
36.481721
 50
-87.115804
 51
-70.919229
  6
CONTINUOUS
  0
ARC
  8
WHITE
 10
180.216714
 20
87.824211
 30
0.000000
 40
39.241200
 50
-73.107609
 51
-66.779038
  6
CONTINUOUS
  0
ARC
  8
WHITE
 10
191.850009
 20
58.491799
 30
0.000000
 40
7.747700
 50
-60.300106
 51
-45.075247
  6
CONTINUOUS
  0
ARC
  8
WHITE
 10
198.349849
 20
51.777592
 30
0.000000
 40
1.602300
 50
67.043013
 51
129.937000
  6
CONTINUOUS
  0
ARC
  8
WHITE
 10
199.682049
 20
54.097976
 30
0.000000
 40
1.101975
 50
-129.927520
 51
-48.402119
  6
CONTINUOUS
  0
ARC
  8
WHITE
 10
202.047849
 20
51.841242
 30
0.000000
 40
2.173270
 50
85.890476
 51
138.760000
  6
CONTINUOUS
  0
ARC
  8
WHITE
 10
201.661349
 20
51.521642
 30
0.000000
 40
2.545710
 50
24.200037
 51
77.701600
  6
CONTINUOUS
  0
LINE
  8
WHITE
 10
203.983349
 20
52.565192
 30
0.000000
 11
203.531849
 21
52.234442
 31
0.000000
  6
CONTINUOUS
  0
LINE
  8
WHITE
 10
203.531849
 20
52.234442
 30
0.000000
 11
200.397849
 21
49.955942
 31
0.000000
  6
CONTINUOUS
  0
LINE
  8
WHITE
 10
200.397849
 20
49.955942
 30
0.000000
 11
201.017349
 21
49.105442
 31
0.000000
  6
CONTINUOUS
  0
LINE
  8
WHITE
 10
201.017349
 20
49.105442
 30
0.000000
 11
204.198849
 21
51.425942
 31
0.000000
  6
CONTINUOUS
  0
LINE
  8
WHITE
 10
204.198849
 20
51.425942
 30
0.000000
 11
204.518849
 21
51.656942
 31
0.000000
  6
CONTINUOUS
  0
LINE
  8
WHITE
 10
204.518849
 20
51.656942
 30
0.000000
 11
204.944055
 21
50.533411
 31
0.000000
  6
CONTINUOUS
  0
ARC
  8
WHITE
 10
203.458349
 20
49.672492
 30
0.000000
 40
1.717120
 50
-88.940233
 51
30.090900
  6
CONTINUOUS
  0
ARC
  8
WHITE
 10
203.451468
 20
46.253001
 30
0.000000
 40
1.703110
 50
88.699967
 51
187.383147
  6
CONTINUOUS
  0
ARC
  8
WHITE
 10
199.715849
 20
46.454592
 30
0.000000
 40
2.089370
 50
-114.517891
 51
-11.609000
  6
CONTINUOUS
  0
ARC
  8
WHITE
 10
197.211849
 20
41.791992
 30
0.000000
 40
3.210395
 50
59.342700
 51
100.091744
  6
CONTINUOUS
  0
ARC
  8
WHITE
 10
195.464349
 20
46.055942
 30
0.000000
 40
1.619050
 50
-84.846451
 51
-42.955000
  6
CONTINUOUS
  0
ARC
  8
WHITE
 10
195.228849
 20
51.630442
 30
0.000000
 40
7.197100
 50
-104.033817
 51
-86.966000
  6
CONTINUOUS
  0
ARC
  8
WHITE
 10
190.412803
 20
22.781758
 30
0.000000
 40
22.080950
 50
82.005999
 51
99.844241
  6
CONTINUOUS
  0
ARC
  8
WHITE
 10
182.620225
 20
135.703739
 30
0.000000
 40
91.254620
 50
-95.029296
 51
-87.476797
  6
CONTINUOUS
  0
ARC
  8
WHITE
 10
173.683349
 20
35.827492
 30
0.000000
 40
9.021750
 50
84.038300
 51
126.681150
  6
CONTINUOUS
  0
ARC
  8
WHITE
 10
167.255765
 20
44.249192
 30
0.000000
 40
1.576690
 50
-139.760610
 51
-48.810079
  6
CONTINUOUS
  0
ARC
  8
WHITE
 10
164.919849
 20
42.694592
 30
0.000000
 40
1.252835
 50
25.334200
 51
115.655174
  6
CONTINUOUS
  0
ARC
  8
WHITE
 10
161.610849
 20
49.199942
 30
0.000000
 40
6.046150
 50
-86.118336
 51
-62.769000
  6
CONTINUOUS
  0
ARC
  8
WHITE
 10
160.794849
 20
34.898792
 30
0.000000
 40
8.359150
 50
81.571100
 51
105.130167
  6
CONTINUOUS
  0
ARC
  8
WHITE
 10
156.546067
 20
45.551638
 30
0.000000
 40
3.308546
 50
-91.207573
 51
-51.337892
  6
CONTINUOUS
  0
ARC
  8
WHITE
 10
178.318543
 20
-280.736454
 30
0.000000
 40
323.718000
 50
93.868854
 51
94.679594
  6
CONTINUOUS
  0
ARC
  8
WHITE
 10
150.316349
 20
43.870942
 30
0.000000
 40
2.531780
 50
-109.722684
 51
-51.034000
  6
CONTINUOUS
  0
ARC
  8
WHITE
 10
148.309010
 20
39.560946
 30
0.000000
 40
2.245340
 50
59.103979
 51
128.006400
  6
CONTINUOUS
  0
ARC
  8
WHITE
 10
145.987849
 20
42.348892
 30
0.000000
 40
1.385210
 50
-108.622783
 51
-47.345000
  6
CONTINUOUS
  0
ARC
  8
WHITE
 10
145.319614
 20
40.621148
 30
0.000000
 40
0.472485
 50
61.442506
 51
149.962015
  6
CONTINUOUS
  0
ARC
  8
WHITE
 10
143.541849
 20
41.651442
 30
0.000000
 40
1.582255
 50
-81.660504
 51
-30.111000
  6
CONTINUOUS
  0
ARC
  8
WHITE
 10
143.413849
 20
38.043642
 30
0.000000
 40
2.073325
 50
80.071300
 51
105.253306
  6
CONTINUOUS
  0
ARC
  8
WHITE
 10
140.334349
 20
42.927242
 30
0.000000
 40
3.838600
 50
-67.851451
 51
-48.689000
  6
CONTINUOUS
  0
ARC
  8
WHITE
 10
141.462375
 20
39.838819
 30
0.000000
 40
0.565544
 50
174.639963
 51
304.354999
  6
CONTINUOUS
  0
ARC
  8
WHITE
 10
141.796849
 20
40.012092
 30
0.000000
 40
0.905590
 50
104.421598
 51
187.643000
  6
CONTINUOUS
  0
ARC
  8
WHITE
 10
141.359750
 20
41.943073
 30
0.000000
 40
1.074920
 50
-78.649805
 51
-28.833578
  6
CONTINUOUS
  0
ARC
  8
WHITE
 10
144.134849
 20
40.244142
 30
0.000000
 40
2.180635
 50
94.873062
 51
147.223000
  6
CONTINUOUS
  0
ARC
  8
WHITE
 10
144.277349
 20
44.380892
 30
0.000000
 40
1.991145
 50
-99.474000
 51
-55.908364
  6
CONTINUOUS
  0
ARC
  8
WHITE
 10
147.219849
 20
40.841742
 30
0.000000
 40
2.628435
 50
84.141942
 51
134.017000
  6
CONTINUOUS
  0
ARC
  8
WHITE
 10
147.529849
 20
43.959092
 30
0.000000
 40
0.504395
 50
-94.746000
 51
71.745625
  6
CONTINUOUS
  0
ARC
  8
WHITE
 10
147.779849
 20
39.812692
 30
0.000000
 40
4.626380
 50
91.139300
 51
98.716443
  6
CONTINUOUS
  0
ARC
  8
WHITE
 10
144.530849
 20
63.274992
 30
0.000000
 40
19.060450
 50
-88.307042
 51
-82.318000
  6
CONTINUOUS
  0
ARC
  8
WHITE
 10
144.088460
 20
43.119991
 30
0.000000
 40
1.492460
 50
47.645261
 51
117.532072
  6
CONTINUOUS
  0
ARC
  8
WHITE
 10
142.243849
 20
46.181242
 30
0.000000
 40
2.086475
 50
-98.549501
 51
-56.397000
  6
CONTINUOUS
  0
ARC
  8
WHITE
 10
140.987349
 20
41.498242
 30
0.000000
 40
2.785345
 50
70.138600
 51
102.489942
  6
CONTINUOUS
  0
ARC
  8
WHITE
 10
139.102216
 20
45.788304
 30
0.000000
 40
2.027903
 50
-96.036833
 51
-50.761332
  6
CONTINUOUS
  0
ARC
  8
WHITE
 10
138.619483
 20
78.768695
 30
0.000000
 40
34.998086
 50
-92.654537
 51
-89.558855
  6
CONTINUOUS
  0
ARC
  8
WHITE
 10
136.878619
 20
42.522017
 30
0.000000
 40
1.291730
 50
84.671005
 51
123.581234
  6
CONTINUOUS
  0
ARC
  8
WHITE
 10
135.984149
 20
44.067886
 30
0.000000
 40
0.503029
 50
102.574930
 51
290.965859
  6
CONTINUOUS
  0
ARC
  8
WHITE
 10
145.058849
 20
3.642132
 30
0.000000
 40
41.934800
 50
101.154788
 51
102.651000
  6
CONTINUOUS
  0
ARC
  8
WHITE
 10
136.944849
 20
46.327542
 30
0.000000
 40
1.542880
 50
-89.952000
 51
-38.736620
  6
CONTINUOUS
  0
ARC
  8
WHITE
 10
139.273349
 20
44.533192
 30
0.000000
 40
1.397495
 50
73.251996
 51
143.617000
  6
CONTINUOUS
  0
ARC
  8
WHITE
 10
140.153007
 20
47.188985
 30
0.000000
 40
1.401225
 50
-109.899870
 51
-53.649060
  6
CONTINUOUS
  0
ARC
  8
WHITE
 10
142.220349
 20
44.841642
 30
0.000000
 40
1.736410
 50
84.379612
 51
135.420000
  6
CONTINUOUS
  0
ARC
  8
WHITE
 10
143.736312
 20
51.546488
 30
0.000000
 40
5.155600
 50
-105.132815
 51
-90.721717
  6
CONTINUOUS
  0
ARC
  8
WHITE
 10
140.757235
 20
56.110208
 30
0.000000
 40
10.146400
 50
-73.309069
 51
-68.506529
  6
CONTINUOUS
  0
ARC
  8
WHITE
 10
145.392349
 20
44.306942
 30
0.000000
 40
2.534370
 50
64.577533
 51
111.225000
  6
CONTINUOUS
  0
ARC
  8
WHITE
 10
147.634349
 20
48.506992
 30
0.000000
 40
2.232455
 50
-121.126000
 51
-65.522807
  6
CONTINUOUS
  0
ARC
  8
WHITE
 10
148.401849
 20
47.034842
 30
0.000000
 40
0.581385
 50
-74.285000
 51
75.905981
  6
CONTINUOUS
  0
ARC
  8
WHITE
 10
152.451212
 20
89.453590
 30
0.000000
 40
42.036818
 50
-96.636101
 51
-95.333953
  6
CONTINUOUS
  0
ARC
  8
WHITE
 10
146.936849
 20
51.971942
 30
0.000000
 40
4.323655
 50
-109.356431
 51
-81.267000
  6
CONTINUOUS
  0
ARC
  8
WHITE
 10
144.254849
 20
46.758492
 30
0.000000
 40
1.687060
 50
42.242500
 51
105.911231
  6
CONTINUOUS
  0
ARC
  8
WHITE
 10
142.582349
 20
51.436242
 30
0.000000
 40
3.286190
 50
-102.975911
 51
-68.395000
  6
CONTINUOUS
  0
ARC
  8
WHITE
 10
140.418849
 20
45.241042
 30
0.000000
 40
3.315055
 50
64.530000
 51
98.146365
  6
CONTINUOUS
  0
ARC
  8
WHITE
 10
139.037349
 20
49.788192
 30
0.000000
 40
1.559745
 50
-108.310684
 51
-54.229000
  6
CONTINUOUS
  0
ARC
  8
WHITE
 10
137.116849
 20
41.997342
 30
0.000000
 40
6.470200
 50
77.227100
 51
83.266048
  6
CONTINUOUS
  0
ARC
  8
WHITE
 10
137.351942
 20
50.738184
 30
0.000000
 40
2.373707
 50
-95.621312
 51
-77.256639
  6
CONTINUOUS
  0
ARC
  8
WHITE
 10
135.073064
 20
58.687055
 30
0.000000
 40
10.512264
 50
-94.532775
 51
-78.774868
  6
CONTINUOUS
  0
ARC
  8
WHITE
 10
134.268849
 20
48.845692
 30
0.000000
 40
0.638575
 50
106.730958
 51
267.616000
  6
CONTINUOUS
  0
ARC
  8
WHITE
 10
144.253167
 20
-46.349967
 30
0.000000
 40
96.345357
 50
94.615840
 51
96.058211
  6
CONTINUOUS
  0
ARC
  8
WHITE
 10
136.708126
 20
51.042000
 30
0.000000
 40
1.374960
 50
-98.713683
 51
-46.468048
  6
CONTINUOUS
  0
ARC
  8
WHITE
 10
139.129849
 20
48.359792
 30
0.000000
 40
2.239475
 50
74.484818
 51
131.186000
  6
CONTINUOUS
  0
ARC
  8
WHITE
 10
140.614849
 20
52.370942
 30
0.000000
 40
2.054150
 50
-115.550000
 51
-66.944520
  6
CONTINUOUS
  0
ARC
  8
WHITE
 10
142.281701
 20
49.719916
 30
0.000000
 40
1.150177
 50
50.052494
 51
138.574751
  6
CONTINUOUS
  0
ARC
  8
WHITE
 10
145.055849
 20
54.240292
 30
0.000000
 40
4.169330
 50
-119.225000
 51
-90.842231
  6
CONTINUOUS
  0
ARC
  8
WHITE
 10
145.973137
 20
46.322997
 30
0.000000
 40
3.874069
 50
75.677691
 51
104.631161
  6
CONTINUOUS
  0
ARC
  8
WHITE
 10
148.548349
 20
52.323692
 30
0.000000
 40
2.768285
 50
-125.737000
 51
-84.662379
  6
CONTINUOUS
  0
ARC
  8
WHITE
 10
148.911617
 20
50.203965
 30
0.000000
 40
0.645245
 50
-99.433096
 51
100.838368
  6
CONTINUOUS
  0
ARC
  8
WHITE
 10
149.276417
 20
61.767806
 30
0.000000
 40
10.940911
 50
-99.910216
 51
-92.546631
  6
CONTINUOUS
  0
ARC
  8
WHITE
 10
147.577506
 20
52.475561
 30
0.000000
 40
1.496775
 50
-145.877916
 51
-97.064041
  6
CONTINUOUS
  0
ARC
  8
WHITE
 10
145.527487
 20
50.896191
 30
0.000000
 40
1.097640
 50
42.371799
 51
108.830866
  6
CONTINUOUS
  0
ARC
  8
WHITE
 10
145.416260
 20
57.662268
 30
0.000000
 40
5.732344
 50
-118.578053
 51
-92.430201
  6
CONTINUOUS
  0
ARC
  8
WHITE
 10
141.600464
 20
56.581570
 30
0.000000
 40
4.096465
 50
-101.345530
 51
-74.805091
  6
CONTINUOUS
  0
ARC
  8
WHITE
 10
133.765349
 20
30.651542
 30
0.000000
 40
23.013400
 50
72.215300
 51
83.465162
  6
CONTINUOUS
  0
ARC
  8
WHITE
 10
136.410849
 20
54.126342
 30
0.000000
 40
0.611490
 50
83.110967
 51
267.525000
  6
CONTINUOUS
  0
ARC
  8
WHITE
 10
136.167349
 20
43.131142
 30
0.000000
 40
11.606600
 50
78.060134
 51
88.435700
  6
CONTINUOUS
  0
ARC
  8
WHITE
 10
139.541349
 20
55.452292
 30
0.000000
 40
1.370655
 50
-135.211000
 51
-72.459206
  6
CONTINUOUS
  0
ARC
  8
WHITE
 10
141.305050
 20
51.568063
 30
0.000000
 40
2.909828
 50
85.995923
 51
117.655981
  6
CONTINUOUS
  0
ARC
  8
WHITE
 10
143.296602
 20
57.616133
 30
0.000000
 40
3.618210
 50
-119.621505
 51
-90.966624
  6
CONTINUOUS
  0
ARC
  8
WHITE
 10
144.455598
 20
52.575829
 30
0.000000
 40
1.874113
 50
65.567015
 51
130.616526
  6
CONTINUOUS
  0
ARC
  8
WHITE
 10
147.191703
 20
56.039097
 30
0.000000
 40
2.632910
 50
-138.139548
 51
-102.972056
  6
CONTINUOUS
  0
ARC
  8
WHITE
 10
147.299906
 20
45.383076
 30
0.000000
 40
8.120464
 50
83.246209
 51
94.939677
  6
CONTINUOUS
  0
ARC
  8
WHITE
 10
149.661006
 20
54.497732
 30
0.000000
 40
1.755215
 50
-143.235576
 51
-108.460324
  6
CONTINUOUS
  0
ARC
  8
WHITE
 10
151.645159
 20
55.810154
 30
0.000000
 40
3.913530
 50
-130.467345
 51
-99.557275
  6
CONTINUOUS
  0
ARC
  8
WHITE
 10
150.889722
 20
52.669674
 30
0.000000
 40
0.726455
 50
-81.636869
 51
-12.484551
  6
CONTINUOUS
  0
ARC
  8
WHITE
 10
145.292861
 20
47.746739
 30
0.000000
 40
7.904500
 50
37.080327
 51
49.030454
  6
CONTINUOUS
  0
ARC
  8
WHITE
 10
154.614315
 20
66.954969
 30
0.000000
 40
13.871696
 50
-114.730276
 51
-107.359337
  6
CONTINUOUS
  0
ARC
  8
WHITE
 10
149.709849
 20
56.732992
 30
0.000000
 40
2.541700
 50
-144.102635
 51
-110.707000
  6
CONTINUOUS
  0
ARC
  8
WHITE
 10
142.909614
 20
50.943401
 30
0.000000
 40
6.400250
 50
42.201173
 51
63.599246
  6
CONTINUOUS
  0
ARC
  8
WHITE
 10
145.850849
 20
57.182492
 30
0.000000
 40
0.515255
 50
59.427797
 51
259.332000
  6
CONTINUOUS
  0
ARC
  8
WHITE
 10
149.185849
 20
63.087492
 30
0.000000
 40
6.266600
 50
-119.365000
 51
-104.377256
  6
CONTINUOUS
  0
ARC
  8
WHITE
 10
118.027849
 20
-86.172008
 30
0.000000
 40
146.217000
 50
77.532756
 51
78.319600
  6
CONTINUOUS
  0
ARC
  8
WHITE
 10
146.899349
 20
50.166442
 30
0.000000
 40
6.972250
 50
44.442888
 51
67.269600
  6
CONTINUOUS
  0
ARC
  8
WHITE
 10
149.590849
 20
46.534292
 30
0.000000
 40
8.815800
 50
50.128809
 51
74.968500
  6
CONTINUOUS
  0
ARC
  8
WHITE
 10
160.503849
 20
56.407492
 30
0.000000
 40
6.110500
 50
-149.436000
 51
-105.813022
  6
CONTINUOUS
  0
ARC
  8
WHITE
 10
152.352719
 20
31.445571
 30
0.000000
 40
20.154745
 50
59.032289
 51
71.227557
  6
CONTINUOUS
  0
ARC
  8
WHITE
 10
163.831448
 20
49.204914
 30
0.000000
 40
1.206520
 50
-156.685816
 51
-40.400954
  6
CONTINUOUS
  0
ARC
  8
WHITE
 10
166.976849
 20
47.383842
 30
0.000000
 40
2.457125
 50
93.934612
 51
154.983000
  6
CONTINUOUS
  0
ARC
  8
WHITE
 10
166.157349
 20
20.293392
 30
0.000000
 40
29.548950
 50
73.623083
 51
88.737800
  6
CONTINUOUS
  0
ARC
  8
WHITE
 10
121.165349
 20
21.763642
 30
0.000000
 40
27.252621
 50
-0.386739
 51
3.577980
  6
CONTINUOUS
  0
ARC
  8
WHITE
 10
147.424349
 20
23.544942
 30
0.000000
 40
0.943971
 50
-4.894765
 51
56.913400
  6
CONTINUOUS
  0
ARC
  8
WHITE
 10
148.958349
 20
26.294892
 30
0.000000
 40
2.207987
 50
118.706000
 51
242.526335
  6
CONTINUOUS
  0
LINE
  8
WHITE
 10
147.897858
 20
28.231437
 30
0.000000
 11
146.495849
 21
32.084942
 31
0.000000
  6
CONTINUOUS
  0
LINE
  8
WHITE
 10
146.495849
 20
32.084942
 30
0.000000
 11
147.482849
 21
32.441942
 31
0.000000
  6
CONTINUOUS
  0
LINE
  8
WHITE
 10
147.482849
 20
32.441942
 30
0.000000
 11
148.748349
 21
28.961192
 31
0.000000
  6
CONTINUOUS
  0
ARC
  8
WHITE
 10
148.687349
 20
30.648692
 30
0.000000
 40
1.688602
 50
-87.929765
 51
-1.146000
  6
CONTINUOUS
  0
ARC
  8
WHITE
 10
147.283349
 20
30.945792
 30
0.000000
 40
3.109923
 50
-6.107399
 51
51.716100
  6
CONTINUOUS
  0
ARC
  8
WHITE
 10
151.094849
 20
35.413742
 30
0.000000
 40
2.767681
 50
173.690000
 51
227.080429
  6
CONTINUOUS
  0
ARC
  8
WHITE
 10
144.191211
 20
33.760034
 30
0.000000
 40
4.591161
 50
25.242383
 51
54.724594
  6
CONTINUOUS
  0
ARC
  8
WHITE
 10
145.828349
 20
35.003742
 30
0.000000
 40
2.702046
 50
67.952266
 51
134.825000
  6
CONTINUOUS
  0
ARC
  8
WHITE
 10
140.582849
 20
46.091942
 30
0.000000
 40
9.761229
 50
-111.575000
 51
-69.986313
  6
CONTINUOUS
  0
ARC
  8
WHITE
 10
135.730349
 20
35.382192
 30
0.000000
 40
2.064066
 50
52.268741
 51
142.387000
  6
CONTINUOUS
  0
ARC
  8
WHITE
 10
135.444984
 20
35.019854
 30
0.000000
 40
2.110108
 50
129.762332
 51
174.436376
  6
CONTINUOUS
  0
ARC
  8
WHITE
 10
128.226349
 20
35.555992
 30
0.000000
 40
5.129194
 50
-42.271000
 51
-3.706294
  6
CONTINUOUS
  0
ARC
  8
WHITE
 10
134.116154
 20
30.657910
 30
0.000000
 40
2.546211
 50
145.340639
 51
199.913529
  6
CONTINUOUS
  0
ARC
  8
WHITE
 10
134.573349
 20
31.417892
 30
0.000000
 40
3.282832
 50
-150.285578
 51
-103.133000
  6
CONTINUOUS
  0
LINE
  8
WHITE
 10
133.827455
 20
28.220943
 30
0.000000
 11
134.704349
 21
31.916942
 31
0.000000
  6
CONTINUOUS
  0
LINE
  8
WHITE
 10
134.704349
 20
31.916942
 30
0.000000
 11
135.728349
 21
31.675442
 31
0.000000
  6
CONTINUOUS
  0
LINE
  8
WHITE
 10
135.728349
 20
31.675442
 30
0.000000
 11
134.730849
 21
27.464942
 31
0.000000
  6
CONTINUOUS
  0
ARC
  8
WHITE
 10
132.898349
 20
25.625642
 30
0.000000
 40
2.596359
 50
-59.628000
 51
45.106109
  6
CONTINUOUS
  0
ARC
  8
WHITE
 10
134.562849
 20
23.096542
 30
0.000000
 40
0.455332
 50
140.584935
 51
205.933000
  6
CONTINUOUS
  0
ARC
  8
WHITE
 10
71.710349
 20
18.146892
 30
0.000000
 40
62.623491
 50
1.551010
 51
4.350564
  6
CONTINUOUS
  0
ARC
  8
WHITE
 10
130.236849
 20
20.225042
 30
0.000000
 40
4.092031
 50
-19.875000
 51
-5.372298
  6
CONTINUOUS
  0
ARC
  8
WHITE
 10
141.230349
 20
15.416292
 30
0.000000
 40
7.920500
 50
154.438010
 51
182.698000
  6
CONTINUOUS
  0
ARC
  8
WHITE
 10
137.123349
 20
15.376392
 30
0.000000
 40
3.819309
 50
-174.999125
 51
-117.305000
  6
CONTINUOUS
  0
ARC
  8
WHITE
 10
138.001125
 20
16.119667
 30
0.000000
 40
4.902104
 50
-122.443046
 51
-96.887445
  6
CONTINUOUS
  0
LINE
  8
WHITE
 10
137.413268
 20
11.252938
 30
0.000000
 11
137.119349
 21
14.633942
 31
0.000000
  6
CONTINUOUS
  0
LINE
  8
WHITE
 10
137.119349
 20
14.633942
 30
0.000000
 11
136.793849
 21
18.424442
 31
0.000000
  6
CONTINUOUS
  0
LINE
  8
WHITE
 10
136.793849
 20
18.424442
 30
0.000000
 11
137.838849
 21
18.513692
 31
0.000000
  6
CONTINUOUS
  0
LINE
  8
WHITE
 10
137.838849
 20
18.513692
 30
0.000000
 11
138.211349
 21
14.208692
 31
0.000000
  6
CONTINUOUS
  0
LINE
  8
WHITE
 10
138.211349
 20
14.208692
 30
0.000000
 11
138.563349
 21
10.166167
 31
0.000000
  6
CONTINUOUS
  0
ARC
  8
WHITE
 10
140.937849
 20
13.326242
 30
0.000000
 40
3.952762
 50
-126.921428
 51
-85.833000
  6
CONTINUOUS
  0
LINE
  8
WHITE
 10
141.225071
 20
9.383937
 30
0.000000
 11
141.135849
 21
12.822692
 31
0.000000
  6
CONTINUOUS
  0
LINE
  8
WHITE
 10
141.135849
 20
12.822692
 30
0.000000
 11
141.035849
 21
16.623692
 31
0.000000
  6
CONTINUOUS
  0
LINE
  8
WHITE
 10
141.035849
 20
16.623692
 30
0.000000
 11
140.936349
 21
20.424692
 31
0.000000
  6
CONTINUOUS
  0
LINE
  8
WHITE
 10
140.936349
 20
20.424692
 30
0.000000
 11
141.986349
 21
20.456192
 31
0.000000
  6
CONTINUOUS
  0
LINE
  8
WHITE
 10
141.986349
 20
20.456192
 30
0.000000
 11
142.101849
 21
16.130192
 31
0.000000
  6
CONTINUOUS
  0
LINE
  8
WHITE
 10
142.101849
 20
16.130192
 30
0.000000
 11
142.211849
 21
11.809442
 31
0.000000
  6
CONTINUOUS
  0
LINE
  8
WHITE
 10
142.211849
 20
11.809442
 30
0.000000
 11
142.280349
 21
9.326167
 31
0.000000
  6
CONTINUOUS
  0
ARC
  8
WHITE
 10
142.358849
 20
12.218992
 30
0.000000
 40
2.893890
 50
-91.554403
 51
-22.846000
  6
CONTINUOUS
  0
LINE
  8
WHITE
 10
145.025732
 20
11.095418
 30
0.000000
 11
145.078349
 21
14.901692
 31
0.000000
  6
CONTINUOUS
  0
LINE
  8
WHITE
 10
145.078349
 20
14.901692
 30
0.000000
 11
145.130849
 21
18.707942
 31
0.000000
  6
CONTINUOUS
  0
LINE
  8
WHITE
 10
145.130849
 20
18.707942
 30
0.000000
 11
146.180849
 21
18.692192
 31
0.000000
  6
CONTINUOUS
  0
LINE
  8
WHITE
 10
146.180849
 20
18.692192
 30
0.000000
 11
146.123349
 21
14.371442
 31
0.000000
  6
CONTINUOUS
  0
LINE
  8
WHITE
 10
146.123349
 20
14.371442
 30
0.000000
 11
146.086349
 21
11.699192
 31
0.000000
  6
CONTINUOUS
  0
ARC
  8
WHITE
 10
145.497849
 20
16.029842
 30
0.000000
 40
4.370453
 50
-82.261374
 51
-19.209000
  6
CONTINUOUS
  0
ARC
  8
WHITE
 10
145.031349
 20
15.771942
 30
0.000000
 40
4.742831
 50
-14.407098
 51
28.224300
  6
CONTINUOUS
  0
ARC
  8
WHITE
 10
153.378849
 20
20.812492
 30
0.000000
 40
5.020371
 50
171.209934
 51
213.865629
  6
CONTINUOUS
  0
ARC
  8
WHITE
 10
153.725349
 20
25.002592
 30
0.000000
 40
2.671210
 50
12.371700
 51
83.002300
  6
CONTINUOUS
  0
ARC
  8
WHITE
 10
154.796057
 20
29.246186
 30
0.000000
 40
1.758066
 50
124.578318
 51
244.917802
  6
CONTINUOUS
  0
ARC
  8
WHITE
 10
127.484349
 20
77.123992
 30
0.000000
 40
53.368500
 50
-60.458000
 51
-58.666476
  6
CONTINUOUS
  0
ARC
  8
WHITE
 10
149.814702
 20
36.150357
 30
0.000000
 40
7.118050
 50
-40.379381
 51
-2.129024
  6
CONTINUOUS
  0
ARC
  8
WHITE
 10
160.519692
 20
35.707971
 30
0.000000
 40
3.596259
 50
41.276870
 51
177.163724
  6
CONTINUOUS
  0
ARC
  8
WHITE
 10
165.533349
 20
39.623792
 30
0.000000
 40
2.778945
 50
-146.263000
 51
-47.616477
  6
CONTINUOUS
  0
ARC
  8
WHITE
 10
168.336326
 20
33.990062
 30
0.000000
 40
3.699820
 50
-10.041817
 51
104.554148
  6
CONTINUOUS
  0
ARC
  8
WHITE
 10
180.983224
 20
30.568037
 30
0.000000
 40
9.422250
 50
162.859423
 51
177.511364
  6
CONTINUOUS
  0
ARC
  8
WHITE
 10
176.346849
 20
30.259742
 30
0.000000
 40
4.830560
 50
171.459000
 51
219.506647
  6
CONTINUOUS
  0
ARC
  8
WHITE
 10
171.381349
 20
25.985342
 30
0.000000
 40
1.725370
 50
-106.452326
 51
44.128400
  6
CONTINUOUS
  0
ARC
  8
WHITE
 10
170.528036
 20
22.040163
 30
0.000000
 40
2.319365
 50
80.953779
 51
158.309414
  6
CONTINUOUS
  0
ARC
  8
WHITE
 10
175.003494
 20
20.792423
 30
0.000000
 40
6.956700
 50
162.387325
 51
180.478115
  6
CONTINUOUS
  0
ARC
  8
WHITE
 10
173.617399
 20
20.172785
 30
0.000000
 40
5.598600
 50
174.243067
 51
197.688584
  6
CONTINUOUS
  0
ARC
  8
WHITE
 10
166.870849
 20
18.075892
 30
0.000000
 40
1.467040
 50
-37.372688
 51
15.651900
  6
CONTINUOUS
  0
ARC
  8
WHITE
 10
166.862349
 20
18.508942
 30
0.000000
 40
1.769380
 50
-97.556981
 51
-48.418000
  6
CONTINUOUS
  0
ARC
  8
WHITE
 10
166.013928
 20
16.308584
 30
0.000000
 40
0.760470
 50
35.937163
 51
141.074162
  6
CONTINUOUS
  0
ARC
  8
WHITE
 10
164.953225
 20
19.249073
 30
0.000000
 40
2.506952
 50
-123.087653
 51
-79.215568
  6
CONTINUOUS
  0
ARC
  8
WHITE
 10
162.884349
 20
16.860242
 30
0.000000
 40
0.757345
 50
22.384700
 51
138.845698
  6
CONTINUOUS
  0
ARC
  8
WHITE
 10
161.765349
 20
20.203642
 30
0.000000
 40
2.897405
 50
-124.488072
 51
-79.083000
  6
CONTINUOUS
  0
ARC
  8
WHITE
 10
159.418849
 20
17.532342
 30
0.000000
 40
0.760515
 50
21.853700
 51
138.532402
  6
CONTINUOUS
  0
ARC
  8
WHITE
 10
158.439045
 20
20.015164
 30
0.000000
 40
2.021271
 50
-132.246572
 51
-78.297422
  6
CONTINUOUS
  0
ARC
  8
WHITE
 10
156.332807
 20
18.377868
 30
0.000000
 40
0.760485
 50
10.687533
 51
138.030536
  6
CONTINUOUS
  0
ARC
  8
WHITE
 10
155.843349
 20
20.315392
 30
0.000000
 40
1.430980
 50
-125.035782
 51
-93.043000
  6
CONTINUOUS
  0
ARC
  8
WHITE
 10
155.835273
 20
20.195300
 30
0.000000
 40
1.329560
 50
140.324494
 51
232.277176
  6
CONTINUOUS
  0
ARC
  8
WHITE
 10
150.874849
 20
24.888342
 30
0.000000
 40
5.502600
 50
-44.316000
 51
7.167424
  6
CONTINUOUS
  0
ARC
  8
WHITE
 10
190.346849
 20
81.975492
 30
0.000000
 40
57.508500
 50
-114.748000
 51
-113.003000
  6
CONTINUOUS
  0
ARC
  8
WHITE
 10
168.420124
 20
29.974574
 30
0.000000
 40
1.082744
 50
-120.308158
 51
-54.084428
  6
CONTINUOUS
  0
ARC
  8
WHITE
 10
167.207459
 20
30.530984
 30
0.000000
 40
2.338527
 50
-37.800174
 51
-2.575589
  6
CONTINUOUS
  0
ARC
  8
WHITE
 10
165.579849
 20
31.974292
 30
0.000000
 40
4.255471
 50
-21.337440
 51
31.380400
  6
CONTINUOUS
  0
ARC
  8
WHITE
 10
167.387570
 20
32.068603
 30
0.000000
 40
2.798665
 50
49.293484
 51
108.643035
  6
CONTINUOUS
  0
ARC
  8
WHITE
 10
166.678349
 20
33.074042
 30
0.000000
 40
1.656785
 50
96.426164
 51
192.333000
  6
CONTINUOUS
  0
ARC
  8
WHITE
 10
161.825849
 20
31.949542
 30
0.000000
 40
3.324523
 50
-22.979000
 51
13.403124
  6
CONTINUOUS
  0
ARC
  8
WHITE
 10
165.189849
 20
30.595742
 30
0.000000
 40
0.308455
 50
169.549426
 51
257.442000
  6
CONTINUOUS
  0
ARC
  8
WHITE
 10
190.371663
 20
81.964152
 30
0.000000
 40
57.508595
 50
-116.042978
 51
-114.775181
  6
CONTINUOUS
  0
ARC
  8
WHITE
 10
159.905042
 20
88.365046
 30
0.000000
 40
57.507726
 50
-90.706597
 51
-87.693715
  6
CONTINUOUS
  0
ARC
  8
WHITE
 10
162.276513
 20
31.207411
 30
0.000000
 40
0.308868
 50
-100.687303
 51
-13.626595
  6
CONTINUOUS
  0
ARC
  8
WHITE
 10
165.904490
 20
31.085578
 30
0.000000
 40
3.328165
 50
142.792015
 51
179.155274
  6
CONTINUOUS
  0
ARC
  8
WHITE
 10
161.915349
 20
34.072692
 30
0.000000
 40
1.655640
 50
-36.058982
 51
59.737600
  6
CONTINUOUS
  0
ARC
  8
WHITE
 10
160.859102
 20
33.445069
 30
0.000000
 40
2.794271
 50
47.421932
 51
107.022518
  6
CONTINUOUS
  0
ARC
  8
WHITE
 10
162.481220
 20
32.624202
 30
0.000000
 40
4.260675
 50
124.939462
 51
177.579712
  6
CONTINUOUS
  0
ARC
  8
WHITE
 10
160.408349
 20
31.965642
 30
0.000000
 40
2.339429
 50
158.997137
 51
194.195000
  6
CONTINUOUS
  0
ARC
  8
WHITE
 10
159.075349
 20
31.937642
 30
0.000000
 40
1.082677
 50
-149.732836
 51
-83.609841
  6
CONTINUOUS
  0
ARC
  8
WHITE
 10
162.396988
 20
25.106836
 30
0.000000
 40
1.798426
 50
164.913607
 51
218.848367
  6
CONTINUOUS
  0
ARC
  8
WHITE
 10
157.095849
 20
23.079742
 30
0.000000
 40
4.002989
 50
-13.634000
 51
12.980666
  6
CONTINUOUS
  0
ARC
  8
WHITE
 10
161.886349
 20
22.157168
 30
0.000000
 40
0.900491
 50
-178.662342
 51
1.337658
  6
CONTINUOUS
  0
ARC
  8
WHITE
 10
164.734349
 20
22.387992
 30
0.000000
 40
1.959022
 50
147.583000
 51
186.147917
  6
CONTINUOUS
  0
ARC
  8
WHITE
 10
162.396988
 20
25.106836
 30
0.000000
 40
1.803293
 50
-67.721290
 51
59.897904
  6
CONTINUOUS
  0
LINE
  8
WHITE
 10
163.301416
 20
26.666924
 30
0.000000
 11
163.663349
 21
28.362692
 31
0.000000
  6
CONTINUOUS
  0
LINE
  8
WHITE
 10
163.663349
 20
28.362692
 30
0.000000
 11
162.634349
 21
28.583192
 31
0.000000
  6
CONTINUOUS
  0
LINE
  8
WHITE
 10
162.634349
 20
28.583192
 30
0.000000
 11
162.277349
 21
26.903192
 31
0.000000
  6
CONTINUOUS
  0
ARC
  8
WHITE
 10
162.403080
 20
25.102009
 30
0.000000
 40
1.805567
 50
93.993042
 51
164.816025
  6
CONTINUOUS
  0
ARC
  8
WHITE
 10
178.326349
 20
33.969442
 30
0.000000
 40
4.081725
 50
115.274000
 51
143.994000
  6
CONTINUOUS
  0
ARC
  8
WHITE
 10
178.321349
 20
33.963492
 30
0.000000
 40
4.081185
 50
143.885161
 51
232.147667
  6
CONTINUOUS
  0
ARC
  8
WHITE
 10
176.111849
 20
28.576442
 30
0.000000
 40
2.184495
 50
-36.879244
 51
97.758000
  6
CONTINUOUS
  0
ARC
  8
WHITE
 10
179.030071
 20
25.936238
 30
0.000000
 40
1.771280
 50
131.374573
 51
209.049688
  6
CONTINUOUS
  0
ARC
  8
WHITE
 10
180.137849
 20
26.152692
 30
0.000000
 40
2.866090
 50
-157.938000
 51
-114.685086
  6
CONTINUOUS
  0
LINE
  8
WHITE
 10
178.940849
 20
23.548442
 30
0.000000
 11
179.366349
 21
24.729692
 31
0.000000
  6
CONTINUOUS
  0
LINE
  8
WHITE
 10
179.366349
 20
24.729692
 30
0.000000
 11
180.641849
 21
28.310192
 31
0.000000
  6
CONTINUOUS
  0
LINE
  8
WHITE
 10
180.641849
 20
28.310192
 30
0.000000
 11
181.917849
 21
31.895942
 31
0.000000
  6
CONTINUOUS
  0
LINE
  8
WHITE
 10
181.917849
 20
31.895942
 30
0.000000
 11
182.909849
 21
31.544192
 31
0.000000
  6
CONTINUOUS
  0
LINE
  8
WHITE
 10
182.909849
 20
31.544192
 30
0.000000
 11
181.455849
 21
27.470192
 31
0.000000
  6
CONTINUOUS
  0
LINE
  8
WHITE
 10
181.455849
 20
27.470192
 30
0.000000
 11
180.006475
 21
23.401246
 31
0.000000
  6
CONTINUOUS
  0
ARC
  8
WHITE
 10
169.273813
 20
-29.600698
 30
0.000000
 40
54.077686
 50
75.067080
 51
78.552644
  6
CONTINUOUS
  0
ARC
  8
WHITE
 10
183.103798
 20
21.091496
 30
0.000000
 40
1.562734
 50
-19.225500
 51
86.140594
  6
CONTINUOUS
  0
ARC
  8
WHITE
 10
176.961349
 20
24.881542
 30
0.000000
 40
8.750100
 50
-39.446517
 51
-29.469000
  6
CONTINUOUS
  0
ARC
  8
WHITE
 10
184.442849
 20
18.697792
 30
0.000000
 40
0.956475
 50
139.249000
 51
198.255868
  6
CONTINUOUS
  0
ARC
  8
WHITE
 10
184.499849
 20
18.713592
 30
0.000000
 40
1.015480
 50
-161.905000
 51
-75.286336
  6
CONTINUOUS
  0
ARC
  8
WHITE
 10
184.757849
 20
17.006842
 30
0.000000
 40
0.724585
 50
-1.237686
 51
90.006600
  6
CONTINUOUS
  0
ARC
  8
WHITE
 10
186.450349
 20
16.979042
 30
0.000000
 40
0.968170
 50
179.281000
 51
284.321866
  6
CONTINUOUS
  0
ARC
  8
WHITE
 10
186.689849
 20
15.316321
 30
0.000000
 40
0.724621
 50
0.005664
 51
90.000000
  6
CONTINUOUS
  0
ARC
  8
WHITE
 10
188.401849
 20
15.216342
 30
0.000000
 40
0.992435
 50
174.214000
 51
287.847107
  6
CONTINUOUS
  0
ARC
  8
WHITE
 10
188.705881
 20
13.547611
 30
0.000000
 40
0.724051
 50
-6.697364
 51
89.989790
  6
CONTINUOUS
  0
ARC
  8
WHITE
 10
190.052228
 20
14.151298
 30
0.000000
 40
0.931100
 50
-132.349513
 51
-10.080701
  6
CONTINUOUS
  0
ARC
  8
WHITE
 10
159.578565
 20
26.118908
 30
0.000000
 40
33.652750
 50
-21.128660
 51
-6.481813
  6
CONTINUOUS
  0
ARC
  8
WHITE
 10
192.175849
 20
22.709892
 30
0.000000
 40
0.926425
 50
-24.894000
 51
51.826532
  6
CONTINUOUS
  0
ARC
  8
WHITE
 10
194.480849
 20
25.396692
 30
0.000000
 40
2.614780
 50
162.115844
 51
228.505000
  6
CONTINUOUS
  0
ARC
  8
WHITE
 10
196.775849
 20
24.168642
 30
0.000000
 40
5.196700
 50
121.290153
 51
156.994000
  6
CONTINUOUS
  0
ARC
  8
WHITE
 10
193.562170
 20
29.858868
 30
0.000000
 40
1.351280
 50
-67.611764
 51
67.622877
  6
CONTINUOUS
  0
ARC
  8
WHITE
 10
193.945349
 20
34.242642
 30
0.000000
 40
3.136995
 50
-141.249134
 51
-87.602000
  6
CONTINUOUS
  0
ARC
  8
WHITE
 10
203.480055
 20
39.858711
 30
0.000000
 40
14.177363
 50
-160.470919
 51
-147.681432
  6
CONTINUOUS
  0
ARC
  8
WHITE
 10
183.977349
 20
33.306342
 30
0.000000
 40
6.403000
 50
16.449000
 51
64.777474
  6
CONTINUOUS
  0
ARC
  8
WHITE
 10
183.114849
 20
32.588942
 30
0.000000
 40
7.434750
 50
61.117800
 51
99.183722
  6
CONTINUOUS
  0
ARC
  8
WHITE
 10
182.976849
 20
30.026342
 30
0.000000
 40
9.957450
 50
96.044900
 51
129.944487
  6
CONTINUOUS
  0
ARC
  8
WHITE
 10
205.132849
 20
24.818892
 30
0.000000
 40
9.958950
 50
-78.073000
 51
-68.669000
  6
CONTINUOUS
  0
ARC
  8
WHITE
 10
205.105719
 20
24.807438
 30
0.000000
 40
9.958193
 50
-68.499625
 51
-44.008003
  6
CONTINUOUS
  0
ARC
  8
WHITE
 10
207.207179
 20
23.338734
 30
0.000000
 40
7.437300
 50
-47.119210
 51
-9.059540
  6
CONTINUOUS
  0
ARC
  8
WHITE
 10
208.304292
 20
23.584240
 30
0.000000
 40
6.406000
 50
-12.775688
 51
35.535737
  6
CONTINUOUS
  0
ARC
  8
WHITE
 10
225.466349
 20
34.930192
 30
0.000000
 40
14.173500
 50
-160.257017
 51
-147.465000
  6
CONTINUOUS
  0
ARC
  8
WHITE
 10
215.176849
 20
30.863842
 30
0.000000
 40
3.134920
 50
139.652985
 51
193.305000
  6
CONTINUOUS
  0
ARC
  8
WHITE
 10
211.482349
 20
33.254142
 30
0.000000
 40
1.354185
 50
-15.448000
 51
119.599148
  6
CONTINUOUS
  0
ARC
  8
WHITE
 10
208.969849
 20
39.293142
 30
0.000000
 40
5.199300
 50
-104.908355
 51
-69.232000
  6
CONTINUOUS
  0
ARC
  8
WHITE
 10
208.534362
 20
36.726826
 30
0.000000
 40
2.618262
 50
-176.530927
 51
-110.154898
  6
CONTINUOUS
  0
ARC
  8
WHITE
 10
204.995349
 20
36.565092
 30
0.000000
 40
0.925555
 50
0.204505
 51
76.795961
  6
CONTINUOUS
  0
ARC
  8
WHITE
 10
187.645849
 20
8.759012
 30
0.000000
 40
33.652450
 50
58.544800
 51
73.188687
  6
CONTINUOUS
  0
ARC
  8
WHITE
 10
196.941048
 20
40.147387
 30
0.000000
 40
0.934665
 50
62.071014
 51
184.094316
  6
CONTINUOUS
  0
ARC
  8
WHITE
 10
195.636441
 20
39.459511
 30
0.000000
 40
0.724186
 50
-37.872919
 51
59.060536
  6
CONTINUOUS
  0
ARC
  8
WHITE
 10
196.769849
 20
38.195792
 30
0.000000
 40
0.993250
 50
124.442000
 51
237.733225
  6
CONTINUOUS
  0
ARC
  8
WHITE
 10
195.793225
 20
36.783534
 30
0.000000
 40
0.725881
 50
-37.919834
 51
52.052305
  6
CONTINUOUS
  0
ARC
  8
WHITE
 10
196.953681
 20
35.572813
 30
0.000000
 40
0.964465
 50
127.552389
 51
232.816035
  6
CONTINUOUS
  0
ARC
  8
WHITE
 10
195.934849
 20
34.223042
 30
0.000000
 40
0.726665
 50
-38.020546
 51
53.136700
  6
CONTINUOUS
  0
ARC
  8
WHITE
 10
197.121849
 20
32.968292
 30
0.000000
 40
1.014410
 50
127.283000
 51
214.074748
  6
CONTINUOUS
  0
ARC
  8
WHITE
 10
197.074349
 20
32.935442
 30
0.000000
 40
0.956670
 50
-145.961000
 51
-87.171490
  6
CONTINUOUS
  0
ARC
  8
WHITE
 10
197.342849
 20
23.233392
 30
0.000000
 40
8.749350
 50
81.446114
 51
91.449300
  6
CONTINUOUS
  0
ARC
  8
WHITE
 10
198.140668
 20
30.410257
 30
0.000000
 40
1.558743
 50
-34.442537
 51
71.152360
  6
CONTINUOUS
  0
ARC
  8
WHITE
 10
149.640217
 20
50.635654
 30
0.000000
 40
54.075359
 50
-26.460232
 51
-22.974753
  6
CONTINUOUS
  0
LINE
  8
WHITE
 10
198.050849
 20
26.540942
 30
0.000000
 11
206.261849
 21
23.821442
 31
0.000000
  6
CONTINUOUS
  0
LINE
  8
WHITE
 10
206.261849
 20
23.821442
 30
0.000000
 11
205.931349
 21
22.823942
 31
0.000000
  6
CONTINUOUS
  0
LINE
  8
WHITE
 10
205.931349
 20
22.823942
 30
0.000000
 11
198.707349
 21
25.217942
 31
0.000000
  6
CONTINUOUS
  0
LINE
  8
WHITE
 10
198.707349
 20
25.217942
 30
0.000000
 11
197.515219
 21
25.611707
 31
0.000000
  6
CONTINUOUS
  0
ARC
  8
WHITE
 10
200.302883
 20
24.951137
 30
0.000000
 40
2.864860
 50
166.668975
 51
209.919946
  6
CONTINUOUS
  0
ARC
  8
WHITE
 10
199.452849
 20
24.215042
 30
0.000000
 40
1.773915
 50
-157.009000
 51
-79.253980
  6
CONTINUOUS
  0
ARC
  8
WHITE
 10
199.741349
 20
20.288842
 30
0.000000
 40
2.183720
 50
-45.786983
 51
88.890800
  6
CONTINUOUS
  0
ARC
  8
WHITE
 10
205.347849
 20
18.719072
 30
0.000000
 40
4.083745
 50
179.935515
 51
296.829870
  6
CONTINUOUS
  0
ARC
  8
WHITE
 10
48.096199
 20
112.462992
 30
0.000000
 40
6.209151
 50
93.936838
 51
139.193000
  6
CONTINUOUS
  0
ARC
  8
WHITE
 10
54.127299
 20
109.479492
 30
0.000000
 40
12.834780
 50
146.728443
 51
198.082000
  6
CONTINUOUS
  0
ARC
  8
WHITE
 10
46.610049
 20
106.209492
 30
0.000000
 40
4.737687
 50
-171.336763
 51
-51.572000
  6
CONTINUOUS
  0
ARC
  8
WHITE
 10
50.098689
 20
101.487343
 30
0.000000
 40
1.147780
 50
-34.406190
 51
118.291811
  6
CONTINUOUS
  0
ARC
  8
WHITE
 10
43.442799
 20
112.309492
 30
0.000000
 40
13.761569
 50
-70.566000
 51
-56.463298
  6
CONTINUOUS
  0
ARC
  8
WHITE
 10
45.443849
 20
103.720992
 30
0.000000
 40
5.090069
 50
-137.340000
 51
-59.574019
  6
CONTINUOUS
  0
ARC
  8
WHITE
 10
51.429408
 20
109.762189
 30
0.000000
 40
13.591050
 50
172.243708
 51
224.289714
  6
CONTINUOUS
  0
ARC
  8
WHITE
 10
48.164099
 20
112.416492
 30
0.000000
 40
10.234306
 50
123.225000
 51
184.595949
  6
CONTINUOUS
  0
ARC
  8
WHITE
 10
87.510849
 20
4.681047
 30
0.000000
 40
124.682978
 50
107.485000
 51
111.133987
  6
CONTINUOUS
  0
ARC
  8
WHITE
 10
49.675599
 20
124.337992
 30
0.000000
 40
0.824307
 50
-63.058210
 51
1.437380
  6
CONTINUOUS
  0
LINE
  8
WHITE
 10
50.499655
 20
124.358670
 30
0.000000
 11
50.142649
 21
125.776492
 31
0.000000
  6
CONTINUOUS
  0
ARC
  8
WHITE
 10
95.154849
 20
135.424492
 30
0.000000
 40
46.034575
 50
-170.762000
 51
-167.902166
  6
CONTINUOUS
  0
ARC
  8
WHITE
 10
50.732651
 20
127.610427
 30
0.000000
 40
1.100170
 50
104.755624
 51
157.338620
  6
CONTINUOUS
  0
ARC
  8
WHITE
 10
53.267037
 20
115.843393
 30
0.000000
 40
13.136000
 50
77.210759
 51
102.372460
  6
CONTINUOUS
  0
ARC
  8
WHITE
 10
55.467488
 20
127.507208
 30
0.000000
 40
1.347000
 50
15.902943
 51
58.320251
  6
CONTINUOUS
  0
ARC
  8
WHITE
 10
44.546449
 20
128.224992
 30
0.000000
 40
12.221460
 50
-13.979000
 51
-1.634946
  6
CONTINUOUS
  0
ARC
  8
WHITE
 10
57.292761
 20
124.752841
 30
0.000000
 40
1.027951
 50
149.620482
 51
260.306443
  6
CONTINUOUS
  0
ARC
  8
WHITE
 10
53.707709
 20
101.395319
 30
0.000000
 40
22.603250
 50
64.655763
 51
81.317999
  6
CONTINUOUS
  0
ARC
  8
WHITE
 10
60.915016
 20
115.786219
 30
0.000000
 40
6.521900
 50
31.328115
 51
67.762949
  6
CONTINUOUS
  0
ARC
  8
WHITE
 10
54.342043
 20
111.425208
 30
0.000000
 40
14.407300
 50
1.640532
 51
32.551693
  6
CONTINUOUS
  0
ARC
  8
WHITE
 10
55.707199
 20
109.562992
 30
0.000000
 40
13.233204
 50
-41.181000
 51
9.897830
  6
CONTINUOUS
  0
ARC
  8
WHITE
 10
61.509543
 20
104.057536
 30
0.000000
 40
5.251100
 50
-98.166626
 51
-37.653422
  6
CONTINUOUS
  0
ARC
  8
WHITE
 10
69.239349
 20
126.111492
 30
0.000000
 40
28.539429
 50
-117.018000
 51
-107.276510
  6
CONTINUOUS
  0
ARC
  8
WHITE
 10
56.752563
 20
101.624953
 30
0.000000
 40
1.052900
 50
86.875686
 51
243.010128
  6
CONTINUOUS
  0
ARC
  8
WHITE
 10
79.832349
 20
177.070992
 30
0.000000
 40
77.875561
 50
-107.195356
 51
-104.353000
  6
CONTINUOUS
  0
ARC
  8
WHITE
 10
60.856849
 20
105.547492
 30
0.000000
 40
3.935076
 50
-94.802768
 51
-20.696000
  6
CONTINUOUS
  0
ARC
  8
WHITE
 10
52.625949
 20
109.391492
 30
0.000000
 40
13.011463
 50
-23.722880
 51
15.948100
  6
CONTINUOUS
  0
ARC
  8
WHITE
 10
58.682867
 20
112.217842
 30
0.000000
 40
6.497124
 50
6.618000
 51
61.406670
  6
CONTINUOUS
  0
ARC
  8
WHITE
 10
55.090952
 20
100.671608
 30
0.000000
 40
18.506864
 50
68.770663
 51
94.140509
  6
CONTINUOUS
  0
LINE
  8
WHITE
 10
53.754708
 20
119.130168
 30
0.000000
 11
53.712649
 21
123.004492
 31
0.000000
  6
CONTINUOUS
  0
LINE
  8
WHITE
 10
53.712649
 20
123.004492
 30
0.000000
 11
52.662649
 21
122.988492
 31
0.000000
  6
CONTINUOUS
  0
LINE
  8
WHITE
 10
52.662649
 20
122.988492
 30
0.000000
 11
52.704649
 21
119.050992
 31
0.000000
  6
CONTINUOUS
  0
ARC
  8
WHITE
 10
51.251432
 20
105.238568
 30
0.000000
 40
13.888661
 50
83.993957
 51
104.943985
  6
CONTINUOUS
  0
ARC
  8
WHITE
 10
218.965937
 20
93.422938
 30
0.000000
 40
3.473272
 50
30.986603
 51
66.002056
  6
CONTINUOUS
  0
ARC
  8
WHITE
 10
220.956349
 20
97.957992
 30
0.000000
 40
1.478278
 50
132.149000
 51
247.012296
  6
CONTINUOUS
  0
ARC
  8
WHITE
 10
218.800082
 20
101.375609
 30
0.000000
 40
2.597135
 50
-63.367334
 51
-13.112670
  6
CONTINUOUS
  0
ARC
  8
WHITE
 10
219.847340
 20
100.872844
 30
0.000000
 40
1.484676
 50
-3.337667
 51
63.249179
  6
CONTINUOUS
  0
ARC
  8
WHITE
 10
221.565735
 20
103.628042
 30
0.000000
 40
1.773700
 50
85.410612
 51
233.697128
  6
CONTINUOUS
  0
ARC
  8
WHITE
 10
221.065819
 20
106.608212
 30
0.000000
 40
1.371598
 50
-62.098767
 51
-42.314427
  6
CONTINUOUS
  0
ARC
  8
WHITE
 10
244.970779
 20
94.361656
 30
0.000000
 40
25.538200
 50
145.692729
 51
153.680086
  6
CONTINUOUS
  0
ARC
  8
WHITE
 10
243.576044
 20
91.543513
 30
0.000000
 40
26.160500
 50
126.807902
 51
138.856399
  6
CONTINUOUS
  0
ARC
  8
WHITE
 10
226.725849
 20
113.841492
 30
0.000000
 40
1.792712
 50
-48.982022
 51
23.531300
  6
CONTINUOUS
  0
ARC
  8
WHITE
 10
225.382849
 20
110.519492
 30
0.000000
 40
5.022290
 50
53.510379
 51
73.047700
  6
CONTINUOUS
  0
ARC
  8
WHITE
 10
228.207108
 20
118.363179
 30
0.000000
 40
3.330045
 50
-140.442002
 51
-114.102830
  6
CONTINUOUS
  0
ARC
  8
WHITE
 10
228.002275
 20
117.602350
 30
0.000000
 40
2.726015
 50
152.598634
 51
209.925596
  6
CONTINUOUS
  0
LINE
  8
WHITE
 10
225.582107
 20
118.856919
 30
0.000000
 11
226.495349
 21
118.373992
 31
0.000000
  6
CONTINUOUS
  0
LINE
  8
WHITE
 10
226.495349
 20
118.373992
 30
0.000000
 11
229.981349
 21
116.530992
 31
0.000000
  6
CONTINUOUS
  0
LINE
  8
WHITE
 10
229.981349
 20
116.530992
 30
0.000000
 11
230.469849
 21
117.460492
 31
0.000000
  6
CONTINUOUS
  0
LINE
  8
WHITE
 10
230.469849
 20
117.460492
 30
0.000000
 11
227.046849
 21
119.271492
 31
0.000000
  6
CONTINUOUS
  0
LINE
  8
WHITE
 10
227.046849
 20
119.271492
 30
0.000000
 11
225.991349
 21
119.827992
 31
0.000000
  6
CONTINUOUS
  0
ARC
  8
WHITE
 10
228.390207
 20
119.009035
 30
0.000000
 40
2.534800
 50
73.129250
 51
161.150377
  6
CONTINUOUS
  0
ARC
  8
WHITE
 10
251.120396
 20
151.074103
 30
0.000000
 40
36.908700
 50
-126.578094
 51
-120.238892
  6
CONTINUOUS
  0
ARC
  8
WHITE
 10
234.880135
 20
123.965343
 30
0.000000
 40
5.323306
 50
-116.163183
 51
-93.568097
  6
CONTINUOUS
  0
ARC
  8
WHITE
 10
234.423849
 20
116.125992
 30
0.000000
 40
2.529454
 50
8.257430
 51
87.167612
  6
CONTINUOUS
  0
ARC
  8
WHITE
 10
233.683926
 20
115.813559
 30
0.000000
 40
3.312700
 50
-98.952597
 51
11.769393
  6
CONTINUOUS
  0
ARC
  8
WHITE
 10
232.564849
 20
111.527992
 30
0.000000
 40
1.179369
 50
59.218308
 51
143.699000
  6
CONTINUOUS
  0
ARC
  8
WHITE
 10
211.670849
 20
124.150492
 30
0.000000
 40
23.236476
 50
-46.140000
 51
-30.875309
  6
CONTINUOUS
  0
ARC
  8
WHITE
 10
228.884349
 20
106.004992
 30
0.000000
 40
1.781632
 50
128.660593
 51
169.820000
  6
CONTINUOUS
  0
ARC
  8
WHITE
 10
228.506349
 20
105.412492
 30
0.000000
 40
1.647892
 50
146.589475
 51
219.847000
  6
CONTINUOUS
  0
ARC
  8
WHITE
 10
227.691581
 20
107.595391
 30
0.000000
 40
3.269962
 50
-97.917710
 51
-76.236028
  6
CONTINUOUS
  0
ARC
  8
WHITE
 10
228.633349
 20
102.617992
 30
0.000000
 40
1.808766
 50
35.713300
 51
95.194809
  6
CONTINUOUS
  0
ARC
  8
WHITE
 10
227.624349
 20
101.111492
 30
0.000000
 40
3.564338
 50
3.043510
 51
45.962738
  6
CONTINUOUS
  0
LINE
  8
WHITE
 10
231.183737
 20
101.300742
 30
0.000000
 11
227.246349
 21
101.221992
 31
0.000000
  6
CONTINUOUS
  0
LINE
  8
WHITE
 10
227.246349
 20
101.221992
 30
0.000000
 11
227.267349
 21
100.171992
 31
0.000000
  6
CONTINUOUS
  0
LINE
  8
WHITE
 10
227.267349
 20
100.171992
 30
0.000000
 11
231.141849
 21
100.245492
 31
0.000000
  6
CONTINUOUS
  0
ARC
  8
WHITE
 10
227.917512
 20
100.150032
 30
0.000000
 40
3.225750
 50
-76.241977
 51
1.695811
  6
CONTINUOUS
  0
ARC
  8
WHITE
 10
228.333349
 20
95.373992
 30
0.000000
 40
1.679985
 50
77.929269
 51
169.933000
  6
CONTINUOUS
  0
ARC
  8
WHITE
 10
231.125349
 20
95.994492
 30
0.000000
 40
4.458209
 50
-175.795987
 51
-141.535000
  6
CONTINUOUS
  0
ARC
  8
WHITE
 10
215.349349
 20
81.051992
 30
0.000000
 40
17.292152
 50
26.564400
 51
44.728376
  6
CONTINUOUS
  0
ARC
  8
WHITE
 10
233.484205
 20
90.437726
 30
0.000000
 40
3.138593
 50
-148.226901
 51
-125.153390
  6
CONTINUOUS
  0
ARC
  8
WHITE
 10
233.127849
 20
84.789492
 30
0.000000
 40
3.406444
 50
35.423500
 51
115.206516
  6
CONTINUOUS
  0
ARC
  8
WHITE
 10
233.351722
 20
84.888073
 30
0.000000
 40
3.167175
 50
-77.843905
 51
36.317716
  6
CONTINUOUS
  0
ARC
  8
WHITE
 10
235.296349
 20
69.024492
 30
0.000000
 40
12.831195
 50
95.714834
 51
120.498000
  6
CONTINUOUS
  0
ARC
  8
WHITE
 10
227.245849
 20
82.101492
 30
0.000000
 40
2.540080
 50
-140.616000
 51
-52.719111
  6
CONTINUOUS
  0
ARC
  8
WHITE
 10
225.544877
 20
81.022298
 30
0.000000
 40
0.593675
 50
112.307730
 51
243.775674
  6
CONTINUOUS
  0
LINE
  8
WHITE
 10
225.319529
 20
81.571542
 30
0.000000
 11
229.067849
 21
82.778992
 31
0.000000
  6
CONTINUOUS
  0
LINE
  8
WHITE
 10
229.067849
 20
82.778992
 30
0.000000
 11
228.747849
 21
83.781492
 31
0.000000
  6
CONTINUOUS
  0
LINE
  8
WHITE
 10
228.747849
 20
83.781492
 30
0.000000
 11
225.062349
 21
82.589992
 31
0.000000
  6
CONTINUOUS
  0
ARC
  8
WHITE
 10
224.814404
 20
83.105150
 30
0.000000
 40
0.571720
 50
160.797681
 51
295.701519
  6
CONTINUOUS
  0
ARC
  8
WHITE
 10
226.483198
 20
83.464446
 30
0.000000
 40
2.215335
 50
107.043921
 51
184.433638
  6
CONTINUOUS
  0
ARC
  8
WHITE
 10
225.552349
 20
88.066492
 30
0.000000
 40
2.499910
 50
-83.533994
 51
-48.958000
  6
CONTINUOUS
  0
ARC
  8
WHITE
 10
226.285210
 20
87.251874
 30
0.000000
 40
1.404445
 50
-49.686489
 51
49.699485
  6
CONTINUOUS
  0
ARC
  8
WHITE
 10
216.392709
 20
79.300259
 30
0.000000
 40
14.073698
 50
39.874348
 51
54.509068
  6
CONTINUOUS
  0
ARC
  8
WHITE
 10
227.802287
 20
95.474100
 30
0.000000
 40
5.720150
 50
-174.197881
 51
-124.485722
  6
CONTINUOUS
  0
ARC
  8
WHITE
 10
218.965937
 20
93.422938
 30
0.000000
 40
3.473272
 50
25.091527
 51
30.986603
  6
CONTINUOUS
  0
ARC
  8
WHITE
 10
238.447349
 20
20.323792
 30
0.000000
 40
18.629550
 50
146.021000
 51
147.584000
  6
CONTINUOUS
  0
ARC
  8
WHITE
 10
238.453583
 20
20.332823
 30
0.000000
 40
18.629975
 50
147.617725
 51
166.448849
  6
CONTINUOUS
  0
ARC
  8
WHITE
 10
211.994349
 20
25.899092
 30
0.000000
 40
8.433850
 50
-25.071853
 51
-8.187000
  6
CONTINUOUS
  0
ARC
  8
WHITE
 10
221.026044
 20
20.447837
 30
0.000000
 40
2.337395
 50
126.564951
 51
179.409963
  6
CONTINUOUS
  0
ARC
  8
WHITE
 10
215.874953
 20
19.895444
 30
0.000000
 40
2.872263
 50
-22.367494
 51
11.577895
  6
CONTINUOUS
  0
ARC
  8
WHITE
 10
220.231533
 20
17.078274
 30
0.000000
 40
2.421590
 50
134.603125
 51
189.558059
  6
CONTINUOUS
  0
ARC
  8
WHITE
 10
215.066349
 20
16.056892
 30
0.000000
 40
2.845420
 50
-34.252151
 51
12.570600
  6
CONTINUOUS
  0
ARC
  8
WHITE
 10
218.489349
 20
13.825192
 30
0.000000
 40
1.242780
 50
149.528000
 51
265.384718
  6
CONTINUOUS
  0
LINE
  8
WHITE
 10
218.389349
 20
12.586442
 30
0.000000
 11
221.969849
 21
23.280692
 31
0.000000
  6
CONTINUOUS
  0
LINE
  8
WHITE
 10
221.969849
 20
23.280692
 30
0.000000
 11
222.395349
 21
23.060192
 31
0.000000
  6
CONTINUOUS
  0
LINE
  8
WHITE
 10
222.395349
 20
23.060192
 30
0.000000
 11
218.426319
 21
11.200651
 31
0.000000
  6
CONTINUOUS
  0
ARC
  8
WHITE
 10
184.847849
 20
15.078092
 30
0.000000
 40
33.801600
 50
-7.861205
 51
-6.587000
  6
CONTINUOUS
  0
ARC
  8
WHITE
 10
219.061349
 20
10.019307
 30
0.000000
 40
0.849745
 50
149.160000
 51
307.727269
  6
CONTINUOUS
  0
LINE
  8
WHITE
 10
219.581349
 20
9.347167
 30
0.000000
 11
224.017349
 21
22.671692
 31
0.000000
  6
CONTINUOUS
  0
LINE
  8
WHITE
 10
224.017349
 20
22.671692
 30
0.000000
 11
224.458349
 21
22.514192
 31
0.000000
  6
CONTINUOUS
  0
LINE
  8
WHITE
 10
224.458349
 20
22.514192
 30
0.000000
 11
219.444607
 21
7.457174
 31
0.000000
  6
CONTINUOUS
  0
ARC
  8
WHITE
 10
220.443349
 20
7.346682
 30
0.000000
 40
1.004835
 50
173.687000
 51
344.869726
  6
CONTINUOUS
  0
ARC
  8
WHITE
 10
224.259137
 20
6.554889
 30
0.000000
 40
2.894641
 50
132.290837
 51
169.459469
  6
CONTINUOUS
  0
LINE
  8
WHITE
 10
222.311349
 20
8.696167
 30
0.000000
 11
226.316849
 21
21.317192
 31
0.000000
  6
CONTINUOUS
  0
LINE
  8
WHITE
 10
226.316849
 20
21.317192
 30
0.000000
 11
226.757849
 21
21.159692
 31
0.000000
  6
CONTINUOUS
  0
LINE
  8
WHITE
 10
226.757849
 20
21.159692
 30
0.000000
 11
222.752098
 21
8.533421
 31
0.000000
  6
CONTINUOUS
  0
ARC
  8
WHITE
 10
222.342775
 20
8.169639
 30
0.000000
 40
0.547615
 50
-20.019088
 51
41.628751
  6
CONTINUOUS
  0
ARC
  8
WHITE
 10
223.501761
 20
7.770548
 30
0.000000
 40
0.678315
 50
161.821070
 51
349.886442
  6
CONTINUOUS
  0
ARC
  8
WHITE
 10
229.740214
 20
3.845830
 30
0.000000
 40
6.746487
 50
130.997423
 51
145.661083
  6
CONTINUOUS
  0
LINE
  8
WHITE
 10
225.314349
 20
8.937667
 30
0.000000
 11
228.401349
 21
19.873442
 31
0.000000
  6
CONTINUOUS
  0
LINE
  8
WHITE
 10
228.401349
 20
19.873442
 30
0.000000
 11
228.857849
 21
19.778942
 31
0.000000
  6
CONTINUOUS
  0
LINE
  8
WHITE
 10
228.857849
 20
19.778942
 30
0.000000
 11
225.718582
 21
8.664664
 31
0.000000
  6
CONTINUOUS
  0
ARC
  8
WHITE
 10
226.033225
 20
8.398566
 30
0.000000
 40
0.412079
 50
139.778351
 51
235.022611
  6
CONTINUOUS
  0
ARC
  8
WHITE
 10
226.545849
 20
8.911187
 30
0.000000
 40
1.133020
 50
-131.371000
 51
-34.733745
  6
CONTINUOUS
  0
ARC
  8
WHITE
 10
233.593849
 20
6.576532
 30
0.000000
 40
6.345850
 50
144.916391
 51
164.563000
  6
CONTINUOUS
  0
ARC
  8
WHITE
 10
224.930360
 20
13.393952
 30
0.000000
 40
4.700470
 50
-42.408240
 51
-18.077405
  6
CONTINUOUS
  0
ARC
  8
WHITE
 10
232.386535
 20
12.415466
 30
0.000000
 40
3.026053
 50
153.568521
 51
189.128430
  6
CONTINUOUS
  0
ARC
  8
WHITE
 10
223.188854
 20
17.292770
 30
0.000000
 40
7.386250
 50
-28.552193
 51
-12.998617
  6
CONTINUOUS
  0
ARC
  8
WHITE
 10
232.448849
 20
15.945242
 30
0.000000
 40
2.086750
 50
148.238830
 51
188.650000
  6
CONTINUOUS
  0
ARC
  8
WHITE
 10
227.530241
 20
19.345094
 30
0.000000
 40
3.896635
 50
-36.201296
 51
10.449828
  6
CONTINUOUS
  0
ARC
  8
WHITE
 10
167.695041
 20
33.436928
 30
0.000000
 40
65.059000
 50
-11.872682
 51
-5.921819
  6
CONTINUOUS
  0
ARC
  8
WHITE
 10
318.504296
 20
43.225207
 30
0.000000
 40
87.664331
 50
-170.784960
 51
-169.150862
  6
CONTINUOUS
  0
ARC
  8
WHITE
 10
102.086349
 20
49.312442
 30
0.000000
 40
131.435000
 50
-8.808000
 51
-6.259038
  6
CONTINUOUS
  0
ARC
  8
WHITE
 10
230.069349
 20
35.693992
 30
0.000000
 40
2.761565
 50
-14.921000
 51
79.125248
  6
CONTINUOUS
  0
LINE
  8
WHITE
 10
230.590349
 20
38.405942
 30
0.000000
 11
230.149349
 21
36.846692
 31
0.000000
  6
CONTINUOUS
  0
LINE
  8
WHITE
 10
230.149349
 20
36.846692
 30
0.000000
 11
229.073349
 21
33.056192
 31
0.000000
  6
CONTINUOUS
  0
LINE
  8
WHITE
 10
229.073349
 20
33.056192
 30
0.000000
 11
228.059849
 21
33.344942
 31
0.000000
  6
CONTINUOUS
  0
LINE
  8
WHITE
 10
228.059849
 20
33.344942
 30
0.000000
 11
229.120349
 21
37.072442
 31
0.000000
  6
CONTINUOUS
  0
LINE
  8
WHITE
 10
229.120349
 20
37.072442
 30
0.000000
 11
229.593016
 21
38.741903
 31
0.000000
  6
CONTINUOUS
  0
ARC
  8
WHITE
 10
228.807849
 20
36.050092
 30
0.000000
 40
2.803985
 50
73.738700
 51
169.680474
  6
CONTINUOUS
  0
ARC
  8
WHITE
 10
182.028349
 20
53.085592
 30
0.000000
 40
47.023200
 50
-26.568760
 51
-20.585000
  6
CONTINUOUS
  0
ARC
  8
WHITE
 10
225.245596
 20
29.989650
 30
0.000000
 40
2.367275
 50
119.332972
 51
161.631501
  6
CONTINUOUS
  0
ARC
  8
WHITE
 10
147.318849
 20
71.660492
 30
0.000000
 40
47.021050
 50
76.885100
 51
80.986000
  6
CONTINUOUS
  0
ARC
  8
WHITE
 10
154.623834
 20
120.903309
 30
0.000000
 40
2.803160
 50
175.356241
 51
271.268907
  6
CONTINUOUS
  0
LINE
  8
WHITE
 10
151.829876
 20
121.130253
 30
0.000000
 11
153.557349
 21
121.003992
 31
0.000000
  6
CONTINUOUS
  0
LINE
  8
WHITE
 10
153.557349
 20
121.003992
 30
0.000000
 11
157.421349
 21
120.720492
 31
0.000000
  6
CONTINUOUS
  0
LINE
  8
WHITE
 10
157.421349
 20
120.720492
 30
0.000000
 11
157.499849
 21
121.765492
 31
0.000000
  6
CONTINUOUS
  0
LINE
  8
WHITE
 10
157.499849
 20
121.765492
 30
0.000000
 11
153.572849
 21
122.053992
 31
0.000000
  6
CONTINUOUS
  0
LINE
  8
WHITE
 10
153.572849
 20
122.053992
 30
0.000000
 11
151.955849
 21
122.174992
 31
0.000000
  6
CONTINUOUS
  0
ARC
  8
WHITE
 10
154.716849
 20
122.210992
 30
0.000000
 40
2.761235
 50
86.719900
 51
180.747023
  6
CONTINUOUS
  0
ARC
  8
WHITE
 10
167.110849
 20
-5.891458
 30
0.000000
 40
131.429991
 50
92.792600
 51
95.341919
  6
CONTINUOUS
  0
ARC
  8
WHITE
 10
129.445676
 20
207.286408
 30
0.000000
 40
87.667307
 50
-69.108715
 51
-67.476424
  6
CONTINUOUS
  0
ARC
  8
WHITE
 10
169.434734
 20
61.572974
 30
0.000000
 40
65.049500
 50
89.696282
 51
95.652386
  6
CONTINUOUS
  0
ARC
  8
WHITE
 10
171.250349
 20
123.014992
 30
0.000000
 40
3.894942
 50
65.480200
 51
112.186154
  6
CONTINUOUS
  0
ARC
  8
WHITE
 10
173.585849
 20
128.516992
 30
0.000000
 40
2.086078
 50
-110.162479
 51
-69.832000
  6
CONTINUOUS
  0
ARC
  8
WHITE
 10
174.137338
 20
119.171799
 30
0.000000
 40
7.388850
 50
73.151106
 51
88.698978
  6
CONTINUOUS
  0
ARC
  8
WHITE
 10
177.055398
 20
129.168112
 30
0.000000
 40
3.025952
 50
-104.867490
 51
-69.259813
  6
CONTINUOUS
  0
ARC
  8
WHITE
 10
177.587426
 20
121.665245
 30
0.000000
 40
4.704055
 50
59.127891
 51
83.413677
  6
CONTINUOUS
  0
ARC
  8
WHITE
 10
182.522857
 20
131.519923
 30
0.000000
 40
6.340163
 50
-113.436313
 51
-93.809791
  6
CONTINUOUS
  0
ARC
  8
WHITE
 10
181.659849
 20
124.150992
 30
0.000000
 40
1.132484
 50
-29.843000
 51
67.041633
  6
CONTINUOUS
  0
ARC
  8
WHITE
 10
182.264349
 20
123.749992
 30
0.000000
 40
0.411364
 50
-118.234000
 51
-23.281001
  6
CONTINUOUS
  0
LINE
  8
WHITE
 10
182.069776
 20
123.387631
 30
0.000000
 11
170.551349
 21
124.227492
 31
0.000000
  6
CONTINUOUS
  0
LINE
  8
WHITE
 10
170.551349
 20
124.227492
 30
0.000000
 11
170.551349
 21
123.760492
 31
0.000000
  6
CONTINUOUS
  0
LINE
  8
WHITE
 10
170.551349
 20
123.760492
 30
0.000000
 11
181.880849
 21
122.935992
 31
0.000000
  6
CONTINUOUS
  0
ARC
  8
WHITE
 10
185.971990
 20
128.301147
 30
0.000000
 40
6.747023
 50
-127.326943
 51
-112.665127
  6
CONTINUOUS
  0
ARC
  8
WHITE
 10
183.385647
 20
121.395688
 30
0.000000
 40
0.679625
 50
-96.500575
 51
91.145362
  6
CONTINUOUS
  0
ARC
  8
WHITE
 10
183.233060
 20
120.179033
 30
0.000000
 40
0.546659
 50
82.046132
 51
143.343324
  6
CONTINUOUS
  0
LINE
  8
WHITE
 10
182.794515
 20
120.505398
 30
0.000000
 11
169.616849
 21
121.896492
 31
0.000000
  6
CONTINUOUS
  0
LINE
  8
WHITE
 10
169.616849
 20
121.896492
 30
0.000000
 11
169.553849
 21
121.429492
 31
0.000000
  6
CONTINUOUS
  0
LINE
  8
WHITE
 10
169.553849
 20
121.429492
 30
0.000000
 11
182.726349
 21
120.043492
 31
0.000000
  6
CONTINUOUS
  0
ARC
  8
WHITE
 10
184.433084
 20
122.379321
 30
0.000000
 40
2.892929
 50
-126.154727
 51
-88.971595
  6
CONTINUOUS
  0
ARC
  8
WHITE
 10
184.417854
 20
118.485587
 30
0.000000
 40
1.003520
 50
-84.652623
 51
86.163052
  6
CONTINUOUS
  0
LINE
  8
WHITE
 10
184.511376
 20
117.486434
 30
0.000000
 11
168.755849
 21
119.371492
 31
0.000000
  6
CONTINUOUS
  0
LINE
  8
WHITE
 10
168.755849
 20
119.371492
 30
0.000000
 11
168.687849
 21
118.903992
 31
0.000000
  6
CONTINUOUS
  0
LINE
  8
WHITE
 10
168.687849
 20
118.903992
 30
0.000000
 11
182.631849
 21
117.239992
 31
0.000000
  6
CONTINUOUS
  0
ARC
  8
WHITE
 10
182.079849
 20
116.592992
 30
0.000000
 40
0.850478
 50
-109.423000
 51
49.530235
  6
CONTINUOUS
  0
ARC
  8
WHITE
 10
184.034349
 20
82.065492
 30
0.000000
 40
33.799602
 50
93.795360
 51
95.063300
  6
CONTINUOUS
  0
LINE
  8
WHITE
 10
181.051313
 20
115.733299
 30
0.000000
 11
168.635349
 21
117.234492
 31
0.000000
  6
CONTINUOUS
  0
LINE
  8
WHITE
 10
168.635349
 20
117.234492
 30
0.000000
 11
168.503849
 21
116.777992
 31
0.000000
  6
CONTINUOUS
  0
LINE
  8
WHITE
 10
168.503849
 20
116.777992
 30
0.000000
 11
179.702349
 21
115.417992
 31
0.000000
  6
CONTINUOUS
  0
ARC
  8
WHITE
 10
178.468071
 20
115.270916
 30
0.000000
 40
1.243010
 50
-108.965815
 51
6.795308
  6
CONTINUOUS
  0
ARC
  8
WHITE
 10
176.969689
 20
111.469851
 30
0.000000
 40
2.844494
 50
67.372213
 51
114.244068
  6
CONTINUOUS
  0
ARC
  8
WHITE
 10
174.928695
 20
116.321261
 30
0.000000
 40
2.420680
 50
-123.835847
 51
-68.860966
  6
CONTINUOUS
  0
ARC
  8
WHITE
 10
173.050349
 20
111.485992
 30
0.000000
 40
2.873946
 50
79.363338
 51
113.237000
  6
CONTINUOUS
  0
ARC
  8
WHITE
 10
171.468849
 20
116.421492
 30
0.000000
 40
2.337993
 50
-131.780000
 51
-78.961585
  6
CONTINUOUS
  0
ARC
  8
WHITE
 10
167.935567
 20
106.477199
 30
0.000000
 40
8.435464
 50
76.455631
 51
93.345941
  6
CONTINUOUS
  0
ARC
  8
WHITE
 10
168.073800
 20
133.514807
 30
0.000000
 40
18.627200
 50
-112.329498
 51
-91.939937
  6
CONTINUOUS
  0
ARC
  8
WHITE
 10
161.270661
 20
118.635708
 30
0.000000
 40
2.367230
 50
-138.985071
 51
-96.645237
  6
CONTINUOUS
  0
ARC
  8
WHITE
 10
147.368224
 20
71.650326
 30
0.000000
 40
47.019775
 50
75.067282
 51
76.946507
  6
CONTINUOUS
  0
ARC
  8
WHITE
 10
22.086449
 20
18.606842
 30
0.000000
 40
9.747350
 50
122.478000
 51
220.824000
  6
CONTINUOUS
  0
ARC
  8
WHITE
 10
17.457699
 20
13.898442
 30
0.000000
 40
3.211821
 50
-148.800010
 51
-64.880000
  6
CONTINUOUS
  0
ARC
  8
WHITE
 10
18.899599
 20
9.742517
 30
0.000000
 40
1.250349
 50
-70.357000
 51
93.596641
  6
CONTINUOUS
  0
ARC
  8
WHITE
 10
17.452149
 20
16.186892
 30
0.000000
 40
7.847489
 50
175.541000
 51
283.769044
  6
CONTINUOUS
  0
ARC
  8
WHITE
 10
20.464749
 20
20.540792
 30
0.000000
 40
11.464787
 50
104.535000
 51
199.059340
  6
CONTINUOUS
  0
ARC
  8
WHITE
 10
25.669049
 20
13.574092
 30
0.000000
 40
19.789979
 50
105.012000
 51
114.102531
  6
CONTINUOUS
  0
ARC
  8
WHITE
 10
18.947549
 20
33.930142
 30
0.000000
 40
2.021603
 50
-37.887736
 51
19.971700
  6
CONTINUOUS
  0
ARC
  8
WHITE
 10
65.013849
 20
47.608842
 30
0.000000
 40
46.036347
 50
-166.474000
 51
-163.612700
  6
CONTINUOUS
  0
ARC
  8
WHITE
 10
21.296549
 20
36.487042
 30
0.000000
 40
1.100828
 50
108.781000
 51
161.213401
  6
CONTINUOUS
  0
ARC
  8
WHITE
 10
24.713249
 20
24.945042
 30
0.000000
 40
13.137017
 50
81.526900
 51
106.681887
  6
CONTINUOUS
  0
ARC
  8
WHITE
 10
26.035149
 20
36.735892
 30
0.000000
 40
1.350363
 50
20.506300
 51
62.965350
  6
CONTINUOUS
  0
ARC
  8
WHITE
 10
15.088499
 20
36.648492
 30
0.000000
 40
12.224273
 50
-9.723000
 51
2.627714
  6
CONTINUOUS
  0
ARC
  8
WHITE
 10
28.491699
 20
34.189992
 30
0.000000
 40
1.410683
 50
163.781434
 51
225.597000
  6
CONTINUOUS
  0
ARC
  8
WHITE
 10
23.468299
 20
9.037202
 30
0.000000
 40
24.480018
 50
71.936300
 51
80.509520
  6
CONTINUOUS
  0
ARC
  8
WHITE
 10
28.360849
 20
19.236792
 30
0.000000
 40
13.349397
 50
-42.192000
 51
78.339476
  6
CONTINUOUS
  0
ARC
  8
WHITE
 10
34.703549
 20
15.106542
 30
0.000000
 40
5.997340
 50
-112.938000
 51
-53.731909
  6
CONTINUOUS
  0
ARC
  8
WHITE
 10
32.366199
 20
10.649342
 30
0.000000
 40
1.065922
 50
64.316400
 51
269.998597
  6
CONTINUOUS
  0
ARC
  8
WHITE
 10
33.452249
 20
14.885592
 30
0.000000
 40
3.334576
 50
-100.786850
 51
-27.160000
  6
CONTINUOUS
  0
ARC
  8
WHITE
 10
29.169099
 20
19.101192
 30
0.000000
 40
9.245830
 50
-38.358429
 51
76.873000
  6
CONTINUOUS
  0
ARC
  8
WHITE
 10
24.450349
 20
-8.004208
 30
0.000000
 40
36.747784
 50
79.306758
 51
89.281500
  6
CONTINUOUS
  0
LINE
  8
WHITE
 10
24.911161
 20
28.740653
 30
0.000000
 11
24.653899
 21
32.604692
 31
0.000000
  6
CONTINUOUS
  0
LINE
  8
WHITE
 10
24.653899
 20
32.604692
 30
0.000000
 11
23.603899
 21
32.536442
 31
0.000000
  6
CONTINUOUS
  0
LINE
  8
WHITE
 10
23.603899
 20
32.536442
 30
0.000000
 11
23.866399
 21
28.604192
 31
0.000000
  6
CONTINUOUS
  0
ARC
  8
WHITE
 10
27.267249
 20
-4.119308
 30
0.000000
 40
32.899745
 50
95.933269
 51
106.452000
  6
CONTINUOUS
  0
ARC
  8
WHITE
 10
22.086449
 20
18.606842
 30
0.000000
 40
9.747920
 50
115.111303
 51
122.478000
  6
CONTINUOUS
  0
ARC
  8
WHITE
 10
114.015349
 20
51.515592
 30
0.000000
 40
6.095250
 50
101.689000
 51
116.731000
  6
CONTINUOUS
  0
ARC
  8
WHITE
 10
114.040726
 20
51.525835
 30
0.000000
 40
6.097578
 50
116.987263
 51
133.536926
  6
CONTINUOUS
  0
ARC
  8
WHITE
 10
116.738349
 20
49.297842
 30
0.000000
 40
9.580150
 50
136.055000
 51
178.167064
  6
CONTINUOUS
  0
ARC
  8
WHITE
 10
118.865299
 20
47.582654
 30
0.000000
 40
11.875500
 50
170.198587
 51
191.318518
  6
CONTINUOUS
  0
ARC
  8
WHITE
 10
111.572849
 20
45.850492
 30
0.000000
 40
4.393055
 50
-172.169000
 51
-63.218794
  6
CONTINUOUS
  0
ARC
  8
WHITE
 10
113.036849
 20
52.181792
 30
0.000000
 40
10.266100
 50
-87.122000
 51
-80.041706
  6
CONTINUOUS
  0
ARC
  8
WHITE
 10
114.907349
 20
41.080792
 30
0.000000
 40
0.994175
 50
-66.375957
 51
95.493600
  6
CONTINUOUS
  0
ARC
  8
WHITE
 10
110.307349
 20
48.653842
 30
0.000000
 40
9.846850
 50
-94.431068
 51
-59.495000
  6
CONTINUOUS
  0
ARC
  8
WHITE
 10
110.606349
 20
44.906092
 30
0.000000
 40
6.161500
 50
-165.234800
 51
-99.904000
  6
CONTINUOUS
  0
ARC
  8
WHITE
 10
119.883849
 20
49.214992
 30
0.000000
 40
16.330550
 50
160.601753
 51
201.101000
  6
CONTINUOUS
  0
ARC
  8
WHITE
 10
113.020606
 20
52.353675
 30
0.000000
 40
8.840739
 50
97.284187
 51
165.019635
  6
CONTINUOUS
  0
ARC
  8
WHITE
 10
79.661849
 20
197.796992
 30
0.000000
 40
140.424500
 50
-76.728000
 51
-75.634463
  6
CONTINUOUS
  0
ARC
  8
WHITE
 10
114.598027
 20
63.092980
 30
0.000000
 40
1.333205
 50
-94.122644
 51
18.549628
  6
CONTINUOUS
  0
ARC
  8
WHITE
 10
160.897849
 20
73.063492
 30
0.000000
 40
46.036550
 50
-170.889439
 51
-168.032000
  6
CONTINUOUS
  0
ARC
  8
WHITE
 10
116.455849
 20
65.343992
 30
0.000000
 40
1.101195
 50
104.652039
 51
157.011000
  6
CONTINUOUS
  0
ARC
  8
WHITE
 10
118.956349
 20
53.573142
 30
0.000000
 40
13.133600
 50
77.048735
 51
102.216000
  6
CONTINUOUS
  0
ARC
  8
WHITE
 10
121.200730
 20
65.224406
 30
0.000000
 40
1.344399
 50
16.041566
 51
58.663907
  6
CONTINUOUS
  0
ARC
  8
WHITE
 10
110.275859
 20
65.990055
 30
0.000000
 40
12.223278
 50
-14.200761
 51
-1.847849
  6
CONTINUOUS
  0
ARC
  8
WHITE
 10
123.075941
 20
62.466659
 30
0.000000
 40
1.085590
 50
151.092034
 51
262.476006
  6
CONTINUOUS
  0
ARC
  8
WHITE
 10
119.207349
 20
45.340692
 30
0.000000
 40
16.476650
 50
53.477380
 51
76.928600
  6
CONTINUOUS
  0
ARC
  8
WHITE
 10
121.096277
 20
49.902550
 30
0.000000
 40
11.747563
 50
-8.321090
 51
47.629360
  6
CONTINUOUS
  0
ARC
  8
WHITE
 10
120.373167
 20
47.648680
 30
0.000000
 40
12.359413
 50
-35.993159
 51
2.567968
  6
CONTINUOUS
  0
ARC
  8
WHITE
 10
125.545349
 20
43.424392
 30
0.000000
 40
5.704650
 50
-127.163254
 51
-32.192000
  6
CONTINUOUS
  0
ARC
  8
WHITE
 10
164.158909
 20
112.938346
 30
0.000000
 40
85.169892
 50
-121.082414
 51
-119.592795
  6
CONTINUOUS
  0
ARC
  8
WHITE
 10
120.961349
 20
40.675892
 30
0.000000
 40
1.029120
 50
67.900949
 51
221.300000
  6
CONTINUOUS
  0
ARC
  8
WHITE
 10
126.008849
 20
51.463092
 30
0.000000
 40
10.882100
 50
-115.357000
 51
-92.924003
  6
CONTINUOUS
  0
ARC
  8
WHITE
 10
123.444045
 20
46.192963
 30
0.000000
 40
5.947600
 50
-70.251002
 51
-0.518082
  6
CONTINUOUS
  0
ARC
  8
WHITE
 10
114.481349
 20
47.661842
 30
0.000000
 40
14.987600
 50
-5.831000
 51
21.342260
  6
CONTINUOUS
  0
ARC
  8
WHITE
 10
123.065349
 20
51.199992
 30
0.000000
 40
5.707200
 50
19.620600
 51
76.271066
  6
CONTINUOUS
  0
ARC
  8
WHITE
 10
110.118349
 20
-2.969058
 30
0.000000
 40
61.402000
 50
76.531200
 51
81.627156
  6
CONTINUOUS
  0
LINE
  8
WHITE
 10
119.059349
 20
57.778492
 30
0.000000
 11
119.096349
 21
61.243492
 31
0.000000
  6
CONTINUOUS
  0
LINE
  8
WHITE
 10
119.096349
 20
61.243492
 30
0.000000
 11
118.046349
 21
61.253992
 31
0.000000
  6
CONTINUOUS
  0
LINE
  8
WHITE
 10
118.046349
 20
61.253992
 30
0.000000
 11
118.014592
 21
57.956903
 31
0.000000
  6
CONTINUOUS
  0
ARC
  8
WHITE
 10
117.898849
 20
30.011142
 30
0.000000
 40
27.946000
 50
89.762700
 51
100.553460
  6
CONTINUOUS
  0
ARC
  8
WHITE
 10
108.411148
 20
114.099141
 30
0.000000
 40
6.093193
 50
102.476039
 51
121.522707
  6
CONTINUOUS
  0
ARC
  8
WHITE
 10
108.411148
 20
114.099141
 30
0.000000
 40
6.092350
 50
121.522707
 51
134.109349
  6
CONTINUOUS
  0
ARC
  8
WHITE
 10
111.141555
 20
111.898180
 30
0.000000
 40
9.582700
 50
136.672433
 51
178.760048
  6
CONTINUOUS
  0
ARC
  8
WHITE
 10
113.284349
 20
110.210992
 30
0.000000
 40
11.875350
 50
170.820000
 51
191.943861
  6
CONTINUOUS
  0
ARC
  8
WHITE
 10
106.012409
 20
108.399090
 30
0.000000
 40
4.394015
 50
-171.549298
 51
-62.601747
  6
CONTINUOUS
  0
ARC
  8
WHITE
 10
107.383343
 20
114.740833
 30
0.000000
 40
10.263550
 50
-86.362980
 51
-79.297655
  6
CONTINUOUS
  0
ARC
  8
WHITE
 10
109.394512
 20
103.666841
 30
0.000000
 40
0.994550
 50
-65.722640
 51
96.069477
  6
CONTINUOUS
  0
ARC
  8
WHITE
 10
104.712440
 20
111.191953
 30
0.000000
 40
9.849461
 50
-93.796220
 51
-58.876826
  6
CONTINUOUS
  0
ARC
  8
WHITE
 10
105.053805
 20
107.442651
 30
0.000000
 40
6.159200
 50
-164.634675
 51
-99.282361
  6
CONTINUOUS
  0
ARC
  8
WHITE
 10
114.287429
 20
111.851226
 30
0.000000
 40
16.330910
 50
161.219196
 51
201.708658
  6
CONTINUOUS
  0
ARC
  8
WHITE
 10
107.390849
 20
114.921492
 30
0.000000
 40
8.839750
 50
97.928093
 51
165.673000
  6
CONTINUOUS
  0
ARC
  8
WHITE
 10
72.631990
 20
260.039068
 30
0.000000
 40
140.426500
 50
-76.181858
 51
-75.085567
  6
CONTINUOUS
  0
ARC
  8
WHITE
 10
108.852752
 20
125.670469
 30
0.000000
 40
1.329420
 50
-93.377396
 51
19.188973
  6
CONTINUOUS
  0
ARC
  8
WHITE
 10
155.053739
 20
136.066039
 30
0.000000
 40
46.035482
 50
-170.369290
 51
-167.506747
  6
CONTINUOUS
  0
ARC
  8
WHITE
 10
110.683740
 20
127.942598
 30
0.000000
 40
1.100720
 50
105.107353
 51
157.465859
  6
CONTINUOUS
  0
ARC
  8
WHITE
 10
113.316381
 20
116.200595
 30
0.000000
 40
13.133296
 50
77.675470
 51
102.844110
  6
CONTINUOUS
  0
ARC
  8
WHITE
 10
115.426685
 20
127.876545
 30
0.000000
 40
1.346666
 50
16.532712
 51
59.029916
  6
CONTINUOUS
  0
ARC
  8
WHITE
 10
104.495849
 20
128.512992
 30
0.000000
 40
12.224450
 50
-13.516185
 51
-1.187000
  6
CONTINUOUS
  0
ARC
  8
WHITE
 10
117.336121
 20
125.137571
 30
0.000000
 40
1.085970
 50
151.492731
 51
263.126126
  6
CONTINUOUS
  0
ARC
  8
WHITE
 10
113.643244
 20
107.972344
 30
0.000000
 40
16.476890
 50
54.068851
 51
77.511926
  6
CONTINUOUS
  0
ARC
  8
WHITE
 10
115.489384
 20
112.552751
 30
0.000000
 40
11.745433
 50
-7.712635
 51
48.239286
  6
CONTINUOUS
  0
ARC
  8
WHITE
 10
114.790349
 20
110.280992
 30
0.000000
 40
12.357800
 50
-35.339448
 51
3.226170
  6
CONTINUOUS
  0
ARC
  8
WHITE
 10
120.013602
 20
106.119804
 30
0.000000
 40
5.702236
 50
-126.617342
 51
-31.586722
  6
CONTINUOUS
  0
ARC
  8
WHITE
 10
157.876966
 20
176.048159
 30
0.000000
 40
85.169162
 50
-120.467861
 51
-118.979800
  6
CONTINUOUS
  0
ARC
  8
WHITE
 10
115.457349
 20
103.326492
 30
0.000000
 40
1.028685
 50
68.396290
 51
221.886000
  6
CONTINUOUS
  0
ARC
  8
WHITE
 10
120.396979
 20
114.163702
 30
0.000000
 40
10.882550
 50
-114.777651
 51
-92.371641
  6
CONTINUOUS
  0
ARC
  8
WHITE
 10
117.879104
 20
108.867087
 30
0.000000
 40
5.947550
 50
-69.657619
 51
0.093657
  6
CONTINUOUS
  0
ARC
  8
WHITE
 10
108.900768
 20
110.241102
 30
0.000000
 40
14.988100
 50
-5.222582
 51
21.948383
  6
CONTINUOUS
  0
ARC
  8
WHITE
 10
117.444638
 20
113.867565
 30
0.000000
 40
5.710550
 50
20.240777
 51
76.894303
  6
CONTINUOUS
  0
ARC
  8
WHITE
 10
105.078270
 20
59.569983
 30
0.000000
 40
61.398500
 50
77.144032
 51
82.234993
  6
CONTINUOUS
  0
LINE
  8
WHITE
 10
113.373849
 20
120.405492
 30
0.000000
 11
113.373849
 21
123.870492
 31
0.000000
  6
CONTINUOUS
  0
LINE
  8
WHITE
 10
113.373849
 20
123.870492
 30
0.000000
 11
112.323849
 21
123.870492
 31
0.000000
  6
CONTINUOUS
  0
LINE
  8
WHITE
 10
112.323849
 20
123.870492
 30
0.000000
 11
112.323442
 21
120.573506
 31
0.000000
  6
CONTINUOUS
  0
ARC
  8
WHITE
 10
112.489038
 20
92.627996
 30
0.000000
 40
27.946000
 50
90.339513
 51
101.129236
  6
CONTINUOUS
  0
ARC
  8
WHITE
 10
15.243919
 20
112.948947
 30
0.000000
 40
5.545272
 50
97.869779
 51
178.027412
  6
CONTINUOUS
  0
ARC
  8
WHITE
 10
19.661199
 20
110.109492
 30
0.000000
 40
10.410085
 50
163.076440
 51
202.189000
  6
CONTINUOUS
  0
ARC
  8
WHITE
 10
14.174599
 20
107.543492
 30
0.000000
 40
4.371213
 50
-161.797383
 51
-96.617000
  6
CONTINUOUS
  0
ARC
  8
WHITE
 10
13.413499
 20
102.271492
 30
0.000000
 40
0.964963
 50
-95.923000
 51
74.528813
  6
CONTINUOUS
  0
ARC
  8
WHITE
 10
12.623049
 20
107.216492
 30
0.000000
 40
5.945186
 50
-161.264000
 51
-83.326834
  6
CONTINUOUS
  0
ARC
  8
WHITE
 10
18.936729
 20
111.096145
 30
0.000000
 40
13.272950
 50
152.376746
 51
205.859942
  6
CONTINUOUS
  0
ARC
  8
WHITE
 10
17.332405
 20
111.151542
 30
0.000000
 40
11.846200
 50
103.648023
 51
149.014457
  6
CONTINUOUS
  0
ARC
  8
WHITE
 10
20.807472
 20
103.888208
 30
0.000000
 40
19.794400
 50
99.362234
 51
108.467656
  6
CONTINUOUS
  0
ARC
  8
WHITE
 10
16.117503
 20
124.810891
 30
0.000000
 40
2.024388
 50
-43.439793
 51
14.095120
  6
CONTINUOUS
  0
ARC
  8
WHITE
 10
63.326763
 20
133.795964
 30
0.000000
 40
46.035850
 50
-172.229805
 51
-169.369975
  6
CONTINUOUS
  0
ARC
  8
WHITE
 10
18.717699
 20
127.121492
 30
0.000000
 40
1.100495
 50
103.599000
 51
155.840087
  6
CONTINUOUS
  0
ARC
  8
WHITE
 10
20.956219
 20
115.297386
 30
0.000000
 40
13.133450
 50
75.784291
 51
100.961405
  6
CONTINUOUS
  0
ARC
  8
WHITE
 10
23.453252
 20
126.897792
 30
0.000000
 40
1.345040
 50
14.798321
 51
57.221734
  6
CONTINUOUS
  0
ARC
  8
WHITE
 10
12.547449
 20
127.886992
 30
0.000000
 40
12.223293
 50
-15.368000
 51
-3.027862
  6
CONTINUOUS
  0
ARC
  8
WHITE
 10
25.640849
 20
124.122992
 30
0.000000
 40
1.408505
 50
158.132667
 51
220.177000
  6
CONTINUOUS
  0
ARC
  8
WHITE
 10
18.146549
 20
99.588492
 30
0.000000
 40
24.482051
 50
66.244800
 51
74.801950
  6
CONTINUOUS
  0
ARC
  8
WHITE
 10
24.965795
 20
111.630689
 30
0.000000
 40
10.803100
 50
15.427221
 51
73.640190
  6
CONTINUOUS
  0
ARC
  8
WHITE
 10
23.084319
 20
110.663371
 30
0.000000
 40
12.881350
 50
-33.586353
 51
17.348945
  6
CONTINUOUS
  0
ARC
  8
WHITE
 10
28.924799
 20
105.706992
 30
0.000000
 40
5.349991
 50
-107.622000
 51
-23.923335
  6
CONTINUOUS
  0
ARC
  8
WHITE
 10
27.464490
 20
101.639733
 30
0.000000
 40
1.043920
 50
83.169340
 51
261.220927
  6
CONTINUOUS
  0
ARC
  8
WHITE
 10
27.887699
 20
106.241526
 30
0.000000
 40
3.577802
 50
-94.794650
 51
-20.084305
  6
CONTINUOUS
  0
ARC
  8
WHITE
 10
17.015249
 20
110.200992
 30
0.000000
 40
15.148778
 50
-20.027795
 51
13.136000
  6
CONTINUOUS
  0
ARC
  8
WHITE
 10
26.176549
 20
112.267992
 30
0.000000
 40
5.757882
 50
13.823750
 51
73.582300
  6
CONTINUOUS
  0
ARC
  8
WHITE
 10
17.451666
 20
82.532178
 30
0.000000
 40
36.747286
 50
73.637377
 51
83.611287
  6
CONTINUOUS
  0
LINE
  8
WHITE
 10
21.540653
 20
119.051258
 30
0.000000
 11
21.666649
 21
122.925492
 31
0.000000
  6
CONTINUOUS
  0
LINE
  8
WHITE
 10
21.666649
 20
122.925492
 30
0.000000
 11
20.616649
 21
122.956992
 31
0.000000
  6
CONTINUOUS
  0
LINE
  8
WHITE
 10
20.616649
 20
122.956992
 30
0.000000
 11
20.490649
 21
119.019492
 31
0.000000
  6
CONTINUOUS
  0
ARC
  8
WHITE
 10
20.622999
 20
86.123492
 30
0.000000
 40
32.896266
 50
90.230516
 51
100.754263
  6
CONTINUOUS
  0
ARC
  8
WHITE
 10
82.073499
 20
107.821245
 30
0.000000
 40
10.201979
 50
84.420882
 51
106.199027
  6
CONTINUOUS
  0
ARC
  8
WHITE
 10
82.073499
 20
107.821245
 30
0.000000
 40
10.201650
 50
106.199027
 51
123.517630
  6
CONTINUOUS
  0
ARC
  8
WHITE
 10
81.322849
 20
110.557492
 30
0.000000
 40
7.557900
 50
130.243000
 51
199.736357
  6
CONTINUOUS
  0
ARC
  8
WHITE
 10
83.169454
 20
110.852662
 30
0.000000
 40
9.402150
 50
-162.371112
 51
-139.697698
  6
CONTINUOUS
  0
ARC
  8
WHITE
 10
77.610237
 20
106.404103
 30
0.000000
 40
2.294050
 50
-134.617058
 51
-69.754792
  6
CONTINUOUS
  0
ARC
  8
WHITE
 10
55.424536
 20
184.686632
 30
0.000000
 40
83.653000
 50
-74.055827
 51
-71.988253
  6
CONTINUOUS
  0
ARC
  8
WHITE
 10
81.725526
 20
104.233496
 30
0.000000
 40
0.999123
 50
-74.704975
 51
115.776477
  6
CONTINUOUS
  0
ARC
  8
WHITE
 10
75.631349
 20
112.997992
 30
0.000000
 40
11.621500
 50
-76.013415
 51
-56.834000
  6
CONTINUOUS
  0
ARC
  8
WHITE
 10
77.310849
 20
105.842492
 30
0.000000
 40
4.273305
 50
-131.450955
 51
-74.676000
  6
CONTINUOUS
  0
ARC
  8
WHITE
 10
83.879436
 20
111.612248
 30
0.000000
 40
12.993189
 50
161.142722
 51
223.675549
  6
CONTINUOUS
  0
ARC
  8
WHITE
 10
80.011063
 20
112.988459
 30
0.000000
 40
8.887790
 50
96.588260
 51
161.478213
  6
CONTINUOUS
  0
ARC
  8
WHITE
 10
60.715839
 20
168.977276
 30
0.000000
 40
50.577000
 50
-68.817483
 51
-67.058830
  6
CONTINUOUS
  0
ARC
  8
WHITE
 10
80.067665
 20
123.140902
 30
0.000000
 40
0.824200
 50
-63.917738
 51
0.353855
  6
CONTINUOUS
  0
LINE
  8
WHITE
 10
80.891849
 20
123.145992
 30
0.000000
 11
80.550800
 21
124.574332
 31
0.000000
  6
CONTINUOUS
  0
ARC
  8
WHITE
 10
125.717494
 20
133.499839
 30
0.000000
 40
46.040145
 50
-171.678789
 51
-168.821656
  6
CONTINUOUS
  0
ARC
  8
WHITE
 10
81.174613
 20
126.395058
 30
0.000000
 40
1.104725
 50
103.993069
 51
156.430591
  6
CONTINUOUS
  0
ARC
  8
WHITE
 10
83.521849
 20
114.593992
 30
0.000000
 40
13.135800
 50
76.313027
 51
101.480000
  6
CONTINUOUS
  0
ARC
  8
WHITE
 10
85.906917
 20
126.220737
 30
0.000000
 40
1.346679
 50
14.990796
 51
57.523786
  6
CONTINUOUS
  0
ARC
  8
WHITE
 10
74.996219
 20
127.097891
 30
0.000000
 40
12.222991
 50
-14.798576
 51
-2.479625
  6
CONTINUOUS
  0
ARC
  8
WHITE
 10
87.691349
 20
123.438492
 30
0.000000
 40
1.029040
 50
148.519000
 51
259.368693
  6
CONTINUOUS
  0
ARC
  8
WHITE
 10
84.110709
 20
106.750234
 30
0.000000
 40
16.039426
 50
54.366205
 51
77.795353
  6
CONTINUOUS
  0
ARC
  8
WHITE
 10
87.759812
 20
112.886833
 30
0.000000
 40
8.946662
 50
6.303845
 51
50.460727
  6
CONTINUOUS
  0
ARC
  8
WHITE
 10
87.564771
 20
111.178340
 30
0.000000
 40
9.477618
 50
-27.172438
 51
16.494047
  6
CONTINUOUS
  0
ARC
  8
WHITE
 10
88.262349
 20
109.122492
 30
0.000000
 40
8.060950
 50
-60.839991
 51
-16.373000
  6
CONTINUOUS
  0
ARC
  8
WHITE
 10
90.294849
 20
106.645492
 30
0.000000
 40
4.940220
 50
-115.966256
 51
-67.442000
  6
CONTINUOUS
  0
ARC
  8
WHITE
 10
110.881285
 20
149.875668
 30
0.000000
 40
52.821713
 50
-118.159804
 51
-115.511004
  6
CONTINUOUS
  0
ARC
  8
WHITE
 10
86.439669
 20
104.229853
 30
0.000000
 40
1.044008
 50
71.145253
 51
242.215573
  6
CONTINUOUS
  0
ARC
  8
WHITE
 10
118.116957
 20
206.867764
 30
0.000000
 40
106.371500
 50
-107.135161
 51
-105.546557
  6
CONTINUOUS
  0
ARC
  8
WHITE
 10
90.208152
 20
107.146035
 30
0.000000
 40
2.822685
 50
-102.293906
 51
-15.349179
  6
CONTINUOUS
  0
ARC
  8
WHITE
 10
83.700849
 20
111.066992
 30
0.000000
 40
10.342700
 50
-26.830000
 51
0.488251
  6
CONTINUOUS
  0
ARC
  8
WHITE
 10
86.797361
 20
110.651823
 30
0.000000
 40
7.263200
 50
3.973502
 51
77.723902
  6
CONTINUOUS
  0
ARC
  8
WHITE
 10
84.953410
 20
97.778236
 30
0.000000
 40
20.256100
 50
80.370772
 51
92.371190
  6
CONTINUOUS
  0
LINE
  8
WHITE
 10
84.115349
 20
118.016992
 30
0.000000
 11
84.209849
 21
121.891492
 31
0.000000
  6
CONTINUOUS
  0
LINE
  8
WHITE
 10
84.209849
 20
121.891492
 30
0.000000
 11
83.159849
 21
121.912492
 31
0.000000
  6
CONTINUOUS
  0
LINE
  8
WHITE
 10
83.159849
 20
121.912492
 30
0.000000
 11
83.065337
 21
117.974896
 31
0.000000
  6
CONTINUOUS
  0
ARC
  8
WHITE
 10
36.941699
 20
50.743342
 30
0.000000
 40
32.897450
 50
87.672600
 51
96.409600
  6
CONTINUOUS
  0
ARC
  8
WHITE
 10
36.987999
 20
50.749092
 30
0.000000
 40
32.896938
 50
96.490854
 51
98.270430
  6
CONTINUOUS
  0
ARC
  8
WHITE
 10
34.537549
 20
76.040992
 30
0.000000
 40
7.612850
 50
107.440000
 51
163.393000
  6
CONTINUOUS
  0
ARC
  8
WHITE
 10
31.562776
 20
75.938353
 30
0.000000
 40
4.884535
 50
152.195152
 51
248.567502
  6
CONTINUOUS
  0
ARC
  8
WHITE
 10
29.153364
 20
70.400973
 30
0.000000
 40
1.171076
 50
-85.379996
 51
57.768781
  6
CONTINUOUS
  0
ARC
  8
WHITE
 10
32.270999
 20
77.546492
 30
0.000000
 40
8.845500
 50
146.430687
 51
250.014000
  6
CONTINUOUS
  0
ARC
  8
WHITE
 10
34.778179
 20
75.892086
 30
0.000000
 40
11.849398
 50
101.098303
 51
146.468661
  6
CONTINUOUS
  0
ARC
  8
WHITE
 10
37.896940
 20
68.477767
 30
0.000000
 40
19.792896
 50
96.740170
 51
105.831506
  6
CONTINUOUS
  0
ARC
  8
WHITE
 10
34.172804
 20
89.590401
 30
0.000000
 40
2.021035
 50
-46.111259
 51
11.775680
  6
CONTINUOUS
  0
ARC
  8
WHITE
 10
81.723063
 20
96.510679
 30
0.000000
 40
46.034084
 50
-174.728388
 51
-171.872888
  6
CONTINUOUS
  0
ARC
  8
WHITE
 10
36.867417
 20
91.789044
 30
0.000000
 40
1.099971
 50
100.833690
 51
153.421622
  6
CONTINUOUS
  0
ARC
  8
WHITE
 10
38.585249
 20
79.875342
 30
0.000000
 40
13.135822
 50
73.266117
 51
98.424960
  6
CONTINUOUS
  0
ARC
  8
WHITE
 10
41.584599
 20
91.358492
 30
0.000000
 40
1.347175
 50
11.879749
 51
54.474000
  6
CONTINUOUS
  0
ARC
  8
WHITE
 10
30.738349
 20
92.825992
 30
0.000000
 40
12.222650
 50
-17.929307
 51
-5.588000
  6
CONTINUOUS
  0
ARC
  8
WHITE
 10
43.653789
 20
88.484359
 30
0.000000
 40
1.410630
 50
155.768040
 51
217.552587
  6
CONTINUOUS
  0
ARC
  8
WHITE
 10
35.085899
 20
64.303992
 30
0.000000
 40
24.481550
 50
63.715746
 51
72.284400
  6
CONTINUOUS
  0
ARC
  8
WHITE
 10
42.425199
 20
76.042992
 30
0.000000
 40
10.795000
 50
12.814354
 51
71.071900
  6
CONTINUOUS
  0
ARC
  8
WHITE
 10
44.824020
 20
76.473011
 30
0.000000
 40
8.361379
 50
-81.184595
 51
13.586869
  6
CONTINUOUS
  0
ARC
  8
WHITE
 10
46.215399
 20
69.267492
 30
0.000000
 40
1.062795
 50
112.035653
 51
264.060000
  6
CONTINUOUS
  0
ARC
  8
WHITE
 10
44.063349
 20
75.628992
 30
0.000000
 40
5.655100
 50
-71.938000
 51
21.965728
  6
CONTINUOUS
  0
ARC
  8
WHITE
 10
43.663749
 20
76.615992
 30
0.000000
 40
5.755800
 50
11.304600
 51
71.047068
  6
CONTINUOUS
  0
ARC
  8
WHITE
 10
33.621849
 20
47.293942
 30
0.000000
 40
36.749650
 50
71.087700
 51
81.068058
  6
CONTINUOUS
  0
LINE
  8
WHITE
 10
39.327649
 20
83.597992
 30
0.000000
 11
39.626899
 21
87.461992
 31
0.000000
  6
CONTINUOUS
  0
LINE
  8
WHITE
 10
39.626899
 20
87.461992
 30
0.000000
 11
38.582149
 21
87.540492
 31
0.000000
  6
CONTINUOUS
  0
LINE
  8
WHITE
 10
38.582149
 20
87.540492
 30
0.000000
 11
38.277652
 21
83.613655
 31
0.000000
  6
CONTINUOUS
  0
ARC
  8
WHITE
 10
136.243849
 20
115.334992
 30
0.000000
 40
4.340505
 50
102.590000
 51
134.183000
  6
CONTINUOUS
  0
ARC
  8
WHITE
 10
136.237849
 20
115.329492
 30
0.000000
 40
4.340275
 50
134.075598
 51
159.843309
  6
CONTINUOUS
  0
ARC
  8
WHITE
 10
139.933430
 20
114.898817
 30
0.000000
 40
8.005250
 50
166.076395
 51
211.076588
  6
CONTINUOUS
  0
ARC
  8
WHITE
 10
136.104786
 20
111.660206
 30
0.000000
 40
3.156785
 50
-163.556948
 51
-75.130906
  6
CONTINUOUS
  0
ARC
  8
WHITE
 10
137.475849
 20
107.696492
 30
0.000000
 40
1.071270
 50
-39.649449
 51
121.579000
  6
CONTINUOUS
  0
ARC
  8
WHITE
 10
135.150849
 20
110.635492
 30
0.000000
 40
4.800405
 50
-110.221390
 51
-48.993000
  6
CONTINUOUS
  0
ARC
  8
WHITE
 10
138.735349
 20
114.884992
 30
0.000000
 40
10.204450
 50
166.991402
 51
239.078000
  6
CONTINUOUS
  0
ARC
  8
WHITE
 10
139.073120
 20
114.274070
 30
0.000000
 40
10.683639
 50
105.917258
 51
164.205793
  6
CONTINUOUS
  0
ARC
  8
WHITE
 10
135.645849
 20
125.900492
 30
0.000000
 40
1.440940
 50
-69.811000
 51
20.115947
  6
CONTINUOUS
  0
ARC
  8
WHITE
 10
181.892559
 20
136.571517
 30
0.000000
 40
46.032429
 50
-170.088391
 51
-167.229291
  6
CONTINUOUS
  0
ARC
  8
WHITE
 10
137.570349
 20
128.237992
 30
0.000000
 40
1.102260
 50
105.725210
 51
158.162000
  6
CONTINUOUS
  0
ARC
  8
WHITE
 10
140.239743
 20
116.499301
 30
0.000000
 40
13.139289
 50
77.899091
 51
103.055608
  6
CONTINUOUS
  0
ARC
  8
WHITE
 10
142.306393
 20
128.186347
 30
0.000000
 40
1.348823
 50
16.733314
 51
59.341458
  6
CONTINUOUS
  0
ARC
  8
WHITE
 10
131.375849
 20
128.798492
 30
0.000000
 40
12.224300
 50
-13.400261
 51
-1.049000
  6
CONTINUOUS
  0
ARC
  8
WHITE
 10
144.116403
 20
125.679152
 30
0.000000
 40
0.896125
 50
161.364741
 51
263.028548
  6
CONTINUOUS
  0
ARC
  8
WHITE
 10
141.636350
 20
114.875952
 30
0.000000
 40
10.193352
 50
-0.110539
 51
76.548003
  6
CONTINUOUS
  0
ARC
  8
WHITE
 10
170.815314
 20
110.611804
 30
0.000000
 40
19.454300
 50
167.398013
 51
172.783018
  6
CONTINUOUS
  0
ARC
  8
WHITE
 10
142.674849
 20
113.996492
 30
0.000000
 40
8.890200
 50
-64.094096
 51
-6.074000
  6
CONTINUOUS
  0
ARC
  8
WHITE
 10
145.437849
 20
111.122992
 30
0.000000
 40
5.244650
 50
-131.008100
 51
-77.657000
  6
CONTINUOUS
  0
ARC
  8
WHITE
 10
142.732516
 20
107.860501
 30
0.000000
 40
1.012522
 50
93.017863
 51
223.366870
  6
CONTINUOUS
  0
ARC
  8
WHITE
 10
144.205849
 20
111.690492
 30
0.000000
 40
3.205725
 50
-118.439000
 51
-23.446579
  6
CONTINUOUS
  0
ARC
  8
WHITE
 10
141.881071
 20
114.325292
 30
0.000000
 40
6.558900
 50
-36.597255
 51
16.468754
  6
CONTINUOUS
  0
ARC
  8
WHITE
 10
144.171388
 20
115.674186
 30
0.000000
 40
4.031950
 50
7.274007
 51
83.591031
  6
CONTINUOUS
  0
ARC
  8
WHITE
 10
140.323349
 20
101.342492
 30
0.000000
 40
18.835400
 50
76.809300
 51
88.901803
  6
CONTINUOUS
  0
LINE
  8
WHITE
 10
140.684349
 20
120.174492
 30
0.000000
 11
140.684349
 21
120.720492
 31
0.000000
  6
CONTINUOUS
  0
LINE
  8
WHITE
 10
140.684349
 20
120.720492
 30
0.000000
 11
140.668349
 21
124.148992
 31
0.000000
  6
CONTINUOUS
  0
LINE
  8
WHITE
 10
140.668349
 20
124.148992
 30
0.000000
 11
139.618349
 21
124.143492
 31
0.000000
  6
CONTINUOUS
  0
LINE
  8
WHITE
 10
139.618349
 20
124.143492
 30
0.000000
 11
139.634349
 21
120.767992
 31
0.000000
  6
CONTINUOUS
  0
LINE
  8
WHITE
 10
139.634349
 20
120.767992
 30
0.000000
 11
139.634305
 21
120.211381
 31
0.000000
  6
CONTINUOUS
  0
ARC
  8
WHITE
 10
140.797499
 20
97.326424
 30
0.000000
 40
22.914500
 50
92.909721
 51
103.887269
  6
CONTINUOUS
  0
ARC
  8
WHITE
 10
81.909349
 20
14.120192
 30
0.000000
 40
4.159305
 50
-136.719000
 51
-105.578000
  6
CONTINUOUS
  0
ARC
  8
WHITE
 10
81.909349
 20
14.120192
 30
0.000000
 40
4.159305
 50
-105.578000
 51
-67.277837
  6
CONTINUOUS
  0
ARC
  8
WHITE
 10
82.022757
 20
25.827632
 30
0.000000
 40
15.617600
 50
-84.510505
 51
-54.944084
  6
CONTINUOUS
  0
ARC
  8
WHITE
 10
90.942850
 20
11.350566
 30
0.000000
 40
1.693372
 50
-0.283984
 51
88.298655
  6
CONTINUOUS
  0
ARC
  8
WHITE
 10
93.587349
 20
11.698492
 30
0.000000
 40
1.015700
 50
-159.463000
 51
-94.497097
  6
CONTINUOUS
  0
ARC
  8
WHITE
 10
93.950531
 20
9.203362
 30
0.000000
 40
1.547283
 50
-35.609312
 51
106.630157
  6
CONTINUOUS
  0
ARC
  8
WHITE
 10
78.608849
 20
28.615042
 30
0.000000
 40
26.232600
 50
-84.546600
 51
-50.744000
  6
CONTINUOUS
  0
ARC
  8
WHITE
 10
80.873349
 20
22.897042
 30
0.000000
 40
20.397150
 50
-107.811823
 51
-89.358000
  6
CONTINUOUS
  0
ARC
  8
WHITE
 10
71.831349
 20
-4.040408
 30
0.000000
 40
8.023500
 50
69.554800
 51
100.638167
  6
CONTINUOUS
  0
ARC
  8
WHITE
 10
62.529849
 20
46.262892
 30
0.000000
 40
43.132500
 50
-82.090885
 51
-79.554000
  6
CONTINUOUS
  0
ARC
  8
WHITE
 10
68.070349
 20
5.220923
 30
0.000000
 40
1.725975
 50
-135.833234
 51
-76.783000
  6
CONTINUOUS
  0
LINE
  8
WHITE
 10
66.832349
 20
4.018417
 30
0.000000
 11
66.533349
 21
6.905917
 31
0.000000
  6
CONTINUOUS
  0
LINE
  8
WHITE
 10
66.533349
 20
6.905917
 30
0.000000
 11
69.053349
 21
7.341667
 31
0.000000
  6
CONTINUOUS
  0
LINE
  8
WHITE
 10
69.053349
 20
7.341667
 30
0.000000
 11
72.938349
 21
8.008417
 31
0.000000
  6
CONTINUOUS
  0
LINE
  8
WHITE
 10
72.938349
 20
8.008417
 30
0.000000
 11
72.759849
 21
9.042667
 31
0.000000
  6
CONTINUOUS
  0
LINE
  8
WHITE
 10
72.759849
 20
9.042667
 30
0.000000
 11
68.942849
 21
8.386417
 31
0.000000
  6
CONTINUOUS
  0
LINE
  8
WHITE
 10
68.942849
 20
8.386417
 30
0.000000
 11
66.375849
 21
7.945417
 31
0.000000
  6
CONTINUOUS
  0
LINE
  8
WHITE
 10
66.375849
 20
7.945417
 30
0.000000
 11
65.782271
 21
11.494430
 31
0.000000
  6
CONTINUOUS
  0
ARC
  8
WHITE
 10
72.596349
 20
-17.013158
 30
0.000000
 40
29.310650
 50
97.356698
 51
103.443000
  6
CONTINUOUS
  0
ARC
  8
WHITE
 10
69.799849
 20
8.821947
 30
0.000000
 40
3.372730
 50
50.827885
 51
106.477000
  6
CONTINUOUS
  0
ARC
  8
WHITE
 10
72.652349
 20
12.081942
 30
0.000000
 40
0.968400
 50
-138.216000
 51
-18.955139
  6
CONTINUOUS
  0
ARC
  8
WHITE
 10
79.117849
 20
8.733332
 30
0.000000
 40
6.324850
 50
128.264445
 51
151.334000
  6
CONTINUOUS
  0
ARC
  8
WHITE
 10
75.809936
 20
12.512791
 30
0.000000
 40
1.333824
 50
29.997630
 51
117.170369
  6
CONTINUOUS
  0
ARC
  8
WHITE
 10
69.315849
 20
3.593157
 30
0.000000
 40
12.264250
 50
38.744045
 51
51.413000
  6
CONTINUOUS
  0
ARC
  8
WHITE
 10
195.489849
 20
112.600992
 30
0.000000
 40
21.835400
 50
-36.696000
 51
-5.372000
  6
CONTINUOUS
  0
ARC
  8
WHITE
 10
203.720796
 20
112.856678
 30
0.000000
 40
13.702944
 50
-9.662477
 51
17.224590
  6
CONTINUOUS
  0
ARC
  8
WHITE
 10
226.579349
 20
118.875492
 30
0.000000
 40
9.965048
 50
168.652000
 51
191.349920
  6
CONTINUOUS
  0
ARC
  8
WHITE
 10
162.694849
 20
132.409992
 30
0.000000
 40
55.338040
 50
-12.072270
 51
-10.062000
  6
CONTINUOUS
  0
ARC
  8
WHITE
 10
214.042322
 20
122.627749
 30
0.000000
 40
3.141456
 50
2.078459
 51
24.143001
  6
CONTINUOUS
  0
LINE
  8
WHITE
 10
216.908986
 20
123.912653
 30
0.000000
 11
214.357349
 21
124.542492
 31
0.000000
  6
CONTINUOUS
  0
LINE
  8
WHITE
 10
214.357349
 20
124.542492
 30
0.000000
 11
213.023849
 21
118.489492
 31
0.000000
  6
CONTINUOUS
  0
LINE
  8
WHITE
 10
213.023849
 20
118.489492
 30
0.000000
 11
212.000349
 21
118.720492
 31
0.000000
  6
CONTINUOUS
  0
LINE
  8
WHITE
 10
212.000349
 20
118.720492
 30
0.000000
 11
212.834849
 21
122.500492
 31
0.000000
  6
CONTINUOUS
  0
LINE
  8
WHITE
 10
212.834849
 20
122.500492
 30
0.000000
 11
213.338849
 21
124.794492
 31
0.000000
  6
CONTINUOUS
  0
LINE
  8
WHITE
 10
213.338849
 20
124.794492
 30
0.000000
 11
209.658849
 21
125.707992
 31
0.000000
  6
CONTINUOUS
  0
ARC
  8
WHITE
 10
238.711090
 20
115.667849
 30
0.000000
 40
30.738204
 50
160.935399
 51
167.577864
  6
CONTINUOUS
  0
ARC
  8
WHITE
 10
210.792349
 20
121.367992
 30
0.000000
 40
2.289369
 50
156.523201
 51
222.799000
  6
CONTINUOUS
  0
ARC
  8
WHITE
 10
208.734709
 20
119.154588
 30
0.000000
 40
0.758780
 50
-75.179089
 51
60.131095
  6
CONTINUOUS
  0
ARC
  8
WHITE
 10
211.596349
 20
112.761992
 30
0.000000
 40
6.256257
 50
115.238070
 51
141.002000
  6
CONTINUOUS
  0
ARC
  8
WHITE
 10
207.894849
 20
115.799992
 30
0.000000
 40
1.468112
 50
142.239526
 51
228.574000
  6
CONTINUOUS
  0
ARC
  8
WHITE
 10
273.615349
 20
173.420492
 30
0.000000
 40
88.859474
 50
-138.636511
 51
-136.499000
  6
CONTINUOUS
  0
ARC
  8
WHITE
 10
200.518349
 20
109.673992
 30
0.000000
 40
9.018158
 50
-24.262000
 51
16.614246
  6
CONTINUOUS
  0
ARC
  8
WHITE
 10
183.981490
 20
116.915491
 30
0.000000
 40
27.070650
 50
-35.593695
 51
-23.852963
  6
CONTINUOUS
  0
ARC
  8
WHITE
 10
207.054155
 20
100.592130
 30
0.000000
 40
1.202070
 50
151.838034
 51
270.513383
  6
CONTINUOUS
  0
ARC
  8
WHITE
 10
207.018349
 20
98.465492
 30
0.000000
 40
0.925789
 50
-17.790000
 51
87.116198
  6
CONTINUOUS
  0
ARC
  8
WHITE
 10
209.390386
 20
97.910695
 30
0.000000
 40
1.515086
 50
169.660386
 51
261.256783
  6
CONTINUOUS
  0
ARC
  8
WHITE
 10
209.299720
 20
98.553968
 30
0.000000
 40
2.145302
 50
-93.732000
 51
-40.579958
  6
CONTINUOUS
  0
ARC
  8
WHITE
 10
195.487349
 20
112.591492
 30
0.000000
 40
21.831773
 50
-44.983921
 51
-36.672088
  6
CONTINUOUS
  0
ARC
  8
WHITE
 10
100.295349
 20
33.995842
 30
0.000000
 40
8.882900
 50
-89.896000
 51
-64.962000
  6
CONTINUOUS
  0
ARC
  8
WHITE
 10
100.295349
 20
33.995842
 30
0.000000
 40
8.882900
 50
-64.962000
 51
-55.470537
  6
CONTINUOUS
  0
ARC
  8
WHITE
 10
107.797849
 20
25.055042
 30
0.000000
 40
2.952825
 50
84.685106
 51
146.671000
  6
CONTINUOUS
  0
ARC
  8
WHITE
 10
107.509342
 20
24.882434
 30
0.000000
 40
3.163083
 50
2.273265
 51
79.765147
  6
CONTINUOUS
  0
ARC
  8
WHITE
 10
121.526975
 20
27.217726
 30
0.000000
 40
11.079650
 50
-168.495254
 51
-153.279339
  6
CONTINUOUS
  0
ARC
  8
WHITE
 10
120.762627
 20
28.985092
 30
0.000000
 40
11.355500
 50
-143.533118
 51
-126.462110
  6
CONTINUOUS
  0
ARC
  8
WHITE
 10
112.516349
 20
19.078292
 30
0.000000
 40
1.686035
 50
-93.521040
 51
27.332100
  6
CONTINUOUS
  0
ARC
  8
WHITE
 10
112.807349
 20
-5.429908
 30
0.000000
 40
22.828700
 50
90.990300
 51
95.014726
  6
CONTINUOUS
  0
LINE
  8
WHITE
 10
110.811849
 20
17.311442
 30
0.000000
 11
109.084349
 21
20.645192
 31
0.000000
  6
CONTINUOUS
  0
LINE
  8
WHITE
 10
109.084349
 20
20.645192
 30
0.000000
 11
108.149849
 21
20.162192
 31
0.000000
  6
CONTINUOUS
  0
LINE
  8
WHITE
 10
108.149849
 20
20.162192
 30
0.000000
 11
109.767058
 21
17.059399
 31
0.000000
  6
CONTINUOUS
  0
ARC
  8
WHITE
 10
111.117849
 20
12.021342
 30
0.000000
 40
5.216000
 50
105.009000
 51
178.752523
  6
CONTINUOUS
  0
ARC
  8
WHITE
 10
102.002393
 20
11.184581
 30
0.000000
 40
4.014742
 50
-3.897491
 51
13.692295
  6
CONTINUOUS
  0
LINE
  8
WHITE
 10
106.007849
 20
10.911692
 30
0.000000
 11
102.626719
 21
9.452170
 31
0.000000
  6
CONTINUOUS
  0
ARC
  8
WHITE
 10
98.385349
 20
3.094187
 30
0.000000
 40
7.642850
 50
56.293000
 51
84.090581
  6
CONTINUOUS
  0
ARC
  8
WHITE
 10
100.290694
 20
13.860744
 30
0.000000
 40
3.356156
 50
142.034191
 51
250.533363
  6
CONTINUOUS
  0
ARC
  8
WHITE
 10
95.880010
 20
18.302790
 30
0.000000
 40
2.960790
 50
-53.412820
 51
-14.460602
  6
CONTINUOUS
  0
ARC
  8
WHITE
 10
98.275349
 20
17.991992
 30
0.000000
 40
0.637270
 50
-42.259000
 51
89.134697
  6
CONTINUOUS
  0
ARC
  8
WHITE
 10
99.108396
 20
20.682677
 30
0.000000
 40
2.212432
 50
-173.577389
 51
-111.850122
  6
CONTINUOUS
  0
LINE
  8
WHITE
 10
96.909849
 20
20.435192
 30
0.000000
 11
98.752349
 21
20.860442
 31
0.000000
  6
CONTINUOUS
  0
LINE
  8
WHITE
 10
98.752349
 20
20.860442
 30
0.000000
 11
102.595349
 21
21.742442
 31
0.000000
  6
CONTINUOUS
  0
LINE
  8
WHITE
 10
102.595349
 20
21.742442
 30
0.000000
 11
102.359349
 21
22.766192
 31
0.000000
  6
CONTINUOUS
  0
LINE
  8
WHITE
 10
102.359349
 20
22.766192
 30
0.000000
 11
98.584349
 21
21.894692
 31
0.000000
  6
CONTINUOUS
  0
LINE
  8
WHITE
 10
98.584349
 20
21.894692
 30
0.000000
 11
96.531560
 21
21.427393
 31
0.000000
  6
CONTINUOUS
  0
ARC
  8
WHITE
 10
98.888929
 20
22.304416
 30
0.000000
 40
2.515225
 50
132.723816
 51
200.406938
  6
CONTINUOUS
  0
ARC
  8
WHITE
 10
100.137349
 20
20.104142
 30
0.000000
 40
5.011800
 50
88.009002
 51
126.128000
  6
CONTINUOUS
  0
ARC
  8
WHITE
 10
102.893349
 20
13.242692
 30
0.000000
 40
3.041695
 50
62.304600
 51
114.551000
  6
CONTINUOUS
  0
ARC
  8
WHITE
 10
102.893349
 20
13.242692
 30
0.000000
 40
3.041695
 50
114.551000
 51
159.804789
  6
CONTINUOUS
  0
ARC
  8
WHITE
 10
101.041349
 20
14.109392
 30
0.000000
 40
1.019055
 50
169.640000
 51
255.689562
  6
CONTINUOUS
  0
ARC
  8
WHITE
 10
101.117349
 20
11.404142
 30
0.000000
 40
1.748780
 50
33.570021
 51
100.807000
  6
CONTINUOUS
  0
ARC
  8
WHITE
 10
103.066349
 20
12.637842
 30
0.000000
 40
0.559535
 50
-151.534000
 51
37.718044
  6
CONTINUOUS
  0
ARC
  8
WHITE
 10
104.685349
 20
13.359142
 30
0.000000
 40
1.235930
 50
119.543310
 51
197.857000
  6
CONTINUOUS
  0
ARC
  8
WHITE
 10
103.613849
 20
15.274042
 30
0.000000
 40
0.958350
 50
-61.175000
 51
43.675480
  6
CONTINUOUS
  0
ARC
  8
WHITE
 10
191.152849
 20
110.702992
 30
0.000000
 40
5.221000
 50
18.351200
 51
70.442600
  6
CONTINUOUS
  0
ARC
  8
WHITE
 10
191.158349
 20
110.703492
 30
0.000000
 40
5.218690
 50
70.497663
 51
90.526994
  6
CONTINUOUS
  0
LINE
  8
WHITE
 10
191.110349
 20
115.921992
 30
0.000000
 11
191.136849
 21
116.205492
 31
0.000000
  6
CONTINUOUS
  0
LINE
  8
WHITE
 10
191.136849
 20
116.205492
 30
0.000000
 11
191.488349
 21
119.617992
 31
0.000000
  6
CONTINUOUS
  0
LINE
  8
WHITE
 10
191.488349
 20
119.617992
 30
0.000000
 11
190.443849
 21
119.722992
 31
0.000000
  6
CONTINUOUS
  0
LINE
  8
WHITE
 10
190.443849
 20
119.722992
 30
0.000000
 11
190.097349
 21
116.368492
 31
0.000000
  6
CONTINUOUS
  0
LINE
  8
WHITE
 10
190.097349
 20
116.368492
 30
0.000000
 11
189.892478
 21
115.858984
 31
0.000000
  6
CONTINUOUS
  0
ARC
  8
WHITE
 10
194.644642
 20
93.528490
 30
0.000000
 40
22.830550
 50
102.013923
 51
106.034746
  6
CONTINUOUS
  0
ARC
  8
WHITE
 10
187.748349
 20
117.047492
 30
0.000000
 40
1.683475
 50
169.813950
 51
290.517000
  6
CONTINUOUS
  0
ARC
  8
WHITE
 10
176.963394
 20
124.099728
 30
0.000000
 40
11.355350
 50
-36.500620
 51
-19.432979
  6
CONTINUOUS
  0
ARC
  8
WHITE
 10
176.751724
 20
122.200768
 30
0.000000
 40
11.080600
 50
-9.763198
 51
5.467942
  6
CONTINUOUS
  0
ARC
  8
WHITE
 10
190.837074
 20
124.064851
 30
0.000000
 40
3.160268
 50
117.280444
 51
194.817791
  6
CONTINUOUS
  0
ARC
  8
WHITE
 10
190.512939
 20
124.143418
 30
0.000000
 40
2.952653
 50
50.355510
 51
112.383066
  6
CONTINUOUS
  0
ARC
  8
WHITE
 10
195.066849
 20
134.890492
 30
0.000000
 40
8.884200
 50
-107.490000
 51
-73.084204
  6
CONTINUOUS
  0
ARC
  8
WHITE
 10
199.289849
 20
121.649992
 30
0.000000
 40
5.015750
 50
70.938116
 51
109.061000
  6
CONTINUOUS
  0
ARC
  8
WHITE
 10
199.836856
 20
124.126610
 30
0.000000
 40
2.513346
 50
-3.561242
 51
64.270488
  6
CONTINUOUS
  0
LINE
  8
WHITE
 10
202.345349
 20
123.970492
 30
0.000000
 11
200.250849
 21
123.817992
 31
0.000000
  6
CONTINUOUS
  0
LINE
  8
WHITE
 10
200.250849
 20
123.817992
 30
0.000000
 11
196.381349
 21
123.544992
 31
0.000000
  6
CONTINUOUS
  0
LINE
  8
WHITE
 10
196.381349
 20
123.544992
 30
0.000000
 11
196.460349
 21
122.500492
 31
0.000000
  6
CONTINUOUS
  0
LINE
  8
WHITE
 10
196.460349
 20
122.500492
 30
0.000000
 11
200.387349
 21
122.778492
 31
0.000000
  6
CONTINUOUS
  0
LINE
  8
WHITE
 10
200.387349
 20
122.778492
 30
0.000000
 11
202.277369
 21
122.909777
 31
0.000000
  6
CONTINUOUS
  0
ARC
  8
WHITE
 10
200.099349
 20
122.507492
 30
0.000000
 40
2.214860
 50
-51.110460
 51
10.464700
  6
CONTINUOUS
  0
ARC
  8
WHITE
 10
201.684200
 20
120.176445
 30
0.000000
 40
0.637445
 50
107.748972
 51
239.240262
  6
CONTINUOUS
  0
ARC
  8
WHITE
 10
203.883349
 20
121.177492
 30
0.000000
 40
2.962310
 50
-148.477000
 51
-109.456372
  6
CONTINUOUS
  0
ARC
  8
WHITE
 10
200.969961
 20
115.639575
 30
0.000000
 40
3.353413
 50
-53.602871
 51
54.932958
  6
CONTINUOUS
  0
ARC
  8
WHITE
 10
205.941349
 20
105.904992
 30
0.000000
 40
7.641050
 50
112.967000
 51
140.741193
  6
CONTINUOUS
  0
LINE
  8
WHITE
 10
200.024849
 20
110.740492
 30
0.000000
 11
196.365906
 21
111.144892
 31
0.000000
  6
CONTINUOUS
  0
ARC
  8
WHITE
 10
200.113784
 20
112.576634
 30
0.000000
 40
4.012041
 50
-176.715614
 51
-159.092441
  6
CONTINUOUS
  0
ARC
  8
WHITE
 10
198.660695
 20
114.285852
 30
0.000000
 40
3.040050
 50
95.168177
 51
134.822674
  6
CONTINUOUS
  0
ARC
  8
WHITE
 10
197.378967
 20
116.017232
 30
0.000000
 40
0.960213
 50
153.743272
 51
258.332988
  6
CONTINUOUS
  0
ARC
  8
WHITE
 10
196.912349
 20
113.873992
 30
0.000000
 40
1.233332
 50
-0.944000
 51
77.238223
  6
CONTINUOUS
  0
ARC
  8
WHITE
 10
198.670849
 20
113.653992
 30
0.000000
 40
0.561950
 50
159.186129
 51
348.692000
  6
CONTINUOUS
  0
ARC
  8
WHITE
 10
200.897013
 20
113.045510
 30
0.000000
 40
1.747720
 50
96.226415
 51
163.434181
  6
CONTINUOUS
  0
ARC
  8
WHITE
 10
200.176943
 20
115.653549
 30
0.000000
 40
1.019531
 50
-58.643991
 51
27.650302
  6
CONTINUOUS
  0
ARC
  8
WHITE
 10
198.660695
 20
114.285852
 30
0.000000
 40
3.040050
 50
37.266835
 51
95.168177
  6
CONTINUOUS
  0
ARC
  8
WHITE
 10
87.282849
 20
52.759292
 30
0.000000
 40
8.243100
 50
77.691300
 51
94.137500
  6
CONTINUOUS
  0
ARC
  8
WHITE
 10
87.276030
 20
52.759470
 30
0.000000
 40
8.242434
 50
94.090311
 51
131.050160
  6
CONTINUOUS
  0
ARC
  8
WHITE
 10
85.606453
 20
54.922888
 30
0.000000
 40
5.516850
 50
132.729467
 51
224.695688
  6
CONTINUOUS
  0
ARC
  8
WHITE
 10
81.007849
 20
50.492092
 30
0.000000
 40
0.872565
 50
-88.304619
 51
39.122200
  6
CONTINUOUS
  0
ARC
  8
WHITE
 10
83.374849
 20
55.468892
 30
0.000000
 40
6.300100
 50
177.568485
 51
248.185000
  6
CONTINUOUS
  0
ARC
  8
WHITE
 10
85.828349
 20
55.978992
 30
0.000000
 40
8.751200
 50
90.798829
 51
181.590000
  6
CONTINUOUS
  0
ARC
  8
WHITE
 10
85.265066
 20
66.099401
 30
0.000000
 40
1.439465
 50
-72.148159
 51
17.848999
  6
CONTINUOUS
  0
ARC
  8
WHITE
 10
131.899182
 20
74.930512
 30
0.000000
 40
46.034925
 50
-172.357947
 51
-169.499111
  6
CONTINUOUS
  0
ARC
  8
WHITE
 10
87.276068
 20
68.357426
 30
0.000000
 40
1.099750
 50
103.244896
 51
155.778836
  6
CONTINUOUS
  0
ARC
  8
WHITE
 10
89.474773
 20
56.523255
 30
0.000000
 40
13.135306
 50
75.578343
 51
100.752766
  6
CONTINUOUS
  0
ARC
  8
WHITE
 10
92.009484
 20
68.117966
 30
0.000000
 40
1.346172
 50
14.347771
 51
56.820245
  6
CONTINUOUS
  0
ARC
  8
WHITE
 10
81.113181
 20
69.152180
 30
0.000000
 40
12.220587
 50
-15.611252
 51
-3.286650
  6
CONTINUOUS
  0
ARC
  8
WHITE
 10
93.716753
 20
65.539245
 30
0.000000
 40
0.894640
 50
158.749030
 51
260.942305
  6
CONTINUOUS
  0
ARC
  8
WHITE
 10
92.632888
 20
55.545382
 30
0.000000
 40
9.159056
 50
19.290166
 51
84.090312
  6
CONTINUOUS
  0
ARC
  8
WHITE
 10
94.347465
 20
55.876585
 30
0.000000
 40
7.435658
 50
-51.326824
 51
21.246256
  6
CONTINUOUS
  0
ARC
  8
WHITE
 10
97.765849
 20
51.200392
 30
0.000000
 40
1.668110
 50
-86.231981
 51
-42.595000
  6
CONTINUOUS
  0
ARC
  8
WHITE
 10
97.844349
 20
50.537892
 30
0.000000
 40
1.002445
 50
139.441275
 51
271.779000
  6
CONTINUOUS
  0
ARC
  8
WHITE
 10
92.725349
 20
55.052142
 30
0.000000
 40
5.822900
 50
-41.554000
 51
46.032798
  6
CONTINUOUS
  0
ARC
  8
WHITE
 10
91.258587
 20
50.192548
 30
0.000000
 40
10.595600
 50
58.670003
 51
96.332842
  6
CONTINUOUS
  0
LINE
  8
WHITE
 10
90.089849
 20
60.723492
 30
0.000000
 11
90.210849
 21
64.146492
 31
0.000000
  6
CONTINUOUS
  0
LINE
  8
WHITE
 10
90.210849
 20
64.146492
 30
0.000000
 11
89.160849
 21
64.183492
 31
0.000000
  6
CONTINUOUS
  0
LINE
  8
WHITE
 10
89.160849
 20
64.183492
 30
0.000000
 11
89.040103
 21
60.812910
 31
0.000000
  6
CONTINUOUS
  0
ARC
  8
WHITE
 10
120.457349
 20
35.115242
 30
0.000000
 40
1.133045
 50
90.865800
 51
165.841000
  6
CONTINUOUS
  0
ARC
  8
WHITE
 10
112.842849
 20
35.044192
 30
0.000000
 40
6.525174
 50
-32.165053
 51
3.058975
  6
CONTINUOUS
  0
ARC
  8
WHITE
 10
116.500849
 20
33.318642
 30
0.000000
 40
2.556740
 50
-134.055229
 51
-43.138000
  6
CONTINUOUS
  0
ARC
  8
WHITE
 10
119.570849
 20
38.440742
 30
0.000000
 40
8.481550
 50
-142.133975
 51
-124.860000
  6
CONTINUOUS
  0
ARC
  8
WHITE
 10
112.222312
 20
32.909720
 30
0.000000
 40
0.729255
 50
26.461178
 51
197.208061
  6
CONTINUOUS
  0
ARC
  8
WHITE
 10
117.421849
 20
33.275942
 30
0.000000
 40
5.924800
 50
-174.363000
 51
-127.952224
  6
CONTINUOUS
  0
ARC
  8
WHITE
 10
113.101479
 20
27.930417
 30
0.000000
 40
0.954858
 50
-19.149977
 51
44.876868
  6
CONTINUOUS
  0
ARC
  8
WHITE
 10
115.069349
 20
27.218042
 30
0.000000
 40
1.138135
 50
159.470000
 51
277.430983
  6
CONTINUOUS
  0
ARC
  8
WHITE
 10
114.853333
 20
24.683703
 30
0.000000
 40
1.451898
 50
5.759679
 51
75.512589
  6
CONTINUOUS
  0
ARC
  8
WHITE
 10
117.468849
 20
24.608792
 30
0.000000
 40
1.191550
 50
169.330000
 51
307.122186
  6
CONTINUOUS
  0
ARC
  8
WHITE
 10
118.930218
 20
22.944657
 30
0.000000
 40
1.029912
 50
31.330491
 51
136.109569
  6
CONTINUOUS
  0
ARC
  8
WHITE
 10
121.352349
 20
23.943542
 30
0.000000
 40
1.610495
 50
-163.279000
 51
-119.009777
  6
CONTINUOUS
  0
ARC
  8
WHITE
 10
120.982961
 20
23.338885
 30
0.000000
 40
0.902990
 50
-117.117982
 51
-32.766647
  6
CONTINUOUS
  0
ARC
  8
WHITE
 10
124.682549
 20
21.663996
 30
0.000000
 40
3.170529
 50
135.545712
 51
158.029754
  6
CONTINUOUS
  0
ARC
  8
WHITE
 10
122.787738
 20
23.270195
 30
0.000000
 40
0.716225
 50
47.134864
 51
120.949629
  6
CONTINUOUS
  0
ARC
  8
WHITE
 10
133.036849
 20
32.970192
 30
0.000000
 40
13.396850
 50
-136.775000
 51
-129.159457
  6
CONTINUOUS
  0
ARC
  8
WHITE
 10
124.949849
 20
23.212442
 30
0.000000
 40
0.732095
 50
-120.616000
 51
-14.545320
  6
CONTINUOUS
  0
ARC
  8
WHITE
 10
140.452546
 20
19.341965
 30
0.000000
 40
15.246459
 50
160.168448
 51
166.007149
  6
CONTINUOUS
  0
ARC
  8
WHITE
 10
126.526269
 20
24.336132
 30
0.000000
 40
0.452574
 50
29.890580
 51
156.800207
  6
CONTINUOUS
  0
ARC
  8
WHITE
 10
128.660349
 20
25.964142
 30
0.000000
 40
2.236175
 50
-141.158000
 51
-97.659713
  6
CONTINUOUS
  0
ARC
  8
WHITE
 10
128.598754
 20
24.335580
 30
0.000000
 40
0.633470
 50
-111.918443
 51
11.989478
  6
CONTINUOUS
  0
ARC
  8
WHITE
 10
130.845349
 20
25.221442
 30
0.000000
 40
1.793285
 50
119.828101
 51
204.873000
  6
CONTINUOUS
  0
LINE
  8
WHITE
 10
129.953349
 20
26.777192
 30
0.000000
 11
128.509349
 21
30.247442
 31
0.000000
  6
CONTINUOUS
  0
LINE
  8
WHITE
 10
128.509349
 20
30.247442
 30
0.000000
 11
125.296349
 21
28.987442
 31
0.000000
  6
CONTINUOUS
  0
LINE
  8
WHITE
 10
125.296349
 20
28.987442
 30
0.000000
 11
124.907849
 21
29.963942
 31
0.000000
  6
CONTINUOUS
  0
LINE
  8
WHITE
 10
124.907849
 20
29.963942
 30
0.000000
 11
128.105349
 21
31.218692
 31
0.000000
  6
CONTINUOUS
  0
LINE
  8
WHITE
 10
128.105349
 20
31.218692
 30
0.000000
 11
126.556644
 21
34.935634
 31
0.000000
  6
CONTINUOUS
  0
ARC
  8
WHITE
 10
125.550849
 20
42.232642
 30
0.000000
 40
7.366000
 50
-123.209245
 51
-82.152000
  6
CONTINUOUS
  0
ARC
  8
WHITE
 10
120.776349
 20
34.940892
 30
0.000000
 40
1.349785
 50
56.747000
 51
104.419410
  6
CONTINUOUS
  0
ARC
  8
WHITE
 10
60.522349
 20
19.306792
 30
0.000000
 40
2.183085
 50
-41.599000
 51
-18.228000
  6
CONTINUOUS
  0
ARC
  8
WHITE
 10
63.593486
 20
18.629295
 30
0.000000
 40
0.997615
 50
91.219960
 51
180.308414
  6
CONTINUOUS
  0
ARC
  8
WHITE
 10
63.752349
 20
20.562192
 30
0.000000
 40
0.952687
 50
-100.897202
 51
-15.730000
  6
CONTINUOUS
  0
ARC
  8
WHITE
 10
65.373200
 20
20.398720
 30
0.000000
 40
0.710150
 50
79.361378
 51
187.673112
  6
CONTINUOUS
  0
ARC
  8
WHITE
 10
65.688849
 20
22.010742
 30
0.000000
 40
0.932522
 50
-101.414138
 51
-8.127000
  6
CONTINUOUS
  0
ARC
  8
WHITE
 10
67.310349
 20
21.821192
 30
0.000000
 40
0.700712
 50
54.761800
 51
175.275029
  6
CONTINUOUS
  0
ARC
  8
WHITE
 10
68.156475
 20
22.892331
 30
0.000000
 40
0.666440
 50
-131.532055
 51
-17.906192
  6
CONTINUOUS
  0
ARC
  8
WHITE
 10
69.559164
 20
22.778313
 30
0.000000
 40
0.773885
 50
69.074215
 51
186.744455
  6
CONTINUOUS
  0
ARC
  8
WHITE
 10
69.688349
 20
22.424942
 30
0.000000
 40
1.086235
 50
-16.860000
 51
82.210904
  6
CONTINUOUS
  0
ARC
  8
WHITE
 10
50.121649
 20
20.524242
 30
0.000000
 40
20.667139
 50
-9.105000
 51
4.400276
  6
CONTINUOUS
  0
ARC
  8
WHITE
 10
67.898095
 20
17.600110
 30
0.000000
 40
2.653050
 50
-85.804324
 51
-7.500888
  6
CONTINUOUS
  0
ARC
  8
WHITE
 10
69.714849
 20
0.642742
 30
0.000000
 40
14.403124
 50
96.468649
 51
127.894000
  6
CONTINUOUS
  0
LINE
  8
WHITE
 10
60.868428
 20
12.008926
 30
0.000000
 11
57.392150
 21
14.576391
 31
0.000000
  6
CONTINUOUS
  0
LINE
  8
WHITE
 10
57.392150
 20
14.576391
 30
0.000000
 11
56.768349
 21
13.730942
 31
0.000000
  6
CONTINUOUS
  0
LINE
  8
WHITE
 10
56.768349
 20
13.730942
 30
0.000000
 11
59.828849
 21
11.473442
 31
0.000000
  6
CONTINUOUS
  0
ARC
  8
WHITE
 10
57.392150
 20
14.576391
 30
0.000000
 40
3.945351
 50
-105.816835
 51
-51.857976
  6
CONTINUOUS
  0
ARC
  8
WHITE
 10
58.946698
 20
15.673607
 30
0.000000
 40
5.555150
 50
-144.925292
 51
-118.256361
  6
CONTINUOUS
  0
ARC
  8
WHITE
 10
49.533449
 20
7.887787
 30
0.000000
 40
6.692361
 50
43.345211
 51
78.458900
  6
CONTINUOUS
  0
ARC
  8
WHITE
 10
50.848199
 20
20.088292
 30
0.000000
 40
5.643419
 50
-112.386000
 51
-89.754163
  6
CONTINUOUS
  0
ARC
  8
WHITE
 10
49.134649
 20
16.182692
 30
0.000000
 40
1.382939
 50
161.634000
 51
251.635610
  6
CONTINUOUS
  0
ARC
  8
WHITE
 10
50.005999
 20
15.552542
 30
0.000000
 40
2.430092
 50
93.464000
 51
153.983881
  6
CONTINUOUS
  0
ARC
  8
WHITE
 10
50.032699
 20
21.222842
 30
0.000000
 40
3.249322
 50
-93.061289
 51
-11.750000
  6
CONTINUOUS
  0
ARC
  8
WHITE
 10
54.525799
 20
20.387592
 30
0.000000
 40
1.323288
 50
61.282300
 51
172.463883
  6
CONTINUOUS
  0
ARC
  8
WHITE
 10
52.887849
 20
18.188942
 30
0.000000
 40
4.056409
 50
19.102100
 51
55.906453
  6
CONTINUOUS
  0
ARC
  8
WHITE
 10
60.303285
 20
21.231977
 30
0.000000
 40
3.971942
 50
-154.410694
 51
-99.688760
  6
CONTINUOUS
  0
ARC
  8
WHITE
 10
60.524716
 20
19.312079
 30
0.000000
 40
2.184832
 50
-114.035648
 51
-41.743879
  6
CONTINUOUS
  0
ARC
  8
WHITE
 10
13.424755
 20
88.070731
 30
0.000000
 40
3.970650
 50
-116.131938
 51
-85.232488
  6
CONTINUOUS
  0
ARC
  8
WHITE
 10
13.424755
 20
88.070731
 30
0.000000
 40
3.972270
 50
-85.232488
 51
-61.339485
  6
CONTINUOUS
  0
ARC
  8
WHITE
 10
17.655149
 20
81.256492
 30
0.000000
 40
4.060375
 50
88.214246
 51
124.936000
  6
CONTINUOUS
  0
ARC
  8
WHITE
 10
17.612699
 20
83.998992
 30
0.000000
 40
1.326645
 50
-28.453397
 51
82.682200
  6
CONTINUOUS
  0
ARC
  8
WHITE
 10
21.740649
 20
82.036992
 30
0.000000
 40
3.246370
 50
155.817000
 51
237.186529
  6
CONTINUOUS
  0
ARC
  8
WHITE
 10
18.437399
 20
77.430492
 30
0.000000
 40
2.431310
 50
-9.983194
 51
50.576000
  6
CONTINUOUS
  0
ARC
  8
WHITE
 10
19.514493
 20
77.428883
 30
0.000000
 40
1.382705
 50
-107.697189
 51
-17.677997
  6
CONTINUOUS
  0
ARC
  8
WHITE
 10
20.417999
 20
81.597492
 30
0.000000
 40
5.643350
 50
-126.153961
 51
-103.567000
  6
CONTINUOUS
  0
ARC
  8
WHITE
 10
14.320749
 20
70.950992
 30
0.000000
 40
6.689400
 50
65.557600
 51
100.709256
  6
CONTINUOUS
  0
ARC
  8
WHITE
 10
11.271527
 20
82.774123
 30
0.000000
 40
5.552190
 50
-97.660144
 51
-71.015953
  6
CONTINUOUS
  0
ARC
  8
WHITE
 10
11.881599
 20
80.976992
 30
0.000000
 40
3.943825
 50
-164.023393
 51
-110.020000
  6
CONTINUOUS
  0
LINE
  8
WHITE
 10
8.090169
 20
79.891492
 30
0.000000
 11
11.896399
 21
79.922992
 31
0.000000
  6
CONTINUOUS
  0
LINE
  8
WHITE
 10
11.896399
 20
79.922992
 30
0.000000
 11
11.881599
 21
80.976992
 31
0.000000
  6
CONTINUOUS
  0
LINE
  8
WHITE
 10
11.881599
 20
80.976992
 30
0.000000
 11
7.565169
 21
80.936098
 31
0.000000
  6
CONTINUOUS
  0
ARC
  8
WHITE
 10
-6.268801
 20
76.925492
 30
0.000000
 40
14.403600
 50
16.167400
 51
47.598086
  6
CONTINUOUS
  0
ARC
  8
WHITE
 10
5.149789
 20
89.590631
 30
0.000000
 40
2.650855
 50
151.542073
 51
229.945686
  6
CONTINUOUS
  0
ARC
  8
WHITE
 10
21.260939
 20
81.522333
 30
0.000000
 40
20.668148
 50
139.660698
 51
153.160669
  6
CONTINUOUS
  0
ARC
  8
WHITE
 10
6.532748
 20
94.549904
 30
0.000000
 40
1.084039
 50
61.775371
 51
161.097405
  6
CONTINUOUS
  0
ARC
  8
WHITE
 10
6.846084
 20
94.758992
 30
0.000000
 40
0.772230
 50
-42.775714
 51
75.040700
  6
CONTINUOUS
  0
ARC
  8
WHITE
 10
8.049168
 20
94.028319
 30
0.000000
 40
0.668830
 50
162.041376
 51
275.771037
  6
CONTINUOUS
  0
ARC
  8
WHITE
 10
8.106274
 20
92.663992
 30
0.000000
 40
0.698960
 50
-31.146890
 51
89.168200
  6
CONTINUOUS
  0
ARC
  8
WHITE
 10
9.529264
 20
91.864992
 30
0.000000
 40
0.933685
 50
152.058000
 51
245.371057
  6
CONTINUOUS
  0
ARC
  8
WHITE
 10
8.840520
 20
90.371862
 30
0.000000
 40
0.710675
 50
-43.570893
 51
65.061577
  6
CONTINUOUS
  0
ARC
  8
WHITE
 10
10.248969
 20
89.553992
 30
0.000000
 40
0.951860
 50
159.841000
 51
245.149082
  6
CONTINUOUS
  0
ARC
  8
WHITE
 10
9.245482
 20
87.896126
 30
0.000000
 40
0.997360
 50
-36.384138
 51
52.768659
  6
CONTINUOUS
  0
ARC
  8
WHITE
 10
12.132009
 20
86.643707
 30
0.000000
 40
2.185865
 50
162.404140
 51
257.956618
  6
CONTINUOUS
  0
LINE
  8
WHITE
 10
239.673849
 20
132.138432
 30
0.000000
 11
239.673849
 21
1.500000
 31
0.000000
  6
CONTINUOUS
  0
ARC
  8
WHITE
 10
238.173849
 20
1.500000
 30
0.000000
 40
1.500000
 50
-90.000000
 51
0.000000
  6
CONTINUOUS
  0
LINE
  8
WHITE
 10
238.173849
 20
0.000000
 30
0.000000
 11
1.500000
 21
0.000000
 31
0.000000
  6
CONTINUOUS
  0
ARC
  8
WHITE
 10
1.500000
 20
1.500000
 30
0.000000
 40
1.500000
 50
180.000000
 51
270.000000
  6
CONTINUOUS
  0
LINE
  8
WHITE
 10
0.000000
 20
1.500000
 30
0.000000
 11
0.000000
 21
130.638432
 31
0.000000
  6
CONTINUOUS
  0
ARC
  8
WHITE
 10
1.500000
 20
130.638432
 30
0.000000
 40
1.500000
 50
90.000000
 51
180.000000
  6
CONTINUOUS
  0
LINE
  8
WHITE
 10
1.500000
 20
132.138432
 30
0.000000
 11
239.376584
 21
132.138432
 31
0.000000
  6
CONTINUOUS
  0
ENDSEC
  0
EOF
