  0
SECTION
  2
HEADER
  9
$ACADVER
  1
AC1009
  9
$DWGCODEPAGE
  3
ansi_1252
  9
$INSBASE
 10
0.0
 20
0.0
 30
0.0
  9
$EXTMIN
 10
-74.32918509956949
 20
-3.211352587623708
 30
0.0
  9
$EXTMAX
 10
0.836147546744349
 20
41.07828188077012
 30
0.0
  9
$LIMMIN
 10
0.0
 20
0.0
  9
$LIMMAX
 10
12.0
 20
9.0
  9
$ORTHOMODE
 70
     0
  9
$REGENMODE
 70
     1
  9
$FILLMODE
 70
     1
  9
$QTEXTMODE
 70
     0
  9
$MIRRTEXT
 70
     1
  9
$DRAGMODE
 70
     2
  9
$LTSCALE
 40
1.0
  9
$OSMODE
 70
    37
  9
$ATTMODE
 70
     1
  9
$TEXTSIZE
 40
0.2
  9
$TRACEWID
 40
0.05
  9
$TEXTSTYLE
  7
STANDARD
  9
$CLAYER
  8
0
  9
$CELTYPE
  6
BYBLOCK
  9
$CECOLOR
 62
   256
  9
$DIMSCALE
 40
1.0
  9
$DIMASZ
 40
0.18
  9
$DIMEXO
 40
0.0625
  9
$DIMDLI
 40
0.38
  9
$DIMRND
 40
0.0
  9
$DIMDLE
 40
0.0
  9
$DIMEXE
 40
0.18
  9
$DIMTP
 40
0.0
  9
$DIMTM
 40
0.0
  9
$DIMTXT
 40
0.18
  9
$DIMCEN
 40
0.09
  9
$DIMTSZ
 40
0.0
  9
$DIMTOL
 70
     0
  9
$DIMLIM
 70
     0
  9
$DIMTIH
 70
     1
  9
$DIMTOH
 70
     1
  9
$DIMSE1
 70
     0
  9
$DIMSE2
 70
     0
  9
$DIMTAD
 70
     0
  9
$DIMZIN
 70
     0
  9
$DIMBLK
  1

  9
$DIMASO
 70
     1
  9
$DIMSHO
 70
     1
  9
$DIMPOST
  1

  9
$DIMAPOST
  1

  9
$DIMALT
 70
     0
  9
$DIMALTD
 70
     2
  9
$DIMALTF
 40
25.4
  9
$DIMLFAC
 40
1.0
  9
$DIMTOFL
 70
     0
  9
$DIMTVP
 40
0.0
  9
$DIMTIX
 70
     0
  9
$DIMSOXD
 70
     0
  9
$DIMSAH
 70
     0
  9
$DIMBLK1
  1

  9
$DIMBLK2
  1

  9
$DIMSTYLE
  2
STANDARD
  9
$DIMCLRD
 70
     0
  9
$DIMCLRE
 70
     0
  9
$DIMCLRT
 70
     0
  9
$DIMTFAC
 40
1.0
  9
$DIMGAP
 40
0.09
  9
$LUNITS
 70
     2
  9
$LUPREC
 70
     4
  9
$SKETCHINC
 40
0.1
  9
$FILLETRAD
 40
0.5
  9
$AUNITS
 70
     0
  9
$AUPREC
 70
     0
  9
$MENU
  1
.
  9
$ELEVATION
 40
0.0
  9
$PELEVATION
 40
0.0
  9
$THICKNESS
 40
0.0
  9
$LIMCHECK
 70
     0
  9
$CHAMFERA
 40
0.5
  9
$CHAMFERB
 40
0.5
  9
$SKPOLY
 70
     0
  9
$TDCREATE
 40
2453353.550459155
  9
$TDUPDATE
 40
4909957.875772963
  9
$TDINDWG
 40
4895786.051922963
  9
$TDUSRTIMER
 40
4895786.051922963
  9
$USRTIMER
 70
     1
  9
$ANGBASE
 50
0.0
  9
$ANGDIR
 70
     0
  9
$PDMODE
 70
     0
  9
$PDSIZE
 40
0.0
  9
$PLINEWID
 40
0.0
  9
$COORDS
 70
     1
  9
$SPLFRAME
 70
     0
  9
$SPLINETYPE
 70
     6
  9
$SPLINESEGS
 70
     8
  9
$ATTDIA
 70
     0
  9
$ATTREQ
 70
     1
  9
$HANDLING
 70
     1
  9
$HANDSEED
  5
5CF
  9
$SURFTAB1
 70
     6
  9
$SURFTAB2
 70
     6
  9
$SURFTYPE
 70
     6
  9
$SURFU
 70
     6
  9
$SURFV
 70
     6
  9
$UCSNAME
  2

  9
$UCSORG
 10
0.0
 20
0.0
 30
0.0
  9
$UCSXDIR
 10
1.0
 20
0.0
 30
0.0
  9
$UCSYDIR
 10
0.0
 20
1.0
 30
0.0
  9
$PUCSNAME
  2

  9
$PUCSORG
 10
0.0
 20
0.0
 30
0.0
  9
$PUCSXDIR
 10
1.0
 20
0.0
 30
0.0
  9
$PUCSYDIR
 10
0.0
 20
1.0
 30
0.0
  9
$USERI1
 70
     0
  9
$USERI2
 70
     0
  9
$USERI3
 70
     0
  9
$USERI4
 70
     0
  9
$USERI5
 70
     0
  9
$USERR1
 40
0.0
  9
$USERR2
 40
0.0
  9
$USERR3
 40
0.0
  9
$USERR4
 40
0.0
  9
$USERR5
 40
0.0
  9
$WORLDVIEW
 70
     1
  9
$SHADEDGE
 70
     3
  9
$SHADEDIF
 70
    70
  9
$TILEMODE
 70
     1
  9
$MAXACTVP
 70
    64
  9
$PLIMCHECK
 70
     0
  9
$PEXTMIN
 10
0.0
 20
0.0
 30
0.0
  9
$PEXTMAX
 10
0.0
 20
0.0
 30
0.0
  9
$PLIMMIN
 10
0.0
 20
0.0
  9
$PLIMMAX
 10
0.0
 20
0.0
  9
$UNITMODE
 70
     0
  9
$VISRETAIN
 70
     1
  9
$PLINEGEN
 70
     0
  9
$PSLTSCALE
 70
     1
  0
ENDSEC
  0
SECTION
  2
TABLES
  0
TABLE
  2
VPORT
 70
     1
  0
VPORT
  2
*ACTIVE
 70
     0
 10
0.0
 20
0.0
 11
1.0
 21
1.0
 12
-35.92128161640441
 22
20.17247597137007
 13
0.0
 23
0.0
 14
0.5
 24
0.5
 15
0.5
 25
0.5
 16
0.0
 26
0.0
 36
1.0
 17
0.0
 27
0.0
 37
0.0
 40
59.38015607098647
 41
1.972972972850329
 42
50.0
 43
0.0
 44
0.0
 50
0.0
 51
0.0
 71
    16
 72
   100
 73
     1
 74
     1
 75
     0
 76
     0
 77
     0
 78
     0
  0
ENDTAB
  0
TABLE
  2
LTYPE
 70
     1
  0
LTYPE
  2
CONTINUOUS
 70
     0
  3
Solid line
 72
    65
 73
     0
 40
0.0
  0
ENDTAB
  0
TABLE
  2
LAYER
 70
     2
  0
LAYER
  2
0
 70
     0
 62
     7
  6
CONTINUOUS
  0
LAYER
  2
LAYER_1
 70
     0
 62
     7
  6
CONTINUOUS
  0
ENDTAB
  0
TABLE
  2
STYLE
 70
     1
  0
STYLE
  2
STANDARD
 70
     0
 40
0.0
 41
1.0
 50
0.0
 71
     0
 42
0.2
  3
txt
  4

  0
ENDTAB
  0
TABLE
  2
VIEW
 70
     0
  0
ENDTAB
  0
TABLE
  2
UCS
 70
     0
  0
ENDTAB
  0
TABLE
  2
APPID
 70
     1
  0
APPID
  2
ACAD
 70
     0
  0
ENDTAB
  0
TABLE
  2
DIMSTYLE
 70
     1
  0
DIMSTYLE
  2
STANDARD
 70
     0
  3

  4

  5

  6

  7

 40
1.0
 41
0.18
 42
0.0625
 43
0.38
 44
0.18
 45
0.0
 46
0.0
 47
0.0
 48
0.0
140
0.18
141
0.09
142
0.0
143
25.4
144
1.0
145
0.0
146
1.0
147
0.09
 71
     0
 72
     0
 73
     1
 74
     1
 75
     0
 76
     0
 77
     0
 78
     0
170
     0
171
     2
172
     0
173
     0
174
     0
175
     0
176
     0
177
     0
178
     0
  0
ENDTAB
  0
ENDSEC
  0
SECTION
  2
BLOCKS
  0
BLOCK
  8
0
  2
$MODEL_SPACE
 70
     0
 10
0.0
 20
0.0
 30
0.0
  3
$MODEL_SPACE
  1

  0
ENDBLK
  5
21
  8
0
  0
BLOCK
 67
     1
  8
0
  2
$PAPER_SPACE
 70
     0
 10
0.0
 20
0.0
 30
0.0
  3
$PAPER_SPACE
  1

  0
ENDBLK
  5
76
 67
     1
  8
0
  0
ENDSEC
  0
SECTION
  2
ENTITIES
  0
LINE
  5
4B3
  8
LAYER_1
 10
-7.438447539031341
 20
-3.193948679199163
 30
0.0
 11
-5.468731523053822
 21
16.859611
 31
0.0
  0
LINE
  5
4B4
  8
LAYER_1
 10
-5.468731523053822
 20
16.859611
 30
0.0
 11
-5.404446315562837
 21
18.33855357716762
 31
0.0
  0
LINE
  5
4B5
  8
LAYER_1
 10
-5.404446315562837
 20
18.33855357716762
 30
0.0
 11
-28.57404121005517
 21
18.36577751079239
 31
0.0
  0
LINE
  5
4B7
  8
LAYER_1
 10
-28.57404121005517
 20
18.36577751079239
 30
0.0
 11
-33.28230152305383
 21
17.80192
 31
0.0
  0
LINE
  5
4B8
  8
LAYER_1
 10
-33.28230152305383
 20
17.80192
 30
0.0
 11
-34.33105252305382
 21
17.077097
 31
0.0
  0
LINE
  5
4B9
  8
LAYER_1
 10
-34.33105252305382
 20
17.077097
 30
0.0
 11
-35.06891752305382
 21
16.188363
 31
0.0
  0
LINE
  5
4BA
  8
LAYER_1
 10
-35.06891752305382
 20
16.188363
 30
0.0
 11
-35.50034452305382
 21
15.128304
 31
0.0
  0
LINE
  5
4BB
  8
LAYER_1
 10
-35.50034452305382
 20
15.128304
 30
0.0
 11
-35.62978252305382
 21
13.889504
 31
0.0
  0
LINE
  5
4BC
  8
LAYER_1
 10
-35.62978252305382
 20
13.889504
 30
0.0
 11
-35.47834152305382
 21
12.796801
 31
0.0
  0
LINE
  5
4BD
  8
LAYER_1
 10
-35.47834152305382
 20
12.796801
 30
0.0
 11
-35.08409452305382
 21
11.706696
 31
0.0
  0
LINE
  5
4BE
  8
LAYER_1
 10
-35.08409452305382
 20
11.706696
 30
0.0
 11
-34.48897752305382
 21
10.707742
 31
0.0
  0
LINE
  5
4BF
  8
LAYER_1
 10
-34.48897752305382
 20
10.707742
 30
0.0
 11
-33.73492852305382
 21
9.888488000000001
 31
0.0
  0
LINE
  5
4C0
  8
LAYER_1
 10
-33.73492852305382
 20
9.888488000000001
 30
0.0
 11
-32.09062152305382
 21
8.810772999999999
 31
0.0
  0
LINE
  5
4C1
  8
LAYER_1
 10
-32.09062152305382
 20
8.810772999999999
 30
0.0
 11
-28.4162807880159
 21
7.617745987648319
 31
0.0
  0
LINE
  5
4C2
  8
LAYER_1
 10
-28.4162807880159
 20
7.617745987648319
 30
0.0
 11
-26.46704304446693
 21
6.209963172862955
 31
0.0
  0
LINE
  5
4C3
  8
LAYER_1
 10
-29.55246352305382
 20
10.117156
 30
0.0
 11
-31.08775752305382
 21
10.768153
 31
0.0
  0
LINE
  5
4C4
  8
LAYER_1
 10
-31.08775752305382
 20
10.768153
 30
0.0
 11
-32.24915452305383
 21
11.638316
 31
0.0
  0
LINE
  5
4C5
  8
LAYER_1
 10
-32.24915452305383
 20
11.638316
 30
0.0
 11
-33.02157052305383
 21
12.633271
 31
0.0
  0
LINE
  5
4C6
  8
LAYER_1
 10
-33.02157052305383
 20
12.633271
 30
0.0
 11
-33.38992352305382
 21
13.658647
 31
0.0
  0
LINE
  5
4C7
  8
LAYER_1
 10
-33.38992352305382
 20
13.658647
 30
0.0
 11
-33.33912752305382
 21
14.620072
 31
0.0
  0
LINE
  5
4C8
  8
LAYER_1
 10
-33.33912752305382
 20
14.620072
 30
0.0
 11
-32.85409952305382
 21
15.423173
 31
0.0
  0
LINE
  5
4C9
  8
LAYER_1
 10
-32.85409952305382
 20
15.423173
 30
0.0
 11
-31.91975652305382
 21
15.973579
 31
0.0
  0
LINE
  5
4CA
  8
LAYER_1
 10
-31.91975652305382
 20
15.973579
 30
0.0
 11
-30.52101352305382
 21
16.176918
 31
0.0
  0
LINE
  5
4CB
  8
LAYER_1
 10
-30.52101352305382
 20
16.176918
 30
0.0
 11
-29.52242052305383
 21
16.017315
 31
0.0
  0
LINE
  5
4CC
  8
LAYER_1
 10
-29.52242052305383
 20
16.017315
 30
0.0
 11
-28.58906952305382
 21
15.635068
 31
0.0
  0
LINE
  5
4CD
  8
LAYER_1
 10
-28.58906952305382
 20
15.635068
 30
0.0
 11
-28.10987552305382
 21
15.292777
 31
0.0
  0
LINE
  5
4CE
  8
LAYER_1
 10
-28.10987552305382
 20
15.292777
 30
0.0
 11
-27.81468152305382
 21
14.892777
 31
0.0
  0
LINE
  5
4CF
  8
LAYER_1
 10
-27.81468152305382
 20
14.892777
 30
0.0
 11
-27.49758152305383
 21
13.331433
 31
0.0
  0
LINE
  5
4D0
  8
LAYER_1
 10
-27.49758152305383
 20
13.331433
 30
0.0
 11
-27.06805352305382
 21
10.784309
 31
0.0
  0
LINE
  5
4D1
  8
LAYER_1
 10
-27.06805352305382
 20
10.784309
 30
0.0
 11
-27.00020652305382
 21
10.091969
 31
0.0
  0
LINE
  5
4D2
  8
LAYER_1
 10
-27.00020652305382
 20
10.091969
 30
0.0
 11
-27.34644552305382
 21
9.762138
 31
0.0
  0
LINE
  5
4D3
  8
LAYER_1
 10
-27.34644552305382
 20
9.762138
 30
0.0
 11
-28.17459152305382
 21
9.776604000000001
 31
0.0
  0
LINE
  5
4D4
  8
LAYER_1
 10
-28.17459152305382
 20
9.776604000000001
 30
0.0
 11
-29.55246352305382
 21
10.117156
 31
0.0
  0
LINE
  5
4D5
  8
LAYER_1
 10
-29.55246352305382
 20
10.117156
 30
0.0
 11
-29.55246352305382
 21
10.117156
 31
0.0
  0
LINE
  5
4D6
  8
0
  6
BYBLOCK
 10
-7.461975044864523
 20
-3.211352587623708
 30
0.0
 11
-24.89682375105249
 21
-3.211352587623708
 31
0.0
  0
LINE
  5
4D7
  8
0
  6
BYBLOCK
 10
-24.89682375105249
 20
-3.211352587623708
 30
0.0
 11
-26.46704304446693
 21
6.209963172862955
 31
0.0
  0
ARC
  5
4D8
  8
0
  6
BYBLOCK
 10
0.0445925111852505
 20
12.41281052170991
 30
0.0
 40
18.1048126728383
 50
105.3292312827498
 51
157.109631648648
  0
ARC
  5
4D9
  8
0
  6
BYBLOCK
 10
-6.775437687966122
 20
37.20870511824777
 30
0.0
 40
7.611920698994543
 50
285.4965004415001
 51
30.55448357555595
  0
ARC
  5
4DA
  8
0
  6
BYBLOCK
 10
-1.710607662642909
 20
16.50274838920847
 30
0.0
 40
15.2130836307162
 50
102.6282195913641
 51
168.810092641726
  0
ARC
  5
4DB
  8
0
  6
BYBLOCK
 10
-6.998803625916715
 20
38.37612510864673
 30
0.0
 40
7.297093446351696
 50
285.5993442513489
 51
21.73448429709153
  0
LINE
  5
4F0
  8
LAYER_1
 10
-47.7250448921786
 20
18.36577751079239
 30
0.0
 11
-68.95579700728459
 21
18.38667505062807
 31
0.0
  0
LINE
  5
4F1
  8
LAYER_1
 10
-68.93530599954684
 20
18.36910482317211
 30
0.0
 11
-69.82252434971221
 21
18.40061740636878
 31
0.0
  0
LINE
  5
4F2
  8
LAYER_1
 10
-69.82252434971221
 20
18.40061740636878
 30
0.0
 11
-71.03110173339778
 21
18.39085610001011
 31
0.0
  0
LINE
  5
4F3
  8
LAYER_1
 10
-71.03110173339778
 20
18.39085610001011
 30
0.0
 11
-72.26436614552435
 21
17.86117705188093
 31
0.0
  0
LINE
  5
4F4
  8
LAYER_1
 10
-72.26436614552435
 20
17.86117705188093
 30
0.0
 11
-73.35837239712492
 21
16.99256250610077
 31
0.0
  0
LINE
  5
4F5
  8
LAYER_1
 10
-73.35837239712492
 20
16.99256250610077
 30
0.0
 11
-74.0405398329988
 21
15.8911708995805
 31
0.0
  0
LINE
  5
4F6
  8
LAYER_1
 10
-74.0405398329988
 20
15.8911708995805
 30
0.0
 11
-74.32918509956949
 21
14.64573715300411
 31
0.0
  0
LINE
  5
4F7
  8
LAYER_1
 10
-74.32918509956949
 20
14.64573715300411
 30
0.0
 11
-74.24262003269689
 21
13.34499787775855
 31
0.0
  0
LINE
  5
4F8
  8
LAYER_1
 10
-74.24262003269689
 20
13.34499787775855
 30
0.0
 11
-73.79916155903166
 21
12.0776899747987
 31
0.0
  0
LINE
  5
4F9
  8
LAYER_1
 10
-73.79916155903166
 20
12.0776899747987
 30
0.0
 11
-73.01712250456899
 21
10.93254991539805
 31
0.0
  0
LINE
  5
4FA
  8
LAYER_1
 10
-73.01712250456899
 20
10.93254991539805
 30
0.0
 11
-71.91481880582407
 21
9.998314740624963
 31
0.0
  0
LINE
  5
4FB
  8
LAYER_1
 10
-71.91481880582407
 20
9.998314740624963
 30
0.0
 11
-70.60840115600132
 21
9.190151381709914
 31
0.0
  0
LINE
  5
4FC
  8
LAYER_1
 10
-70.60840115600132
 20
9.190151381709914
 30
0.0
 11
-65.91247606199393
 21
6.20067454290267
 31
0.0
  0
LINE
  5
509
  8
LAYER_1
 10
-70.23561106477584
 20
10.88465179637123
 30
0.0
 11
-70.93484608946471
 21
11.31087396327982
 31
0.0
  0
LINE
  5
50A
  8
LAYER_1
 10
-70.93484608946471
 20
11.31087396327982
 30
0.0
 11
-71.58141869775827
 21
11.79083096862144
 31
0.0
  0
LINE
  5
50B
  8
LAYER_1
 10
-71.58141869775827
 20
11.79083096862144
 30
0.0
 11
-72.0878610884005
 21
12.39801413929863
 31
0.0
  0
LINE
  5
50C
  8
LAYER_1
 10
-72.0878610884005
 20
12.39801413929863
 30
0.0
 11
-72.43946712519681
 21
13.0928122566956
 31
0.0
  0
LINE
  5
50D
  8
LAYER_1
 10
-72.43946712519681
 20
13.0928122566956
 30
0.0
 11
-72.62153223188307
 21
13.83561085156323
 31
0.0
  0
LINE
  5
50E
  8
LAYER_1
 10
-72.62153223188307
 20
13.83561085156323
 30
0.0
 11
-72.61934999203763
 21
14.58679672501484
 31
0.0
  0
LINE
  5
50F
  8
LAYER_1
 10
-72.61934999203763
 20
14.58679672501484
 30
0.0
 11
-72.41821511948797
 21
15.3067575281857
 31
0.0
  0
LINE
  5
510
  8
LAYER_1
 10
-72.41821511948797
 20
15.3067575281857
 30
0.0
 11
-72.00342204783439
 21
15.95587893194017
 31
0.0
  0
LINE
  5
511
  8
LAYER_1
 10
-72.00342204783439
 20
15.95587893194017
 30
0.0
 11
-71.36708422680252
 21
16.49190410376837
 31
0.0
  0
LINE
  5
512
  8
LAYER_1
 10
-71.36708422680252
 20
16.49190410376837
 30
0.0
 11
-70.63605277523396
 21
16.76194834954212
 31
0.0
  0
LINE
  5
513
  8
LAYER_1
 10
-70.63605277523396
 20
16.76194834954212
 30
0.0
 11
-69.81879713427296
 21
16.76451926425534
 31
0.0
  0
LINE
  5
514
  8
LAYER_1
 10
-69.81879713427296
 20
16.76451926425534
 30
0.0
 11
-69.0155707662197
 21
16.5103931730468
 31
0.0
  0
LINE
  5
515
  8
LAYER_1
 10
-69.0155707662197
 20
16.5103931730468
 30
0.0
 11
-68.67667068328743
 21
16.17149309011454
 31
0.0
  0
LINE
  5
516
  8
LAYER_1
 10
-68.67667068328743
 20
16.17149309011454
 30
0.0
 11
-68.40843300728457
 21
15.73373405062807
 31
0.0
  0
LINE
  5
517
  8
LAYER_1
 10
-68.40843300728457
 20
15.73373405062807
 30
0.0
 11
-67.82187900728454
 21
14.08752205062807
 31
0.0
  0
LINE
  5
518
  8
LAYER_1
 10
-67.82187900728454
 20
14.08752205062807
 30
0.0
 11
-66.39426231814798
 21
8.609605823672911
 31
0.0
  0
LINE
  5
51D
  8
LAYER_1
 10
-66.39426231814798
 20
8.609605823672911
 30
0.0
 11
-70.23561106477584
 21
10.88465179637123
 31
0.0
  0
LINE
  5
523
  8
LAYER_1
 10
-58.90762671019852
 20
18.99069628648486
 30
0.0
 11
-59.4409619364941
 21
23.23965491788385
 31
0.0
  0
LINE
  5
524
  8
LAYER_1
 10
-59.4409619364941
 20
23.23965491788385
 30
0.0
 11
-59.7817409364941
 21
25.12641891788385
 31
0.0
  0
LINE
  5
525
  8
LAYER_1
 10
-59.7817409364941
 20
25.12641891788385
 30
0.0
 11
-60.01111293649411
 21
26.08968591788385
 31
0.0
  0
LINE
  5
526
  8
LAYER_1
 10
-60.01111293649411
 20
26.08968591788385
 30
0.0
 11
-60.03676693649408
 21
26.90048791788385
 31
0.0
  0
LINE
  5
527
  8
LAYER_1
 10
-60.03676693649408
 20
26.90048791788385
 30
0.0
 11
-59.85036593649409
 21
27.56623191788385
 31
0.0
  0
LINE
  5
528
  8
LAYER_1
 10
-59.85036593649409
 20
27.56623191788385
 30
0.0
 11
-59.4435729364941
 21
28.09432491788385
 31
0.0
  0
LINE
  5
529
  8
LAYER_1
 10
-59.4435729364941
 20
28.09432491788385
 30
0.0
 11
-58.80805193649412
 21
28.49217091788385
 31
0.0
  0
LINE
  5
52A
  8
LAYER_1
 10
-58.80805193649412
 20
28.49217091788385
 30
0.0
 11
-57.93546493649411
 21
28.76717691788385
 31
0.0
  0
LINE
  5
52B
  8
LAYER_1
 10
-57.93546493649411
 20
28.76717691788385
 30
0.0
 11
-55.4457469364941
 21
28.97829491788385
 31
0.0
  0
LINE
  5
52C
  8
LAYER_1
 10
-55.4457469364941
 20
28.97829491788385
 30
0.0
 11
-53.3231879364941
 21
29.16241591788385
 31
0.0
  0
LINE
  5
52D
  8
LAYER_1
 10
-53.3231879364941
 20
29.16241591788385
 30
0.0
 11
-51.43067493649409
 21
29.75369791788385
 31
0.0
  0
LINE
  5
52E
  8
LAYER_1
 10
-51.43067493649409
 20
29.75369791788385
 30
0.0
 11
-49.63765293649409
 21
30.81052391788385
 31
0.0
  0
LINE
  5
52F
  8
LAYER_1
 10
-49.63765293649409
 20
30.81052391788385
 30
0.0
 11
-48.40529028351889
 21
32.45719951756914
 31
0.0
  0
LINE
  5
530
  8
LAYER_1
 10
-48.40529028351889
 20
32.45719951756914
 30
0.0
 11
-47.41106107206181
 21
36.33790063325645
 31
0.0
  0
LINE
  5
544
  8
LAYER_1
 10
-47.41106107206181
 20
36.33790063325645
 30
0.0
 11
-49.92165011640008
 21
32.10742982793086
 31
0.0
  0
LINE
  5
545
  8
LAYER_1
 10
-49.98579393649408
 20
32.07535791788385
 30
0.0
 11
-51.5186019364941
 21
31.12428191788385
 31
0.0
  0
LINE
  5
546
  8
LAYER_1
 10
-51.5186019364941
 20
31.12428191788385
 30
0.0
 11
-53.4076069364941
 21
30.42387091788385
 31
0.0
  0
LINE
  5
547
  8
LAYER_1
 10
-53.4076069364941
 20
30.42387091788385
 30
0.0
 11
-56.14308693649409
 21
30.11623791788385
 31
0.0
  0
LINE
  5
548
  8
LAYER_1
 10
-56.14308693649409
 20
30.11623791788385
 30
0.0
 11
-58.99415564396661
 21
29.72167782836774
 31
0.0
  0
LINE
  5
549
  8
LAYER_1
 10
-58.99415564396661
 20
29.72167782836774
 30
0.0
 11
-60.22031493649411
 21
28.75728991788385
 31
0.0
  0
LINE
  5
54A
  8
LAYER_1
 10
-60.22031493649411
 20
28.75728991788385
 30
0.0
 11
-60.9416709364941
 21
27.85520791788385
 31
0.0
  0
LINE
  5
54B
  8
LAYER_1
 10
-60.9416709364941
 20
27.85520791788385
 30
0.0
 11
-61.2549249364941
 21
27.03812891788385
 31
0.0
  0
LINE
  5
54C
  8
LAYER_1
 10
-61.2549249364941
 20
27.03812891788385
 30
0.0
 11
-61.1837449364941
 21
26.13816991788385
 31
0.0
  0
LINE
  5
54D
  8
LAYER_1
 10
-61.1837449364941
 20
26.13816991788385
 30
0.0
 11
-60.75179893649409
 21
24.98744691788385
 31
0.0
  0
LINE
  5
54E
  8
LAYER_1
 10
-60.75179893649409
 20
24.98744691788385
 30
0.0
 11
-60.22269993649412
 21
23.28972491788385
 31
0.0
  0
LINE
  5
54F
  8
LAYER_1
 10
-60.22269993649412
 20
23.28972491788385
 30
0.0
 11
-58.90762671019852
 21
18.99069628648486
 31
0.0
  0
LINE
  5
558
  8
LAYER_1
 10
-57.51120070926708
 20
19.02321722803529
 30
0.0
 11
-57.00805528499401
 21
22.81004857914306
 31
0.0
  0
LINE
  5
559
  8
LAYER_1
 10
-57.00805528499401
 20
22.81004857914306
 30
0.0
 11
-56.74324190379766
 21
24.00170879452663
 31
0.0
  0
LINE
  5
55A
  8
LAYER_1
 10
-56.74324190379766
 20
24.00170879452663
 30
0.0
 11
-56.57595393649411
 21
24.65273991788385
 31
0.0
  0
LINE
  5
55B
  8
LAYER_1
 10
-56.57595393649411
 20
24.65273991788385
 30
0.0
 11
-56.12502293649408
 21
24.99369991788385
 31
0.0
  0
LINE
  5
55C
  8
LAYER_1
 10
-56.12502293649408
 20
24.99369991788385
 30
0.0
 11
-54.7279169364941
 21
25.44949691788385
 31
0.0
  0
LINE
  5
55D
  8
LAYER_1
 10
-54.7279169364941
 20
25.44949691788385
 30
0.0
 11
-52.4213179364941
 21
25.74544491788385
 31
0.0
  0
LINE
  5
55E
  8
LAYER_1
 10
-52.4213179364941
 20
25.74544491788385
 30
0.0
 11
-49.8751409364941
 21
26.19069391788385
 31
0.0
  0
LINE
  5
55F
  8
LAYER_1
 10
-49.8751409364941
 20
26.19069391788385
 30
0.0
 11
-48.80726393649412
 21
26.58328891788385
 31
0.0
  0
LINE
  5
560
  8
LAYER_1
 10
-48.80726393649412
 20
26.58328891788385
 30
0.0
 11
-47.8161659364941
 21
27.12834291788385
 31
0.0
  0
LINE
  5
561
  8
LAYER_1
 10
-47.8161659364941
 20
27.12834291788385
 30
0.0
 11
-46.85682893649409
 21
27.85521491788385
 31
0.0
  0
LINE
  5
562
  8
LAYER_1
 10
-46.85682893649409
 20
27.85521491788385
 30
0.0
 11
-45.88423093649409
 21
28.79326391788385
 31
0.0
  0
LINE
  5
563
  8
LAYER_1
 10
-45.88423093649409
 20
28.79326391788385
 30
0.0
 11
-43.7191709364941
 21
31.42032791788385
 31
0.0
  0
LINE
  5
564
  8
LAYER_1
 10
-43.7191709364941
 20
31.42032791788385
 30
0.0
 11
-42.5583859364941
 21
32.77914391788386
 31
0.0
  0
LINE
  5
565
  8
LAYER_1
 10
-42.4942421164001
 20
32.81121582793085
 30
0.0
 11
-41.50982962341332
 21
34.12493884001327
 31
0.0
  0
LINE
  5
566
  8
LAYER_1
 10
-41.50982962341332
 20
34.12493884001327
 30
0.0
 11
-40.0986655813452
 21
36.46618827344447
 31
0.0
  0
LINE
  5
57E
  8
LAYER_1
 10
-40.0986655813452
 20
36.46618827344447
 30
0.0
 11
-41.95883636407136
 21
34.95880850123534
 31
0.0
  0
LINE
  5
57F
  8
LAYER_1
 10
-41.95883636407136
 20
34.95880850123534
 30
0.0
 11
-43.36575911640011
 21
33.59568082793085
 31
0.0
  0
LINE
  5
580
  8
LAYER_1
 10
-43.42990293649411
 20
33.56360891788386
 30
0.0
 11
-44.90767593649409
 21
32.01952391788385
 31
0.0
  0
LINE
  5
581
  8
LAYER_1
 10
-44.90767593649409
 20
32.01952391788385
 30
0.0
 11
-46.35748293649409
 21
30.24151391788385
 31
0.0
  0
LINE
  5
582
  8
LAYER_1
 10
-46.35748293649409
 20
30.24151391788385
 30
0.0
 11
-47.62245693649408
 21
28.82869391788385
 31
0.0
  0
LINE
  5
583
  8
LAYER_1
 10
-47.62245693649408
 20
28.82869391788385
 30
0.0
 11
-49.04525493649408
 21
27.81576591788385
 31
0.0
  0
LINE
  5
584
  8
LAYER_1
 10
-49.04525493649408
 20
27.81576591788385
 30
0.0
 11
-50.7953379364941
 21
27.11098891788385
 31
0.0
  0
LINE
  5
585
  8
LAYER_1
 10
-50.7953379364941
 20
27.11098891788385
 30
0.0
 11
-53.0421649364941
 21
26.62262291788385
 31
0.0
  0
LINE
  5
586
  8
LAYER_1
 10
-53.0421649364941
 20
26.62262291788385
 30
0.0
 11
-55.19791593649411
 21
26.15748991788385
 31
0.0
  0
LINE
  5
587
  8
LAYER_1
 10
-55.19791593649411
 20
26.15748991788385
 30
0.0
 11
-56.63731655131912
 21
25.53762640546544
 31
0.0
  0
LINE
  5
588
  8
LAYER_1
 10
-56.63731655131912
 20
25.53762640546544
 30
0.0
 11
-57.19342465183146
 21
25.06096231931202
 31
0.0
  0
LINE
  5
589
  8
LAYER_1
 10
-57.19342465183146
 20
25.06096231931202
 30
0.0
 11
-57.48471937114744
 21
24.18707816136407
 31
0.0
  0
LINE
  5
58A
  8
LAYER_1
 10
-57.48471937114744
 20
24.18707816136407
 30
0.0
 11
-57.51120070926708
 21
19.02321722803529
 31
0.0
  0
LINE
  5
58F
  8
0
  6
BYBLOCK
 10
-65.91247606199393
 20
6.20067454290267
 30
0.0
 11
-63.86488447333922
 21
-3.194157452101276
 31
0.0
  0
LINE
  5
590
  8
0
  6
BYBLOCK
 10
-63.86488447333922
 20
-3.194157452101276
 30
0.0
 11
-50.61576242910289
 21
-3.194157452101276
 31
0.0
  0
LINE
  5
591
  8
0
  6
BYBLOCK
 10
-50.61576242910289
 20
-3.194157452101276
 30
0.0
 11
-47.7250448921786
 21
18.36577751079239
 31
0.0
  0
ENDSEC
  0
EOF
