  0
SECTION
  2
HEADER
  9
$ACADVER
  1
AC1009
  9
$DWGCODEPAGE
  3
ansi_1252
  9
$INSBASE
 10
0.0
 20
0.0
 30
0.0
  9
$EXTMIN
 10
0.2358905568601201
 20
0.0210491812655384
 30
0.0
  9
$EXTMAX
 10
7.39207716943619
 20
8.766109725282536
 30
0.5
  9
$LIMMIN
 10
0.0
 20
0.0
  9
$LIMMAX
 10
12.0
 20
9.0
  9
$ORTHOMODE
 70
     0
  9
$REGENMODE
 70
     1
  9
$FILLMODE
 70
     1
  9
$QTEXTMODE
 70
     0
  9
$MIRRTEXT
 70
     1
  9
$DRAGMODE
 70
     2
  9
$LTSCALE
 40
1.0
  9
$OSMODE
 70
    37
  9
$ATTMODE
 70
     1
  9
$TEXTSIZE
 40
0.2
  9
$TRACEWID
 40
0.05
  9
$TEXTSTYLE
  7
STANDARD
  9
$CLAYER
  8
0
  9
$CELTYPE
  6
BYBLOCK
  9
$CECOLOR
 62
   256
  9
$DIMSCALE
 40
1.0
  9
$DIMASZ
 40
0.18
  9
$DIMEXO
 40
0.0625
  9
$DIMDLI
 40
0.38
  9
$DIMRND
 40
0.0
  9
$DIMDLE
 40
0.0
  9
$DIMEXE
 40
0.18
  9
$DIMTP
 40
0.0
  9
$DIMTM
 40
0.0
  9
$DIMTXT
 40
0.18
  9
$DIMCEN
 40
0.09
  9
$DIMTSZ
 40
0.0
  9
$DIMTOL
 70
     0
  9
$DIMLIM
 70
     0
  9
$DIMTIH
 70
     1
  9
$DIMTOH
 70
     1
  9
$DIMSE1
 70
     0
  9
$DIMSE2
 70
     0
  9
$DIMTAD
 70
     0
  9
$DIMZIN
 70
     0
  9
$DIMBLK
  1

  9
$DIMASO
 70
     1
  9
$DIMSHO
 70
     1
  9
$DIMPOST
  1

  9
$DIMAPOST
  1

  9
$DIMALT
 70
     0
  9
$DIMALTD
 70
     2
  9
$DIMALTF
 40
25.4
  9
$DIMLFAC
 40
1.0
  9
$DIMTOFL
 70
     0
  9
$DIMTVP
 40
0.0
  9
$DIMTIX
 70
     0
  9
$DIMSOXD
 70
     0
  9
$DIMSAH
 70
     0
  9
$DIMBLK1
  1

  9
$DIMBLK2
  1

  9
$DIMSTYLE
  2
STANDARD
  9
$DIMCLRD
 70
     0
  9
$DIMCLRE
 70
     0
  9
$DIMCLRT
 70
     0
  9
$DIMTFAC
 40
1.0
  9
$DIMGAP
 40
0.09
  9
$LUNITS
 70
     2
  9
$LUPREC
 70
     4
  9
$SKETCHINC
 40
0.1
  9
$FILLETRAD
 40
0.5
  9
$AUNITS
 70
     0
  9
$AUPREC
 70
     0
  9
$MENU
  1
.
  9
$ELEVATION
 40
0.0
  9
$PELEVATION
 40
0.0
  9
$THICKNESS
 40
0.0
  9
$LIMCHECK
 70
     0
  9
$CHAMFERA
 40
0.5
  9
$CHAMFERB
 40
0.5
  9
$SKPOLY
 70
     0
  9
$TDCREATE
 40
2453353.550459155
  9
$TDUPDATE
 40
9819916.039887408
  9
$TDINDWG
 40
9791572.06217926
  9
$TDUSRTIMER
 40
9791572.06217926
  9
$USRTIMER
 70
     1
  9
$ANGBASE
 50
0.0
  9
$ANGDIR
 70
     0
  9
$PDMODE
 70
     0
  9
$PDSIZE
 40
0.0
  9
$PLINEWID
 40
0.0
  9
$COORDS
 70
     1
  9
$SPLFRAME
 70
     0
  9
$SPLINETYPE
 70
     6
  9
$SPLINESEGS
 70
     8
  9
$ATTDIA
 70
     0
  9
$ATTREQ
 70
     1
  9
$HANDLING
 70
     1
  9
$HANDSEED
  5
75B
  9
$SURFTAB1
 70
     6
  9
$SURFTAB2
 70
     6
  9
$SURFTYPE
 70
     6
  9
$SURFU
 70
     6
  9
$SURFV
 70
     6
  9
$UCSNAME
  2

  9
$UCSORG
 10
0.0
 20
0.0
 30
0.0
  9
$UCSXDIR
 10
1.0
 20
0.0
 30
0.0
  9
$UCSYDIR
 10
0.0
 20
1.0
 30
0.0
  9
$PUCSNAME
  2

  9
$PUCSORG
 10
0.0
 20
0.0
 30
0.0
  9
$PUCSXDIR
 10
1.0
 20
0.0
 30
0.0
  9
$PUCSYDIR
 10
0.0
 20
1.0
 30
0.0
  9
$USERI1
 70
     0
  9
$USERI2
 70
     0
  9
$USERI3
 70
     0
  9
$USERI4
 70
     0
  9
$USERI5
 70
     0
  9
$USERR1
 40
0.0
  9
$USERR2
 40
0.0
  9
$USERR3
 40
0.0
  9
$USERR4
 40
0.0
  9
$USERR5
 40
0.0
  9
$WORLDVIEW
 70
     1
  9
$SHADEDGE
 70
     3
  9
$SHADEDIF
 70
    70
  9
$TILEMODE
 70
     1
  9
$MAXACTVP
 70
    64
  9
$PLIMCHECK
 70
     0
  9
$PEXTMIN
 10
0.0
 20
0.0
 30
0.0
  9
$PEXTMAX
 10
0.0
 20
0.0
 30
0.0
  9
$PLIMMIN
 10
0.0
 20
0.0
  9
$PLIMMAX
 10
0.0
 20
0.0
  9
$UNITMODE
 70
     0
  9
$VISRETAIN
 70
     1
  9
$PLINEGEN
 70
     0
  9
$PSLTSCALE
 70
     1
  0
ENDSEC
  0
SECTION
  2
TABLES
  0
TABLE
  2
VPORT
 70
     1
  0
VPORT
  2
*ACTIVE
 70
     0
 10
0.0
 20
0.0
 11
1.0
 21
1.0
 12
5.216056965090635
 22
4.252037076501034
 13
0.0
 23
0.0
 14
0.5
 24
0.5
 15
0.5
 25
0.5
 16
0.0
 26
0.0
 36
1.0
 17
0.0
 27
0.0
 37
0.0
 40
10.37522348351462
 41
1.0
 42
50.0
 43
0.0
 44
0.0
 50
0.0
 51
0.0
 71
    16
 72
   100
 73
     1
 74
     3
 75
     0
 76
     0
 77
     0
 78
     0
  0
ENDTAB
  0
TABLE
  2
LTYPE
 70
     1
  0
LTYPE
  2
CONTINUOUS
 70
     0
  3
Solid line
 72
    65
 73
     0
 40
0.0
  0
ENDTAB
  0
TABLE
  2
LAYER
 70
     1
  0
LAYER
  2
0
 70
     0
 62
     7
  6
CONTINUOUS
  0
ENDTAB
  0
TABLE
  2
STYLE
 70
     1
  0
STYLE
  2
STANDARD
 70
     0
 40
0.0
 41
1.0
 50
0.0
 71
     0
 42
0.2
  3
txt
  4

  0
ENDTAB
  0
TABLE
  2
VIEW
 70
     0
  0
ENDTAB
  0
TABLE
  2
UCS
 70
     0
  0
ENDTAB
  0
TABLE
  2
APPID
 70
     1
  0
APPID
  2
ACAD
 70
     0
  0
ENDTAB
  0
TABLE
  2
DIMSTYLE
 70
     1
  0
DIMSTYLE
  2
STANDARD
 70
     0
  3

  4

  5

  6

  7

 40
1.0
 41
0.18
 42
0.0625
 43
0.38
 44
0.18
 45
0.0
 46
0.0
 47
0.0
 48
0.0
140
0.18
141
0.09
142
0.0
143
25.4
144
1.0
145
0.0
146
1.0
147
0.09
 71
     0
 72
     0
 73
     1
 74
     1
 75
     0
 76
     0
 77
     0
 78
     0
170
     0
171
     2
172
     0
173
     0
174
     0
175
     0
176
     0
177
     0
178
     0
  0
ENDTAB
  0
ENDSEC
  0
SECTION
  2
BLOCKS
  0
BLOCK
  8
0
  2
$MODEL_SPACE
 70
     0
 10
0.0
 20
0.0
 30
0.0
  3
$MODEL_SPACE
  1

  0
ENDBLK
  5
21
  8
0
  0
BLOCK
 67
     1
  8
0
  2
$PAPER_SPACE
 70
     0
 10
0.0
 20
0.0
 30
0.0
  3
$PAPER_SPACE
  1

  0
ENDBLK
  5
76
 67
     1
  8
0
  0
ENDSEC
  0
SECTION
  2
ENTITIES
  0
LINE
  5
23
  8
0
 62
    42
 10
2.267159801822308
 20
4.297160463212804
 30
0.5
 11
2.266183801822308
 21
4.322551463212804
 31
0.5
  0
LINE
  5
24
  8
0
 62
    42
 10
2.266183801822308
 20
4.322551463212804
 30
0.5
 11
2.267159801822308
 21
4.357707463212804
 31
0.5
  0
LINE
  5
25
  8
0
 62
    42
 10
2.267159801822308
 20
4.357707463212804
 30
0.5
 11
2.271066801822308
 21
4.392864463212804
 31
0.5
  0
LINE
  5
26
  8
0
 62
    42
 10
2.271066801822308
 20
4.392864463212804
 30
0.5
 11
2.276925801822308
 21
4.428996463212804
 31
0.5
  0
LINE
  5
702
  8
0
 62
    42
 10
2.276925801822308
 20
4.428996463212804
 30
0.5
 11
2.284738801822308
 21
4.464153463212804
 31
0.5
  0
LINE
  5
28
  8
0
 62
    42
 10
2.284738801822308
 20
4.464153463212804
 30
0.5
 11
2.295480801822308
 21
4.499309463212804
 31
0.5
  0
LINE
  5
29
  8
0
 62
    42
 10
2.295480801822308
 20
4.499309463212804
 30
0.5
 11
2.308175801822308
 21
4.535442463212804
 31
0.5
  0
LINE
  5
2A
  8
0
 62
    42
 10
2.308175801822308
 20
4.535442463212804
 30
0.5
 11
2.322823801822307
 21
4.570598463212804
 31
0.5
  0
LINE
  5
2B
  8
0
 62
    42
 10
2.322823801822307
 20
4.570598463212804
 30
0.5
 11
2.340402801822307
 21
4.605754463212804
 31
0.5
  0
LINE
  5
2C
  8
0
 62
    42
 10
2.340402801822307
 20
4.605754463212804
 30
0.5
 11
2.359933801822308
 21
4.639934463212804
 31
0.5
  0
LINE
  5
2D
  8
0
 62
    42
 10
2.359933801822308
 20
4.639934463212804
 30
0.5
 11
2.380441801822308
 21
4.672160463212804
 31
0.5
  0
LINE
  5
2E
  8
0
 62
    42
 10
2.380441801822308
 20
4.672160463212804
 30
0.5
 11
2.401925801822308
 21
4.702434463212804
 31
0.5
  0
LINE
  5
2F
  8
0
 62
    42
 10
2.401925801822308
 20
4.702434463212804
 30
0.5
 11
2.424386801822307
 21
4.730754463212804
 31
0.5
  0
LINE
  5
30
  8
0
 62
    42
 10
2.424386801822307
 20
4.730754463212804
 30
0.5
 11
2.448800801822308
 21
4.757121463212804
 31
0.5
  0
LINE
  5
31
  8
0
 62
    42
 10
2.448800801822308
 20
4.757121463212804
 30
0.5
 11
2.473214801822307
 21
4.781535463212804
 31
0.5
  0
LINE
  5
32
  8
0
 62
    42
 10
2.473214801822307
 20
4.781535463212804
 30
0.5
 11
2.499581801822307
 21
4.803996463212804
 31
0.5
  0
LINE
  5
33
  8
0
 62
    42
 10
2.499581801822307
 20
4.803996463212804
 30
0.5
 11
2.526925801822308
 21
4.823528463212804
 31
0.5
  0
LINE
  5
34
  8
0
 62
    42
 10
2.526925801822308
 20
4.823528463212804
 30
0.5
 11
2.555245801822307
 21
4.842082463212804
 31
0.5
  0
LINE
  5
35
  8
0
 62
    42
 10
2.555245801822307
 20
4.842082463212804
 30
0.5
 11
2.582589801822308
 21
4.857707463212804
 31
0.5
  0
LINE
  5
36
  8
0
 62
    42
 10
2.582589801822308
 20
4.857707463212804
 30
0.5
 11
2.609933801822308
 21
4.870403463212804
 31
0.5
  0
LINE
  5
37
  8
0
 62
    42
 10
2.609933801822308
 20
4.870403463212804
 30
0.5
 11
2.637277801822307
 21
4.881145463212804
 31
0.5
  0
LINE
  5
38
  8
0
 62
    42
 10
2.637277801822307
 20
4.881145463212804
 30
0.5
 11
2.664620801822307
 21
4.889934463212804
 31
0.5
  0
LINE
  5
39
  8
0
 62
    42
 10
2.664620801822307
 20
4.889934463212804
 30
0.5
 11
2.691964801822308
 21
4.895793463212804
 31
0.5
  0
LINE
  5
3A
  8
0
 62
    42
 10
2.691964801822308
 20
4.895793463212804
 30
0.5
 11
2.718331801822307
 21
4.899699463212804
 31
0.5
  0
LINE
  5
3B
  8
0
 62
    42
 10
2.718331801822307
 20
4.899699463212804
 30
0.5
 11
2.745675801822308
 21
4.900676463212804
 31
0.5
  0
LINE
  5
3C
  8
0
 62
    42
 10
2.745675801822308
 20
4.900676463212804
 30
0.5
 11
2.755441801822308
 21
4.900676463212804
 31
0.5
  0
LINE
  5
3D
  8
0
 62
    42
 10
2.755441801822308
 20
4.900676463212804
 30
0.5
 11
2.764230801822308
 21
4.899699463212804
 31
0.5
  0
LINE
  5
3E
  8
0
 62
    42
 10
2.764230801822308
 20
4.899699463212804
 30
0.5
 11
2.773995801822307
 21
4.899699463212804
 31
0.5
  0
LINE
  5
3F
  8
0
 62
    42
 10
2.773995801822307
 20
4.899699463212804
 30
0.5
 11
2.783761801822307
 21
4.898723463212804
 31
0.5
  0
LINE
  5
40
  8
0
 62
    42
 10
2.783761801822307
 20
4.898723463212804
 30
0.5
 11
2.793527801822307
 21
4.897746463212804
 31
0.5
  0
LINE
  5
41
  8
0
 62
    42
 10
2.793527801822307
 20
4.897746463212804
 30
0.5
 11
2.802316801822308
 21
4.895793463212804
 31
0.5
  0
LINE
  5
42
  8
0
 62
    42
 10
2.802316801822308
 20
4.895793463212804
 30
0.5
 11
2.812081801822307
 21
4.893840463212804
 31
0.5
  0
LINE
  5
43
  8
0
 62
    42
 10
2.812081801822307
 20
4.893840463212804
 30
0.5
 11
2.821847801822307
 21
4.891887463212804
 31
0.5
  0
LINE
  5
44
  8
0
 62
    42
 10
2.821847801822307
 20
4.891887463212804
 30
0.5
 11
2.827706801822307
 21
4.890910463212804
 31
0.5
  0
LINE
  5
45
  8
0
 62
    42
 10
2.827706801822307
 20
4.890910463212804
 30
0.5
 11
2.836495801822307
 21
4.887981463212804
 31
0.5
  0
LINE
  5
46
  8
0
 62
    42
 10
2.836495801822307
 20
4.887981463212804
 30
0.5
 11
2.848214801822308
 21
4.884074463212804
 31
0.5
  0
LINE
  5
47
  8
0
 62
    42
 10
2.848214801822308
 20
4.884074463212804
 30
0.5
 11
2.862863801822307
 21
4.879192463212804
 31
0.5
  0
LINE
  5
48
  8
0
 62
    42
 10
2.862863801822307
 20
4.879192463212804
 30
0.5
 11
2.881417801822308
 21
4.872356463212804
 31
0.5
  0
LINE
  5
49
  8
0
 62
    42
 10
2.881417801822308
 20
4.872356463212804
 30
0.5
 11
2.902902801822307
 21
4.865520463212804
 31
0.5
  0
LINE
  5
4A
  8
0
 62
    42
 10
2.902902801822307
 20
4.865520463212804
 30
0.5
 11
2.927316801822308
 21
4.856731463212804
 31
0.5
  0
LINE
  5
4B
  8
0
 62
    42
 10
2.927316801822308
 20
4.856731463212804
 30
0.5
 11
2.955636801822307
 21
4.846965463212804
 31
0.5
  0
LINE
  5
4C
  8
0
 62
    42
 10
2.955636801822307
 20
4.846965463212804
 30
0.5
 11
2.946847801822307
 21
4.818645463212804
 31
0.5
  0
LINE
  5
4D
  8
0
 62
    42
 10
2.946847801822307
 20
4.818645463212804
 30
0.5
 11
2.939034801822308
 21
4.790324463212804
 31
0.5
  0
LINE
  5
4E
  8
0
 62
    42
 10
2.939034801822308
 20
4.790324463212804
 30
0.5
 11
2.932198801822308
 21
4.762004463212804
 31
0.5
  0
LINE
  5
4F
  8
0
 62
    42
 10
2.932198801822308
 20
4.762004463212804
 30
0.5
 11
2.926339801822308
 21
4.732707463212804
 31
0.5
  0
LINE
  5
50
  8
0
 62
    42
 10
2.926339801822308
 20
4.732707463212804
 30
0.5
 11
2.921456801822307
 21
4.704387463212804
 31
0.5
  0
LINE
  5
51
  8
0
 62
    42
 10
2.921456801822307
 20
4.704387463212804
 30
0.5
 11
2.917550801822308
 21
4.675090463212804
 31
0.5
  0
LINE
  5
52
  8
0
 62
    42
 10
2.917550801822308
 20
4.675090463212804
 30
0.5
 11
2.915597801822307
 21
4.644817463212804
 31
0.5
  0
LINE
  5
53
  8
0
 62
    42
 10
2.915597801822307
 20
4.644817463212804
 30
0.5
 11
2.913644801822307
 21
4.615520463212804
 31
0.5
  0
LINE
  5
54
  8
0
 62
    42
 10
2.913644801822307
 20
4.615520463212804
 30
0.5
 11
2.878488801822307
 21
4.615520463212804
 31
0.5
  0
LINE
  5
55
  8
0
 62
    42
 10
2.878488801822307
 20
4.615520463212804
 30
0.5
 11
2.879464801822308
 21
4.628215463212804
 31
0.5
  0
LINE
  5
56
  8
0
 62
    42
 10
2.879464801822308
 20
4.628215463212804
 30
0.5
 11
2.879464801822308
 21
4.639934463212804
 31
0.5
  0
LINE
  5
57
  8
0
 62
    42
 10
2.879464801822308
 20
4.639934463212804
 30
0.5
 11
2.880441801822308
 21
4.650676463212804
 31
0.5
  0
LINE
  5
58
  8
0
 62
    42
 10
2.880441801822308
 20
4.650676463212804
 30
0.5
 11
2.880441801822308
 21
4.661418463212804
 31
0.5
  0
LINE
  5
703
  8
0
 62
    42
 10
2.880441801822308
 20
4.661418463212804
 30
0.5
 11
2.881417801822308
 21
4.671184463212804
 31
0.5
  0
LINE
  5
704
  8
0
 62
    42
 10
2.881417801822308
 20
4.671184463212804
 30
0.5
 11
2.881417801822308
 21
4.680949463212804
 31
0.5
  0
LINE
  5
5B
  8
0
 62
    42
 10
2.881417801822308
 20
4.680949463212804
 30
0.5
 11
2.881417801822308
 21
4.688762463212804
 31
0.5
  0
LINE
  5
5C
  8
0
 62
    42
 10
2.881417801822308
 20
4.688762463212804
 30
0.5
 11
2.881417801822308
 21
4.697551463212804
 31
0.5
  0
LINE
  5
5D
  8
0
 62
    42
 10
2.881417801822308
 20
4.697551463212804
 30
0.5
 11
2.881417801822308
 21
4.719035463212804
 31
0.5
  0
LINE
  5
705
  8
0
 62
    42
 10
2.881417801822308
 20
4.719035463212804
 30
0.5
 11
2.879464801822308
 21
4.739543463212804
 31
0.5
  0
LINE
  5
5F
  8
0
 62
    42
 10
2.879464801822308
 20
4.739543463212804
 30
0.5
 11
2.876534801822308
 21
4.758098463212804
 31
0.5
  0
LINE
  5
60
  8
0
 62
    42
 10
2.876534801822308
 20
4.758098463212804
 30
0.5
 11
2.872628801822307
 21
4.775676463212804
 31
0.5
  0
LINE
  5
61
  8
0
 62
    42
 10
2.872628801822307
 20
4.775676463212804
 30
0.5
 11
2.866769801822307
 21
4.790324463212804
 31
0.5
  0
LINE
  5
62
  8
0
 62
    42
 10
2.866769801822307
 20
4.790324463212804
 30
0.5
 11
2.859933801822308
 21
4.803996463212804
 31
0.5
  0
LINE
  5
63
  8
0
 62
    42
 10
2.859933801822308
 20
4.803996463212804
 30
0.5
 11
2.852120801822307
 21
4.815715463212804
 31
0.5
  0
LINE
  5
64
  8
0
 62
    42
 10
2.852120801822307
 20
4.815715463212804
 30
0.5
 11
2.843331801822307
 21
4.825481463212804
 31
0.5
  0
LINE
  5
65
  8
0
 62
    42
 10
2.843331801822307
 20
4.825481463212804
 30
0.5
 11
2.833566801822308
 21
4.834270463212804
 31
0.5
  0
LINE
  5
66
  8
0
 62
    42
 10
2.833566801822308
 20
4.834270463212804
 30
0.5
 11
2.823800801822308
 21
4.841106463212804
 31
0.5
  0
LINE
  5
67
  8
0
 62
    42
 10
2.823800801822308
 20
4.841106463212804
 30
0.5
 11
2.812081801822307
 21
4.847942463212804
 31
0.5
  0
LINE
  5
68
  8
0
 62
    42
 10
2.812081801822307
 20
4.847942463212804
 30
0.5
 11
2.800363801822307
 21
4.852824463212804
 31
0.5
  0
LINE
  5
69
  8
0
 62
    42
 10
2.800363801822307
 20
4.852824463212804
 30
0.5
 11
2.788644801822307
 21
4.856731463212804
 31
0.5
  0
LINE
  5
6A
  8
0
 62
    42
 10
2.788644801822307
 20
4.856731463212804
 30
0.5
 11
2.774972801822307
 21
4.859660463212804
 31
0.5
  0
LINE
  5
706
  8
0
 62
    42
 10
2.774972801822307
 20
4.859660463212804
 30
0.5
 11
2.761300801822308
 21
4.860637463212804
 31
0.5
  0
LINE
  5
707
  8
0
 62
    42
 10
2.761300801822308
 20
4.860637463212804
 30
0.5
 11
2.747628801822307
 21
4.861614463212804
 31
0.5
  0
LINE
  5
6D
  8
0
 62
    42
 10
2.747628801822307
 20
4.861614463212804
 30
0.5
 11
2.728097801822307
 21
4.860637463212804
 31
0.5
  0
LINE
  5
6E
  8
0
 62
    42
 10
2.728097801822307
 20
4.860637463212804
 30
0.5
 11
2.708566801822308
 21
4.857707463212804
 31
0.5
  0
LINE
  5
6F
  8
0
 62
    42
 10
2.708566801822308
 20
4.857707463212804
 30
0.5
 11
2.689034801822308
 21
4.852824463212804
 31
0.5
  0
LINE
  5
70
  8
0
 62
    42
 10
2.689034801822308
 20
4.852824463212804
 30
0.5
 11
2.668527801822307
 21
4.845989463212804
 31
0.5
  0
LINE
  5
71
  8
0
 62
    42
 10
2.668527801822307
 20
4.845989463212804
 30
0.5
 11
2.648019801822307
 21
4.837199463212804
 31
0.5
  0
LINE
  5
72
  8
0
 62
    42
 10
2.648019801822307
 20
4.837199463212804
 30
0.5
 11
2.627511801822307
 21
4.826457463212804
 31
0.5
  0
LINE
  5
708
  8
0
 62
    42
 10
2.627511801822307
 20
4.826457463212804
 30
0.5
 11
2.607003801822307
 21
4.813762463212804
 31
0.5
  0
LINE
  5
709
  8
0
 62
    42
 10
2.607003801822307
 20
4.813762463212804
 30
0.5
 11
2.586495801822307
 21
4.799114463212804
 31
0.5
  0
LINE
  5
70A
  8
0
 62
    42
 10
2.586495801822307
 20
4.799114463212804
 30
0.5
 11
2.565988801822307
 21
4.781535463212804
 31
0.5
  0
LINE
  5
70B
  8
0
 62
    42
 10
2.565988801822307
 20
4.781535463212804
 30
0.5
 11
2.546456801822307
 21
4.762981463212804
 31
0.5
  0
LINE
  5
77
  8
0
 62
    42
 10
2.546456801822307
 20
4.762981463212804
 30
0.5
 11
2.526925801822308
 21
4.741496463212804
 31
0.5
  0
LINE
  5
78
  8
0
 62
    42
 10
2.526925801822308
 20
4.741496463212804
 30
0.5
 11
2.509347801822307
 21
4.718059463212804
 31
0.5
  0
LINE
  5
79
  8
0
 62
    42
 10
2.509347801822307
 20
4.718059463212804
 30
0.5
 11
2.491769801822307
 21
4.692668463212804
 31
0.5
  0
LINE
  5
7A
  8
0
 62
    42
 10
2.491769801822307
 20
4.692668463212804
 30
0.5
 11
2.475167801822308
 21
4.665324463212804
 31
0.5
  0
LINE
  5
7B
  8
0
 62
    42
 10
2.475167801822308
 20
4.665324463212804
 30
0.5
 11
2.458566801822308
 21
4.635051463212804
 31
0.5
  0
LINE
  5
7C
  8
0
 62
    42
 10
2.458566801822308
 20
4.635051463212804
 30
0.5
 11
2.442941801822308
 21
4.602824463212804
 31
0.5
  0
LINE
  5
7D
  8
0
 62
    42
 10
2.442941801822308
 20
4.602824463212804
 30
0.5
 11
2.429269801822307
 21
4.569621463212804
 31
0.5
  0
LINE
  5
7E
  8
0
 62
    42
 10
2.429269801822307
 20
4.569621463212804
 30
0.5
 11
2.417550801822308
 21
4.535442463212804
 31
0.5
  0
LINE
  5
7F
  8
0
 62
    42
 10
2.417550801822308
 20
4.535442463212804
 30
0.5
 11
2.406808801822308
 21
4.502239463212804
 31
0.5
  0
LINE
  5
80
  8
0
 62
    42
 10
2.406808801822308
 20
4.502239463212804
 30
0.5
 11
2.398019801822307
 21
4.468059463212804
 31
0.5
  0
LINE
  5
81
  8
0
 62
    42
 10
2.398019801822307
 20
4.468059463212804
 30
0.5
 11
2.392159801822308
 21
4.433879463212804
 31
0.5
  0
LINE
  5
82
  8
0
 62
    42
 10
2.392159801822308
 20
4.433879463212804
 30
0.5
 11
2.387277801822307
 21
4.398723463212804
 31
0.5
  0
LINE
  5
83
  8
0
 62
    42
 10
2.387277801822307
 20
4.398723463212804
 30
0.5
 11
2.384347801822308
 21
4.364543463212804
 31
0.5
  0
LINE
  5
84
  8
0
 62
    42
 10
2.384347801822308
 20
4.364543463212804
 30
0.5
 11
2.383370801822307
 21
4.329387463212804
 31
0.5
  0
LINE
  5
85
  8
0
 62
    42
 10
2.383370801822307
 20
4.329387463212804
 30
0.5
 11
2.384347801822308
 21
4.296184463212804
 31
0.5
  0
LINE
  5
86
  8
0
 62
    42
 10
2.384347801822308
 20
4.296184463212804
 30
0.5
 11
2.387277801822307
 21
4.264934463212804
 31
0.5
  0
LINE
  5
87
  8
0
 62
    42
 10
2.387277801822307
 20
4.264934463212804
 30
0.5
 11
2.391183801822308
 21
4.236614463212804
 31
0.5
  0
LINE
  5
88
  8
0
 62
    42
 10
2.391183801822308
 20
4.236614463212804
 30
0.5
 11
2.397042801822308
 21
4.209270463212804
 31
0.5
  0
LINE
  5
89
  8
0
 62
    42
 10
2.397042801822308
 20
4.209270463212804
 30
0.5
 11
2.404855801822308
 21
4.183879463212804
 31
0.5
  0
LINE
  5
8A
  8
0
 62
    42
 10
2.404855801822308
 20
4.183879463212804
 30
0.5
 11
2.414620801822307
 21
4.161418463212804
 31
0.5
  0
LINE
  5
8B
  8
0
 62
    42
 10
2.414620801822307
 20
4.161418463212804
 30
0.5
 11
2.426339801822307
 21
4.139934463212804
 31
0.5
  0
LINE
  5
8C
  8
0
 62
    42
 10
2.426339801822307
 20
4.139934463212804
 30
0.5
 11
2.439034801822308
 21
4.120403463212804
 31
0.5
  0
LINE
  5
8D
  8
0
 62
    42
 10
2.439034801822308
 20
4.120403463212804
 30
0.5
 11
2.453683801822308
 21
4.103801463212804
 31
0.5
  0
LINE
  5
8E
  8
0
 62
    42
 10
2.453683801822308
 20
4.103801463212804
 30
0.5
 11
2.468331801822307
 21
4.089153463212804
 31
0.5
  0
LINE
  5
8F
  8
0
 62
    42
 10
2.468331801822307
 20
4.089153463212804
 30
0.5
 11
2.484933801822308
 21
4.076457463212804
 31
0.5
  0
LINE
  5
90
  8
0
 62
    42
 10
2.484933801822308
 20
4.076457463212804
 30
0.5
 11
2.501534801822308
 21
4.066692463212804
 31
0.5
  0
LINE
  5
91
  8
0
 62
    42
 10
2.501534801822308
 20
4.066692463212804
 30
0.5
 11
2.520089801822308
 21
4.057903463212804
 31
0.5
  0
LINE
  5
70C
  8
0
 62
    42
 10
2.520089801822308
 20
4.057903463212804
 30
0.5
 11
2.538644801822307
 21
4.053020463212804
 31
0.5
  0
LINE
  5
70D
  8
0
 62
    42
 10
2.538644801822307
 20
4.053020463212804
 30
0.5
 11
2.558175801822308
 21
4.049113463212804
 31
0.5
  0
LINE
  5
94
  8
0
 62
    42
 10
2.558175801822308
 20
4.049113463212804
 30
0.5
 11
2.578683801822308
 21
4.048137463212804
 31
0.5
  0
LINE
  5
95
  8
0
 62
    42
 10
2.578683801822308
 20
4.048137463212804
 30
0.5
 11
2.607003801822307
 21
4.050090463212804
 31
0.5
  0
LINE
  5
96
  8
0
 62
    42
 10
2.607003801822307
 20
4.050090463212804
 30
0.5
 11
2.635323801822308
 21
4.056926463212804
 31
0.5
  0
LINE
  5
70E
  8
0
 62
    42
 10
2.635323801822308
 20
4.056926463212804
 30
0.5
 11
2.661691801822308
 21
4.067668463212804
 31
0.5
  0
LINE
  5
70F
  8
0
 62
    42
 10
2.661691801822308
 20
4.067668463212804
 30
0.5
 11
2.688058801822308
 21
4.082317463212804
 31
0.5
  0
LINE
  5
99
  8
0
 62
    42
 10
2.688058801822308
 20
4.082317463212804
 30
0.5
 11
2.714425801822308
 21
4.101848463212804
 31
0.5
  0
LINE
  5
9A
  8
0
 62
    42
 10
2.714425801822308
 20
4.101848463212804
 30
0.5
 11
2.739816801822308
 21
4.125285463212804
 31
0.5
  0
LINE
  5
9B
  8
0
 62
    42
 10
2.739816801822308
 20
4.125285463212804
 30
0.5
 11
2.764230801822308
 21
4.152629463212804
 31
0.5
  0
LINE
  5
9C
  8
0
 62
    42
 10
2.764230801822308
 20
4.152629463212804
 30
0.5
 11
2.788644801822307
 21
4.184856463212804
 31
0.5
  0
LINE
  5
9D
  8
0
 62
    42
 10
2.788644801822307
 20
4.184856463212804
 30
0.5
 11
2.790597801822307
 21
4.187785463212804
 31
0.5
  0
LINE
  5
9E
  8
0
 62
    42
 10
2.790597801822307
 20
4.187785463212804
 30
0.5
 11
2.793527801822307
 21
4.190715463212804
 31
0.5
  0
LINE
  5
9F
  8
0
 62
    42
 10
2.793527801822307
 20
4.190715463212804
 30
0.5
 11
2.795480801822308
 21
4.193645463212804
 31
0.5
  0
LINE
  5
A0
  8
0
 62
    42
 10
2.795480801822308
 20
4.193645463212804
 30
0.5
 11
2.798409801822308
 21
4.195598463212804
 31
0.5
  0
LINE
  5
A1
  8
0
 62
    42
 10
2.798409801822308
 20
4.195598463212804
 30
0.5
 11
2.800363801822307
 21
4.196574463212804
 31
0.5
  0
LINE
  5
A2
  8
0
 62
    42
 10
2.800363801822307
 20
4.196574463212804
 30
0.5
 11
2.803292801822308
 21
4.197551463212804
 31
0.5
  0
LINE
  5
A3
  8
0
 62
    42
 10
2.803292801822308
 20
4.197551463212804
 30
0.5
 11
2.806222801822307
 21
4.198528463212804
 31
0.5
  0
LINE
  5
A4
  8
0
 62
    42
 10
2.806222801822307
 20
4.198528463212804
 30
0.5
 11
2.808175801822308
 21
4.198528463212804
 31
0.5
  0
LINE
  5
A5
  8
0
 62
    42
 10
2.808175801822308
 20
4.198528463212804
 30
0.5
 11
2.810128801822307
 21
4.198528463212804
 31
0.5
  0
LINE
  5
A6
  8
0
 62
    42
 10
2.810128801822307
 20
4.198528463212804
 30
0.5
 11
2.812081801822307
 21
4.198528463212804
 31
0.5
  0
LINE
  5
A7
  8
0
 62
    42
 10
2.812081801822307
 20
4.198528463212804
 30
0.5
 11
2.814034801822308
 21
4.197551463212804
 31
0.5
  0
LINE
  5
A8
  8
0
 62
    42
 10
2.814034801822308
 20
4.197551463212804
 30
0.5
 11
2.815988801822307
 21
4.197551463212804
 31
0.5
  0
LINE
  5
A9
  8
0
 62
    42
 10
2.815988801822307
 20
4.197551463212804
 30
0.5
 11
2.817941801822308
 21
4.196574463212804
 31
0.5
  0
LINE
  5
AA
  8
0
 62
    42
 10
2.817941801822308
 20
4.196574463212804
 30
0.5
 11
2.819894801822307
 21
4.195598463212804
 31
0.5
  0
LINE
  5
AB
  8
0
 62
    42
 10
2.819894801822307
 20
4.195598463212804
 30
0.5
 11
2.820870801822307
 21
4.194621463212804
 31
0.5
  0
LINE
  5
AC
  8
0
 62
    42
 10
2.820870801822307
 20
4.194621463212804
 30
0.5
 11
2.822823801822308
 21
4.192668463212804
 31
0.5
  0
LINE
  5
AD
  8
0
 62
    42
 10
2.822823801822308
 20
4.192668463212804
 30
0.5
 11
2.823800801822308
 21
4.191692463212804
 31
0.5
  0
LINE
  5
AE
  8
0
 62
    42
 10
2.823800801822308
 20
4.191692463212804
 30
0.5
 11
2.825753801822307
 21
4.189739463212804
 31
0.5
  0
LINE
  5
AF
  8
0
 62
    42
 10
2.825753801822307
 20
4.189739463212804
 30
0.5
 11
2.826730801822308
 21
4.188762463212804
 31
0.5
  0
LINE
  5
B0
  8
0
 62
    42
 10
2.826730801822308
 20
4.188762463212804
 30
0.5
 11
2.826730801822308
 21
4.186809463212804
 31
0.5
  0
LINE
  5
B1
  8
0
 62
    42
 10
2.826730801822308
 20
4.186809463212804
 30
0.5
 11
2.827706801822307
 21
4.185832463212804
 31
0.5
  0
LINE
  5
B2
  8
0
 62
    42
 10
2.827706801822307
 20
4.185832463212804
 30
0.5
 11
2.828683801822308
 21
4.183879463212804
 31
0.5
  0
LINE
  5
B3
  8
0
 62
    42
 10
2.828683801822308
 20
4.183879463212804
 30
0.5
 11
2.828683801822308
 21
4.181926463212804
 31
0.5
  0
LINE
  5
B4
  8
0
 62
    42
 10
2.828683801822308
 20
4.181926463212804
 30
0.5
 11
2.828683801822308
 21
4.179973463212804
 31
0.5
  0
LINE
  5
B5
  8
0
 62
    42
 10
2.828683801822308
 20
4.179973463212804
 30
0.5
 11
2.827706801822307
 21
4.175090463212804
 31
0.5
  0
LINE
  5
B6
  8
0
 62
    42
 10
2.827706801822307
 20
4.175090463212804
 30
0.5
 11
2.825753801822307
 21
4.169231463212804
 31
0.5
  0
LINE
  5
B7
  8
0
 62
    42
 10
2.825753801822307
 20
4.169231463212804
 30
0.5
 11
2.822823801822308
 21
4.162395463212804
 31
0.5
  0
LINE
  5
B8
  8
0
 62
    42
 10
2.822823801822308
 20
4.162395463212804
 30
0.5
 11
2.817941801822308
 21
4.154582463212804
 31
0.5
  0
LINE
  5
B9
  8
0
 62
    42
 10
2.817941801822308
 20
4.154582463212804
 30
0.5
 11
2.812081801822307
 21
4.144817463212804
 31
0.5
  0
LINE
  5
BA
  8
0
 62
    42
 10
2.812081801822307
 20
4.144817463212804
 30
0.5
 11
2.804269801822307
 21
4.135051463212804
 31
0.5
  0
LINE
  5
BB
  8
0
 62
    42
 10
2.804269801822307
 20
4.135051463212804
 30
0.5
 11
2.795480801822308
 21
4.123332463212804
 31
0.5
  0
LINE
  5
BC
  8
0
 62
    42
 10
2.795480801822308
 20
4.123332463212804
 30
0.5
 11
2.785714801822308
 21
4.111613463212804
 31
0.5
  0
LINE
  5
BD
  8
0
 62
    42
 10
2.785714801822308
 20
4.111613463212804
 30
0.5
 11
2.773995801822307
 21
4.098918463212804
 31
0.5
  0
LINE
  5
BE
  8
0
 62
    42
 10
2.773995801822307
 20
4.098918463212804
 30
0.5
 11
2.762277801822307
 21
4.086223463212804
 31
0.5
  0
LINE
  5
BF
  8
0
 62
    42
 10
2.762277801822307
 20
4.086223463212804
 30
0.5
 11
2.749581801822307
 21
4.075481463212804
 31
0.5
  0
LINE
  5
C0
  8
0
 62
    42
 10
2.749581801822307
 20
4.075481463212804
 30
0.5
 11
2.736886801822307
 21
4.063762463212804
 31
0.5
  0
LINE
  5
C1
  8
0
 62
    42
 10
2.736886801822307
 20
4.063762463212804
 30
0.5
 11
2.722238801822307
 21
4.053996463212804
 31
0.5
  0
LINE
  5
C2
  8
0
 62
    42
 10
2.722238801822307
 20
4.053996463212804
 30
0.5
 11
2.707589801822308
 21
4.044231463212804
 31
0.5
  0
LINE
  5
C3
  8
0
 62
    42
 10
2.707589801822308
 20
4.044231463212804
 30
0.5
 11
2.692941801822308
 21
4.034465463212804
 31
0.5
  0
LINE
  5
C4
  8
0
 62
    42
 10
2.692941801822308
 20
4.034465463212804
 30
0.5
 11
2.676339801822308
 21
4.025676463212804
 31
0.5
  0
LINE
  5
C5
  8
0
 62
    42
 10
2.676339801822308
 20
4.025676463212804
 30
0.5
 11
2.659738801822307
 21
4.017863463212804
 31
0.5
  0
LINE
  5
C6
  8
0
 62
    42
 10
2.659738801822307
 20
4.017863463212804
 30
0.5
 11
2.644113801822307
 21
4.011028463212804
 31
0.5
  0
LINE
  5
C7
  8
0
 62
    42
 10
2.644113801822307
 20
4.011028463212804
 30
0.5
 11
2.627511801822307
 21
4.005168463212804
 31
0.5
  0
LINE
  5
C8
  8
0
 62
    42
 10
2.627511801822307
 20
4.005168463212804
 30
0.5
 11
2.610909801822308
 21
4.000285463212804
 31
0.5
  0
LINE
  5
C9
  8
0
 62
    42
 10
2.610909801822308
 20
4.000285463212804
 30
0.5
 11
2.595284801822308
 21
3.996379463212804
 31
0.5
  0
LINE
  5
CA
  8
0
 62
    42
 10
2.595284801822308
 20
3.996379463212804
 30
0.5
 11
2.578683801822308
 21
3.993449463212804
 31
0.5
  0
LINE
  5
CB
  8
0
 62
    42
 10
2.578683801822308
 20
3.993449463212804
 30
0.5
 11
2.563058801822308
 21
3.992473463212804
 31
0.5
  0
LINE
  5
CC
  8
0
 62
    42
 10
2.563058801822308
 20
3.992473463212804
 30
0.5
 11
2.547433801822308
 21
3.991496463212804
 31
0.5
  0
LINE
  5
CD
  8
0
 62
    42
 10
2.547433801822308
 20
3.991496463212804
 30
0.5
 11
2.527902801822307
 21
3.992473463212804
 31
0.5
  0
LINE
  5
CE
  8
0
 62
    42
 10
2.527902801822307
 20
3.992473463212804
 30
0.5
 11
2.509347801822307
 21
3.994426463212804
 31
0.5
  0
LINE
  5
CF
  8
0
 62
    42
 10
2.509347801822307
 20
3.994426463212804
 30
0.5
 11
2.490792801822308
 21
3.997356463212804
 31
0.5
  0
LINE
  5
D0
  8
0
 62
    42
 10
2.490792801822308
 20
3.997356463212804
 30
0.5
 11
2.473214801822307
 21
4.001262463212804
 31
0.5
  0
LINE
  5
D1
  8
0
 62
    42
 10
2.473214801822307
 20
4.001262463212804
 30
0.5
 11
2.455636801822307
 21
4.007121463212804
 31
0.5
  0
LINE
  5
D2
  8
0
 62
    42
 10
2.455636801822307
 20
4.007121463212804
 30
0.5
 11
2.438058801822308
 21
4.013957463212804
 31
0.5
  0
LINE
  5
D3
  8
0
 62
    42
 10
2.438058801822308
 20
4.013957463212804
 30
0.5
 11
2.421456801822307
 21
4.021770463212804
 31
0.5
  0
LINE
  5
D4
  8
0
 62
    42
 10
2.421456801822307
 20
4.021770463212804
 30
0.5
 11
2.404855801822308
 21
4.031535463212804
 31
0.5
  0
LINE
  5
D5
  8
0
 62
    42
 10
2.404855801822308
 20
4.031535463212804
 30
0.5
 11
2.388253801822307
 21
4.042278463212804
 31
0.5
  0
LINE
  5
D6
  8
0
 62
    42
 10
2.388253801822307
 20
4.042278463212804
 30
0.5
 11
2.373605801822308
 21
4.053996463212804
 31
0.5
  0
LINE
  5
D7
  8
0
 62
    42
 10
2.373605801822308
 20
4.053996463212804
 30
0.5
 11
2.359933801822308
 21
4.066692463212804
 31
0.5
  0
LINE
  5
D8
  8
0
 62
    42
 10
2.359933801822308
 20
4.066692463212804
 30
0.5
 11
2.346261801822307
 21
4.080363463212804
 31
0.5
  0
LINE
  5
D9
  8
0
 62
    42
 10
2.346261801822307
 20
4.080363463212804
 30
0.5
 11
2.333566801822308
 21
4.095012463212804
 31
0.5
  0
LINE
  5
DA
  8
0
 62
    42
 10
2.333566801822308
 20
4.095012463212804
 30
0.5
 11
2.322823801822307
 21
4.110637463212804
 31
0.5
  0
LINE
  5
DB
  8
0
 62
    42
 10
2.322823801822307
 20
4.110637463212804
 30
0.5
 11
2.312081801822307
 21
4.127239463212804
 31
0.5
  0
LINE
  5
DC
  8
0
 62
    42
 10
2.312081801822307
 20
4.127239463212804
 30
0.5
 11
2.302316801822308
 21
4.145793463212804
 31
0.5
  0
LINE
  5
DD
  8
0
 62
    42
 10
2.302316801822308
 20
4.145793463212804
 30
0.5
 11
2.294503801822307
 21
4.164348463212804
 31
0.5
  0
LINE
  5
DE
  8
0
 62
    42
 10
2.294503801822307
 20
4.164348463212804
 30
0.5
 11
2.286691801822308
 21
4.184856463212804
 31
0.5
  0
LINE
  5
DF
  8
0
 62
    42
 10
2.286691801822308
 20
4.184856463212804
 30
0.5
 11
2.280831801822307
 21
4.205364463212804
 31
0.5
  0
LINE
  5
E0
  8
0
 62
    42
 10
2.280831801822307
 20
4.205364463212804
 30
0.5
 11
2.274972801822308
 21
4.226848463212804
 31
0.5
  0
LINE
  5
E1
  8
0
 62
    42
 10
2.274972801822308
 20
4.226848463212804
 30
0.5
 11
2.271066801822308
 21
4.249309463212804
 31
0.5
  0
LINE
  5
E2
  8
0
 62
    42
 10
2.271066801822308
 20
4.249309463212804
 30
0.5
 11
2.268136801822307
 21
4.272746463212804
 31
0.5
  0
LINE
  5
E3
  8
0
 62
    42
 10
2.268136801822307
 20
4.272746463212804
 30
0.5
 11
2.267159801822308
 21
4.297160463212804
 31
0.5
  0
LINE
  5
E4
  8
0
 62
    42
 10
2.969308801822308
 20
4.436809463212804
 30
0.5
 11
2.972238801822307
 21
4.469035463212804
 31
0.5
  0
LINE
  5
E5
  8
0
 62
    42
 10
2.972238801822307
 20
4.469035463212804
 30
0.5
 11
2.977120801822307
 21
4.500285463212804
 31
0.5
  0
LINE
  5
E6
  8
0
 62
    42
 10
2.977120801822307
 20
4.500285463212804
 30
0.5
 11
2.984933801822308
 21
4.532512463212804
 31
0.5
  0
LINE
  5
E7
  8
0
 62
    42
 10
2.984933801822308
 20
4.532512463212804
 30
0.5
 11
2.993722801822307
 21
4.563762463212804
 31
0.5
  0
LINE
  5
E8
  8
0
 62
    42
 10
2.993722801822307
 20
4.563762463212804
 30
0.5
 11
3.005441801822308
 21
4.594035463212804
 31
0.5
  0
LINE
  5
E9
  8
0
 62
    42
 10
3.005441801822308
 20
4.594035463212804
 30
0.5
 11
3.019113801822307
 21
4.625285463212804
 31
0.5
  0
LINE
  5
EA
  8
0
 62
    42
 10
3.019113801822307
 20
4.625285463212804
 30
0.5
 11
3.033761801822307
 21
4.655559463212804
 31
0.5
  0
LINE
  5
EB
  8
0
 62
    42
 10
3.033761801822307
 20
4.655559463212804
 30
0.5
 11
3.051339801822308
 21
4.684856463212804
 31
0.5
  0
LINE
  5
EC
  8
0
 62
    42
 10
3.051339801822308
 20
4.684856463212804
 30
0.5
 11
3.068917801822308
 21
4.712199463212804
 31
0.5
  0
LINE
  5
ED
  8
0
 62
    42
 10
3.068917801822308
 20
4.712199463212804
 30
0.5
 11
3.087472801822307
 21
4.737590463212804
 31
0.5
  0
LINE
  5
EE
  8
0
 62
    42
 10
3.087472801822307
 20
4.737590463212804
 30
0.5
 11
3.107003801822307
 21
4.762004463212804
 31
0.5
  0
LINE
  5
EF
  8
0
 62
    42
 10
3.107003801822307
 20
4.762004463212804
 30
0.5
 11
3.127511801822307
 21
4.783489463212804
 31
0.5
  0
LINE
  5
F0
  8
0
 62
    42
 10
3.127511801822307
 20
4.783489463212804
 30
0.5
 11
3.149972801822307
 21
4.803020463212804
 31
0.5
  0
LINE
  5
F1
  8
0
 62
    42
 10
3.149972801822307
 20
4.803020463212804
 30
0.5
 11
3.172433801822308
 21
4.821574463212804
 31
0.5
  0
LINE
  5
F2
  8
0
 62
    42
 10
3.172433801822308
 20
4.821574463212804
 30
0.5
 11
3.195870801822307
 21
4.837199463212804
 31
0.5
  0
LINE
  5
F3
  8
0
 62
    42
 10
3.195870801822307
 20
4.837199463212804
 30
0.5
 11
3.220284801822308
 21
4.851848463212804
 31
0.5
  0
LINE
  5
F4
  8
0
 62
    42
 10
3.220284801822308
 20
4.851848463212804
 30
0.5
 11
3.244698801822308
 21
4.863567463212804
 31
0.5
  0
LINE
  5
F5
  8
0
 62
    42
 10
3.244698801822308
 20
4.863567463212804
 30
0.5
 11
3.271066801822308
 21
4.874309463212804
 31
0.5
  0
LINE
  5
F6
  8
0
 62
    42
 10
3.271066801822308
 20
4.874309463212804
 30
0.5
 11
3.298409801822308
 21
4.883098463212804
 31
0.5
  0
LINE
  5
F7
  8
0
 62
    42
 10
3.298409801822308
 20
4.883098463212804
 30
0.5
 11
3.326730801822308
 21
4.888957463212804
 31
0.5
  0
LINE
  5
F8
  8
0
 62
    42
 10
3.326730801822308
 20
4.888957463212804
 30
0.5
 11
3.356027801822307
 21
4.893840463212804
 31
0.5
  0
LINE
  5
F9
  8
0
 62
    42
 10
3.356027801822307
 20
4.893840463212804
 30
0.5
 11
3.385323801822308
 21
4.896770463212804
 31
0.5
  0
LINE
  5
FA
  8
0
 62
    42
 10
3.385323801822308
 20
4.896770463212804
 30
0.5
 11
3.416573801822308
 21
4.897746463212804
 31
0.5
  0
LINE
  5
FB
  8
0
 62
    42
 10
3.416573801822308
 20
4.897746463212804
 30
0.5
 11
3.437081801822307
 21
4.896770463212804
 31
0.5
  0
LINE
  5
FC
  8
0
 62
    42
 10
3.437081801822307
 20
4.896770463212804
 30
0.5
 11
3.456613801822307
 21
4.895793463212804
 31
0.5
  0
LINE
  5
FD
  8
0
 62
    42
 10
3.456613801822307
 20
4.895793463212804
 30
0.5
 11
3.476144801822307
 21
4.892864463212804
 31
0.5
  0
LINE
  5
FE
  8
0
 62
    42
 10
3.476144801822307
 20
4.892864463212804
 30
0.5
 11
3.494698801822307
 21
4.887981463212804
 31
0.5
  0
LINE
  5
FF
  8
0
 62
    42
 10
3.494698801822307
 20
4.887981463212804
 30
0.5
 11
3.513253801822307
 21
4.883098463212804
 31
0.5
  0
LINE
  5
100
  8
0
 62
    42
 10
3.513253801822307
 20
4.883098463212804
 30
0.5
 11
3.530831801822307
 21
4.876262463212804
 31
0.5
  0
LINE
  5
101
  8
0
 62
    42
 10
3.530831801822307
 20
4.876262463212804
 30
0.5
 11
3.548409801822308
 21
4.868449463212804
 31
0.5
  0
LINE
  5
102
  8
0
 62
    42
 10
3.548409801822308
 20
4.868449463212804
 30
0.5
 11
3.565011801822307
 21
4.859660463212804
 31
0.5
  0
LINE
  5
103
  8
0
 62
    42
 10
3.565011801822307
 20
4.859660463212804
 30
0.5
 11
3.580636801822307
 21
4.849895463212804
 31
0.5
  0
LINE
  5
104
  8
0
 62
    42
 10
3.580636801822307
 20
4.849895463212804
 30
0.5
 11
3.596261801822307
 21
4.838176463212804
 31
0.5
  0
LINE
  5
105
  8
0
 62
    42
 10
3.596261801822307
 20
4.838176463212804
 30
0.5
 11
3.609933801822308
 21
4.826457463212804
 31
0.5
  0
LINE
  5
106
  8
0
 62
    42
 10
3.609933801822308
 20
4.826457463212804
 30
0.5
 11
3.623605801822308
 21
4.813762463212804
 31
0.5
  0
LINE
  5
107
  8
0
 62
    42
 10
3.623605801822308
 20
4.813762463212804
 30
0.5
 11
3.635323801822307
 21
4.799114463212804
 31
0.5
  0
LINE
  5
108
  8
0
 62
    42
 10
3.635323801822307
 20
4.799114463212804
 30
0.5
 11
3.647042801822308
 21
4.784465463212804
 31
0.5
  0
LINE
  5
109
  8
0
 62
    42
 10
3.647042801822308
 20
4.784465463212804
 30
0.5
 11
3.657784801822308
 21
4.767864463212804
 31
0.5
  0
LINE
  5
10A
  8
0
 62
    42
 10
3.657784801822308
 20
4.767864463212804
 30
0.5
 11
3.667550801822308
 21
4.751262463212804
 31
0.5
  0
LINE
  5
10B
  8
0
 62
    42
 10
3.667550801822308
 20
4.751262463212804
 30
0.5
 11
3.675363801822308
 21
4.732707463212804
 31
0.5
  0
LINE
  5
10C
  8
0
 62
    42
 10
3.675363801822308
 20
4.732707463212804
 30
0.5
 11
3.683175801822308
 21
4.714153463212804
 31
0.5
  0
LINE
  5
10D
  8
0
 62
    42
 10
3.683175801822308
 20
4.714153463212804
 30
0.5
 11
3.689034801822308
 21
4.694621463212804
 31
0.5
  0
LINE
  5
10E
  8
0
 62
    42
 10
3.689034801822308
 20
4.694621463212804
 30
0.5
 11
3.694894801822307
 21
4.675090463212804
 31
0.5
  0
LINE
  5
10F
  8
0
 62
    42
 10
3.694894801822307
 20
4.675090463212804
 30
0.5
 11
3.698800801822308
 21
4.653606463212804
 31
0.5
  0
LINE
  5
110
  8
0
 62
    42
 10
3.698800801822308
 20
4.653606463212804
 30
0.5
 11
3.701730801822308
 21
4.632121463212804
 31
0.5
  0
LINE
  5
111
  8
0
 62
    42
 10
3.701730801822308
 20
4.632121463212804
 30
0.5
 11
3.702706801822307
 21
4.609660463212804
 31
0.5
  0
LINE
  5
112
  8
0
 62
    42
 10
3.702706801822307
 20
4.609660463212804
 30
0.5
 11
3.703683801822308
 21
4.587199463212804
 31
0.5
  0
LINE
  5
113
  8
0
 62
    42
 10
3.703683801822308
 20
4.587199463212804
 30
0.5
 11
3.702706801822307
 21
4.555949463212804
 31
0.5
  0
LINE
  5
114
  8
0
 62
    42
 10
3.702706801822307
 20
4.555949463212804
 30
0.5
 11
3.699777801822307
 21
4.525676463212804
 31
0.5
  0
LINE
  5
115
  8
0
 62
    42
 10
3.699777801822307
 20
4.525676463212804
 30
0.5
 11
3.694894801822307
 21
4.495403463212804
 31
0.5
  0
LINE
  5
116
  8
0
 62
    42
 10
3.694894801822307
 20
4.495403463212804
 30
0.5
 11
3.687081801822307
 21
4.465129463212804
 31
0.5
  0
LINE
  5
117
  8
0
 62
    42
 10
3.687081801822307
 20
4.465129463212804
 30
0.5
 11
3.678292801822308
 21
4.434856463212804
 31
0.5
  0
LINE
  5
118
  8
0
 62
    42
 10
3.678292801822308
 20
4.434856463212804
 30
0.5
 11
3.666573801822307
 21
4.404582463212804
 31
0.5
  0
LINE
  5
119
  8
0
 62
    42
 10
3.666573801822307
 20
4.404582463212804
 30
0.5
 11
3.652902801822307
 21
4.374309463212804
 31
0.5
  0
LINE
  5
11A
  8
0
 62
    42
 10
3.652902801822307
 20
4.374309463212804
 30
0.5
 11
3.638253801822307
 21
4.344035463212804
 31
0.5
  0
LINE
  5
11B
  8
0
 62
    42
 10
3.638253801822307
 20
4.344035463212804
 30
0.5
 11
3.620675801822308
 21
4.315715463212804
 31
0.5
  0
LINE
  5
11C
  8
0
 62
    42
 10
3.620675801822308
 20
4.315715463212804
 30
0.5
 11
3.603097801822307
 21
4.288371463212804
 31
0.5
  0
LINE
  5
11D
  8
0
 62
    42
 10
3.603097801822307
 20
4.288371463212804
 30
0.5
 11
3.584542801822308
 21
4.262981463212804
 31
0.5
  0
LINE
  5
11E
  8
0
 62
    42
 10
3.584542801822308
 20
4.262981463212804
 30
0.5
 11
3.565011801822307
 21
4.238567463212804
 31
0.5
  0
LINE
  5
11F
  8
0
 62
    42
 10
3.565011801822307
 20
4.238567463212804
 30
0.5
 11
3.544503801822307
 21
4.217082463212804
 31
0.5
  0
LINE
  5
120
  8
0
 62
    42
 10
3.544503801822307
 20
4.217082463212804
 30
0.5
 11
3.523019801822307
 21
4.197551463212804
 31
0.5
  0
LINE
  5
121
  8
0
 62
    42
 10
3.523019801822307
 20
4.197551463212804
 30
0.5
 11
3.500558801822308
 21
4.178996463212804
 31
0.5
  0
LINE
  5
122
  8
0
 62
    42
 10
3.500558801822308
 20
4.178996463212804
 30
0.5
 11
3.477120801822307
 21
4.163371463212804
 31
0.5
  0
LINE
  5
123
  8
0
 62
    42
 10
3.477120801822307
 20
4.163371463212804
 30
0.5
 11
3.452706801822307
 21
4.148723463212804
 31
0.5
  0
LINE
  5
124
  8
0
 62
    42
 10
3.452706801822307
 20
4.148723463212804
 30
0.5
 11
3.428292801822308
 21
4.136028463212804
 31
0.5
  0
LINE
  5
125
  8
0
 62
    42
 10
3.428292801822308
 20
4.136028463212804
 30
0.5
 11
3.402902801822307
 21
4.125285463212804
 31
0.5
  0
LINE
  5
126
  8
0
 62
    42
 10
3.402902801822307
 20
4.125285463212804
 30
0.5
 11
3.376534801822308
 21
4.117473463212804
 31
0.5
  0
LINE
  5
127
  8
0
 62
    42
 10
3.376534801822308
 20
4.117473463212804
 30
0.5
 11
3.350167801822308
 21
4.110637463212804
 31
0.5
  0
LINE
  5
128
  8
0
 62
    42
 10
3.350167801822308
 20
4.110637463212804
 30
0.5
 11
3.322823801822308
 21
4.105754463212804
 31
0.5
  0
LINE
  5
129
  8
0
 62
    42
 10
3.322823801822308
 20
4.105754463212804
 30
0.5
 11
3.295480801822308
 21
4.102824463212804
 31
0.5
  0
LINE
  5
12A
  8
0
 62
    42
 10
3.295480801822308
 20
4.102824463212804
 30
0.5
 11
3.266183801822308
 21
4.101848463212804
 31
0.5
  0
LINE
  5
12B
  8
0
 62
    42
 10
3.266183801822308
 20
4.101848463212804
 30
0.5
 11
3.233956801822307
 21
4.102824463212804
 31
0.5
  0
LINE
  5
12C
  8
0
 62
    42
 10
3.233956801822307
 20
4.102824463212804
 30
0.5
 11
3.202706801822307
 21
4.106731463212804
 31
0.5
  0
LINE
  5
12D
  8
0
 62
    42
 10
3.202706801822307
 20
4.106731463212804
 30
0.5
 11
3.173409801822308
 21
4.113567463212804
 31
0.5
  0
LINE
  5
12E
  8
0
 62
    42
 10
3.173409801822308
 20
4.113567463212804
 30
0.5
 11
3.146066801822308
 21
4.122356463212804
 31
0.5
  0
LINE
  5
12F
  8
0
 62
    42
 10
3.146066801822308
 20
4.122356463212804
 30
0.5
 11
3.119698801822308
 21
4.134074463212804
 31
0.5
  0
LINE
  5
130
  8
0
 62
    42
 10
3.119698801822308
 20
4.134074463212804
 30
0.5
 11
3.095284801822308
 21
4.148723463212804
 31
0.5
  0
LINE
  5
131
  8
0
 62
    42
 10
3.095284801822308
 20
4.148723463212804
 30
0.5
 11
3.071847801822307
 21
4.165324463212804
 31
0.5
  0
LINE
  5
132
  8
0
 62
    42
 10
3.071847801822307
 20
4.165324463212804
 30
0.5
 11
3.050363801822307
 21
4.184856463212804
 31
0.5
  0
LINE
  5
133
  8
0
 62
    42
 10
3.050363801822307
 20
4.184856463212804
 30
0.5
 11
3.031808801822308
 21
4.206340463212804
 31
0.5
  0
LINE
  5
134
  8
0
 62
    42
 10
3.031808801822308
 20
4.206340463212804
 30
0.5
 11
3.014230801822308
 21
4.229778463212804
 31
0.5
  0
LINE
  5
135
  8
0
 62
    42
 10
3.014230801822308
 20
4.229778463212804
 30
0.5
 11
3.000558801822308
 21
4.255168463212804
 31
0.5
  0
LINE
  5
136
  8
0
 62
    42
 10
3.000558801822308
 20
4.255168463212804
 30
0.5
 11
2.988839801822308
 21
4.281535463212804
 31
0.5
  0
LINE
  5
137
  8
0
 62
    42
 10
2.988839801822308
 20
4.281535463212804
 30
0.5
 11
2.980050801822308
 21
4.309856463212804
 31
0.5
  0
LINE
  5
138
  8
0
 62
    42
 10
2.980050801822308
 20
4.309856463212804
 30
0.5
 11
2.973214801822308
 21
4.339153463212804
 31
0.5
  0
LINE
  5
139
  8
0
 62
    42
 10
2.973214801822308
 20
4.339153463212804
 30
0.5
 11
2.969308801822308
 21
4.371379463212804
 31
0.5
  0
LINE
  5
13A
  8
0
 62
    42
 10
2.969308801822308
 20
4.371379463212804
 30
0.5
 11
2.968331801822307
 21
4.404582463212804
 31
0.5
  0
LINE
  5
13B
  8
0
 62
    42
 10
2.968331801822307
 20
4.404582463212804
 30
0.5
 11
2.969308801822308
 21
4.436809463212804
 31
0.5
  0
LINE
  5
13C
  8
0
 62
    42
 10
3.086495801822307
 20
4.412395463212804
 30
0.5
 11
3.085519801822307
 21
4.447551463212804
 31
0.5
  0
LINE
  5
13D
  8
0
 62
    42
 10
3.085519801822307
 20
4.447551463212804
 30
0.5
 11
3.086495801822307
 21
4.477824463212804
 31
0.5
  0
LINE
  5
13E
  8
0
 62
    42
 10
3.086495801822307
 20
4.477824463212804
 30
0.5
 11
3.088448801822308
 21
4.508098463212804
 31
0.5
  0
LINE
  5
13F
  8
0
 62
    42
 10
3.088448801822308
 20
4.508098463212804
 30
0.5
 11
3.091378801822307
 21
4.536418463212804
 31
0.5
  0
LINE
  5
140
  8
0
 62
    42
 10
3.091378801822307
 20
4.536418463212804
 30
0.5
 11
3.095284801822308
 21
4.564739463212804
 31
0.5
  0
LINE
  5
141
  8
0
 62
    42
 10
3.095284801822308
 20
4.564739463212804
 30
0.5
 11
3.101144801822307
 21
4.592082463212804
 31
0.5
  0
LINE
  5
142
  8
0
 62
    42
 10
3.101144801822307
 20
4.592082463212804
 30
0.5
 11
3.107980801822308
 21
4.617473463212804
 31
0.5
  0
LINE
  5
143
  8
0
 62
    42
 10
3.107980801822308
 20
4.617473463212804
 30
0.5
 11
3.116769801822307
 21
4.642864463212804
 31
0.5
  0
LINE
  5
144
  8
0
 62
    42
 10
3.116769801822307
 20
4.642864463212804
 30
0.5
 11
3.125558801822308
 21
4.667278463212804
 31
0.5
  0
LINE
  5
145
  8
0
 62
    42
 10
3.125558801822308
 20
4.667278463212804
 30
0.5
 11
3.136300801822308
 21
4.689739463212804
 31
0.5
  0
LINE
  5
146
  8
0
 62
    42
 10
3.136300801822308
 20
4.689739463212804
 30
0.5
 11
3.147042801822308
 21
4.711223463212804
 31
0.5
  0
LINE
  5
147
  8
0
 62
    42
 10
3.147042801822308
 20
4.711223463212804
 30
0.5
 11
3.159738801822307
 21
4.730754463212804
 31
0.5
  0
LINE
  5
148
  8
0
 62
    42
 10
3.159738801822307
 20
4.730754463212804
 30
0.5
 11
3.172433801822308
 21
4.749309463212804
 31
0.5
  0
LINE
  5
149
  8
0
 62
    42
 10
3.172433801822308
 20
4.749309463212804
 30
0.5
 11
3.185128801822307
 21
4.765910463212804
 31
0.5
  0
LINE
  5
14A
  8
0
 62
    42
 10
3.185128801822307
 20
4.765910463212804
 30
0.5
 11
3.199777801822307
 21
4.780559463212804
 31
0.5
  0
LINE
  5
14B
  8
0
 62
    42
 10
3.199777801822307
 20
4.780559463212804
 30
0.5
 11
3.214425801822308
 21
4.794231463212804
 31
0.5
  0
LINE
  5
14C
  8
0
 62
    42
 10
3.214425801822308
 20
4.794231463212804
 30
0.5
 11
3.230050801822308
 21
4.805949463212804
 31
0.5
  0
LINE
  5
14D
  8
0
 62
    42
 10
3.230050801822308
 20
4.805949463212804
 30
0.5
 11
3.245675801822308
 21
4.816692463212804
 31
0.5
  0
LINE
  5
14E
  8
0
 62
    42
 10
3.245675801822308
 20
4.816692463212804
 30
0.5
 11
3.262277801822307
 21
4.825481463212804
 31
0.5
  0
LINE
  5
14F
  8
0
 62
    42
 10
3.262277801822307
 20
4.825481463212804
 30
0.5
 11
3.278878801822307
 21
4.833293463212804
 31
0.5
  0
LINE
  5
150
  8
0
 62
    42
 10
3.278878801822307
 20
4.833293463212804
 30
0.5
 11
3.296456801822307
 21
4.840129463212804
 31
0.5
  0
LINE
  5
151
  8
0
 62
    42
 10
3.296456801822307
 20
4.840129463212804
 30
0.5
 11
3.314034801822308
 21
4.845012463212804
 31
0.5
  0
LINE
  5
152
  8
0
 62
    42
 10
3.314034801822308
 20
4.845012463212804
 30
0.5
 11
3.331613801822307
 21
4.847942463212804
 31
0.5
  0
LINE
  5
153
  8
0
 62
    42
 10
3.331613801822307
 20
4.847942463212804
 30
0.5
 11
3.350167801822308
 21
4.849895463212804
 31
0.5
  0
LINE
  5
154
  8
0
 62
    42
 10
3.350167801822308
 20
4.849895463212804
 30
0.5
 11
3.368722801822307
 21
4.850871463212804
 31
0.5
  0
LINE
  5
155
  8
0
 62
    42
 10
3.368722801822307
 20
4.850871463212804
 30
0.5
 11
3.391183801822308
 21
4.849895463212804
 31
0.5
  0
LINE
  5
156
  8
0
 62
    42
 10
3.391183801822308
 20
4.849895463212804
 30
0.5
 11
3.412667801822308
 21
4.845989463212804
 31
0.5
  0
LINE
  5
157
  8
0
 62
    42
 10
3.412667801822308
 20
4.845989463212804
 30
0.5
 11
3.432198801822308
 21
4.840129463212804
 31
0.5
  0
LINE
  5
158
  8
0
 62
    42
 10
3.432198801822308
 20
4.840129463212804
 30
0.5
 11
3.451730801822308
 21
4.832317463212804
 31
0.5
  0
LINE
  5
159
  8
0
 62
    42
 10
3.451730801822308
 20
4.832317463212804
 30
0.5
 11
3.471261801822307
 21
4.821574463212804
 31
0.5
  0
LINE
  5
15A
  8
0
 62
    42
 10
3.471261801822307
 20
4.821574463212804
 30
0.5
 11
3.488839801822308
 21
4.808879463212804
 31
0.5
  0
LINE
  5
15B
  8
0
 62
    42
 10
3.488839801822308
 20
4.808879463212804
 30
0.5
 11
3.505441801822308
 21
4.794231463212804
 31
0.5
  0
LINE
  5
15C
  8
0
 62
    42
 10
3.505441801822308
 20
4.794231463212804
 30
0.5
 11
3.521066801822308
 21
4.776653463212804
 31
0.5
  0
LINE
  5
15D
  8
0
 62
    42
 10
3.521066801822308
 20
4.776653463212804
 30
0.5
 11
3.535714801822308
 21
4.757121463212804
 31
0.5
  0
LINE
  5
15E
  8
0
 62
    42
 10
3.535714801822308
 20
4.757121463212804
 30
0.5
 11
3.548409801822308
 21
4.735637463212804
 31
0.5
  0
LINE
  5
15F
  8
0
 62
    42
 10
3.548409801822308
 20
4.735637463212804
 30
0.5
 11
3.559152801822307
 21
4.712199463212804
 31
0.5
  0
LINE
  5
160
  8
0
 62
    42
 10
3.559152801822307
 20
4.712199463212804
 30
0.5
 11
3.567941801822308
 21
4.686809463212804
 31
0.5
  0
LINE
  5
161
  8
0
 62
    42
 10
3.567941801822308
 20
4.686809463212804
 30
0.5
 11
3.574777801822307
 21
4.660442463212804
 31
0.5
  0
LINE
  5
162
  8
0
 62
    42
 10
3.574777801822307
 20
4.660442463212804
 30
0.5
 11
3.579659801822308
 21
4.631145463212804
 31
0.5
  0
LINE
  5
163
  8
0
 62
    42
 10
3.579659801822308
 20
4.631145463212804
 30
0.5
 11
3.582589801822308
 21
4.600871463212804
 31
0.5
  0
LINE
  5
164
  8
0
 62
    42
 10
3.582589801822308
 20
4.600871463212804
 30
0.5
 11
3.583566801822308
 21
4.568645463212804
 31
0.5
  0
LINE
  5
165
  8
0
 62
    42
 10
3.583566801822308
 20
4.568645463212804
 30
0.5
 11
3.582589801822308
 21
4.536418463212804
 31
0.5
  0
LINE
  5
166
  8
0
 62
    42
 10
3.582589801822308
 20
4.536418463212804
 30
0.5
 11
3.580636801822307
 21
4.506145463212804
 31
0.5
  0
LINE
  5
167
  8
0
 62
    42
 10
3.580636801822307
 20
4.506145463212804
 30
0.5
 11
3.577706801822307
 21
4.475871463212804
 31
0.5
  0
LINE
  5
168
  8
0
 62
    42
 10
3.577706801822307
 20
4.475871463212804
 30
0.5
 11
3.573800801822308
 21
4.446574463212804
 31
0.5
  0
LINE
  5
169
  8
0
 62
    42
 10
3.573800801822308
 20
4.446574463212804
 30
0.5
 11
3.567941801822308
 21
4.419231463212804
 31
0.5
  0
LINE
  5
16A
  8
0
 62
    42
 10
3.567941801822308
 20
4.419231463212804
 30
0.5
 11
3.561105801822308
 21
4.391887463212804
 31
0.5
  0
LINE
  5
16B
  8
0
 62
    42
 10
3.561105801822308
 20
4.391887463212804
 30
0.5
 11
3.552316801822308
 21
4.365520463212804
 31
0.5
  0
LINE
  5
16C
  8
0
 62
    42
 10
3.552316801822308
 20
4.365520463212804
 30
0.5
 11
3.542550801822308
 21
4.340129463212804
 31
0.5
  0
LINE
  5
16D
  8
0
 62
    42
 10
3.542550801822308
 20
4.340129463212804
 30
0.5
 11
3.532784801822308
 21
4.316692463212804
 31
0.5
  0
LINE
  5
16E
  8
0
 62
    42
 10
3.532784801822308
 20
4.316692463212804
 30
0.5
 11
3.521066801822308
 21
4.294231463212804
 31
0.5
  0
LINE
  5
16F
  8
0
 62
    42
 10
3.521066801822308
 20
4.294231463212804
 30
0.5
 11
3.509347801822307
 21
4.273723463212804
 31
0.5
  0
LINE
  5
170
  8
0
 62
    42
 10
3.509347801822307
 20
4.273723463212804
 30
0.5
 11
3.496652801822307
 21
4.254192463212804
 31
0.5
  0
LINE
  5
171
  8
0
 62
    42
 10
3.496652801822307
 20
4.254192463212804
 30
0.5
 11
3.482980801822308
 21
4.236614463212804
 31
0.5
  0
LINE
  5
172
  8
0
 62
    42
 10
3.482980801822308
 20
4.236614463212804
 30
0.5
 11
3.469308801822308
 21
4.220989463212804
 31
0.5
  0
LINE
  5
173
  8
0
 62
    42
 10
3.469308801822308
 20
4.220989463212804
 30
0.5
 11
3.454659801822308
 21
4.207317463212804
 31
0.5
  0
LINE
  5
174
  8
0
 62
    42
 10
3.454659801822308
 20
4.207317463212804
 30
0.5
 11
3.439034801822308
 21
4.194621463212804
 31
0.5
  0
LINE
  5
175
  8
0
 62
    42
 10
3.439034801822308
 20
4.194621463212804
 30
0.5
 11
3.423409801822308
 21
4.183879463212804
 31
0.5
  0
LINE
  5
176
  8
0
 62
    42
 10
3.423409801822308
 20
4.183879463212804
 30
0.5
 11
3.407784801822308
 21
4.175090463212804
 31
0.5
  0
LINE
  5
177
  8
0
 62
    42
 10
3.407784801822308
 20
4.175090463212804
 30
0.5
 11
3.391183801822308
 21
4.166301463212804
 31
0.5
  0
LINE
  5
178
  8
0
 62
    42
 10
3.391183801822308
 20
4.166301463212804
 30
0.5
 11
3.374581801822307
 21
4.160442463212804
 31
0.5
  0
LINE
  5
179
  8
0
 62
    42
 10
3.374581801822307
 20
4.160442463212804
 30
0.5
 11
3.357980801822308
 21
4.155559463212804
 31
0.5
  0
LINE
  5
17A
  8
0
 62
    42
 10
3.357980801822308
 20
4.155559463212804
 30
0.5
 11
3.341378801822307
 21
4.151653463212804
 31
0.5
  0
LINE
  5
17B
  8
0
 62
    42
 10
3.341378801822307
 20
4.151653463212804
 30
0.5
 11
3.323800801822308
 21
4.149699463212804
 31
0.5
  0
LINE
  5
17C
  8
0
 62
    42
 10
3.323800801822308
 20
4.149699463212804
 30
0.5
 11
3.306222801822307
 21
4.148723463212804
 31
0.5
  0
LINE
  5
17D
  8
0
 62
    42
 10
3.306222801822307
 20
4.148723463212804
 30
0.5
 11
3.282784801822308
 21
4.149699463212804
 31
0.5
  0
LINE
  5
17E
  8
0
 62
    42
 10
3.282784801822308
 20
4.149699463212804
 30
0.5
 11
3.261300801822308
 21
4.153606463212804
 31
0.5
  0
LINE
  5
17F
  8
0
 62
    42
 10
3.261300801822308
 20
4.153606463212804
 30
0.5
 11
3.239816801822308
 21
4.159465463212804
 31
0.5
  0
LINE
  5
180
  8
0
 62
    42
 10
3.239816801822308
 20
4.159465463212804
 30
0.5
 11
3.219308801822308
 21
4.168254463212804
 31
0.5
  0
LINE
  5
181
  8
0
 62
    42
 10
3.219308801822308
 20
4.168254463212804
 30
0.5
 11
3.200753801822307
 21
4.178996463212804
 31
0.5
  0
LINE
  5
182
  8
0
 62
    42
 10
3.200753801822307
 20
4.178996463212804
 30
0.5
 11
3.182198801822308
 21
4.192668463212804
 31
0.5
  0
LINE
  5
183
  8
0
 62
    42
 10
3.182198801822308
 20
4.192668463212804
 30
0.5
 11
3.164620801822307
 21
4.208293463212804
 31
0.5
  0
LINE
  5
184
  8
0
 62
    42
 10
3.164620801822307
 20
4.208293463212804
 30
0.5
 11
3.148995801822307
 21
4.226848463212804
 31
0.5
  0
LINE
  5
185
  8
0
 62
    42
 10
3.148995801822307
 20
4.226848463212804
 30
0.5
 11
3.134347801822307
 21
4.247356463212804
 31
0.5
  0
LINE
  5
186
  8
0
 62
    42
 10
3.134347801822307
 20
4.247356463212804
 30
0.5
 11
3.120675801822308
 21
4.269817463212804
 31
0.5
  0
LINE
  5
187
  8
0
 62
    42
 10
3.120675801822308
 20
4.269817463212804
 30
0.5
 11
3.109933801822308
 21
4.294231463212804
 31
0.5
  0
LINE
  5
188
  8
0
 62
    42
 10
3.109933801822308
 20
4.294231463212804
 30
0.5
 11
3.101144801822307
 21
4.320598463212804
 31
0.5
  0
LINE
  5
189
  8
0
 62
    42
 10
3.101144801822307
 20
4.320598463212804
 30
0.5
 11
3.094308801822308
 21
4.348918463212804
 31
0.5
  0
LINE
  5
18A
  8
0
 62
    42
 10
3.094308801822308
 20
4.348918463212804
 30
0.5
 11
3.089425801822308
 21
4.380168463212804
 31
0.5
  0
LINE
  5
18B
  8
0
 62
    42
 10
3.089425801822308
 20
4.380168463212804
 30
0.5
 11
3.086495801822307
 21
4.412395463212804
 31
0.5
  0
LINE
  5
18C
  8
0
 62
    42
 10
3.782784801822308
 20
4.562785463212804
 30
0.5
 11
3.787667801822308
 21
4.595012463212804
 31
0.5
  0
LINE
  5
18D
  8
0
 62
    42
 10
3.787667801822308
 20
4.595012463212804
 30
0.5
 11
3.795480801822308
 21
4.626262463212804
 31
0.5
  0
LINE
  5
18E
  8
0
 62
    42
 10
3.795480801822308
 20
4.626262463212804
 30
0.5
 11
3.806222801822307
 21
4.656535463212804
 31
0.5
  0
LINE
  5
18F
  8
0
 62
    42
 10
3.806222801822307
 20
4.656535463212804
 30
0.5
 11
3.820870801822307
 21
4.685832463212804
 31
0.5
  0
LINE
  5
190
  8
0
 62
    42
 10
3.820870801822307
 20
4.685832463212804
 30
0.5
 11
3.838448801822307
 21
4.715129463212804
 31
0.5
  0
LINE
  5
191
  8
0
 62
    42
 10
3.838448801822307
 20
4.715129463212804
 30
0.5
 11
3.858956801822307
 21
4.743449463212804
 31
0.5
  0
LINE
  5
192
  8
0
 62
    42
 10
3.858956801822307
 20
4.743449463212804
 30
0.5
 11
3.883370801822307
 21
4.771770463212804
 31
0.5
  0
LINE
  5
193
  8
0
 62
    42
 10
3.883370801822307
 20
4.771770463212804
 30
0.5
 11
3.909738801822308
 21
4.797160463212804
 31
0.5
  0
LINE
  5
194
  8
0
 62
    42
 10
3.909738801822308
 20
4.797160463212804
 30
0.5
 11
3.938058801822308
 21
4.819621463212804
 31
0.5
  0
LINE
  5
195
  8
0
 62
    42
 10
3.938058801822308
 20
4.819621463212804
 30
0.5
 11
3.969308801822308
 21
4.838176463212804
 31
0.5
  0
LINE
  5
196
  8
0
 62
    42
 10
3.969308801822308
 20
4.838176463212804
 30
0.5
 11
4.001534801822308
 21
4.853801463212804
 31
0.5
  0
LINE
  5
197
  8
0
 62
    42
 10
4.001534801822308
 20
4.853801463212804
 30
0.5
 11
4.035714801822308
 21
4.865520463212804
 31
0.5
  0
LINE
  5
198
  8
0
 62
    42
 10
4.035714801822308
 20
4.865520463212804
 30
0.5
 11
4.072823801822308
 21
4.874309463212804
 31
0.5
  0
LINE
  5
199
  8
0
 62
    42
 10
4.072823801822308
 20
4.874309463212804
 30
0.5
 11
4.111886801822307
 21
4.879192463212804
 31
0.5
  0
LINE
  5
19A
  8
0
 62
    42
 10
4.111886801822307
 20
4.879192463212804
 30
0.5
 11
4.151925801822308
 21
4.881145463212804
 31
0.5
  0
LINE
  5
19B
  8
0
 62
    42
 10
4.151925801822308
 20
4.881145463212804
 30
0.5
 11
4.401925801822308
 21
4.881145463212804
 31
0.5
  0
LINE
  5
19C
  8
0
 62
    42
 10
4.401925801822308
 20
4.881145463212804
 30
0.5
 11
4.412667801822307
 21
4.881145463212804
 31
0.5
  0
LINE
  5
19D
  8
0
 62
    42
 10
4.412667801822307
 20
4.881145463212804
 30
0.5
 11
4.423409801822308
 21
4.881145463212804
 31
0.5
  0
LINE
  5
19E
  8
0
 62
    42
 10
4.423409801822308
 20
4.881145463212804
 30
0.5
 11
4.434152801822307
 21
4.882121463212804
 31
0.5
  0
LINE
  5
19F
  8
0
 62
    42
 10
4.434152801822307
 20
4.882121463212804
 30
0.5
 11
4.445870801822307
 21
4.882121463212804
 31
0.5
  0
LINE
  5
1A0
  8
0
 62
    42
 10
4.445870801822307
 20
4.882121463212804
 30
0.5
 11
4.457589801822308
 21
4.883098463212804
 31
0.5
  0
LINE
  5
1A1
  8
0
 62
    42
 10
4.457589801822308
 20
4.883098463212804
 30
0.5
 11
4.469308801822307
 21
4.884074463212804
 31
0.5
  0
LINE
  5
1A2
  8
0
 62
    42
 10
4.469308801822307
 20
4.884074463212804
 30
0.5
 11
4.481027801822307
 21
4.885051463212804
 31
0.5
  0
LINE
  5
1A3
  8
0
 62
    42
 10
4.481027801822307
 20
4.885051463212804
 30
0.5
 11
4.493722801822307
 21
4.886028463212804
 31
0.5
  0
LINE
  5
1A4
  8
0
 62
    42
 10
4.493722801822307
 20
4.886028463212804
 30
0.5
 11
4.497628801822308
 21
4.887004463212804
 31
0.5
  0
LINE
  5
1A5
  8
0
 62
    42
 10
4.497628801822308
 20
4.887004463212804
 30
0.5
 11
4.503488801822307
 21
4.887981463212804
 31
0.5
  0
LINE
  5
1A6
  8
0
 62
    42
 10
4.503488801822307
 20
4.887981463212804
 30
0.5
 11
4.510323801822308
 21
4.888957463212804
 31
0.5
  0
LINE
  5
1A7
  8
0
 62
    42
 10
4.510323801822308
 20
4.888957463212804
 30
0.5
 11
4.517159801822308
 21
4.889934463212804
 31
0.5
  0
LINE
  5
1A8
  8
0
 62
    42
 10
4.517159801822308
 20
4.889934463212804
 30
0.5
 11
4.525948801822308
 21
4.891887463212804
 31
0.5
  0
LINE
  5
1A9
  8
0
 62
    42
 10
4.525948801822308
 20
4.891887463212804
 30
0.5
 11
4.535714801822308
 21
4.893840463212804
 31
0.5
  0
LINE
  5
1AA
  8
0
 62
    42
 10
4.535714801822308
 20
4.893840463212804
 30
0.5
 11
4.546456801822307
 21
4.896770463212804
 31
0.5
  0
LINE
  5
1AB
  8
0
 62
    42
 10
4.546456801822307
 20
4.896770463212804
 30
0.5
 11
4.558175801822308
 21
4.899699463212804
 31
0.5
  0
LINE
  5
1AC
  8
0
 62
    42
 10
4.558175801822308
 20
4.899699463212804
 30
0.5
 11
4.550363801822307
 21
4.867473463212804
 31
0.5
  0
LINE
  5
1AD
  8
0
 62
    42
 10
4.550363801822307
 20
4.867473463212804
 30
0.5
 11
4.543527801822307
 21
4.838176463212804
 31
0.5
  0
LINE
  5
1AE
  8
0
 62
    42
 10
4.543527801822307
 20
4.838176463212804
 30
0.5
 11
4.536691801822308
 21
4.811809463212804
 31
0.5
  0
LINE
  5
1AF
  8
0
 62
    42
 10
4.536691801822308
 20
4.811809463212804
 30
0.5
 11
4.531808801822307
 21
4.788371463212804
 31
0.5
  0
LINE
  5
1B0
  8
0
 62
    42
 10
4.531808801822307
 20
4.788371463212804
 30
0.5
 11
4.526925801822308
 21
4.768840463212804
 31
0.5
  0
LINE
  5
1B1
  8
0
 62
    42
 10
4.526925801822308
 20
4.768840463212804
 30
0.5
 11
4.523019801822308
 21
4.751262463212804
 31
0.5
  0
LINE
  5
1B2
  8
0
 62
    42
 10
4.523019801822308
 20
4.751262463212804
 30
0.5
 11
4.520089801822308
 21
4.737590463212804
 31
0.5
  0
LINE
  5
1B3
  8
0
 62
    42
 10
4.520089801822308
 20
4.737590463212804
 30
0.5
 11
4.518136801822307
 21
4.726848463212804
 31
0.5
  0
LINE
  5
1B4
  8
0
 62
    42
 10
4.518136801822307
 20
4.726848463212804
 30
0.5
 11
4.482980801822308
 21
4.726848463212804
 31
0.5
  0
LINE
  5
1B5
  8
0
 62
    42
 10
4.482980801822308
 20
4.726848463212804
 30
0.5
 11
4.485909801822308
 21
4.739543463212804
 31
0.5
  0
LINE
  5
1B6
  8
0
 62
    42
 10
4.485909801822308
 20
4.739543463212804
 30
0.5
 11
4.487863801822307
 21
4.751262463212804
 31
0.5
  0
LINE
  5
1B7
  8
0
 62
    42
 10
4.487863801822307
 20
4.751262463212804
 30
0.5
 11
4.489816801822308
 21
4.762004463212804
 31
0.5
  0
LINE
  5
1B8
  8
0
 62
    42
 10
4.489816801822308
 20
4.762004463212804
 30
0.5
 11
4.490792801822307
 21
4.771770463212804
 31
0.5
  0
LINE
  5
1B9
  8
0
 62
    42
 10
4.490792801822307
 20
4.771770463212804
 30
0.5
 11
4.492745801822307
 21
4.779582463212804
 31
0.5
  0
LINE
  5
1BA
  8
0
 62
    42
 10
4.492745801822307
 20
4.779582463212804
 30
0.5
 11
4.493722801822307
 21
4.786418463212804
 31
0.5
  0
LINE
  5
1BB
  8
0
 62
    42
 10
4.493722801822307
 20
4.786418463212804
 30
0.5
 11
4.493722801822307
 21
4.792278463212804
 31
0.5
  0
LINE
  5
1BC
  8
0
 62
    42
 10
4.493722801822307
 20
4.792278463212804
 30
0.5
 11
4.493722801822307
 21
4.797160463212804
 31
0.5
  0
LINE
  5
1BD
  8
0
 62
    42
 10
4.493722801822307
 20
4.797160463212804
 30
0.5
 11
4.493722801822307
 21
4.802043463212804
 31
0.5
  0
LINE
  5
1BE
  8
0
 62
    42
 10
4.493722801822307
 20
4.802043463212804
 30
0.5
 11
4.492745801822307
 21
4.806926463212804
 31
0.5
  0
LINE
  5
1BF
  8
0
 62
    42
 10
4.492745801822307
 20
4.806926463212804
 30
0.5
 11
4.491769801822308
 21
4.811809463212804
 31
0.5
  0
LINE
  5
1C0
  8
0
 62
    42
 10
4.491769801822308
 20
4.811809463212804
 30
0.5
 11
4.490792801822307
 21
4.815715463212804
 31
0.5
  0
LINE
  5
1C1
  8
0
 62
    42
 10
4.490792801822307
 20
4.815715463212804
 30
0.5
 11
4.487863801822307
 21
4.819621463212804
 31
0.5
  0
LINE
  5
1C2
  8
0
 62
    42
 10
4.487863801822307
 20
4.819621463212804
 30
0.5
 11
4.485909801822308
 21
4.822551463212804
 31
0.5
  0
LINE
  5
1C3
  8
0
 62
    42
 10
4.485909801822308
 20
4.822551463212804
 30
0.5
 11
4.482980801822308
 21
4.826457463212804
 31
0.5
  0
LINE
  5
1C4
  8
0
 62
    42
 10
4.482980801822308
 20
4.826457463212804
 30
0.5
 11
4.479073801822308
 21
4.828410463212804
 31
0.5
  0
LINE
  5
1C5
  8
0
 62
    42
 10
4.479073801822308
 20
4.828410463212804
 30
0.5
 11
4.475167801822307
 21
4.831340463212804
 31
0.5
  0
LINE
  5
1C6
  8
0
 62
    42
 10
4.475167801822307
 20
4.831340463212804
 30
0.5
 11
4.470284801822308
 21
4.833293463212804
 31
0.5
  0
LINE
  5
1C7
  8
0
 62
    42
 10
4.470284801822308
 20
4.833293463212804
 30
0.5
 11
4.464425801822308
 21
4.835246463212804
 31
0.5
  0
LINE
  5
1C8
  8
0
 62
    42
 10
4.464425801822308
 20
4.835246463212804
 30
0.5
 11
4.457589801822308
 21
4.836223463212804
 31
0.5
  0
LINE
  5
1C9
  8
0
 62
    42
 10
4.457589801822308
 20
4.836223463212804
 30
0.5
 11
4.449777801822307
 21
4.838176463212804
 31
0.5
  0
LINE
  5
1CA
  8
0
 62
    42
 10
4.449777801822307
 20
4.838176463212804
 30
0.5
 11
4.441964801822308
 21
4.838176463212804
 31
0.5
  0
LINE
  5
1CB
  8
0
 62
    42
 10
4.441964801822308
 20
4.838176463212804
 30
0.5
 11
4.432198801822308
 21
4.839153463212804
 31
0.5
  0
LINE
  5
1CC
  8
0
 62
    42
 10
4.432198801822308
 20
4.839153463212804
 30
0.5
 11
4.422433801822307
 21
4.839153463212804
 31
0.5
  0
LINE
  5
1CD
  8
0
 62
    42
 10
4.422433801822307
 20
4.839153463212804
 30
0.5
 11
4.381417801822307
 21
4.838176463212804
 31
0.5
  0
LINE
  5
1CE
  8
0
 62
    42
 10
4.381417801822307
 20
4.838176463212804
 30
0.5
 11
4.367745801822307
 21
4.839153463212804
 31
0.5
  0
LINE
  5
1CF
  8
0
 62
    42
 10
4.367745801822307
 20
4.839153463212804
 30
0.5
 11
4.237863801822307
 21
4.839153463212804
 31
0.5
  0
LINE
  5
1D0
  8
0
 62
    42
 10
4.237863801822307
 20
4.839153463212804
 30
0.5
 11
4.236886801822307
 21
4.834270463212804
 31
0.5
  0
LINE
  5
1D1
  8
0
 62
    42
 10
4.236886801822307
 20
4.834270463212804
 30
0.5
 11
4.234933801822307
 21
4.828410463212804
 31
0.5
  0
LINE
  5
1D2
  8
0
 62
    42
 10
4.234933801822307
 20
4.828410463212804
 30
0.5
 11
4.232980801822308
 21
4.821574463212804
 31
0.5
  0
LINE
  5
1D3
  8
0
 62
    42
 10
4.232980801822308
 20
4.821574463212804
 30
0.5
 11
4.231027801822307
 21
4.812785463212804
 31
0.5
  0
LINE
  5
1D4
  8
0
 62
    42
 10
4.231027801822307
 20
4.812785463212804
 30
0.5
 11
4.228097801822307
 21
4.802043463212804
 31
0.5
  0
LINE
  5
1D5
  8
0
 62
    42
 10
4.228097801822307
 20
4.802043463212804
 30
0.5
 11
4.224191801822308
 21
4.790324463212804
 31
0.5
  0
LINE
  5
1D6
  8
0
 62
    42
 10
4.224191801822308
 20
4.790324463212804
 30
0.5
 11
4.221261801822307
 21
4.777629463212804
 31
0.5
  0
LINE
  5
1D7
  8
0
 62
    42
 10
4.221261801822307
 20
4.777629463212804
 30
0.5
 11
4.216378801822308
 21
4.762981463212804
 31
0.5
  0
LINE
  5
1D8
  8
0
 62
    42
 10
4.216378801822308
 20
4.762981463212804
 30
0.5
 11
4.208566801822308
 21
4.731731463212804
 31
0.5
  0
LINE
  5
1D9
  8
0
 62
    42
 10
4.208566801822308
 20
4.731731463212804
 30
0.5
 11
4.199777801822307
 21
4.702434463212804
 31
0.5
  0
LINE
  5
1DA
  8
0
 62
    42
 10
4.199777801822307
 20
4.702434463212804
 30
0.5
 11
4.192941801822308
 21
4.674114463212804
 31
0.5
  0
LINE
  5
1DB
  8
0
 62
    42
 10
4.192941801822308
 20
4.674114463212804
 30
0.5
 11
4.186105801822308
 21
4.647746463212804
 31
0.5
  0
LINE
  5
1DC
  8
0
 62
    42
 10
4.186105801822308
 20
4.647746463212804
 30
0.5
 11
4.179269801822308
 21
4.622356463212804
 31
0.5
  0
LINE
  5
1DD
  8
0
 62
    42
 10
4.179269801822308
 20
4.622356463212804
 30
0.5
 11
4.173409801822308
 21
4.598918463212804
 31
0.5
  0
LINE
  5
1DE
  8
0
 62
    42
 10
4.173409801822308
 20
4.598918463212804
 30
0.5
 11
4.167550801822308
 21
4.576457463212804
 31
0.5
  0
LINE
  5
1DF
  8
0
 62
    42
 10
4.167550801822308
 20
4.576457463212804
 30
0.5
 11
4.162667801822307
 21
4.555949463212804
 31
0.5
  0
LINE
  5
1E0
  8
0
 62
    42
 10
4.162667801822307
 20
4.555949463212804
 30
0.5
 11
4.289620801822307
 21
4.555949463212804
 31
0.5
  0
LINE
  5
1E1
  8
0
 62
    42
 10
4.289620801822307
 20
4.555949463212804
 30
0.5
 11
4.301339801822308
 21
4.555949463212804
 31
0.5
  0
LINE
  5
1E2
  8
0
 62
    42
 10
4.301339801822308
 20
4.555949463212804
 30
0.5
 11
4.311105801822308
 21
4.556926463212804
 31
0.5
  0
LINE
  5
1E3
  8
0
 62
    42
 10
4.311105801822308
 20
4.556926463212804
 30
0.5
 11
4.319894801822308
 21
4.556926463212804
 31
0.5
  0
LINE
  5
1E4
  8
0
 62
    42
 10
4.319894801822308
 20
4.556926463212804
 30
0.5
 11
4.327706801822307
 21
4.557903463212804
 31
0.5
  0
LINE
  5
1E5
  8
0
 62
    42
 10
4.327706801822307
 20
4.557903463212804
 30
0.5
 11
4.334542801822307
 21
4.559856463212804
 31
0.5
  0
LINE
  5
1E6
  8
0
 62
    42
 10
4.334542801822307
 20
4.559856463212804
 30
0.5
 11
4.341378801822308
 21
4.560832463212804
 31
0.5
  0
LINE
  5
1E7
  8
0
 62
    42
 10
4.341378801822308
 20
4.560832463212804
 30
0.5
 11
4.346261801822307
 21
4.562785463212804
 31
0.5
  0
LINE
  5
1E8
  8
0
 62
    42
 10
4.346261801822307
 20
4.562785463212804
 30
0.5
 11
4.350167801822307
 21
4.564739463212804
 31
0.5
  0
LINE
  5
1E9
  8
0
 62
    42
 10
4.350167801822307
 20
4.564739463212804
 30
0.5
 11
4.353097801822307
 21
4.567668463212804
 31
0.5
  0
LINE
  5
1EA
  8
0
 62
    42
 10
4.353097801822307
 20
4.567668463212804
 30
0.5
 11
4.356027801822307
 21
4.571574463212804
 31
0.5
  0
LINE
  5
1EB
  8
0
 62
    42
 10
4.356027801822307
 20
4.571574463212804
 30
0.5
 11
4.359933801822307
 21
4.575481463212804
 31
0.5
  0
LINE
  5
1EC
  8
0
 62
    42
 10
4.359933801822307
 20
4.575481463212804
 30
0.5
 11
4.362863801822307
 21
4.581340463212804
 31
0.5
  0
LINE
  5
1ED
  8
0
 62
    42
 10
4.362863801822307
 20
4.581340463212804
 30
0.5
 11
4.364816801822308
 21
4.587199463212804
 31
0.5
  0
LINE
  5
1EE
  8
0
 62
    42
 10
4.364816801822308
 20
4.587199463212804
 30
0.5
 11
4.367745801822307
 21
4.595012463212804
 31
0.5
  0
LINE
  5
1EF
  8
0
 62
    42
 10
4.367745801822307
 20
4.595012463212804
 30
0.5
 11
4.370675801822308
 21
4.602824463212804
 31
0.5
  0
LINE
  5
1F0
  8
0
 62
    42
 10
4.370675801822308
 20
4.602824463212804
 30
0.5
 11
4.372628801822308
 21
4.611614463212804
 31
0.5
  0
LINE
  5
1F1
  8
0
 62
    42
 10
4.372628801822308
 20
4.611614463212804
 30
0.5
 11
4.407784801822308
 21
4.611614463212804
 31
0.5
  0
LINE
  5
1F2
  8
0
 62
    42
 10
4.407784801822308
 20
4.611614463212804
 30
0.5
 11
4.402902801822307
 21
4.591106463212804
 31
0.5
  0
LINE
  5
1F3
  8
0
 62
    42
 10
4.402902801822307
 20
4.591106463212804
 30
0.5
 11
4.398019801822308
 21
4.569621463212804
 31
0.5
  0
LINE
  5
1F4
  8
0
 62
    42
 10
4.398019801822308
 20
4.569621463212804
 30
0.5
 11
4.393136801822307
 21
4.549114463212804
 31
0.5
  0
LINE
  5
1F5
  8
0
 62
    42
 10
4.393136801822307
 20
4.549114463212804
 30
0.5
 11
4.389230801822308
 21
4.527629463212804
 31
0.5
  0
LINE
  5
1F6
  8
0
 62
    42
 10
4.389230801822308
 20
4.527629463212804
 30
0.5
 11
4.384347801822307
 21
4.506145463212804
 31
0.5
  0
LINE
  5
1F7
  8
0
 62
    42
 10
4.384347801822307
 20
4.506145463212804
 30
0.5
 11
4.380441801822308
 21
4.483684463212804
 31
0.5
  0
LINE
  5
1F8
  8
0
 62
    42
 10
4.380441801822308
 20
4.483684463212804
 30
0.5
 11
4.376534801822308
 21
4.462199463212804
 31
0.5
  0
LINE
  5
1F9
  8
0
 62
    42
 10
4.376534801822308
 20
4.462199463212804
 30
0.5
 11
4.372628801822308
 21
4.439739463212804
 31
0.5
  0
LINE
  5
1FA
  8
0
 62
    42
 10
4.372628801822308
 20
4.439739463212804
 30
0.5
 11
4.336495801822307
 21
4.439739463212804
 31
0.5
  0
LINE
  5
1FB
  8
0
 62
    42
 10
4.336495801822307
 20
4.439739463212804
 30
0.5
 11
4.337472801822307
 21
4.448528463212804
 31
0.5
  0
LINE
  5
1FC
  8
0
 62
    42
 10
4.337472801822307
 20
4.448528463212804
 30
0.5
 11
4.338448801822308
 21
4.456340463212804
 31
0.5
  0
LINE
  5
1FD
  8
0
 62
    42
 10
4.338448801822308
 20
4.456340463212804
 30
0.5
 11
4.339425801822308
 21
4.463176463212804
 31
0.5
  0
LINE
  5
1FE
  8
0
 62
    42
 10
4.339425801822308
 20
4.463176463212804
 30
0.5
 11
4.340402801822307
 21
4.469035463212804
 31
0.5
  0
LINE
  5
1FF
  8
0
 62
    42
 10
4.340402801822307
 20
4.469035463212804
 30
0.5
 11
4.340402801822307
 21
4.473918463212804
 31
0.5
  0
LINE
  5
200
  8
0
 62
    42
 10
4.340402801822307
 20
4.473918463212804
 30
0.5
 11
4.340402801822307
 21
4.478801463212804
 31
0.5
  0
LINE
  5
201
  8
0
 62
    42
 10
4.340402801822307
 20
4.478801463212804
 30
0.5
 11
4.341378801822308
 21
4.481731463212804
 31
0.5
  0
LINE
  5
202
  8
0
 62
    42
 10
4.341378801822308
 20
4.481731463212804
 30
0.5
 11
4.341378801822308
 21
4.483684463212804
 31
0.5
  0
LINE
  5
203
  8
0
 62
    42
 10
4.341378801822308
 20
4.483684463212804
 30
0.5
 11
4.340402801822307
 21
4.487590463212804
 31
0.5
  0
LINE
  5
204
  8
0
 62
    42
 10
4.340402801822307
 20
4.487590463212804
 30
0.5
 11
4.340402801822307
 21
4.490520463212804
 31
0.5
  0
LINE
  5
205
  8
0
 62
    42
 10
4.340402801822307
 20
4.490520463212804
 30
0.5
 11
4.338448801822308
 21
4.494426463212804
 31
0.5
  0
LINE
  5
206
  8
0
 62
    42
 10
4.338448801822308
 20
4.494426463212804
 30
0.5
 11
4.337472801822307
 21
4.497356463212804
 31
0.5
  0
LINE
  5
207
  8
0
 62
    42
 10
4.337472801822307
 20
4.497356463212804
 30
0.5
 11
4.334542801822307
 21
4.500285463212804
 31
0.5
  0
LINE
  5
208
  8
0
 62
    42
 10
4.334542801822307
 20
4.500285463212804
 30
0.5
 11
4.332589801822308
 21
4.502239463212804
 31
0.5
  0
LINE
  5
209
  8
0
 62
    42
 10
4.332589801822308
 20
4.502239463212804
 30
0.5
 11
4.328683801822307
 21
4.505168463212804
 31
0.5
  0
LINE
  5
20A
  8
0
 62
    42
 10
4.328683801822307
 20
4.505168463212804
 30
0.5
 11
4.325753801822308
 21
4.507121463212804
 31
0.5
  0
LINE
  5
20B
  8
0
 62
    42
 10
4.325753801822308
 20
4.507121463212804
 30
0.5
 11
4.322823801822308
 21
4.508098463212804
 31
0.5
  0
LINE
  5
20C
  8
0
 62
    42
 10
4.322823801822308
 20
4.508098463212804
 30
0.5
 11
4.318917801822307
 21
4.509074463212804
 31
0.5
  0
LINE
  5
20D
  8
0
 62
    42
 10
4.318917801822307
 20
4.509074463212804
 30
0.5
 11
4.314034801822308
 21
4.510051463212804
 31
0.5
  0
LINE
  5
20E
  8
0
 62
    42
 10
4.314034801822308
 20
4.510051463212804
 30
0.5
 11
4.308175801822308
 21
4.511028463212804
 31
0.5
  0
LINE
  5
20F
  8
0
 62
    42
 10
4.308175801822308
 20
4.511028463212804
 30
0.5
 11
4.302316801822308
 21
4.512004463212804
 31
0.5
  0
LINE
  5
210
  8
0
 62
    42
 10
4.302316801822308
 20
4.512004463212804
 30
0.5
 11
4.294503801822308
 21
4.512004463212804
 31
0.5
  0
LINE
  5
211
  8
0
 62
    42
 10
4.294503801822308
 20
4.512004463212804
 30
0.5
 11
4.285714801822308
 21
4.512981463212804
 31
0.5
  0
LINE
  5
212
  8
0
 62
    42
 10
4.285714801822308
 20
4.512981463212804
 30
0.5
 11
4.275948801822308
 21
4.512981463212804
 31
0.5
  0
LINE
  5
213
  8
0
 62
    42
 10
4.275948801822308
 20
4.512981463212804
 30
0.5
 11
4.151925801822308
 21
4.512981463212804
 31
0.5
  0
LINE
  5
214
  8
0
 62
    42
 10
4.151925801822308
 20
4.512981463212804
 30
0.5
 11
4.147042801822307
 21
4.490520463212804
 31
0.5
  0
LINE
  5
215
  8
0
 62
    42
 10
4.147042801822307
 20
4.490520463212804
 30
0.5
 11
4.142159801822308
 21
4.467082463212804
 31
0.5
  0
LINE
  5
216
  8
0
 62
    42
 10
4.142159801822308
 20
4.467082463212804
 30
0.5
 11
4.136300801822308
 21
4.442668463212804
 31
0.5
  0
LINE
  5
217
  8
0
 62
    42
 10
4.136300801822308
 20
4.442668463212804
 30
0.5
 11
4.130441801822308
 21
4.419231463212804
 31
0.5
  0
LINE
  5
218
  8
0
 62
    42
 10
4.130441801822308
 20
4.419231463212804
 30
0.5
 11
4.124581801822307
 21
4.393840463212804
 31
0.5
  0
LINE
  5
219
  8
0
 62
    42
 10
4.124581801822307
 20
4.393840463212804
 30
0.5
 11
4.117745801822307
 21
4.369426463212804
 31
0.5
  0
LINE
  5
21A
  8
0
 62
    42
 10
4.117745801822307
 20
4.369426463212804
 30
0.5
 11
4.109933801822307
 21
4.344035463212804
 31
0.5
  0
LINE
  5
21B
  8
0
 62
    42
 10
4.109933801822307
 20
4.344035463212804
 30
0.5
 11
4.103097801822307
 21
4.317668463212804
 31
0.5
  0
LINE
  5
21C
  8
0
 62
    42
 10
4.103097801822307
 20
4.317668463212804
 30
0.5
 11
4.095284801822308
 21
4.292278463212804
 31
0.5
  0
LINE
  5
21D
  8
0
 62
    42
 10
4.095284801822308
 20
4.292278463212804
 30
0.5
 11
4.088448801822308
 21
4.267864463212804
 31
0.5
  0
LINE
  5
21E
  8
0
 62
    42
 10
4.088448801822308
 20
4.267864463212804
 30
0.5
 11
4.081613801822307
 21
4.245403463212804
 31
0.5
  0
LINE
  5
21F
  8
0
 62
    42
 10
4.081613801822307
 20
4.245403463212804
 30
0.5
 11
4.074777801822307
 21
4.224895463212804
 31
0.5
  0
LINE
  5
220
  8
0
 62
    42
 10
4.074777801822307
 20
4.224895463212804
 30
0.5
 11
4.067941801822308
 21
4.205364463212804
 31
0.5
  0
LINE
  5
221
  8
0
 62
    42
 10
4.067941801822308
 20
4.205364463212804
 30
0.5
 11
4.062081801822307
 21
4.186809463212804
 31
0.5
  0
LINE
  5
222
  8
0
 62
    42
 10
4.062081801822307
 20
4.186809463212804
 30
0.5
 11
4.056222801822307
 21
4.170207463212804
 31
0.5
  0
LINE
  5
223
  8
0
 62
    42
 10
4.056222801822307
 20
4.170207463212804
 30
0.5
 11
4.050363801822307
 21
4.155559463212804
 31
0.5
  0
LINE
  5
224
  8
0
 62
    42
 10
4.050363801822307
 20
4.155559463212804
 30
0.5
 11
4.063058801822307
 21
4.153606463212804
 31
0.5
  0
LINE
  5
225
  8
0
 62
    42
 10
4.063058801822307
 20
4.153606463212804
 30
0.5
 11
4.075753801822308
 21
4.151653463212804
 31
0.5
  0
LINE
  5
226
  8
0
 62
    42
 10
4.075753801822308
 20
4.151653463212804
 30
0.5
 11
4.087472801822307
 21
4.150676463212804
 31
0.5
  0
LINE
  5
227
  8
0
 62
    42
 10
4.087472801822307
 20
4.150676463212804
 30
0.5
 11
4.099191801822308
 21
4.148723463212804
 31
0.5
  0
LINE
  5
228
  8
0
 62
    42
 10
4.099191801822308
 20
4.148723463212804
 30
0.5
 11
4.110909801822308
 21
4.147746463212804
 31
0.5
  0
LINE
  5
229
  8
0
 62
    42
 10
4.110909801822308
 20
4.147746463212804
 30
0.5
 11
4.121652801822307
 21
4.147746463212804
 31
0.5
  0
LINE
  5
22A
  8
0
 62
    42
 10
4.121652801822307
 20
4.147746463212804
 30
0.5
 11
4.132394801822308
 21
4.146770463212804
 31
0.5
  0
LINE
  5
22B
  8
0
 62
    42
 10
4.132394801822308
 20
4.146770463212804
 30
0.5
 11
4.143136801822307
 21
4.146770463212804
 31
0.5
  0
LINE
  5
22C
  8
0
 62
    42
 10
4.143136801822307
 20
4.146770463212804
 30
0.5
 11
4.149972801822307
 21
4.146770463212804
 31
0.5
  0
LINE
  5
22D
  8
0
 62
    42
 10
4.149972801822307
 20
4.146770463212804
 30
0.5
 11
4.156808801822307
 21
4.146770463212804
 31
0.5
  0
LINE
  5
22E
  8
0
 62
    42
 10
4.156808801822307
 20
4.146770463212804
 30
0.5
 11
4.162667801822307
 21
4.147746463212804
 31
0.5
  0
LINE
  5
22F
  8
0
 62
    42
 10
4.162667801822307
 20
4.147746463212804
 30
0.5
 11
4.169503801822308
 21
4.147746463212804
 31
0.5
  0
LINE
  5
230
  8
0
 62
    42
 10
4.169503801822308
 20
4.147746463212804
 30
0.5
 11
4.176339801822308
 21
4.148723463212804
 31
0.5
  0
LINE
  5
231
  8
0
 62
    42
 10
4.176339801822308
 20
4.148723463212804
 30
0.5
 11
4.182198801822308
 21
4.148723463212804
 31
0.5
  0
LINE
  5
232
  8
0
 62
    42
 10
4.182198801822308
 20
4.148723463212804
 30
0.5
 11
4.189034801822308
 21
4.149699463212804
 31
0.5
  0
LINE
  5
233
  8
0
 62
    42
 10
4.189034801822308
 20
4.149699463212804
 30
0.5
 11
4.195870801822307
 21
4.150676463212804
 31
0.5
  0
LINE
  5
234
  8
0
 62
    42
 10
4.195870801822307
 20
4.150676463212804
 30
0.5
 11
4.185128801822308
 21
4.113567463212804
 31
0.5
  0
LINE
  5
235
  8
0
 62
    42
 10
4.185128801822308
 20
4.113567463212804
 30
0.5
 11
4.180245801822307
 21
4.113567463212804
 31
0.5
  0
LINE
  5
236
  8
0
 62
    42
 10
4.180245801822307
 20
4.113567463212804
 30
0.5
 11
4.175363801822307
 21
4.112590463212804
 31
0.5
  0
LINE
  5
237
  8
0
 62
    42
 10
4.175363801822307
 20
4.112590463212804
 30
0.5
 11
4.171456801822307
 21
4.112590463212804
 31
0.5
  0
LINE
  5
238
  8
0
 62
    42
 10
4.171456801822307
 20
4.112590463212804
 30
0.5
 11
4.166573801822308
 21
4.111613463212804
 31
0.5
  0
LINE
  5
239
  8
0
 62
    42
 10
4.166573801822308
 20
4.111613463212804
 30
0.5
 11
4.162667801822307
 21
4.111613463212804
 31
0.5
  0
LINE
  5
23A
  8
0
 62
    42
 10
4.162667801822307
 20
4.111613463212804
 30
0.5
 11
4.157784801822308
 21
4.111613463212804
 31
0.5
  0
LINE
  5
23B
  8
0
 62
    42
 10
4.157784801822308
 20
4.111613463212804
 30
0.5
 11
4.153878801822308
 21
4.111613463212804
 31
0.5
  0
LINE
  5
23C
  8
0
 62
    42
 10
4.153878801822308
 20
4.111613463212804
 30
0.5
 11
4.149972801822307
 21
4.111613463212804
 31
0.5
  0
LINE
  5
23D
  8
0
 62
    42
 10
4.149972801822307
 20
4.111613463212804
 30
0.5
 11
4.145089801822308
 21
4.111613463212804
 31
0.5
  0
LINE
  5
23E
  8
0
 62
    42
 10
4.145089801822308
 20
4.111613463212804
 30
0.5
 11
4.139230801822308
 21
4.111613463212804
 31
0.5
  0
LINE
  5
23F
  8
0
 62
    42
 10
4.139230801822308
 20
4.111613463212804
 30
0.5
 11
4.130441801822308
 21
4.112590463212804
 31
0.5
  0
LINE
  5
240
  8
0
 62
    42
 10
4.130441801822308
 20
4.112590463212804
 30
0.5
 11
4.120675801822308
 21
4.112590463212804
 31
0.5
  0
LINE
  5
241
  8
0
 62
    42
 10
4.120675801822308
 20
4.112590463212804
 30
0.5
 11
4.107980801822308
 21
4.113567463212804
 31
0.5
  0
LINE
  5
242
  8
0
 62
    42
 10
4.107980801822308
 20
4.113567463212804
 30
0.5
 11
4.094308801822307
 21
4.114543463212804
 31
0.5
  0
LINE
  5
243
  8
0
 62
    42
 10
4.094308801822307
 20
4.114543463212804
 30
0.5
 11
4.077706801822307
 21
4.115520463212804
 31
0.5
  0
LINE
  5
244
  8
0
 62
    42
 10
4.077706801822307
 20
4.115520463212804
 30
0.5
 11
4.060128801822308
 21
4.116496463212804
 31
0.5
  0
LINE
  5
245
  8
0
 62
    42
 10
4.060128801822308
 20
4.116496463212804
 30
0.5
 11
4.049386801822307
 21
4.116496463212804
 31
0.5
  0
LINE
  5
246
  8
0
 62
    42
 10
4.049386801822307
 20
4.116496463212804
 30
0.5
 11
4.038644801822308
 21
4.117473463212804
 31
0.5
  0
LINE
  5
247
  8
0
 62
    42
 10
4.038644801822308
 20
4.117473463212804
 30
0.5
 11
4.027902801822307
 21
4.118449463212804
 31
0.5
  0
LINE
  5
248
  8
0
 62
    42
 10
4.027902801822307
 20
4.118449463212804
 30
0.5
 11
4.018136801822307
 21
4.118449463212804
 31
0.5
  0
LINE
  5
249
  8
0
 62
    42
 10
4.018136801822307
 20
4.118449463212804
 30
0.5
 11
4.009347801822307
 21
4.119426463212804
 31
0.5
  0
LINE
  5
24A
  8
0
 62
    42
 10
4.009347801822307
 20
4.119426463212804
 30
0.5
 11
4.000558801822307
 21
4.119426463212804
 31
0.5
  0
LINE
  5
24B
  8
0
 62
    42
 10
4.000558801822307
 20
4.119426463212804
 30
0.5
 11
3.991769801822307
 21
4.119426463212804
 31
0.5
  0
LINE
  5
24C
  8
0
 62
    42
 10
3.991769801822307
 20
4.119426463212804
 30
0.5
 11
3.983956801822307
 21
4.119426463212804
 31
0.5
  0
LINE
  5
24D
  8
0
 62
    42
 10
3.983956801822307
 20
4.119426463212804
 30
0.5
 11
3.968331801822307
 21
4.119426463212804
 31
0.5
  0
LINE
  5
24E
  8
0
 62
    42
 10
3.968331801822307
 20
4.119426463212804
 30
0.5
 11
3.951730801822308
 21
4.118449463212804
 31
0.5
  0
LINE
  5
24F
  8
0
 62
    42
 10
3.951730801822308
 20
4.118449463212804
 30
0.5
 11
3.935128801822307
 21
4.117473463212804
 31
0.5
  0
LINE
  5
250
  8
0
 62
    42
 10
3.935128801822307
 20
4.117473463212804
 30
0.5
 11
3.918527801822307
 21
4.116496463212804
 31
0.5
  0
LINE
  5
251
  8
0
 62
    42
 10
3.918527801822307
 20
4.116496463212804
 30
0.5
 11
3.901925801822308
 21
4.114543463212804
 31
0.5
  0
LINE
  5
252
  8
0
 62
    42
 10
3.901925801822308
 20
4.114543463212804
 30
0.5
 11
3.884347801822307
 21
4.112590463212804
 31
0.5
  0
LINE
  5
253
  8
0
 62
    42
 10
3.884347801822307
 20
4.112590463212804
 30
0.5
 11
3.866769801822307
 21
4.110637463212804
 31
0.5
  0
LINE
  5
254
  8
0
 62
    42
 10
3.866769801822307
 20
4.110637463212804
 30
0.5
 11
3.849191801822308
 21
4.107707463212804
 31
0.5
  0
LINE
  5
255
  8
0
 62
    42
 10
3.849191801822308
 20
4.107707463212804
 30
0.5
 11
3.857003801822307
 21
4.143840463212804
 31
0.5
  0
LINE
  5
256
  8
0
 62
    42
 10
3.857003801822307
 20
4.143840463212804
 30
0.5
 11
3.870675801822308
 21
4.146770463212804
 31
0.5
  0
LINE
  5
257
  8
0
 62
    42
 10
3.870675801822308
 20
4.146770463212804
 30
0.5
 11
3.883370801822307
 21
4.149699463212804
 31
0.5
  0
LINE
  5
258
  8
0
 62
    42
 10
3.883370801822307
 20
4.149699463212804
 30
0.5
 11
3.895089801822308
 21
4.153606463212804
 31
0.5
  0
LINE
  5
259
  8
0
 62
    42
 10
3.895089801822308
 20
4.153606463212804
 30
0.5
 11
3.904855801822308
 21
4.156535463212804
 31
0.5
  0
LINE
  5
25A
  8
0
 62
    42
 10
3.904855801822308
 20
4.156535463212804
 30
0.5
 11
3.914620801822307
 21
4.159465463212804
 31
0.5
  0
LINE
  5
25B
  8
0
 62
    42
 10
3.914620801822307
 20
4.159465463212804
 30
0.5
 11
3.921456801822307
 21
4.163371463212804
 31
0.5
  0
LINE
  5
25C
  8
0
 62
    42
 10
3.921456801822307
 20
4.163371463212804
 30
0.5
 11
3.928292801822308
 21
4.166301463212804
 31
0.5
  0
LINE
  5
25D
  8
0
 62
    42
 10
3.928292801822308
 20
4.166301463212804
 30
0.5
 11
3.933175801822308
 21
4.170207463212804
 31
0.5
  0
LINE
  5
25E
  8
0
 62
    42
 10
3.933175801822308
 20
4.170207463212804
 30
0.5
 11
3.938058801822308
 21
4.173137463212804
 31
0.5
  0
LINE
  5
25F
  8
0
 62
    42
 10
3.938058801822308
 20
4.173137463212804
 30
0.5
 11
3.941964801822308
 21
4.177043463212804
 31
0.5
  0
LINE
  5
260
  8
0
 62
    42
 10
3.941964801822308
 20
4.177043463212804
 30
0.5
 11
3.945870801822307
 21
4.180949463212804
 31
0.5
  0
LINE
  5
261
  8
0
 62
    42
 10
3.945870801822307
 20
4.180949463212804
 30
0.5
 11
3.949777801822307
 21
4.184856463212804
 31
0.5
  0
LINE
  5
262
  8
0
 62
    42
 10
3.949777801822307
 20
4.184856463212804
 30
0.5
 11
3.953683801822308
 21
4.188762463212804
 31
0.5
  0
LINE
  5
263
  8
0
 62
    42
 10
3.953683801822308
 20
4.188762463212804
 30
0.5
 11
3.956613801822308
 21
4.193645463212804
 31
0.5
  0
LINE
  5
264
  8
0
 62
    42
 10
3.956613801822308
 20
4.193645463212804
 30
0.5
 11
3.959542801822308
 21
4.197551463212804
 31
0.5
  0
LINE
  5
265
  8
0
 62
    42
 10
3.959542801822308
 20
4.197551463212804
 30
0.5
 11
3.961495801822307
 21
4.202434463212804
 31
0.5
  0
LINE
  5
266
  8
0
 62
    42
 10
3.961495801822307
 20
4.202434463212804
 30
0.5
 11
3.967355801822308
 21
4.215129463212804
 31
0.5
  0
LINE
  5
267
  8
0
 62
    42
 10
3.967355801822308
 20
4.215129463212804
 30
0.5
 11
3.974191801822308
 21
4.232707463212804
 31
0.5
  0
LINE
  5
268
  8
0
 62
    42
 10
3.974191801822308
 20
4.232707463212804
 30
0.5
 11
3.982003801822307
 21
4.256145463212804
 31
0.5
  0
LINE
  5
269
  8
0
 62
    42
 10
3.982003801822307
 20
4.256145463212804
 30
0.5
 11
3.990792801822308
 21
4.284465463212804
 31
0.5
  0
LINE
  5
26A
  8
0
 62
    42
 10
3.990792801822308
 20
4.284465463212804
 30
0.5
 11
4.000558801822307
 21
4.317668463212804
 31
0.5
  0
LINE
  5
26B
  8
0
 62
    42
 10
4.000558801822307
 20
4.317668463212804
 30
0.5
 11
4.012277801822307
 21
4.355754463212804
 31
0.5
  0
LINE
  5
26C
  8
0
 62
    42
 10
4.012277801822307
 20
4.355754463212804
 30
0.5
 11
4.023995801822307
 21
4.399699463212804
 31
0.5
  0
LINE
  5
26D
  8
0
 62
    42
 10
4.023995801822307
 20
4.399699463212804
 30
0.5
 11
4.037667801822307
 21
4.448528463212804
 31
0.5
  0
LINE
  5
26E
  8
0
 62
    42
 10
4.037667801822307
 20
4.448528463212804
 30
0.5
 11
4.136300801822308
 21
4.839153463212804
 31
0.5
  0
LINE
  5
26F
  8
0
 62
    42
 10
4.136300801822308
 20
4.839153463212804
 30
0.5
 11
4.114816801822308
 21
4.838176463212804
 31
0.5
  0
LINE
  5
270
  8
0
 62
    42
 10
4.114816801822308
 20
4.838176463212804
 30
0.5
 11
4.094308801822307
 21
4.835246463212804
 31
0.5
  0
LINE
  5
271
  8
0
 62
    42
 10
4.094308801822307
 20
4.835246463212804
 30
0.5
 11
4.073800801822308
 21
4.832317463212804
 31
0.5
  0
LINE
  5
272
  8
0
 62
    42
 10
4.073800801822308
 20
4.832317463212804
 30
0.5
 11
4.055245801822307
 21
4.828410463212804
 31
0.5
  0
LINE
  5
273
  8
0
 62
    42
 10
4.055245801822307
 20
4.828410463212804
 30
0.5
 11
4.035714801822308
 21
4.822551463212804
 31
0.5
  0
LINE
  5
274
  8
0
 62
    42
 10
4.035714801822308
 20
4.822551463212804
 30
0.5
 11
4.018136801822307
 21
4.815715463212804
 31
0.5
  0
LINE
  5
275
  8
0
 62
    42
 10
4.018136801822307
 20
4.815715463212804
 30
0.5
 11
4.000558801822307
 21
4.808879463212804
 31
0.5
  0
LINE
  5
276
  8
0
 62
    42
 10
4.000558801822307
 20
4.808879463212804
 30
0.5
 11
3.983956801822307
 21
4.800090463212804
 31
0.5
  0
LINE
  5
277
  8
0
 62
    42
 10
3.983956801822307
 20
4.800090463212804
 30
0.5
 11
3.968331801822307
 21
4.790324463212804
 31
0.5
  0
LINE
  5
278
  8
0
 62
    42
 10
3.968331801822307
 20
4.790324463212804
 30
0.5
 11
3.952706801822307
 21
4.780559463212804
 31
0.5
  0
LINE
  5
279
  8
0
 62
    42
 10
3.952706801822307
 20
4.780559463212804
 30
0.5
 11
3.939034801822308
 21
4.768840463212804
 31
0.5
  0
LINE
  5
27A
  8
0
 62
    42
 10
3.939034801822308
 20
4.768840463212804
 30
0.5
 11
3.925363801822308
 21
4.757121463212804
 31
0.5
  0
LINE
  5
27B
  8
0
 62
    42
 10
3.925363801822308
 20
4.757121463212804
 30
0.5
 11
3.912667801822308
 21
4.744426463212804
 31
0.5
  0
LINE
  5
27C
  8
0
 62
    42
 10
3.912667801822308
 20
4.744426463212804
 30
0.5
 11
3.900948801822307
 21
4.730754463212804
 31
0.5
  0
LINE
  5
27D
  8
0
 62
    42
 10
3.900948801822307
 20
4.730754463212804
 30
0.5
 11
3.890206801822307
 21
4.717082463212804
 31
0.5
  0
LINE
  5
27E
  8
0
 62
    42
 10
3.890206801822307
 20
4.717082463212804
 30
0.5
 11
3.880441801822308
 21
4.701457463212804
 31
0.5
  0
LINE
  5
27F
  8
0
 62
    42
 10
3.880441801822308
 20
4.701457463212804
 30
0.5
 11
3.870675801822308
 21
4.686809463212804
 31
0.5
  0
LINE
  5
280
  8
0
 62
    42
 10
3.870675801822308
 20
4.686809463212804
 30
0.5
 11
3.862863801822308
 21
4.671184463212804
 31
0.5
  0
LINE
  5
281
  8
0
 62
    42
 10
3.862863801822308
 20
4.671184463212804
 30
0.5
 11
3.856027801822307
 21
4.655559463212804
 31
0.5
  0
LINE
  5
282
  8
0
 62
    42
 10
3.856027801822307
 20
4.655559463212804
 30
0.5
 11
3.851144801822307
 21
4.639934463212804
 31
0.5
  0
LINE
  5
283
  8
0
 62
    42
 10
3.851144801822307
 20
4.639934463212804
 30
0.5
 11
3.847238801822308
 21
4.624309463212804
 31
0.5
  0
LINE
  5
284
  8
0
 62
    42
 10
3.847238801822308
 20
4.624309463212804
 30
0.5
 11
3.843331801822307
 21
4.608684463212804
 31
0.5
  0
LINE
  5
285
  8
0
 62
    42
 10
3.843331801822307
 20
4.608684463212804
 30
0.5
 11
3.842355801822308
 21
4.593059463212804
 31
0.5
  0
LINE
  5
286
  8
0
 62
    42
 10
3.842355801822308
 20
4.593059463212804
 30
0.5
 11
3.841378801822307
 21
4.577434463212804
 31
0.5
  0
LINE
  5
287
  8
0
 62
    42
 10
3.841378801822307
 20
4.577434463212804
 30
0.5
 11
3.841378801822307
 21
4.570598463212804
 31
0.5
  0
LINE
  5
288
  8
0
 62
    42
 10
3.841378801822307
 20
4.570598463212804
 30
0.5
 11
3.841378801822307
 21
4.564739463212804
 31
0.5
  0
LINE
  5
289
  8
0
 62
    42
 10
3.841378801822307
 20
4.564739463212804
 30
0.5
 11
3.842355801822308
 21
4.557903463212804
 31
0.5
  0
LINE
  5
28A
  8
0
 62
    42
 10
3.842355801822308
 20
4.557903463212804
 30
0.5
 11
3.843331801822307
 21
4.551067463212804
 31
0.5
  0
LINE
  5
28B
  8
0
 62
    42
 10
3.843331801822307
 20
4.551067463212804
 30
0.5
 11
3.844308801822308
 21
4.545207463212804
 31
0.5
  0
LINE
  5
28C
  8
0
 62
    42
 10
3.844308801822308
 20
4.545207463212804
 30
0.5
 11
3.845284801822308
 21
4.538371463212804
 31
0.5
  0
LINE
  5
28D
  8
0
 62
    42
 10
3.845284801822308
 20
4.538371463212804
 30
0.5
 11
3.846261801822307
 21
4.531535463212804
 31
0.5
  0
LINE
  5
28E
  8
0
 62
    42
 10
3.846261801822307
 20
4.531535463212804
 30
0.5
 11
3.848214801822308
 21
4.524699463212804
 31
0.5
  0
LINE
  5
28F
  8
0
 62
    42
 10
3.848214801822308
 20
4.524699463212804
 30
0.5
 11
3.849191801822308
 21
4.520793463212804
 31
0.5
  0
LINE
  5
290
  8
0
 62
    42
 10
3.849191801822308
 20
4.520793463212804
 30
0.5
 11
3.850167801822308
 21
4.516887463212804
 31
0.5
  0
LINE
  5
291
  8
0
 62
    42
 10
3.850167801822308
 20
4.516887463212804
 30
0.5
 11
3.852120801822307
 21
4.512004463212804
 31
0.5
  0
LINE
  5
292
  8
0
 62
    42
 10
3.852120801822307
 20
4.512004463212804
 30
0.5
 11
3.854073801822307
 21
4.506145463212804
 31
0.5
  0
LINE
  5
293
  8
0
 62
    42
 10
3.854073801822307
 20
4.506145463212804
 30
0.5
 11
3.857003801822307
 21
4.501262463212804
 31
0.5
  0
LINE
  5
294
  8
0
 62
    42
 10
3.857003801822307
 20
4.501262463212804
 30
0.5
 11
3.859933801822308
 21
4.495403463212804
 31
0.5
  0
LINE
  5
295
  8
0
 62
    42
 10
3.859933801822308
 20
4.495403463212804
 30
0.5
 11
3.862863801822308
 21
4.488567463212804
 31
0.5
  0
LINE
  5
296
  8
0
 62
    42
 10
3.862863801822308
 20
4.488567463212804
 30
0.5
 11
3.866769801822307
 21
4.481731463212804
 31
0.5
  0
LINE
  5
297
  8
0
 62
    42
 10
3.866769801822307
 20
4.481731463212804
 30
0.5
 11
3.870675801822308
 21
4.473918463212804
 31
0.5
  0
LINE
  5
298
  8
0
 62
    42
 10
3.870675801822308
 20
4.473918463212804
 30
0.5
 11
3.874581801822307
 21
4.466106463212804
 31
0.5
  0
LINE
  5
299
  8
0
 62
    42
 10
3.874581801822307
 20
4.466106463212804
 30
0.5
 11
3.877511801822307
 21
4.459270463212804
 31
0.5
  0
LINE
  5
29A
  8
0
 62
    42
 10
3.877511801822307
 20
4.459270463212804
 30
0.5
 11
3.880441801822308
 21
4.452434463212804
 31
0.5
  0
LINE
  5
29B
  8
0
 62
    42
 10
3.880441801822308
 20
4.452434463212804
 30
0.5
 11
3.882394801822307
 21
4.446574463212804
 31
0.5
  0
LINE
  5
29C
  8
0
 62
    42
 10
3.882394801822307
 20
4.446574463212804
 30
0.5
 11
3.884347801822307
 21
4.441692463212804
 31
0.5
  0
LINE
  5
29D
  8
0
 62
    42
 10
3.884347801822307
 20
4.441692463212804
 30
0.5
 11
3.885323801822307
 21
4.437785463212804
 31
0.5
  0
LINE
  5
29E
  8
0
 62
    42
 10
3.885323801822307
 20
4.437785463212804
 30
0.5
 11
3.885323801822307
 21
4.433879463212804
 31
0.5
  0
LINE
  5
29F
  8
0
 62
    42
 10
3.885323801822307
 20
4.433879463212804
 30
0.5
 11
3.885323801822307
 21
4.429973463212804
 31
0.5
  0
LINE
  5
2A0
  8
0
 62
    42
 10
3.885323801822307
 20
4.429973463212804
 30
0.5
 11
3.884347801822307
 21
4.427043463212804
 31
0.5
  0
LINE
  5
2A1
  8
0
 62
    42
 10
3.884347801822307
 20
4.427043463212804
 30
0.5
 11
3.883370801822307
 21
4.424114463212804
 31
0.5
  0
LINE
  5
2A2
  8
0
 62
    42
 10
3.883370801822307
 20
4.424114463212804
 30
0.5
 11
3.882394801822307
 21
4.421184463212804
 31
0.5
  0
LINE
  5
2A3
  8
0
 62
    42
 10
3.882394801822307
 20
4.421184463212804
 30
0.5
 11
3.881417801822308
 21
4.418254463212804
 31
0.5
  0
LINE
  5
2A4
  8
0
 62
    42
 10
3.881417801822308
 20
4.418254463212804
 30
0.5
 11
3.879464801822308
 21
4.415324463212804
 31
0.5
  0
LINE
  5
2A5
  8
0
 62
    42
 10
3.879464801822308
 20
4.415324463212804
 30
0.5
 11
3.876534801822308
 21
4.412395463212804
 31
0.5
  0
LINE
  5
2A6
  8
0
 62
    42
 10
3.876534801822308
 20
4.412395463212804
 30
0.5
 11
3.874581801822307
 21
4.409465463212804
 31
0.5
  0
LINE
  5
2A7
  8
0
 62
    42
 10
3.874581801822307
 20
4.409465463212804
 30
0.5
 11
3.871652801822307
 21
4.407512463212804
 31
0.5
  0
LINE
  5
2A8
  8
0
 62
    42
 10
3.871652801822307
 20
4.407512463212804
 30
0.5
 11
3.868722801822307
 21
4.405559463212804
 31
0.5
  0
LINE
  5
2A9
  8
0
 62
    42
 10
3.868722801822307
 20
4.405559463212804
 30
0.5
 11
3.864816801822308
 21
4.403606463212804
 31
0.5
  0
LINE
  5
2AA
  8
0
 62
    42
 10
3.864816801822308
 20
4.403606463212804
 30
0.5
 11
3.861886801822307
 21
4.402629463212804
 31
0.5
  0
LINE
  5
2AB
  8
0
 62
    42
 10
3.861886801822307
 20
4.402629463212804
 30
0.5
 11
3.857980801822308
 21
4.400676463212804
 31
0.5
  0
LINE
  5
2AC
  8
0
 62
    42
 10
3.857980801822308
 20
4.400676463212804
 30
0.5
 11
3.854073801822307
 21
4.400676463212804
 31
0.5
  0
LINE
  5
2AD
  8
0
 62
    42
 10
3.854073801822307
 20
4.400676463212804
 30
0.5
 11
3.850167801822308
 21
4.399699463212804
 31
0.5
  0
LINE
  5
2AE
  8
0
 62
    42
 10
3.850167801822308
 20
4.399699463212804
 30
0.5
 11
3.845284801822308
 21
4.399699463212804
 31
0.5
  0
LINE
  5
2AF
  8
0
 62
    42
 10
3.845284801822308
 20
4.399699463212804
 30
0.5
 11
3.839425801822308
 21
4.399699463212804
 31
0.5
  0
LINE
  5
2B0
  8
0
 62
    42
 10
3.839425801822308
 20
4.399699463212804
 30
0.5
 11
3.832589801822308
 21
4.401653463212804
 31
0.5
  0
LINE
  5
2B1
  8
0
 62
    42
 10
3.832589801822308
 20
4.401653463212804
 30
0.5
 11
3.827706801822307
 21
4.403606463212804
 31
0.5
  0
LINE
  5
2B2
  8
0
 62
    42
 10
3.827706801822307
 20
4.403606463212804
 30
0.5
 11
3.821847801822307
 21
4.406535463212804
 31
0.5
  0
LINE
  5
2B3
  8
0
 62
    42
 10
3.821847801822307
 20
4.406535463212804
 30
0.5
 11
3.816964801822308
 21
4.410442463212804
 31
0.5
  0
LINE
  5
2B4
  8
0
 62
    42
 10
3.816964801822308
 20
4.410442463212804
 30
0.5
 11
3.812081801822307
 21
4.415324463212804
 31
0.5
  0
LINE
  5
2B5
  8
0
 62
    42
 10
3.812081801822307
 20
4.415324463212804
 30
0.5
 11
3.807198801822307
 21
4.420207463212804
 31
0.5
  0
LINE
  5
2B6
  8
0
 62
    42
 10
3.807198801822307
 20
4.420207463212804
 30
0.5
 11
3.803292801822308
 21
4.427043463212804
 31
0.5
  0
LINE
  5
2B7
  8
0
 62
    42
 10
3.803292801822308
 20
4.427043463212804
 30
0.5
 11
3.797433801822308
 21
4.436809463212804
 31
0.5
  0
LINE
  5
2B8
  8
0
 62
    42
 10
3.797433801822308
 20
4.436809463212804
 30
0.5
 11
3.793527801822307
 21
4.447551463212804
 31
0.5
  0
LINE
  5
2B9
  8
0
 62
    42
 10
3.793527801822307
 20
4.447551463212804
 30
0.5
 11
3.789620801822307
 21
4.458293463212804
 31
0.5
  0
LINE
  5
2BA
  8
0
 62
    42
 10
3.789620801822307
 20
4.458293463212804
 30
0.5
 11
3.786691801822308
 21
4.470989463212804
 31
0.5
  0
LINE
  5
2BB
  8
0
 62
    42
 10
3.786691801822308
 20
4.470989463212804
 30
0.5
 11
3.783761801822307
 21
4.484660463212804
 31
0.5
  0
LINE
  5
2BC
  8
0
 62
    42
 10
3.783761801822307
 20
4.484660463212804
 30
0.5
 11
3.781808801822308
 21
4.499309463212804
 31
0.5
  0
LINE
  5
2BD
  8
0
 62
    42
 10
3.781808801822308
 20
4.499309463212804
 30
0.5
 11
3.780831801822307
 21
4.513957463212804
 31
0.5
  0
LINE
  5
2BE
  8
0
 62
    42
 10
3.780831801822307
 20
4.513957463212804
 30
0.5
 11
3.780831801822307
 21
4.530559463212804
 31
0.5
  0
LINE
  5
2BF
  8
0
 62
    42
 10
3.780831801822307
 20
4.530559463212804
 30
0.5
 11
3.782784801822308
 21
4.562785463212804
 31
0.5
  0
LINE
  5
2C0
  8
0
 62
    42
 10
4.555245801822307
 20
4.562785463212804
 30
0.5
 11
4.560128801822308
 21
4.595012463212804
 31
0.5
  0
LINE
  5
2C1
  8
0
 62
    42
 10
4.560128801822308
 20
4.595012463212804
 30
0.5
 11
4.567941801822308
 21
4.626262463212804
 31
0.5
  0
LINE
  5
2C2
  8
0
 62
    42
 10
4.567941801822308
 20
4.626262463212804
 30
0.5
 11
4.578683801822307
 21
4.656535463212804
 31
0.5
  0
LINE
  5
2C3
  8
0
 62
    42
 10
4.578683801822307
 20
4.656535463212804
 30
0.5
 11
4.593331801822307
 21
4.685832463212804
 31
0.5
  0
LINE
  5
2C4
  8
0
 62
    42
 10
4.593331801822307
 20
4.685832463212804
 30
0.5
 11
4.610909801822308
 21
4.715129463212804
 31
0.5
  0
LINE
  5
2C5
  8
0
 62
    42
 10
4.610909801822308
 20
4.715129463212804
 30
0.5
 11
4.631417801822307
 21
4.743449463212804
 31
0.5
  0
LINE
  5
2C6
  8
0
 62
    42
 10
4.631417801822307
 20
4.743449463212804
 30
0.5
 11
4.655831801822307
 21
4.771770463212804
 31
0.5
  0
LINE
  5
2C7
  8
0
 62
    42
 10
4.655831801822307
 20
4.771770463212804
 30
0.5
 11
4.682198801822308
 21
4.797160463212804
 31
0.5
  0
LINE
  5
2C8
  8
0
 62
    42
 10
4.682198801822308
 20
4.797160463212804
 30
0.5
 11
4.710519801822308
 21
4.819621463212804
 31
0.5
  0
LINE
  5
2C9
  8
0
 62
    42
 10
4.710519801822308
 20
4.819621463212804
 30
0.5
 11
4.741769801822308
 21
4.838176463212804
 31
0.5
  0
LINE
  5
2CA
  8
0
 62
    42
 10
4.741769801822308
 20
4.838176463212804
 30
0.5
 11
4.773995801822307
 21
4.853801463212804
 31
0.5
  0
LINE
  5
2CB
  8
0
 62
    42
 10
4.773995801822307
 20
4.853801463212804
 30
0.5
 11
4.808175801822308
 21
4.865520463212804
 31
0.5
  0
LINE
  5
2CC
  8
0
 62
    42
 10
4.808175801822308
 20
4.865520463212804
 30
0.5
 11
4.845284801822308
 21
4.874309463212804
 31
0.5
  0
LINE
  5
2CD
  8
0
 62
    42
 10
4.845284801822308
 20
4.874309463212804
 30
0.5
 11
4.884347801822307
 21
4.879192463212804
 31
0.5
  0
LINE
  5
2CE
  8
0
 62
    42
 10
4.884347801822307
 20
4.879192463212804
 30
0.5
 11
4.924386801822307
 21
4.881145463212804
 31
0.5
  0
LINE
  5
2CF
  8
0
 62
    42
 10
4.924386801822307
 20
4.881145463212804
 30
0.5
 11
5.174386801822307
 21
4.881145463212804
 31
0.5
  0
LINE
  5
2D0
  8
0
 62
    42
 10
5.174386801822307
 20
4.881145463212804
 30
0.5
 11
5.185128801822307
 21
4.881145463212804
 31
0.5
  0
LINE
  5
2D1
  8
0
 62
    42
 10
5.185128801822307
 20
4.881145463212804
 30
0.5
 11
5.195870801822307
 21
4.881145463212804
 31
0.5
  0
LINE
  5
2D2
  8
0
 62
    42
 10
5.195870801822307
 20
4.881145463212804
 30
0.5
 11
5.206613801822307
 21
4.882121463212804
 31
0.5
  0
LINE
  5
2D3
  8
0
 62
    42
 10
5.206613801822307
 20
4.882121463212804
 30
0.5
 11
5.218331801822307
 21
4.882121463212804
 31
0.5
  0
LINE
  5
2D4
  8
0
 62
    42
 10
5.218331801822307
 20
4.882121463212804
 30
0.5
 11
5.230050801822308
 21
4.883098463212804
 31
0.5
  0
LINE
  5
2D5
  8
0
 62
    42
 10
5.230050801822308
 20
4.883098463212804
 30
0.5
 11
5.241769801822308
 21
4.884074463212804
 31
0.5
  0
LINE
  5
2D6
  8
0
 62
    42
 10
5.241769801822308
 20
4.884074463212804
 30
0.5
 11
5.253488801822307
 21
4.885051463212804
 31
0.5
  0
LINE
  5
2D7
  8
0
 62
    42
 10
5.253488801822307
 20
4.885051463212804
 30
0.5
 11
5.266183801822308
 21
4.886028463212804
 31
0.5
  0
LINE
  5
2D8
  8
0
 62
    42
 10
5.266183801822308
 20
4.886028463212804
 30
0.5
 11
5.270089801822308
 21
4.887004463212804
 31
0.5
  0
LINE
  5
2D9
  8
0
 62
    42
 10
5.270089801822308
 20
4.887004463212804
 30
0.5
 11
5.275948801822308
 21
4.887981463212804
 31
0.5
  0
LINE
  5
2DA
  8
0
 62
    42
 10
5.275948801822308
 20
4.887981463212804
 30
0.5
 11
5.282784801822308
 21
4.888957463212804
 31
0.5
  0
LINE
  5
2DB
  8
0
 62
    42
 10
5.282784801822308
 20
4.888957463212804
 30
0.5
 11
5.289620801822307
 21
4.889934463212804
 31
0.5
  0
LINE
  5
2DC
  8
0
 62
    42
 10
5.289620801822307
 20
4.889934463212804
 30
0.5
 11
5.298409801822308
 21
4.891887463212804
 31
0.5
  0
LINE
  5
2DD
  8
0
 62
    42
 10
5.298409801822308
 20
4.891887463212804
 30
0.5
 11
5.308175801822308
 21
4.893840463212804
 31
0.5
  0
LINE
  5
2DE
  8
0
 62
    42
 10
5.308175801822308
 20
4.893840463212804
 30
0.5
 11
5.318917801822307
 21
4.896770463212804
 31
0.5
  0
LINE
  5
2DF
  8
0
 62
    42
 10
5.318917801822307
 20
4.896770463212804
 30
0.5
 11
5.330636801822307
 21
4.899699463212804
 31
0.5
  0
LINE
  5
2E0
  8
0
 62
    42
 10
5.330636801822307
 20
4.899699463212804
 30
0.5
 11
5.322823801822308
 21
4.867473463212804
 31
0.5
  0
LINE
  5
2E1
  8
0
 62
    42
 10
5.322823801822308
 20
4.867473463212804
 30
0.5
 11
5.315988801822307
 21
4.838176463212804
 31
0.5
  0
LINE
  5
2E2
  8
0
 62
    42
 10
5.315988801822307
 20
4.838176463212804
 30
0.5
 11
5.309152801822307
 21
4.811809463212804
 31
0.5
  0
LINE
  5
2E3
  8
0
 62
    42
 10
5.309152801822307
 20
4.811809463212804
 30
0.5
 11
5.304269801822308
 21
4.788371463212804
 31
0.5
  0
LINE
  5
2E4
  8
0
 62
    42
 10
5.304269801822308
 20
4.788371463212804
 30
0.5
 11
5.299386801822307
 21
4.768840463212804
 31
0.5
  0
LINE
  5
2E5
  8
0
 62
    42
 10
5.299386801822307
 20
4.768840463212804
 30
0.5
 11
5.295480801822308
 21
4.751262463212804
 31
0.5
  0
LINE
  5
2E6
  8
0
 62
    42
 10
5.295480801822308
 20
4.751262463212804
 30
0.5
 11
5.292550801822308
 21
4.737590463212804
 31
0.5
  0
LINE
  5
2E7
  8
0
 62
    42
 10
5.292550801822308
 20
4.737590463212804
 30
0.5
 11
5.290597801822307
 21
4.726848463212804
 31
0.5
  0
LINE
  5
2E8
  8
0
 62
    42
 10
5.290597801822307
 20
4.726848463212804
 30
0.5
 11
5.255441801822308
 21
4.726848463212804
 31
0.5
  0
LINE
  5
2E9
  8
0
 62
    42
 10
5.255441801822308
 20
4.726848463212804
 30
0.5
 11
5.258370801822307
 21
4.739543463212804
 31
0.5
  0
LINE
  5
2EA
  8
0
 62
    42
 10
5.258370801822307
 20
4.739543463212804
 30
0.5
 11
5.260323801822308
 21
4.751262463212804
 31
0.5
  0
LINE
  5
2EB
  8
0
 62
    42
 10
5.260323801822308
 20
4.751262463212804
 30
0.5
 11
5.262277801822307
 21
4.762004463212804
 31
0.5
  0
LINE
  5
2EC
  8
0
 62
    42
 10
5.262277801822307
 20
4.762004463212804
 30
0.5
 11
5.263253801822307
 21
4.771770463212804
 31
0.5
  0
LINE
  5
2ED
  8
0
 62
    42
 10
5.263253801822307
 20
4.771770463212804
 30
0.5
 11
5.265206801822307
 21
4.779582463212804
 31
0.5
  0
LINE
  5
2EE
  8
0
 62
    42
 10
5.265206801822307
 20
4.779582463212804
 30
0.5
 11
5.266183801822308
 21
4.786418463212804
 31
0.5
  0
LINE
  5
2EF
  8
0
 62
    42
 10
5.266183801822308
 20
4.786418463212804
 30
0.5
 11
5.266183801822308
 21
4.792278463212804
 31
0.5
  0
LINE
  5
2F0
  8
0
 62
    42
 10
5.266183801822308
 20
4.792278463212804
 30
0.5
 11
5.266183801822308
 21
4.797160463212804
 31
0.5
  0
LINE
  5
2F1
  8
0
 62
    42
 10
5.266183801822308
 20
4.797160463212804
 30
0.5
 11
5.266183801822308
 21
4.802043463212804
 31
0.5
  0
LINE
  5
2F2
  8
0
 62
    42
 10
5.266183801822308
 20
4.802043463212804
 30
0.5
 11
5.265206801822307
 21
4.806926463212804
 31
0.5
  0
LINE
  5
2F3
  8
0
 62
    42
 10
5.265206801822307
 20
4.806926463212804
 30
0.5
 11
5.264230801822308
 21
4.811809463212804
 31
0.5
  0
LINE
  5
2F4
  8
0
 62
    42
 10
5.264230801822308
 20
4.811809463212804
 30
0.5
 11
5.263253801822307
 21
4.815715463212804
 31
0.5
  0
LINE
  5
2F5
  8
0
 62
    42
 10
5.263253801822307
 20
4.815715463212804
 30
0.5
 11
5.260323801822308
 21
4.819621463212804
 31
0.5
  0
LINE
  5
2F6
  8
0
 62
    42
 10
5.260323801822308
 20
4.819621463212804
 30
0.5
 11
5.258370801822307
 21
4.822551463212804
 31
0.5
  0
LINE
  5
2F7
  8
0
 62
    42
 10
5.258370801822307
 20
4.822551463212804
 30
0.5
 11
5.255441801822308
 21
4.826457463212804
 31
0.5
  0
LINE
  5
2F8
  8
0
 62
    42
 10
5.255441801822308
 20
4.826457463212804
 30
0.5
 11
5.251534801822308
 21
4.828410463212804
 31
0.5
  0
LINE
  5
2F9
  8
0
 62
    42
 10
5.251534801822308
 20
4.828410463212804
 30
0.5
 11
5.247628801822307
 21
4.831340463212804
 31
0.5
  0
LINE
  5
2FA
  8
0
 62
    42
 10
5.247628801822307
 20
4.831340463212804
 30
0.5
 11
5.242745801822307
 21
4.833293463212804
 31
0.5
  0
LINE
  5
2FB
  8
0
 62
    42
 10
5.242745801822307
 20
4.833293463212804
 30
0.5
 11
5.236886801822307
 21
4.835246463212804
 31
0.5
  0
LINE
  5
2FC
  8
0
 62
    42
 10
5.236886801822307
 20
4.835246463212804
 30
0.5
 11
5.230050801822308
 21
4.836223463212804
 31
0.5
  0
LINE
  5
2FD
  8
0
 62
    42
 10
5.230050801822308
 20
4.836223463212804
 30
0.5
 11
5.222238801822307
 21
4.838176463212804
 31
0.5
  0
LINE
  5
2FE
  8
0
 62
    42
 10
5.222238801822307
 20
4.838176463212804
 30
0.5
 11
5.214425801822308
 21
4.838176463212804
 31
0.5
  0
LINE
  5
2FF
  8
0
 62
    42
 10
5.214425801822308
 20
4.838176463212804
 30
0.5
 11
5.204659801822308
 21
4.839153463212804
 31
0.5
  0
LINE
  5
300
  8
0
 62
    42
 10
5.204659801822308
 20
4.839153463212804
 30
0.5
 11
5.194894801822308
 21
4.839153463212804
 31
0.5
  0
LINE
  5
301
  8
0
 62
    42
 10
5.194894801822308
 20
4.839153463212804
 30
0.5
 11
5.153878801822307
 21
4.838176463212804
 31
0.5
  0
LINE
  5
302
  8
0
 62
    42
 10
5.153878801822307
 20
4.838176463212804
 30
0.5
 11
5.140206801822307
 21
4.839153463212804
 31
0.5
  0
LINE
  5
303
  8
0
 62
    42
 10
5.140206801822307
 20
4.839153463212804
 30
0.5
 11
5.010323801822308
 21
4.839153463212804
 31
0.5
  0
LINE
  5
304
  8
0
 62
    42
 10
5.010323801822308
 20
4.839153463212804
 30
0.5
 11
5.009347801822307
 21
4.834270463212804
 31
0.5
  0
LINE
  5
305
  8
0
 62
    42
 10
5.009347801822307
 20
4.834270463212804
 30
0.5
 11
5.007394801822308
 21
4.828410463212804
 31
0.5
  0
LINE
  5
306
  8
0
 62
    42
 10
5.007394801822308
 20
4.828410463212804
 30
0.5
 11
5.005441801822308
 21
4.821574463212804
 31
0.5
  0
LINE
  5
307
  8
0
 62
    42
 10
5.005441801822308
 20
4.821574463212804
 30
0.5
 11
5.003488801822307
 21
4.812785463212804
 31
0.5
  0
LINE
  5
308
  8
0
 62
    42
 10
5.003488801822307
 20
4.812785463212804
 30
0.5
 11
5.000558801822308
 21
4.802043463212804
 31
0.5
  0
LINE
  5
309
  8
0
 62
    42
 10
5.000558801822308
 20
4.802043463212804
 30
0.5
 11
4.996652801822307
 21
4.790324463212804
 31
0.5
  0
LINE
  5
30A
  8
0
 62
    42
 10
4.996652801822307
 20
4.790324463212804
 30
0.5
 11
4.993722801822307
 21
4.777629463212804
 31
0.5
  0
LINE
  5
30B
  8
0
 62
    42
 10
4.993722801822307
 20
4.777629463212804
 30
0.5
 11
4.988839801822308
 21
4.762981463212804
 31
0.5
  0
LINE
  5
30C
  8
0
 62
    42
 10
4.988839801822308
 20
4.762981463212804
 30
0.5
 11
4.981027801822307
 21
4.731731463212804
 31
0.5
  0
LINE
  5
30D
  8
0
 62
    42
 10
4.981027801822307
 20
4.731731463212804
 30
0.5
 11
4.972238801822307
 21
4.702434463212804
 31
0.5
  0
LINE
  5
30E
  8
0
 62
    42
 10
4.972238801822307
 20
4.702434463212804
 30
0.5
 11
4.965402801822307
 21
4.674114463212804
 31
0.5
  0
LINE
  5
30F
  8
0
 62
    42
 10
4.965402801822307
 20
4.674114463212804
 30
0.5
 11
4.958566801822308
 21
4.647746463212804
 31
0.5
  0
LINE
  5
310
  8
0
 62
    42
 10
4.958566801822308
 20
4.647746463212804
 30
0.5
 11
4.951730801822308
 21
4.622356463212804
 31
0.5
  0
LINE
  5
311
  8
0
 62
    42
 10
4.951730801822308
 20
4.622356463212804
 30
0.5
 11
4.945870801822307
 21
4.598918463212804
 31
0.5
  0
LINE
  5
312
  8
0
 62
    42
 10
4.945870801822307
 20
4.598918463212804
 30
0.5
 11
4.940011801822307
 21
4.576457463212804
 31
0.5
  0
LINE
  5
313
  8
0
 62
    42
 10
4.940011801822307
 20
4.576457463212804
 30
0.5
 11
4.935128801822308
 21
4.555949463212804
 31
0.5
  0
LINE
  5
314
  8
0
 62
    42
 10
4.935128801822308
 20
4.555949463212804
 30
0.5
 11
5.062081801822307
 21
4.555949463212804
 31
0.5
  0
LINE
  5
315
  8
0
 62
    42
 10
5.062081801822307
 20
4.555949463212804
 30
0.5
 11
5.073800801822308
 21
4.555949463212804
 31
0.5
  0
LINE
  5
316
  8
0
 62
    42
 10
5.073800801822308
 20
4.555949463212804
 30
0.5
 11
5.083566801822308
 21
4.556926463212804
 31
0.5
  0
LINE
  5
317
  8
0
 62
    42
 10
5.083566801822308
 20
4.556926463212804
 30
0.5
 11
5.092355801822308
 21
4.556926463212804
 31
0.5
  0
LINE
  5
318
  8
0
 62
    42
 10
5.092355801822308
 20
4.556926463212804
 30
0.5
 11
5.100167801822307
 21
4.557903463212804
 31
0.5
  0
LINE
  5
319
  8
0
 62
    42
 10
5.100167801822307
 20
4.557903463212804
 30
0.5
 11
5.107003801822307
 21
4.559856463212804
 31
0.5
  0
LINE
  5
31A
  8
0
 62
    42
 10
5.107003801822307
 20
4.559856463212804
 30
0.5
 11
5.113839801822308
 21
4.560832463212804
 31
0.5
  0
LINE
  5
31B
  8
0
 62
    42
 10
5.113839801822308
 20
4.560832463212804
 30
0.5
 11
5.118722801822307
 21
4.562785463212804
 31
0.5
  0
LINE
  5
31C
  8
0
 62
    42
 10
5.118722801822307
 20
4.562785463212804
 30
0.5
 11
5.122628801822307
 21
4.564739463212804
 31
0.5
  0
LINE
  5
31D
  8
0
 62
    42
 10
5.122628801822307
 20
4.564739463212804
 30
0.5
 11
5.125558801822308
 21
4.567668463212804
 31
0.5
  0
LINE
  5
31E
  8
0
 62
    42
 10
5.125558801822308
 20
4.567668463212804
 30
0.5
 11
5.128488801822307
 21
4.571574463212804
 31
0.5
  0
LINE
  5
31F
  8
0
 62
    42
 10
5.128488801822307
 20
4.571574463212804
 30
0.5
 11
5.132394801822308
 21
4.575481463212804
 31
0.5
  0
LINE
  5
320
  8
0
 62
    42
 10
5.132394801822308
 20
4.575481463212804
 30
0.5
 11
5.135323801822308
 21
4.581340463212804
 31
0.5
  0
LINE
  5
321
  8
0
 62
    42
 10
5.135323801822308
 20
4.581340463212804
 30
0.5
 11
5.137277801822307
 21
4.587199463212804
 31
0.5
  0
LINE
  5
322
  8
0
 62
    42
 10
5.137277801822307
 20
4.587199463212804
 30
0.5
 11
5.140206801822307
 21
4.595012463212804
 31
0.5
  0
LINE
  5
323
  8
0
 62
    42
 10
5.140206801822307
 20
4.595012463212804
 30
0.5
 11
5.143136801822307
 21
4.602824463212804
 31
0.5
  0
LINE
  5
324
  8
0
 62
    42
 10
5.143136801822307
 20
4.602824463212804
 30
0.5
 11
5.145089801822308
 21
4.611614463212804
 31
0.5
  0
LINE
  5
325
  8
0
 62
    42
 10
5.145089801822308
 20
4.611614463212804
 30
0.5
 11
5.180245801822307
 21
4.611614463212804
 31
0.5
  0
LINE
  5
326
  8
0
 62
    42
 10
5.180245801822307
 20
4.611614463212804
 30
0.5
 11
5.175363801822307
 21
4.591106463212804
 31
0.5
  0
LINE
  5
327
  8
0
 62
    42
 10
5.175363801822307
 20
4.591106463212804
 30
0.5
 11
5.170480801822308
 21
4.569621463212804
 31
0.5
  0
LINE
  5
328
  8
0
 62
    42
 10
5.170480801822308
 20
4.569621463212804
 30
0.5
 11
5.165597801822307
 21
4.549114463212804
 31
0.5
  0
LINE
  5
329
  8
0
 62
    42
 10
5.165597801822307
 20
4.549114463212804
 30
0.5
 11
5.161691801822308
 21
4.527629463212804
 31
0.5
  0
LINE
  5
32A
  8
0
 62
    42
 10
5.161691801822308
 20
4.527629463212804
 30
0.5
 11
5.156808801822308
 21
4.506145463212804
 31
0.5
  0
LINE
  5
32B
  8
0
 62
    42
 10
5.156808801822308
 20
4.506145463212804
 30
0.5
 11
5.152902801822307
 21
4.483684463212804
 31
0.5
  0
LINE
  5
32C
  8
0
 62
    42
 10
5.152902801822307
 20
4.483684463212804
 30
0.5
 11
5.148995801822307
 21
4.462199463212804
 31
0.5
  0
LINE
  5
32D
  8
0
 62
    42
 10
5.148995801822307
 20
4.462199463212804
 30
0.5
 11
5.145089801822308
 21
4.439739463212804
 31
0.5
  0
LINE
  5
32E
  8
0
 62
    42
 10
5.145089801822308
 20
4.439739463212804
 30
0.5
 11
5.108956801822307
 21
4.439739463212804
 31
0.5
  0
LINE
  5
32F
  8
0
 62
    42
 10
5.108956801822307
 20
4.439739463212804
 30
0.5
 11
5.109933801822308
 21
4.448528463212804
 31
0.5
  0
LINE
  5
330
  8
0
 62
    42
 10
5.109933801822308
 20
4.448528463212804
 30
0.5
 11
5.110909801822308
 21
4.456340463212804
 31
0.5
  0
LINE
  5
331
  8
0
 62
    42
 10
5.110909801822308
 20
4.456340463212804
 30
0.5
 11
5.111886801822307
 21
4.463176463212804
 31
0.5
  0
LINE
  5
332
  8
0
 62
    42
 10
5.111886801822307
 20
4.463176463212804
 30
0.5
 11
5.112863801822307
 21
4.469035463212804
 31
0.5
  0
LINE
  5
333
  8
0
 62
    42
 10
5.112863801822307
 20
4.469035463212804
 30
0.5
 11
5.112863801822307
 21
4.473918463212804
 31
0.5
  0
LINE
  5
334
  8
0
 62
    42
 10
5.112863801822307
 20
4.473918463212804
 30
0.5
 11
5.112863801822307
 21
4.478801463212804
 31
0.5
  0
LINE
  5
335
  8
0
 62
    42
 10
5.112863801822307
 20
4.478801463212804
 30
0.5
 11
5.113839801822308
 21
4.481731463212804
 31
0.5
  0
LINE
  5
336
  8
0
 62
    42
 10
5.113839801822308
 20
4.481731463212804
 30
0.5
 11
5.113839801822308
 21
4.483684463212804
 31
0.5
  0
LINE
  5
337
  8
0
 62
    42
 10
5.113839801822308
 20
4.483684463212804
 30
0.5
 11
5.112863801822307
 21
4.487590463212804
 31
0.5
  0
LINE
  5
338
  8
0
 62
    42
 10
5.112863801822307
 20
4.487590463212804
 30
0.5
 11
5.112863801822307
 21
4.490520463212804
 31
0.5
  0
LINE
  5
339
  8
0
 62
    42
 10
5.112863801822307
 20
4.490520463212804
 30
0.5
 11
5.110909801822308
 21
4.494426463212804
 31
0.5
  0
LINE
  5
33A
  8
0
 62
    42
 10
5.110909801822308
 20
4.494426463212804
 30
0.5
 11
5.109933801822308
 21
4.497356463212804
 31
0.5
  0
LINE
  5
33B
  8
0
 62
    42
 10
5.109933801822308
 20
4.497356463212804
 30
0.5
 11
5.107003801822307
 21
4.500285463212804
 31
0.5
  0
LINE
  5
33C
  8
0
 62
    42
 10
5.107003801822307
 20
4.500285463212804
 30
0.5
 11
5.105050801822308
 21
4.502239463212804
 31
0.5
  0
LINE
  5
33D
  8
0
 62
    42
 10
5.105050801822308
 20
4.502239463212804
 30
0.5
 11
5.101144801822308
 21
4.505168463212804
 31
0.5
  0
LINE
  5
33E
  8
0
 62
    42
 10
5.101144801822308
 20
4.505168463212804
 30
0.5
 11
5.098214801822308
 21
4.507121463212804
 31
0.5
  0
LINE
  5
33F
  8
0
 62
    42
 10
5.098214801822308
 20
4.507121463212804
 30
0.5
 11
5.095284801822308
 21
4.508098463212804
 31
0.5
  0
LINE
  5
340
  8
0
 62
    42
 10
5.095284801822308
 20
4.508098463212804
 30
0.5
 11
5.091378801822307
 21
4.509074463212804
 31
0.5
  0
LINE
  5
341
  8
0
 62
    42
 10
5.091378801822307
 20
4.509074463212804
 30
0.5
 11
5.086495801822307
 21
4.510051463212804
 31
0.5
  0
LINE
  5
342
  8
0
 62
    42
 10
5.086495801822307
 20
4.510051463212804
 30
0.5
 11
5.080636801822307
 21
4.511028463212804
 31
0.5
  0
LINE
  5
343
  8
0
 62
    42
 10
5.080636801822307
 20
4.511028463212804
 30
0.5
 11
5.074777801822307
 21
4.512004463212804
 31
0.5
  0
LINE
  5
344
  8
0
 62
    42
 10
5.074777801822307
 20
4.512004463212804
 30
0.5
 11
5.066964801822308
 21
4.512004463212804
 31
0.5
  0
LINE
  5
345
  8
0
 62
    42
 10
5.066964801822308
 20
4.512004463212804
 30
0.5
 11
5.058175801822308
 21
4.512981463212804
 31
0.5
  0
LINE
  5
346
  8
0
 62
    42
 10
5.058175801822308
 20
4.512981463212804
 30
0.5
 11
5.048409801822308
 21
4.512981463212804
 31
0.5
  0
LINE
  5
347
  8
0
 62
    42
 10
5.048409801822308
 20
4.512981463212804
 30
0.5
 11
4.924386801822307
 21
4.512981463212804
 31
0.5
  0
LINE
  5
348
  8
0
 62
    42
 10
4.924386801822307
 20
4.512981463212804
 30
0.5
 11
4.919503801822308
 21
4.490520463212804
 31
0.5
  0
LINE
  5
349
  8
0
 62
    42
 10
4.919503801822308
 20
4.490520463212804
 30
0.5
 11
4.914620801822307
 21
4.467082463212804
 31
0.5
  0
LINE
  5
34A
  8
0
 62
    42
 10
4.914620801822307
 20
4.467082463212804
 30
0.5
 11
4.908761801822307
 21
4.442668463212804
 31
0.5
  0
LINE
  5
34B
  8
0
 62
    42
 10
4.908761801822307
 20
4.442668463212804
 30
0.5
 11
4.902902801822307
 21
4.419231463212804
 31
0.5
  0
LINE
  5
34C
  8
0
 62
    42
 10
4.902902801822307
 20
4.419231463212804
 30
0.5
 11
4.897042801822307
 21
4.393840463212804
 31
0.5
  0
LINE
  5
34D
  8
0
 62
    42
 10
4.897042801822307
 20
4.393840463212804
 30
0.5
 11
4.890206801822307
 21
4.369426463212804
 31
0.5
  0
LINE
  5
34E
  8
0
 62
    42
 10
4.890206801822307
 20
4.369426463212804
 30
0.5
 11
4.882394801822308
 21
4.344035463212804
 31
0.5
  0
LINE
  5
34F
  8
0
 62
    42
 10
4.882394801822308
 20
4.344035463212804
 30
0.5
 11
4.875558801822307
 21
4.317668463212804
 31
0.5
  0
LINE
  5
350
  8
0
 62
    42
 10
4.875558801822307
 20
4.317668463212804
 30
0.5
 11
4.867745801822307
 21
4.292278463212804
 31
0.5
  0
LINE
  5
351
  8
0
 62
    42
 10
4.867745801822307
 20
4.292278463212804
 30
0.5
 11
4.860909801822308
 21
4.267864463212804
 31
0.5
  0
LINE
  5
352
  8
0
 62
    42
 10
4.860909801822308
 20
4.267864463212804
 30
0.5
 11
4.854073801822308
 21
4.245403463212804
 31
0.5
  0
LINE
  5
353
  8
0
 62
    42
 10
4.854073801822308
 20
4.245403463212804
 30
0.5
 11
4.847238801822307
 21
4.224895463212804
 31
0.5
  0
LINE
  5
354
  8
0
 62
    42
 10
4.847238801822307
 20
4.224895463212804
 30
0.5
 11
4.840402801822307
 21
4.205364463212804
 31
0.5
  0
LINE
  5
355
  8
0
 62
    42
 10
4.840402801822307
 20
4.205364463212804
 30
0.5
 11
4.834542801822307
 21
4.186809463212804
 31
0.5
  0
LINE
  5
356
  8
0
 62
    42
 10
4.834542801822307
 20
4.186809463212804
 30
0.5
 11
4.828683801822307
 21
4.170207463212804
 31
0.5
  0
LINE
  5
357
  8
0
 62
    42
 10
4.828683801822307
 20
4.170207463212804
 30
0.5
 11
4.822823801822308
 21
4.155559463212804
 31
0.5
  0
LINE
  5
358
  8
0
 62
    42
 10
4.822823801822308
 20
4.155559463212804
 30
0.5
 11
4.835519801822308
 21
4.153606463212804
 31
0.5
  0
LINE
  5
359
  8
0
 62
    42
 10
4.835519801822308
 20
4.153606463212804
 30
0.5
 11
4.848214801822308
 21
4.151653463212804
 31
0.5
  0
LINE
  5
35A
  8
0
 62
    42
 10
4.848214801822308
 20
4.151653463212804
 30
0.5
 11
4.859933801822307
 21
4.150676463212804
 31
0.5
  0
LINE
  5
35B
  8
0
 62
    42
 10
4.859933801822307
 20
4.150676463212804
 30
0.5
 11
4.871652801822307
 21
4.148723463212804
 31
0.5
  0
LINE
  5
35C
  8
0
 62
    42
 10
4.871652801822307
 20
4.148723463212804
 30
0.5
 11
4.883370801822307
 21
4.147746463212804
 31
0.5
  0
LINE
  5
35D
  8
0
 62
    42
 10
4.883370801822307
 20
4.147746463212804
 30
0.5
 11
4.894113801822307
 21
4.147746463212804
 31
0.5
  0
LINE
  5
35E
  8
0
 62
    42
 10
4.894113801822307
 20
4.147746463212804
 30
0.5
 11
4.904855801822308
 21
4.146770463212804
 31
0.5
  0
LINE
  5
35F
  8
0
 62
    42
 10
4.904855801822308
 20
4.146770463212804
 30
0.5
 11
4.915597801822307
 21
4.146770463212804
 31
0.5
  0
LINE
  5
360
  8
0
 62
    42
 10
4.915597801822307
 20
4.146770463212804
 30
0.5
 11
4.922433801822307
 21
4.146770463212804
 31
0.5
  0
LINE
  5
361
  8
0
 62
    42
 10
4.922433801822307
 20
4.146770463212804
 30
0.5
 11
4.929269801822308
 21
4.146770463212804
 31
0.5
  0
LINE
  5
362
  8
0
 62
    42
 10
4.929269801822308
 20
4.146770463212804
 30
0.5
 11
4.935128801822308
 21
4.147746463212804
 31
0.5
  0
LINE
  5
363
  8
0
 62
    42
 10
4.935128801822308
 20
4.147746463212804
 30
0.5
 11
4.941964801822308
 21
4.147746463212804
 31
0.5
  0
LINE
  5
364
  8
0
 62
    42
 10
4.941964801822308
 20
4.147746463212804
 30
0.5
 11
4.948800801822308
 21
4.148723463212804
 31
0.5
  0
LINE
  5
365
  8
0
 62
    42
 10
4.948800801822308
 20
4.148723463212804
 30
0.5
 11
4.954659801822308
 21
4.148723463212804
 31
0.5
  0
LINE
  5
366
  8
0
 62
    42
 10
4.954659801822308
 20
4.148723463212804
 30
0.5
 11
4.961495801822307
 21
4.149699463212804
 31
0.5
  0
LINE
  5
367
  8
0
 62
    42
 10
4.961495801822307
 20
4.149699463212804
 30
0.5
 11
4.968331801822307
 21
4.150676463212804
 31
0.5
  0
LINE
  5
368
  8
0
 62
    42
 10
4.968331801822307
 20
4.150676463212804
 30
0.5
 11
4.957589801822308
 21
4.113567463212804
 31
0.5
  0
LINE
  5
369
  8
0
 62
    42
 10
4.957589801822308
 20
4.113567463212804
 30
0.5
 11
4.952706801822307
 21
4.113567463212804
 31
0.5
  0
LINE
  5
36A
  8
0
 62
    42
 10
4.952706801822307
 20
4.113567463212804
 30
0.5
 11
4.947823801822308
 21
4.112590463212804
 31
0.5
  0
LINE
  5
36B
  8
0
 62
    42
 10
4.947823801822308
 20
4.112590463212804
 30
0.5
 11
4.943917801822307
 21
4.112590463212804
 31
0.5
  0
LINE
  5
36C
  8
0
 62
    42
 10
4.943917801822307
 20
4.112590463212804
 30
0.5
 11
4.939034801822308
 21
4.111613463212804
 31
0.5
  0
LINE
  5
36D
  8
0
 62
    42
 10
4.939034801822308
 20
4.111613463212804
 30
0.5
 11
4.935128801822308
 21
4.111613463212804
 31
0.5
  0
LINE
  5
36E
  8
0
 62
    42
 10
4.935128801822308
 20
4.111613463212804
 30
0.5
 11
4.930245801822307
 21
4.111613463212804
 31
0.5
  0
LINE
  5
36F
  8
0
 62
    42
 10
4.930245801822307
 20
4.111613463212804
 30
0.5
 11
4.926339801822308
 21
4.111613463212804
 31
0.5
  0
LINE
  5
370
  8
0
 62
    42
 10
4.926339801822308
 20
4.111613463212804
 30
0.5
 11
4.922433801822307
 21
4.111613463212804
 31
0.5
  0
LINE
  5
371
  8
0
 62
    42
 10
4.922433801822307
 20
4.111613463212804
 30
0.5
 11
4.917550801822308
 21
4.111613463212804
 31
0.5
  0
LINE
  5
372
  8
0
 62
    42
 10
4.917550801822308
 20
4.111613463212804
 30
0.5
 11
4.911691801822308
 21
4.111613463212804
 31
0.5
  0
LINE
  5
373
  8
0
 62
    42
 10
4.911691801822308
 20
4.111613463212804
 30
0.5
 11
4.902902801822307
 21
4.112590463212804
 31
0.5
  0
LINE
  5
374
  8
0
 62
    42
 10
4.902902801822307
 20
4.112590463212804
 30
0.5
 11
4.893136801822307
 21
4.112590463212804
 31
0.5
  0
LINE
  5
375
  8
0
 62
    42
 10
4.893136801822307
 20
4.112590463212804
 30
0.5
 11
4.880441801822308
 21
4.113567463212804
 31
0.5
  0
LINE
  5
376
  8
0
 62
    42
 10
4.880441801822308
 20
4.113567463212804
 30
0.5
 11
4.866769801822308
 21
4.114543463212804
 31
0.5
  0
LINE
  5
377
  8
0
 62
    42
 10
4.866769801822308
 20
4.114543463212804
 30
0.5
 11
4.850167801822307
 21
4.115520463212804
 31
0.5
  0
LINE
  5
378
  8
0
 62
    42
 10
4.850167801822307
 20
4.115520463212804
 30
0.5
 11
4.832589801822308
 21
4.116496463212804
 31
0.5
  0
LINE
  5
379
  8
0
 62
    42
 10
4.832589801822308
 20
4.116496463212804
 30
0.5
 11
4.821847801822307
 21
4.116496463212804
 31
0.5
  0
LINE
  5
37A
  8
0
 62
    42
 10
4.821847801822307
 20
4.116496463212804
 30
0.5
 11
4.811105801822308
 21
4.117473463212804
 31
0.5
  0
LINE
  5
37B
  8
0
 62
    42
 10
4.811105801822308
 20
4.117473463212804
 30
0.5
 11
4.800363801822307
 21
4.118449463212804
 31
0.5
  0
LINE
  5
37C
  8
0
 62
    42
 10
4.800363801822307
 20
4.118449463212804
 30
0.5
 11
4.790597801822307
 21
4.118449463212804
 31
0.5
  0
LINE
  5
37D
  8
0
 62
    42
 10
4.790597801822307
 20
4.118449463212804
 30
0.5
 11
4.781808801822307
 21
4.119426463212804
 31
0.5
  0
LINE
  5
37E
  8
0
 62
    42
 10
4.781808801822307
 20
4.119426463212804
 30
0.5
 11
4.773019801822308
 21
4.119426463212804
 31
0.5
  0
LINE
  5
37F
  8
0
 62
    42
 10
4.773019801822308
 20
4.119426463212804
 30
0.5
 11
4.764230801822308
 21
4.119426463212804
 31
0.5
  0
LINE
  5
380
  8
0
 62
    42
 10
4.764230801822308
 20
4.119426463212804
 30
0.5
 11
4.756417801822307
 21
4.119426463212804
 31
0.5
  0
LINE
  5
381
  8
0
 62
    42
 10
4.756417801822307
 20
4.119426463212804
 30
0.5
 11
4.740792801822307
 21
4.119426463212804
 31
0.5
  0
LINE
  5
382
  8
0
 62
    42
 10
4.740792801822307
 20
4.119426463212804
 30
0.5
 11
4.724191801822308
 21
4.118449463212804
 31
0.5
  0
LINE
  5
383
  8
0
 62
    42
 10
4.724191801822308
 20
4.118449463212804
 30
0.5
 11
4.707589801822308
 21
4.117473463212804
 31
0.5
  0
LINE
  5
384
  8
0
 62
    42
 10
4.707589801822308
 20
4.117473463212804
 30
0.5
 11
4.690988801822307
 21
4.116496463212804
 31
0.5
  0
LINE
  5
385
  8
0
 62
    42
 10
4.690988801822307
 20
4.116496463212804
 30
0.5
 11
4.674386801822307
 21
4.114543463212804
 31
0.5
  0
LINE
  5
386
  8
0
 62
    42
 10
4.674386801822307
 20
4.114543463212804
 30
0.5
 11
4.656808801822307
 21
4.112590463212804
 31
0.5
  0
LINE
  5
387
  8
0
 62
    42
 10
4.656808801822307
 20
4.112590463212804
 30
0.5
 11
4.639230801822308
 21
4.110637463212804
 31
0.5
  0
LINE
  5
388
  8
0
 62
    42
 10
4.639230801822308
 20
4.110637463212804
 30
0.5
 11
4.621652801822307
 21
4.107707463212804
 31
0.5
  0
LINE
  5
389
  8
0
 62
    42
 10
4.621652801822307
 20
4.107707463212804
 30
0.5
 11
4.629464801822308
 21
4.143840463212804
 31
0.5
  0
LINE
  5
38A
  8
0
 62
    42
 10
4.629464801822308
 20
4.143840463212804
 30
0.5
 11
4.643136801822307
 21
4.146770463212804
 31
0.5
  0
LINE
  5
38B
  8
0
 62
    42
 10
4.643136801822307
 20
4.146770463212804
 30
0.5
 11
4.655831801822307
 21
4.149699463212804
 31
0.5
  0
LINE
  5
38C
  8
0
 62
    42
 10
4.655831801822307
 20
4.149699463212804
 30
0.5
 11
4.667550801822308
 21
4.153606463212804
 31
0.5
  0
LINE
  5
38D
  8
0
 62
    42
 10
4.667550801822308
 20
4.153606463212804
 30
0.5
 11
4.677316801822308
 21
4.156535463212804
 31
0.5
  0
LINE
  5
38E
  8
0
 62
    42
 10
4.677316801822308
 20
4.156535463212804
 30
0.5
 11
4.687081801822307
 21
4.159465463212804
 31
0.5
  0
LINE
  5
38F
  8
0
 62
    42
 10
4.687081801822307
 20
4.159465463212804
 30
0.5
 11
4.693917801822307
 21
4.163371463212804
 31
0.5
  0
LINE
  5
390
  8
0
 62
    42
 10
4.693917801822307
 20
4.163371463212804
 30
0.5
 11
4.700753801822308
 21
4.166301463212804
 31
0.5
  0
LINE
  5
391
  8
0
 62
    42
 10
4.700753801822308
 20
4.166301463212804
 30
0.5
 11
4.705636801822307
 21
4.170207463212804
 31
0.5
  0
LINE
  5
392
  8
0
 62
    42
 10
4.705636801822307
 20
4.170207463212804
 30
0.5
 11
4.710519801822308
 21
4.173137463212804
 31
0.5
  0
LINE
  5
393
  8
0
 62
    42
 10
4.710519801822308
 20
4.173137463212804
 30
0.5
 11
4.714425801822308
 21
4.177043463212804
 31
0.5
  0
LINE
  5
394
  8
0
 62
    42
 10
4.714425801822308
 20
4.177043463212804
 30
0.5
 11
4.718331801822307
 21
4.180949463212804
 31
0.5
  0
LINE
  5
395
  8
0
 62
    42
 10
4.718331801822307
 20
4.180949463212804
 30
0.5
 11
4.722238801822307
 21
4.184856463212804
 31
0.5
  0
LINE
  5
396
  8
0
 62
    42
 10
4.722238801822307
 20
4.184856463212804
 30
0.5
 11
4.726144801822308
 21
4.188762463212804
 31
0.5
  0
LINE
  5
397
  8
0
 62
    42
 10
4.726144801822308
 20
4.188762463212804
 30
0.5
 11
4.729073801822308
 21
4.193645463212804
 31
0.5
  0
LINE
  5
398
  8
0
 62
    42
 10
4.729073801822308
 20
4.193645463212804
 30
0.5
 11
4.732003801822308
 21
4.197551463212804
 31
0.5
  0
LINE
  5
399
  8
0
 62
    42
 10
4.732003801822308
 20
4.197551463212804
 30
0.5
 11
4.733956801822307
 21
4.202434463212804
 31
0.5
  0
LINE
  5
39A
  8
0
 62
    42
 10
4.733956801822307
 20
4.202434463212804
 30
0.5
 11
4.739816801822308
 21
4.215129463212804
 31
0.5
  0
LINE
  5
39B
  8
0
 62
    42
 10
4.739816801822308
 20
4.215129463212804
 30
0.5
 11
4.746652801822307
 21
4.232707463212804
 31
0.5
  0
LINE
  5
39C
  8
0
 62
    42
 10
4.746652801822307
 20
4.232707463212804
 30
0.5
 11
4.754464801822308
 21
4.256145463212804
 31
0.5
  0
LINE
  5
39D
  8
0
 62
    42
 10
4.754464801822308
 20
4.256145463212804
 30
0.5
 11
4.763253801822308
 21
4.284465463212804
 31
0.5
  0
LINE
  5
39E
  8
0
 62
    42
 10
4.763253801822308
 20
4.284465463212804
 30
0.5
 11
4.773019801822308
 21
4.317668463212804
 31
0.5
  0
LINE
  5
39F
  8
0
 62
    42
 10
4.773019801822308
 20
4.317668463212804
 30
0.5
 11
4.784738801822307
 21
4.355754463212804
 31
0.5
  0
LINE
  5
3A0
  8
0
 62
    42
 10
4.784738801822307
 20
4.355754463212804
 30
0.5
 11
4.796456801822307
 21
4.399699463212804
 31
0.5
  0
LINE
  5
3A1
  8
0
 62
    42
 10
4.796456801822307
 20
4.399699463212804
 30
0.5
 11
4.810128801822308
 21
4.448528463212804
 31
0.5
  0
LINE
  5
3A2
  8
0
 62
    42
 10
4.810128801822308
 20
4.448528463212804
 30
0.5
 11
4.908761801822307
 21
4.839153463212804
 31
0.5
  0
LINE
  5
3A3
  8
0
 62
    42
 10
4.908761801822307
 20
4.839153463212804
 30
0.5
 11
4.887277801822307
 21
4.838176463212804
 31
0.5
  0
LINE
  5
3A4
  8
0
 62
    42
 10
4.887277801822307
 20
4.838176463212804
 30
0.5
 11
4.866769801822308
 21
4.835246463212804
 31
0.5
  0
LINE
  5
3A5
  8
0
 62
    42
 10
4.866769801822308
 20
4.835246463212804
 30
0.5
 11
4.846261801822307
 21
4.832317463212804
 31
0.5
  0
LINE
  5
3A6
  8
0
 62
    42
 10
4.846261801822307
 20
4.832317463212804
 30
0.5
 11
4.827706801822307
 21
4.828410463212804
 31
0.5
  0
LINE
  5
3A7
  8
0
 62
    42
 10
4.827706801822307
 20
4.828410463212804
 30
0.5
 11
4.808175801822308
 21
4.822551463212804
 31
0.5
  0
LINE
  5
3A8
  8
0
 62
    42
 10
4.808175801822308
 20
4.822551463212804
 30
0.5
 11
4.790597801822307
 21
4.815715463212804
 31
0.5
  0
LINE
  5
3A9
  8
0
 62
    42
 10
4.790597801822307
 20
4.815715463212804
 30
0.5
 11
4.773019801822308
 21
4.808879463212804
 31
0.5
  0
LINE
  5
3AA
  8
0
 62
    42
 10
4.773019801822308
 20
4.808879463212804
 30
0.5
 11
4.756417801822307
 21
4.800090463212804
 31
0.5
  0
LINE
  5
3AB
  8
0
 62
    42
 10
4.756417801822307
 20
4.800090463212804
 30
0.5
 11
4.740792801822307
 21
4.790324463212804
 31
0.5
  0
LINE
  5
3AC
  8
0
 62
    42
 10
4.740792801822307
 20
4.790324463212804
 30
0.5
 11
4.725167801822307
 21
4.780559463212804
 31
0.5
  0
LINE
  5
3AD
  8
0
 62
    42
 10
4.725167801822307
 20
4.780559463212804
 30
0.5
 11
4.711495801822307
 21
4.768840463212804
 31
0.5
  0
LINE
  5
3AE
  8
0
 62
    42
 10
4.711495801822307
 20
4.768840463212804
 30
0.5
 11
4.697823801822308
 21
4.757121463212804
 31
0.5
  0
LINE
  5
3AF
  8
0
 62
    42
 10
4.697823801822308
 20
4.757121463212804
 30
0.5
 11
4.685128801822308
 21
4.744426463212804
 31
0.5
  0
LINE
  5
3B0
  8
0
 62
    42
 10
4.685128801822308
 20
4.744426463212804
 30
0.5
 11
4.673409801822308
 21
4.730754463212804
 31
0.5
  0
LINE
  5
3B1
  8
0
 62
    42
 10
4.673409801822308
 20
4.730754463212804
 30
0.5
 11
4.662667801822307
 21
4.717082463212804
 31
0.5
  0
LINE
  5
3B2
  8
0
 62
    42
 10
4.662667801822307
 20
4.717082463212804
 30
0.5
 11
4.652902801822307
 21
4.701457463212804
 31
0.5
  0
LINE
  5
3B3
  8
0
 62
    42
 10
4.652902801822307
 20
4.701457463212804
 30
0.5
 11
4.643136801822307
 21
4.686809463212804
 31
0.5
  0
LINE
  5
3B4
  8
0
 62
    42
 10
4.643136801822307
 20
4.686809463212804
 30
0.5
 11
4.635323801822308
 21
4.671184463212804
 31
0.5
  0
LINE
  5
3B5
  8
0
 62
    42
 10
4.635323801822308
 20
4.671184463212804
 30
0.5
 11
4.628488801822307
 21
4.655559463212804
 31
0.5
  0
LINE
  5
3B6
  8
0
 62
    42
 10
4.628488801822307
 20
4.655559463212804
 30
0.5
 11
4.623605801822308
 21
4.639934463212804
 31
0.5
  0
LINE
  5
3B7
  8
0
 62
    42
 10
4.623605801822308
 20
4.639934463212804
 30
0.5
 11
4.619698801822308
 21
4.624309463212804
 31
0.5
  0
LINE
  5
3B8
  8
0
 62
    42
 10
4.619698801822308
 20
4.624309463212804
 30
0.5
 11
4.615792801822307
 21
4.608684463212804
 31
0.5
  0
LINE
  5
3B9
  8
0
 62
    42
 10
4.615792801822307
 20
4.608684463212804
 30
0.5
 11
4.614816801822308
 21
4.593059463212804
 31
0.5
  0
LINE
  5
3BA
  8
0
 62
    42
 10
4.614816801822308
 20
4.593059463212804
 30
0.5
 11
4.613839801822308
 21
4.577434463212804
 31
0.5
  0
LINE
  5
3BB
  8
0
 62
    42
 10
4.613839801822308
 20
4.577434463212804
 30
0.5
 11
4.613839801822308
 21
4.570598463212804
 31
0.5
  0
LINE
  5
3BC
  8
0
 62
    42
 10
4.613839801822308
 20
4.570598463212804
 30
0.5
 11
4.613839801822308
 21
4.564739463212804
 31
0.5
  0
LINE
  5
3BD
  8
0
 62
    42
 10
4.613839801822308
 20
4.564739463212804
 30
0.5
 11
4.614816801822308
 21
4.557903463212804
 31
0.5
  0
LINE
  5
3BE
  8
0
 62
    42
 10
4.614816801822308
 20
4.557903463212804
 30
0.5
 11
4.615792801822307
 21
4.551067463212804
 31
0.5
  0
LINE
  5
3BF
  8
0
 62
    42
 10
4.615792801822307
 20
4.551067463212804
 30
0.5
 11
4.616769801822308
 21
4.545207463212804
 31
0.5
  0
LINE
  5
3C0
  8
0
 62
    42
 10
4.616769801822308
 20
4.545207463212804
 30
0.5
 11
4.617745801822307
 21
4.538371463212804
 31
0.5
  0
LINE
  5
3C1
  8
0
 62
    42
 10
4.617745801822307
 20
4.538371463212804
 30
0.5
 11
4.618722801822307
 21
4.531535463212804
 31
0.5
  0
LINE
  5
3C2
  8
0
 62
    42
 10
4.618722801822307
 20
4.531535463212804
 30
0.5
 11
4.620675801822308
 21
4.524699463212804
 31
0.5
  0
LINE
  5
3C3
  8
0
 62
    42
 10
4.620675801822308
 20
4.524699463212804
 30
0.5
 11
4.621652801822307
 21
4.520793463212804
 31
0.5
  0
LINE
  5
3C4
  8
0
 62
    42
 10
4.621652801822307
 20
4.520793463212804
 30
0.5
 11
4.622628801822308
 21
4.516887463212804
 31
0.5
  0
LINE
  5
3C5
  8
0
 62
    42
 10
4.622628801822308
 20
4.516887463212804
 30
0.5
 11
4.624581801822307
 21
4.512004463212804
 31
0.5
  0
LINE
  5
3C6
  8
0
 62
    42
 10
4.624581801822307
 20
4.512004463212804
 30
0.5
 11
4.626534801822308
 21
4.506145463212804
 31
0.5
  0
LINE
  5
3C7
  8
0
 62
    42
 10
4.626534801822308
 20
4.506145463212804
 30
0.5
 11
4.629464801822308
 21
4.501262463212804
 31
0.5
  0
LINE
  5
3C8
  8
0
 62
    42
 10
4.629464801822308
 20
4.501262463212804
 30
0.5
 11
4.632394801822308
 21
4.495403463212804
 31
0.5
  0
LINE
  5
3C9
  8
0
 62
    42
 10
4.632394801822308
 20
4.495403463212804
 30
0.5
 11
4.635323801822308
 21
4.488567463212804
 31
0.5
  0
LINE
  5
3CA
  8
0
 62
    42
 10
4.635323801822308
 20
4.488567463212804
 30
0.5
 11
4.639230801822308
 21
4.481731463212804
 31
0.5
  0
LINE
  5
3CB
  8
0
 62
    42
 10
4.639230801822308
 20
4.481731463212804
 30
0.5
 11
4.643136801822307
 21
4.473918463212804
 31
0.5
  0
LINE
  5
3CC
  8
0
 62
    42
 10
4.643136801822307
 20
4.473918463212804
 30
0.5
 11
4.647042801822307
 21
4.466106463212804
 31
0.5
  0
LINE
  5
3CD
  8
0
 62
    42
 10
4.647042801822307
 20
4.466106463212804
 30
0.5
 11
4.649972801822307
 21
4.459270463212804
 31
0.5
  0
LINE
  5
3CE
  8
0
 62
    42
 10
4.649972801822307
 20
4.459270463212804
 30
0.5
 11
4.652902801822307
 21
4.452434463212804
 31
0.5
  0
LINE
  5
3CF
  8
0
 62
    42
 10
4.652902801822307
 20
4.452434463212804
 30
0.5
 11
4.654855801822308
 21
4.446574463212804
 31
0.5
  0
LINE
  5
3D0
  8
0
 62
    42
 10
4.654855801822308
 20
4.446574463212804
 30
0.5
 11
4.656808801822307
 21
4.441692463212804
 31
0.5
  0
LINE
  5
3D1
  8
0
 62
    42
 10
4.656808801822307
 20
4.441692463212804
 30
0.5
 11
4.657784801822308
 21
4.437785463212804
 31
0.5
  0
LINE
  5
3D2
  8
0
 62
    42
 10
4.657784801822308
 20
4.437785463212804
 30
0.5
 11
4.657784801822308
 21
4.433879463212804
 31
0.5
  0
LINE
  5
3D3
  8
0
 62
    42
 10
4.657784801822308
 20
4.433879463212804
 30
0.5
 11
4.657784801822308
 21
4.429973463212804
 31
0.5
  0
LINE
  5
3D4
  8
0
 62
    42
 10
4.657784801822308
 20
4.429973463212804
 30
0.5
 11
4.656808801822307
 21
4.427043463212804
 31
0.5
  0
LINE
  5
3D5
  8
0
 62
    42
 10
4.656808801822307
 20
4.427043463212804
 30
0.5
 11
4.655831801822307
 21
4.424114463212804
 31
0.5
  0
LINE
  5
3D6
  8
0
 62
    42
 10
4.655831801822307
 20
4.424114463212804
 30
0.5
 11
4.654855801822308
 21
4.421184463212804
 31
0.5
  0
LINE
  5
3D7
  8
0
 62
    42
 10
4.654855801822308
 20
4.421184463212804
 30
0.5
 11
4.653878801822308
 21
4.418254463212804
 31
0.5
  0
LINE
  5
3D8
  8
0
 62
    42
 10
4.653878801822308
 20
4.418254463212804
 30
0.5
 11
4.651925801822308
 21
4.415324463212804
 31
0.5
  0
LINE
  5
3D9
  8
0
 62
    42
 10
4.651925801822308
 20
4.415324463212804
 30
0.5
 11
4.648995801822307
 21
4.412395463212804
 31
0.5
  0
LINE
  5
3DA
  8
0
 62
    42
 10
4.648995801822307
 20
4.412395463212804
 30
0.5
 11
4.647042801822307
 21
4.409465463212804
 31
0.5
  0
LINE
  5
3DB
  8
0
 62
    42
 10
4.647042801822307
 20
4.409465463212804
 30
0.5
 11
4.644113801822307
 21
4.407512463212804
 31
0.5
  0
LINE
  5
3DC
  8
0
 62
    42
 10
4.644113801822307
 20
4.407512463212804
 30
0.5
 11
4.641183801822307
 21
4.405559463212804
 31
0.5
  0
LINE
  5
3DD
  8
0
 62
    42
 10
4.641183801822307
 20
4.405559463212804
 30
0.5
 11
4.637277801822307
 21
4.403606463212804
 31
0.5
  0
LINE
  5
3DE
  8
0
 62
    42
 10
4.637277801822307
 20
4.403606463212804
 30
0.5
 11
4.634347801822307
 21
4.402629463212804
 31
0.5
  0
LINE
  5
3DF
  8
0
 62
    42
 10
4.634347801822307
 20
4.402629463212804
 30
0.5
 11
4.630441801822308
 21
4.400676463212804
 31
0.5
  0
LINE
  5
3E0
  8
0
 62
    42
 10
4.630441801822308
 20
4.400676463212804
 30
0.5
 11
4.626534801822308
 21
4.400676463212804
 31
0.5
  0
LINE
  5
3E1
  8
0
 62
    42
 10
4.626534801822308
 20
4.400676463212804
 30
0.5
 11
4.622628801822308
 21
4.399699463212804
 31
0.5
  0
LINE
  5
3E2
  8
0
 62
    42
 10
4.622628801822308
 20
4.399699463212804
 30
0.5
 11
4.617745801822307
 21
4.399699463212804
 31
0.5
  0
LINE
  5
3E3
  8
0
 62
    42
 10
4.617745801822307
 20
4.399699463212804
 30
0.5
 11
4.611886801822307
 21
4.399699463212804
 31
0.5
  0
LINE
  5
3E4
  8
0
 62
    42
 10
4.611886801822307
 20
4.399699463212804
 30
0.5
 11
4.605050801822308
 21
4.401653463212804
 31
0.5
  0
LINE
  5
3E5
  8
0
 62
    42
 10
4.605050801822308
 20
4.401653463212804
 30
0.5
 11
4.600167801822307
 21
4.403606463212804
 31
0.5
  0
LINE
  5
3E6
  8
0
 62
    42
 10
4.600167801822307
 20
4.403606463212804
 30
0.5
 11
4.594308801822307
 21
4.406535463212804
 31
0.5
  0
LINE
  5
3E7
  8
0
 62
    42
 10
4.594308801822307
 20
4.406535463212804
 30
0.5
 11
4.589425801822308
 21
4.410442463212804
 31
0.5
  0
LINE
  5
3E8
  8
0
 62
    42
 10
4.589425801822308
 20
4.410442463212804
 30
0.5
 11
4.584542801822307
 21
4.415324463212804
 31
0.5
  0
LINE
  5
3E9
  8
0
 62
    42
 10
4.584542801822307
 20
4.415324463212804
 30
0.5
 11
4.579659801822308
 21
4.420207463212804
 31
0.5
  0
LINE
  5
3EA
  8
0
 62
    42
 10
4.579659801822308
 20
4.420207463212804
 30
0.5
 11
4.575753801822308
 21
4.427043463212804
 31
0.5
  0
LINE
  5
3EB
  8
0
 62
    42
 10
4.575753801822308
 20
4.427043463212804
 30
0.5
 11
4.569894801822308
 21
4.436809463212804
 31
0.5
  0
LINE
  5
3EC
  8
0
 62
    42
 10
4.569894801822308
 20
4.436809463212804
 30
0.5
 11
4.565988801822307
 21
4.447551463212804
 31
0.5
  0
LINE
  5
3ED
  8
0
 62
    42
 10
4.565988801822307
 20
4.447551463212804
 30
0.5
 11
4.562081801822307
 21
4.458293463212804
 31
0.5
  0
LINE
  5
3EE
  8
0
 62
    42
 10
4.562081801822307
 20
4.458293463212804
 30
0.5
 11
4.559152801822307
 21
4.470989463212804
 31
0.5
  0
LINE
  5
3EF
  8
0
 62
    42
 10
4.559152801822307
 20
4.470989463212804
 30
0.5
 11
4.556222801822307
 21
4.484660463212804
 31
0.5
  0
LINE
  5
3F0
  8
0
 62
    42
 10
4.556222801822307
 20
4.484660463212804
 30
0.5
 11
4.554269801822308
 21
4.499309463212804
 31
0.5
  0
LINE
  5
3F1
  8
0
 62
    42
 10
4.554269801822308
 20
4.499309463212804
 30
0.5
 11
4.553292801822307
 21
4.513957463212804
 31
0.5
  0
LINE
  5
3F2
  8
0
 62
    42
 10
4.553292801822307
 20
4.513957463212804
 30
0.5
 11
4.553292801822307
 21
4.530559463212804
 31
0.5
  0
LINE
  5
3F3
  8
0
 62
    42
 10
4.553292801822307
 20
4.530559463212804
 30
0.5
 11
4.555245801822307
 21
4.562785463212804
 31
0.5
  0
LINE
  5
3F4
  8
0
 62
    42
 10
5.266183801822308
 20
4.561809463212804
 30
0.5
 11
5.271066801822308
 21
4.595012463212804
 31
0.5
  0
LINE
  5
3F5
  8
0
 62
    42
 10
5.271066801822308
 20
4.595012463212804
 30
0.5
 11
5.278878801822307
 21
4.626262463212804
 31
0.5
  0
LINE
  5
3F6
  8
0
 62
    42
 10
5.278878801822307
 20
4.626262463212804
 30
0.5
 11
5.290597801822307
 21
4.657512463212804
 31
0.5
  0
LINE
  5
3F7
  8
0
 62
    42
 10
5.290597801822307
 20
4.657512463212804
 30
0.5
 11
5.304269801822308
 21
4.687785463212804
 31
0.5
  0
LINE
  5
3F8
  8
0
 62
    42
 10
5.304269801822308
 20
4.687785463212804
 30
0.5
 11
5.322823801822308
 21
4.717082463212804
 31
0.5
  0
LINE
  5
3F9
  8
0
 62
    42
 10
5.322823801822308
 20
4.717082463212804
 30
0.5
 11
5.343331801822307
 21
4.745403463212804
 31
0.5
  0
LINE
  5
3FA
  8
0
 62
    42
 10
5.343331801822307
 20
4.745403463212804
 30
0.5
 11
5.367745801822307
 21
4.773723463212804
 31
0.5
  0
LINE
  5
3FB
  8
0
 62
    42
 10
5.367745801822307
 20
4.773723463212804
 30
0.5
 11
5.395089801822308
 21
4.799114463212804
 31
0.5
  0
LINE
  5
3FC
  8
0
 62
    42
 10
5.395089801822308
 20
4.799114463212804
 30
0.5
 11
5.425363801822307
 21
4.820598463212804
 31
0.5
  0
LINE
  5
3FD
  8
0
 62
    42
 10
5.425363801822307
 20
4.820598463212804
 30
0.5
 11
5.458566801822308
 21
4.840129463212804
 31
0.5
  0
LINE
  5
3FE
  8
0
 62
    42
 10
5.458566801822308
 20
4.840129463212804
 30
0.5
 11
5.494698801822308
 21
4.854778463212804
 31
0.5
  0
LINE
  5
3FF
  8
0
 62
    42
 10
5.494698801822308
 20
4.854778463212804
 30
0.5
 11
5.533761801822307
 21
4.866496463212804
 31
0.5
  0
LINE
  5
400
  8
0
 62
    42
 10
5.533761801822307
 20
4.866496463212804
 30
0.5
 11
5.576730801822308
 21
4.875285463212804
 31
0.5
  0
LINE
  5
401
  8
0
 62
    42
 10
5.576730801822308
 20
4.875285463212804
 30
0.5
 11
5.621652801822307
 21
4.880168463212804
 31
0.5
  0
LINE
  5
402
  8
0
 62
    42
 10
5.621652801822307
 20
4.880168463212804
 30
0.5
 11
5.669503801822307
 21
4.882121463212804
 31
0.5
  0
LINE
  5
403
  8
0
 62
    42
 10
5.669503801822307
 20
4.882121463212804
 30
0.5
 11
5.893136801822307
 21
4.882121463212804
 31
0.5
  0
LINE
  5
404
  8
0
 62
    42
 10
5.893136801822307
 20
4.882121463212804
 30
0.5
 11
5.920480801822308
 21
4.882121463212804
 31
0.5
  0
LINE
  5
405
  8
0
 62
    42
 10
5.920480801822308
 20
4.882121463212804
 30
0.5
 11
5.946847801822307
 21
4.883098463212804
 31
0.5
  0
LINE
  5
406
  8
0
 62
    42
 10
5.946847801822307
 20
4.883098463212804
 30
0.5
 11
5.971261801822307
 21
4.884074463212804
 31
0.5
  0
LINE
  5
407
  8
0
 62
    42
 10
5.971261801822307
 20
4.884074463212804
 30
0.5
 11
5.993722801822307
 21
4.886028463212804
 31
0.5
  0
LINE
  5
408
  8
0
 62
    42
 10
5.993722801822307
 20
4.886028463212804
 30
0.5
 11
6.014230801822308
 21
4.887981463212804
 31
0.5
  0
LINE
  5
409
  8
0
 62
    42
 10
6.014230801822308
 20
4.887981463212804
 30
0.5
 11
6.032784801822308
 21
4.889934463212804
 31
0.5
  0
LINE
  5
40A
  8
0
 62
    42
 10
6.032784801822308
 20
4.889934463212804
 30
0.5
 11
6.049386801822307
 21
4.892864463212804
 31
0.5
  0
LINE
  5
40B
  8
0
 62
    42
 10
6.049386801822307
 20
4.892864463212804
 30
0.5
 11
6.064034801822308
 21
4.896770463212804
 31
0.5
  0
LINE
  5
40C
  8
0
 62
    42
 10
6.064034801822308
 20
4.896770463212804
 30
0.5
 11
6.058175801822308
 21
4.870403463212804
 31
0.5
  0
LINE
  5
40D
  8
0
 62
    42
 10
6.058175801822308
 20
4.870403463212804
 30
0.5
 11
6.052316801822308
 21
4.846965463212804
 31
0.5
  0
LINE
  5
40E
  8
0
 62
    42
 10
6.052316801822308
 20
4.846965463212804
 30
0.5
 11
6.047433801822308
 21
4.824504463212804
 31
0.5
  0
LINE
  5
40F
  8
0
 62
    42
 10
6.047433801822308
 20
4.824504463212804
 30
0.5
 11
6.042550801822308
 21
4.804973463212804
 31
0.5
  0
LINE
  5
410
  8
0
 62
    42
 10
6.042550801822308
 20
4.804973463212804
 30
0.5
 11
6.038644801822308
 21
4.786418463212804
 31
0.5
  0
LINE
  5
411
  8
0
 62
    42
 10
6.038644801822308
 20
4.786418463212804
 30
0.5
 11
6.035714801822308
 21
4.769817463212804
 31
0.5
  0
LINE
  5
412
  8
0
 62
    42
 10
6.035714801822308
 20
4.769817463212804
 30
0.5
 11
6.032784801822308
 21
4.756145463212804
 31
0.5
  0
LINE
  5
413
  8
0
 62
    42
 10
6.032784801822308
 20
4.756145463212804
 30
0.5
 11
6.030831801822307
 21
4.743449463212804
 31
0.5
  0
LINE
  5
414
  8
0
 62
    42
 10
6.030831801822307
 20
4.743449463212804
 30
0.5
 11
5.996652801822307
 21
4.743449463212804
 31
0.5
  0
LINE
  5
415
  8
0
 62
    42
 10
5.996652801822307
 20
4.743449463212804
 30
0.5
 11
5.997628801822307
 21
4.751262463212804
 31
0.5
  0
LINE
  5
416
  8
0
 62
    42
 10
5.997628801822307
 20
4.751262463212804
 30
0.5
 11
5.998605801822308
 21
4.759074463212804
 31
0.5
  0
LINE
  5
417
  8
0
 62
    42
 10
5.998605801822308
 20
4.759074463212804
 30
0.5
 11
5.999581801822307
 21
4.765910463212804
 31
0.5
  0
LINE
  5
418
  8
0
 62
    42
 10
5.999581801822307
 20
4.765910463212804
 30
0.5
 11
6.000558801822308
 21
4.772746463212804
 31
0.5
  0
LINE
  5
419
  8
0
 62
    42
 10
6.000558801822308
 20
4.772746463212804
 30
0.5
 11
6.000558801822308
 21
4.779582463212804
 31
0.5
  0
LINE
  5
41A
  8
0
 62
    42
 10
6.000558801822308
 20
4.779582463212804
 30
0.5
 11
6.001534801822308
 21
4.785442463212804
 31
0.5
  0
LINE
  5
41B
  8
0
 62
    42
 10
6.001534801822308
 20
4.785442463212804
 30
0.5
 11
6.001534801822308
 21
4.791301463212804
 31
0.5
  0
LINE
  5
41C
  8
0
 62
    42
 10
6.001534801822308
 20
4.791301463212804
 30
0.5
 11
6.001534801822308
 21
4.796184463212804
 31
0.5
  0
LINE
  5
41D
  8
0
 62
    42
 10
6.001534801822308
 20
4.796184463212804
 30
0.5
 11
6.001534801822308
 21
4.802043463212804
 31
0.5
  0
LINE
  5
41E
  8
0
 62
    42
 10
6.001534801822308
 20
4.802043463212804
 30
0.5
 11
6.000558801822308
 21
4.807903463212804
 31
0.5
  0
LINE
  5
41F
  8
0
 62
    42
 10
6.000558801822308
 20
4.807903463212804
 30
0.5
 11
5.998605801822308
 21
4.812785463212804
 31
0.5
  0
LINE
  5
420
  8
0
 62
    42
 10
5.998605801822308
 20
4.812785463212804
 30
0.5
 11
5.995675801822308
 21
4.817668463212804
 31
0.5
  0
LINE
  5
421
  8
0
 62
    42
 10
5.995675801822308
 20
4.817668463212804
 30
0.5
 11
5.992745801822307
 21
4.821574463212804
 31
0.5
  0
LINE
  5
422
  8
0
 62
    42
 10
5.992745801822307
 20
4.821574463212804
 30
0.5
 11
5.988839801822308
 21
4.824504463212804
 31
0.5
  0
LINE
  5
423
  8
0
 62
    42
 10
5.988839801822308
 20
4.824504463212804
 30
0.5
 11
5.984933801822308
 21
4.827434463212804
 31
0.5
  0
LINE
  5
424
  8
0
 62
    42
 10
5.984933801822308
 20
4.827434463212804
 30
0.5
 11
5.980050801822308
 21
4.830364463212804
 31
0.5
  0
LINE
  5
425
  8
0
 62
    42
 10
5.980050801822308
 20
4.830364463212804
 30
0.5
 11
5.972238801822307
 21
4.832317463212804
 31
0.5
  0
LINE
  5
426
  8
0
 62
    42
 10
5.972238801822307
 20
4.832317463212804
 30
0.5
 11
5.961495801822307
 21
4.833293463212804
 31
0.5
  0
LINE
  5
427
  8
0
 62
    42
 10
5.961495801822307
 20
4.833293463212804
 30
0.5
 11
5.945870801822307
 21
4.835246463212804
 31
0.5
  0
LINE
  5
428
  8
0
 62
    42
 10
5.945870801822307
 20
4.835246463212804
 30
0.5
 11
5.927316801822308
 21
4.836223463212804
 31
0.5
  0
LINE
  5
429
  8
0
 62
    42
 10
5.927316801822308
 20
4.836223463212804
 30
0.5
 11
5.904855801822308
 21
4.837199463212804
 31
0.5
  0
LINE
  5
42A
  8
0
 62
    42
 10
5.904855801822308
 20
4.837199463212804
 30
0.5
 11
5.878488801822307
 21
4.837199463212804
 31
0.5
  0
LINE
  5
42B
  8
0
 62
    42
 10
5.878488801822307
 20
4.837199463212804
 30
0.5
 11
5.849191801822308
 21
4.838176463212804
 31
0.5
  0
LINE
  5
42C
  8
0
 62
    42
 10
5.849191801822308
 20
4.838176463212804
 30
0.5
 11
5.815011801822307
 21
4.838176463212804
 31
0.5
  0
LINE
  5
42D
  8
0
 62
    42
 10
5.815011801822307
 20
4.838176463212804
 30
0.5
 11
5.720284801822308
 21
4.837199463212804
 31
0.5
  0
LINE
  5
42E
  8
0
 62
    42
 10
5.720284801822308
 20
4.837199463212804
 30
0.5
 11
5.648019801822308
 21
4.550090463212804
 31
0.5
  0
LINE
  5
42F
  8
0
 62
    42
 10
5.648019801822308
 20
4.550090463212804
 30
0.5
 11
5.782784801822308
 21
4.550090463212804
 31
0.5
  0
LINE
  5
430
  8
0
 62
    42
 10
5.782784801822308
 20
4.550090463212804
 30
0.5
 11
5.798409801822308
 21
4.550090463212804
 31
0.5
  0
LINE
  5
431
  8
0
 62
    42
 10
5.798409801822308
 20
4.550090463212804
 30
0.5
 11
5.812081801822307
 21
4.551067463212804
 31
0.5
  0
LINE
  5
432
  8
0
 62
    42
 10
5.812081801822307
 20
4.551067463212804
 30
0.5
 11
5.823800801822308
 21
4.551067463212804
 31
0.5
  0
LINE
  5
433
  8
0
 62
    42
 10
5.823800801822308
 20
4.551067463212804
 30
0.5
 11
5.834542801822307
 21
4.552043463212804
 31
0.5
  0
LINE
  5
434
  8
0
 62
    42
 10
5.834542801822307
 20
4.552043463212804
 30
0.5
 11
5.843331801822307
 21
4.553996463212804
 31
0.5
  0
LINE
  5
435
  8
0
 62
    42
 10
5.843331801822307
 20
4.553996463212804
 30
0.5
 11
5.851144801822308
 21
4.554973463212804
 31
0.5
  0
LINE
  5
436
  8
0
 62
    42
 10
5.851144801822308
 20
4.554973463212804
 30
0.5
 11
5.857003801822307
 21
4.556926463212804
 31
0.5
  0
LINE
  5
437
  8
0
 62
    42
 10
5.857003801822307
 20
4.556926463212804
 30
0.5
 11
5.860909801822308
 21
4.559856463212804
 31
0.5
  0
LINE
  5
438
  8
0
 62
    42
 10
5.860909801822308
 20
4.559856463212804
 30
0.5
 11
5.864816801822308
 21
4.562785463212804
 31
0.5
  0
LINE
  5
439
  8
0
 62
    42
 10
5.864816801822308
 20
4.562785463212804
 30
0.5
 11
5.867745801822307
 21
4.565715463212804
 31
0.5
  0
LINE
  5
43A
  8
0
 62
    42
 10
5.867745801822307
 20
4.565715463212804
 30
0.5
 11
5.870675801822308
 21
4.570598463212804
 31
0.5
  0
LINE
  5
43B
  8
0
 62
    42
 10
5.870675801822308
 20
4.570598463212804
 30
0.5
 11
5.873605801822308
 21
4.576457463212804
 31
0.5
  0
LINE
  5
43C
  8
0
 62
    42
 10
5.873605801822308
 20
4.576457463212804
 30
0.5
 11
5.876534801822308
 21
4.582317463212804
 31
0.5
  0
LINE
  5
43D
  8
0
 62
    42
 10
5.876534801822308
 20
4.582317463212804
 30
0.5
 11
5.878488801822307
 21
4.589153463212804
 31
0.5
  0
LINE
  5
43E
  8
0
 62
    42
 10
5.878488801822307
 20
4.589153463212804
 30
0.5
 11
5.880441801822308
 21
4.597942463212804
 31
0.5
  0
LINE
  5
43F
  8
0
 62
    42
 10
5.880441801822308
 20
4.597942463212804
 30
0.5
 11
5.882394801822308
 21
4.606731463212804
 31
0.5
  0
LINE
  5
440
  8
0
 62
    42
 10
5.882394801822308
 20
4.606731463212804
 30
0.5
 11
5.919503801822307
 21
4.606731463212804
 31
0.5
  0
LINE
  5
441
  8
0
 62
    42
 10
5.919503801822307
 20
4.606731463212804
 30
0.5
 11
5.914620801822307
 21
4.587199463212804
 31
0.5
  0
LINE
  5
442
  8
0
 62
    42
 10
5.914620801822307
 20
4.587199463212804
 30
0.5
 11
5.909738801822307
 21
4.566692463212804
 31
0.5
  0
LINE
  5
443
  8
0
 62
    42
 10
5.909738801822307
 20
4.566692463212804
 30
0.5
 11
5.904855801822308
 21
4.545207463212804
 31
0.5
  0
LINE
  5
444
  8
0
 62
    42
 10
5.904855801822308
 20
4.545207463212804
 30
0.5
 11
5.899972801822307
 21
4.523723463212804
 31
0.5
  0
LINE
  5
445
  8
0
 62
    42
 10
5.899972801822307
 20
4.523723463212804
 30
0.5
 11
5.895089801822308
 21
4.502239463212804
 31
0.5
  0
LINE
  5
446
  8
0
 62
    42
 10
5.895089801822308
 20
4.502239463212804
 30
0.5
 11
5.891183801822308
 21
4.479778463212804
 31
0.5
  0
LINE
  5
447
  8
0
 62
    42
 10
5.891183801822308
 20
4.479778463212804
 30
0.5
 11
5.886300801822308
 21
4.457317463212804
 31
0.5
  0
LINE
  5
448
  8
0
 62
    42
 10
5.886300801822308
 20
4.457317463212804
 30
0.5
 11
5.882394801822308
 21
4.433879463212804
 31
0.5
  0
LINE
  5
449
  8
0
 62
    42
 10
5.882394801822308
 20
4.433879463212804
 30
0.5
 11
5.849191801822308
 21
4.433879463212804
 31
0.5
  0
LINE
  5
44A
  8
0
 62
    42
 10
5.849191801822308
 20
4.433879463212804
 30
0.5
 11
5.850167801822307
 21
4.441692463212804
 31
0.5
  0
LINE
  5
44B
  8
0
 62
    42
 10
5.850167801822307
 20
4.441692463212804
 30
0.5
 11
5.850167801822307
 21
4.448528463212804
 31
0.5
  0
LINE
  5
44C
  8
0
 62
    42
 10
5.850167801822307
 20
4.448528463212804
 30
0.5
 11
5.851144801822308
 21
4.454387463212804
 31
0.5
  0
LINE
  5
44D
  8
0
 62
    42
 10
5.851144801822308
 20
4.454387463212804
 30
0.5
 11
5.851144801822308
 21
4.461223463212804
 31
0.5
  0
LINE
  5
44E
  8
0
 62
    42
 10
5.851144801822308
 20
4.461223463212804
 30
0.5
 11
5.852120801822307
 21
4.467082463212804
 31
0.5
  0
LINE
  5
44F
  8
0
 62
    42
 10
5.852120801822307
 20
4.467082463212804
 30
0.5
 11
5.852120801822307
 21
4.471965463212804
 31
0.5
  0
LINE
  5
450
  8
0
 62
    42
 10
5.852120801822307
 20
4.471965463212804
 30
0.5
 11
5.852120801822307
 21
4.476848463212804
 31
0.5
  0
LINE
  5
451
  8
0
 62
    42
 10
5.852120801822307
 20
4.476848463212804
 30
0.5
 11
5.852120801822307
 21
4.480754463212804
 31
0.5
  0
LINE
  5
452
  8
0
 62
    42
 10
5.852120801822307
 20
4.480754463212804
 30
0.5
 11
5.852120801822307
 21
4.482707463212804
 31
0.5
  0
LINE
  5
453
  8
0
 62
    42
 10
5.852120801822307
 20
4.482707463212804
 30
0.5
 11
5.851144801822308
 21
4.484660463212804
 31
0.5
  0
LINE
  5
454
  8
0
 62
    42
 10
5.851144801822308
 20
4.484660463212804
 30
0.5
 11
5.851144801822308
 21
4.486614463212804
 31
0.5
  0
LINE
  5
455
  8
0
 62
    42
 10
5.851144801822308
 20
4.486614463212804
 30
0.5
 11
5.850167801822307
 21
4.489543463212804
 31
0.5
  0
LINE
  5
456
  8
0
 62
    42
 10
5.850167801822307
 20
4.489543463212804
 30
0.5
 11
5.848214801822308
 21
4.491496463212804
 31
0.5
  0
LINE
  5
457
  8
0
 62
    42
 10
5.848214801822308
 20
4.491496463212804
 30
0.5
 11
5.847238801822307
 21
4.493449463212804
 31
0.5
  0
LINE
  5
458
  8
0
 62
    42
 10
5.847238801822307
 20
4.493449463212804
 30
0.5
 11
5.845284801822308
 21
4.496379463212804
 31
0.5
  0
LINE
  5
459
  8
0
 62
    42
 10
5.845284801822308
 20
4.496379463212804
 30
0.5
 11
5.843331801822307
 21
4.498332463212804
 31
0.5
  0
LINE
  5
45A
  8
0
 62
    42
 10
5.843331801822307
 20
4.498332463212804
 30
0.5
 11
5.841378801822307
 21
4.500285463212804
 31
0.5
  0
LINE
  5
45B
  8
0
 62
    42
 10
5.841378801822307
 20
4.500285463212804
 30
0.5
 11
5.840402801822307
 21
4.501262463212804
 31
0.5
  0
LINE
  5
45C
  8
0
 62
    42
 10
5.840402801822307
 20
4.501262463212804
 30
0.5
 11
5.838448801822308
 21
4.502239463212804
 31
0.5
  0
LINE
  5
45D
  8
0
 62
    42
 10
5.838448801822308
 20
4.502239463212804
 30
0.5
 11
5.836495801822307
 21
4.503215463212804
 31
0.5
  0
LINE
  5
45E
  8
0
 62
    42
 10
5.836495801822307
 20
4.503215463212804
 30
0.5
 11
5.834542801822307
 21
4.504192463212804
 31
0.5
  0
LINE
  5
45F
  8
0
 62
    42
 10
5.834542801822307
 20
4.504192463212804
 30
0.5
 11
5.831613801822307
 21
4.504192463212804
 31
0.5
  0
LINE
  5
460
  8
0
 62
    42
 10
5.831613801822307
 20
4.504192463212804
 30
0.5
 11
5.828683801822308
 21
4.505168463212804
 31
0.5
  0
LINE
  5
461
  8
0
 62
    42
 10
5.828683801822308
 20
4.505168463212804
 30
0.5
 11
5.825753801822307
 21
4.506145463212804
 31
0.5
  0
LINE
  5
462
  8
0
 62
    42
 10
5.825753801822307
 20
4.506145463212804
 30
0.5
 11
5.821847801822307
 21
4.506145463212804
 31
0.5
  0
LINE
  5
463
  8
0
 62
    42
 10
5.821847801822307
 20
4.506145463212804
 30
0.5
 11
5.815988801822307
 21
4.507121463212804
 31
0.5
  0
LINE
  5
464
  8
0
 62
    42
 10
5.815988801822307
 20
4.507121463212804
 30
0.5
 11
5.810128801822307
 21
4.508098463212804
 31
0.5
  0
LINE
  5
465
  8
0
 62
    42
 10
5.810128801822307
 20
4.508098463212804
 30
0.5
 11
5.803292801822307
 21
4.508098463212804
 31
0.5
  0
LINE
  5
466
  8
0
 62
    42
 10
5.803292801822307
 20
4.508098463212804
 30
0.5
 11
5.796456801822307
 21
4.509074463212804
 31
0.5
  0
LINE
  5
467
  8
0
 62
    42
 10
5.796456801822307
 20
4.509074463212804
 30
0.5
 11
5.788644801822308
 21
4.509074463212804
 31
0.5
  0
LINE
  5
468
  8
0
 62
    42
 10
5.788644801822308
 20
4.509074463212804
 30
0.5
 11
5.780831801822307
 21
4.509074463212804
 31
0.5
  0
LINE
  5
469
  8
0
 62
    42
 10
5.780831801822307
 20
4.509074463212804
 30
0.5
 11
5.771066801822308
 21
4.509074463212804
 31
0.5
  0
LINE
  5
46A
  8
0
 62
    42
 10
5.771066801822308
 20
4.509074463212804
 30
0.5
 11
5.638253801822307
 21
4.509074463212804
 31
0.5
  0
LINE
  5
46B
  8
0
 62
    42
 10
5.638253801822307
 20
4.509074463212804
 30
0.5
 11
5.623605801822308
 21
4.455364463212804
 31
0.5
  0
LINE
  5
46C
  8
0
 62
    42
 10
5.623605801822308
 20
4.455364463212804
 30
0.5
 11
5.608956801822307
 21
4.404582463212804
 31
0.5
  0
LINE
  5
46D
  8
0
 62
    42
 10
5.608956801822307
 20
4.404582463212804
 30
0.5
 11
5.594308801822308
 21
4.356731463212804
 31
0.5
  0
LINE
  5
46E
  8
0
 62
    42
 10
5.594308801822308
 20
4.356731463212804
 30
0.5
 11
5.579659801822308
 21
4.311809463212804
 31
0.5
  0
LINE
  5
46F
  8
0
 62
    42
 10
5.579659801822308
 20
4.311809463212804
 30
0.5
 11
5.564034801822308
 21
4.270793463212804
 31
0.5
  0
LINE
  5
470
  8
0
 62
    42
 10
5.564034801822308
 20
4.270793463212804
 30
0.5
 11
5.549386801822307
 21
4.231731463212804
 31
0.5
  0
LINE
  5
471
  8
0
 62
    42
 10
5.549386801822307
 20
4.231731463212804
 30
0.5
 11
5.533761801822307
 21
4.195598463212804
 31
0.5
  0
LINE
  5
472
  8
0
 62
    42
 10
5.533761801822307
 20
4.195598463212804
 30
0.5
 11
5.518136801822307
 21
4.163371463212804
 31
0.5
  0
LINE
  5
473
  8
0
 62
    42
 10
5.518136801822307
 20
4.163371463212804
 30
0.5
 11
5.532784801822308
 21
4.167278463212804
 31
0.5
  0
LINE
  5
474
  8
0
 62
    42
 10
5.532784801822308
 20
4.167278463212804
 30
0.5
 11
5.547433801822308
 21
4.171184463212804
 31
0.5
  0
LINE
  5
475
  8
0
 62
    42
 10
5.547433801822308
 20
4.171184463212804
 30
0.5
 11
5.562081801822307
 21
4.175090463212804
 31
0.5
  0
LINE
  5
476
  8
0
 62
    42
 10
5.562081801822307
 20
4.175090463212804
 30
0.5
 11
5.575753801822307
 21
4.177043463212804
 31
0.5
  0
LINE
  5
477
  8
0
 62
    42
 10
5.575753801822307
 20
4.177043463212804
 30
0.5
 11
5.588448801822308
 21
4.179973463212804
 31
0.5
  0
LINE
  5
478
  8
0
 62
    42
 10
5.588448801822308
 20
4.179973463212804
 30
0.5
 11
5.601144801822308
 21
4.180949463212804
 31
0.5
  0
LINE
  5
479
  8
0
 62
    42
 10
5.601144801822308
 20
4.180949463212804
 30
0.5
 11
5.613839801822308
 21
4.181926463212804
 31
0.5
  0
LINE
  5
47A
  8
0
 62
    42
 10
5.613839801822308
 20
4.181926463212804
 30
0.5
 11
5.625558801822308
 21
4.181926463212804
 31
0.5
  0
LINE
  5
47B
  8
0
 62
    42
 10
5.625558801822308
 20
4.181926463212804
 30
0.5
 11
5.646066801822308
 21
4.181926463212804
 31
0.5
  0
LINE
  5
47C
  8
0
 62
    42
 10
5.646066801822308
 20
4.181926463212804
 30
0.5
 11
5.666573801822308
 21
4.180949463212804
 31
0.5
  0
LINE
  5
47D
  8
0
 62
    42
 10
5.666573801822308
 20
4.180949463212804
 30
0.5
 11
5.689034801822308
 21
4.178996463212804
 31
0.5
  0
LINE
  5
47E
  8
0
 62
    42
 10
5.689034801822308
 20
4.178996463212804
 30
0.5
 11
5.712472801822307
 21
4.176067463212804
 31
0.5
  0
LINE
  5
47F
  8
0
 62
    42
 10
5.712472801822307
 20
4.176067463212804
 30
0.5
 11
5.736886801822307
 21
4.172160463212804
 31
0.5
  0
LINE
  5
480
  8
0
 62
    42
 10
5.736886801822307
 20
4.172160463212804
 30
0.5
 11
5.762277801822307
 21
4.168254463212804
 31
0.5
  0
LINE
  5
481
  8
0
 62
    42
 10
5.762277801822307
 20
4.168254463212804
 30
0.5
 11
5.789620801822307
 21
4.163371463212804
 31
0.5
  0
LINE
  5
482
  8
0
 62
    42
 10
5.789620801822307
 20
4.163371463212804
 30
0.5
 11
5.816964801822308
 21
4.157512463212804
 31
0.5
  0
LINE
  5
483
  8
0
 62
    42
 10
5.816964801822308
 20
4.157512463212804
 30
0.5
 11
5.831613801822307
 21
4.154582463212804
 31
0.5
  0
LINE
  5
484
  8
0
 62
    42
 10
5.831613801822307
 20
4.154582463212804
 30
0.5
 11
5.844308801822308
 21
4.151653463212804
 31
0.5
  0
LINE
  5
485
  8
0
 62
    42
 10
5.844308801822308
 20
4.151653463212804
 30
0.5
 11
5.857003801822307
 21
4.148723463212804
 31
0.5
  0
LINE
  5
486
  8
0
 62
    42
 10
5.857003801822307
 20
4.148723463212804
 30
0.5
 11
5.867745801822307
 21
4.146770463212804
 31
0.5
  0
LINE
  5
487
  8
0
 62
    42
 10
5.867745801822307
 20
4.146770463212804
 30
0.5
 11
5.877511801822307
 21
4.145793463212804
 31
0.5
  0
LINE
  5
488
  8
0
 62
    42
 10
5.877511801822307
 20
4.145793463212804
 30
0.5
 11
5.885323801822308
 21
4.144817463212804
 31
0.5
  0
LINE
  5
489
  8
0
 62
    42
 10
5.885323801822308
 20
4.144817463212804
 30
0.5
 11
5.893136801822307
 21
4.143840463212804
 31
0.5
  0
LINE
  5
48A
  8
0
 62
    42
 10
5.893136801822307
 20
4.143840463212804
 30
0.5
 11
5.898995801822307
 21
4.143840463212804
 31
0.5
  0
LINE
  5
48B
  8
0
 62
    42
 10
5.898995801822307
 20
4.143840463212804
 30
0.5
 11
5.905831801822307
 21
4.143840463212804
 31
0.5
  0
LINE
  5
48C
  8
0
 62
    42
 10
5.905831801822307
 20
4.143840463212804
 30
0.5
 11
5.912667801822307
 21
4.144817463212804
 31
0.5
  0
LINE
  5
48D
  8
0
 62
    42
 10
5.912667801822307
 20
4.144817463212804
 30
0.5
 11
5.918527801822307
 21
4.145793463212804
 31
0.5
  0
LINE
  5
48E
  8
0
 62
    42
 10
5.918527801822307
 20
4.145793463212804
 30
0.5
 11
5.924386801822307
 21
4.147746463212804
 31
0.5
  0
LINE
  5
48F
  8
0
 62
    42
 10
5.924386801822307
 20
4.147746463212804
 30
0.5
 11
5.930245801822307
 21
4.149699463212804
 31
0.5
  0
LINE
  5
490
  8
0
 62
    42
 10
5.930245801822307
 20
4.149699463212804
 30
0.5
 11
5.935128801822307
 21
4.151653463212804
 31
0.5
  0
LINE
  5
491
  8
0
 62
    42
 10
5.935128801822307
 20
4.151653463212804
 30
0.5
 11
5.940011801822307
 21
4.154582463212804
 31
0.5
  0
LINE
  5
492
  8
0
 62
    42
 10
5.940011801822307
 20
4.154582463212804
 30
0.5
 11
5.944894801822308
 21
4.158489463212804
 31
0.5
  0
LINE
  5
493
  8
0
 62
    42
 10
5.944894801822308
 20
4.158489463212804
 30
0.5
 11
5.948800801822308
 21
4.161418463212804
 31
0.5
  0
LINE
  5
494
  8
0
 62
    42
 10
5.948800801822308
 20
4.161418463212804
 30
0.5
 11
5.952706801822307
 21
4.165324463212804
 31
0.5
  0
LINE
  5
495
  8
0
 62
    42
 10
5.952706801822307
 20
4.165324463212804
 30
0.5
 11
5.955636801822307
 21
4.169231463212804
 31
0.5
  0
LINE
  5
496
  8
0
 62
    42
 10
5.955636801822307
 20
4.169231463212804
 30
0.5
 11
5.957589801822308
 21
4.173137463212804
 31
0.5
  0
LINE
  5
497
  8
0
 62
    42
 10
5.957589801822308
 20
4.173137463212804
 30
0.5
 11
5.959542801822307
 21
4.177043463212804
 31
0.5
  0
LINE
  5
498
  8
0
 62
    42
 10
5.959542801822307
 20
4.177043463212804
 30
0.5
 11
5.961495801822307
 21
4.181926463212804
 31
0.5
  0
LINE
  5
499
  8
0
 62
    42
 10
5.961495801822307
 20
4.181926463212804
 30
0.5
 11
5.962472801822307
 21
4.185832463212804
 31
0.5
  0
LINE
  5
49A
  8
0
 62
    42
 10
5.962472801822307
 20
4.185832463212804
 30
0.5
 11
5.962472801822307
 21
4.190715463212804
 31
0.5
  0
LINE
  5
49B
  8
0
 62
    42
 10
5.962472801822307
 20
4.190715463212804
 30
0.5
 11
5.962472801822307
 21
4.193645463212804
 31
0.5
  0
LINE
  5
49C
  8
0
 62
    42
 10
5.962472801822307
 20
4.193645463212804
 30
0.5
 11
5.961495801822307
 21
4.196574463212804
 31
0.5
  0
LINE
  5
49D
  8
0
 62
    42
 10
5.961495801822307
 20
4.196574463212804
 30
0.5
 11
5.961495801822307
 21
4.200481463212804
 31
0.5
  0
LINE
  5
49E
  8
0
 62
    42
 10
5.961495801822307
 20
4.200481463212804
 30
0.5
 11
5.960519801822308
 21
4.204387463212804
 31
0.5
  0
LINE
  5
49F
  8
0
 62
    42
 10
5.960519801822308
 20
4.204387463212804
 30
0.5
 11
5.958566801822308
 21
4.208293463212804
 31
0.5
  0
LINE
  5
4A0
  8
0
 62
    42
 10
5.958566801822308
 20
4.208293463212804
 30
0.5
 11
5.957589801822308
 21
4.213176463212804
 31
0.5
  0
LINE
  5
4A1
  8
0
 62
    42
 10
5.957589801822308
 20
4.213176463212804
 30
0.5
 11
5.955636801822307
 21
4.219035463212804
 31
0.5
  0
LINE
  5
4A2
  8
0
 62
    42
 10
5.955636801822307
 20
4.219035463212804
 30
0.5
 11
5.953683801822308
 21
4.223918463212804
 31
0.5
  0
LINE
  5
4A3
  8
0
 62
    42
 10
5.953683801822308
 20
4.223918463212804
 30
0.5
 11
5.951730801822308
 21
4.228801463212804
 31
0.5
  0
LINE
  5
4A4
  8
0
 62
    42
 10
5.951730801822308
 20
4.228801463212804
 30
0.5
 11
5.950753801822307
 21
4.232707463212804
 31
0.5
  0
LINE
  5
4A5
  8
0
 62
    42
 10
5.950753801822307
 20
4.232707463212804
 30
0.5
 11
5.949777801822307
 21
4.236614463212804
 31
0.5
  0
LINE
  5
4A6
  8
0
 62
    42
 10
5.949777801822307
 20
4.236614463212804
 30
0.5
 11
5.948800801822308
 21
4.240520463212804
 31
0.5
  0
LINE
  5
4A7
  8
0
 62
    42
 10
5.948800801822308
 20
4.240520463212804
 30
0.5
 11
5.948800801822308
 21
4.243449463212804
 31
0.5
  0
LINE
  5
4A8
  8
0
 62
    42
 10
5.948800801822308
 20
4.243449463212804
 30
0.5
 11
5.947823801822308
 21
4.247356463212804
 31
0.5
  0
LINE
  5
4A9
  8
0
 62
    42
 10
5.947823801822308
 20
4.247356463212804
 30
0.5
 11
5.947823801822308
 21
4.251262463212804
 31
0.5
  0
LINE
  5
4AA
  8
0
 62
    42
 10
5.947823801822308
 20
4.251262463212804
 30
0.5
 11
5.947823801822308
 21
4.255168463212804
 31
0.5
  0
LINE
  5
4AB
  8
0
 62
    42
 10
5.947823801822308
 20
4.255168463212804
 30
0.5
 11
5.947823801822308
 21
4.259074463212804
 31
0.5
  0
LINE
  5
4AC
  8
0
 62
    42
 10
5.947823801822308
 20
4.259074463212804
 30
0.5
 11
5.948800801822308
 21
4.262004463212804
 31
0.5
  0
LINE
  5
4AD
  8
0
 62
    42
 10
5.948800801822308
 20
4.262004463212804
 30
0.5
 11
5.949777801822307
 21
4.265910463212804
 31
0.5
  0
LINE
  5
4AE
  8
0
 62
    42
 10
5.949777801822307
 20
4.265910463212804
 30
0.5
 11
5.950753801822307
 21
4.268840463212804
 31
0.5
  0
LINE
  5
4AF
  8
0
 62
    42
 10
5.950753801822307
 20
4.268840463212804
 30
0.5
 11
5.952706801822307
 21
4.272746463212804
 31
0.5
  0
LINE
  5
4B0
  8
0
 62
    42
 10
5.952706801822307
 20
4.272746463212804
 30
0.5
 11
5.954659801822308
 21
4.275676463212804
 31
0.5
  0
LINE
  5
4B1
  8
0
 62
    42
 10
5.954659801822308
 20
4.275676463212804
 30
0.5
 11
5.956613801822307
 21
4.278606463212804
 31
0.5
  0
LINE
  5
4B2
  8
0
 62
    42
 10
5.956613801822307
 20
4.278606463212804
 30
0.5
 11
5.959542801822307
 21
4.281535463212804
 31
0.5
  0
LINE
  5
4B3
  8
0
 62
    42
 10
5.959542801822307
 20
4.281535463212804
 30
0.5
 11
5.962472801822307
 21
4.284465463212804
 31
0.5
  0
LINE
  5
4B4
  8
0
 62
    42
 10
5.962472801822307
 20
4.284465463212804
 30
0.5
 11
5.966378801822307
 21
4.286418463212804
 31
0.5
  0
LINE
  5
4B5
  8
0
 62
    42
 10
5.966378801822307
 20
4.286418463212804
 30
0.5
 11
5.969308801822308
 21
4.288371463212804
 31
0.5
  0
LINE
  5
4B6
  8
0
 62
    42
 10
5.969308801822308
 20
4.288371463212804
 30
0.5
 11
5.973214801822308
 21
4.290324463212804
 31
0.5
  0
LINE
  5
4B7
  8
0
 62
    42
 10
5.973214801822308
 20
4.290324463212804
 30
0.5
 11
5.977120801822307
 21
4.291301463212804
 31
0.5
  0
LINE
  5
4B8
  8
0
 62
    42
 10
5.977120801822307
 20
4.291301463212804
 30
0.5
 11
5.981027801822307
 21
4.292278463212804
 31
0.5
  0
LINE
  5
4B9
  8
0
 62
    42
 10
5.981027801822307
 20
4.292278463212804
 30
0.5
 11
5.984933801822308
 21
4.293254463212804
 31
0.5
  0
LINE
  5
4BA
  8
0
 62
    42
 10
5.984933801822308
 20
4.293254463212804
 30
0.5
 11
5.988839801822308
 21
4.293254463212804
 31
0.5
  0
LINE
  5
4BB
  8
0
 62
    42
 10
5.988839801822308
 20
4.293254463212804
 30
0.5
 11
5.993722801822307
 21
4.293254463212804
 31
0.5
  0
LINE
  5
4BC
  8
0
 62
    42
 10
5.993722801822307
 20
4.293254463212804
 30
0.5
 11
5.998605801822308
 21
4.292278463212804
 31
0.5
  0
LINE
  5
4BD
  8
0
 62
    42
 10
5.998605801822308
 20
4.292278463212804
 30
0.5
 11
6.003488801822307
 21
4.291301463212804
 31
0.5
  0
LINE
  5
4BE
  8
0
 62
    42
 10
6.003488801822307
 20
4.291301463212804
 30
0.5
 11
6.007394801822308
 21
4.289348463212804
 31
0.5
  0
LINE
  5
4BF
  8
0
 62
    42
 10
6.007394801822308
 20
4.289348463212804
 30
0.5
 11
6.011300801822308
 21
4.287395463212804
 31
0.5
  0
LINE
  5
4C0
  8
0
 62
    42
 10
6.011300801822308
 20
4.287395463212804
 30
0.5
 11
6.015206801822307
 21
4.284465463212804
 31
0.5
  0
LINE
  5
4C1
  8
0
 62
    42
 10
6.015206801822307
 20
4.284465463212804
 30
0.5
 11
6.019113801822307
 21
4.281535463212804
 31
0.5
  0
LINE
  5
4C2
  8
0
 62
    42
 10
6.019113801822307
 20
4.281535463212804
 30
0.5
 11
6.022042801822307
 21
4.277629463212804
 31
0.5
  0
LINE
  5
4C3
  8
0
 62
    42
 10
6.022042801822307
 20
4.277629463212804
 30
0.5
 11
6.025948801822308
 21
4.273723463212804
 31
0.5
  0
LINE
  5
4C4
  8
0
 62
    42
 10
6.025948801822308
 20
4.273723463212804
 30
0.5
 11
6.027902801822307
 21
4.268840463212804
 31
0.5
  0
LINE
  5
4C5
  8
0
 62
    42
 10
6.027902801822307
 20
4.268840463212804
 30
0.5
 11
6.030831801822307
 21
4.263957463212804
 31
0.5
  0
LINE
  5
4C6
  8
0
 62
    42
 10
6.030831801822307
 20
4.263957463212804
 30
0.5
 11
6.032784801822308
 21
4.259074463212804
 31
0.5
  0
LINE
  5
4C7
  8
0
 62
    42
 10
6.032784801822308
 20
4.259074463212804
 30
0.5
 11
6.033761801822307
 21
4.254192463212804
 31
0.5
  0
LINE
  5
4C8
  8
0
 62
    42
 10
6.033761801822307
 20
4.254192463212804
 30
0.5
 11
6.034738801822307
 21
4.248332463212804
 31
0.5
  0
LINE
  5
4C9
  8
0
 62
    42
 10
6.034738801822307
 20
4.248332463212804
 30
0.5
 11
6.035714801822308
 21
4.242473463212804
 31
0.5
  0
LINE
  5
4CA
  8
0
 62
    42
 10
6.035714801822308
 20
4.242473463212804
 30
0.5
 11
6.035714801822308
 21
4.235637463212804
 31
0.5
  0
LINE
  5
4CB
  8
0
 62
    42
 10
6.035714801822308
 20
4.235637463212804
 30
0.5
 11
6.034738801822307
 21
4.221965463212804
 31
0.5
  0
LINE
  5
4CC
  8
0
 62
    42
 10
6.034738801822307
 20
4.221965463212804
 30
0.5
 11
6.032784801822308
 21
4.209270463212804
 31
0.5
  0
LINE
  5
4CD
  8
0
 62
    42
 10
6.032784801822308
 20
4.209270463212804
 30
0.5
 11
6.028878801822307
 21
4.196574463212804
 31
0.5
  0
LINE
  5
4CE
  8
0
 62
    42
 10
6.028878801822307
 20
4.196574463212804
 30
0.5
 11
6.023995801822307
 21
4.183879463212804
 31
0.5
  0
LINE
  5
4CF
  8
0
 62
    42
 10
6.023995801822307
 20
4.183879463212804
 30
0.5
 11
6.017159801822308
 21
4.172160463212804
 31
0.5
  0
LINE
  5
4D0
  8
0
 62
    42
 10
6.017159801822308
 20
4.172160463212804
 30
0.5
 11
6.008370801822307
 21
4.160442463212804
 31
0.5
  0
LINE
  5
4D1
  8
0
 62
    42
 10
6.008370801822307
 20
4.160442463212804
 30
0.5
 11
5.998605801822308
 21
4.149699463212804
 31
0.5
  0
LINE
  5
4D2
  8
0
 62
    42
 10
5.998605801822308
 20
4.149699463212804
 30
0.5
 11
5.986886801822307
 21
4.138957463212804
 31
0.5
  0
LINE
  5
4D3
  8
0
 62
    42
 10
5.986886801822307
 20
4.138957463212804
 30
0.5
 11
5.974191801822308
 21
4.129192463212804
 31
0.5
  0
LINE
  5
4D4
  8
0
 62
    42
 10
5.974191801822308
 20
4.129192463212804
 30
0.5
 11
5.960519801822308
 21
4.120403463212804
 31
0.5
  0
LINE
  5
4D5
  8
0
 62
    42
 10
5.960519801822308
 20
4.120403463212804
 30
0.5
 11
5.946847801822307
 21
4.113567463212804
 31
0.5
  0
LINE
  5
4D6
  8
0
 62
    42
 10
5.946847801822307
 20
4.113567463212804
 30
0.5
 11
5.931222801822307
 21
4.107707463212804
 31
0.5
  0
LINE
  5
4D7
  8
0
 62
    42
 10
5.931222801822307
 20
4.107707463212804
 30
0.5
 11
5.914620801822307
 21
4.102824463212804
 31
0.5
  0
LINE
  5
4D8
  8
0
 62
    42
 10
5.914620801822307
 20
4.102824463212804
 30
0.5
 11
5.897042801822307
 21
4.099895463212804
 31
0.5
  0
LINE
  5
4D9
  8
0
 62
    42
 10
5.897042801822307
 20
4.099895463212804
 30
0.5
 11
5.878488801822307
 21
4.097942463212804
 31
0.5
  0
LINE
  5
4DA
  8
0
 62
    42
 10
5.878488801822307
 20
4.097942463212804
 30
0.5
 11
5.858956801822307
 21
4.096965463212804
 31
0.5
  0
LINE
  5
4DB
  8
0
 62
    42
 10
5.858956801822307
 20
4.096965463212804
 30
0.5
 11
5.848214801822308
 21
4.096965463212804
 31
0.5
  0
LINE
  5
4DC
  8
0
 62
    42
 10
5.848214801822308
 20
4.096965463212804
 30
0.5
 11
5.836495801822307
 21
4.096965463212804
 31
0.5
  0
LINE
  5
4DD
  8
0
 62
    42
 10
5.836495801822307
 20
4.096965463212804
 30
0.5
 11
5.824777801822307
 21
4.097942463212804
 31
0.5
  0
LINE
  5
4DE
  8
0
 62
    42
 10
5.824777801822307
 20
4.097942463212804
 30
0.5
 11
5.812081801822307
 21
4.098918463212804
 31
0.5
  0
LINE
  5
4DF
  8
0
 62
    42
 10
5.812081801822307
 20
4.098918463212804
 30
0.5
 11
5.798409801822308
 21
4.099895463212804
 31
0.5
  0
LINE
  5
4E0
  8
0
 62
    42
 10
5.798409801822308
 20
4.099895463212804
 30
0.5
 11
5.783761801822307
 21
4.100871463212804
 31
0.5
  0
LINE
  5
4E1
  8
0
 62
    42
 10
5.783761801822307
 20
4.100871463212804
 30
0.5
 11
5.769113801822307
 21
4.102824463212804
 31
0.5
  0
LINE
  5
4E2
  8
0
 62
    42
 10
5.769113801822307
 20
4.102824463212804
 30
0.5
 11
5.753488801822307
 21
4.103801463212804
 31
0.5
  0
LINE
  5
4E3
  8
0
 62
    42
 10
5.753488801822307
 20
4.103801463212804
 30
0.5
 11
5.719308801822308
 21
4.107707463212804
 31
0.5
  0
LINE
  5
4E4
  8
0
 62
    42
 10
5.719308801822308
 20
4.107707463212804
 30
0.5
 11
5.688058801822308
 21
4.110637463212804
 31
0.5
  0
LINE
  5
4E5
  8
0
 62
    42
 10
5.688058801822308
 20
4.110637463212804
 30
0.5
 11
5.657784801822308
 21
4.113567463212804
 31
0.5
  0
LINE
  5
4E6
  8
0
 62
    42
 10
5.657784801822308
 20
4.113567463212804
 30
0.5
 11
5.630441801822308
 21
4.115520463212804
 31
0.5
  0
LINE
  5
4E7
  8
0
 62
    42
 10
5.630441801822308
 20
4.115520463212804
 30
0.5
 11
5.604073801822308
 21
4.117473463212804
 31
0.5
  0
LINE
  5
4E8
  8
0
 62
    42
 10
5.604073801822308
 20
4.117473463212804
 30
0.5
 11
5.580636801822307
 21
4.118449463212804
 31
0.5
  0
LINE
  5
4E9
  8
0
 62
    42
 10
5.580636801822307
 20
4.118449463212804
 30
0.5
 11
5.559152801822307
 21
4.119426463212804
 31
0.5
  0
LINE
  5
4EA
  8
0
 62
    42
 10
5.559152801822307
 20
4.119426463212804
 30
0.5
 11
5.539620801822307
 21
4.119426463212804
 31
0.5
  0
LINE
  5
4EB
  8
0
 62
    42
 10
5.539620801822307
 20
4.119426463212804
 30
0.5
 11
5.515206801822307
 21
4.119426463212804
 31
0.5
  0
LINE
  5
4EC
  8
0
 62
    42
 10
5.515206801822307
 20
4.119426463212804
 30
0.5
 11
5.489816801822308
 21
4.118449463212804
 31
0.5
  0
LINE
  5
4ED
  8
0
 62
    42
 10
5.489816801822308
 20
4.118449463212804
 30
0.5
 11
5.463448801822308
 21
4.117473463212804
 31
0.5
  0
LINE
  5
4EE
  8
0
 62
    42
 10
5.463448801822308
 20
4.117473463212804
 30
0.5
 11
5.435128801822307
 21
4.115520463212804
 31
0.5
  0
LINE
  5
4EF
  8
0
 62
    42
 10
5.435128801822307
 20
4.115520463212804
 30
0.5
 11
5.406808801822308
 21
4.113567463212804
 31
0.5
  0
LINE
  5
4F0
  8
0
 62
    42
 10
5.406808801822308
 20
4.113567463212804
 30
0.5
 11
5.376534801822308
 21
4.110637463212804
 31
0.5
  0
LINE
  5
4F1
  8
0
 62
    42
 10
5.376534801822308
 20
4.110637463212804
 30
0.5
 11
5.346261801822307
 21
4.107707463212804
 31
0.5
  0
LINE
  5
4F2
  8
0
 62
    42
 10
5.346261801822307
 20
4.107707463212804
 30
0.5
 11
5.314034801822308
 21
4.103801463212804
 31
0.5
  0
LINE
  5
4F3
  8
0
 62
    42
 10
5.314034801822308
 20
4.103801463212804
 30
0.5
 11
5.324777801822307
 21
4.140910463212804
 31
0.5
  0
LINE
  5
4F4
  8
0
 62
    42
 10
5.324777801822307
 20
4.140910463212804
 30
0.5
 11
5.343331801822307
 21
4.145793463212804
 31
0.5
  0
LINE
  5
4F5
  8
0
 62
    42
 10
5.343331801822307
 20
4.145793463212804
 30
0.5
 11
5.359933801822308
 21
4.150676463212804
 31
0.5
  0
LINE
  5
4F6
  8
0
 62
    42
 10
5.359933801822308
 20
4.150676463212804
 30
0.5
 11
5.373605801822308
 21
4.154582463212804
 31
0.5
  0
LINE
  5
4F7
  8
0
 62
    42
 10
5.373605801822308
 20
4.154582463212804
 30
0.5
 11
5.386300801822308
 21
4.158489463212804
 31
0.5
  0
LINE
  5
4F8
  8
0
 62
    42
 10
5.386300801822308
 20
4.158489463212804
 30
0.5
 11
5.397042801822307
 21
4.162395463212804
 31
0.5
  0
LINE
  5
4F9
  8
0
 62
    42
 10
5.397042801822307
 20
4.162395463212804
 30
0.5
 11
5.404855801822308
 21
4.166301463212804
 31
0.5
  0
LINE
  5
4FA
  8
0
 62
    42
 10
5.404855801822308
 20
4.166301463212804
 30
0.5
 11
5.411691801822308
 21
4.169231463212804
 31
0.5
  0
LINE
  5
4FB
  8
0
 62
    42
 10
5.411691801822308
 20
4.169231463212804
 30
0.5
 11
5.415597801822307
 21
4.171184463212804
 31
0.5
  0
LINE
  5
4FC
  8
0
 62
    42
 10
5.415597801822307
 20
4.171184463212804
 30
0.5
 11
5.419503801822307
 21
4.174114463212804
 31
0.5
  0
LINE
  5
4FD
  8
0
 62
    42
 10
5.419503801822307
 20
4.174114463212804
 30
0.5
 11
5.422433801822308
 21
4.177043463212804
 31
0.5
  0
LINE
  5
4FE
  8
0
 62
    42
 10
5.422433801822308
 20
4.177043463212804
 30
0.5
 11
5.425363801822307
 21
4.179973463212804
 31
0.5
  0
LINE
  5
4FF
  8
0
 62
    42
 10
5.425363801822307
 20
4.179973463212804
 30
0.5
 11
5.428292801822307
 21
4.183879463212804
 31
0.5
  0
LINE
  5
500
  8
0
 62
    42
 10
5.428292801822307
 20
4.183879463212804
 30
0.5
 11
5.431222801822307
 21
4.187785463212804
 31
0.5
  0
LINE
  5
501
  8
0
 62
    42
 10
5.431222801822307
 20
4.187785463212804
 30
0.5
 11
5.434152801822307
 21
4.191692463212804
 31
0.5
  0
LINE
  5
502
  8
0
 62
    42
 10
5.434152801822307
 20
4.191692463212804
 30
0.5
 11
5.437081801822307
 21
4.196574463212804
 31
0.5
  0
LINE
  5
503
  8
0
 62
    42
 10
5.437081801822307
 20
4.196574463212804
 30
0.5
 11
5.439034801822308
 21
4.200481463212804
 31
0.5
  0
LINE
  5
504
  8
0
 62
    42
 10
5.439034801822308
 20
4.200481463212804
 30
0.5
 11
5.446847801822307
 21
4.218059463212804
 31
0.5
  0
LINE
  5
505
  8
0
 62
    42
 10
5.446847801822307
 20
4.218059463212804
 30
0.5
 11
5.455636801822307
 21
4.239543463212804
 31
0.5
  0
LINE
  5
506
  8
0
 62
    42
 10
5.455636801822307
 20
4.239543463212804
 30
0.5
 11
5.465402801822307
 21
4.264934463212804
 31
0.5
  0
LINE
  5
507
  8
0
 62
    42
 10
5.465402801822307
 20
4.264934463212804
 30
0.5
 11
5.475167801822307
 21
4.293254463212804
 31
0.5
  0
LINE
  5
508
  8
0
 62
    42
 10
5.475167801822307
 20
4.293254463212804
 30
0.5
 11
5.484933801822308
 21
4.326457463212804
 31
0.5
  0
LINE
  5
509
  8
0
 62
    42
 10
5.484933801822308
 20
4.326457463212804
 30
0.5
 11
5.496652801822307
 21
4.363567463212804
 31
0.5
  0
LINE
  5
50A
  8
0
 62
    42
 10
5.496652801822307
 20
4.363567463212804
 30
0.5
 11
5.507394801822308
 21
4.403606463212804
 31
0.5
  0
LINE
  5
50B
  8
0
 62
    42
 10
5.507394801822308
 20
4.403606463212804
 30
0.5
 11
5.520089801822308
 21
4.448528463212804
 31
0.5
  0
LINE
  5
50C
  8
0
 62
    42
 10
5.520089801822308
 20
4.448528463212804
 30
0.5
 11
5.532784801822308
 21
4.495403463212804
 31
0.5
  0
LINE
  5
50D
  8
0
 62
    42
 10
5.532784801822308
 20
4.495403463212804
 30
0.5
 11
5.544503801822307
 21
4.542278463212804
 31
0.5
  0
LINE
  5
50E
  8
0
 62
    42
 10
5.544503801822307
 20
4.542278463212804
 30
0.5
 11
5.557198801822308
 21
4.591106463212804
 31
0.5
  0
LINE
  5
50F
  8
0
 62
    42
 10
5.557198801822308
 20
4.591106463212804
 30
0.5
 11
5.569894801822308
 21
4.639934463212804
 31
0.5
  0
LINE
  5
510
  8
0
 62
    42
 10
5.569894801822308
 20
4.639934463212804
 30
0.5
 11
5.582589801822308
 21
4.688762463212804
 31
0.5
  0
LINE
  5
511
  8
0
 62
    42
 10
5.582589801822308
 20
4.688762463212804
 30
0.5
 11
5.595284801822308
 21
4.738567463212804
 31
0.5
  0
LINE
  5
512
  8
0
 62
    42
 10
5.595284801822308
 20
4.738567463212804
 30
0.5
 11
5.607980801822308
 21
4.789348463212804
 31
0.5
  0
LINE
  5
513
  8
0
 62
    42
 10
5.607980801822308
 20
4.789348463212804
 30
0.5
 11
5.620675801822308
 21
4.841106463212804
 31
0.5
  0
LINE
  5
514
  8
0
 62
    42
 10
5.620675801822308
 20
4.841106463212804
 30
0.5
 11
5.601144801822308
 21
4.840129463212804
 31
0.5
  0
LINE
  5
515
  8
0
 62
    42
 10
5.601144801822308
 20
4.840129463212804
 30
0.5
 11
5.582589801822308
 21
4.839153463212804
 31
0.5
  0
LINE
  5
516
  8
0
 62
    42
 10
5.582589801822308
 20
4.839153463212804
 30
0.5
 11
5.563058801822308
 21
4.836223463212804
 31
0.5
  0
LINE
  5
517
  8
0
 62
    42
 10
5.563058801822308
 20
4.836223463212804
 30
0.5
 11
5.544503801822307
 21
4.832317463212804
 31
0.5
  0
LINE
  5
518
  8
0
 62
    42
 10
5.544503801822307
 20
4.832317463212804
 30
0.5
 11
5.525948801822308
 21
4.826457463212804
 31
0.5
  0
LINE
  5
519
  8
0
 62
    42
 10
5.525948801822308
 20
4.826457463212804
 30
0.5
 11
5.508370801822307
 21
4.820598463212804
 31
0.5
  0
LINE
  5
51A
  8
0
 62
    42
 10
5.508370801822307
 20
4.820598463212804
 30
0.5
 11
5.490792801822307
 21
4.812785463212804
 31
0.5
  0
LINE
  5
51B
  8
0
 62
    42
 10
5.490792801822307
 20
4.812785463212804
 30
0.5
 11
5.473214801822308
 21
4.803996463212804
 31
0.5
  0
LINE
  5
51C
  8
0
 62
    42
 10
5.473214801822308
 20
4.803996463212804
 30
0.5
 11
5.455636801822307
 21
4.794231463212804
 31
0.5
  0
LINE
  5
51D
  8
0
 62
    42
 10
5.455636801822307
 20
4.794231463212804
 30
0.5
 11
5.440011801822307
 21
4.784465463212804
 31
0.5
  0
LINE
  5
51E
  8
0
 62
    42
 10
5.440011801822307
 20
4.784465463212804
 30
0.5
 11
5.424386801822307
 21
4.772746463212804
 31
0.5
  0
LINE
  5
51F
  8
0
 62
    42
 10
5.424386801822307
 20
4.772746463212804
 30
0.5
 11
5.410714801822308
 21
4.761028463212804
 31
0.5
  0
LINE
  5
520
  8
0
 62
    42
 10
5.410714801822308
 20
4.761028463212804
 30
0.5
 11
5.398019801822308
 21
4.749309463212804
 31
0.5
  0
LINE
  5
521
  8
0
 62
    42
 10
5.398019801822308
 20
4.749309463212804
 30
0.5
 11
5.385323801822308
 21
4.735637463212804
 31
0.5
  0
LINE
  5
522
  8
0
 62
    42
 10
5.385323801822308
 20
4.735637463212804
 30
0.5
 11
5.374581801822307
 21
4.721965463212804
 31
0.5
  0
LINE
  5
523
  8
0
 62
    42
 10
5.374581801822307
 20
4.721965463212804
 30
0.5
 11
5.363839801822308
 21
4.707317463212804
 31
0.5
  0
LINE
  5
524
  8
0
 62
    42
 10
5.363839801822308
 20
4.707317463212804
 30
0.5
 11
5.355050801822308
 21
4.692668463212804
 31
0.5
  0
LINE
  5
525
  8
0
 62
    42
 10
5.355050801822308
 20
4.692668463212804
 30
0.5
 11
5.347238801822307
 21
4.677043463212804
 31
0.5
  0
LINE
  5
526
  8
0
 62
    42
 10
5.347238801822307
 20
4.677043463212804
 30
0.5
 11
5.340402801822307
 21
4.662395463212804
 31
0.5
  0
LINE
  5
527
  8
0
 62
    42
 10
5.340402801822307
 20
4.662395463212804
 30
0.5
 11
5.334542801822307
 21
4.646770463212804
 31
0.5
  0
LINE
  5
528
  8
0
 62
    42
 10
5.334542801822307
 20
4.646770463212804
 30
0.5
 11
5.330636801822307
 21
4.631145463212804
 31
0.5
  0
LINE
  5
529
  8
0
 62
    42
 10
5.330636801822307
 20
4.631145463212804
 30
0.5
 11
5.327706801822307
 21
4.614543463212804
 31
0.5
  0
LINE
  5
52A
  8
0
 62
    42
 10
5.327706801822307
 20
4.614543463212804
 30
0.5
 11
5.325753801822307
 21
4.598918463212804
 31
0.5
  0
LINE
  5
52B
  8
0
 62
    42
 10
5.325753801822307
 20
4.598918463212804
 30
0.5
 11
5.324777801822307
 21
4.582317463212804
 31
0.5
  0
LINE
  5
52C
  8
0
 62
    42
 10
5.324777801822307
 20
4.582317463212804
 30
0.5
 11
5.324777801822307
 21
4.575481463212804
 31
0.5
  0
LINE
  5
52D
  8
0
 62
    42
 10
5.324777801822307
 20
4.575481463212804
 30
0.5
 11
5.324777801822307
 21
4.568645463212804
 31
0.5
  0
LINE
  5
52E
  8
0
 62
    42
 10
5.324777801822307
 20
4.568645463212804
 30
0.5
 11
5.325753801822307
 21
4.562785463212804
 31
0.5
  0
LINE
  5
52F
  8
0
 62
    42
 10
5.325753801822307
 20
4.562785463212804
 30
0.5
 11
5.325753801822307
 21
4.555949463212804
 31
0.5
  0
LINE
  5
530
  8
0
 62
    42
 10
5.325753801822307
 20
4.555949463212804
 30
0.5
 11
5.326730801822308
 21
4.550090463212804
 31
0.5
  0
LINE
  5
531
  8
0
 62
    42
 10
5.326730801822308
 20
4.550090463212804
 30
0.5
 11
5.327706801822307
 21
4.544231463212804
 31
0.5
  0
LINE
  5
532
  8
0
 62
    42
 10
5.327706801822307
 20
4.544231463212804
 30
0.5
 11
5.328683801822308
 21
4.539348463212804
 31
0.5
  0
LINE
  5
533
  8
0
 62
    42
 10
5.328683801822308
 20
4.539348463212804
 30
0.5
 11
5.330636801822307
 21
4.533489463212804
 31
0.5
  0
LINE
  5
534
  8
0
 62
    42
 10
5.330636801822307
 20
4.533489463212804
 30
0.5
 11
5.331613801822307
 21
4.528606463212804
 31
0.5
  0
LINE
  5
535
  8
0
 62
    42
 10
5.331613801822307
 20
4.528606463212804
 30
0.5
 11
5.333566801822308
 21
4.521770463212804
 31
0.5
  0
LINE
  5
536
  8
0
 62
    42
 10
5.333566801822308
 20
4.521770463212804
 30
0.5
 11
5.336495801822307
 21
4.515910463212804
 31
0.5
  0
LINE
  5
537
  8
0
 62
    42
 10
5.336495801822307
 20
4.515910463212804
 30
0.5
 11
5.339425801822308
 21
4.509074463212804
 31
0.5
  0
LINE
  5
538
  8
0
 62
    42
 10
5.339425801822308
 20
4.509074463212804
 30
0.5
 11
5.342355801822308
 21
4.501262463212804
 31
0.5
  0
LINE
  5
539
  8
0
 62
    42
 10
5.342355801822308
 20
4.501262463212804
 30
0.5
 11
5.346261801822307
 21
4.492473463212804
 31
0.5
  0
LINE
  5
53A
  8
0
 62
    42
 10
5.346261801822307
 20
4.492473463212804
 30
0.5
 11
5.351144801822308
 21
4.484660463212804
 31
0.5
  0
LINE
  5
53B
  8
0
 62
    42
 10
5.351144801822308
 20
4.484660463212804
 30
0.5
 11
5.355050801822308
 21
4.474895463212804
 31
0.5
  0
LINE
  5
53C
  8
0
 62
    42
 10
5.355050801822308
 20
4.474895463212804
 30
0.5
 11
5.357980801822308
 21
4.470012463212804
 31
0.5
  0
LINE
  5
53D
  8
0
 62
    42
 10
5.357980801822308
 20
4.470012463212804
 30
0.5
 11
5.360909801822308
 21
4.464153463212804
 31
0.5
  0
LINE
  5
53E
  8
0
 62
    42
 10
5.360909801822308
 20
4.464153463212804
 30
0.5
 11
5.362863801822307
 21
4.459270463212804
 31
0.5
  0
LINE
  5
53F
  8
0
 62
    42
 10
5.362863801822307
 20
4.459270463212804
 30
0.5
 11
5.364816801822308
 21
4.454387463212804
 31
0.5
  0
LINE
  5
540
  8
0
 62
    42
 10
5.364816801822308
 20
4.454387463212804
 30
0.5
 11
5.365792801822307
 21
4.449504463212804
 31
0.5
  0
LINE
  5
541
  8
0
 62
    42
 10
5.365792801822307
 20
4.449504463212804
 30
0.5
 11
5.366769801822308
 21
4.445598463212804
 31
0.5
  0
LINE
  5
542
  8
0
 62
    42
 10
5.366769801822308
 20
4.445598463212804
 30
0.5
 11
5.367745801822307
 21
4.441692463212804
 31
0.5
  0
LINE
  5
543
  8
0
 62
    42
 10
5.367745801822307
 20
4.441692463212804
 30
0.5
 11
5.367745801822307
 21
4.437785463212804
 31
0.5
  0
LINE
  5
544
  8
0
 62
    42
 10
5.367745801822307
 20
4.437785463212804
 30
0.5
 11
5.367745801822307
 21
4.434856463212804
 31
0.5
  0
LINE
  5
545
  8
0
 62
    42
 10
5.367745801822307
 20
4.434856463212804
 30
0.5
 11
5.366769801822308
 21
4.430949463212804
 31
0.5
  0
LINE
  5
546
  8
0
 62
    42
 10
5.366769801822308
 20
4.430949463212804
 30
0.5
 11
5.365792801822307
 21
4.428020463212804
 31
0.5
  0
LINE
  5
547
  8
0
 62
    42
 10
5.365792801822307
 20
4.428020463212804
 30
0.5
 11
5.364816801822308
 21
4.424114463212804
 31
0.5
  0
LINE
  5
548
  8
0
 62
    42
 10
5.364816801822308
 20
4.424114463212804
 30
0.5
 11
5.362863801822307
 21
4.421184463212804
 31
0.5
  0
LINE
  5
549
  8
0
 62
    42
 10
5.362863801822307
 20
4.421184463212804
 30
0.5
 11
5.360909801822308
 21
4.418254463212804
 31
0.5
  0
LINE
  5
54A
  8
0
 62
    42
 10
5.360909801822308
 20
4.418254463212804
 30
0.5
 11
5.358956801822307
 21
4.415324463212804
 31
0.5
  0
LINE
  5
54B
  8
0
 62
    42
 10
5.358956801822307
 20
4.415324463212804
 30
0.5
 11
5.356027801822307
 21
4.412395463212804
 31
0.5
  0
LINE
  5
54C
  8
0
 62
    42
 10
5.356027801822307
 20
4.412395463212804
 30
0.5
 11
5.353097801822307
 21
4.410442463212804
 31
0.5
  0
LINE
  5
54D
  8
0
 62
    42
 10
5.353097801822307
 20
4.410442463212804
 30
0.5
 11
5.349191801822308
 21
4.407512463212804
 31
0.5
  0
LINE
  5
54E
  8
0
 62
    42
 10
5.349191801822308
 20
4.407512463212804
 30
0.5
 11
5.346261801822307
 21
4.405559463212804
 31
0.5
  0
LINE
  5
54F
  8
0
 62
    42
 10
5.346261801822307
 20
4.405559463212804
 30
0.5
 11
5.342355801822308
 21
4.404582463212804
 31
0.5
  0
LINE
  5
550
  8
0
 62
    42
 10
5.342355801822308
 20
4.404582463212804
 30
0.5
 11
5.338448801822308
 21
4.403606463212804
 31
0.5
  0
LINE
  5
551
  8
0
 62
    42
 10
5.338448801822308
 20
4.403606463212804
 30
0.5
 11
5.334542801822307
 21
4.402629463212804
 31
0.5
  0
LINE
  5
552
  8
0
 62
    42
 10
5.334542801822307
 20
4.402629463212804
 30
0.5
 11
5.330636801822307
 21
4.401653463212804
 31
0.5
  0
LINE
  5
553
  8
0
 62
    42
 10
5.330636801822307
 20
4.401653463212804
 30
0.5
 11
5.326730801822308
 21
4.401653463212804
 31
0.5
  0
LINE
  5
554
  8
0
 62
    42
 10
5.326730801822308
 20
4.401653463212804
 30
0.5
 11
5.319894801822308
 21
4.401653463212804
 31
0.5
  0
LINE
  5
555
  8
0
 62
    42
 10
5.319894801822308
 20
4.401653463212804
 30
0.5
 11
5.314034801822308
 21
4.403606463212804
 31
0.5
  0
LINE
  5
556
  8
0
 62
    42
 10
5.314034801822308
 20
4.403606463212804
 30
0.5
 11
5.309152801822307
 21
4.405559463212804
 31
0.5
  0
LINE
  5
557
  8
0
 62
    42
 10
5.309152801822307
 20
4.405559463212804
 30
0.5
 11
5.303292801822307
 21
4.408489463212804
 31
0.5
  0
LINE
  5
558
  8
0
 62
    42
 10
5.303292801822307
 20
4.408489463212804
 30
0.5
 11
5.298409801822308
 21
4.411418463212804
 31
0.5
  0
LINE
  5
559
  8
0
 62
    42
 10
5.298409801822308
 20
4.411418463212804
 30
0.5
 11
5.294503801822307
 21
4.416301463212804
 31
0.5
  0
LINE
  5
55A
  8
0
 62
    42
 10
5.294503801822307
 20
4.416301463212804
 30
0.5
 11
5.290597801822307
 21
4.421184463212804
 31
0.5
  0
LINE
  5
55B
  8
0
 62
    42
 10
5.290597801822307
 20
4.421184463212804
 30
0.5
 11
5.286691801822308
 21
4.427043463212804
 31
0.5
  0
LINE
  5
55C
  8
0
 62
    42
 10
5.286691801822308
 20
4.427043463212804
 30
0.5
 11
5.280831801822307
 21
4.436809463212804
 31
0.5
  0
LINE
  5
55D
  8
0
 62
    42
 10
5.280831801822307
 20
4.436809463212804
 30
0.5
 11
5.276925801822308
 21
4.447551463212804
 31
0.5
  0
LINE
  5
55E
  8
0
 62
    42
 10
5.276925801822308
 20
4.447551463212804
 30
0.5
 11
5.273019801822308
 21
4.458293463212804
 31
0.5
  0
LINE
  5
55F
  8
0
 62
    42
 10
5.273019801822308
 20
4.458293463212804
 30
0.5
 11
5.270089801822308
 21
4.470989463212804
 31
0.5
  0
LINE
  5
560
  8
0
 62
    42
 10
5.270089801822308
 20
4.470989463212804
 30
0.5
 11
5.267159801822308
 21
4.483684463212804
 31
0.5
  0
LINE
  5
561
  8
0
 62
    42
 10
5.267159801822308
 20
4.483684463212804
 30
0.5
 11
5.265206801822307
 21
4.497356463212804
 31
0.5
  0
LINE
  5
562
  8
0
 62
    42
 10
5.265206801822307
 20
4.497356463212804
 30
0.5
 11
5.264230801822308
 21
4.512004463212804
 31
0.5
  0
LINE
  5
563
  8
0
 62
    42
 10
5.264230801822308
 20
4.512004463212804
 30
0.5
 11
5.264230801822308
 21
4.527629463212804
 31
0.5
  0
LINE
  5
564
  8
0
 62
    42
 10
5.264230801822308
 20
4.527629463212804
 30
0.5
 11
5.266183801822308
 21
4.561809463212804
 31
0.5
  0
LINE
  5
565
  8
0
 62
    42
 10
6.092355801822308
 20
4.561809463212804
 30
0.5
 11
6.097238801822307
 21
4.595012463212804
 31
0.5
  0
LINE
  5
566
  8
0
 62
    42
 10
6.097238801822307
 20
4.595012463212804
 30
0.5
 11
6.105050801822308
 21
4.626262463212804
 31
0.5
  0
LINE
  5
567
  8
0
 62
    42
 10
6.105050801822308
 20
4.626262463212804
 30
0.5
 11
6.116769801822308
 21
4.657512463212804
 31
0.5
  0
LINE
  5
568
  8
0
 62
    42
 10
6.116769801822308
 20
4.657512463212804
 30
0.5
 11
6.130441801822308
 21
4.687785463212804
 31
0.5
  0
LINE
  5
569
  8
0
 62
    42
 10
6.130441801822308
 20
4.687785463212804
 30
0.5
 11
6.148995801822307
 21
4.717082463212804
 31
0.5
  0
LINE
  5
56A
  8
0
 62
    42
 10
6.148995801822307
 20
4.717082463212804
 30
0.5
 11
6.169503801822307
 21
4.745403463212804
 31
0.5
  0
LINE
  5
56B
  8
0
 62
    42
 10
6.169503801822307
 20
4.745403463212804
 30
0.5
 11
6.193917801822307
 21
4.773723463212804
 31
0.5
  0
LINE
  5
56C
  8
0
 62
    42
 10
6.193917801822307
 20
4.773723463212804
 30
0.5
 11
6.221261801822307
 21
4.799114463212804
 31
0.5
  0
LINE
  5
56D
  8
0
 62
    42
 10
6.221261801822307
 20
4.799114463212804
 30
0.5
 11
6.251534801822308
 21
4.820598463212804
 31
0.5
  0
LINE
  5
56E
  8
0
 62
    42
 10
6.251534801822308
 20
4.820598463212804
 30
0.5
 11
6.284738801822307
 21
4.840129463212804
 31
0.5
  0
LINE
  5
56F
  8
0
 62
    42
 10
6.284738801822307
 20
4.840129463212804
 30
0.5
 11
6.320870801822307
 21
4.854778463212804
 31
0.5
  0
LINE
  5
570
  8
0
 62
    42
 10
6.320870801822307
 20
4.854778463212804
 30
0.5
 11
6.359933801822308
 21
4.866496463212804
 31
0.5
  0
LINE
  5
571
  8
0
 62
    42
 10
6.359933801822308
 20
4.866496463212804
 30
0.5
 11
6.402902801822307
 21
4.875285463212804
 31
0.5
  0
LINE
  5
572
  8
0
 62
    42
 10
6.402902801822307
 20
4.875285463212804
 30
0.5
 11
6.447823801822308
 21
4.880168463212804
 31
0.5
  0
LINE
  5
573
  8
0
 62
    42
 10
6.447823801822308
 20
4.880168463212804
 30
0.5
 11
6.495675801822308
 21
4.882121463212804
 31
0.5
  0
LINE
  5
574
  8
0
 62
    42
 10
6.495675801822308
 20
4.882121463212804
 30
0.5
 11
6.719308801822308
 21
4.882121463212804
 31
0.5
  0
LINE
  5
575
  8
0
 62
    42
 10
6.719308801822308
 20
4.882121463212804
 30
0.5
 11
6.746652801822307
 21
4.882121463212804
 31
0.5
  0
LINE
  5
576
  8
0
 62
    42
 10
6.746652801822307
 20
4.882121463212804
 30
0.5
 11
6.773019801822308
 21
4.883098463212804
 31
0.5
  0
LINE
  5
577
  8
0
 62
    42
 10
6.773019801822308
 20
4.883098463212804
 30
0.5
 11
6.797433801822308
 21
4.884074463212804
 31
0.5
  0
LINE
  5
578
  8
0
 62
    42
 10
6.797433801822308
 20
4.884074463212804
 30
0.5
 11
6.819894801822308
 21
4.886028463212804
 31
0.5
  0
LINE
  5
579
  8
0
 62
    42
 10
6.819894801822308
 20
4.886028463212804
 30
0.5
 11
6.840402801822307
 21
4.887981463212804
 31
0.5
  0
LINE
  5
57A
  8
0
 62
    42
 10
6.840402801822307
 20
4.887981463212804
 30
0.5
 11
6.858956801822307
 21
4.889934463212804
 31
0.5
  0
LINE
  5
57B
  8
0
 62
    42
 10
6.858956801822307
 20
4.889934463212804
 30
0.5
 11
6.875558801822308
 21
4.892864463212804
 31
0.5
  0
LINE
  5
57C
  8
0
 62
    42
 10
6.875558801822308
 20
4.892864463212804
 30
0.5
 11
6.890206801822307
 21
4.896770463212804
 31
0.5
  0
LINE
  5
57D
  8
0
 62
    42
 10
6.890206801822307
 20
4.896770463212804
 30
0.5
 11
6.884347801822308
 21
4.870403463212804
 31
0.5
  0
LINE
  5
57E
  8
0
 62
    42
 10
6.884347801822308
 20
4.870403463212804
 30
0.5
 11
6.878488801822307
 21
4.846965463212804
 31
0.5
  0
LINE
  5
57F
  8
0
 62
    42
 10
6.878488801822307
 20
4.846965463212804
 30
0.5
 11
6.873605801822308
 21
4.824504463212804
 31
0.5
  0
LINE
  5
580
  8
0
 62
    42
 10
6.873605801822308
 20
4.824504463212804
 30
0.5
 11
6.868722801822308
 21
4.804973463212804
 31
0.5
  0
LINE
  5
581
  8
0
 62
    42
 10
6.868722801822308
 20
4.804973463212804
 30
0.5
 11
6.864816801822308
 21
4.786418463212804
 31
0.5
  0
LINE
  5
582
  8
0
 62
    42
 10
6.864816801822308
 20
4.786418463212804
 30
0.5
 11
6.861886801822307
 21
4.769817463212804
 31
0.5
  0
LINE
  5
583
  8
0
 62
    42
 10
6.861886801822307
 20
4.769817463212804
 30
0.5
 11
6.858956801822307
 21
4.756145463212804
 31
0.5
  0
LINE
  5
584
  8
0
 62
    42
 10
6.858956801822307
 20
4.756145463212804
 30
0.5
 11
6.857003801822307
 21
4.743449463212804
 31
0.5
  0
LINE
  5
585
  8
0
 62
    42
 10
6.857003801822307
 20
4.743449463212804
 30
0.5
 11
6.822823801822308
 21
4.743449463212804
 31
0.5
  0
LINE
  5
586
  8
0
 62
    42
 10
6.822823801822308
 20
4.743449463212804
 30
0.5
 11
6.823800801822308
 21
4.751262463212804
 31
0.5
  0
LINE
  5
587
  8
0
 62
    42
 10
6.823800801822308
 20
4.751262463212804
 30
0.5
 11
6.824777801822307
 21
4.759074463212804
 31
0.5
  0
LINE
  5
588
  8
0
 62
    42
 10
6.824777801822307
 20
4.759074463212804
 30
0.5
 11
6.825753801822307
 21
4.765910463212804
 31
0.5
  0
LINE
  5
589
  8
0
 62
    42
 10
6.825753801822307
 20
4.765910463212804
 30
0.5
 11
6.826730801822308
 21
4.772746463212804
 31
0.5
  0
LINE
  5
58A
  8
0
 62
    42
 10
6.826730801822308
 20
4.772746463212804
 30
0.5
 11
6.826730801822308
 21
4.779582463212804
 31
0.5
  0
LINE
  5
58B
  8
0
 62
    42
 10
6.826730801822308
 20
4.779582463212804
 30
0.5
 11
6.827706801822307
 21
4.785442463212804
 31
0.5
  0
LINE
  5
58C
  8
0
 62
    42
 10
6.827706801822307
 20
4.785442463212804
 30
0.5
 11
6.827706801822307
 21
4.791301463212804
 31
0.5
  0
LINE
  5
58D
  8
0
 62
    42
 10
6.827706801822307
 20
4.791301463212804
 30
0.5
 11
6.827706801822307
 21
4.796184463212804
 31
0.5
  0
LINE
  5
58E
  8
0
 62
    42
 10
6.827706801822307
 20
4.796184463212804
 30
0.5
 11
6.827706801822307
 21
4.802043463212804
 31
0.5
  0
LINE
  5
58F
  8
0
 62
    42
 10
6.827706801822307
 20
4.802043463212804
 30
0.5
 11
6.826730801822308
 21
4.807903463212804
 31
0.5
  0
LINE
  5
590
  8
0
 62
    42
 10
6.826730801822308
 20
4.807903463212804
 30
0.5
 11
6.824777801822307
 21
4.812785463212804
 31
0.5
  0
LINE
  5
591
  8
0
 62
    42
 10
6.824777801822307
 20
4.812785463212804
 30
0.5
 11
6.821847801822308
 21
4.817668463212804
 31
0.5
  0
LINE
  5
592
  8
0
 62
    42
 10
6.821847801822308
 20
4.817668463212804
 30
0.5
 11
6.818917801822307
 21
4.821574463212804
 31
0.5
  0
LINE
  5
593
  8
0
 62
    42
 10
6.818917801822307
 20
4.821574463212804
 30
0.5
 11
6.815011801822307
 21
4.824504463212804
 31
0.5
  0
LINE
  5
594
  8
0
 62
    42
 10
6.815011801822307
 20
4.824504463212804
 30
0.5
 11
6.811105801822308
 21
4.827434463212804
 31
0.5
  0
LINE
  5
595
  8
0
 62
    42
 10
6.811105801822308
 20
4.827434463212804
 30
0.5
 11
6.806222801822308
 21
4.830364463212804
 31
0.5
  0
LINE
  5
596
  8
0
 62
    42
 10
6.806222801822308
 20
4.830364463212804
 30
0.5
 11
6.798409801822308
 21
4.832317463212804
 31
0.5
  0
LINE
  5
597
  8
0
 62
    42
 10
6.798409801822308
 20
4.832317463212804
 30
0.5
 11
6.787667801822307
 21
4.833293463212804
 31
0.5
  0
LINE
  5
598
  8
0
 62
    42
 10
6.787667801822307
 20
4.833293463212804
 30
0.5
 11
6.772042801822307
 21
4.835246463212804
 31
0.5
  0
LINE
  5
599
  8
0
 62
    42
 10
6.772042801822307
 20
4.835246463212804
 30
0.5
 11
6.753488801822307
 21
4.836223463212804
 31
0.5
  0
LINE
  5
59A
  8
0
 62
    42
 10
6.753488801822307
 20
4.836223463212804
 30
0.5
 11
6.731027801822307
 21
4.837199463212804
 31
0.5
  0
LINE
  5
59B
  8
0
 62
    42
 10
6.731027801822307
 20
4.837199463212804
 30
0.5
 11
6.704659801822308
 21
4.837199463212804
 31
0.5
  0
LINE
  5
59C
  8
0
 62
    42
 10
6.704659801822308
 20
4.837199463212804
 30
0.5
 11
6.675363801822307
 21
4.838176463212804
 31
0.5
  0
LINE
  5
59D
  8
0
 62
    42
 10
6.675363801822307
 20
4.838176463212804
 30
0.5
 11
6.641183801822308
 21
4.838176463212804
 31
0.5
  0
LINE
  5
59E
  8
0
 62
    42
 10
6.641183801822308
 20
4.838176463212804
 30
0.5
 11
6.546456801822307
 21
4.837199463212804
 31
0.5
  0
LINE
  5
59F
  8
0
 62
    42
 10
6.546456801822307
 20
4.837199463212804
 30
0.5
 11
6.474191801822308
 21
4.550090463212804
 31
0.5
  0
LINE
  5
5A0
  8
0
 62
    42
 10
6.474191801822308
 20
4.550090463212804
 30
0.5
 11
6.608956801822307
 21
4.550090463212804
 31
0.5
  0
LINE
  5
5A1
  8
0
 62
    42
 10
6.608956801822307
 20
4.550090463212804
 30
0.5
 11
6.624581801822307
 21
4.550090463212804
 31
0.5
  0
LINE
  5
5A2
  8
0
 62
    42
 10
6.624581801822307
 20
4.550090463212804
 30
0.5
 11
6.638253801822307
 21
4.551067463212804
 31
0.5
  0
LINE
  5
5A3
  8
0
 62
    42
 10
6.638253801822307
 20
4.551067463212804
 30
0.5
 11
6.649972801822308
 21
4.551067463212804
 31
0.5
  0
LINE
  5
5A4
  8
0
 62
    42
 10
6.649972801822308
 20
4.551067463212804
 30
0.5
 11
6.660714801822307
 21
4.552043463212804
 31
0.5
  0
LINE
  5
5A5
  8
0
 62
    42
 10
6.660714801822307
 20
4.552043463212804
 30
0.5
 11
6.669503801822307
 21
4.553996463212804
 31
0.5
  0
LINE
  5
5A6
  8
0
 62
    42
 10
6.669503801822307
 20
4.553996463212804
 30
0.5
 11
6.677316801822308
 21
4.554973463212804
 31
0.5
  0
LINE
  5
5A7
  8
0
 62
    42
 10
6.677316801822308
 20
4.554973463212804
 30
0.5
 11
6.683175801822308
 21
4.556926463212804
 31
0.5
  0
LINE
  5
5A8
  8
0
 62
    42
 10
6.683175801822308
 20
4.556926463212804
 30
0.5
 11
6.687081801822307
 21
4.559856463212804
 31
0.5
  0
LINE
  5
5A9
  8
0
 62
    42
 10
6.687081801822307
 20
4.559856463212804
 30
0.5
 11
6.690988801822307
 21
4.562785463212804
 31
0.5
  0
LINE
  5
5AA
  8
0
 62
    42
 10
6.690988801822307
 20
4.562785463212804
 30
0.5
 11
6.693917801822307
 21
4.565715463212804
 31
0.5
  0
LINE
  5
5AB
  8
0
 62
    42
 10
6.693917801822307
 20
4.565715463212804
 30
0.5
 11
6.696847801822308
 21
4.570598463212804
 31
0.5
  0
LINE
  5
5AC
  8
0
 62
    42
 10
6.696847801822308
 20
4.570598463212804
 30
0.5
 11
6.699777801822307
 21
4.576457463212804
 31
0.5
  0
LINE
  5
5AD
  8
0
 62
    42
 10
6.699777801822307
 20
4.576457463212804
 30
0.5
 11
6.702706801822307
 21
4.582317463212804
 31
0.5
  0
LINE
  5
5AE
  8
0
 62
    42
 10
6.702706801822307
 20
4.582317463212804
 30
0.5
 11
6.704659801822308
 21
4.589153463212804
 31
0.5
  0
LINE
  5
5AF
  8
0
 62
    42
 10
6.704659801822308
 20
4.589153463212804
 30
0.5
 11
6.706613801822307
 21
4.597942463212804
 31
0.5
  0
LINE
  5
5B0
  8
0
 62
    42
 10
6.706613801822307
 20
4.597942463212804
 30
0.5
 11
6.708566801822308
 21
4.606731463212804
 31
0.5
  0
LINE
  5
5B1
  8
0
 62
    42
 10
6.708566801822308
 20
4.606731463212804
 30
0.5
 11
6.745675801822308
 21
4.606731463212804
 31
0.5
  0
LINE
  5
5B2
  8
0
 62
    42
 10
6.745675801822308
 20
4.606731463212804
 30
0.5
 11
6.740792801822307
 21
4.587199463212804
 31
0.5
  0
LINE
  5
5B3
  8
0
 62
    42
 10
6.740792801822307
 20
4.587199463212804
 30
0.5
 11
6.735909801822308
 21
4.566692463212804
 31
0.5
  0
LINE
  5
5B4
  8
0
 62
    42
 10
6.735909801822308
 20
4.566692463212804
 30
0.5
 11
6.731027801822307
 21
4.545207463212804
 31
0.5
  0
LINE
  5
5B5
  8
0
 62
    42
 10
6.731027801822307
 20
4.545207463212804
 30
0.5
 11
6.726144801822308
 21
4.523723463212804
 31
0.5
  0
LINE
  5
5B6
  8
0
 62
    42
 10
6.726144801822308
 20
4.523723463212804
 30
0.5
 11
6.721261801822307
 21
4.502239463212804
 31
0.5
  0
LINE
  5
5B7
  8
0
 62
    42
 10
6.721261801822307
 20
4.502239463212804
 30
0.5
 11
6.717355801822308
 21
4.479778463212804
 31
0.5
  0
LINE
  5
5B8
  8
0
 62
    42
 10
6.717355801822308
 20
4.479778463212804
 30
0.5
 11
6.712472801822308
 21
4.457317463212804
 31
0.5
  0
LINE
  5
5B9
  8
0
 62
    42
 10
6.712472801822308
 20
4.457317463212804
 30
0.5
 11
6.708566801822308
 21
4.433879463212804
 31
0.5
  0
LINE
  5
5BA
  8
0
 62
    42
 10
6.708566801822308
 20
4.433879463212804
 30
0.5
 11
6.675363801822307
 21
4.433879463212804
 31
0.5
  0
LINE
  5
5BB
  8
0
 62
    42
 10
6.675363801822307
 20
4.433879463212804
 30
0.5
 11
6.676339801822307
 21
4.441692463212804
 31
0.5
  0
LINE
  5
5BC
  8
0
 62
    42
 10
6.676339801822307
 20
4.441692463212804
 30
0.5
 11
6.676339801822307
 21
4.448528463212804
 31
0.5
  0
LINE
  5
5BD
  8
0
 62
    42
 10
6.676339801822307
 20
4.448528463212804
 30
0.5
 11
6.677316801822308
 21
4.454387463212804
 31
0.5
  0
LINE
  5
5BE
  8
0
 62
    42
 10
6.677316801822308
 20
4.454387463212804
 30
0.5
 11
6.677316801822308
 21
4.461223463212804
 31
0.5
  0
LINE
  5
5BF
  8
0
 62
    42
 10
6.677316801822308
 20
4.461223463212804
 30
0.5
 11
6.678292801822307
 21
4.467082463212804
 31
0.5
  0
LINE
  5
5C0
  8
0
 62
    42
 10
6.678292801822307
 20
4.467082463212804
 30
0.5
 11
6.678292801822307
 21
4.471965463212804
 31
0.5
  0
LINE
  5
5C1
  8
0
 62
    42
 10
6.678292801822307
 20
4.471965463212804
 30
0.5
 11
6.678292801822307
 21
4.476848463212804
 31
0.5
  0
LINE
  5
5C2
  8
0
 62
    42
 10
6.678292801822307
 20
4.476848463212804
 30
0.5
 11
6.678292801822307
 21
4.480754463212804
 31
0.5
  0
LINE
  5
5C3
  8
0
 62
    42
 10
6.678292801822307
 20
4.480754463212804
 30
0.5
 11
6.678292801822307
 21
4.482707463212804
 31
0.5
  0
LINE
  5
5C4
  8
0
 62
    42
 10
6.678292801822307
 20
4.482707463212804
 30
0.5
 11
6.677316801822308
 21
4.484660463212804
 31
0.5
  0
LINE
  5
5C5
  8
0
 62
    42
 10
6.677316801822308
 20
4.484660463212804
 30
0.5
 11
6.677316801822308
 21
4.486614463212804
 31
0.5
  0
LINE
  5
5C6
  8
0
 62
    42
 10
6.677316801822308
 20
4.486614463212804
 30
0.5
 11
6.676339801822307
 21
4.489543463212804
 31
0.5
  0
LINE
  5
5C7
  8
0
 62
    42
 10
6.676339801822307
 20
4.489543463212804
 30
0.5
 11
6.674386801822307
 21
4.491496463212804
 31
0.5
  0
LINE
  5
5C8
  8
0
 62
    42
 10
6.674386801822307
 20
4.491496463212804
 30
0.5
 11
6.673409801822308
 21
4.493449463212804
 31
0.5
  0
LINE
  5
5C9
  8
0
 62
    42
 10
6.673409801822308
 20
4.493449463212804
 30
0.5
 11
6.671456801822307
 21
4.496379463212804
 31
0.5
  0
LINE
  5
5CA
  8
0
 62
    42
 10
6.671456801822307
 20
4.496379463212804
 30
0.5
 11
6.669503801822307
 21
4.498332463212804
 31
0.5
  0
LINE
  5
5CB
  8
0
 62
    42
 10
6.669503801822307
 20
4.498332463212804
 30
0.5
 11
6.667550801822308
 21
4.500285463212804
 31
0.5
  0
LINE
  5
5CC
  8
0
 62
    42
 10
6.667550801822308
 20
4.500285463212804
 30
0.5
 11
6.666573801822308
 21
4.501262463212804
 31
0.5
  0
LINE
  5
5CD
  8
0
 62
    42
 10
6.666573801822308
 20
4.501262463212804
 30
0.5
 11
6.664620801822307
 21
4.502239463212804
 31
0.5
  0
LINE
  5
5CE
  8
0
 62
    42
 10
6.664620801822307
 20
4.502239463212804
 30
0.5
 11
6.662667801822307
 21
4.503215463212804
 31
0.5
  0
LINE
  5
5CF
  8
0
 62
    42
 10
6.662667801822307
 20
4.503215463212804
 30
0.5
 11
6.660714801822307
 21
4.504192463212804
 31
0.5
  0
LINE
  5
5D0
  8
0
 62
    42
 10
6.660714801822307
 20
4.504192463212804
 30
0.5
 11
6.657784801822308
 21
4.504192463212804
 31
0.5
  0
LINE
  5
5D1
  8
0
 62
    42
 10
6.657784801822308
 20
4.504192463212804
 30
0.5
 11
6.654855801822308
 21
4.505168463212804
 31
0.5
  0
LINE
  5
5D2
  8
0
 62
    42
 10
6.654855801822308
 20
4.505168463212804
 30
0.5
 11
6.651925801822308
 21
4.506145463212804
 31
0.5
  0
LINE
  5
5D3
  8
0
 62
    42
 10
6.651925801822308
 20
4.506145463212804
 30
0.5
 11
6.648019801822308
 21
4.506145463212804
 31
0.5
  0
LINE
  5
5D4
  8
0
 62
    42
 10
6.648019801822308
 20
4.506145463212804
 30
0.5
 11
6.642159801822308
 21
4.507121463212804
 31
0.5
  0
LINE
  5
5D5
  8
0
 62
    42
 10
6.642159801822308
 20
4.507121463212804
 30
0.5
 11
6.636300801822308
 21
4.508098463212804
 31
0.5
  0
LINE
  5
5D6
  8
0
 62
    42
 10
6.636300801822308
 20
4.508098463212804
 30
0.5
 11
6.629464801822307
 21
4.508098463212804
 31
0.5
  0
LINE
  5
5D7
  8
0
 62
    42
 10
6.629464801822307
 20
4.508098463212804
 30
0.5
 11
6.622628801822307
 21
4.509074463212804
 31
0.5
  0
LINE
  5
5D8
  8
0
 62
    42
 10
6.622628801822307
 20
4.509074463212804
 30
0.5
 11
6.614816801822308
 21
4.509074463212804
 31
0.5
  0
LINE
  5
5D9
  8
0
 62
    42
 10
6.614816801822308
 20
4.509074463212804
 30
0.5
 11
6.607003801822307
 21
4.509074463212804
 31
0.5
  0
LINE
  5
5DA
  8
0
 62
    42
 10
6.607003801822307
 20
4.509074463212804
 30
0.5
 11
6.597238801822307
 21
4.509074463212804
 31
0.5
  0
LINE
  5
5DB
  8
0
 62
    42
 10
6.597238801822307
 20
4.509074463212804
 30
0.5
 11
6.464425801822308
 21
4.509074463212804
 31
0.5
  0
LINE
  5
5DC
  8
0
 62
    42
 10
6.464425801822308
 20
4.509074463212804
 30
0.5
 11
6.449777801822307
 21
4.455364463212804
 31
0.5
  0
LINE
  5
5DD
  8
0
 62
    42
 10
6.449777801822307
 20
4.455364463212804
 30
0.5
 11
6.435128801822307
 21
4.404582463212804
 31
0.5
  0
LINE
  5
5DE
  8
0
 62
    42
 10
6.435128801822307
 20
4.404582463212804
 30
0.5
 11
6.420480801822308
 21
4.356731463212804
 31
0.5
  0
LINE
  5
5DF
  8
0
 62
    42
 10
6.420480801822308
 20
4.356731463212804
 30
0.5
 11
6.405831801822307
 21
4.311809463212804
 31
0.5
  0
LINE
  5
5E0
  8
0
 62
    42
 10
6.405831801822307
 20
4.311809463212804
 30
0.5
 11
6.390206801822307
 21
4.270793463212804
 31
0.5
  0
LINE
  5
5E1
  8
0
 62
    42
 10
6.390206801822307
 20
4.270793463212804
 30
0.5
 11
6.375558801822308
 21
4.231731463212804
 31
0.5
  0
LINE
  5
5E2
  8
0
 62
    42
 10
6.375558801822308
 20
4.231731463212804
 30
0.5
 11
6.359933801822308
 21
4.195598463212804
 31
0.5
  0
LINE
  5
5E3
  8
0
 62
    42
 10
6.359933801822308
 20
4.195598463212804
 30
0.5
 11
6.344308801822308
 21
4.163371463212804
 31
0.5
  0
LINE
  5
5E4
  8
0
 62
    42
 10
6.344308801822308
 20
4.163371463212804
 30
0.5
 11
6.358956801822307
 21
4.167278463212804
 31
0.5
  0
LINE
  5
5E5
  8
0
 62
    42
 10
6.358956801822307
 20
4.167278463212804
 30
0.5
 11
6.373605801822308
 21
4.171184463212804
 31
0.5
  0
LINE
  5
5E6
  8
0
 62
    42
 10
6.373605801822308
 20
4.171184463212804
 30
0.5
 11
6.388253801822307
 21
4.175090463212804
 31
0.5
  0
LINE
  5
5E7
  8
0
 62
    42
 10
6.388253801822307
 20
4.175090463212804
 30
0.5
 11
6.401925801822308
 21
4.177043463212804
 31
0.5
  0
LINE
  5
5E8
  8
0
 62
    42
 10
6.401925801822308
 20
4.177043463212804
 30
0.5
 11
6.414620801822307
 21
4.179973463212804
 31
0.5
  0
LINE
  5
5E9
  8
0
 62
    42
 10
6.414620801822307
 20
4.179973463212804
 30
0.5
 11
6.427316801822308
 21
4.180949463212804
 31
0.5
  0
LINE
  5
5EA
  8
0
 62
    42
 10
6.427316801822308
 20
4.180949463212804
 30
0.5
 11
6.440011801822307
 21
4.181926463212804
 31
0.5
  0
LINE
  5
5EB
  8
0
 62
    42
 10
6.440011801822307
 20
4.181926463212804
 30
0.5
 11
6.451730801822308
 21
4.181926463212804
 31
0.5
  0
LINE
  5
5EC
  8
0
 62
    42
 10
6.451730801822308
 20
4.181926463212804
 30
0.5
 11
6.472238801822307
 21
4.181926463212804
 31
0.5
  0
LINE
  5
5ED
  8
0
 62
    42
 10
6.472238801822307
 20
4.181926463212804
 30
0.5
 11
6.492745801822307
 21
4.180949463212804
 31
0.5
  0
LINE
  5
5EE
  8
0
 62
    42
 10
6.492745801822307
 20
4.180949463212804
 30
0.5
 11
6.515206801822307
 21
4.178996463212804
 31
0.5
  0
LINE
  5
5EF
  8
0
 62
    42
 10
6.515206801822307
 20
4.178996463212804
 30
0.5
 11
6.538644801822308
 21
4.176067463212804
 31
0.5
  0
LINE
  5
5F0
  8
0
 62
    42
 10
6.538644801822308
 20
4.176067463212804
 30
0.5
 11
6.563058801822308
 21
4.172160463212804
 31
0.5
  0
LINE
  5
5F1
  8
0
 62
    42
 10
6.563058801822308
 20
4.172160463212804
 30
0.5
 11
6.588448801822308
 21
4.168254463212804
 31
0.5
  0
LINE
  5
5F2
  8
0
 62
    42
 10
6.588448801822308
 20
4.168254463212804
 30
0.5
 11
6.615792801822307
 21
4.163371463212804
 31
0.5
  0
LINE
  5
5F3
  8
0
 62
    42
 10
6.615792801822307
 20
4.163371463212804
 30
0.5
 11
6.643136801822307
 21
4.157512463212804
 31
0.5
  0
LINE
  5
5F4
  8
0
 62
    42
 10
6.643136801822307
 20
4.157512463212804
 30
0.5
 11
6.657784801822308
 21
4.154582463212804
 31
0.5
  0
LINE
  5
5F5
  8
0
 62
    42
 10
6.657784801822308
 20
4.154582463212804
 30
0.5
 11
6.670480801822308
 21
4.151653463212804
 31
0.5
  0
LINE
  5
5F6
  8
0
 62
    42
 10
6.670480801822308
 20
4.151653463212804
 30
0.5
 11
6.683175801822308
 21
4.148723463212804
 31
0.5
  0
LINE
  5
5F7
  8
0
 62
    42
 10
6.683175801822308
 20
4.148723463212804
 30
0.5
 11
6.693917801822307
 21
4.146770463212804
 31
0.5
  0
LINE
  5
5F8
  8
0
 62
    42
 10
6.693917801822307
 20
4.146770463212804
 30
0.5
 11
6.703683801822308
 21
4.145793463212804
 31
0.5
  0
LINE
  5
5F9
  8
0
 62
    42
 10
6.703683801822308
 20
4.145793463212804
 30
0.5
 11
6.711495801822307
 21
4.144817463212804
 31
0.5
  0
LINE
  5
5FA
  8
0
 62
    42
 10
6.711495801822307
 20
4.144817463212804
 30
0.5
 11
6.719308801822308
 21
4.143840463212804
 31
0.5
  0
LINE
  5
5FB
  8
0
 62
    42
 10
6.719308801822308
 20
4.143840463212804
 30
0.5
 11
6.725167801822307
 21
4.143840463212804
 31
0.5
  0
LINE
  5
5FC
  8
0
 62
    42
 10
6.725167801822307
 20
4.143840463212804
 30
0.5
 11
6.732003801822307
 21
4.143840463212804
 31
0.5
  0
LINE
  5
5FD
  8
0
 62
    42
 10
6.732003801822307
 20
4.143840463212804
 30
0.5
 11
6.738839801822307
 21
4.144817463212804
 31
0.5
  0
LINE
  5
5FE
  8
0
 62
    42
 10
6.738839801822307
 20
4.144817463212804
 30
0.5
 11
6.744698801822308
 21
4.145793463212804
 31
0.5
  0
LINE
  5
5FF
  8
0
 62
    42
 10
6.744698801822308
 20
4.145793463212804
 30
0.5
 11
6.750558801822308
 21
4.147746463212804
 31
0.5
  0
LINE
  5
600
  8
0
 62
    42
 10
6.750558801822308
 20
4.147746463212804
 30
0.5
 11
6.756417801822307
 21
4.149699463212804
 31
0.5
  0
LINE
  5
601
  8
0
 62
    42
 10
6.756417801822307
 20
4.149699463212804
 30
0.5
 11
6.761300801822308
 21
4.151653463212804
 31
0.5
  0
LINE
  5
602
  8
0
 62
    42
 10
6.761300801822308
 20
4.151653463212804
 30
0.5
 11
6.766183801822308
 21
4.154582463212804
 31
0.5
  0
LINE
  5
603
  8
0
 62
    42
 10
6.766183801822308
 20
4.154582463212804
 30
0.5
 11
6.771066801822308
 21
4.158489463212804
 31
0.5
  0
LINE
  5
604
  8
0
 62
    42
 10
6.771066801822308
 20
4.158489463212804
 30
0.5
 11
6.774972801822308
 21
4.161418463212804
 31
0.5
  0
LINE
  5
605
  8
0
 62
    42
 10
6.774972801822308
 20
4.161418463212804
 30
0.5
 11
6.778878801822307
 21
4.165324463212804
 31
0.5
  0
LINE
  5
606
  8
0
 62
    42
 10
6.778878801822307
 20
4.165324463212804
 30
0.5
 11
6.781808801822308
 21
4.169231463212804
 31
0.5
  0
LINE
  5
607
  8
0
 62
    42
 10
6.781808801822308
 20
4.169231463212804
 30
0.5
 11
6.783761801822307
 21
4.173137463212804
 31
0.5
  0
LINE
  5
608
  8
0
 62
    42
 10
6.783761801822307
 20
4.173137463212804
 30
0.5
 11
6.785714801822307
 21
4.177043463212804
 31
0.5
  0
LINE
  5
609
  8
0
 62
    42
 10
6.785714801822307
 20
4.177043463212804
 30
0.5
 11
6.787667801822307
 21
4.181926463212804
 31
0.5
  0
LINE
  5
60A
  8
0
 62
    42
 10
6.787667801822307
 20
4.181926463212804
 30
0.5
 11
6.788644801822308
 21
4.185832463212804
 31
0.5
  0
LINE
  5
60B
  8
0
 62
    42
 10
6.788644801822308
 20
4.185832463212804
 30
0.5
 11
6.788644801822308
 21
4.190715463212804
 31
0.5
  0
LINE
  5
60C
  8
0
 62
    42
 10
6.788644801822308
 20
4.190715463212804
 30
0.5
 11
6.788644801822308
 21
4.193645463212804
 31
0.5
  0
LINE
  5
60D
  8
0
 62
    42
 10
6.788644801822308
 20
4.193645463212804
 30
0.5
 11
6.787667801822307
 21
4.196574463212804
 31
0.5
  0
LINE
  5
60E
  8
0
 62
    42
 10
6.787667801822307
 20
4.196574463212804
 30
0.5
 11
6.787667801822307
 21
4.200481463212804
 31
0.5
  0
LINE
  5
60F
  8
0
 62
    42
 10
6.787667801822307
 20
4.200481463212804
 30
0.5
 11
6.786691801822308
 21
4.204387463212804
 31
0.5
  0
LINE
  5
610
  8
0
 62
    42
 10
6.786691801822308
 20
4.204387463212804
 30
0.5
 11
6.784738801822307
 21
4.208293463212804
 31
0.5
  0
LINE
  5
611
  8
0
 62
    42
 10
6.784738801822307
 20
4.208293463212804
 30
0.5
 11
6.783761801822307
 21
4.213176463212804
 31
0.5
  0
LINE
  5
612
  8
0
 62
    42
 10
6.783761801822307
 20
4.213176463212804
 30
0.5
 11
6.781808801822308
 21
4.219035463212804
 31
0.5
  0
LINE
  5
613
  8
0
 62
    42
 10
6.781808801822308
 20
4.219035463212804
 30
0.5
 11
6.779855801822308
 21
4.223918463212804
 31
0.5
  0
LINE
  5
614
  8
0
 62
    42
 10
6.779855801822308
 20
4.223918463212804
 30
0.5
 11
6.777902801822307
 21
4.228801463212804
 31
0.5
  0
LINE
  5
615
  8
0
 62
    42
 10
6.777902801822307
 20
4.228801463212804
 30
0.5
 11
6.776925801822308
 21
4.232707463212804
 31
0.5
  0
LINE
  5
616
  8
0
 62
    42
 10
6.776925801822308
 20
4.232707463212804
 30
0.5
 11
6.775948801822308
 21
4.236614463212804
 31
0.5
  0
LINE
  5
617
  8
0
 62
    42
 10
6.775948801822308
 20
4.236614463212804
 30
0.5
 11
6.774972801822308
 21
4.240520463212804
 31
0.5
  0
LINE
  5
618
  8
0
 62
    42
 10
6.774972801822308
 20
4.240520463212804
 30
0.5
 11
6.774972801822308
 21
4.243449463212804
 31
0.5
  0
LINE
  5
619
  8
0
 62
    42
 10
6.774972801822308
 20
4.243449463212804
 30
0.5
 11
6.773995801822307
 21
4.247356463212804
 31
0.5
  0
LINE
  5
61A
  8
0
 62
    42
 10
6.773995801822307
 20
4.247356463212804
 30
0.5
 11
6.773995801822307
 21
4.251262463212804
 31
0.5
  0
LINE
  5
61B
  8
0
 62
    42
 10
6.773995801822307
 20
4.251262463212804
 30
0.5
 11
6.773995801822307
 21
4.255168463212804
 31
0.5
  0
LINE
  5
61C
  8
0
 62
    42
 10
6.773995801822307
 20
4.255168463212804
 30
0.5
 11
6.773995801822307
 21
4.259074463212804
 31
0.5
  0
LINE
  5
61D
  8
0
 62
    42
 10
6.773995801822307
 20
4.259074463212804
 30
0.5
 11
6.774972801822308
 21
4.262004463212804
 31
0.5
  0
LINE
  5
61E
  8
0
 62
    42
 10
6.774972801822308
 20
4.262004463212804
 30
0.5
 11
6.775948801822308
 21
4.265910463212804
 31
0.5
  0
LINE
  5
61F
  8
0
 62
    42
 10
6.775948801822308
 20
4.265910463212804
 30
0.5
 11
6.776925801822308
 21
4.268840463212804
 31
0.5
  0
LINE
  5
620
  8
0
 62
    42
 10
6.776925801822308
 20
4.268840463212804
 30
0.5
 11
6.778878801822307
 21
4.272746463212804
 31
0.5
  0
LINE
  5
621
  8
0
 62
    42
 10
6.778878801822307
 20
4.272746463212804
 30
0.5
 11
6.780831801822307
 21
4.275676463212804
 31
0.5
  0
LINE
  5
622
  8
0
 62
    42
 10
6.780831801822307
 20
4.275676463212804
 30
0.5
 11
6.782784801822308
 21
4.278606463212804
 31
0.5
  0
LINE
  5
623
  8
0
 62
    42
 10
6.782784801822308
 20
4.278606463212804
 30
0.5
 11
6.785714801822307
 21
4.281535463212804
 31
0.5
  0
LINE
  5
624
  8
0
 62
    42
 10
6.785714801822307
 20
4.281535463212804
 30
0.5
 11
6.788644801822308
 21
4.284465463212804
 31
0.5
  0
LINE
  5
625
  8
0
 62
    42
 10
6.788644801822308
 20
4.284465463212804
 30
0.5
 11
6.792550801822308
 21
4.286418463212804
 31
0.5
  0
LINE
  5
626
  8
0
 62
    42
 10
6.792550801822308
 20
4.286418463212804
 30
0.5
 11
6.795480801822308
 21
4.288371463212804
 31
0.5
  0
LINE
  5
627
  8
0
 62
    42
 10
6.795480801822308
 20
4.288371463212804
 30
0.5
 11
6.799386801822307
 21
4.290324463212804
 31
0.5
  0
LINE
  5
628
  8
0
 62
    42
 10
6.799386801822307
 20
4.290324463212804
 30
0.5
 11
6.803292801822307
 21
4.291301463212804
 31
0.5
  0
LINE
  5
629
  8
0
 62
    42
 10
6.803292801822307
 20
4.291301463212804
 30
0.5
 11
6.807198801822308
 21
4.292278463212804
 31
0.5
  0
LINE
  5
62A
  8
0
 62
    42
 10
6.807198801822308
 20
4.292278463212804
 30
0.5
 11
6.811105801822308
 21
4.293254463212804
 31
0.5
  0
LINE
  5
62B
  8
0
 62
    42
 10
6.811105801822308
 20
4.293254463212804
 30
0.5
 11
6.815011801822307
 21
4.293254463212804
 31
0.5
  0
LINE
  5
62C
  8
0
 62
    42
 10
6.815011801822307
 20
4.293254463212804
 30
0.5
 11
6.819894801822308
 21
4.293254463212804
 31
0.5
  0
LINE
  5
62D
  8
0
 62
    42
 10
6.819894801822308
 20
4.293254463212804
 30
0.5
 11
6.824777801822307
 21
4.292278463212804
 31
0.5
  0
LINE
  5
62E
  8
0
 62
    42
 10
6.824777801822307
 20
4.292278463212804
 30
0.5
 11
6.829659801822308
 21
4.291301463212804
 31
0.5
  0
LINE
  5
62F
  8
0
 62
    42
 10
6.829659801822308
 20
4.291301463212804
 30
0.5
 11
6.833566801822308
 21
4.289348463212804
 31
0.5
  0
LINE
  5
630
  8
0
 62
    42
 10
6.833566801822308
 20
4.289348463212804
 30
0.5
 11
6.837472801822308
 21
4.287395463212804
 31
0.5
  0
LINE
  5
631
  8
0
 62
    42
 10
6.837472801822308
 20
4.287395463212804
 30
0.5
 11
6.841378801822307
 21
4.284465463212804
 31
0.5
  0
LINE
  5
632
  8
0
 62
    42
 10
6.841378801822307
 20
4.284465463212804
 30
0.5
 11
6.845284801822308
 21
4.281535463212804
 31
0.5
  0
LINE
  5
633
  8
0
 62
    42
 10
6.845284801822308
 20
4.281535463212804
 30
0.5
 11
6.848214801822307
 21
4.277629463212804
 31
0.5
  0
LINE
  5
634
  8
0
 62
    42
 10
6.848214801822307
 20
4.277629463212804
 30
0.5
 11
6.852120801822307
 21
4.273723463212804
 31
0.5
  0
LINE
  5
635
  8
0
 62
    42
 10
6.852120801822307
 20
4.273723463212804
 30
0.5
 11
6.854073801822308
 21
4.268840463212804
 31
0.5
  0
LINE
  5
636
  8
0
 62
    42
 10
6.854073801822308
 20
4.268840463212804
 30
0.5
 11
6.857003801822307
 21
4.263957463212804
 31
0.5
  0
LINE
  5
637
  8
0
 62
    42
 10
6.857003801822307
 20
4.263957463212804
 30
0.5
 11
6.858956801822307
 21
4.259074463212804
 31
0.5
  0
LINE
  5
638
  8
0
 62
    42
 10
6.858956801822307
 20
4.259074463212804
 30
0.5
 11
6.859933801822308
 21
4.254192463212804
 31
0.5
  0
LINE
  5
639
  8
0
 62
    42
 10
6.859933801822308
 20
4.254192463212804
 30
0.5
 11
6.860909801822308
 21
4.248332463212804
 31
0.5
  0
LINE
  5
63A
  8
0
 62
    42
 10
6.860909801822308
 20
4.248332463212804
 30
0.5
 11
6.861886801822307
 21
4.242473463212804
 31
0.5
  0
LINE
  5
63B
  8
0
 62
    42
 10
6.861886801822307
 20
4.242473463212804
 30
0.5
 11
6.861886801822307
 21
4.235637463212804
 31
0.5
  0
LINE
  5
63C
  8
0
 62
    42
 10
6.861886801822307
 20
4.235637463212804
 30
0.5
 11
6.860909801822308
 21
4.221965463212804
 31
0.5
  0
LINE
  5
63D
  8
0
 62
    42
 10
6.860909801822308
 20
4.221965463212804
 30
0.5
 11
6.858956801822307
 21
4.209270463212804
 31
0.5
  0
LINE
  5
63E
  8
0
 62
    42
 10
6.858956801822307
 20
4.209270463212804
 30
0.5
 11
6.855050801822308
 21
4.196574463212804
 31
0.5
  0
LINE
  5
63F
  8
0
 62
    42
 10
6.855050801822308
 20
4.196574463212804
 30
0.5
 11
6.850167801822307
 21
4.183879463212804
 31
0.5
  0
LINE
  5
640
  8
0
 62
    42
 10
6.850167801822307
 20
4.183879463212804
 30
0.5
 11
6.843331801822307
 21
4.172160463212804
 31
0.5
  0
LINE
  5
641
  8
0
 62
    42
 10
6.843331801822307
 20
4.172160463212804
 30
0.5
 11
6.834542801822307
 21
4.160442463212804
 31
0.5
  0
LINE
  5
642
  8
0
 62
    42
 10
6.834542801822307
 20
4.160442463212804
 30
0.5
 11
6.824777801822307
 21
4.149699463212804
 31
0.5
  0
LINE
  5
643
  8
0
 62
    42
 10
6.824777801822307
 20
4.149699463212804
 30
0.5
 11
6.813058801822308
 21
4.138957463212804
 31
0.5
  0
LINE
  5
644
  8
0
 62
    42
 10
6.813058801822308
 20
4.138957463212804
 30
0.5
 11
6.800363801822307
 21
4.129192463212804
 31
0.5
  0
LINE
  5
645
  8
0
 62
    42
 10
6.800363801822307
 20
4.129192463212804
 30
0.5
 11
6.786691801822308
 21
4.120403463212804
 31
0.5
  0
LINE
  5
646
  8
0
 62
    42
 10
6.786691801822308
 20
4.120403463212804
 30
0.5
 11
6.773019801822308
 21
4.113567463212804
 31
0.5
  0
LINE
  5
647
  8
0
 62
    42
 10
6.773019801822308
 20
4.113567463212804
 30
0.5
 11
6.757394801822308
 21
4.107707463212804
 31
0.5
  0
LINE
  5
648
  8
0
 62
    42
 10
6.757394801822308
 20
4.107707463212804
 30
0.5
 11
6.740792801822307
 21
4.102824463212804
 31
0.5
  0
LINE
  5
649
  8
0
 62
    42
 10
6.740792801822307
 20
4.102824463212804
 30
0.5
 11
6.723214801822307
 21
4.099895463212804
 31
0.5
  0
LINE
  5
64A
  8
0
 62
    42
 10
6.723214801822307
 20
4.099895463212804
 30
0.5
 11
6.704659801822308
 21
4.097942463212804
 31
0.5
  0
LINE
  5
64B
  8
0
 62
    42
 10
6.704659801822308
 20
4.097942463212804
 30
0.5
 11
6.685128801822307
 21
4.096965463212804
 31
0.5
  0
LINE
  5
64C
  8
0
 62
    42
 10
6.685128801822307
 20
4.096965463212804
 30
0.5
 11
6.674386801822307
 21
4.096965463212804
 31
0.5
  0
LINE
  5
64D
  8
0
 62
    42
 10
6.674386801822307
 20
4.096965463212804
 30
0.5
 11
6.662667801822307
 21
4.096965463212804
 31
0.5
  0
LINE
  5
64E
  8
0
 62
    42
 10
6.662667801822307
 20
4.096965463212804
 30
0.5
 11
6.650948801822308
 21
4.097942463212804
 31
0.5
  0
LINE
  5
64F
  8
0
 62
    42
 10
6.650948801822308
 20
4.097942463212804
 30
0.5
 11
6.638253801822307
 21
4.098918463212804
 31
0.5
  0
LINE
  5
650
  8
0
 62
    42
 10
6.638253801822307
 20
4.098918463212804
 30
0.5
 11
6.624581801822307
 21
4.099895463212804
 31
0.5
  0
LINE
  5
651
  8
0
 62
    42
 10
6.624581801822307
 20
4.099895463212804
 30
0.5
 11
6.609933801822308
 21
4.100871463212804
 31
0.5
  0
LINE
  5
652
  8
0
 62
    42
 10
6.609933801822308
 20
4.100871463212804
 30
0.5
 11
6.595284801822308
 21
4.102824463212804
 31
0.5
  0
LINE
  5
653
  8
0
 62
    42
 10
6.595284801822308
 20
4.102824463212804
 30
0.5
 11
6.579659801822308
 21
4.103801463212804
 31
0.5
  0
LINE
  5
654
  8
0
 62
    42
 10
6.579659801822308
 20
4.103801463212804
 30
0.5
 11
6.545480801822308
 21
4.107707463212804
 31
0.5
  0
LINE
  5
655
  8
0
 62
    42
 10
6.545480801822308
 20
4.107707463212804
 30
0.5
 11
6.514230801822308
 21
4.110637463212804
 31
0.5
  0
LINE
  5
656
  8
0
 62
    42
 10
6.514230801822308
 20
4.110637463212804
 30
0.5
 11
6.483956801822307
 21
4.113567463212804
 31
0.5
  0
LINE
  5
657
  8
0
 62
    42
 10
6.483956801822307
 20
4.113567463212804
 30
0.5
 11
6.456613801822307
 21
4.115520463212804
 31
0.5
  0
LINE
  5
658
  8
0
 62
    42
 10
6.456613801822307
 20
4.115520463212804
 30
0.5
 11
6.430245801822307
 21
4.117473463212804
 31
0.5
  0
LINE
  5
659
  8
0
 62
    42
 10
6.430245801822307
 20
4.117473463212804
 30
0.5
 11
6.406808801822308
 21
4.118449463212804
 31
0.5
  0
LINE
  5
65A
  8
0
 62
    42
 10
6.406808801822308
 20
4.118449463212804
 30
0.5
 11
6.385323801822308
 21
4.119426463212804
 31
0.5
  0
LINE
  5
65B
  8
0
 62
    42
 10
6.385323801822308
 20
4.119426463212804
 30
0.5
 11
6.365792801822307
 21
4.119426463212804
 31
0.5
  0
LINE
  5
65C
  8
0
 62
    42
 10
6.365792801822307
 20
4.119426463212804
 30
0.5
 11
6.341378801822307
 21
4.119426463212804
 31
0.5
  0
LINE
  5
65D
  8
0
 62
    42
 10
6.341378801822307
 20
4.119426463212804
 30
0.5
 11
6.315988801822307
 21
4.118449463212804
 31
0.5
  0
LINE
  5
65E
  8
0
 62
    42
 10
6.315988801822307
 20
4.118449463212804
 30
0.5
 11
6.289620801822307
 21
4.117473463212804
 31
0.5
  0
LINE
  5
65F
  8
0
 62
    42
 10
6.289620801822307
 20
4.117473463212804
 30
0.5
 11
6.261300801822308
 21
4.115520463212804
 31
0.5
  0
LINE
  5
660
  8
0
 62
    42
 10
6.261300801822308
 20
4.115520463212804
 30
0.5
 11
6.232980801822308
 21
4.113567463212804
 31
0.5
  0
LINE
  5
661
  8
0
 62
    42
 10
6.232980801822308
 20
4.113567463212804
 30
0.5
 11
6.202706801822307
 21
4.110637463212804
 31
0.5
  0
LINE
  5
662
  8
0
 62
    42
 10
6.202706801822307
 20
4.110637463212804
 30
0.5
 11
6.172433801822308
 21
4.107707463212804
 31
0.5
  0
LINE
  5
663
  8
0
 62
    42
 10
6.172433801822308
 20
4.107707463212804
 30
0.5
 11
6.140206801822307
 21
4.103801463212804
 31
0.5
  0
LINE
  5
664
  8
0
 62
    42
 10
6.140206801822307
 20
4.103801463212804
 30
0.5
 11
6.150948801822308
 21
4.140910463212804
 31
0.5
  0
LINE
  5
665
  8
0
 62
    42
 10
6.150948801822308
 20
4.140910463212804
 30
0.5
 11
6.169503801822307
 21
4.145793463212804
 31
0.5
  0
LINE
  5
666
  8
0
 62
    42
 10
6.169503801822307
 20
4.145793463212804
 30
0.5
 11
6.186105801822308
 21
4.150676463212804
 31
0.5
  0
LINE
  5
667
  8
0
 62
    42
 10
6.186105801822308
 20
4.150676463212804
 30
0.5
 11
6.199777801822307
 21
4.154582463212804
 31
0.5
  0
LINE
  5
668
  8
0
 62
    42
 10
6.199777801822307
 20
4.154582463212804
 30
0.5
 11
6.212472801822307
 21
4.158489463212804
 31
0.5
  0
LINE
  5
669
  8
0
 62
    42
 10
6.212472801822307
 20
4.158489463212804
 30
0.5
 11
6.223214801822308
 21
4.162395463212804
 31
0.5
  0
LINE
  5
66A
  8
0
 62
    42
 10
6.223214801822308
 20
4.162395463212804
 30
0.5
 11
6.231027801822307
 21
4.166301463212804
 31
0.5
  0
LINE
  5
66B
  8
0
 62
    42
 10
6.231027801822307
 20
4.166301463212804
 30
0.5
 11
6.237863801822307
 21
4.169231463212804
 31
0.5
  0
LINE
  5
66C
  8
0
 62
    42
 10
6.237863801822307
 20
4.169231463212804
 30
0.5
 11
6.241769801822308
 21
4.171184463212804
 31
0.5
  0
LINE
  5
66D
  8
0
 62
    42
 10
6.241769801822308
 20
4.171184463212804
 30
0.5
 11
6.245675801822308
 21
4.174114463212804
 31
0.5
  0
LINE
  5
66E
  8
0
 62
    42
 10
6.245675801822308
 20
4.174114463212804
 30
0.5
 11
6.248605801822308
 21
4.177043463212804
 31
0.5
  0
LINE
  5
66F
  8
0
 62
    42
 10
6.248605801822308
 20
4.177043463212804
 30
0.5
 11
6.251534801822308
 21
4.179973463212804
 31
0.5
  0
LINE
  5
670
  8
0
 62
    42
 10
6.251534801822308
 20
4.179973463212804
 30
0.5
 11
6.254464801822308
 21
4.183879463212804
 31
0.5
  0
LINE
  5
671
  8
0
 62
    42
 10
6.254464801822308
 20
4.183879463212804
 30
0.5
 11
6.257394801822308
 21
4.187785463212804
 31
0.5
  0
LINE
  5
672
  8
0
 62
    42
 10
6.257394801822308
 20
4.187785463212804
 30
0.5
 11
6.260323801822308
 21
4.191692463212804
 31
0.5
  0
LINE
  5
673
  8
0
 62
    42
 10
6.260323801822308
 20
4.191692463212804
 30
0.5
 11
6.263253801822307
 21
4.196574463212804
 31
0.5
  0
LINE
  5
674
  8
0
 62
    42
 10
6.263253801822307
 20
4.196574463212804
 30
0.5
 11
6.265206801822307
 21
4.200481463212804
 31
0.5
  0
LINE
  5
675
  8
0
 62
    42
 10
6.265206801822307
 20
4.200481463212804
 30
0.5
 11
6.273019801822308
 21
4.218059463212804
 31
0.5
  0
LINE
  5
676
  8
0
 62
    42
 10
6.273019801822308
 20
4.218059463212804
 30
0.5
 11
6.281808801822308
 21
4.239543463212804
 31
0.5
  0
LINE
  5
677
  8
0
 62
    42
 10
6.281808801822308
 20
4.239543463212804
 30
0.5
 11
6.291573801822308
 21
4.264934463212804
 31
0.5
  0
LINE
  5
678
  8
0
 62
    42
 10
6.291573801822308
 20
4.264934463212804
 30
0.5
 11
6.301339801822308
 21
4.293254463212804
 31
0.5
  0
LINE
  5
679
  8
0
 62
    42
 10
6.301339801822308
 20
4.293254463212804
 30
0.5
 11
6.311105801822308
 21
4.326457463212804
 31
0.5
  0
LINE
  5
67A
  8
0
 62
    42
 10
6.311105801822308
 20
4.326457463212804
 30
0.5
 11
6.322823801822308
 21
4.363567463212804
 31
0.5
  0
LINE
  5
67B
  8
0
 62
    42
 10
6.322823801822308
 20
4.363567463212804
 30
0.5
 11
6.333566801822308
 21
4.403606463212804
 31
0.5
  0
LINE
  5
67C
  8
0
 62
    42
 10
6.333566801822308
 20
4.403606463212804
 30
0.5
 11
6.346261801822307
 21
4.448528463212804
 31
0.5
  0
LINE
  5
67D
  8
0
 62
    42
 10
6.346261801822307
 20
4.448528463212804
 30
0.5
 11
6.358956801822307
 21
4.495403463212804
 31
0.5
  0
LINE
  5
67E
  8
0
 62
    42
 10
6.358956801822307
 20
4.495403463212804
 30
0.5
 11
6.370675801822308
 21
4.542278463212804
 31
0.5
  0
LINE
  5
67F
  8
0
 62
    42
 10
6.370675801822308
 20
4.542278463212804
 30
0.5
 11
6.383370801822307
 21
4.591106463212804
 31
0.5
  0
LINE
  5
680
  8
0
 62
    42
 10
6.383370801822307
 20
4.591106463212804
 30
0.5
 11
6.396066801822308
 21
4.639934463212804
 31
0.5
  0
LINE
  5
681
  8
0
 62
    42
 10
6.396066801822308
 20
4.639934463212804
 30
0.5
 11
6.408761801822307
 21
4.688762463212804
 31
0.5
  0
LINE
  5
682
  8
0
 62
    42
 10
6.408761801822307
 20
4.688762463212804
 30
0.5
 11
6.421456801822307
 21
4.738567463212804
 31
0.5
  0
LINE
  5
683
  8
0
 62
    42
 10
6.421456801822307
 20
4.738567463212804
 30
0.5
 11
6.434152801822307
 21
4.789348463212804
 31
0.5
  0
LINE
  5
684
  8
0
 62
    42
 10
6.434152801822307
 20
4.789348463212804
 30
0.5
 11
6.446847801822307
 21
4.841106463212804
 31
0.5
  0
LINE
  5
685
  8
0
 62
    42
 10
6.446847801822307
 20
4.841106463212804
 30
0.5
 11
6.427316801822308
 21
4.840129463212804
 31
0.5
  0
LINE
  5
686
  8
0
 62
    42
 10
6.427316801822308
 20
4.840129463212804
 30
0.5
 11
6.408761801822307
 21
4.839153463212804
 31
0.5
  0
LINE
  5
687
  8
0
 62
    42
 10
6.408761801822307
 20
4.839153463212804
 30
0.5
 11
6.389230801822308
 21
4.836223463212804
 31
0.5
  0
LINE
  5
688
  8
0
 62
    42
 10
6.389230801822308
 20
4.836223463212804
 30
0.5
 11
6.370675801822308
 21
4.832317463212804
 31
0.5
  0
LINE
  5
689
  8
0
 62
    42
 10
6.370675801822308
 20
4.832317463212804
 30
0.5
 11
6.352120801822307
 21
4.826457463212804
 31
0.5
  0
LINE
  5
68A
  8
0
 62
    42
 10
6.352120801822307
 20
4.826457463212804
 30
0.5
 11
6.334542801822307
 21
4.820598463212804
 31
0.5
  0
LINE
  5
68B
  8
0
 62
    42
 10
6.334542801822307
 20
4.820598463212804
 30
0.5
 11
6.316964801822308
 21
4.812785463212804
 31
0.5
  0
LINE
  5
68C
  8
0
 62
    42
 10
6.316964801822308
 20
4.812785463212804
 30
0.5
 11
6.299386801822307
 21
4.803996463212804
 31
0.5
  0
LINE
  5
68D
  8
0
 62
    42
 10
6.299386801822307
 20
4.803996463212804
 30
0.5
 11
6.281808801822308
 21
4.794231463212804
 31
0.5
  0
LINE
  5
68E
  8
0
 62
    42
 10
6.281808801822308
 20
4.794231463212804
 30
0.5
 11
6.266183801822308
 21
4.784465463212804
 31
0.5
  0
LINE
  5
68F
  8
0
 62
    42
 10
6.266183801822308
 20
4.784465463212804
 30
0.5
 11
6.250558801822308
 21
4.772746463212804
 31
0.5
  0
LINE
  5
690
  8
0
 62
    42
 10
6.250558801822308
 20
4.772746463212804
 30
0.5
 11
6.236886801822307
 21
4.761028463212804
 31
0.5
  0
LINE
  5
691
  8
0
 62
    42
 10
6.236886801822307
 20
4.761028463212804
 30
0.5
 11
6.224191801822308
 21
4.749309463212804
 31
0.5
  0
LINE
  5
692
  8
0
 62
    42
 10
6.224191801822308
 20
4.749309463212804
 30
0.5
 11
6.211495801822307
 21
4.735637463212804
 31
0.5
  0
LINE
  5
693
  8
0
 62
    42
 10
6.211495801822307
 20
4.735637463212804
 30
0.5
 11
6.200753801822307
 21
4.721965463212804
 31
0.5
  0
LINE
  5
694
  8
0
 62
    42
 10
6.200753801822307
 20
4.721965463212804
 30
0.5
 11
6.190011801822307
 21
4.707317463212804
 31
0.5
  0
LINE
  5
695
  8
0
 62
    42
 10
6.190011801822307
 20
4.707317463212804
 30
0.5
 11
6.181222801822307
 21
4.692668463212804
 31
0.5
  0
LINE
  5
696
  8
0
 62
    42
 10
6.181222801822307
 20
4.692668463212804
 30
0.5
 11
6.173409801822308
 21
4.677043463212804
 31
0.5
  0
LINE
  5
697
  8
0
 62
    42
 10
6.173409801822308
 20
4.677043463212804
 30
0.5
 11
6.166573801822308
 21
4.662395463212804
 31
0.5
  0
LINE
  5
698
  8
0
 62
    42
 10
6.166573801822308
 20
4.662395463212804
 30
0.5
 11
6.160714801822308
 21
4.646770463212804
 31
0.5
  0
LINE
  5
699
  8
0
 62
    42
 10
6.160714801822308
 20
4.646770463212804
 30
0.5
 11
6.156808801822308
 21
4.631145463212804
 31
0.5
  0
LINE
  5
69A
  8
0
 62
    42
 10
6.156808801822308
 20
4.631145463212804
 30
0.5
 11
6.153878801822307
 21
4.614543463212804
 31
0.5
  0
LINE
  5
69B
  8
0
 62
    42
 10
6.153878801822307
 20
4.614543463212804
 30
0.5
 11
6.151925801822308
 21
4.598918463212804
 31
0.5
  0
LINE
  5
69C
  8
0
 62
    42
 10
6.151925801822308
 20
4.598918463212804
 30
0.5
 11
6.150948801822308
 21
4.582317463212804
 31
0.5
  0
LINE
  5
69D
  8
0
 62
    42
 10
6.150948801822308
 20
4.582317463212804
 30
0.5
 11
6.150948801822308
 21
4.575481463212804
 31
0.5
  0
LINE
  5
69E
  8
0
 62
    42
 10
6.150948801822308
 20
4.575481463212804
 30
0.5
 11
6.150948801822308
 21
4.568645463212804
 31
0.5
  0
LINE
  5
69F
  8
0
 62
    42
 10
6.150948801822308
 20
4.568645463212804
 30
0.5
 11
6.151925801822308
 21
4.562785463212804
 31
0.5
  0
LINE
  5
6A0
  8
0
 62
    42
 10
6.151925801822308
 20
4.562785463212804
 30
0.5
 11
6.151925801822308
 21
4.555949463212804
 31
0.5
  0
LINE
  5
6A1
  8
0
 62
    42
 10
6.151925801822308
 20
4.555949463212804
 30
0.5
 11
6.152902801822307
 21
4.550090463212804
 31
0.5
  0
LINE
  5
6A2
  8
0
 62
    42
 10
6.152902801822307
 20
4.550090463212804
 30
0.5
 11
6.153878801822307
 21
4.544231463212804
 31
0.5
  0
LINE
  5
6A3
  8
0
 62
    42
 10
6.153878801822307
 20
4.544231463212804
 30
0.5
 11
6.154855801822308
 21
4.539348463212804
 31
0.5
  0
LINE
  5
6A4
  8
0
 62
    42
 10
6.154855801822308
 20
4.539348463212804
 30
0.5
 11
6.156808801822308
 21
4.533489463212804
 31
0.5
  0
LINE
  5
6A5
  8
0
 62
    42
 10
6.156808801822308
 20
4.533489463212804
 30
0.5
 11
6.157784801822308
 21
4.528606463212804
 31
0.5
  0
LINE
  5
6A6
  8
0
 62
    42
 10
6.157784801822308
 20
4.528606463212804
 30
0.5
 11
6.159738801822307
 21
4.521770463212804
 31
0.5
  0
LINE
  5
6A7
  8
0
 62
    42
 10
6.159738801822307
 20
4.521770463212804
 30
0.5
 11
6.162667801822307
 21
4.515910463212804
 31
0.5
  0
LINE
  5
6A8
  8
0
 62
    42
 10
6.162667801822307
 20
4.515910463212804
 30
0.5
 11
6.165597801822307
 21
4.509074463212804
 31
0.5
  0
LINE
  5
6A9
  8
0
 62
    42
 10
6.165597801822307
 20
4.509074463212804
 30
0.5
 11
6.168527801822307
 21
4.501262463212804
 31
0.5
  0
LINE
  5
6AA
  8
0
 62
    42
 10
6.168527801822307
 20
4.501262463212804
 30
0.5
 11
6.172433801822308
 21
4.492473463212804
 31
0.5
  0
LINE
  5
6AB
  8
0
 62
    42
 10
6.172433801822308
 20
4.492473463212804
 30
0.5
 11
6.177316801822308
 21
4.484660463212804
 31
0.5
  0
LINE
  5
6AC
  8
0
 62
    42
 10
6.177316801822308
 20
4.484660463212804
 30
0.5
 11
6.181222801822307
 21
4.474895463212804
 31
0.5
  0
LINE
  5
6AD
  8
0
 62
    42
 10
6.181222801822307
 20
4.474895463212804
 30
0.5
 11
6.184152801822307
 21
4.470012463212804
 31
0.5
  0
LINE
  5
6AE
  8
0
 62
    42
 10
6.184152801822307
 20
4.470012463212804
 30
0.5
 11
6.187081801822307
 21
4.464153463212804
 31
0.5
  0
LINE
  5
6AF
  8
0
 62
    42
 10
6.187081801822307
 20
4.464153463212804
 30
0.5
 11
6.189034801822308
 21
4.459270463212804
 31
0.5
  0
LINE
  5
6B0
  8
0
 62
    42
 10
6.189034801822308
 20
4.459270463212804
 30
0.5
 11
6.190988801822307
 21
4.454387463212804
 31
0.5
  0
LINE
  5
6B1
  8
0
 62
    42
 10
6.190988801822307
 20
4.454387463212804
 30
0.5
 11
6.191964801822308
 21
4.449504463212804
 31
0.5
  0
LINE
  5
6B2
  8
0
 62
    42
 10
6.191964801822308
 20
4.449504463212804
 30
0.5
 11
6.192941801822308
 21
4.445598463212804
 31
0.5
  0
LINE
  5
6B3
  8
0
 62
    42
 10
6.192941801822308
 20
4.445598463212804
 30
0.5
 11
6.193917801822307
 21
4.441692463212804
 31
0.5
  0
LINE
  5
6B4
  8
0
 62
    42
 10
6.193917801822307
 20
4.441692463212804
 30
0.5
 11
6.193917801822307
 21
4.437785463212804
 31
0.5
  0
LINE
  5
6B5
  8
0
 62
    42
 10
6.193917801822307
 20
4.437785463212804
 30
0.5
 11
6.193917801822307
 21
4.434856463212804
 31
0.5
  0
LINE
  5
6B6
  8
0
 62
    42
 10
6.193917801822307
 20
4.434856463212804
 30
0.5
 11
6.192941801822308
 21
4.430949463212804
 31
0.5
  0
LINE
  5
6B7
  8
0
 62
    42
 10
6.192941801822308
 20
4.430949463212804
 30
0.5
 11
6.191964801822308
 21
4.428020463212804
 31
0.5
  0
LINE
  5
6B8
  8
0
 62
    42
 10
6.191964801822308
 20
4.428020463212804
 30
0.5
 11
6.190988801822307
 21
4.424114463212804
 31
0.5
  0
LINE
  5
6B9
  8
0
 62
    42
 10
6.190988801822307
 20
4.424114463212804
 30
0.5
 11
6.189034801822308
 21
4.421184463212804
 31
0.5
  0
LINE
  5
6BA
  8
0
 62
    42
 10
6.189034801822308
 20
4.421184463212804
 30
0.5
 11
6.187081801822307
 21
4.418254463212804
 31
0.5
  0
LINE
  5
6BB
  8
0
 62
    42
 10
6.187081801822307
 20
4.418254463212804
 30
0.5
 11
6.185128801822307
 21
4.415324463212804
 31
0.5
  0
LINE
  5
6BC
  8
0
 62
    42
 10
6.185128801822307
 20
4.415324463212804
 30
0.5
 11
6.182198801822308
 21
4.412395463212804
 31
0.5
  0
LINE
  5
6BD
  8
0
 62
    42
 10
6.182198801822308
 20
4.412395463212804
 30
0.5
 11
6.179269801822308
 21
4.410442463212804
 31
0.5
  0
LINE
  5
6BE
  8
0
 62
    42
 10
6.179269801822308
 20
4.410442463212804
 30
0.5
 11
6.175363801822307
 21
4.407512463212804
 31
0.5
  0
LINE
  5
6BF
  8
0
 62
    42
 10
6.175363801822307
 20
4.407512463212804
 30
0.5
 11
6.172433801822308
 21
4.405559463212804
 31
0.5
  0
LINE
  5
6C0
  8
0
 62
    42
 10
6.172433801822308
 20
4.405559463212804
 30
0.5
 11
6.168527801822307
 21
4.404582463212804
 31
0.5
  0
LINE
  5
6C1
  8
0
 62
    42
 10
6.168527801822307
 20
4.404582463212804
 30
0.5
 11
6.164620801822307
 21
4.403606463212804
 31
0.5
  0
LINE
  5
6C2
  8
0
 62
    42
 10
6.164620801822307
 20
4.403606463212804
 30
0.5
 11
6.160714801822308
 21
4.402629463212804
 31
0.5
  0
LINE
  5
6C3
  8
0
 62
    42
 10
6.160714801822308
 20
4.402629463212804
 30
0.5
 11
6.156808801822308
 21
4.401653463212804
 31
0.5
  0
LINE
  5
6C4
  8
0
 62
    42
 10
6.156808801822308
 20
4.401653463212804
 30
0.5
 11
6.152902801822307
 21
4.401653463212804
 31
0.5
  0
LINE
  5
6C5
  8
0
 62
    42
 10
6.152902801822307
 20
4.401653463212804
 30
0.5
 11
6.146066801822308
 21
4.401653463212804
 31
0.5
  0
LINE
  5
6C6
  8
0
 62
    42
 10
6.146066801822308
 20
4.401653463212804
 30
0.5
 11
6.140206801822307
 21
4.403606463212804
 31
0.5
  0
LINE
  5
6C7
  8
0
 62
    42
 10
6.140206801822307
 20
4.403606463212804
 30
0.5
 11
6.135323801822308
 21
4.405559463212804
 31
0.5
  0
LINE
  5
6C8
  8
0
 62
    42
 10
6.135323801822308
 20
4.405559463212804
 30
0.5
 11
6.129464801822308
 21
4.408489463212804
 31
0.5
  0
LINE
  5
6C9
  8
0
 62
    42
 10
6.129464801822308
 20
4.408489463212804
 30
0.5
 11
6.124581801822307
 21
4.411418463212804
 31
0.5
  0
LINE
  5
6CA
  8
0
 62
    42
 10
6.124581801822307
 20
4.411418463212804
 30
0.5
 11
6.120675801822308
 21
4.416301463212804
 31
0.5
  0
LINE
  5
6CB
  8
0
 62
    42
 10
6.120675801822308
 20
4.416301463212804
 30
0.5
 11
6.116769801822308
 21
4.421184463212804
 31
0.5
  0
LINE
  5
6CC
  8
0
 62
    42
 10
6.116769801822308
 20
4.421184463212804
 30
0.5
 11
6.112863801822307
 21
4.427043463212804
 31
0.5
  0
LINE
  5
6CD
  8
0
 62
    42
 10
6.112863801822307
 20
4.427043463212804
 30
0.5
 11
6.107003801822307
 21
4.436809463212804
 31
0.5
  0
LINE
  5
6CE
  8
0
 62
    42
 10
6.107003801822307
 20
4.436809463212804
 30
0.5
 11
6.103097801822307
 21
4.447551463212804
 31
0.5
  0
LINE
  5
6CF
  8
0
 62
    42
 10
6.103097801822307
 20
4.447551463212804
 30
0.5
 11
6.099191801822308
 21
4.458293463212804
 31
0.5
  0
LINE
  5
6D0
  8
0
 62
    42
 10
6.099191801822308
 20
4.458293463212804
 30
0.5
 11
6.096261801822307
 21
4.470989463212804
 31
0.5
  0
LINE
  5
6D1
  8
0
 62
    42
 10
6.096261801822307
 20
4.470989463212804
 30
0.5
 11
6.093331801822307
 21
4.483684463212804
 31
0.5
  0
LINE
  5
6D2
  8
0
 62
    42
 10
6.093331801822307
 20
4.483684463212804
 30
0.5
 11
6.091378801822307
 21
4.497356463212804
 31
0.5
  0
LINE
  5
6D3
  8
0
 62
    42
 10
6.091378801822307
 20
4.497356463212804
 30
0.5
 11
6.090402801822307
 21
4.512004463212804
 31
0.5
  0
LINE
  5
6D4
  8
0
 62
    42
 10
6.090402801822307
 20
4.512004463212804
 30
0.5
 11
6.090402801822307
 21
4.527629463212804
 31
0.5
  0
LINE
  5
6D5
  8
0
 62
    42
 10
6.090402801822307
 20
4.527629463212804
 30
0.5
 11
6.092355801822308
 21
4.561809463212804
 31
0.5
  0
LINE
  5
6DD
  8
0
  6
BYBLOCK
 62
    51
 10
1.842492197868367
 20
2.122415991861952
 30
0.0
 11
1.840880741433558
 21
4.915862373038693
 31
0.0
  0
LINE
  5
6DE
  8
0
  6
BYBLOCK
 62
    51
 10
1.842381429071074
 20
5.38818914069759
 30
0.0
 11
7.392077169436185
 21
5.38818914069759
 31
0.0
  0
LINE
  5
6DF
  8
0
  6
BYBLOCK
 62
    51
 10
7.392077169436185
 20
5.38818914069759
 30
0.0
 11
7.392077169436186
 21
2.138696240089069
 31
0.0
  0
LINE
  5
6E1
  8
0
  6
BYBLOCK
 62
    51
 10
3.740961550774928
 20
0.02104918126554
 30
0.0
 11
4.325140049760729
 21
0.02104918126554
 31
0.0
  0
ARC
  5
6E2
  8
0
  6
BYBLOCK
 62
    51
 10
5.35155061398642
 20
2.058222671351229
 30
0.0
 40
2.042112783065884
 50
273.9858205067152
 51
2.258440417516046
  0
LINE
  5
6E3
  8
0
  6
BYBLOCK
 62
    51
 10
5.493497047732332
 20
0.02104918126554
 30
0.0
 11
4.325140049760729
 21
0.02104918126554
 31
0.0
  0
ARC
  5
6E6
  8
0
  6
BYBLOCK
 62
    51
 10
1.538711582466472
 20
3.924963946829867
 30
0.0
 40
1.308804855555815
 50
76.65146016682506
 51
185.4809445371976
  0
ARC
  5
6E7
  8
0
  6
BYBLOCK
 62
    51
 10
2.37005545990215
 20
3.807998193452431
 30
0.0
 40
2.13418006384021
 50
180.2159650087372
 51
256.310586300701
  0
ARC
  5
6EB
  8
0
  6
BYBLOCK
 62
    51
 10
1.589989447436511
 20
3.873935729905162
 30
0.0
 40
1.071707782501845
 50
76.46117562507386
 51
196.8864002076899
  0
ARC
  5
6EC
  8
0
  6
BYBLOCK
 62
    51
 10
2.13107938036038
 20
3.665635540761049
 30
0.0
 40
1.569971062791608
 50
183.7618201085803
 51
259.4078382556346
  0
ARC
  5
6F6
  8
0
  6
BYBLOCK
 62
    51
 10
3.884480744783124
 20
2.061878812254525
 30
0.0
 40
2.045869825226277
 50
189.2096075193109
 51
265.977357207538
  0
ARC
  5
6FE
  8
0
  6
BYBLOCK
 62
     4
 10
7.518416756043441
 20
4.773086531708329
 30
0.0
 40
2.609741004961837
 50
109.013951914792
 51
165.4242458992278
  0
ARC
  5
6FF
  8
0
  6
BYBLOCK
 62
     4
 10
7.042868388884931
 20
5.399470254910255
 30
0.0
 40
2.050425208920272
 50
104.141986234626
 51
179.150958605471
  0
LINE
  5
700
  8
0
  6
BYBLOCK
 62
    51
 10
1.843727444351713
 20
5.38747106695179
 30
0.0
 11
1.843727444351713
 21
5.197795775106705
 31
0.0
  0
ARC
  5
741
  8
0
  6
BYBLOCK
 62
     4
 10
5.901110540556662
 20
8.630864697647233
 30
0.0
 40
1.398546413425733
 50
297.2697444220422
 51
0.8027425138106739
  0
ARC
  5
743
  8
0
  6
BYBLOCK
 62
     4
 10
6.17231100405147
 20
8.30882104529195
 30
0.0
 40
1.177843582345325
 50
294.8968903899948
 51
16.86114337111998
  0
ARC
  5
74A
  8
0
  6
BYBLOCK
 62
     4
 10
6.206511682088597
 20
5.66608505636215
 30
0.0
 40
1.999295854072499
 50
109.540930279368
 51
186.8162879364339
  0
ARC
  5
74B
  8
0
  6
BYBLOCK
 62
     4
 10
6.805413173680348
 20
5.06362312570682
 30
0.0
 40
2.609741004961837
 50
115.5460886026445
 51
171.9563825870802
  0
ARC
  5
74C
  8
0
  6
BYBLOCK
 62
     4
 10
5.003729065051817
 20
8.788173368771005
 30
0.0
 40
1.348231744468326
 50
293.3356702243004
 51
359.0623198942824
  0
ARC
  5
74D
  8
0
  6
BYBLOCK
 62
     4
 10
5.161368605276398
 20
8.518064900533082
 30
0.0
 40
1.215979502315572
 50
295.2462936613325
 51
11.77024460277911
  0
ENDSEC
  0
EOF
