  0
SECTION
  2
HEADER
  9
$ACADVER
  1
AC1009
  9
$EXTMIN
 10
0.00006991
 20
3.57897922
 30
0.0
  9
$EXTMAX
 10
11.99993009
 20
8.42102078
 30
0.0
  0
ENDSEC
  0
SECTION
  2
TABLES
  0
TABLE
  2
LAYER
 70
1
 0
LAYER
 2
Default_Layer
 70
0
 62
1
 6
CONTINUOUS
 0
ENDTAB
 0
ENDSEC
  0
SECTION
  2
ENTITIES
  0
POLYLINE
  8
Default_Layer
 66
   1
 39
0.000000
 70
    1
  0
VERTEX
  8
0
 10
1.51213000
 20
8.28014174
  0
VERTEX
  8
0
 10
1.65085326
 20
8.32168275
  0
VERTEX
  8
0
 10
1.72039507
 20
8.34229619
  0
VERTEX
  8
0
 10
1.79019987
 20
8.36187963
  0
VERTEX
  8
0
 10
1.86037478
 20
8.37973910
  0
VERTEX
  8
0
 10
1.93102696
 20
8.39518062
  0
VERTEX
  8
0
 10
1.96656550
 20
8.40177778
  0
VERTEX
  8
0
 10
2.00226353
 20
8.40751021
  0
VERTEX
  8
0
 10
2.03813445
 20
8.41229117
  0
VERTEX
  8
0
 10
2.07419164
 20
8.41603391
  0
VERTEX
  8
0
 10
2.09807082
 20
8.33599402
  0
VERTEX
  8
0
 10
2.12325516
 20
8.25632425
  0
VERTEX
  8
0
 10
2.17559130
 20
8.09770547
  0
VERTEX
  8
0
 10
2.17964841
 20
8.08814568
  0
VERTEX
  8
0
 10
2.18319173
 20
8.07806967
  0
VERTEX
  8
0
 10
2.19026620
 20
8.05765468
  0
VERTEX
  8
0
 10
2.19456194
 20
8.04795853
  0
VERTEX
  8
0
 10
2.19987307
 20
8.03903184
  0
VERTEX
  8
0
 10
2.20658188
 20
8.03119603
  0
VERTEX
  8
0
 10
2.21507068
 20
8.02477252
  0
VERTEX
  8
0
 10
2.25879263
 20
8.02347791
  0
VERTEX
  8
0
 10
2.30252918
 20
8.02318165
  0
VERTEX
  8
0
 10
2.39002665
 20
8.02466862
  0
VERTEX
  8
0
 10
2.47752411
 20
8.02740231
  0
VERTEX
  8
0
 10
2.56498262
 20
8.02955160
  0
VERTEX
  8
0
 10
2.57754963
 20
8.07886024
  0
VERTEX
  8
0
 10
2.59118316
 20
8.12788641
  0
VERTEX
  8
0
 10
2.62030569
 20
8.22544203
  0
VERTEX
  8
0
 10
2.64966199
 20
8.32291972
  0
VERTEX
  8
0
 10
2.66358772
 20
8.37184850
  0
VERTEX
  8
0
 10
2.67656380
 20
8.42102078
  0
VERTEX
  8
0
 10
2.71281610
 20
8.42040488
  0
VERTEX
  8
0
 10
2.74888395
 20
8.41847986
  0
VERTEX
  8
0
 10
2.78478256
 20
8.41536353
  0
VERTEX
  8
0
 10
2.82052717
 20
8.41117366
  0
VERTEX
  8
0
 10
2.85613297
 20
8.40602806
  0
VERTEX
  8
0
 10
2.89161520
 20
8.40004452
  0
VERTEX
  8
0
 10
2.96226981
 20
8.38603478
  0
VERTEX
  8
0
 10
3.03261274
 20
8.37008678
  0
VERTEX
  8
0
 10
3.10276574
 20
8.35314287
  0
VERTEX
  8
0
 10
3.17285056
 20
8.33614540
  0
VERTEX
  8
0
 10
3.24298895
 20
8.32003669
  0
VERTEX
  8
0
 10
3.22482390
 20
8.21371510
  0
VERTEX
  8
0
 10
3.20831463
 20
8.10715974
  0
VERTEX
  8
0
 10
3.19200017
 20
8.00060439
  0
VERTEX
  8
0
 10
3.17441951
 20
7.89428279
  0
VERTEX
  8
0
 10
3.26170594
 20
7.85006979
  0
VERTEX
  8
0
 10
3.34862226
 20
7.80519446
  0
VERTEX
  8
0
 10
3.43456457
 20
7.75852698
  0
VERTEX
  8
0
 10
3.47698177
 20
7.73416811
  0
VERTEX
  8
0
 10
3.51892901
 20
7.70893751
  0
VERTEX
  8
0
 10
3.52825545
 20
7.70459145
  0
VERTEX
  8
0
 10
3.53806158
 20
7.69914234
  0
VERTEX
  8
0
 10
3.54820373
 20
7.69345460
  0
VERTEX
  8
0
 10
3.55853826
 20
7.68839265
  0
VERTEX
  8
0
 10
3.56892148
 20
7.68482092
  0
VERTEX
  8
0
 10
3.57920973
 20
7.68360383
  0
VERTEX
  8
0
 10
3.58427336
 20
7.68414840
  0
VERTEX
  8
0
 10
3.58925936
 20
7.68560580
  0
VERTEX
  8
0
 10
3.59414979
 20
7.68808407
  0
VERTEX
  8
0
 10
3.59892670
 20
7.69169126
  0
VERTEX
  8
0
 10
3.63937276
 20
7.72314611
  0
VERTEX
  8
0
 10
3.67848933
 20
7.75616666
  0
VERTEX
  8
0
 10
3.71660267
 20
7.79037062
  0
VERTEX
  8
0
 10
3.75403909
 20
7.82537570
  0
VERTEX
  8
0
 10
3.82818629
 20
7.89626001
  0
VERTEX
  8
0
 10
3.86554965
 20
7.93137465
  0
VERTEX
  8
0
 10
3.90354125
 20
7.96576124
  0
VERTEX
  8
0
 10
3.98327920
 20
7.89100042
  0
VERTEX
  8
0
 10
4.06223795
 20
7.81540196
  0
VERTEX
  8
0
 10
4.14127462
 20
7.73992038
  0
VERTEX
  8
0
 10
4.22124633
 20
7.66551020
  0
VERTEX
  8
0
 10
4.23277197
 20
7.65288516
  0
VERTEX
  8
0
 10
4.24534953
 20
7.64052066
  0
VERTEX
  8
0
 10
4.25823877
 20
7.62811233
  0
VERTEX
  8
0
 10
4.27069944
 20
7.61535580
  0
VERTEX
  8
0
 10
4.28199132
 20
7.60194670
  0
VERTEX
  8
0
 10
4.29137417
 20
7.58758064
  0
VERTEX
  8
0
 10
4.29511838
 20
7.57994363
  0
VERTEX
  8
0
 10
4.29810774
 20
7.57195325
  0
VERTEX
  8
0
 10
4.30024972
 20
7.56357144
  0
VERTEX
  8
0
 10
4.30145180
 20
7.55476016
  0
VERTEX
  8
0
 10
4.28752607
 20
7.53323963
  0
VERTEX
  8
0
 10
4.27265069
 20
7.51240059
  0
VERTEX
  8
0
 10
4.25697176
 20
7.49214047
  0
VERTEX
  8
0
 10
4.24063538
 20
7.47235670
  0
VERTEX
  8
0
 10
4.20657468
 20
7.43380790
  0
VERTEX
  8
0
 10
4.17163738
 20
7.39593359
  0
VERTEX
  8
0
 10
4.13699228
 20
7.35791318
  0
VERTEX
  8
0
 10
4.10380817
 20
7.31892608
  0
VERTEX
  8
0
 10
4.08812925
 20
7.29881358
  0
VERTEX
  8
0
 10
4.07325386
 20
7.27815169
  0
VERTEX
  8
0
 10
4.05932813
 20
7.25683783
  0
VERTEX
  8
0
 10
4.04649815
 20
7.23476943
  0
VERTEX
  8
0
 10
4.05881262
 20
7.20981921
  0
VERTEX
  8
0
 10
4.07190569
 20
7.18526071
  0
VERTEX
  8
0
 10
4.09991868
 20
7.13705472
  0
VERTEX
  8
0
 10
4.12951928
 20
7.08962306
  0
VERTEX
  8
0
 10
4.15968967
 20
7.04243734
  0
VERTEX
  8
0
 10
4.18941203
 20
6.99496915
  0
VERTEX
  8
0
 10
4.21766851
 20
6.94669011
  0
VERTEX
  8
0
 10
4.23092898
 20
6.92208140
  0
VERTEX
  8
0
 10
4.24344130
 20
6.89707182
  0
VERTEX
  8
0
 10
4.25507824
 20
6.87159534
  0
VERTEX
  8
0
 10
4.26571258
 20
6.84558590
  0
VERTEX
  8
0
 10
4.32066228
 20
6.85060401
  0
VERTEX
  8
0
 10
4.37524187
 20
6.85806930
  0
VERTEX
  8
0
 10
4.42954874
 20
6.86735109
  0
VERTEX
  8
0
 10
4.48368029
 20
6.87781873
  0
VERTEX
  8
0
 10
4.59180703
 20
6.89978887
  0
VERTEX
  8
0
 10
4.64599701
 20
6.91003005
  0
VERTEX
  8
0
 10
4.70040128
 20
6.91893442
  0
VERTEX
  8
0
 10
4.73806253
 20
6.78373704
  0
VERTEX
  8
0
 10
4.77447706
 20
6.64818902
  0
VERTEX
  8
0
 10
4.84605940
 20
6.37682025
  0
VERTEX
  8
0
 10
4.79659655
 20
6.35552744
  0
VERTEX
  8
0
 10
4.74660774
 20
6.33559093
  0
VERTEX
  8
0
 10
4.69619037
 20
6.31676964
  0
VERTEX
  8
0
 10
4.64544184
 20
6.29882251
  0
VERTEX
  8
0
 10
4.54334090
 20
6.26458649
  0
VERTEX
  8
0
 10
4.44108412
 20
6.23095435
  0
VERTEX
  8
0
 10
4.44189254
 20
6.14458672
  0
VERTEX
  8
0
 10
4.44349963
 20
6.05818013
  0
VERTEX
  8
0
 10
4.44421065
 20
5.97177354
  0
VERTEX
  8
0
 10
4.44370052
 20
5.92858243
  0
VERTEX
  8
0
 10
4.44233084
 20
5.88540592
  0
VERTEX
  8
0
 10
4.54358115
 20
5.85354970
  0
VERTEX
  8
0
 10
4.64502626
 20
5.82208308
  0
VERTEX
  8
0
 10
4.69595579
 20
5.80703156
  0
VERTEX
  8
0
 10
4.74709473
 20
5.79272029
  0
VERTEX
  8
0
 10
4.79849665
 20
5.77936353
  0
VERTEX
  8
0
 10
4.85021512
 20
5.76717558
  0
VERTEX
  8
0
 10
4.84674947
 20
5.73131201
  0
VERTEX
  8
0
 10
4.84227177
 20
5.69562773
  0
VERTEX
  8
0
 10
4.83689494
 20
5.66010233
  0
VERTEX
  8
0
 10
4.83073192
 20
5.62471542
  0
VERTEX
  8
0
 10
4.81649897
 20
5.55427549
  0
VERTEX
  8
0
 10
4.80047631
 20
5.48414481
  0
VERTEX
  8
0
 10
4.76667534
 20
5.34415861
  0
VERTEX
  8
0
 10
4.75070380
 20
5.27397679
  0
VERTEX
  8
0
 10
4.73655608
 20
5.20345165
  0
VERTEX
  8
0
 10
4.62867933
 20
5.21863627
  0
VERTEX
  8
0
 10
4.52105583
 20
5.23532085
  0
VERTEX
  8
0
 10
4.41370504
 20
5.25368071
  0
VERTEX
  8
0
 10
4.30664645
 20
5.27389116
  0
VERTEX
  8
0
 10
4.28336710
 20
5.22059401
  0
VERTEX
  8
0
 10
4.25875823
 20
5.16792021
  0
VERTEX
  8
0
 10
4.23287343
 20
5.11586977
  0
VERTEX
  8
0
 10
4.20576626
 20
5.06444268
  0
VERTEX
  8
0
 10
4.17749029
 20
5.01363896
  0
VERTEX
  8
0
 10
4.14809910
 20
4.96345860
  0
VERTEX
  8
0
 10
4.11764625
 20
4.91390159
  0
VERTEX
  8
0
 10
4.08618531
 20
4.86496794
  0
VERTEX
  8
0
 10
4.11952363
 20
4.82626330
  0
VERTEX
  8
0
 10
4.15349505
 20
4.78811627
  0
VERTEX
  8
0
 10
4.22259694
 20
4.71284248
  0
VERTEX
  8
0
 10
4.29201051
 20
4.63784141
  0
VERTEX
  8
0
 10
4.36025529
 20
4.56180789
  0
VERTEX
  8
0
 10
4.36351392
 20
4.55839418
  0
VERTEX
  8
0
 10
4.36586065
 20
4.55479633
  0
VERTEX
  8
0
 10
4.36737217
 20
4.55104446
  0
VERTEX
  8
0
 10
4.36812519
 20
4.54716871
  0
VERTEX
  8
0
 10
4.36766254
 20
4.53916610
  0
VERTEX
  8
0
 10
4.36508632
 20
4.53102957
  0
VERTEX
  8
0
 10
4.36101014
 20
4.52300017
  0
VERTEX
  8
0
 10
4.35604762
 20
4.51531898
  0
VERTEX
  8
0
 10
4.34591804
 20
4.50196547
  0
VERTEX
  8
0
 10
4.25755697
 20
4.40617929
  0
VERTEX
  8
0
 10
4.16732581
 20
4.31212682
  0
VERTEX
  8
0
 10
4.07522459
 20
4.21990546
  0
VERTEX
  8
0
 10
3.98125328
 20
4.12961262
  0
VERTEX
  8
0
 10
3.64796424
 20
4.40742276
  0
VERTEX
  8
0
 10
3.60096925
 20
4.37444157
  0
VERTEX
  8
0
 10
3.55333386
 20
4.34238568
  0
VERTEX
  8
0
 10
3.50506050
 20
4.31130379
  0
VERTEX
  8
0
 10
3.45615161
 20
4.28124459
  0
VERTEX
  8
0
 10
3.40660962
 20
4.25225680
  0
VERTEX
  8
0
 10
3.35643697
 20
4.22438910
  0
VERTEX
  8
0
 10
3.30563608
 20
4.19769020
  0
VERTEX
  8
0
 10
3.25420941
 20
4.17220879
  0
VERTEX
  8
0
 10
3.26348471
 20
4.11777084
  0
VERTEX
  8
0
 10
3.27375105
 20
4.06350090
  0
VERTEX
  8
0
 10
3.29568873
 20
3.95520209
  0
VERTEX
  8
0
 10
3.31688616
 20
3.84678640
  0
VERTEX
  8
0
 10
3.32622721
 20
3.79237036
  0
VERTEX
  8
0
 10
3.33420709
 20
3.73772787
  0
VERTEX
  8
0
 10
3.26602278
 20
3.72131357
  0
VERTEX
  8
0
 10
3.19808441
 20
3.70393015
  0
VERTEX
  8
0
 10
3.06260457
 20
3.66760003
  0
VERTEX
  8
0
 10
2.92708577
 20
3.63142575
  0
VERTEX
  8
0
 10
2.85909869
 20
3.61423713
  0
VERTEX
  8
0
 10
2.79084621
 20
3.59809555
  0
VERTEX
  8
0
 10
2.77025224
 20
3.64778405
  0
VERTEX
  8
0
 10
2.75068828
 20
3.69787188
  0
VERTEX
  8
0
 10
2.73213240
 20
3.74832984
  0
VERTEX
  8
0
 10
2.71456270
 20
3.79912869
  0
VERTEX
  8
0
 10
2.69795726
 20
3.85023922
  0
VERTEX
  8
0
 10
2.68229416
 20
3.90163221
  0
VERTEX
  8
0
 10
2.66755148
 20
3.95327844
  0
VERTEX
  8
0
 10
2.65370732
 20
4.00514869
  0
VERTEX
  8
0
 10
2.47851759
 20
4.00431755
  0
VERTEX
  8
0
 10
2.30317202
 20
4.00535648
  0
VERTEX
  8
0
 10
2.28580645
 20
3.95228943
  0
VERTEX
  8
0
 10
2.26920547
 20
3.89896671
  0
VERTEX
  8
0
 10
2.23714796
 20
3.79193409
  0
VERTEX
  8
0
 10
2.20470085
 20
3.68501836
  0
VERTEX
  8
0
 10
2.18761287
 20
3.63184173
  0
VERTEX
  8
0
 10
2.16956550
 20
3.57897922
  0
VERTEX
  8
0
 10
2.03297530
 20
3.61167633
  0
VERTEX
  8
0
 10
1.89609291
 20
3.64310723
  0
VERTEX
  8
0
 10
1.75917155
 20
3.67426542
  0
VERTEX
  8
0
 10
1.62246447
 20
3.70614437
  0
VERTEX
  8
0
 10
1.62835350
 20
3.76078767
  0
VERTEX
  8
0
 10
1.63572058
 20
3.81520939
  0
VERTEX
  8
0
 10
1.65293112
 20
3.92367054
  0
VERTEX
  8
0
 10
1.67018062
 20
4.03209272
  0
VERTEX
  8
0
 10
1.67759639
 20
4.08646574
  0
VERTEX
  8
0
 10
1.68355361
 20
4.14104086
  0
VERTEX
  8
0
 10
1.63086926
 20
4.16331416
  0
VERTEX
  8
0
 10
1.57878391
 20
4.18691940
  0
VERTEX
  8
0
 10
1.52729271
 20
4.21178597
  0
VERTEX
  8
0
 10
1.47639078
 20
4.23784325
  0
VERTEX
  8
0
 10
1.42607324
 20
4.26502063
  0
VERTEX
  8
0
 10
1.37633523
 20
4.29324749
  0
VERTEX
  8
0
 10
1.32717189
 20
4.32245322
  0
VERTEX
  8
0
 10
1.27857833
 20
4.35256720
  0
VERTEX
  8
0
 10
1.23628369
 20
4.31724314
  0
VERTEX
  8
0
 10
1.19513594
 20
4.28063097
  0
VERTEX
  8
0
 10
1.11455710
 20
4.20548055
  0
VERTEX
  8
0
 10
1.07426403
 20
4.16791143
  0
VERTEX
  8
0
 10
1.03339387
 20
4.13099245
  0
VERTEX
  8
0
 10
0.99151562
 20
4.09520818
  0
VERTEX
  8
0
 10
0.94819829
 20
4.06104318
  0
VERTEX
  8
0
 10
0.86713570
 20
4.14086230
  0
VERTEX
  8
0
 10
0.78654063
 20
4.22116841
  0
VERTEX
  8
0
 10
0.74593142
 20
4.26097448
  0
VERTEX
  8
0
 10
0.70485468
 20
4.30026677
  0
VERTEX
  8
0
 10
0.66311563
 20
4.33883343
  0
VERTEX
  8
0
 10
0.62051947
 20
4.37646261
  0
VERTEX
  8
0
 10
0.61076528
 20
4.38651873
  0
VERTEX
  8
0
 10
0.60006876
 20
4.39644580
  0
VERTEX
  8
0
 10
0.58916283
 20
4.40650436
  0
VERTEX
  8
0
 10
0.57878041
 20
4.41695495
  0
VERTEX
  8
0
 10
0.56965446
 20
4.42805812
  0
VERTEX
  8
0
 10
0.56251790
 20
4.44007441
  0
VERTEX
  8
0
 10
0.55992468
 20
4.44650639
  0
VERTEX
  8
0
 10
0.55810366
 20
4.45326437
  0
VERTEX
  8
0
 10
0.55714645
 20
4.46038089
  0
VERTEX
  8
0
 10
0.55714468
 20
4.46788854
  0
VERTEX
  8
0
 10
0.57057682
 20
4.48816519
  0
VERTEX
  8
0
 10
0.58470476
 20
4.50790402
  0
VERTEX
  8
0
 10
0.61465600
 20
4.54607134
  0
VERTEX
  8
0
 10
0.64621434
 20
4.58299681
  0
VERTEX
  8
0
 10
0.67859571
 20
4.61928675
  0
VERTEX
  8
0
 10
0.71101603
 20
4.65554747
  0
VERTEX
  8
0
 10
0.74269125
 20
4.69238528
  0
VERTEX
  8
0
 10
0.77283729
 20
4.73040650
  0
VERTEX
  8
0
 10
0.78709185
 20
4.75005036
  0
VERTEX
  8
0
 10
0.80067009
 20
4.77021744
  0
VERTEX
  8
0
 10
0.80449187
 20
4.77523378
  0
VERTEX
  8
0
 10
0.80721576
 20
4.78030035
  0
VERTEX
  8
0
 10
0.80893705
 20
4.78540405
  0
VERTEX
  8
0
 10
0.80975100
 20
4.79053179
  0
VERTEX
  8
0
 10
0.80903795
 20
4.80080706
  0
VERTEX
  8
0
 10
0.80583877
 20
4.81102145
  0
VERTEX
  8
0
 10
0.80091562
 20
4.82107027
  0
VERTEX
  8
0
 10
0.79503064
 20
4.83084880
  0
VERTEX
  8
0
 10
0.78342384
 20
4.84917619
  0
VERTEX
  8
0
 10
0.75650376
 20
4.88886254
  0
VERTEX
  8
0
 10
0.73052602
 20
4.92916738
  0
VERTEX
  8
0
 10
0.70538105
 20
4.97000792
  0
VERTEX
  8
0
 10
0.68095927
 20
5.01130137
  0
VERTEX
  8
0
 10
0.63384700
 20
5.09491583
  0
VERTEX
  8
0
 10
0.58831261
 20
5.17934845
  0
VERTEX
  8
0
 10
0.56126646
 20
5.17698955
  0
VERTEX
  8
0
 10
0.53434785
 20
5.17381127
  0
VERTEX
  8
0
 10
0.48081897
 20
5.16547872
  0
VERTEX
  8
0
 10
0.42757741
 20
5.15531505
  0
VERTEX
  8
0
 10
0.37447464
 20
5.14428453
  0
VERTEX
  8
0
 10
0.32136214
 20
5.13335140
  0
VERTEX
  8
0
 10
0.26809136
 20
5.12347994
  0
VERTEX
  8
0
 10
0.21451378
 20
5.11563438
  0
VERTEX
  8
0
 10
0.18756351
 20
5.11277266
  0
VERTEX
  8
0
 10
0.16048084
 20
5.11077901
  0
VERTEX
  8
0
 10
0.13750829
 20
5.17686069
  0
VERTEX
  8
0
 10
0.11683925
 20
5.24375567
  0
VERTEX
  8
0
 10
0.09791366
 20
5.31126427
  0
VERTEX
  8
0
 10
0.08017148
 20
5.37918681
  0
VERTEX
  8
0
 10
0.04599715
 20
5.51547507
  0
VERTEX
  8
0
 10
0.02844490
 20
5.58344145
  0
VERTEX
  8
0
 10
0.00983586
 20
5.65102310
  0
VERTEX
  8
0
 10
0.06062294
 20
5.67004284
  0
VERTEX
  8
0
 10
0.11166083
 20
5.68836617
  0
VERTEX
  8
0
 10
0.21432344
 20
5.72333269
  0
VERTEX
  8
0
 10
0.31749253
 20
5.75674081
  0
VERTEX
  8
0
 10
0.42083694
 20
5.78940870
  0
VERTEX
  8
0
 10
0.41834634
 20
5.83235997
  0
VERTEX
  8
0
 10
0.41711951
 20
5.87533803
  0
VERTEX
  8
0
 10
0.41665524
 20
5.96132580
  0
VERTEX
  8
0
 10
0.41584033
 20
6.04727460
  0
VERTEX
  8
0
 10
0.41417520
 20
6.09020396
  0
VERTEX
  8
0
 10
0.41107099
 20
6.13308705
  0
VERTEX
  8
0
 10
0.38651265
 20
6.14406467
  0
VERTEX
  8
0
 10
0.36163898
 20
6.15422808
  0
VERTEX
  8
0
 10
0.31108687
 20
6.17247877
  0
VERTEX
  8
0
 10
0.25969713
 20
6.18857205
  0
VERTEX
  8
0
 10
0.20775220
 20
6.20324087
  0
VERTEX
  8
0
 10
0.10332665
 20
6.23123681
  0
VERTEX
  8
0
 10
0.05141095
 20
6.24602980
  0
VERTEX
  8
0
 10
0.00006991
 20
6.26233006
  0
VERTEX
  8
0
 10
0.01096488
 20
6.33210320
  0
VERTEX
  8
0
 10
0.02427050
 20
6.40142344
  0
VERTEX
  8
0
 10
0.03920270
 20
6.47044173
  0
VERTEX
  8
0
 10
0.05497741
 20
6.53930905
  0
VERTEX
  8
0
 10
0.07081055
 20
6.60817638
  0
VERTEX
  8
0
 10
0.08591807
 20
6.67719467
  0
VERTEX
  8
0
 10
0.09951589
 20
6.74651490
  0
VERTEX
  8
0
 10
0.11081994
 20
6.81628804
  0
VERTEX
  8
0
 10
0.13905132
 20
6.81474324
  0
VERTEX
  8
0
 10
0.16718560
 20
6.81237419
  0
VERTEX
  8
0
 10
0.22322253
 20
6.80566497
  0
VERTEX
  8
0
 10
0.27905005
 20
6.79716360
  0
VERTEX
  8
0
 10
0.33478748
 20
6.78787328
  0
VERTEX
  8
0
 10
0.39055413
 20
6.77879725
  0
VERTEX
  8
0
 10
0.44646931
 20
6.77093871
  0
VERTEX
  8
0
 10
0.50265234
 20
6.76530088
  0
VERTEX
  8
0
 10
0.53088159
 20
6.76362824
  0
VERTEX
  8
0
 10
0.55922254
 20
6.76288699
  0
VERTEX
  8
0
 10
0.57450578
 20
6.80354978
  0
VERTEX
  8
0
 10
0.59102357
 20
6.84371582
  0
VERTEX
  8
0
 10
0.60872476
 20
6.88337539
  0
VERTEX
  8
0
 10
0.62755822
 20
6.92251873
  0
VERTEX
  8
0
 10
0.64747282
 20
6.96113612
  0
VERTEX
  8
0
 10
0.66841743
 20
6.99921781
  0
VERTEX
  8
0
 10
0.69034090
 20
7.03675406
  0
VERTEX
  8
0
 10
0.71319211
 20
7.07373513
  0
VERTEX
  8
0
 10
0.72655211
 20
7.09628967
  0
VERTEX
  8
0
 10
0.73965887
 20
7.11921433
  0
VERTEX
  8
0
 10
0.74530765
 20
7.13102852
  0
VERTEX
  8
0
 10
0.74992156
 20
7.14319091
  0
VERTEX
  8
0
 10
0.75317674
 20
7.15578673
  0
VERTEX
  8
0
 10
0.75474934
 20
7.16890121
  0
VERTEX
  8
0
 10
0.74047693
 20
7.18822699
  0
VERTEX
  8
0
 10
0.72560977
 20
7.20705635
  0
VERTEX
  8
0
 10
0.69441992
 20
7.24349969
  0
VERTEX
  8
0
 10
0.66183726
 20
7.27877911
  0
VERTEX
  8
0
 10
0.62851923
 20
7.31344247
  0
VERTEX
  8
0
 10
0.59512329
 20
7.34803766
  0
VERTEX
  8
0
 10
0.56230687
 20
7.38311253
  0
VERTEX
  8
0
 10
0.53072742
 20
7.41921498
  0
VERTEX
  8
0
 10
0.51560702
 20
7.43782275
  0
VERTEX
  8
0
 10
0.50104241
 20
7.45689286
  0
VERTEX
  8
0
 10
0.49671420
 20
7.46514120
  0
VERTEX
  8
0
 10
0.49400040
 20
7.47328362
  0
VERTEX
  8
0
 10
0.49276221
 20
7.48131160
  0
VERTEX
  8
0
 10
0.49286083
 20
7.48921660
  0
VERTEX
  8
0
 10
0.49415746
 20
7.49699012
  0
VERTEX
  8
0
 10
0.49651332
 20
7.50462362
  0
VERTEX
  8
0
 10
0.49978960
 20
7.51210859
  0
VERTEX
  8
0
 10
0.50384752
 20
7.51943651
  0
VERTEX
  8
0
 10
0.51375308
 20
7.53358707
  0
VERTEX
  8
0
 10
0.52511963
 20
7.54700714
  0
VERTEX
  8
0
 10
0.54779430
 20
7.57138305
  0
VERTEX
  8
0
 10
0.58824889
 20
7.61078654
  0
VERTEX
  8
0
 10
0.62816535
 20
7.65070868
  0
VERTEX
  8
0
 10
0.70672476
 20
7.73176802
  0
VERTEX
  8
0
 10
0.78415434
 20
7.81387927
  0
VERTEX
  8
0
 10
0.86113587
 20
7.89636065
  0
VERTEX
  8
0
 10
0.90447106
 20
7.86377921
  0
VERTEX
  8
0
 10
0.94713663
 20
7.83035282
  0
VERTEX
  8
0
 10
1.03097511
 20
7.76163728
  0
VERTEX
  8
0
 10
1.19629499
 20
7.62145952
  0
VERTEX
  8
0
 10
1.24521768
 20
7.65050373
  0
VERTEX
  8
0
 10
1.29368503
 20
7.68040262
  0
VERTEX
  8
0
 10
1.39039327
 20
7.74065088
  0
VERTEX
  8
0
 10
1.43920395
 20
7.76994345
  0
VERTEX
  8
0
 10
1.48869886
 20
7.79797714
  0
VERTEX
  8
0
 10
1.53916290
 20
7.82422354
  0
VERTEX
  8
0
 10
1.56484738
 20
7.83651138
  0
VERTEX
  8
0
 10
1.59088097
 20
7.84815426
  0
VERTEX
  8
0
 10
1.58507675
 20
7.90280040
  0
VERTEX
  8
0
 10
1.57705669
 20
7.95708617
  0
VERTEX
  8
0
 10
1.56735162
 20
8.01109921
  0
VERTEX
  8
0
 10
1.55649235
 20
8.06492720
  0
VERTEX
  8
0
 10
1.53343458
 20
8.17237863
  0
VERTEX
  8
0
 10
1.52229773
 20
8.22617740
  0
VERTEX
  8
0
 10
1.51213000
 20
8.28014174
  0
SEQEND
  0
POLYLINE
  8
Default_Layer
 66
   1
 39
0.000000
 70
    1
  0
VERTEX
  8
0
 10
2.82471536
 20
7.55018886
  0
VERTEX
  8
0
 10
2.85209849
 20
7.53057214
  0
VERTEX
  8
0
 10
2.88085009
 20
7.51325162
  0
VERTEX
  8
0
 10
2.91081919
 20
7.49834174
  0
VERTEX
  8
0
 10
2.94185482
 20
7.48595696
  0
VERTEX
  8
0
 10
2.97380600
 20
7.47621170
  0
VERTEX
  8
0
 10
3.00652178
 20
7.46922043
  0
VERTEX
  8
0
 10
3.03985117
 20
7.46509758
  0
VERTEX
  8
0
 10
3.05669879
 20
7.46414757
  0
VERTEX
  8
0
 10
3.07364321
 20
7.46395759
  0
VERTEX
  8
0
 10
3.04562089
 20
7.48214254
  0
VERTEX
  8
0
 10
3.01636890
 20
7.49797284
  0
VERTEX
  8
0
 10
2.98606011
 20
7.51156782
  0
VERTEX
  8
0
 10
2.95486743
 20
7.52304679
  0
VERTEX
  8
0
 10
2.92296373
 20
7.53252906
  0
VERTEX
  8
0
 10
2.89052189
 20
7.54013396
  0
VERTEX
  8
0
 10
2.85771481
 20
7.54598079
  0
VERTEX
  8
0
 10
2.82471536
 20
7.55018886
  0
SEQEND
  0
POLYLINE
  8
Default_Layer
 66
   1
 39
0.000000
 70
    1
  0
VERTEX
  8
0
 10
3.19997721
 20
7.30313108
  0
VERTEX
  8
0
 10
3.22369528
 20
7.28062565
  0
VERTEX
  8
0
 10
3.24646613
 20
7.25714865
  0
VERTEX
  8
0
 10
3.29059796
 20
7.20877018
  0
VERTEX
  8
0
 10
3.31267484
 20
7.18461382
  0
VERTEX
  8
0
 10
3.33523628
 20
7.16097611
  0
VERTEX
  8
0
 10
3.35864023
 20
7.13822961
  0
VERTEX
  8
0
 10
3.38324463
 20
7.11674687
  0
VERTEX
  8
0
 10
3.40646798
 20
7.11289349
  0
VERTEX
  8
0
 10
3.42982770
 20
7.11077627
  0
VERTEX
  8
0
 10
3.45328481
 20
7.11006646
  0
VERTEX
  8
0
 10
3.47680036
 20
7.11043537
  0
VERTEX
  8
0
 10
3.52385095
 20
7.11309438
  0
VERTEX
  8
0
 10
3.57066777
 20
7.11612351
  0
VERTEX
  8
0
 10
3.53528406
 20
7.15302748
  0
VERTEX
  8
0
 10
3.49864389
 20
7.18858245
  0
VERTEX
  8
0
 10
3.46075700
 20
7.22272513
  0
VERTEX
  8
0
 10
3.42163313
 20
7.25539221
  0
VERTEX
  8
0
 10
3.38128203
 20
7.28652036
  0
VERTEX
  8
0
 10
3.33971342
 20
7.31604629
  0
VERTEX
  8
0
 10
3.29693707
 20
7.34390669
  0
VERTEX
  8
0
 10
3.25296269
 20
7.37003824
  0
VERTEX
  8
0
 10
3.23878128
 20
7.35414909
  0
VERTEX
  8
0
 10
3.22522323
 20
7.33767554
  0
VERTEX
  8
0
 10
3.21228854
 20
7.32065655
  0
VERTEX
  8
0
 10
3.19997721
 20
7.30313108
  0
SEQEND
  0
POLYLINE
  8
Default_Layer
 66
   1
 39
0.000000
 70
    1
  0
VERTEX
  8
0
 10
1.52459717
 20
7.32162405
  0
VERTEX
  8
0
 10
1.49070854
 20
7.30036371
  0
VERTEX
  8
0
 10
1.45814455
 20
7.27726495
  0
VERTEX
  8
0
 10
1.42676884
 20
7.25257370
  0
VERTEX
  8
0
 10
1.39644504
 20
7.22653590
  0
VERTEX
  8
0
 10
1.36703680
 20
7.19939748
  0
VERTEX
  8
0
 10
1.33840776
 20
7.17140438
  0
VERTEX
  8
0
 10
1.28294184
 20
7.11383786
  0
VERTEX
  8
0
 10
1.33183977
 20
7.11172104
  0
VERTEX
  8
0
 10
1.38099094
 20
7.10983798
  0
VERTEX
  8
0
 10
1.40552148
 20
7.10990941
  0
VERTEX
  8
0
 10
1.42994732
 20
7.11114963
  0
VERTEX
  8
0
 10
1.45421244
 20
7.11392877
  0
VERTEX
  8
0
 10
1.47826085
 20
7.11861695
  0
VERTEX
  8
0
 10
1.50226543
 20
7.13969548
  0
VERTEX
  8
0
 10
1.52458743
 20
7.16237867
  0
VERTEX
  8
0
 10
1.54549227
 20
7.18638162
  0
VERTEX
  8
0
 10
1.56524535
 20
7.21141945
  0
VERTEX
  8
0
 10
1.58411209
 20
7.23720726
  0
VERTEX
  8
0
 10
1.60235791
 20
7.26346015
  0
VERTEX
  8
0
 10
1.63804843
 20
7.31622161
  0
VERTEX
  8
0
 10
1.62397782
 20
7.31892527
  0
VERTEX
  8
0
 10
1.60959796
 20
7.32273441
  0
VERTEX
  8
0
 10
1.59504765
 20
7.32680653
  0
VERTEX
  8
0
 10
1.58046568
 20
7.33029913
  0
VERTEX
  8
0
 10
1.56599086
 20
7.33236968
  0
VERTEX
  8
0
 10
1.55176197
 20
7.33217570
  0
VERTEX
  8
0
 10
1.54478312
 20
7.33096621
  0
VERTEX
  8
0
 10
1.53791781
 20
7.32887466
  0
VERTEX
  8
0
 10
1.53118338
 20
7.32579571
  0
VERTEX
  8
0
 10
1.52459717
 20
7.32162405
  0
SEQEND
  0
POLYLINE
  8
Default_Layer
 66
   1
 39
0.000000
 70
    1
  0
VERTEX
  8
0
 10
1.76230457
 20
7.27133980
  0
VERTEX
  8
0
 10
1.74955946
 20
7.26517089
  0
VERTEX
  8
0
 10
1.73732843
 20
7.25830892
  0
VERTEX
  8
0
 10
1.72558014
 20
7.25080594
  0
VERTEX
  8
0
 10
1.71428324
 20
7.24271400
  0
VERTEX
  8
0
 10
1.69291819
 20
7.22497142
  0
VERTEX
  8
0
 10
1.67298248
 20
7.20549755
  0
VERTEX
  8
0
 10
1.65422532
 20
7.18470878
  0
VERTEX
  8
0
 10
1.63639588
 20
7.16302151
  0
VERTEX
  8
0
 10
1.60251699
 20
7.11861695
  0
VERTEX
  8
0
 10
1.65996338
 20
7.11385085
  0
VERTEX
  8
0
 10
1.71768249
 20
7.11009771
  0
VERTEX
  8
0
 10
1.74653474
 20
7.10945325
  0
VERTEX
  8
0
 10
1.77532368
 20
7.11008473
  0
VERTEX
  8
0
 10
1.80400548
 20
7.11233304
  0
VERTEX
  8
0
 10
1.83253630
 20
7.11653909
  0
VERTEX
  8
0
 10
1.84253744
 20
7.12374165
  0
VERTEX
  8
0
 10
1.85177763
 20
7.13159587
  0
VERTEX
  8
0
 10
1.86031898
 20
7.14004241
  0
VERTEX
  8
0
 10
1.86822358
 20
7.14902191
  0
VERTEX
  8
0
 10
1.88237090
 20
7.16834237
  0
VERTEX
  8
0
 10
1.89471632
 20
7.18908244
  0
VERTEX
  8
0
 10
1.90575659
 20
7.21076728
  0
VERTEX
  8
0
 10
1.91598843
 20
7.23292208
  0
VERTEX
  8
0
 10
1.93601383
 20
7.27674224
  0
VERTEX
  8
0
 10
1.89250859
 20
7.27776818
  0
VERTEX
  8
0
 10
1.84884752
 20
7.27887205
  0
VERTEX
  8
0
 10
1.82705594
 20
7.27867400
  0
VERTEX
  8
0
 10
1.80534229
 20
7.27756040
  0
VERTEX
  8
0
 10
1.78374551
 20
7.27521955
  0
VERTEX
  8
0
 10
1.76230457
 20
7.27133980
  0
SEQEND
  0
POLYLINE
  8
Default_Layer
 66
   1
 39
0.000000
 70
    1
  0
VERTEX
  8
0
 10
0.95609416
 20
6.60164491
  0
VERTEX
  8
0
 10
1.22476170
 20
6.60413834
  0
VERTEX
  8
0
 10
1.24501396
 20
6.65879747
  0
VERTEX
  8
0
 10
1.26592609
 20
6.71325207
  0
VERTEX
  8
0
 10
1.28780736
 20
6.76731706
  0
VERTEX
  8
0
 10
1.31096700
 20
6.82080739
  0
VERTEX
  8
0
 10
1.33571425
 20
6.87353801
  0
VERTEX
  8
0
 10
1.36235837
 20
6.92532385
  0
VERTEX
  8
0
 10
1.39120859
 20
6.97597985
  0
VERTEX
  8
0
 10
1.40655762
 20
7.00082633
  0
VERTEX
  8
0
 10
1.42257415
 20
7.02532095
  0
VERTEX
  8
0
 10
1.36722835
 20
7.02785984
  0
VERTEX
  8
0
 10
1.31174620
 20
7.03004808
  0
VERTEX
  8
0
 10
1.28405747
 20
7.03007325
  0
VERTEX
  8
0
 10
1.25645884
 20
7.02888578
  0
VERTEX
  8
0
 10
1.22899169
 20
7.02611070
  0
VERTEX
  8
0
 10
1.20169744
 20
7.02137301
  0
VERTEX
  8
0
 10
1.18157388
 20
6.99855661
  0
VERTEX
  8
0
 10
1.16203990
 20
6.97516250
  0
VERTEX
  8
0
 10
1.14310553
 20
6.95121687
  0
VERTEX
  8
0
 10
1.12478083
 20
6.92674588
  0
VERTEX
  8
0
 10
1.10707584
 20
6.90177572
  0
VERTEX
  8
0
 10
1.09000059
 20
6.87633257
  0
VERTEX
  8
0
 10
1.07356514
 20
6.85044259
  0
VERTEX
  8
0
 10
1.05777953
 20
6.82413197
  0
VERTEX
  8
0
 10
1.04265380
 20
6.79742688
  0
VERTEX
  8
0
 10
1.02819800
 20
6.77035350
  0
VERTEX
  8
0
 10
1.01442217
 20
6.74293800
  0
VERTEX
  8
0
 10
1.00133636
 20
6.71520656
  0
VERTEX
  8
0
 10
0.98895061
 20
6.68718535
  0
VERTEX
  8
0
 10
0.97727496
 20
6.65890056
  0
VERTEX
  8
0
 10
0.96631946
 20
6.63037835
  0
VERTEX
  8
0
 10
0.95609416
 20
6.60164491
  0
SEQEND
  0
POLYLINE
  8
Default_Layer
 66
   1
 39
0.000000
 70
    1
  0
VERTEX
  8
0
 10
1.51213000
 20
7.00204890
  0
VERTEX
  8
0
 10
1.48211261
 20
6.95533312
  0
VERTEX
  8
0
 10
1.45389468
 20
6.90750943
  0
VERTEX
  8
0
 10
1.42742507
 20
6.85867764
  0
VERTEX
  8
0
 10
1.40265265
 20
6.80893761
  0
VERTEX
  8
0
 10
1.37952629
 20
6.75838915
  0
VERTEX
  8
0
 10
1.35799486
 20
6.70713211
  0
VERTEX
  8
0
 10
1.33800720
 20
6.65526633
  0
VERTEX
  8
0
 10
1.31951220
 20
6.60289163
  0
VERTEX
  8
0
 10
1.53394755
 20
6.60273579
  0
VERTEX
  8
0
 10
1.74838290
 20
6.60289163
  0
VERTEX
  8
0
 10
1.75547330
 20
6.62890264
  0
VERTEX
  8
0
 10
1.76176319
 20
6.65503297
  0
VERTEX
  8
0
 10
1.77228480
 20
6.70760288
  0
VERTEX
  8
0
 10
1.78063440
 20
6.76050394
  0
VERTEX
  8
0
 10
1.78749865
 20
6.81363877
  0
VERTEX
  8
0
 10
1.79951778
 20
6.92022010
  0
VERTEX
  8
0
 10
1.80604600
 20
6.97347180
  0
VERTEX
  8
0
 10
1.81383555
 20
7.02656767
  0
VERTEX
  8
0
 10
1.70059207
 20
7.02950265
  0
VERTEX
  8
0
 10
1.64395086
 20
7.03010328
  0
VERTEX
  8
0
 10
1.58734860
 20
7.02885331
  0
VERTEX
  8
0
 10
1.56680050
 20
7.02723648
  0
VERTEX
  8
0
 10
1.55611615
 20
7.02621621
  0
VERTEX
  8
0
 10
1.54560955
 20
7.02448980
  0
VERTEX
  8
0
 10
1.53561918
 20
7.02163356
  0
VERTEX
  8
0
 10
1.52648348
 20
7.01722378
  0
VERTEX
  8
0
 10
1.51854094
 20
7.01083679
  0
VERTEX
  8
0
 10
1.51512286
 20
7.00676944
  0
VERTEX
  8
0
 10
1.51213000
 20
7.00204890
  0
SEQEND
  0
POLYLINE
  8
Default_Layer
 66
   1
 39
0.000000
 70
    1
  0
VERTEX
  8
0
 10
3.08382473
 20
7.02656767
  0
VERTEX
  8
0
 10
3.07388270
 20
7.00041958
  0
VERTEX
  8
0
 10
3.06643928
 20
6.97411870
  0
VERTEX
  8
0
 10
3.06129023
 20
6.94768754
  0
VERTEX
  8
0
 10
3.05823132
 20
6.92114864
  0
VERTEX
  8
0
 10
3.05705831
 20
6.89452451
  0
VERTEX
  8
0
 10
3.05756697
 20
6.86783769
  0
VERTEX
  8
0
 10
3.05955306
 20
6.84111068
  0
VERTEX
  8
0
 10
3.06281236
 20
6.81436602
  0
VERTEX
  8
0
 10
3.06714061
 20
6.78762623
  0
VERTEX
  8
0
 10
3.07233359
 20
6.76091383
  0
VERTEX
  8
0
 10
3.08449679
 20
6.70766132
  0
VERTEX
  8
0
 10
3.09766808
 20
6.65478866
  0
VERTEX
  8
0
 10
3.11021358
 20
6.60247605
  0
VERTEX
  8
0
 10
3.21755463
 20
6.60307993
  0
VERTEX
  8
0
 10
3.32485671
 20
6.60294357
  0
VERTEX
  8
0
 10
3.53949985
 20
6.60185270
  0
VERTEX
  8
0
 10
3.51855402
 20
6.65730158
  0
VERTEX
  8
0
 10
3.49609851
 20
6.71206379
  0
VERTEX
  8
0
 10
3.47216251
 20
6.76613446
  0
VERTEX
  8
0
 10
3.44677526
 20
6.81950873
  0
VERTEX
  8
0
 10
3.41996597
 20
6.87218172
  0
VERTEX
  8
0
 10
3.39176387
 20
6.92414855
  0
VERTEX
  8
0
 10
3.36219816
 20
6.97540438
  0
VERTEX
  8
0
 10
3.33129808
 20
7.02594431
  0
VERTEX
  8
0
 10
3.20756141
 20
7.02765854
  0
VERTEX
  8
0
 10
3.08382473
 20
7.02656767
  0
SEQEND
  0
POLYLINE
  8
Default_Layer
 66
   1
 39
0.000000
 70
    1
  0
VERTEX
  8
0
 10
3.43747683
 20
7.02594431
  0
VERTEX
  8
0
 10
3.46645813
 20
6.97518360
  0
VERTEX
  8
0
 10
3.49381286
 20
6.92362909
  0
VERTEX
  8
0
 10
3.51968711
 20
6.87136356
  0
VERTEX
  8
0
 10
3.54422698
 20
6.81846980
  0
VERTEX
  8
0
 10
3.56757858
 20
6.76503060
  0
VERTEX
  8
0
 10
3.58988800
 20
6.71112875
  0
VERTEX
  8
0
 10
3.61130134
 20
6.65684704
  0
VERTEX
  8
0
 10
3.63196470
 20
6.60226827
  0
VERTEX
  8
0
 10
3.76518162
 20
6.60265787
  0
VERTEX
  8
0
 10
3.89855438
 20
6.60226827
  0
VERTEX
  8
0
 10
3.89035783
 20
6.62765719
  0
VERTEX
  8
0
 10
3.88137996
 20
6.65271526
  0
VERTEX
  8
0
 10
3.87166245
 20
6.67745252
  0
VERTEX
  8
0
 10
3.86124702
 20
6.70187902
  0
VERTEX
  8
0
 10
3.83848916
 20
6.74983989
  0
VERTEX
  8
0
 10
3.81343996
 20
6.79667822
  0
VERTEX
  8
0
 10
3.78643303
 20
6.84247438
  0
VERTEX
  8
0
 10
3.75780196
 20
6.88730871
  0
VERTEX
  8
0
 10
3.72788035
 20
6.93126158
  0
VERTEX
  8
0
 10
3.69700178
 20
6.97441333
  0
VERTEX
  8
0
 10
3.68609280
 20
6.98979605
  0
VERTEX
  8
0
 10
3.67379953
 20
7.00230579
  0
VERTEX
  8
0
 10
3.66026684
 20
7.01221069
  0
VERTEX
  8
0
 10
3.64563963
 20
7.01977890
  0
VERTEX
  8
0
 10
3.63006277
 20
7.02527859
  0
VERTEX
  8
0
 10
3.61368114
 20
7.02897790
  0
VERTEX
  8
0
 10
3.59663963
 20
7.03114500
  0
VERTEX
  8
0
 10
3.57908311
 20
7.03204803
  0
VERTEX
  8
0
 10
3.56115648
 20
7.03195514
  0
VERTEX
  8
0
 10
3.54300461
 20
7.03113450
  0
VERTEX
  8
0
 10
3.50660469
 20
7.02838255
  0
VERTEX
  8
0
 10
3.47104241
 20
7.02593741
  0
VERTEX
  8
0
 10
3.45393759
 20
7.02550028
  0
VERTEX
  8
0
 10
3.43747683
 20
7.02594431
  0
SEQEND
  0
POLYLINE
  8
Default_Layer
 66
   1
 39
0.000000
 70
    1
  0
VERTEX
  8
0
 10
2.88372663
 20
6.81088560
  0
VERTEX
  8
0
 10
2.88286221
 20
6.78893291
  0
VERTEX
  8
0
 10
2.88117476
 20
6.76644208
  0
VERTEX
  8
0
 10
2.87955549
 20
6.74371263
  0
VERTEX
  8
0
 10
2.87889560
 20
6.72104405
  0
VERTEX
  8
0
 10
2.88008632
 20
6.69873585
  0
VERTEX
  8
0
 10
2.88165415
 20
6.68781048
  0
VERTEX
  8
0
 10
2.88401883
 20
6.67708753
  0
VERTEX
  8
0
 10
2.88729177
 20
6.66660442
  0
VERTEX
  8
0
 10
2.89158436
 20
6.65639860
  0
VERTEX
  8
0
 10
2.89700801
 20
6.64650750
  0
VERTEX
  8
0
 10
2.90367411
 20
6.63696856
  0
VERTEX
  8
0
 10
2.90820391
 20
6.63077556
  0
VERTEX
  8
0
 10
2.91326393
 20
6.62539098
  0
VERTEX
  8
0
 10
2.91879999
 20
6.62073689
  0
VERTEX
  8
0
 10
2.92475791
 20
6.61673538
  0
VERTEX
  8
0
 10
2.93772263
 20
6.61037842
  0
VERTEX
  8
0
 10
2.95172466
 20
6.60569674
  0
VERTEX
  8
0
 10
2.98110693
 20
6.59886577
  0
VERTEX
  8
0
 10
2.99562031
 20
6.59546976
  0
VERTEX
  8
0
 10
3.00943728
 20
6.59125560
  0
VERTEX
  8
0
 10
3.00778067
 20
6.62116626
  0
VERTEX
  8
0
 10
3.00475560
 20
6.65089673
  0
VERTEX
  8
0
 10
3.00047406
 20
6.68044214
  0
VERTEX
  8
0
 10
2.99504808
 20
6.70979762
  0
VERTEX
  8
0
 10
2.98858967
 20
6.73895830
  0
VERTEX
  8
0
 10
2.98121082
 20
6.76791931
  0
VERTEX
  8
0
 10
2.97302356
 20
6.79667579
  0
VERTEX
  8
0
 10
2.96413989
 20
6.82522285
  0
VERTEX
  8
0
 10
2.88372663
 20
6.81088560
  0
SEQEND
  0
POLYLINE
  8
Default_Layer
 66
   1
 39
0.000000
 70
    1
  0
VERTEX
  8
0
 10
2.49724432
 20
6.66522748
  0
VERTEX
  8
0
 10
2.48498494
 20
6.60829407
  0
VERTEX
  8
0
 10
2.56138208
 20
6.60382666
  0
VERTEX
  8
0
 10
2.63783765
 20
6.60122934
  0
VERTEX
  8
0
 10
2.71433219
 20
6.60034625
  0
VERTEX
  8
0
 10
2.79084621
 20
6.60102155
  0
VERTEX
  8
0
 10
2.77858682
 20
6.64424108
  0
VERTEX
  8
0
 10
2.74331674
 20
6.64581611
  0
VERTEX
  8
0
 10
2.70797848
 20
6.64667283
  0
VERTEX
  8
0
 10
2.63729221
 20
6.64826694
  0
VERTEX
  8
0
 10
2.60204161
 20
6.65002216
  0
VERTEX
  8
0
 10
2.56691763
 20
6.65309472
  0
VERTEX
  8
0
 10
2.53196897
 20
6.65799352
  0
VERTEX
  8
0
 10
2.49724432
 20
6.66522748
  0
SEQEND
  0
POLYLINE
  8
Default_Layer
 66
   1
 39
0.000000
 70
    1
  0
VERTEX
  8
0
 10
1.84625019
 20
6.67000657
  0
VERTEX
  8
0
 10
1.84396455
 20
6.59665804
  0
VERTEX
  8
0
 10
1.92645566
 20
6.60600842
  0
VERTEX
  8
0
 10
1.88604125
 20
6.63769581
  0
VERTEX
  8
0
 10
1.84625019
 20
6.67000657
  0
SEQEND
  0
POLYLINE
  8
Default_Layer
 66
   1
 39
0.000000
 70
    1
  0
VERTEX
  8
0
 10
0.91619921
 20
6.51894601
  0
VERTEX
  8
0
 10
0.90043871
 20
6.46296305
  0
VERTEX
  8
0
 10
0.88580074
 20
6.40660510
  0
VERTEX
  8
0
 10
0.87262864
 20
6.34988678
  0
VERTEX
  8
0
 10
0.86126574
 20
6.29282269
  0
VERTEX
  8
0
 10
0.85205537
 20
6.23542743
  0
VERTEX
  8
0
 10
0.84534088
 20
6.17771563
  0
VERTEX
  8
0
 10
0.84302687
 20
6.14874559
  0
VERTEX
  8
0
 10
0.84146558
 20
6.11970189
  0
VERTEX
  8
0
 10
0.84069993
 20
6.09058636
  0
VERTEX
  8
0
 10
0.84077283
 20
6.06140082
  0
VERTEX
  8
0
 10
0.99006720
 20
6.06319297
  0
VERTEX
  8
0
 10
1.06471439
 20
6.06330011
  0
VERTEX
  8
0
 10
1.13936158
 20
6.06264754
  0
VERTEX
  8
0
 10
1.14108596
 20
6.12055982
  0
VERTEX
  8
0
 10
1.14528673
 20
6.17822860
  0
VERTEX
  8
0
 10
1.15144037
 20
6.23570259
  0
VERTEX
  8
0
 10
1.15902335
 20
6.29303047
  0
VERTEX
  8
0
 10
1.17638323
 20
6.40744274
  0
VERTEX
  8
0
 10
1.18511309
 20
6.46462453
  0
VERTEX
  8
0
 10
1.19317820
 20
6.52185501
  0
VERTEX
  8
0
 10
1.05461079
 20
6.52032259
  0
VERTEX
  8
0
 10
0.91619921
 20
6.51894601
  0
SEQEND
  0
POLYLINE
  8
Default_Layer
 66
   1
 39
0.000000
 70
    1
  0
VERTEX
  8
0
 10
1.29042214
 20
6.51853043
  0
VERTEX
  8
0
 10
1.27784012
 20
6.46247767
  0
VERTEX
  8
0
 10
1.26620531
 20
6.40621551
  0
VERTEX
  8
0
 10
1.25564677
 20
6.34974880
  0
VERTEX
  8
0
 10
1.24629355
 20
6.29308242
  0
VERTEX
  8
0
 10
1.23827470
 20
6.23622124
  0
VERTEX
  8
0
 10
1.23171929
 20
6.17917013
  0
VERTEX
  8
0
 10
1.22675637
 20
6.12193397
  0
VERTEX
  8
0
 10
1.22351499
 20
6.06451761
  0
VERTEX
  8
0
 10
1.34289140
 20
6.06290727
  0
VERTEX
  8
0
 10
1.46228729
 20
6.06238780
  0
VERTEX
  8
0
 10
1.58172214
 20
6.06288130
  0
VERTEX
  8
0
 10
1.70121543
 20
6.06430983
  0
VERTEX
  8
0
 10
1.70287407
 20
6.12155370
  0
VERTEX
  8
0
 10
1.70552375
 20
6.17875132
  0
VERTEX
  8
0
 10
1.71292938
 20
6.29305645
  0
VERTEX
  8
0
 10
1.72169861
 20
6.40732262
  0
VERTEX
  8
0
 10
1.73009771
 20
6.52164723
  0
VERTEX
  8
0
 10
1.62022752
 20
6.51984533
  0
VERTEX
  8
0
 10
1.51033785
 20
6.51969923
  0
VERTEX
  8
0
 10
1.40040921
 20
6.51974793
  0
VERTEX
  8
0
 10
1.29042214
 20
6.51853043
  0
SEQEND
  0
POLYLINE
  8
Default_Layer
 66
   1
 39
0.000000
 70
    1
  0
VERTEX
  8
0
 10
3.11499266
 20
6.52330952
  0
VERTEX
  8
0
 10
3.11858671
 20
6.50383687
  0
VERTEX
  8
0
 10
3.12138209
 20
6.48394053
  0
VERTEX
  8
0
 10
3.12714815
 20
6.44398714
  0
VERTEX
  8
0
 10
3.13140452
 20
6.42448527
  0
VERTEX
  8
0
 10
3.13743357
 20
6.40567007
  0
VERTEX
  8
0
 10
3.14131373
 20
6.39660671
  0
VERTEX
  8
0
 10
3.14587813
 20
6.38781912
  0
VERTEX
  8
0
 10
3.15120712
 20
6.37934199
  0
VERTEX
  8
0
 10
3.15738104
 20
6.37121003
  0
VERTEX
  8
0
 10
3.17822865
 20
6.34543805
  0
VERTEX
  8
0
 10
3.19999669
 20
6.32032838
  0
VERTEX
  8
0
 10
3.22276795
 20
6.29611480
  0
VERTEX
  8
0
 10
3.24662521
 20
6.27303105
  0
VERTEX
  8
0
 10
3.27165127
 20
6.25131090
  0
VERTEX
  8
0
 10
3.29792892
 20
6.23118811
  0
VERTEX
  8
0
 10
3.32554095
 20
6.21289643
  0
VERTEX
  8
0
 10
3.35457014
 20
6.19666963
  0
VERTEX
  8
0
 10
3.37009140
 20
6.18767699
  0
VERTEX
  8
0
 10
3.38600592
 20
6.18001264
  0
VERTEX
  8
0
 10
3.40227350
 20
6.17354388
  0
VERTEX
  8
0
 10
3.41885399
 20
6.16813799
  0
VERTEX
  8
0
 10
3.43570719
 20
6.16366226
  0
VERTEX
  8
0
 10
3.45279294
 20
6.15998400
  0
VERTEX
  8
0
 10
3.48750135
 20
6.15448903
  0
VERTEX
  8
0
 10
3.52265780
 20
6.15059142
  0
VERTEX
  8
0
 10
3.55794087
 20
6.14722950
  0
VERTEX
  8
0
 10
3.59302914
 20
6.14334163
  0
VERTEX
  8
0
 10
3.62760119
 20
6.13786614
  0
VERTEX
  8
0
 10
3.62282738
 20
6.18627991
  0
VERTEX
  8
0
 10
3.61718915
 20
6.23457437
  0
VERTEX
  8
0
 10
3.61062076
 20
6.28272761
  0
VERTEX
  8
0
 10
3.60305645
 20
6.33071769
  0
VERTEX
  8
0
 10
3.59443048
 20
6.37852272
  0
VERTEX
  8
0
 10
3.58467711
 20
6.42612077
  0
VERTEX
  8
0
 10
3.57373059
 20
6.47348994
  0
VERTEX
  8
0
 10
3.56152518
 20
6.52060830
  0
VERTEX
  8
0
 10
3.44991153
 20
6.52024142
  0
VERTEX
  8
0
 10
3.33825892
 20
6.51923171
  0
VERTEX
  8
0
 10
3.22660631
 20
6.51958560
  0
VERTEX
  8
0
 10
3.17079218
 20
6.52090090
  0
VERTEX
  8
0
 10
3.11499266
 20
6.52330952
  0
SEQEND
  0
POLYLINE
  8
Default_Layer
 66
   1
 39
0.000000
 70
    1
  0
VERTEX
  8
0
 10
3.65419782
 20
6.52081608
  0
VERTEX
  8
0
 10
3.66703714
 20
6.46431123
  0
VERTEX
  8
0
 10
3.67833024
 20
6.40749469
  0
VERTEX
  8
0
 10
3.68814773
 20
6.35040543
  0
VERTEX
  8
0
 10
3.69656023
 20
6.29308242
  0
VERTEX
  8
0
 10
3.70363835
 20
6.23556460
  0
VERTEX
  8
0
 10
3.70945271
 20
6.17789095
  0
VERTEX
  8
0
 10
3.71407393
 20
6.12010042
  0
VERTEX
  8
0
 10
3.71757261
 20
6.06223196
  0
VERTEX
  8
0
 10
3.86749034
 20
6.06228391
  0
VERTEX
  8
0
 10
4.01740808
 20
6.06140082
  0
VERTEX
  8
0
 10
4.01475434
 20
6.11937438
  0
VERTEX
  8
0
 10
4.00973622
 20
6.17704357
  0
VERTEX
  8
0
 10
4.00256070
 20
6.23441569
  0
VERTEX
  8
0
 10
3.99343475
 20
6.29149805
  0
VERTEX
  8
0
 10
3.98256534
 20
6.34829795
  0
VERTEX
  8
0
 10
3.97015945
 20
6.40482269
  0
VERTEX
  8
0
 10
3.95642405
 20
6.46107958
  0
VERTEX
  8
0
 10
3.94156612
 20
6.51707593
  0
VERTEX
  8
0
 10
3.79788197
 20
6.51964728
  0
VERTEX
  8
0
 10
3.65419782
 20
6.52081608
  0
SEQEND
  0
POLYLINE
  8
Default_Layer
 66
   1
 39
0.000000
 70
    1
  0
VERTEX
  8
0
 10
1.82941951
 20
6.52247837
  0
VERTEX
  8
0
 10
1.81835774
 20
6.46551695
  0
VERTEX
  8
0
 10
1.80961164
 20
6.40827064
  0
VERTEX
  8
0
 10
1.80290608
 20
6.35078570
  0
VERTEX
  8
0
 10
1.79796588
 20
6.29310839
  0
VERTEX
  8
0
 10
1.79451590
 20
6.23528499
  0
VERTEX
  8
0
 10
1.79228098
 20
6.17736175
  0
VERTEX
  8
0
 10
1.79098597
 20
6.11938493
  0
VERTEX
  8
0
 10
1.79035571
 20
6.06140082
  0
VERTEX
  8
0
 10
1.94603951
 20
6.06283909
  0
VERTEX
  8
0
 10
2.10172331
 20
6.06293324
  0
VERTEX
  8
0
 10
2.41309092
 20
6.06181639
  0
VERTEX
  8
0
 10
2.41190223
 20
6.08398012
  0
VERTEX
  8
0
 10
2.41168511
 20
6.10642874
  0
VERTEX
  8
0
 10
2.41181823
 20
6.15160600
  0
VERTEX
  8
0
 10
2.41099479
 20
6.17404731
  0
VERTEX
  8
0
 10
2.40879559
 20
6.19619886
  0
VERTEX
  8
0
 10
2.40463377
 20
6.21791698
  0
VERTEX
  8
0
 10
2.40163351
 20
6.22856861
  0
VERTEX
  8
0
 10
2.39792252
 20
6.23905801
  0
VERTEX
  8
0
 10
2.39116364
 20
6.25055940
  0
VERTEX
  8
0
 10
2.38334705
 20
6.26046405
  0
VERTEX
  8
0
 10
2.37457899
 20
6.26892352
  0
VERTEX
  8
0
 10
2.36496569
 20
6.27608941
  0
VERTEX
  8
0
 10
2.35461336
 20
6.28211328
  0
VERTEX
  8
0
 10
2.34362824
 20
6.28714671
  0
VERTEX
  8
0
 10
2.33211655
 20
6.29134130
  0
VERTEX
  8
0
 10
2.32018452
 20
6.29484860
  0
VERTEX
  8
0
 10
2.29548434
 20
6.30040769
  0
VERTEX
  8
0
 10
2.27037752
 20
6.30503662
  0
VERTEX
  8
0
 10
2.24571387
 20
6.30994800
  0
VERTEX
  8
0
 10
2.22234319
 20
6.31635447
  0
VERTEX
  8
0
 10
2.20793244
 20
6.31986294
  0
VERTEX
  8
0
 10
2.19497995
 20
6.32511761
  0
VERTEX
  8
0
 10
2.18332226
 20
6.33192641
  0
VERTEX
  8
0
 10
2.17279593
 20
6.34009729
  0
VERTEX
  8
0
 10
2.16323751
 20
6.34943818
  0
VERTEX
  8
0
 10
2.15448355
 20
6.35975703
  0
VERTEX
  8
0
 10
2.14637061
 20
6.37086177
  0
VERTEX
  8
0
 10
2.13873523
 20
6.38256035
  0
VERTEX
  8
0
 10
2.10970035
 20
6.43145179
  0
VERTEX
  8
0
 10
2.10200105
 20
6.44323863
  0
VERTEX
  8
0
 10
2.09379862
 20
6.45446695
  0
VERTEX
  8
0
 10
2.08492961
 20
6.46494468
  0
VERTEX
  8
0
 10
2.07523057
 20
6.47447976
  0
VERTEX
  8
0
 10
2.06265621
 20
6.48562701
  0
VERTEX
  8
0
 10
2.04937053
 20
6.49487406
  0
VERTEX
  8
0
 10
2.03544626
 20
6.50239530
  0
VERTEX
  8
0
 10
2.02095617
 20
6.50836514
  0
VERTEX
  8
0
 10
2.00597299
 20
6.51295800
  0
VERTEX
  8
0
 10
1.99056947
 20
6.51634827
  0
VERTEX
  8
0
 10
1.97481835
 20
6.51871037
  0
VERTEX
  8
0
 10
1.95879239
 20
6.52021870
  0
VERTEX
  8
0
 10
1.92620689
 20
6.52137167
  0
VERTEX
  8
0
 10
1.89339493
 20
6.52120243
  0
VERTEX
  8
0
 10
1.86093849
 20
6.52110625
  0
VERTEX
  8
0
 10
1.82941951
 20
6.52247837
  0
SEQEND
  0
POLYLINE
  8
Default_Layer
 66
   1
 39
0.000000
 70
    1
  0
VERTEX
  8
0
 10
2.48997181
 20
6.51666036
  0
VERTEX
  8
0
 10
2.49204967
 20
6.44081840
  0
VERTEX
  8
0
 10
2.58181330
 20
6.44100021
  0
VERTEX
  8
0
 10
2.62669512
 20
6.44055542
  0
VERTEX
  8
0
 10
2.67157693
 20
6.43915611
  0
VERTEX
  8
0
 10
2.67486184
 20
6.42634941
  0
VERTEX
  8
0
 10
2.67748991
 20
6.41315159
  0
VERTEX
  8
0
 10
2.68136237
 20
6.38590765
  0
VERTEX
  8
0
 10
2.68768036
 20
6.33030212
  0
VERTEX
  8
0
 10
2.69247325
 20
6.30324081
  0
VERTEX
  8
0
 10
2.69579164
 20
6.29017996
  0
VERTEX
  8
0
 10
2.69992027
 20
6.27754066
  0
VERTEX
  8
0
 10
2.70500586
 20
6.26540419
  0
VERTEX
  8
0
 10
2.71119511
 20
6.25385182
  0
VERTEX
  8
0
 10
2.71863472
 20
6.24296481
  0
VERTEX
  8
0
 10
2.72747142
 20
6.23282442
  0
VERTEX
  8
0
 10
2.74870310
 20
6.22706612
  0
VERTEX
  8
0
 10
2.76977985
 20
6.22367250
  0
VERTEX
  8
0
 10
2.79070746
 20
6.22242715
  0
VERTEX
  8
0
 10
2.81149171
 20
6.22311367
  0
VERTEX
  8
0
 10
2.83213839
 20
6.22551564
  0
VERTEX
  8
0
 10
2.85265326
 20
6.22941665
  0
VERTEX
  8
0
 10
2.87304213
 20
6.23460030
  0
VERTEX
  8
0
 10
2.89331077
 20
6.24085017
  0
VERTEX
  8
0
 10
2.93351050
 20
6.25568293
  0
VERTEX
  8
0
 10
2.97329871
 20
6.27218367
  0
VERTEX
  8
0
 10
3.01272168
 20
6.28862110
  0
VERTEX
  8
0
 10
3.05182566
 20
6.30326394
  0
VERTEX
  8
0
 10
3.04460509
 20
6.40933879
  0
VERTEX
  8
0
 10
3.03831956
 20
6.51541364
  0
VERTEX
  8
0
 10
2.90121314
 20
6.51771228
  0
VERTEX
  8
0
 10
2.76414568
 20
6.51977715
  0
VERTEX
  8
0
 10
2.62707822
 20
6.51997195
  0
VERTEX
  8
0
 10
2.55853232
 20
6.51885672
  0
VERTEX
  8
0
 10
2.48997181
 20
6.51666036
  0
SEQEND
  0
POLYLINE
  8
Default_Layer
 66
   1
 39
0.000000
 70
    1
  0
VERTEX
  8
0
 10
2.49101074
 20
6.06327089
  0
VERTEX
  8
0
 10
2.59428047
 20
6.06282935
  0
VERTEX
  8
0
 10
2.69755021
 20
6.06410204
  0
VERTEX
  8
0
 10
2.66017467
 20
6.10641250
  0
VERTEX
  8
0
 10
2.64030836
 20
6.12642816
  0
VERTEX
  8
0
 10
2.62973115
 20
6.13576758
  0
VERTEX
  8
0
 10
2.61859146
 20
6.14451529
  0
VERTEX
  8
0
 10
2.58839753
 20
6.15241442
  0
VERTEX
  8
0
 10
2.55781400
 20
6.15861878
  0
VERTEX
  8
0
 10
2.49641318
 20
6.16944964
  0
VERTEX
  8
0
 10
2.49624110
 20
6.14283677
  0
VERTEX
  8
0
 10
2.49534827
 20
6.11628235
  0
VERTEX
  8
0
 10
2.49363728
 20
6.08976688
  0
VERTEX
  8
0
 10
2.49101074
 20
6.06327089
  0
SEQEND
  0
POLYLINE
  8
Default_Layer
 66
   1
 39
0.000000
 70
    1
  0
VERTEX
  8
0
 10
0.84264290
 20
5.98098756
  0
VERTEX
  8
0
 10
0.84138619
 20
5.95032896
  0
VERTEX
  8
0
 10
0.84123832
 20
5.91975557
  0
VERTEX
  8
0
 10
0.84213931
 20
5.88926985
  0
VERTEX
  8
0
 10
0.84402922
 20
5.85887422
  0
VERTEX
  8
0
 10
0.84684809
 20
5.82857112
  0
VERTEX
  8
0
 10
0.85053594
 20
5.79836298
  0
VERTEX
  8
0
 10
0.85503281
 20
5.76825225
  0
VERTEX
  8
0
 10
0.86027875
 20
5.73824135
  0
VERTEX
  8
0
 10
0.87277799
 20
5.67852879
  0
VERTEX
  8
0
 10
0.88755394
 20
5.61924480
  0
VERTEX
  8
0
 10
0.90412692
 20
5.56040884
  0
VERTEX
  8
0
 10
0.92201723
 20
5.50204040
  0
VERTEX
  8
0
 10
1.05881846
 20
5.50097549
  0
VERTEX
  8
0
 10
1.19546385
 20
5.50224818
  0
VERTEX
  8
0
 10
1.17667219
 20
5.62128370
  0
VERTEX
  8
0
 10
1.16720817
 20
5.68084041
  0
VERTEX
  8
0
 10
1.15842596
 20
5.74047505
  0
VERTEX
  8
0
 10
1.15087099
 20
5.80022657
  0
VERTEX
  8
0
 10
1.14508869
 20
5.86013392
  0
VERTEX
  8
0
 10
1.14162450
 20
5.92023608
  0
VERTEX
  8
0
 10
1.14093215
 20
5.95037238
  0
VERTEX
  8
0
 10
1.14102387
 20
5.98057199
  0
VERTEX
  8
0
 10
1.06649681
 20
5.97911749
  0
VERTEX
  8
0
 10
0.99191130
 20
5.97875386
  0
VERTEX
  8
0
 10
0.91728684
 20
5.97940319
  0
VERTEX
  8
0
 10
0.84264290
 20
5.98098756
  0
SEQEND
  0
POLYLINE
  8
Default_Layer
 66
   1
 39
0.000000
 70
    1
  0
VERTEX
  8
0
 10
1.22870964
 20
5.97974085
  0
VERTEX
  8
0
 10
1.22823629
 20
5.94919805
  0
VERTEX
  8
0
 10
1.22851687
 20
5.91866591
  0
VERTEX
  8
0
 10
1.23125827
 20
5.85767620
  0
VERTEX
  8
0
 10
1.23677069
 20
5.79685694
  0
VERTEX
  8
0
 10
1.24489099
 20
5.73629335
  0
VERTEX
  8
0
 10
1.25545602
 20
5.67607067
  0
VERTEX
  8
0
 10
1.26830265
 20
5.61627410
  0
VERTEX
  8
0
 10
1.28326772
 20
5.55698889
  0
VERTEX
  8
0
 10
1.30018809
 20
5.49830025
  0
VERTEX
  8
0
 10
1.40943492
 20
5.50030344
  0
VERTEX
  8
0
 10
1.51870124
 20
5.50107939
  0
VERTEX
  8
0
 10
1.62800652
 20
5.50072550
  0
VERTEX
  8
0
 10
1.73737023
 20
5.49933918
  0
VERTEX
  8
0
 10
1.72686079
 20
5.61890714
  0
VERTEX
  8
0
 10
1.71703316
 20
5.73855303
  0
VERTEX
  8
0
 10
1.70817952
 20
5.85827683
  0
VERTEX
  8
0
 10
1.70059207
 20
5.97807856
  0
VERTEX
  8
0
 10
1.58262147
 20
5.97971163
  0
VERTEX
  8
0
 10
1.46465086
 20
5.97992266
  0
VERTEX
  8
0
 10
1.22870964
 20
5.97974085
  0
SEQEND
  0
POLYLINE
  8
Default_Layer
 66
   1
 39
0.000000
 70
    1
  0
VERTEX
  8
0
 10
1.79035571
 20
5.98077978
  0
VERTEX
  8
0
 10
1.79202733
 20
5.92066585
  0
VERTEX
  8
0
 10
1.79484584
 20
5.86063715
  0
VERTEX
  8
0
 10
1.79878931
 20
5.80070098
  0
VERTEX
  8
0
 10
1.80383584
 20
5.74086465
  0
VERTEX
  8
0
 10
1.80996350
 20
5.68113545
  0
VERTEX
  8
0
 10
1.81715039
 20
5.62152070
  0
VERTEX
  8
0
 10
1.82537458
 20
5.56202770
  0
VERTEX
  8
0
 10
1.83461417
 20
5.50266376
  0
VERTEX
  8
0
 10
1.97864246
 20
5.50119951
  0
VERTEX
  8
0
 10
2.12270972
 20
5.50030019
  0
VERTEX
  8
0
 10
2.19474578
 20
5.50053111
  0
VERTEX
  8
0
 10
2.26677697
 20
5.50146574
  0
VERTEX
  8
0
 10
2.33879843
 20
5.50329158
  0
VERTEX
  8
0
 10
2.41080527
 20
5.50619612
  0
VERTEX
  8
0
 10
2.41085721
 20
5.74244902
  0
VERTEX
  8
0
 10
2.41074683
 20
5.86057547
  0
VERTEX
  8
0
 10
2.40997412
 20
5.97870192
  0
VERTEX
  8
0
 10
2.25506952
 20
5.97978630
  0
VERTEX
  8
0
 10
2.10016492
 20
5.97974085
  0
VERTEX
  8
0
 10
1.94526031
 20
5.97969539
  0
VERTEX
  8
0
 10
1.79035571
 20
5.98077978
  0
SEQEND
  0
POLYLINE
  8
Default_Layer
 66
   1
 39
0.000000
 70
    1
  0
VERTEX
  8
0
 10
3.72567627
 20
5.98036421
  0
VERTEX
  8
0
 10
3.74001352
 20
5.92491127
  0
VERTEX
  8
0
 10
3.74835094
 20
5.89752570
  0
VERTEX
  8
0
 10
3.75871427
 20
5.87086088
  0
VERTEX
  8
0
 10
3.76516189
 20
5.86085965
  0
VERTEX
  8
0
 10
3.77234821
 20
5.85144343
  0
VERTEX
  8
0
 10
3.78846341
 20
5.83399832
  0
VERTEX
  8
0
 10
3.80611266
 20
5.81779018
  0
VERTEX
  8
0
 10
3.82434874
 20
5.80208366
  0
VERTEX
  8
0
 10
3.84222444
 20
5.78614337
  0
VERTEX
  8
0
 10
3.85879254
 20
5.76923396
  0
VERTEX
  8
0
 10
3.86629025
 20
5.76018603
  0
VERTEX
  8
0
 10
3.87310585
 20
5.75062005
  0
VERTEX
  8
0
 10
3.87912094
 20
5.74044411
  0
VERTEX
  8
0
 10
3.88421713
 20
5.72956628
  0
VERTEX
  8
0
 10
3.88633152
 20
5.71299847
  0
VERTEX
  8
0
 10
3.88634694
 20
5.69692680
  0
VERTEX
  8
0
 10
3.88447281
 20
5.68130682
  0
VERTEX
  8
0
 10
3.88091853
 20
5.66609409
  0
VERTEX
  8
0
 10
3.87589351
 20
5.65124417
  0
VERTEX
  8
0
 10
3.86960717
 20
5.63671263
  0
VERTEX
  8
0
 10
3.86226890
 20
5.62245503
  0
VERTEX
  8
0
 10
3.85408814
 20
5.60842693
  0
VERTEX
  8
0
 10
3.83603671
 20
5.58088146
  0
VERTEX
  8
0
 10
3.81712817
 20
5.55372072
  0
VERTEX
  8
0
 10
3.79903778
 20
5.52658920
  0
VERTEX
  8
0
 10
3.79082292
 20
5.51292330
  0
VERTEX
  8
0
 10
3.78344083
 20
5.49913139
  0
VERTEX
  8
0
 10
3.93283910
 20
5.49954696
  0
VERTEX
  8
0
 10
3.95201712
 20
5.55787604
  0
VERTEX
  8
0
 10
3.96860430
 20
5.61686499
  0
VERTEX
  8
0
 10
3.98265909
 20
5.67643348
  0
VERTEX
  8
0
 10
3.99423992
 20
5.73650114
  0
VERTEX
  8
0
 10
4.00340524
 20
5.79698762
  0
VERTEX
  8
0
 10
4.01021348
 20
5.85781256
  0
VERTEX
  8
0
 10
4.01472309
 20
5.91889561
  0
VERTEX
  8
0
 10
4.01699251
 20
5.98015642
  0
VERTEX
  8
0
 10
3.94409527
 20
5.97934151
  0
VERTEX
  8
0
 10
3.87125647
 20
5.97924735
  0
VERTEX
  8
0
 10
3.72567627
 20
5.98036421
  0
SEQEND
  0
POLYLINE
  8
Default_Layer
 66
   1
 39
0.000000
 70
    1
  0
VERTEX
  8
0
 10
2.49184188
 20
5.97537734
  0
VERTEX
  8
0
 10
2.49362430
 20
5.85802684
  0
VERTEX
  8
0
 10
2.49410156
 20
5.74065686
  0
VERTEX
  8
0
 10
2.49344898
 20
5.62324793
  0
VERTEX
  8
0
 10
2.49184188
 20
5.50578055
  0
VERTEX
  8
0
 10
2.61734474
 20
5.50175469
  0
VERTEX
  8
0
 10
2.68007669
 20
5.50055018
  0
VERTEX
  8
0
 10
2.74284760
 20
5.50037811
  0
VERTEX
  8
0
 10
2.72838571
 20
5.52829847
  0
VERTEX
  8
0
 10
2.71528955
 20
5.55671008
  0
VERTEX
  8
0
 10
2.70352716
 20
5.58557339
  0
VERTEX
  8
0
 10
2.69306657
 20
5.61484882
  0
VERTEX
  8
0
 10
2.68387584
 20
5.64449680
  0
VERTEX
  8
0
 10
2.67592299
 20
5.67447777
  0
VERTEX
  8
0
 10
2.66917608
 20
5.70475216
  0
VERTEX
  8
0
 10
2.66360314
 20
5.73528040
  0
VERTEX
  8
0
 10
2.65917221
 20
5.76602291
  0
VERTEX
  8
0
 10
2.65585134
 20
5.79694014
  0
VERTEX
  8
0
 10
2.65360855
 20
5.82799250
  0
VERTEX
  8
0
 10
2.65241191
 20
5.85914044
  0
VERTEX
  8
0
 10
2.65222943
 20
5.89034439
  0
VERTEX
  8
0
 10
2.65302918
 20
5.92156477
  0
VERTEX
  8
0
 10
2.65477918
 20
5.95276202
  0
VERTEX
  8
0
 10
2.65744747
 20
5.98389657
  0
VERTEX
  8
0
 10
2.61611426
 20
5.98008175
  0
VERTEX
  8
0
 10
2.57472260
 20
5.97737728
  0
VERTEX
  8
0
 10
2.53329198
 20
5.97580265
  0
VERTEX
  8
0
 10
2.49184188
 20
5.97537734
  0
SEQEND
  0
POLYLINE
  8
Default_Layer
 66
   1
 39
0.000000
 70
    1
  0
VERTEX
  8
0
 10
0.95900317
 20
5.41767921
  0
VERTEX
  8
0
 10
0.98269160
 20
5.36032251
  0
VERTEX
  8
0
 10
1.00825499
 20
5.30350394
  0
VERTEX
  8
0
 10
1.03593195
 20
5.24758632
  0
VERTEX
  8
0
 10
1.06596111
 20
5.19293247
  0
VERTEX
  8
0
 10
1.08193234
 20
5.16619283
  0
VERTEX
  8
0
 10
1.09858110
 20
5.13990519
  0
VERTEX
  8
0
 10
1.11593724
 20
5.11411490
  0
VERTEX
  8
0
 10
1.13403056
 20
5.08886730
  0
VERTEX
  8
0
 10
1.15289092
 20
5.06420776
  0
VERTEX
  8
0
 10
1.17254812
 20
5.04018162
  0
VERTEX
  8
0
 10
1.19303200
 20
5.01683423
  0
VERTEX
  8
0
 10
1.21437239
 20
4.99421095
  0
VERTEX
  8
0
 10
1.22677651
 20
4.98981132
  0
VERTEX
  8
0
 10
1.23942564
 20
4.98636378
  0
VERTEX
  8
0
 10
1.25229210
 20
4.98376848
  0
VERTEX
  8
0
 10
1.26534819
 20
4.98192559
  0
VERTEX
  8
0
 10
1.29191844
 20
4.98009773
  0
VERTEX
  8
0
 10
1.31891482
 20
4.98008149
  0
VERTEX
  8
0
 10
1.37329961
 20
4.98228922
  0
VERTEX
  8
0
 10
1.40024485
 20
4.98291583
  0
VERTEX
  8
0
 10
1.42672988
 20
4.98215935
  0
VERTEX
  8
0
 10
1.37097175
 20
5.08828290
  0
VERTEX
  8
0
 10
1.34404477
 20
5.14182072
  0
VERTEX
  8
0
 10
1.31805770
 20
5.19578953
  0
VERTEX
  8
0
 10
1.29323943
 20
5.25027456
  0
VERTEX
  8
0
 10
1.26981884
 20
5.30536103
  0
VERTEX
  8
0
 10
1.24802483
 20
5.36113417
  0
VERTEX
  8
0
 10
1.22808628
 20
5.41767921
  0
VERTEX
  8
0
 10
1.09354472
 20
5.41806881
  0
VERTEX
  8
0
 10
0.95900317
 20
5.41767921
  0
SEQEND
  0
POLYLINE
  8
Default_Layer
 66
   1
 39
0.000000
 70
    1
  0
VERTEX
  8
0
 10
1.31992778
 20
5.41788699
  0
VERTEX
  8
0
 10
1.36556931
 20
5.30610127
  0
VERTEX
  8
0
 10
1.38933242
 20
5.25021937
  0
VERTEX
  8
0
 10
1.41467828
 20
5.19511422
  0
VERTEX
  8
0
 10
1.42816845
 20
5.16803328
  0
VERTEX
  8
0
 10
1.44232277
 20
5.14136294
  0
VERTEX
  8
0
 10
1.45723072
 20
5.11517534
  0
VERTEX
  8
0
 10
1.47298178
 20
5.08954261
  0
VERTEX
  8
0
 10
1.48966545
 20
5.06453689
  0
VERTEX
  8
0
 10
1.50737121
 20
5.04023032
  0
VERTEX
  8
0
 10
1.52618854
 20
5.01669503
  0
VERTEX
  8
0
 10
1.54620694
 20
4.99400317
  0
VERTEX
  8
0
 10
1.56661325
 20
4.98945054
  0
VERTEX
  8
0
 10
1.58722076
 20
4.98592548
  0
VERTEX
  8
0
 10
1.60800664
 20
4.98331598
  0
VERTEX
  8
0
 10
1.62894805
 20
4.98151002
  0
VERTEX
  8
0
 10
1.67120616
 20
4.97986072
  0
VERTEX
  8
0
 10
1.71381247
 20
4.98008149
  0
VERTEX
  8
0
 10
1.79933921
 20
4.98254895
  0
VERTEX
  8
0
 10
1.84189439
 20
4.98300349
  0
VERTEX
  8
0
 10
1.88406728
 20
4.98174378
  0
VERTEX
  8
0
 10
1.86536084
 20
5.03569271
  0
VERTEX
  8
0
 10
1.84775015
 20
5.08996792
  0
VERTEX
  8
0
 10
1.83102580
 20
5.14450611
  0
VERTEX
  8
0
 10
1.81497837
 20
5.19924397
  0
VERTEX
  8
0
 10
1.78407667
 20
5.30906547
  0
VERTEX
  8
0
 10
1.75336977
 20
5.41892592
  0
VERTEX
  8
0
 10
1.64494109
 20
5.41785777
  0
VERTEX
  8
0
 10
1.53657085
 20
5.41786102
  0
VERTEX
  8
0
 10
1.42823957
 20
5.41813698
  0
VERTEX
  8
0
 10
1.31992778
 20
5.41788699
  0
SEQEND
  0
POLYLINE
  8
Default_Layer
 66
   1
 39
0.000000
 70
    1
  0
VERTEX
  8
0
 10
1.85871736
 20
5.41913371
  0
VERTEX
  8
0
 10
1.86161171
 20
5.39083476
  0
VERTEX
  8
0
 10
1.86542131
 20
5.36273396
  0
VERTEX
  8
0
 10
1.87008255
 20
5.33482005
  0
VERTEX
  8
0
 10
1.87553181
 20
5.30708176
  0
VERTEX
  8
0
 10
1.88853996
 20
5.25208701
  0
VERTEX
  8
0
 10
1.90393683
 20
5.19765961
  0
VERTEX
  8
0
 10
1.92121352
 20
5.14370946
  0
VERTEX
  8
0
 10
1.93986112
 20
5.09014649
  0
VERTEX
  8
0
 10
1.97923335
 20
4.98382164
  0
VERTEX
  8
0
 10
2.19553878
 20
4.98239311
  0
VERTEX
  8
0
 10
2.41184420
 20
4.98112042
  0
VERTEX
  8
0
 10
2.41051956
 20
5.19991928
  0
VERTEX
  8
0
 10
2.41122084
 20
5.41871814
  0
VERTEX
  8
0
 10
2.13496910
 20
5.41791297
  0
VERTEX
  8
0
 10
1.85871736
 20
5.41913371
  0
SEQEND
  0
POLYLINE
  8
Default_Layer
 66
   1
 39
0.000000
 70
    1
  0
VERTEX
  8
0
 10
2.49412753
 20
5.41705585
  0
VERTEX
  8
0
 10
2.49345222
 20
5.19971149
  0
VERTEX
  8
0
 10
2.49433532
 20
4.98236714
  0
VERTEX
  8
0
 10
2.60030627
 20
4.98306842
  0
VERTEX
  8
0
 10
2.65329175
 20
4.98227948
  0
VERTEX
  8
0
 10
2.70627723
 20
4.98049706
  0
VERTEX
  8
0
 10
2.74472741
 20
5.04665424
  0
VERTEX
  8
0
 10
2.78417108
 20
5.11220754
  0
VERTEX
  8
0
 10
2.82248490
 20
5.17834523
  0
VERTEX
  8
0
 10
2.84055459
 20
5.21200456
  0
VERTEX
  8
0
 10
2.85754557
 20
5.24625560
  0
VERTEX
  8
0
 10
2.86214340
 20
5.25656760
  0
VERTEX
  8
0
 10
2.86556604
 20
5.26700013
  0
VERTEX
  8
0
 10
2.86791911
 20
5.27753736
  0
VERTEX
  8
0
 10
2.86930822
 20
5.28816348
  0
VERTEX
  8
0
 10
2.86983900
 20
5.29886264
  0
VERTEX
  8
0
 10
2.86961706
 20
5.30961902
  0
VERTEX
  8
0
 10
2.86733750
 20
5.33124015
  0
VERTEX
  8
0
 10
2.86331448
 20
5.35290024
  0
VERTEX
  8
0
 10
2.85839295
 20
5.37447267
  0
VERTEX
  8
0
 10
2.85341785
 20
5.39583081
  0
VERTEX
  8
0
 10
2.84923413
 20
5.41684806
  0
VERTEX
  8
0
 10
2.67168083
 20
5.41741947
  0
VERTEX
  8
0
 10
2.49412753
 20
5.41705585
  0
SEQEND
  0
POLYLINE
  8
Default_Layer
 66
   1
 39
0.000000
 70
    1
  0
VERTEX
  8
0
 10
3.63196470
 20
5.40188746
  0
VERTEX
  8
0
 10
3.61974630
 20
5.38419032
  0
VERTEX
  8
0
 10
3.60905952
 20
5.36565799
  0
VERTEX
  8
0
 10
3.59958536
 20
5.34646820
  0
VERTEX
  8
0
 10
3.59100485
 20
5.32679872
  0
VERTEX
  8
0
 10
3.57524881
 20
5.28673170
  0
VERTEX
  8
0
 10
3.55923953
 20
5.24687896
  0
VERTEX
  8
0
 10
3.54487875
 20
5.21188281
  0
VERTEX
  8
0
 10
3.52932482
 20
5.17744915
  0
VERTEX
  8
0
 10
3.51272871
 20
5.14351710
  0
VERTEX
  8
0
 10
3.49524139
 20
5.11002578
  0
VERTEX
  8
0
 10
3.45819701
 20
5.04412185
  0
VERTEX
  8
0
 10
3.41939943
 20
4.97925035
  0
VERTEX
  8
0
 10
3.43610760
 20
4.98075776
  0
VERTEX
  8
0
 10
3.45341508
 20
4.98132618
  0
VERTEX
  8
0
 10
3.48928377
 20
4.98070160
  0
VERTEX
  8
0
 10
3.52591704
 20
4.97948776
  0
VERTEX
  8
0
 10
3.56222646
 20
4.97979579
  0
VERTEX
  8
0
 10
3.57991959
 20
4.98118023
  0
VERTEX
  8
0
 10
3.59712358
 20
4.98373682
  0
VERTEX
  8
0
 10
3.61370239
 20
4.98772945
  0
VERTEX
  8
0
 10
3.62951997
 20
4.99342202
  0
VERTEX
  8
0
 10
3.64444024
 20
5.00107840
  0
VERTEX
  8
0
 10
3.65832717
 20
5.01096250
  0
VERTEX
  8
0
 10
3.67104469
 20
5.02333820
  0
VERTEX
  8
0
 10
3.68245674
 20
5.03846941
  0
VERTEX
  8
0
 10
3.71567413
 20
5.08206961
  0
VERTEX
  8
0
 10
3.74731850
 20
5.12682399
  0
VERTEX
  8
0
 10
3.77729734
 20
5.17269848
  0
VERTEX
  8
0
 10
3.80551811
 20
5.21965897
  0
VERTEX
  8
0
 10
3.83188829
 20
5.26767138
  0
VERTEX
  8
0
 10
3.85631534
 20
5.31670161
  0
VERTEX
  8
0
 10
3.87870674
 20
5.36671558
  0
VERTEX
  8
0
 10
3.89896995
 20
5.41767921
  0
VERTEX
  8
0
 10
3.86559430
 20
5.41730746
  0
VERTEX
  8
0
 10
3.83194592
 20
5.41801686
  0
VERTEX
  8
0
 10
3.76437645
 20
5.41960123
  0
VERTEX
  8
0
 10
3.73072807
 20
5.41893729
  0
VERTEX
  8
0
 10
3.69735242
 20
5.41627665
  0
VERTEX
  8
0
 10
3.68080947
 20
5.41395711
  0
VERTEX
  8
0
 10
3.66438584
 20
5.41084986
  0
VERTEX
  8
0
 10
3.64809857
 20
5.40685870
  0
VERTEX
  8
0
 10
3.63196470
 20
5.40188746
  0
SEQEND
  0
POLYLINE
  8
Default_Layer
 66
   1
 39
0.000000
 70
    1
  0
VERTEX
  8
0
 10
1.29665572
 20
4.90153831
  0
VERTEX
  8
0
 10
1.33202021
 20
4.86550968
  0
VERTEX
  8
0
 10
1.36865242
 20
4.83062762
  0
VERTEX
  8
0
 10
1.40650030
 20
4.79694785
  0
VERTEX
  8
0
 10
1.44551180
 20
4.76452605
  0
VERTEX
  8
0
 10
1.48563488
 20
4.73341793
  0
VERTEX
  8
0
 10
1.52681748
 20
4.70367919
  0
VERTEX
  8
0
 10
1.56900756
 20
4.67536553
  0
VERTEX
  8
0
 10
1.61215308
 20
4.64853265
  0
VERTEX
  8
0
 10
1.65620197
 20
4.62323626
  0
VERTEX
  8
0
 10
1.70110221
 20
4.59953205
  0
VERTEX
  8
0
 10
1.74680172
 20
4.57747571
  0
VERTEX
  8
0
 10
1.79324848
 20
4.55712297
  0
VERTEX
  8
0
 10
1.84039043
 20
4.53852950
  0
VERTEX
  8
0
 10
1.88817552
 20
4.52175102
  0
VERTEX
  8
0
 10
1.93655171
 20
4.50684322
  0
VERTEX
  8
0
 10
1.98546694
 20
4.49386181
  0
VERTEX
  8
0
 10
1.94746317
 20
4.51785422
  0
VERTEX
  8
0
 10
1.90896266
 20
4.54122083
  0
VERTEX
  8
0
 10
1.83191295
 20
4.58801493
  0
VERTEX
  8
0
 10
1.79408450
 20
4.61241154
  0
VERTEX
  8
0
 10
1.75720082
 20
4.63812062
  0
VERTEX
  8
0
 10
1.72162231
 20
4.66562672
  0
VERTEX
  8
0
 10
1.70443510
 20
4.68020508
  0
VERTEX
  8
0
 10
1.68770933
 20
4.69541441
  0
VERTEX
  8
0
 10
1.66187932
 20
4.71862235
  0
VERTEX
  8
0
 10
1.63725949
 20
4.74308186
  0
VERTEX
  8
0
 10
1.61344322
 20
4.76836928
  0
VERTEX
  8
0
 10
1.59002385
 20
4.79406091
  0
VERTEX
  8
0
 10
1.56659474
 20
4.81973305
  0
VERTEX
  8
0
 10
1.54274924
 20
4.84496203
  0
VERTEX
  8
0
 10
1.51808072
 20
4.86932415
  0
VERTEX
  8
0
 10
1.49218253
 20
4.89239572
  0
VERTEX
  8
0
 10
1.46813371
 20
4.89711799
  0
VERTEX
  8
0
 10
1.44386575
 20
4.90013576
  0
VERTEX
  8
0
 10
1.41943220
 20
4.90178993
  0
VERTEX
  8
0
 10
1.39488664
 20
4.90242140
  0
VERTEX
  8
0
 10
1.34567378
 20
4.90197986
  0
VERTEX
  8
0
 10
1.29665572
 20
4.90153831
  0
SEQEND
  0
POLYLINE
  8
Default_Layer
 66
   1
 39
0.000000
 70
    1
  0
VERTEX
  8
0
 10
1.60978951
 20
4.90049938
  0
VERTEX
  8
0
 10
1.63892630
 20
4.86814921
  0
VERTEX
  8
0
 10
1.66906417
 20
4.83620538
  0
VERTEX
  8
0
 10
1.70020100
 20
4.80485021
  0
VERTEX
  8
0
 10
1.73233466
 20
4.77426603
  0
VERTEX
  8
0
 10
1.76546301
 20
4.74463514
  0
VERTEX
  8
0
 10
1.79958393
 20
4.71613987
  0
VERTEX
  8
0
 10
1.83469528
 20
4.68896254
  0
VERTEX
  8
0
 10
1.87079494
 20
4.66328547
  0
VERTEX
  8
0
 10
1.90788076
 20
4.63929099
  0
VERTEX
  8
0
 10
1.94595063
 20
4.61716140
  0
VERTEX
  8
0
 10
1.98500241
 20
4.59707904
  0
VERTEX
  8
0
 10
2.02503398
 20
4.57922622
  0
VERTEX
  8
0
 10
2.06604319
 20
4.56378526
  0
VERTEX
  8
0
 10
2.10802792
 20
4.55093849
  0
VERTEX
  8
0
 10
2.12938544
 20
4.54554489
  0
VERTEX
  8
0
 10
2.15098604
 20
4.54086821
  0
VERTEX
  8
0
 10
2.17282945
 20
4.53693124
  0
VERTEX
  8
0
 10
2.19491542
 20
4.53375676
  0
VERTEX
  8
0
 10
2.13869302
 20
4.59361541
  0
VERTEX
  8
0
 10
2.11056112
 20
4.62366284
  0
VERTEX
  8
0
 10
2.08299658
 20
4.65419483
  0
VERTEX
  8
0
 10
2.05643526
 20
4.68551576
  0
VERTEX
  8
0
 10
2.03131301
 20
4.71793000
  0
VERTEX
  8
0
 10
2.00806572
 20
4.75174192
  0
VERTEX
  8
0
 10
1.99728138
 20
4.76926713
  0
VERTEX
  8
0
 10
1.98712923
 20
4.78725591
  0
VERTEX
  8
0
 10
1.97062321
 20
4.81595313
  0
VERTEX
  8
0
 10
1.95435096
 20
4.84509839
  0
VERTEX
  8
0
 10
1.94552329
 20
4.85915115
  0
VERTEX
  8
0
 10
1.93581903
 20
4.87249045
  0
VERTEX
  8
0
 10
1.92492649
 20
4.88484115
  0
VERTEX
  8
0
 10
1.91253399
 20
4.89592809
  0
VERTEX
  8
0
 10
1.87484433
 20
4.89920112
  0
VERTEX
  8
0
 10
1.83706215
 20
4.90087924
  0
VERTEX
  8
0
 10
1.79921178
 20
4.90137395
  0
VERTEX
  8
0
 10
1.76131759
 20
4.90109677
  0
VERTEX
  8
0
 10
1.68549511
 20
4.89987278
  0
VERTEX
  8
0
 10
1.64761552
 20
4.89974900
  0
VERTEX
  8
0
 10
1.60978951
 20
4.90049938
  0
SEQEND
  0
POLYLINE
  8
Default_Layer
 66
   1
 39
0.000000
 70
    1
  0
VERTEX
  8
0
 10
3.05930596
 20
4.87265603
  0
VERTEX
  8
0
 10
3.04950171
 20
4.86660903
  0
VERTEX
  8
0
 10
3.04031504
 20
4.85995754
  0
VERTEX
  8
0
 10
3.02359596
 20
4.84505294
  0
VERTEX
  8
0
 10
3.00875183
 20
4.82836592
  0
VERTEX
  8
0
 10
2.99538574
 20
4.81032018
  0
VERTEX
  8
0
 10
2.98310078
 20
4.79133939
  0
VERTEX
  8
0
 10
2.97150007
 20
4.77184726
  0
VERTEX
  8
0
 10
2.94876371
 20
4.73302371
  0
VERTEX
  8
0
 10
2.94079205
 20
4.72028859
  0
VERTEX
  8
0
 10
2.93191761
 20
4.70841972
  0
VERTEX
  8
0
 10
2.92226032
 20
4.69729961
  0
VERTEX
  8
0
 10
2.91194010
 20
4.68681077
  0
VERTEX
  8
0
 10
2.88979058
 20
4.66725695
  0
VERTEX
  8
0
 10
2.86642843
 20
4.64881836
  0
VERTEX
  8
0
 10
2.84281305
 20
4.63055509
  0
VERTEX
  8
0
 10
2.81990381
 20
4.61152723
  0
VERTEX
  8
0
 10
2.80901380
 20
4.60143286
  0
VERTEX
  8
0
 10
2.79866010
 20
4.59079488
  0
VERTEX
  8
0
 10
2.78896264
 20
4.57949580
  0
VERTEX
  8
0
 10
2.78004133
 20
4.56741812
  0
VERTEX
  8
0
 10
2.81405723
 20
4.57902594
  0
VERTEX
  8
0
 10
2.84751218
 20
4.59214955
  0
VERTEX
  8
0
 10
2.88037116
 20
4.60673171
  0
VERTEX
  8
0
 10
2.91259917
 20
4.62271522
  0
VERTEX
  8
0
 10
2.94416122
 20
4.64004284
  0
VERTEX
  8
0
 10
2.97502228
 20
4.65865736
  0
VERTEX
  8
0
 10
3.00514738
 20
4.67850155
  0
VERTEX
  8
0
 10
3.03450149
 20
4.69951819
  0
VERTEX
  8
0
 10
3.06304961
 20
4.72165006
  0
VERTEX
  8
0
 10
3.09075676
 20
4.74483993
  0
VERTEX
  8
0
 10
3.11758791
 20
4.76903058
  0
VERTEX
  8
0
 10
3.14350807
 20
4.79416480
  0
VERTEX
  8
0
 10
3.16848223
 20
4.82018535
  0
VERTEX
  8
0
 10
3.19247540
 20
4.84703502
  0
VERTEX
  8
0
 10
3.21545257
 20
4.87465658
  0
VERTEX
  8
0
 10
3.23737873
 20
4.90299282
  0
VERTEX
  8
0
 10
3.19167226
 20
4.90216816
  0
VERTEX
  8
0
 10
3.16854387
 20
4.90161217
  0
VERTEX
  8
0
 10
3.14553723
 20
4.90013576
  0
VERTEX
  8
0
 10
3.12288123
 20
4.89712042
  0
VERTEX
  8
0
 10
3.10080476
 20
4.89194768
  0
VERTEX
  8
0
 10
3.09005538
 20
4.88835901
  0
VERTEX
  8
0
 10
3.07953671
 20
4.88399905
  0
VERTEX
  8
0
 10
3.06927737
 20
4.87879049
  0
VERTEX
  8
0
 10
3.05930596
 20
4.87265603
  0
SEQEND
  0
POLYLINE
  8
Default_Layer
 66
   1
 39
0.000000
 70
    1
  0
VERTEX
  8
0
 10
3.36766067
 20
4.89488915
  0
VERTEX
  8
0
 10
3.34846601
 20
4.87800653
  0
VERTEX
  8
0
 10
3.33028188
 20
4.86011094
  0
VERTEX
  8
0
 10
3.31283312
 20
4.84147512
  0
VERTEX
  8
0
 10
3.29584457
 20
4.82237178
  0
VERTEX
  8
0
 10
3.26214749
 20
4.78385341
  0
VERTEX
  8
0
 10
3.24488866
 20
4.76498383
  0
VERTEX
  8
0
 10
3.22698942
 20
4.74673760
  0
VERTEX
  8
0
 10
3.20751347
 20
4.72766906
  0
VERTEX
  8
0
 10
3.18752587
 20
4.70923788
  0
VERTEX
  8
0
 10
3.14617033
 20
4.67410984
  0
VERTEX
  8
0
 10
3.10323204
 20
4.64099797
  0
VERTEX
  8
0
 10
3.05902026
 20
4.60954677
  0
VERTEX
  8
0
 10
3.01384421
 20
4.57940073
  0
VERTEX
  8
0
 10
2.96801315
 20
4.55020433
  0
VERTEX
  8
0
 10
2.87562297
 20
4.49323845
  0
VERTEX
  8
0
 10
2.90022331
 20
4.49861593
  0
VERTEX
  8
0
 10
2.92455337
 20
4.50481766
  0
VERTEX
  8
0
 10
2.94862532
 20
4.51179128
  0
VERTEX
  8
0
 10
2.97245134
 20
4.51948445
  0
VERTEX
  8
0
 10
3.01941426
 20
4.53681998
  0
VERTEX
  8
0
 10
3.06553955
 20
4.55640545
  0
VERTEX
  8
0
 10
3.11092460
 20
4.57782204
  0
VERTEX
  8
0
 10
3.15566681
 20
4.60065092
  0
VERTEX
  8
0
 10
3.19986358
 20
4.62447329
  0
VERTEX
  8
0
 10
3.24361231
 20
4.64887031
  0
VERTEX
  8
0
 10
3.28543902
 20
4.67545639
  0
VERTEX
  8
0
 10
3.32685665
 20
4.70287524
  0
VERTEX
  8
0
 10
3.36753405
 20
4.73139470
  0
VERTEX
  8
0
 10
3.40714004
 20
4.76128264
  0
VERTEX
  8
0
 10
3.44534348
 20
4.79280688
  0
VERTEX
  8
0
 10
3.48181320
 20
4.82623530
  0
VERTEX
  8
0
 10
3.49929444
 20
4.84374727
  0
VERTEX
  8
0
 10
3.51621805
 20
4.86183573
  0
VERTEX
  8
0
 10
3.53254266
 20
4.88053415
  0
VERTEX
  8
0
 10
3.54822687
 20
4.89987602
  0
VERTEX
  8
0
 10
3.50300740
 20
4.90096690
  0
VERTEX
  8
0
 10
3.45763209
 20
4.90205778
  0
VERTEX
  8
0
 10
3.43498339
 20
4.90187272
  0
VERTEX
  8
0
 10
3.41241262
 20
4.90081106
  0
VERTEX
  8
0
 10
3.38995872
 20
4.89858061
  0
VERTEX
  8
0
 10
3.36766067
 20
4.89488915
  0
SEQEND
  0
POLYLINE
  8
Default_Layer
 66
   1
 39
0.000000
 70
    1
  0
VERTEX
  8
0
 10
2.03159547
 20
4.89592809
  0
VERTEX
  8
0
 10
2.05056286
 20
4.85942306
  0
VERTEX
  8
0
 10
2.07054564
 20
4.82323214
  0
VERTEX
  8
0
 10
2.09179949
 20
4.78770841
  0
VERTEX
  8
0
 10
2.11458008
 20
4.75320495
  0
VERTEX
  8
0
 10
2.13914309
 20
4.72007482
  0
VERTEX
  8
0
 10
2.16574418
 20
4.68867110
  0
VERTEX
  8
0
 10
2.17988892
 20
4.67372698
  0
VERTEX
  8
0
 10
2.19463905
 20
4.65934687
  0
VERTEX
  8
0
 10
2.21002654
 20
4.64557490
  0
VERTEX
  8
0
 10
2.22608335
 20
4.63245520
  0
VERTEX
  8
0
 10
2.23583474
 20
4.62485898
  0
VERTEX
  8
0
 10
2.24604421
 20
4.61872954
  0
VERTEX
  8
0
 10
2.25666338
 20
4.61392657
  0
VERTEX
  8
0
 10
2.26764383
 20
4.61030974
  0
VERTEX
  8
0
 10
2.27893718
 20
4.60773874
  0
VERTEX
  8
0
 10
2.29049504
 20
4.60607325
  0
VERTEX
  8
0
 10
2.31421066
 20
4.60489756
  0
VERTEX
  8
0
 10
2.33840355
 20
4.60566011
  0
VERTEX
  8
0
 10
2.36268653
 20
4.60723840
  0
VERTEX
  8
0
 10
2.38667244
 20
4.60850987
  0
VERTEX
  8
0
 10
2.40997412
 20
4.60835200
  0
VERTEX
  8
0
 10
2.41051956
 20
4.75138682
  0
VERTEX
  8
0
 10
2.41184420
 20
4.89426580
  0
VERTEX
  8
0
 10
2.31686968
 20
4.89791504
  0
VERTEX
  8
0
 10
2.22179776
 20
4.89914877
  0
VERTEX
  8
0
 10
2.12668687
 20
4.89835659
  0
VERTEX
  8
0
 10
2.03159547
 20
4.89592809
  0
SEQEND
  0
POLYLINE
  8
Default_Layer
 66
   1
 39
0.000000
 70
    1
  0
VERTEX
  8
0
 10
2.49558203
 20
4.89862931
  0
VERTEX
  8
0
 10
2.49382884
 20
4.82317695
  0
VERTEX
  8
0
 10
2.49371196
 20
4.74772459
  0
VERTEX
  8
0
 10
2.49593267
 20
4.67235015
  0
VERTEX
  8
0
 10
2.49813878
 20
4.63471650
  0
VERTEX
  8
0
 10
2.50119226
 20
4.59713155
  0
VERTEX
  8
0
 10
2.51846449
 20
4.60081610
  0
VERTEX
  8
0
 10
2.53737303
 20
4.60311514
  0
VERTEX
  8
0
 10
2.55694389
 20
4.60515607
  0
VERTEX
  8
0
 10
2.57620307
 20
4.60806629
  0
VERTEX
  8
0
 10
2.58541141
 20
4.61019970
  0
VERTEX
  8
0
 10
2.59417658
 20
4.61297321
  0
VERTEX
  8
0
 10
2.60237683
 20
4.61652775
  0
VERTEX
  8
0
 10
2.60989041
 20
4.62100423
  0
VERTEX
  8
0
 10
2.61659557
 20
4.62654359
  0
VERTEX
  8
0
 10
2.62237057
 20
4.63328675
  0
VERTEX
  8
0
 10
2.62709365
 20
4.64137463
  0
VERTEX
  8
0
 10
2.63064306
 20
4.65094817
  0
VERTEX
  8
0
 10
2.64888279
 20
4.71284573
  0
VERTEX
  8
0
 10
2.66607060
 20
4.77507444
  0
VERTEX
  8
0
 10
2.68388177
 20
4.83710836
  0
VERTEX
  8
0
 10
2.69354464
 20
4.86788791
  0
VERTEX
  8
0
 10
2.70399158
 20
4.89842152
  0
VERTEX
  8
0
 10
2.49558203
 20
4.89862931
  0
SEQEND
  0
POLYLINE
  8
Default_Layer
 66
   1
 39
0.000000
 70
    1
  0
VERTEX
  8
0
 10
2.30358759
 20
4.52253630
  0
VERTEX
  8
0
 10
2.28054281
 20
4.51314697
  0
VERTEX
  8
0
 10
2.26886701
 20
4.50737116
  0
VERTEX
  8
0
 10
2.25808242
 20
4.50056292
  0
VERTEX
  8
0
 10
2.24893415
 20
4.49248847
  0
VERTEX
  8
0
 10
2.24520647
 20
4.48790338
  0
VERTEX
  8
0
 10
2.24216730
 20
4.48291408
  0
VERTEX
  8
0
 10
2.23990975
 20
4.47749134
  0
VERTEX
  8
0
 10
2.23852698
 20
4.47160596
  0
VERTEX
  8
0
 10
2.23811212
 20
4.46522871
  0
VERTEX
  8
0
 10
2.23875830
 20
4.45833037
  0
VERTEX
  8
0
 10
2.26002210
 20
4.44335658
  0
VERTEX
  8
0
 10
2.28268723
 20
4.43053410
  0
VERTEX
  8
0
 10
2.30654307
 20
4.41985685
  0
VERTEX
  8
0
 10
2.33137900
 20
4.41131875
  0
VERTEX
  8
0
 10
2.35698438
 20
4.40491370
  0
VERTEX
  8
0
 10
2.38314860
 20
4.40063562
  0
VERTEX
  8
0
 10
2.40966102
 20
4.39847841
  0
VERTEX
  8
0
 10
2.43631102
 20
4.39843600
  0
VERTEX
  8
0
 10
2.46288797
 20
4.40050230
  0
VERTEX
  8
0
 10
2.48918124
 20
4.40467121
  0
VERTEX
  8
0
 10
2.51498021
 20
4.41093666
  0
VERTEX
  8
0
 10
2.54007425
 20
4.41929254
  0
VERTEX
  8
0
 10
2.56425273
 20
4.42973278
  0
VERTEX
  8
0
 10
2.58730503
 20
4.44225129
  0
VERTEX
  8
0
 10
2.60902051
 20
4.45684198
  0
VERTEX
  8
0
 10
2.62918855
 20
4.47349876
  0
VERTEX
  8
0
 10
2.61149492
 20
4.48607302
  0
VERTEX
  8
0
 10
2.59313318
 20
4.49717624
  0
VERTEX
  8
0
 10
2.57417061
 20
4.50685195
  0
VERTEX
  8
0
 10
2.55467448
 20
4.51514366
  0
VERTEX
  8
0
 10
2.53471204
 20
4.52209491
  0
VERTEX
  8
0
 10
2.51435056
 20
4.52774922
  0
VERTEX
  8
0
 10
2.49365732
 20
4.53215012
  0
VERTEX
  8
0
 10
2.47269958
 20
4.53534113
  0
VERTEX
  8
0
 10
2.45154460
 20
4.53736578
  0
VERTEX
  8
0
 10
2.43025966
 20
4.53826759
  0
VERTEX
  8
0
 10
2.40891201
 20
4.53809009
  0
VERTEX
  8
0
 10
2.38756893
 20
4.53687680
  0
VERTEX
  8
0
 10
2.36629768
 20
4.53467125
  0
VERTEX
  8
0
 10
2.34516553
 20
4.53151697
  0
VERTEX
  8
0
 10
2.32423975
 20
4.52745748
  0
VERTEX
  8
0
 10
2.30358759
 20
4.52253630
  0
SEQEND
  0
POLYLINE
  8
Default_Layer
 66
   1
 39
0.000000
 70
    1
  0
VERTEX
  8
0
 10
5.92550865
 20
6.99498416
  0
VERTEX
  8
0
 10
5.95861041
 20
7.00712548
  0
VERTEX
  8
0
 10
5.99194615
 20
7.01827590
  0
VERTEX
  8
0
 10
6.02550029
 20
7.02845263
  0
VERTEX
  8
0
 10
6.05925721
 20
7.03767286
  0
VERTEX
  8
0
 10
6.09320133
 20
7.04595380
  0
VERTEX
  8
0
 10
6.12731703
 20
7.05331263
  0
VERTEX
  8
0
 10
6.16158873
 20
7.05976656
  0
VERTEX
  8
0
 10
6.19600082
 20
7.06533278
  0
VERTEX
  8
0
 10
6.23053770
 20
7.07002849
  0
VERTEX
  8
0
 10
6.26518378
 20
7.07387088
  0
VERTEX
  8
0
 10
6.29992345
 20
7.07687716
  0
VERTEX
  8
0
 10
6.33474112
 20
7.07906452
  0
VERTEX
  8
0
 10
6.36962118
 20
7.08045016
  0
VERTEX
  8
0
 10
6.40454804
 20
7.08105127
  0
VERTEX
  8
0
 10
6.43950610
 20
7.08088506
  0
VERTEX
  8
0
 10
6.47447976
 20
7.07996872
  0
VERTEX
  8
0
 10
6.54441148
 20
7.07595443
  0
VERTEX
  8
0
 10
6.61421841
 20
7.06914598
  0
VERTEX
  8
0
 10
6.68377575
 20
7.05968095
  0
VERTEX
  8
0
 10
6.75295871
 20
7.04769692
  0
VERTEX
  8
0
 10
6.82164249
 20
7.03333147
  0
VERTEX
  8
0
 10
6.88970231
 20
7.01672217
  0
VERTEX
  8
0
 10
6.95701337
 20
6.99800660
  0
VERTEX
  8
0
 10
7.02345087
 20
6.97732234
  0
VERTEX
  8
0
 10
7.02318789
 20
6.79923010
  0
VERTEX
  8
0
 10
7.02352879
 20
6.62117681
  0
VERTEX
  8
0
 10
7.02336321
 20
6.44312353
  0
VERTEX
  8
0
 10
7.02158080
 20
6.26503128
  0
VERTEX
  8
0
 10
6.98505791
 20
6.29610628
  0
VERTEX
  8
0
 10
6.94722256
 20
6.32595160
  0
VERTEX
  8
0
 10
6.90814537
 20
6.35440410
  0
VERTEX
  8
0
 10
6.86789694
 20
6.38130064
  0
VERTEX
  8
0
 10
6.82654789
 20
6.40647808
  0
VERTEX
  8
0
 10
6.78416884
 20
6.42977326
  0
VERTEX
  8
0
 10
6.74083041
 20
6.45102306
  0
VERTEX
  8
0
 10
6.69660320
 20
6.47006431
  0
VERTEX
  8
0
 10
6.65155783
 20
6.48673387
  0
VERTEX
  8
0
 10
6.60576492
 20
6.50086861
  0
VERTEX
  8
0
 10
6.55929508
 20
6.51230537
  0
VERTEX
  8
0
 10
6.53582838
 20
6.51696103
  0
VERTEX
  8
0
 10
6.51221893
 20
6.52088102
  0
VERTEX
  8
0
 10
6.48847555
 20
6.52404494
  0
VERTEX
  8
0
 10
6.46460708
 20
6.52643240
  0
VERTEX
  8
0
 10
6.44062233
 20
6.52802301
  0
VERTEX
  8
0
 10
6.41653014
 20
6.52879637
  0
VERTEX
  8
0
 10
6.39233934
 20
6.52873210
  0
VERTEX
  8
0
 10
6.36805874
 20
6.52780979
  0
VERTEX
  8
0
 10
6.34369718
 20
6.52600906
  0
VERTEX
  8
0
 10
6.31926348
 20
6.52330952
  0
VERTEX
  8
0
 10
6.29994851
 20
6.52119600
  0
VERTEX
  8
0
 10
6.28085159
 20
6.51833533
  0
VERTEX
  8
0
 10
6.24334157
 20
6.51044706
  0
VERTEX
  8
0
 10
6.20679276
 20
6.49979386
  0
VERTEX
  8
0
 10
6.17126452
 20
6.48652487
  0
VERTEX
  8
0
 10
6.13681620
 20
6.47078922
  0
VERTEX
  8
0
 10
6.10350715
 20
6.45273607
  0
VERTEX
  8
0
 10
6.07139672
 20
6.43251456
  0
VERTEX
  8
0
 10
6.04054428
 20
6.41027383
  0
VERTEX
  8
0
 10
6.01100917
 20
6.38616302
  0
VERTEX
  8
0
 10
5.98285074
 20
6.36033128
  0
VERTEX
  8
0
 10
5.95612835
 20
6.33292775
  0
VERTEX
  8
0
 10
5.93090135
 20
6.30410158
  0
VERTEX
  8
0
 10
5.90722910
 20
6.27400190
  0
VERTEX
  8
0
 10
5.88517094
 20
6.24277787
  0
VERTEX
  8
0
 10
5.86478623
 20
6.21057862
  0
VERTEX
  8
0
 10
5.84613433
 20
6.17755330
  0
VERTEX
  8
0
 10
5.83263367
 20
6.15279022
  0
VERTEX
  8
0
 10
5.81993516
 20
6.12775447
  0
VERTEX
  8
0
 10
5.80801790
 20
6.10245824
  0
VERTEX
  8
0
 10
5.79686100
 20
6.07691376
  0
VERTEX
  8
0
 10
5.78644358
 20
6.05113324
  0
VERTEX
  8
0
 10
5.77674475
 20
6.02512889
  0
VERTEX
  8
0
 10
5.75941931
 20
5.97249755
  0
VERTEX
  8
0
 10
5.74471757
 20
5.91911745
  0
VERTEX
  8
0
 10
5.73247244
 20
5.86508629
  0
VERTEX
  8
0
 10
5.72251681
 20
5.81050179
  0
VERTEX
  8
0
 10
5.71468359
 20
5.75546163
  0
VERTEX
  8
0
 10
5.70880567
 20
5.70006353
  0
VERTEX
  8
0
 10
5.70471594
 20
5.64440519
  0
VERTEX
  8
0
 10
5.70224731
 20
5.58858431
  0
VERTEX
  8
0
 10
5.70123268
 20
5.53269860
  0
VERTEX
  8
0
 10
5.70150494
 20
5.47684577
  0
VERTEX
  8
0
 10
5.70289700
 20
5.42112351
  0
VERTEX
  8
0
 10
5.70524175
 20
5.36562953
  0
VERTEX
  8
0
 10
5.70837208
 20
5.31046153
  0
VERTEX
  8
0
 10
5.71466416
 20
5.26203213
  0
VERTEX
  8
0
 10
5.72244676
 20
5.21354064
  0
VERTEX
  8
0
 10
5.73179323
 20
5.16513437
  0
VERTEX
  8
0
 10
5.74277693
 20
5.11696064
  0
VERTEX
  8
0
 10
5.75547122
 20
5.06916678
  0
VERTEX
  8
0
 10
5.76994944
 20
5.02190009
  0
VERTEX
  8
0
 10
5.78628495
 20
4.97530789
  0
VERTEX
  8
0
 10
5.80455112
 20
4.92953750
  0
VERTEX
  8
0
 10
5.82482128
 20
4.88473624
  0
VERTEX
  8
0
 10
5.84716879
 20
4.84105143
  0
VERTEX
  8
0
 10
5.87166702
 20
4.79863038
  0
VERTEX
  8
0
 10
5.89838931
 20
4.75762040
  0
VERTEX
  8
0
 10
5.92740901
 20
4.71816883
  0
VERTEX
  8
0
 10
5.94280332
 20
4.69907347
  0
VERTEX
  8
0
 10
5.95879949
 20
4.68042296
  0
VERTEX
  8
0
 10
5.97540669
 20
4.66223571
  0
VERTEX
  8
0
 10
5.99263409
 20
4.64453013
  0
VERTEX
  8
0
 10
6.01049086
 20
4.62732464
  0
VERTEX
  8
0
 10
6.02898617
 20
4.61063765
  0
VERTEX
  8
0
 10
6.04508633
 20
4.59738740
  0
VERTEX
  8
0
 10
6.06161977
 20
4.58490285
  0
VERTEX
  8
0
 10
6.07856441
 20
4.57317535
  0
VERTEX
  8
0
 10
6.09589820
 20
4.56219628
  0
VERTEX
  8
0
 10
6.11359906
 20
4.55195698
  0
VERTEX
  8
0
 10
6.13164493
 20
4.54244883
  0
VERTEX
  8
0
 10
6.15001374
 20
4.53366318
  0
VERTEX
  8
0
 10
6.16868343
 20
4.52559141
  0
VERTEX
  8
0
 10
6.20683715
 20
4.51155494
  0
VERTEX
  8
0
 10
6.24592956
 20
4.50027031
  0
VERTEX
  8
0
 10
6.28578413
 20
4.49166844
  0
VERTEX
  8
0
 10
6.32622432
 20
4.48568023
  0
VERTEX
  8
0
 10
6.36707358
 20
4.48223659
  0
VERTEX
  8
0
 10
6.40815538
 20
4.48126843
  0
VERTEX
  8
0
 10
6.44929319
 20
4.48270664
  0
VERTEX
  8
0
 10
6.49031047
 20
4.48648215
  0
VERTEX
  8
0
 10
6.53103068
 20
4.49252586
  0
VERTEX
  8
0
 10
6.57127728
 20
4.50076867
  0
VERTEX
  8
0
 10
6.61087374
 20
4.51114149
  0
VERTEX
  8
0
 10
6.64964352
 20
4.52357524
  0
VERTEX
  8
0
 10
6.68098570
 20
4.53443820
  0
VERTEX
  8
0
 10
6.71147411
 20
4.54683795
  0
VERTEX
  8
0
 10
6.74117542
 20
4.56064574
  0
VERTEX
  8
0
 10
6.77015626
 20
4.57573282
  0
VERTEX
  8
0
 10
6.79848331
 20
4.59197042
  0
VERTEX
  8
0
 10
6.82622323
 20
4.60922982
  0
VERTEX
  8
0
 10
6.85344266
 20
4.62738224
  0
VERTEX
  8
0
 10
6.88020827
 20
4.64629895
  0
VERTEX
  8
0
 10
6.93264466
 20
4.68591022
  0
VERTEX
  8
0
 10
6.98406565
 20
4.72703363
  0
VERTEX
  8
0
 10
7.03500452
 20
4.76863916
  0
VERTEX
  8
0
 10
7.08599452
 20
4.80969682
  0
VERTEX
  8
0
 10
7.08213789
 20
4.72380361
  0
VERTEX
  8
0
 10
7.07968626
 20
4.63787387
  0
VERTEX
  8
0
 10
7.07667011
 20
4.46599249
  0
VERTEX
  8
0
 10
7.07494167
 20
4.38008467
  0
VERTEX
  8
0
 10
7.07229037
 20
4.29422798
  0
VERTEX
  8
0
 10
7.06813424
 20
4.20844435
  0
VERTEX
  8
0
 10
7.06189132
 20
4.12275568
  0
VERTEX
  8
0
 10
7.00654268
 20
4.09638119
  0
VERTEX
  8
0
 10
6.95032961
 20
4.07128111
  0
VERTEX
  8
0
 10
6.89331787
 20
4.04760977
  0
VERTEX
  8
0
 10
6.83557320
 20
4.02552148
  0
VERTEX
  8
0
 10
6.77716134
 20
4.00517056
  0
VERTEX
  8
0
 10
6.71814803
 20
3.98671132
  0
VERTEX
  8
0
 10
6.65859902
 20
3.97029809
  0
VERTEX
  8
0
 10
6.59858006
 20
3.95608518
  0
VERTEX
  8
0
 10
6.53815689
 20
3.94422691
  0
VERTEX
  8
0
 10
6.47739526
 20
3.93487760
  0
VERTEX
  8
0
 10
6.41636091
 20
3.92819156
  0
VERTEX
  8
0
 10
6.35511958
 20
3.92432311
  0
VERTEX
  8
0
 10
6.32444185
 20
3.92349371
  0
VERTEX
  8
0
 10
6.29373703
 20
3.92342658
  0
VERTEX
  8
0
 10
6.26301333
 20
3.92414100
  0
VERTEX
  8
0
 10
6.23227899
 20
3.92565627
  0
VERTEX
  8
0
 10
6.20154220
 20
3.92799168
  0
VERTEX
  8
0
 10
6.17081120
 20
3.93116651
  0
VERTEX
  8
0
 10
6.14009421
 20
3.93520006
  0
VERTEX
  8
0
 10
6.10939943
 20
3.94011162
  0
VERTEX
  8
0
 10
6.06380954
 20
3.94757371
  0
VERTEX
  8
0
 10
6.01871456
 20
3.95721542
  0
VERTEX
  8
0
 10
5.97417597
 20
3.96897132
  0
VERTEX
  8
0
 10
5.93025527
 20
3.98277597
  0
VERTEX
  8
0
 10
5.88701393
 20
3.99856391
  0
VERTEX
  8
0
 10
5.84451343
 20
4.01626972
  0
VERTEX
  8
0
 10
5.80281527
 20
4.03582795
  0
VERTEX
  8
0
 10
5.76198092
 20
4.05717316
  0
VERTEX
  8
0
 10
5.72207187
 20
4.08023991
  0
VERTEX
  8
0
 10
5.68314960
 20
4.10496277
  0
VERTEX
  8
0
 10
5.64527560
 20
4.13127628
  0
VERTEX
  8
0
 10
5.60851134
 20
4.15911501
  0
VERTEX
  8
0
 10
5.57291832
 20
4.18841353
  0
VERTEX
  8
0
 10
5.53855801
 20
4.21910638
  0
VERTEX
  8
0
 10
5.50549190
 20
4.25112813
  0
VERTEX
  8
0
 10
5.47378148
 20
4.28441333
  0
VERTEX
  8
0
 10
5.45166235
 20
4.30811393
  0
VERTEX
  8
0
 10
5.43022232
 20
4.33233549
  0
VERTEX
  8
0
 10
5.40945625
 20
4.35706088
  0
VERTEX
  8
0
 10
5.38935900
 20
4.38227292
  0
VERTEX
  8
0
 10
5.36992545
 20
4.40795445
  0
VERTEX
  8
0
 10
5.35115044
 20
4.43408833
  0
VERTEX
  8
0
 10
5.33302885
 20
4.46065738
  0
VERTEX
  8
0
 10
5.31555554
 20
4.48764446
  0
VERTEX
  8
0
 10
5.28253321
 20
4.54280403
  0
VERTEX
  8
0
 10
5.25204236
 20
4.59942978
  0
VERTEX
  8
0
 10
5.22404191
 20
4.65738442
  0
VERTEX
  8
0
 10
5.19849075
 20
4.71653069
  0
VERTEX
  8
0
 10
5.17534780
 20
4.77673131
  0
VERTEX
  8
0
 10
5.15457197
 20
4.83784901
  0
VERTEX
  8
0
 10
5.13612217
 20
4.89974651
  0
VERTEX
  8
0
 10
5.11995731
 20
4.96228655
  0
VERTEX
  8
0
 10
5.10603630
 20
5.02533186
  0
VERTEX
  8
0
 10
5.09431804
 20
5.08874515
  0
VERTEX
  8
0
 10
5.08476145
 20
5.15238915
  0
VERTEX
  8
0
 10
5.07732543
 20
5.21612660
  0
VERTEX
  8
0
 10
5.07328714
 20
5.27843446
  0
VERTEX
  8
0
 10
5.07028464
 20
5.34095416
  0
VERTEX
  8
0
 10
5.06842842
 20
5.40361995
  0
VERTEX
  8
0
 10
5.06782895
 20
5.46636611
  0
VERTEX
  8
0
 10
5.06859673
 20
5.52912687
  0
VERTEX
  8
0
 10
5.07084226
 20
5.59183650
  0
VERTEX
  8
0
 10
5.07467600
 20
5.65442925
  0
VERTEX
  8
0
 10
5.08020846
 20
5.71683937
  0
VERTEX
  8
0
 10
5.08755012
 20
5.77900113
  0
VERTEX
  8
0
 10
5.09681147
 20
5.84084877
  0
VERTEX
  8
0
 10
5.10810300
 20
5.90231655
  0
VERTEX
  8
0
 10
5.12153519
 20
5.96333872
  0
VERTEX
  8
0
 10
5.13721853
 20
6.02384955
  0
VERTEX
  8
0
 10
5.15526351
 20
6.08378329
  0
VERTEX
  8
0
 10
5.17578062
 20
6.14307418
  0
VERTEX
  8
0
 10
5.19888035
 20
6.20165650
  0
VERTEX
  8
0
 10
5.22540134
 20
6.26494241
  0
VERTEX
  8
0
 10
5.25453661
 20
6.32741259
  0
VERTEX
  8
0
 10
5.28626575
 20
6.38885034
  0
VERTEX
  8
0
 10
5.32056838
 20
6.44903894
  0
VERTEX
  8
0
 10
5.33867838
 20
6.47859708
  0
VERTEX
  8
0
 10
5.35742410
 20
6.50776167
  0
VERTEX
  8
0
 10
5.37680300
 20
6.53650561
  0
VERTEX
  8
0
 10
5.39681252
 20
6.56480182
  0
VERTEX
  8
0
 10
5.41745012
 20
6.59262320
  0
VERTEX
  8
0
 10
5.43871325
 20
6.61994268
  0
VERTEX
  8
0
 10
5.46059935
 20
6.64673314
  0
VERTEX
  8
0
 10
5.48310588
 20
6.67296752
  0
VERTEX
  8
0
 10
5.50623029
 20
6.69861871
  0
VERTEX
  8
0
 10
5.52997004
 20
6.72365964
  0
VERTEX
  8
0
 10
5.55432256
 20
6.74806320
  0
VERTEX
  8
0
 10
5.57928532
 20
6.77180232
  0
VERTEX
  8
0
 10
5.60485576
 20
6.79484990
  0
VERTEX
  8
0
 10
5.63103134
 20
6.81717884
  0
VERTEX
  8
0
 10
5.65780950
 20
6.83876208
  0
VERTEX
  8
0
 10
5.68518769
 20
6.85957250
  0
VERTEX
  8
0
 10
5.71316337
 20
6.87958303
  0
VERTEX
  8
0
 10
5.74173399
 20
6.89876658
  0
VERTEX
  8
0
 10
5.77089700
 20
6.91709605
  0
VERTEX
  8
0
 10
5.80064985
 20
6.93454436
  0
VERTEX
  8
0
 10
5.83098999
 20
6.95108441
  0
VERTEX
  8
0
 10
5.86191487
 20
6.96668912
  0
VERTEX
  8
0
 10
5.89342194
 20
6.98133141
  0
VERTEX
  8
0
 10
5.92550865
 20
6.99498416
  0
SEQEND
  0
POLYLINE
  8
Default_Layer
 66
   1
 39
0.000000
 70
    1
  0
VERTEX
  8
0
 10
7.14521358
 20
7.02573652
  0
VERTEX
  8
0
 10
7.32929266
 20
7.02824619
  0
VERTEX
  8
0
 10
7.51341071
 20
7.02913902
  0
VERTEX
  8
0
 10
7.69752875
 20
7.02827866
  0
VERTEX
  8
0
 10
7.88160783
 20
7.02552873
  0
VERTEX
  8
0
 10
7.87564047
 20
6.89841229
  0
VERTEX
  8
0
 10
7.87382803
 20
6.83475545
  0
VERTEX
  8
0
 10
7.87345222
 20
6.77112052
  0
VERTEX
  8
0
 10
7.87500494
 20
6.70757325
  0
VERTEX
  8
0
 10
7.87897804
 20
6.64417939
  0
VERTEX
  8
0
 10
7.88202594
 20
6.61256053
  0
VERTEX
  8
0
 10
7.88586339
 20
6.58100468
  0
VERTEX
  8
0
 10
7.89055187
 20
6.54952005
  0
VERTEX
  8
0
 10
7.89615287
 20
6.51811486
  0
VERTEX
  8
0
 10
7.95312849
 20
6.19061136
  0
VERTEX
  8
0
 10
8.01175991
 20
5.86338058
  0
VERTEX
  8
0
 10
8.07050820
 20
5.53614980
  0
VERTEX
  8
0
 10
8.12783447
 20
5.20864630
  0
VERTEX
  8
0
 10
8.20097520
 20
5.21155531
  0
VERTEX
  8
0
 10
8.26248966
 20
5.51183882
  0
VERTEX
  8
0
 10
8.32281583
 20
5.81231712
  0
VERTEX
  8
0
 10
8.44263054
 20
6.41339062
  0
VERTEX
  8
0
 10
8.45763417
 20
6.48944686
  0
VERTEX
  8
0
 10
8.47344134
 20
6.56542518
  0
VERTEX
  8
0
 10
8.48925825
 20
6.64142298
  0
VERTEX
  8
0
 10
8.50429109
 20
6.71753766
  0
VERTEX
  8
0
 10
8.51774606
 20
6.79386661
  0
VERTEX
  8
0
 10
8.52882934
 20
6.87050725
  0
VERTEX
  8
0
 10
8.53323354
 20
6.90897489
  0
VERTEX
  8
0
 10
8.53674713
 20
6.94755697
  0
VERTEX
  8
0
 10
8.53927090
 20
6.98626567
  0
VERTEX
  8
0
 10
8.54070562
 20
7.02511316
  0
VERTEX
  8
0
 10
8.64097869
 20
7.02796698
  0
VERTEX
  8
0
 10
8.74134916
 20
7.02893123
  0
VERTEX
  8
0
 10
8.94214854
 20
7.02822996
  0
VERTEX
  8
0
 10
8.94518701
 20
6.98021349
  0
VERTEX
  8
0
 10
8.94943080
 20
6.93232364
  0
VERTEX
  8
0
 10
8.95481903
 20
6.88457016
  0
VERTEX
  8
0
 10
8.96129084
 20
6.83696277
  0
VERTEX
  8
0
 10
8.96878535
 20
6.78951122
  0
VERTEX
  8
0
 10
8.97724168
 20
6.74222525
  0
VERTEX
  8
0
 10
8.98659896
 20
6.69511460
  0
VERTEX
  8
0
 10
8.99679631
 20
6.64818902
  0
VERTEX
  8
0
 10
9.14907761
 20
5.95714410
  0
VERTEX
  8
0
 10
9.30057972
 20
5.26578750
  0
VERTEX
  8
0
 10
9.30127927
 20
5.25831308
  0
VERTEX
  8
0
 10
9.30300091
 20
5.25187719
  0
VERTEX
  8
0
 10
9.30564663
 20
5.24638364
  0
VERTEX
  8
0
 10
9.30911843
 20
5.24173625
  0
VERTEX
  8
0
 10
9.31331829
 20
5.23783884
  0
VERTEX
  8
0
 10
9.31814820
 20
5.23459522
  0
VERTEX
  8
0
 10
9.32930616
 20
5.22968465
  0
VERTEX
  8
0
 10
9.34180823
 20
5.22623508
  0
VERTEX
  8
0
 10
9.35487035
 20
5.22347704
  0
VERTEX
  8
0
 10
9.36770845
 20
5.22064108
  0
VERTEX
  8
0
 10
9.37953847
 20
5.21695775
  0
VERTEX
  8
0
 10
9.44698781
 20
5.56845406
  0
VERTEX
  8
0
 10
9.51270344
 20
5.92026205
  0
VERTEX
  8
0
 10
9.57791259
 20
6.27214796
  0
VERTEX
  8
0
 10
9.64384250
 20
6.62387803
  0
VERTEX
  8
0
 10
9.65195996
 20
6.67371750
  0
VERTEX
  8
0
 10
9.65735510
 20
6.72377124
  0
VERTEX
  8
0
 10
9.66034446
 20
6.77398083
  0
VERTEX
  8
0
 10
9.66124459
 20
6.82428781
  0
VERTEX
  8
0
 10
9.66037205
 20
6.87463376
  0
VERTEX
  8
0
 10
9.65804339
 20
6.92496022
  0
VERTEX
  8
0
 10
9.65457514
 20
6.97520876
  0
VERTEX
  8
0
 10
9.65028387
 20
7.02532095
  0
VERTEX
  8
0
 10
9.82264252
 20
7.02820398
  0
VERTEX
  8
0
 10
9.99500116
 20
7.02937278
  0
VERTEX
  8
0
 10
10.16735980
 20
7.02835982
  0
VERTEX
  8
0
 10
10.33971845
 20
7.02469759
  0
VERTEX
  8
0
 10
10.31617768
 20
6.96860648
  0
VERTEX
  8
0
 10
10.29453104
 20
6.91194923
  0
VERTEX
  8
0
 10
10.27460776
 20
6.85477820
  0
VERTEX
  8
0
 10
10.25623710
 20
6.79714574
  0
VERTEX
  8
0
 10
10.23924829
 20
6.73910420
  0
VERTEX
  8
0
 10
10.22347060
 20
6.68070593
  0
VERTEX
  8
0
 10
10.20873325
 20
6.62200329
  0
VERTEX
  8
0
 10
10.19486550
 20
6.56304863
  0
VERTEX
  8
0
 10
10.16905578
 20
6.44459264
  0
VERTEX
  8
0
 10
10.14467539
 20
6.32575680
  0
VERTEX
  8
0
 10
10.12035832
 20
6.20695991
  0
VERTEX
  8
0
 10
10.09473853
 20
6.08862081
  0
VERTEX
  8
0
 10
9.87534229
 20
5.04750811
  0
VERTEX
  8
0
 10
9.76569287
 20
4.52699072
  0
VERTEX
  8
0
 10
9.65672524
 20
4.00639541
  0
VERTEX
  8
0
 10
9.65483675
 20
3.99958397
  0
VERTEX
  8
0
 10
9.65203910
 20
3.99381501
  0
VERTEX
  8
0
 10
9.64842633
 20
3.98899631
  0
VERTEX
  8
0
 10
9.64409249
 20
3.98503564
  0
VERTEX
  8
0
 10
9.63913165
 20
3.98184078
  0
VERTEX
  8
0
 10
9.63363784
 20
3.97931949
  0
VERTEX
  8
0
 10
9.62142756
 20
3.97592876
  0
VERTEX
  8
0
 10
9.60821407
 20
3.97412565
  0
VERTEX
  8
0
 10
9.59474977
 20
3.97317235
  0
VERTEX
  8
0
 10
9.58178707
 20
3.97233106
  0
VERTEX
  8
0
 10
9.57007840
 20
3.97086397
  0
VERTEX
  8
0
 10
9.46675672
 20
3.97229575
  0
VERTEX
  8
0
 10
9.36343504
 20
3.97468204
  0
VERTEX
  8
0
 10
9.26011336
 20
3.97702938
  0
VERTEX
  8
0
 10
9.15679167
 20
3.97834428
  0
VERTEX
  8
0
 10
9.10743028
 20
4.17392830
  0
VERTEX
  8
0
 10
9.05916463
 20
4.36977774
  0
VERTEX
  8
0
 10
8.96453750
 20
4.76193197
  0
VERTEX
  8
0
 10
8.87014413
 20
5.15412515
  0
VERTEX
  8
0
 10
8.82217068
 20
5.35002329
  0
VERTEX
  8
0
 10
8.77321837
 20
5.54567550
  0
VERTEX
  8
0
 10
8.71316816
 20
5.57019427
  0
VERTEX
  8
0
 10
8.67764646
 20
5.44064891
  0
VERTEX
  8
0
 10
8.64440392
 20
5.31049725
  0
VERTEX
  8
0
 10
8.61285613
 20
5.17989267
  0
VERTEX
  8
0
 10
8.58241870
 20
5.04898859
  0
VERTEX
  8
0
 10
8.52253732
 20
4.78689553
  0
VERTEX
  8
0
 10
8.49192457
 20
4.65601336
  0
VERTEX
  8
0
 10
8.46008458
 20
4.52544531
  0
VERTEX
  8
0
 10
8.39574878
 20
4.25327138
  0
VERTEX
  8
0
 10
8.36433086
 20
4.11703831
  0
VERTEX
  8
0
 10
8.33375058
 20
3.98062992
  0
VERTEX
  8
0
 10
8.27129216
 20
3.97543973
  0
VERTEX
  8
0
 10
8.20876069
 20
3.97171784
  0
VERTEX
  8
0
 10
8.14618053
 20
3.96947156
  0
VERTEX
  8
0
 10
8.08357601
 20
3.96870819
  0
VERTEX
  8
0
 10
8.02097149
 20
3.96943504
  0
VERTEX
  8
0
 10
7.95839132
 20
3.97165940
  0
VERTEX
  8
0
 10
7.89585985
 20
3.97538860
  0
VERTEX
  8
0
 10
7.83340144
 20
3.98062992
  0
VERTEX
  8
0
 10
7.71913851
 20
4.53182175
  0
VERTEX
  8
0
 10
7.60374575
 20
5.08277982
  0
VERTEX
  8
0
 10
7.37253167
 20
6.18461803
  0
VERTEX
  8
0
 10
7.35001447
 20
6.29136007
  0
VERTEX
  8
0
 10
7.32824724
 20
6.39844300
  0
VERTEX
  8
0
 10
7.30601249
 20
6.50546750
  0
VERTEX
  8
0
 10
7.28209273
 20
6.61203422
  0
VERTEX
  8
0
 10
7.26912050
 20
6.66502112
  0
VERTEX
  8
0
 10
7.25527046
 20
6.71774382
  0
VERTEX
  8
0
 10
7.24039041
 20
6.77015241
  0
VERTEX
  8
0
 10
7.22432817
 20
6.82219696
  0
VERTEX
  8
0
 10
7.20693156
 20
6.87382757
  0
VERTEX
  8
0
 10
7.18804838
 20
6.92499431
  0
VERTEX
  8
0
 10
7.16752645
 20
6.97564727
  0
VERTEX
  8
0
 10
7.14521358
 20
7.02573652
  0
SEQEND
  0
POLYLINE
  8
Default_Layer
 66
   1
 39
0.000000
 70
    1
  0
VERTEX
  8
0
 10
10.48870114
 20
7.02677545
  0
VERTEX
  8
0
 10
10.66639405
 20
7.02832735
  0
VERTEX
  8
0
 10
10.84414539
 20
7.02890526
  0
VERTEX
  8
0
 10
11.02193570
 20
7.02847021
  0
VERTEX
  8
0
 10
11.19974548
 20
7.02698324
  0
VERTEX
  8
0
 10
11.18515236
 20
6.96183151
  0
VERTEX
  8
0
 10
11.17294918
 20
6.89643994
  0
VERTEX
  8
0
 10
11.16293019
 20
6.83083166
  0
VERTEX
  8
0
 10
11.15488964
 20
6.76502979
  0
VERTEX
  8
0
 10
11.14862176
 20
6.69905747
  0
VERTEX
  8
0
 10
11.14392080
 20
6.63293783
  0
VERTEX
  8
0
 10
11.14058100
 20
6.56669401
  0
VERTEX
  8
0
 10
11.13839661
 20
6.50034914
  0
VERTEX
  8
0
 10
11.13716186
 20
6.43392635
  0
VERTEX
  8
0
 10
11.13667101
 20
6.36744877
  0
VERTEX
  8
0
 10
11.13709795
 20
6.23442178
  0
VERTEX
  8
0
 10
11.13803136
 20
6.10145323
  0
VERTEX
  8
0
 10
11.13782520
 20
5.96872818
  0
VERTEX
  8
0
 10
11.13788039
 20
5.58906710
  0
VERTEX
  8
0
 10
11.13748754
 20
5.20934758
  0
VERTEX
  8
0
 10
11.13767910
 20
4.82958910
  0
VERTEX
  8
0
 10
11.13948749
 20
4.44981114
  0
VERTEX
  8
0
 10
11.19827150
 20
4.45190036
  0
VERTEX
  8
0
 10
11.25693863
 20
4.45592784
  0
VERTEX
  8
0
 10
11.31544992
 20
4.46180592
  0
VERTEX
  8
0
 10
11.37376641
 20
4.46944693
  0
VERTEX
  8
0
 10
11.43184915
 20
4.47876322
  0
VERTEX
  8
0
 10
11.48965916
 20
4.48966713
  0
VERTEX
  8
0
 10
11.54715750
 20
4.50207099
  0
VERTEX
  8
0
 10
11.60430519
 20
4.51588715
  0
VERTEX
  8
0
 10
11.65516451
 20
4.53025361
  0
VERTEX
  8
0
 10
11.70530551
 20
4.54670444
  0
VERTEX
  8
0
 10
11.75488646
 20
4.56477209
  0
VERTEX
  8
0
 10
11.80406564
 20
4.58398907
  0
VERTEX
  8
0
 10
11.90185177
 20
4.62400090
  0
VERTEX
  8
0
 10
11.95077527
 20
4.64386071
  0
VERTEX
  8
0
 10
11.99993009
 20
4.66299977
  0
VERTEX
  8
0
 10
11.97672622
 20
4.57735939
  0
VERTEX
  8
0
 10
11.95139903
 20
4.49234237
  0
VERTEX
  8
0
 10
11.92468877
 20
4.40773444
  0
VERTEX
  8
0
 10
11.89733566
 20
4.32332130
  0
VERTEX
  8
0
 10
11.87007996
 20
4.23888868
  0
VERTEX
  8
0
 10
11.84366189
 20
4.15422230
  0
VERTEX
  8
0
 10
11.81882170
 20
4.06910788
  0
VERTEX
  8
0
 10
11.79629963
 20
3.98333114
  0
VERTEX
  8
0
 10
11.74390951
 20
3.97727085
  0
VERTEX
  8
0
 10
11.69146825
 20
3.97345805
  0
VERTEX
  8
0
 10
11.63898316
 20
3.97147150
  0
VERTEX
  8
0
 10
11.58646155
 20
3.97088995
  0
VERTEX
  8
0
 10
11.48133797
 20
3.97225679
  0
VERTEX
  8
0
 10
11.37615596
 20
3.97418855
  0
VERTEX
  8
0
 10
11.33462236
 20
3.97167473
  0
VERTEX
  8
0
 10
11.29308450
 20
3.97018786
  0
VERTEX
  8
0
 10
11.25154299
 20
3.96957637
  0
VERTEX
  8
0
 10
11.20999843
 20
3.96968868
  0
VERTEX
  8
0
 10
11.12690262
 20
3.97147840
  0
VERTEX
  8
0
 10
11.04380195
 20
3.97434439
  0
VERTEX
  8
0
 10
10.96070127
 20
3.97707402
  0
VERTEX
  8
0
 10
10.87760546
 20
3.97845466
  0
VERTEX
  8
0
 10
10.83606091
 20
3.97826017
  0
VERTEX
  8
0
 10
10.79451939
 20
3.97727369
  0
VERTEX
  8
0
 10
10.75298154
 20
3.97534365
  0
VERTEX
  8
0
 10
10.71144794
 20
3.97231848
  0
VERTEX
  8
0
 10
10.68348487
 20
3.97035547
  0
VERTEX
  8
0
 10
10.65554371
 20
3.96989972
  0
VERTEX
  8
0
 10
10.62762691
 20
3.97068581
  0
VERTEX
  8
0
 10
10.59973689
 20
3.97244834
  0
VERTEX
  8
0
 10
10.54404694
 20
3.97784104
  0
VERTEX
  8
0
 10
10.48849336
 20
3.98395450
  0
VERTEX
  8
0
 10
10.49930970
 20
4.03050358
  0
VERTEX
  8
0
 10
10.50896760
 20
4.07725781
  0
VERTEX
  8
0
 10
10.51752610
 20
4.12419831
  0
VERTEX
  8
0
 10
10.52504425
 20
4.17130622
  0
VERTEX
  8
0
 10
10.53158109
 20
4.21856266
  0
VERTEX
  8
0
 10
10.53719568
 20
4.26594877
  0
VERTEX
  8
0
 10
10.54194706
 20
4.31344567
  0
VERTEX
  8
0
 10
10.54589429
 20
4.36103449
  0
VERTEX
  8
0
 10
10.55161247
 20
4.45641241
  0
VERTEX
  8
0
 10
10.55482260
 20
4.55193156
  0
VERTEX
  8
0
 10
10.55599708
 20
4.64744097
  0
VERTEX
  8
0
 10
10.55560830
 20
4.74278966
  0
VERTEX
  8
0
 10
10.55568622
 20
5.57393442
  0
VERTEX
  8
0
 10
10.55623165
 20
6.40507918
  0
VERTEX
  8
0
 10
10.55431004
 20
6.48334517
  0
VERTEX
  8
0
 10
10.55032598
 20
6.56150646
  0
VERTEX
  8
0
 10
10.54437932
 20
6.63953626
  0
VERTEX
  8
0
 10
10.53656989
 20
6.71740779
  0
VERTEX
  8
0
 10
10.52699752
 20
6.79509426
  0
VERTEX
  8
0
 10
10.51576205
 20
6.87256888
  0
VERTEX
  8
0
 10
10.50296331
 20
6.94980487
  0
VERTEX
  8
0
 10
10.48870114
 20
7.02677545
  0
SEQEND
  0
ENDSEC
  0
EOF
