  0
SECTION
  2
HEADER
  9
$ACADVER
  1
AC1006
  9
$DWGCODEPAGE
  3
ansi_1252
  9
$INSBASE
 10
0.0
 20
0.0
 30
0.0
  9
$EXTMIN
 10
0.6847837439486835
 20
0.0408826334671719
  9
$EXTMAX
 10
249.136864119267
 20
194.9046767799891
  9
$LIMMIN
 10
0.0
 20
0.0
  9
$LIMMAX
 10
12.0
 20
9.0
  9
$ORTHOMODE
 70
     0
  9
$REGENMODE
 70
     1
  9
$FILLMODE
 70
     1
  9
$QTEXTMODE
 70
     0
  9
$MIRRTEXT
 70
     1
  9
$DRAGMODE
 70
     2
  9
$LTSCALE
 40
1.0
  9
$OSMODE
 70
    37
  9
$ATTMODE
 70
     1
  9
$TEXTSIZE
 40
0.2
  9
$TRACEWID
 40
0.05
  9
$TEXTSTYLE
  7
STANDARD
  9
$CLAYER
  8
0
  9
$CELTYPE
  6
BYBLOCK
  9
$CECOLOR
 62
   256
  9
$DIMSCALE
 40
1.0
  9
$DIMASZ
 40
0.18
  9
$DIMEXO
 40
0.0625
  9
$DIMDLI
 40
0.38
  9
$DIMRND
 40
0.0
  9
$DIMDLE
 40
0.0
  9
$DIMEXE
 40
0.18
  9
$DIMTP
 40
0.0
  9
$DIMTM
 40
0.0
  9
$DIMTXT
 40
0.18
  9
$DIMCEN
 40
0.09
  9
$DIMTSZ
 40
0.0
  9
$DIMTOL
 70
     0
  9
$DIMLIM
 70
     0
  9
$DIMTIH
 70
     1
  9
$DIMTOH
 70
     1
  9
$DIMSE1
 70
     0
  9
$DIMSE2
 70
     0
  9
$DIMTAD
 70
     0
  9
$DIMZIN
 70
     0
  9
$DIMBLK
  1

  9
$DIMASO
 70
     1
  9
$DIMSHO
 70
     1
  9
$DIMPOST
  1

  9
$DIMAPOST
  1

  9
$DIMALT
 70
     0
  9
$DIMALTD
 70
     2
  9
$DIMALTF
 40
25.4
  9
$DIMLFAC
 40
1.0
  9
$DIMTOFL
 70
     0
  9
$DIMTVP
 40
0.0
  9
$DIMTIX
 70
     0
  9
$DIMSOXD
 70
     0
  9
$DIMSAH
 70
     0
  9
$DIMBLK1
  1

  9
$DIMBLK2
  1

  9
$LUNITS
 70
     2
  9
$LUPREC
 70
     4
  9
$SKETCHINC
 40
0.1
  9
$FILLETRAD
 40
0.5
  9
$AUNITS
 70
     0
  9
$AUPREC
 70
     0
  9
$MENU
  1
.
  9
$ELEVATION
 40
0.0
  9
$THICKNESS
 40
0.0
  9
$LIMCHECK
 70
     0
  9
$CHAMFERA
 40
0.5
  9
$CHAMFERB
 40
0.5
  9
$SKPOLY
 70
     0
  9
$TDCREATE
 40
2453353.508792488
  9
$TDUPDATE
 40
4881657.851831111
  9
$TDINDWG
 40
4881704.058228148
  9
$TDUSRTIMER
 40
4881704.058228148
  9
$USRTIMER
 70
     1
  9
$ANGBASE
 50
0.0
  9
$ANGDIR
 70
     0
  9
$PDMODE
 70
     0
  9
$PDSIZE
 40
0.0
  9
$PLINEWID
 40
0.0
  9
$COORDS
 70
     1
  9
$SPLFRAME
 70
     0
  9
$SPLINETYPE
 70
     6
  9
$SPLINESEGS
 70
     8
  9
$ATTDIA
 70
     0
  9
$ATTREQ
 70
     1
  9
$HANDLING
 70
     1
  9
$HANDSEED
  5
493
  9
$SURFTAB1
 70
     6
  9
$SURFTAB2
 70
     6
  9
$SURFTYPE
 70
     6
  9
$SURFU
 70
     6
  9
$SURFV
 70
     6
  9
$UCSNAME
  2

  9
$UCSORG
 10
0.0
 20
0.0
 30
0.0
  9
$UCSXDIR
 10
1.0
 20
0.0
 30
0.0
  9
$UCSYDIR
 10
0.0
 20
1.0
 30
0.0
  9
$USERI1
 70
     0
  9
$USERI2
 70
     0
  9
$USERI3
 70
     0
  9
$USERI4
 70
     0
  9
$USERI5
 70
     0
  9
$USERR1
 40
0.0
  9
$USERR2
 40
0.0
  9
$USERR3
 40
0.0
  9
$USERR4
 40
0.0
  9
$USERR5
 40
0.0
  9
$WORLDVIEW
 70
     1
  0
ENDSEC
  0
SECTION
  2
TABLES
  0
TABLE
  2
VPORT
 70
     1
  0
VPORT
  2
*ACTIVE
 70
     0
 10
0.0
 20
0.0
 11
1.0
 21
1.0
 12
112.0567244267933
 22
101.6249139727183
 13
0.0
 23
0.0
 14
0.5
 24
0.5
 15
0.5
 25
0.5
 16
0.0
 26
0.0
 36
1.0
 17
0.0
 27
0.0
 37
0.0
 40
204.7142713094508
 41
1.972972972850329
 42
50.0
 43
0.0
 44
0.0
 50
0.0
 51
0.0
 71
    16
 72
   100
 73
     1
 74
     3
 75
     0
 76
     0
 77
     0
 78
     0
  0
ENDTAB
  0
TABLE
  2
LTYPE
 70
     1
  0
LTYPE
  2
CONTINUOUS
 70
     0
  3
Solid line
 72
    65
 73
     0
 40
0.0
  0
ENDTAB
  0
TABLE
  2
LAYER
 70
     2
  0
LAYER
  2
0
 70
     0
 62
     7
  6
CONTINUOUS
  0
LAYER
  2
LAYER_1
 70
     0
 62
     7
  6
CONTINUOUS
  0
ENDTAB
  0
TABLE
  2
STYLE
 70
     1
  0
STYLE
  2
STANDARD
 70
     0
 40
0.0
 41
1.0
 50
0.0
 71
     0
 42
0.2
  3
txt
  4

  0
ENDTAB
  0
TABLE
  2
VIEW
 70
     0
  0
ENDTAB
  0
TABLE
  2
UCS
 70
     0
  0
ENDTAB
  0
ENDSEC
  0
SECTION
  2
BLOCKS
  0
ENDSEC
  0
SECTION
  2
ENTITIES
  0
ARC
  5
403
  8
0
  6
BYBLOCK
 62
     4
 10
38.9107628163332
 20
169.4542849751725
 30
0.0
 40
27.24560812714821
 50
344.0580171894688
 51
57.17349031475876
  0
ARC
  5
404
  8
0
  6
BYBLOCK
 62
     4
 10
34.13071571249543
 20
173.1525309480726
 30
0.0
 40
11.38317081605428
 50
185.6988116563813
 51
240.8018337595324
  0
ARC
  5
405
  8
0
  6
BYBLOCK
 62
     4
 10
109.4384522753277
 20
145.7048819232829
 30
0.0
 40
82.73512074334956
 50
167.7809630112018
 51
251.3658671724814
  0
ARC
  5
406
  8
0
  6
BYBLOCK
 62
     4
 10
33.18393542494613
 20
119.0050542334103
 30
0.0
 40
67.46069412251254
 50
93.95230898349666
 51
118.7997232244825
  0
ARC
  5
407
  8
0
  6
BYBLOCK
 62
     4
 10
35.52859182659944
 20
261.3255730331562
 30
0.0
 40
90.20539914617265
 50
247.2772778609323
 51
261.8905462049956
  0
ARC
  5
408
  8
0
  6
BYBLOCK
 62
     4
 10
49.55178693946516
 20
-39.13482080857588
 30
0.0
 40
195.309383040186
 50
41.80223631202211
 51
75.55567572066981
  0
ARC
  5
409
  8
0
  6
BYBLOCK
 62
     4
 10
195.036445145745
 20
190.5047827721879
 30
0.0
 40
99.45393470744023
 50
239.7019467940045
 51
270.0626329658813
  0
ARC
  5
40A
  8
0
  6
BYBLOCK
 62
     4
 10
314.2647076245892
 20
250.9606512024493
 30
0.0
 40
223.8491452324462
 50
220.819618856234
 51
248.0410387136343
  0
ARC
  5
40B
  8
0
  6
BYBLOCK
 62
     4
 10
73.21885571532107
 20
-208.6175414234528
 30
0.0
 40
271.959897969175
 50
56.89144705503495
 51
75.86176618783937
  0
ARC
  5
40D
  8
0
  6
BYBLOCK
 62
     4
 10
246.8602039108852
 20
23.74299414210781
 30
0.0
 40
25.49995878790675
 50
129.7398099429229
 51
190.2939770132771
  0
ARC
  5
40E
  8
0
  6
BYBLOCK
 62
     4
 10
131.8166083933998
 20
84.17342130417181
 30
0.0
 40
30.10547518139408
 50
233.2254305617409
 51
285.0786075083273
  0
ARC
  5
40F
  8
0
  6
BYBLOCK
 62
     4
 10
61.28183175679794
 20
99.45068452965965
 30
0.0
 40
62.63721740411378
 50
53.80696093598223
 51
86.49746062525722
  0
ARC
  5
410
  8
0
  6
BYBLOCK
 62
     4
 10
44.03747826075534
 20
177.1359913699046
 30
0.0
 40
18.01194515790161
 50
57.63101625872418
 51
149.3981754099208
  0
ARC
  5
411
  8
0
  6
BYBLOCK
 62
     4
 10
103.6481890991345
 20
53.47511692039763
 30
0.0
 40
12.04184047426478
 50
331.5834879325932
 51
33.38901628958476
  0
LINE
  5
412
  8
0
  6
BYBLOCK
 62
     4
 10
114.2391258707159
 20
47.74467362969087
 30
0.0
 11
105.3892535138135
 21
24.98937661930147
 31
0.0
  0
ARC
  5
413
  8
0
  6
BYBLOCK
 62
     4
 10
117.9205634409955
 20
20.13808144222716
 30
0.0
 40
4.714731799100226
 50
284.1124579088088
 51
64.23633763095087
  0
ARC
  5
414
  8
0
  6
BYBLOCK
 62
     4
 10
116.8156187426074
 20
17.59852751735014
 30
0.0
 40
2.728094562851037
 50
311.8266614767765
 51
94.67890039350442
  0
ARC
  5
415
  8
0
  6
BYBLOCK
 62
     4
 10
121.5999822414278
 20
-15.14163881367783
 30
0.0
 40
35.81091637380246
 50
98.03713307573409
 51
154.9149260311198
  0
ARC
  5
416
  8
0
  6
BYBLOCK
 62
     4
 10
107.6947050268071
 20
5.774786130863935
 30
0.0
 40
19.39488979545151
 50
146.5437878459162
 51
197.195913208484
  0
ARC
  5
417
  8
0
  6
BYBLOCK
 62
     4
 10
111.5627338372849
 20
-2.218626038402526
 30
0.0
 40
27.89959261218552
 50
72.46217173730332
 51
102.7839266338898
  0
ARC
  5
418
  8
0
  6
BYBLOCK
 62
     4
 10
96.03952691464781
 20
-3.231426345425163
 30
0.0
 40
20.21189906556999
 50
102.9401735477245
 51
151.9230324090968
  0
ARC
  5
419
  8
0
  6
BYBLOCK
 62
     4
 10
89.54135185747515
 20
10.62770791047841
 30
0.0
 40
12.13979682826898
 50
107.3177912923075
 51
200.978483623572
  0
ARC
  5
41A
  8
0
  6
BYBLOCK
 62
     4
 10
78.12234243636755
 20
2.837706882322053
 30
0.0
 40
20.89228660059559
 50
68.06224343216891
 51
97.90475307838564
  0
ARC
  5
41B
  8
0
  6
BYBLOCK
 62
     4
 10
88.49385950255589
 20
7.636607058162525
 30
0.0
 40
20.68986839540657
 50
57.4224112021119
 51
129.8035295058514
  0
ARC
  5
41C
  8
0
  6
BYBLOCK
 62
     4
 10
86.06499657591269
 20
48.33726561320835
 30
0.0
 40
18.81928097193792
 50
346.0881278547396
 51
58.96051967095062
  0
LINE
  5
41D
  8
0
  6
BYBLOCK
 62
     4
 10
104.3322456239577
 20
43.81256136680227
 30
0.0
 11
99.63413746570114
 21
25.07119512680079
 31
0.0
  0
LINE
  5
41E
  8
0
  6
BYBLOCK
 62
     4
 10
93.72617205587574
 20
55.92677248485674
 30
0.0
 11
72.88785297347158
 21
41.37219640386404
 31
0.0
  0
LINE
  5
41F
  8
0
  6
BYBLOCK
 62
     4
 10
84.46159506510048
 20
57.75050811296211
 30
0.0
 11
67.13273692535927
 21
41.45401491136336
 31
0.0
  0
ARC
  5
420
  8
0
  6
BYBLOCK
 62
     4
 10
85.41916290065359
 20
36.52090122678973
 30
0.0
 40
4.714731799100226
 50
284.112457908808
 51
64.23633763095016
  0
ARC
  5
421
  8
0
  6
BYBLOCK
 62
     4
 10
84.31421820226547
 20
33.98134730191271
 30
0.0
 40
2.728094562851046
 50
311.8266614767762
 51
94.67890039350422
  0
ARC
  5
422
  8
0
  6
BYBLOCK
 62
     4
 10
87.59963489357881
 20
3.455930090948968
 30
0.0
 40
33.4289875649685
 50
96.02356056241877
 51
156.1806323530325
  0
ARC
  5
423
  8
0
  6
BYBLOCK
 62
     4
 10
72.802521693328
 20
23.04797676790331
 30
0.0
 40
16.91916116600129
 50
144.5955490444399
 51
201.1027358767548
  0
ARC
  5
424
  8
0
  6
BYBLOCK
 62
     4
 10
79.06133329694296
 20
14.16419374616005
 30
0.0
 40
27.89959261218549
 50
72.46217173730318
 51
102.7839266338897
  0
ARC
  5
425
  8
0
  6
BYBLOCK
 62
     4
 10
64.59951476066237
 20
10.89438555639556
 30
0.0
 40
22.65544655934218
 50
104.2781753903485
 51
144.3745179912772
  0
ARC
  5
426
  8
0
  6
BYBLOCK
 62
     4
 10
57.61412171125761
 20
27.44772751233016
 30
0.0
 40
11.91265582472578
 50
110.5818703696823
 51
196.367204022254
  0
ARC
  5
427
  8
0
  6
BYBLOCK
 62
     4
 10
42.04214630966544
 20
5.359528156181113
 30
0.0
 40
35.13585150282106
 50
71.09479243057133
 51
87.98495252640133
  0
ARC
  5
428
  8
0
  6
BYBLOCK
 62
     4
 10
55.91400294372966
 20
23.71567305417587
 30
0.0
 40
20.98830064566976
 50
57.68841705452173
 51
127.0182432734646
  0
ARC
  5
429
  8
0
  6
BYBLOCK
 62
     4
 10
81.1283066779655
 20
62.13116963632446
 30
0.0
 40
5.50463503368536
 50
307.267862765921
 51
70.09297408422187
  0
ARC
  5
42A
  8
0
  6
BYBLOCK
 62
     4
 10
90.60159611703847
 20
61.18648736689795
 30
0.0
 40
6.117808058277642
 50
300.7127700690742
 51
32.36986071369589
  0
ENDSEC
  0
EOF
