  0
SECTION
  2
HEADER
  9
$ACADVER
  1
AC1015
  9
$ACADMAINTVER
 70
     6
  9
$DWGCODEPAGE
  3
ANSI_1252
  9
$INSBASE
 10
0.0
 20
0.0
 30
0.0
  9
$EXTMIN
 10
1.000000E+20
 20
1.000000E+20
 30
1.000000E+20
  9
$EXTMAX
 10
-1.000000E+20
 20
-1.000000E+20
 30
-1.000000E+20
  9
$LIMMIN
 10
0.0
 20
0.0
  9
$LIMMAX
 10
420.0
 20
297.0
  9
$ORTHOMODE
 70
     0
  9
$REGENMODE
 70
     1
  9
$FILLMODE
 70
     1
  9
$QTEXTMODE
 70
     0
  9
$MIRRTEXT
 70
     1
  9
$LTSCALE
 40
1.0
  9
$ATTMODE
 70
     1
  9
$TEXTSIZE
 40
2.5
  9
$TRACEWID
 40
1.0
  9
$TEXTSTYLE
  7
Standard
  9
$CLAYER
  8
0
  9
$CELTYPE
  6
ByLayer
  9
$CECOLOR
 62
   256
  9
$CELTSCALE
 40
1.0
  9
$DISPSILH
 70
     0
  9
$DIMSCALE
 40
1.0
  9
$DIMASZ
 40
2.5
  9
$DIMEXO
 40
0.625
  9
$DIMDLI
 40
3.75
  9
$DIMRND
 40
0.0
  9
$DIMDLE
 40
0.0
  9
$DIMEXE
 40
1.25
  9
$DIMTP
 40
0.0
  9
$DIMTM
 40
0.0
  9
$DIMTXT
 40
2.5
  9
$DIMCEN
 40
2.5
  9
$DIMTSZ
 40
0.0
  9
$DIMTOL
 70
     0
  9
$DIMLIM
 70
     0
  9
$DIMTIH
 70
     0
  9
$DIMTOH
 70
     0
  9
$DIMSE1
 70
     0
  9
$DIMSE2
 70
     0
  9
$DIMTAD
 70
     1
  9
$DIMZIN
 70
     8
  9
$DIMBLK
  1

  9
$DIMASO
 70
     1
  9
$DIMSHO
 70
     1
  9
$DIMPOST
  1

  9
$DIMAPOST
  1

  9
$DIMALT
 70
     0
  9
$DIMALTD
 70
     3
  9
$DIMALTF
 40
0.03937
  9
$DIMLFAC
 40
1.0
  9
$DIMTOFL
 70
     1
  9
$DIMTVP
 40
0.0
  9
$DIMTIX
 70
     0
  9
$DIMSOXD
 70
     0
  9
$DIMSAH
 70
     0
  9
$DIMBLK1
  1

  9
$DIMBLK2
  1

  9
$DIMSTYLE
  2
ISO-25
  9
$DIMCLRD
 70
     0
  9
$DIMCLRE
 70
     0
  9
$DIMCLRT
 70
     0
  9
$DIMTFAC
 40
1.0
  9
$DIMGAP
 40
0.625
  9
$DIMJUST
 70
     0
  9
$DIMSD1
 70
     0
  9
$DIMSD2
 70
     0
  9
$DIMTOLJ
 70
     0
  9
$DIMTZIN
 70
     8
  9
$DIMALTZ
 70
     0
  9
$DIMALTTZ
 70
     0
  9
$DIMUPT
 70
     0
  9
$DIMDEC
 70
     2
  9
$DIMTDEC
 70
     2
  9
$DIMALTU
 70
     2
  9
$DIMALTTD
 70
     3
  9
$DIMTXSTY
  7
Standard
  9
$DIMAUNIT
 70
     0
  9
$DIMADEC
 70
     0
  9
$DIMALTRND
 40
0.0
  9
$DIMAZIN
 70
     0
  9
$DIMDSEP
 70
    44
  9
$DIMATFIT
 70
     3
  9
$DIMFRAC
 70
     0
  9
$DIMLDRBLK
  1

  9
$DIMLUNIT
 70
     2
  9
$DIMLWD
 70
    -2
  9
$DIMLWE
 70
    -2
  9
$DIMTMOVE
 70
     0
  9
$LUNITS
 70
     2
  9
$LUPREC
 70
     4
  9
$SKETCHINC
 40
1.0
  9
$FILLETRAD
 40
10.0
  9
$AUNITS
 70
     0
  9
$AUPREC
 70
     0
  9
$MENU
  1
.
  9
$ELEVATION
 40
0.0
  9
$PELEVATION
 40
0.0
  9
$THICKNESS
 40
0.0
  9
$LIMCHECK
 70
     0
  9
$CHAMFERA
 40
10.0
  9
$CHAMFERB
 40
10.0
  9
$CHAMFERC
 40
20.0
  9
$CHAMFERD
 40
0.0
  9
$SKPOLY
 70
     0
  9
$TDCREATE
 40
2455593.851872732
  9
$TDUCREATE
 40
2455594.101872732
  9
$TDUPDATE
 40
2455593.851872743
  9
$TDUUPDATE
 40
2455594.101872743
  9
$TDINDWG
 40
0.0000000116
  9
$TDUSRTIMER
 40
0.0000000116
  9
$USRTIMER
 70
     1
  9
$ANGBASE
 50
0.0
  9
$ANGDIR
 70
     0
  9
$PDMODE
 70
     3
  9
$PDSIZE
 40
-0.7
  9
$PLINEWID
 40
0.0
  9
$SPLFRAME
 70
     0
  9
$SPLINETYPE
 70
     6
  9
$SPLINESEGS
 70
     8
  9
$HANDSEED
  5
9C
  9
$SURFTAB1
 70
     6
  9
$SURFTAB2
 70
     6
  9
$SURFTYPE
 70
     6
  9
$SURFU
 70
     6
  9
$SURFV
 70
     6
  9
$UCSBASE
  2

  9
$UCSNAME
  2

  9
$UCSORG
 10
0.0
 20
0.0
 30
0.0
  9
$UCSXDIR
 10
1.0
 20
0.0
 30
0.0
  9
$UCSYDIR
 10
0.0
 20
1.0
 30
0.0
  9
$UCSORTHOREF
  2

  9
$UCSORTHOVIEW
 70
     0
  9
$UCSORGTOP
 10
0.0
 20
0.0
 30
0.0
  9
$UCSORGBOTTOM
 10
0.0
 20
0.0
 30
0.0
  9
$UCSORGLEFT
 10
0.0
 20
0.0
 30
0.0
  9
$UCSORGRIGHT
 10
0.0
 20
0.0
 30
0.0
  9
$UCSORGFRONT
 10
0.0
 20
0.0
 30
0.0
  9
$UCSORGBACK
 10
0.0
 20
0.0
 30
0.0
  9
$PUCSBASE
  2

  9
$PUCSNAME
  2

  9
$PUCSORG
 10
0.0
 20
0.0
 30
0.0
  9
$PUCSXDIR
 10
1.0
 20
0.0
 30
0.0
  9
$PUCSYDIR
 10
0.0
 20
1.0
 30
0.0
  9
$PUCSORTHOREF
  2

  9
$PUCSORTHOVIEW
 70
     0
  9
$PUCSORGTOP
 10
0.0
 20
0.0
 30
0.0
  9
$PUCSORGBOTTOM
 10
0.0
 20
0.0
 30
0.0
  9
$PUCSORGLEFT
 10
0.0
 20
0.0
 30
0.0
  9
$PUCSORGRIGHT
 10
0.0
 20
0.0
 30
0.0
  9
$PUCSORGFRONT
 10
0.0
 20
0.0
 30
0.0
  9
$PUCSORGBACK
 10
0.0
 20
0.0
 30
0.0
  9
$USERI1
 70
     0
  9
$USERI2
 70
     0
  9
$USERI3
 70
     0
  9
$USERI4
 70
     0
  9
$USERI5
 70
     0
  9
$USERR1
 40
0.0
  9
$USERR2
 40
0.0
  9
$USERR3
 40
0.0
  9
$USERR4
 40
0.0
  9
$USERR5
 40
0.0
  9
$WORLDVIEW
 70
     1
  9
$SHADEDGE
 70
     3
  9
$SHADEDIF
 70
    70
  9
$TILEMODE
 70
     1
  9
$MAXACTVP
 70
    64
  9
$PINSBASE
 10
0.0
 20
0.0
 30
0.0
  9
$PLIMCHECK
 70
     0
  9
$PEXTMIN
 10
1.000000E+20
 20
1.000000E+20
 30
1.000000E+20
  9
$PEXTMAX
 10
-1.000000E+20
 20
-1.000000E+20
 30
-1.000000E+20
  9
$PLIMMIN
 10
0.0
 20
0.0
  9
$PLIMMAX
 10
420.0
 20
297.0
  9
$UNITMODE
 70
     0
  9
$VISRETAIN
 70
     1
  9
$PLINEGEN
 70
     0
  9
$PSLTSCALE
 70
     1
  9
$TREEDEPTH
 70
  3020
  9
$CMLSTYLE
  2
Standard
  9
$CMLJUST
 70
     1
  9
$CMLSCALE
 40
1.0
  9
$PROXYGRAPHICS
 70
     1
  9
$MEASUREMENT
 70
     1
  9
$CELWEIGHT
370
    -1
  9
$ENDCAPS
280
     0
  9
$JOINSTYLE
280
     0
  9
$LWDISPLAY
290
     0
  9
$INSUNITS
 70
     4
  9
$HYPERLINKBASE
  1

  9
$STYLESHEET
  1

  9
$XEDIT
290
     1
  9
$CEPSNTYPE
380
     0
  9
$PSTYLEMODE
290
     1
  9
$FINGERPRINTGUID
  2
{FAEB1C30-E019-11D5-929B-00C0DF256EC4}
  9
$VERSIONGUID
  2
{FAEB1C32-E019-11D5-929B-00C0DF256EC4}
  9
$EXTNAMES
290
     1
  9
$PSVPSCALE
 40
0.0
  9
$OLESTARTUP
290
     0
  0
ENDSEC
  0
SECTION
  2
CLASSES
  0
CLASS
  1
ACDBDICTIONARYWDFLT
  2
AcDbDictionaryWithDefault
  3
ObjectDBX Classes
 90
        0
280
     0
281
     0
  0
CLASS
  1
ACDBPLACEHOLDER
  2
AcDbPlaceHolder
  3
ObjectDBX Classes
 90
        0
280
     0
281
     0
  0
CLASS
  1
LAYOUT
  2
AcDbLayout
  3
ObjectDBX Classes
 90
        0
280
     0
281
     0
  0
ENDSEC
  0
SECTION
  2
TABLES
  0
TABLE
  2
VPORT
  5
8
330
0
100
AcDbSymbolTable
 70
     2
  0
VPORT
  5
29
330
8
100
AcDbSymbolTableRecord
100
AcDbViewportTableRecord
  2
*Active
 70
     0
 10
0.0
 20
0.0
 11
1.0
 21
1.0
 12
50.0
 22
50.0
 13
0.0
 23
0.0
 14
10.0
 24
10.0
 15
10.0
 25
10.0
 16
0.0
 26
0.0
 36
1.0
 17
0.0
 27
0.0
 37
0.0
 40
103.921569
 41
1.0
 42
50.0
 43
0.0
 44
0.0
 50
0.0
 51
0.0
 71
     0
 72
   100
 73
     1
 74
     3
 75
     0
 76
     0
 77
     0
 78
     0
281
     0
 65
     1
110
0.0
120
0.0
130
0.0
111
1.0
121
0.0
131
0.0
112
0.0
122
1.0
132
0.0
 79
     0
146
0.0
  0
ENDTAB
  0
TABLE
  2
LTYPE
  5
5
330
0
100
AcDbSymbolTable
 70
     1
  0
LTYPE
  5
14
330
5
100
AcDbSymbolTableRecord
100
AcDbLinetypeTableRecord
  2
ByBlock
 70
     0
  3

 72
    65
 73
     0
 40
0.0
  0
LTYPE
  5
15
330
5
100
AcDbSymbolTableRecord
100
AcDbLinetypeTableRecord
  2
ByLayer
 70
     0
  3

 72
    65
 73
     0
 40
0.0
  0
LTYPE
  5
16
330
5
100
AcDbSymbolTableRecord
100
AcDbLinetypeTableRecord
  2
Continuous
 70
     0
  3

 72
    65
 73
     0
 40
0.0
  0
ENDTAB
  0
TABLE
  2
LAYER
  5
2
330
0
100
AcDbSymbolTable
 70
     1
  0
LAYER
  5
10
330
2
100
AcDbSymbolTableRecord
100
AcDbLayerTableRecord
  2
0
 70
     0
 62
     7
  6
Continuous
370
    -3
390
F
  0
ENDTAB
  0
TABLE
  2
STYLE
  5
3
330
0
100
AcDbSymbolTable
 70
     1
  0
STYLE
  5
11
330
3
100
AcDbSymbolTableRecord
100
AcDbTextStyleTableRecord
  2
Standard
 70
     0
 40
1.0
 41
1.0
 50
0.0
 71
     0
 42
2.5
  3
RomanS
  4

  0
ENDTAB
  0
TABLE
  2
VIEW
  5
6
330
0
100
AcDbSymbolTable
 70
     0
  0
ENDTAB
  0
TABLE
  2
UCS
  5
7
330
0
100
AcDbSymbolTable
 70
     0
  0
ENDTAB
  0
TABLE
  2
APPID
  5
9
330
0
100
AcDbSymbolTable
 70
     1
  0
APPID
  5
12
330
9
100
AcDbSymbolTableRecord
100
AcDbRegAppTableRecord
  2
ACAD
 70
     0
  0
ENDTAB
  0
TABLE
  2
DIMSTYLE
  5
A
330
0
100
AcDbSymbolTable
 70
     1
100
AcDbDimStyleTable
  0
DIMSTYLE
105
27
330
A
100
AcDbSymbolTableRecord
100
AcDbDimStyleTableRecord
  2
ISO-25
 70
     0
 41
2.5
 42
0.625
 44
1.25
 73
     0
 74
     0
 77
     1
 78
     8
 79
     2
140
2.5
141
2.5
146
0.0
147
0.625
271
     2
272
     0
273
     0
274
     0
278
    44
283
     0
289
     0
340
11
  0
ENDTAB
  0
TABLE
  2
BLOCK_RECORD
  5
1
330
0
100
AcDbSymbolTable
 70
     1
  0
BLOCK_RECORD
  5
1F
330
1
100
AcDbSymbolTableRecord
100
AcDbBlockTableRecord
  2
*Model_Space
340
22
  0
BLOCK_RECORD
  5
1B
330
1
100
AcDbSymbolTableRecord
100
AcDbBlockTableRecord
  2
*Paper_Space
340
1E
  0
BLOCK_RECORD
  5
23
330
1
100
AcDbSymbolTableRecord
100
AcDbBlockTableRecord
  2
*Paper_Space0
340
26
  0
ENDTAB
  0
ENDSEC
  0
SECTION
  2
BLOCKS
  0
BLOCK
  5
20
330
1F
100
AcDbEntity
  8
0
100
AcDbBlockBegin
  2
*Model_Space
 70
     0
 71
     0
 10
0.0
 20
0.0
 30
0.0
  3
*Model_Space
  1

  0
ENDBLK
  5
21
330
1F
100
AcDbEntity
  8
0
100
AcDbBlockEnd
  0
BLOCK
  5
1C
330
1B
100
AcDbEntity
 67
     1
  8
0
100
AcDbBlockBegin
  2
*Paper_Space
 70
     0
 71
     0
 10
0.0
 20
0.0
 30
0.0
  3
*Paper_Space
  1

  0
ENDBLK
  5
1D
330
1B
100
AcDbEntity
 67
     1
  8
0
100
AcDbBlockEnd
  0
BLOCK
  5
24
330
23
100
AcDbEntity
  8
0
100
AcDbBlockBegin
  2
*Paper_Space0
 70
     0
 71
     0
 10
0.0
 20
0.0
 30
0.0
  3
*Paper_Space0
  1

  0
ENDBLK
  5
25
330
23
100
AcDbEntity
  8
0
100
AcDbBlockEnd
  0
ENDSEC
  0
SECTION
  2
ENTITIES
  0
LWPOLYLINE
  5
2A
330
1F
100
AcDbEntity
  8
0
100
AcDbPolyline
 90
       11
 70
   128
 43
0.0
 10
0.592558
 20
2.515547
 10
0.583681
 20
2.524424
 10
0.557052
 20
2.515547
 10
0.494918
 20
2.453413
 10
0.450536
 20
2.33802
 10
0.450536
 20
2.293639
 10
0.468289
 20
2.258133
 10
0.486042
 20
2.26701
 10
0.509538
 20
2.356556
 10
0.546401
 20
2.445424
 10
0.592558
 20
2.515547
  0
LWPOLYLINE
  5
2B
330
1F
100
AcDbEntity
  8
0
100
AcDbPolyline
 90
       21
 70
   128
 43
0.0
 10
0.61031
 20
2.249257
 10
0.592558
 20
2.26701
 10
0.573917
 20
2.259909
 10
0.566816
 20
2.256358
 10
0.530423
 20
2.231504
 10
0.501746
 20
2.179612
 10
0.453199
 20
2.088595
 10
0.423907
 20
2.00072
 10
0.431008
 20
1.973203
 10
0.432784
 20
1.965214
 10
0.468289
 20
1.938585
 10
0.521547
 20
1.938585
 10
0.547288
 20
1.950124
 10
0.592558
 20
1.974091
 10
0.592558
 20
1.982967
 10
0.574805
 20
2.00072
 10
0.486042
 20
1.991843
 10
0.477165
 20
2.00072
 10
0.523595
 20
2.096994
 10
0.607648
 20
2.232392
 10
0.61031
 20
2.249257
  0
LWPOLYLINE
  5
2C
330
1F
100
AcDbEntity
  8
0
100
AcDbPolyline
 90
       21
 70
   128
 43
0.0
 10
0.725703
 20
2.506671
 10
0.716826
 20
2.5333
 10
0.628951
 20
2.606086
 10
0.611198
 20
2.614962
 10
0.503794
 20
2.657569
 10
0.477165
 20
2.657569
 10
0.451424
 20
2.646029
 10
0.423907
 20
2.63094
 10
0.439885
 20
2.576794
 10
0.459413
 20
2.551053
 10
0.466923
 20
2.549004
 10
0.486042
 20
2.5333
 10
0.494918
 20
2.542176
 10
0.494918
 20
2.568805
 10
0.486042
 20
2.577682
 10
0.512671
 20
2.595434
 10
0.530423
 20
2.595434
 10
0.635574
 20
2.549004
 10
0.656058
 20
2.535348
 10
0.716826
 20
2.506671
 10
0.725703
 20
2.506671
  0
LWPOLYLINE
  5
2D
330
1F
100
AcDbEntity
  8
0
100
AcDbPolyline
 90
       12
 70
   128
 43
0.0
 10
0.734579
 20
2.249257
 10
0.701204
 20
2.295236
 10
0.672445
 20
2.33802
 10
0.61031
 20
2.400155
 10
0.583681
 20
2.409031
 10
0.574805
 20
2.400155
 10
0.594688
 20
2.357371
 10
0.654692
 20
2.275886
 10
0.707063
 20
2.229729
 10
0.716826
 20
2.222628
 10
0.734579
 20
2.231504
 10
0.734579
 20
2.249257
  0
LWPOLYLINE
  5
2E
330
1F
100
AcDbEntity
  8
0
100
AcDbPolyline
 90
       13
 70
   128
 43
0.0
 10
0.858848
 20
2.258133
 10
0.849972
 20
2.262572
 10
0.833107
 20
2.256358
 10
0.822455
 20
2.251032
 10
0.761208
 20
2.204875
 10
0.672445
 20
2.107236
 10
0.672445
 20
2.098359
 10
0.690197
 20
2.089483
 10
0.736177
 20
2.122858
 10
0.778961
 20
2.151617
 10
0.849972
 20
2.222628
 10
0.856185
 20
2.241268
 10
0.858848
 20
2.258133
  0
LWPOLYLINE
  5
2F
330
1F
100
AcDbEntity
  8
0
100
AcDbPolyline
 90
       14
 70
   128
 43
0.0
 10
0.867724
 20
1.982967
 10
0.85796
 20
1.990068
 10
0.804807
 20
2.006463
 10
0.691795
 20
2.038355
 10
0.620074
 20
2.082382
 10
0.592558
 20
2.098359
 10
0.583681
 20
2.080607
 10
0.619187
 20
2.036225
 10
0.65629
 20
2.011726
 10
0.717714
 20
1.98563
 10
0.733692
 20
1.980304
 10
0.787837
 20
1.965214
 10
0.849972
 20
1.965214
 10
0.867724
 20
1.982967
  0
LWPOLYLINE
  5
30
330
1F
100
AcDbEntity
  8
0
100
AcDbPolyline
 90
       10
 70
   128
 43
0.0
 10
0.876601
 20
2.488918
 10
0.858848
 20
2.506671
 10
0.840208
 20
2.49957
 10
0.814466
 20
2.488918
 10
0.716826
 20
2.382402
 10
0.716826
 20
2.373526
 10
0.734579
 20
2.355773
 10
0.77145
 20
2.380354
 10
0.849972
 20
2.444537
 10
0.876601
 20
2.488918
  0
LWPOLYLINE
  5
31
330
1F
100
AcDbEntity
  8
0
100
AcDbPolyline
 90
       10
 70
   128
 43
0.0
 10
1.018622
 20
2.213752
 10
0.949794
 20
2.295458
 10
0.895951
 20
2.349027
 10
0.841095
 20
2.382402
 10
0.832219
 20
2.373526
 10
0.83932
 20
2.354885
 10
0.867724
 20
2.311391
 10
0.972643
 20
2.220498
 10
1.002918
 20
2.206241
 10
1.018622
 20
2.213752
  0
LWPOLYLINE
  5
32
330
1F
100
AcDbEntity
  8
0
100
AcDbPolyline
 90
       17
 70
   128
 43
0.0
 10
1.018622
 20
2.506671
 10
1.000869
 20
2.5333
 10
0.984004
 20
2.543952
 10
0.966252
 20
2.552828
 10
0.831436
 20
2.610054
 10
0.79593
 20
2.61893
 10
0.743456
 20
2.63094
 10
0.725703
 20
2.622063
 10
0.70795
 20
2.604311
 10
0.725703
 20
2.586558
 10
0.806273
 20
2.572219
 10
0.840412
 20
2.565391
 10
0.973353
 20
2.496019
 10
0.984004
 20
2.490693
 10
1.009746
 20
2.480042
 10
1.018622
 20
2.488918
 10
1.018622
 20
2.506671
  0
LWPOLYLINE
  5
33
330
1F
100
AcDbEntity
  8
0
100
AcDbPolyline
 90
       16
 70
   128
 43
0.0
 10
1.134014
 20
1.991843
 10
1.114896
 20
2.007548
 10
1.035775
 20
2.02375
 10
0.992593
 20
2.030947
 10
0.859736
 20
2.100135
 10
0.849084
 20
2.10546
 10
0.823343
 20
2.116112
 10
0.814466
 20
2.107236
 10
0.823343
 20
2.080607
 10
0.849972
 20
2.053978
 10
0.904117
 20
2.029124
 10
0.911218
 20
2.025573
 10
1.019405
 20
1.977223
 10
1.080756
 20
1.965214
 10
1.106498
 20
1.976753
 10
1.134014
 20
1.991843
  0
LWPOLYLINE
  5
34
330
1F
100
AcDbEntity
  8
0
100
AcDbPolyline
 90
       10
 70
   128
 43
0.0
 10
1.142891
 20
2.222628
 10
1.134014
 20
2.222628
 10
1.063004
 20
2.187123
 10
0.999094
 20
2.117
 10
0.994212
 20
2.091702
 10
1.01951
 20
2.096584
 10
1.063004
 20
2.124988
 10
1.116262
 20
2.178246
 10
1.14076
 20
2.215349
 10
1.142891
 20
2.222628
  0
LWPOLYLINE
  5
35
330
1F
100
AcDbEntity
  8
0
100
AcDbPolyline
 90
        8
 70
   128
 43
0.0
 10
1.284912
 20
2.231504
 10
1.277811
 20
2.250145
 10
1.151767
 20
2.382402
 10
1.134014
 20
2.373526
 10
1.187272
 20
2.293639
 10
1.205025
 20
2.275886
 10
1.276036
 20
2.231504
 10
1.284912
 20
2.231504
  0
LWPOLYLINE
  5
36
330
1F
100
AcDbEntity
  8
0
100
AcDbPolyline
 90
       13
 70
   128
 43
0.0
 10
1.302665
 20
2.515547
 10
1.284912
 20
2.551053
 10
1.161531
 20
2.614962
 10
1.107385
 20
2.63094
 10
1.054127
 20
2.63094
 10
0.991993
 20
2.604311
 10
1.000869
 20
2.595434
 10
1.125821
 20
2.572219
 10
1.159961
 20
2.565391
 10
1.248519
 20
2.513772
 10
1.266272
 20
2.504896
 10
1.300446
 20
2.500014
 10
1.302665
 20
2.515547
  0
LWPOLYLINE
  5
37
330
1F
100
AcDbEntity
  8
0
100
AcDbPolyline
 90
       15
 70
   128
 43
0.0
 10
1.409181
 20
2.329144
 10
1.403719
 20
2.338703
 10
1.400305
 20
2.373526
 10
1.382552
 20
2.391278
 10
1.318642
 20
2.205763
 10
1.309766
 20
2.18801
 10
1.26716
 20
2.116112
 10
1.26716
 20
2.098359
 10
1.276036
 20
2.089483
 10
1.310654
 20
2.100135
 10
1.329294
 20
2.107236
 10
1.384327
 20
2.186235
 10
1.389653
 20
2.196887
 10
1.405357
 20
2.267488
 10
1.409181
 20
2.329144
  0
LWPOLYLINE
  5
38
330
1F
100
AcDbEntity
  8
0
100
AcDbPolyline
 90
       14
 70
   128
 43
0.0
 10
1.329294
 20
2.622063
 10
1.391428
 20
2.559929
 10
1.33604
 20
2.472763
 10
1.309411
 20
2.437258
 10
1.278699
 20
2.390391
 10
1.278255
 20
2.366869
 10
1.293789
 20
2.364649
 10
1.364799
 20
2.43566
 10
1.398256
 20
2.490284
 10
1.40208
 20
2.496907
 10
1.471315
 20
2.604311
 10
1.453563
 20
2.622063
 10
1.347047
 20
2.63094
 10
1.329294
 20
2.622063
  0
LWPOLYLINE
  5
39
330
1F
100
AcDbEntity
  8
0
100
AcDbPolyline
 90
       20
 70
   128
 43
0.0
 10
1.489068
 20
1.991843
 10
1.473091
 20
2.037113
 10
1.426934
 20
2.107236
 10
1.418945
 20
2.109011
 10
1.409181
 20
2.116112
 10
1.391428
 20
2.098359
 10
1.385685
 20
2.079823
 10
1.373676
 20
2.036225
 10
1.355923
 20
2.018472
 10
1.294572
 20
2.030481
 10
1.259171
 20
2.046877
 10
1.142891
 20
2.116112
 10
1.125138
 20
2.098359
 10
1.125138
 20
2.089483
 10
1.177509
 20
2.043326
 10
1.195261
 20
2.03445
 10
1.329894
 20
1.977689
 10
1.382552
 20
1.965214
 10
1.43581
 20
1.965214
 10
1.489068
 20
1.991843
  0
LWPOLYLINE
  5
3A
330
1F
100
AcDbEntity
  8
0
100
AcDbPolyline
 90
       15
 70
   128
 43
0.0
 10
1.595584
 20
1.894203
 10
1.54807
 20
2.062071
 10
1.489068
 20
2.311391
 10
1.489068
 20
2.382402
 10
1.527706
 20
2.550269
 10
1.530317
 20
2.560712
 10
1.551202
 20
2.648692
 10
1.53345
 20
2.666445
 10
1.470532
 20
2.681065
 10
1.311371
 20
2.697697
 10
0.672622
 20
2.723949
 10
0.355116
 20
2.735237
 10
0.355116
 20
1.852041
 10
0.55652
 20
1.880179
 10
1.595584
 20
1.894203
  0
LWPOLYLINE
  5
3B
330
1F
100
AcDbEntity
  8
0
100
AcDbPolyline
 90
       20
 70
   128
 43
0.0
 10
2.06603
 20
2.755208
 10
2.039401
 20
2.764085
 10
1.924009
 20
2.764085
 10
1.889391
 20
2.744557
 10
1.835245
 20
2.710827
 10
1.797965
 20
2.667333
 10
1.775159
 20
2.629574
 10
1.746482
 20
2.542176
 10
1.746482
 20
2.400155
 10
1.755358
 20
2.391278
 10
1.76601
 20
2.408144
 10
1.777863
 20
2.435935
 10
1.786111
 20
2.559654
 10
1.801515
 20
2.621176
 10
1.82969
 20
2.652873
 10
1.850472
 20
2.676624
 10
1.889103
 20
2.698352
 10
2.057154
 20
2.728579
 10
2.06603
 20
2.737456
 10
2.06603
 20
2.755208
  0
LWPOLYLINE
  5
3C
330
1F
100
AcDbEntity
  8
0
100
AcDbPolyline
 90
       14
 70
   128
 43
0.0
 10
2.092659
 20
2.045101
 10
2.006061
 20
2.153349
 10
1.943641
 20
2.215945
 10
1.886624
 20
2.264817
 10
1.861874
 20
2.275886
 10
1.852998
 20
2.26701
 10
1.872799
 20
2.215117
 10
1.886455
 20
2.194633
 10
1.915132
 20
2.151617
 10
2.021648
 20
2.045101
 10
2.066918
 20
2.021135
 10
2.083783
 20
2.018472
 10
2.092659
 20
2.027349
 10
2.092659
 20
2.045101
  0
LWPOLYLINE
  5
3D
330
1F
100
AcDbEntity
  8
0
100
AcDbPolyline
 90
       12
 70
   128
 43
0.0
 10
2.172546
 20
0.598258
 10
2.117513
 20
0.686134
 10
2.08065
 20
0.775002
 10
2.078039
 20
0.785444
 10
2.057154
 20
0.855672
 10
2.039401
 20
0.864548
 10
2.021648
 20
0.846795
 10
2.036738
 20
0.801526
 10
2.110412
 20
0.616011
 10
2.154793
 20
0.571629
 10
2.172546
 20
0.580505
 10
2.172546
 20
0.598258
  0
LWPOLYLINE
  5
3E
330
1F
100
AcDbEntity
  8
0
100
AcDbPolyline
 90
       19
 70
   128
 43
0.0
 10
2.154793
 20
1.414881
 10
2.154793
 20
1.423757
 10
2.12953
 20
1.443559
 10
2.109046
 20
1.457214
 10
2.074906
 20
1.468139
 10
2.057154
 20
1.450387
 10
2.048277
 20
1.397128
 10
2.048277
 20
1.326118
 10
2.077569
 20
1.220489
 10
2.090884
 20
1.192085
 10
2.110412
 20
1.148591
 10
2.154793
 20
1.113086
 10
2.172546
 20
1.121962
 10
2.172546
 20
1.148591
 10
2.153018
 20
1.183209
 10
2.074906
 20
1.370499
 10
2.074906
 20
1.388252
 10
2.092659
 20
1.414881
 10
2.154793
 20
1.414881
  0
LWPOLYLINE
  5
3F
330
1F
100
AcDbEntity
  8
0
100
AcDbPolyline
 90
       11
 70
   128
 43
0.0
 10
2.06603
 20
1.07758
 10
2.057154
 20
1.068704
 10
2.062432
 20
0.988217
 10
2.069629
 20
0.945035
 10
2.101535
 20
0.873424
 10
2.154793
 20
0.820166
 10
2.172546
 20
0.820166
 10
2.181423
 20
0.829043
 10
2.143869
 20
0.898688
 10
2.130213
 20
0.919172
 10
2.06603
 20
1.07758
  0
LWPOLYLINE
  5
40
330
1F
100
AcDbEntity
  8
0
100
AcDbPolyline
 90
       19
 70
   128
 43
0.0
 10
2.199175
 20
1.752182
 10
2.029637
 20
1.812541
 10
1.950638
 20
1.867574
 10
1.939986
 20
1.893316
 10
1.918546
 20
1.957021
 10
1.900512
 20
2.037008
 10
1.888503
 20
2.089483
 10
1.879627
 20
2.098359
 10
1.861874
 20
2.080607
 10
1.852998
 20
2.045101
 10
1.852998
 20
1.982967
 10
1.872526
 20
1.912844
 10
1.895604
 20
1.866687
 10
1.959514
 20
1.787687
 10
2.005261
 20
1.763107
 10
2.092659
 20
1.734429
 10
2.154793
 20
1.734429
 10
2.189516
 20
1.746439
 10
2.199175
 20
1.752182
  0
LWPOLYLINE
  5
41
330
1F
100
AcDbEntity
  8
0
100
AcDbPolyline
 90
       16
 70
   128
 43
0.0
 10
2.181423
 20
3.243407
 10
2.110412
 20
3.270036
 10
2.110412
 20
3.287789
 10
2.2101
 20
3.46395
 10
2.225804
 20
3.491945
 10
2.216928
 20
3.500821
 10
2.190299
 20
3.483068
 10
2.126034
 20
3.404779
 10
2.085831
 20
3.348558
 10
2.059817
 20
3.269148
 10
2.054491
 20
3.253171
 10
2.048277
 20
3.216778
 10
2.06603
 20
3.172396
 10
2.074906
 20
3.172396
 10
2.181423
 20
3.234531
 10
2.181423
 20
3.243407
  0
LWPOLYLINE
  5
42
330
1F
100
AcDbEntity
  8
0
100
AcDbPolyline
 90
       29
 70
   128
 43
0.0
 10
2.190299
 20
2.648692
 10
2.181423
 20
2.639816
 10
2.190299
 20
2.488918
 10
2.181423
 20
2.453413
 10
2.154793
 20
2.43566
 10
2.119288
 20
2.43566
 10
2.066918
 20
2.455188
 10
2.056266
 20
2.460514
 10
2.030525
 20
2.471166
 10
1.96839
 20
2.5333
 10
1.943537
 20
2.578569
 10
1.924009
 20
2.648692
 10
1.906256
 20
2.666445
 10
1.879627
 20
2.622063
 10
1.879627
 20
2.595434
 10
1.900043
 20
2.534188
 10
1.904481
 20
2.523536
 10
1.924009
 20
2.480042
 10
1.986143
 20
2.417908
 10
2.004783
 20
2.410806
 10
2.011884
 20
2.407256
 10
2.057154
 20
2.382402
 10
2.181423
 20
2.382402
 10
2.216928
 20
2.391278
 10
2.252433
 20
2.426784
 10
2.238095
 20
2.525106
 10
2.231267
 20
2.559246
 10
2.215153
 20
2.594547
 10
2.190299
 20
2.648692
  0
LWPOLYLINE
  5
43
330
1F
100
AcDbEntity
  8
0
100
AcDbPolyline
 90
       29
 70
   128
 43
0.0
 10
2.26131
 20
2.204875
 10
2.252433
 20
2.240381
 10
2.234681
 20
2.258133
 10
2.199175
 20
2.26701
 10
2.065247
 20
2.25239
 10
2.040184
 20
2.246124
 10
2.012772
 20
2.231504
 10
2.021648
 20
2.222628
 10
2.137824
 20
2.208008
 10
2.16367
 20
2.204875
 10
2.190299
 20
2.160494
 10
2.190299
 20
2.124988
 10
2.170771
 20
2.072618
 10
2.165445
 20
2.061966
 10
2.154793
 20
2.036225
 10
2.092659
 20
1.974091
 10
2.029159
 20
1.940634
 10
2.022536
 20
1.93681
 10
1.995019
 20
1.920832
 10
1.995019
 20
1.90308
 10
2.003896
 20
1.894203
 10
2.06603
 20
1.894203
 10
2.075794
 20
1.900417
 10
2.154793
 20
1.947462
 10
2.181423
 20
1.974091
 10
2.1974
 20
2.010484
 10
2.224029
 20
2.054865
 10
2.2493
 20
2.143524
 10
2.26131
 20
2.204875
  0
LWPOLYLINE
  5
44
330
1F
100
AcDbEntity
  8
0
100
AcDbPolyline
 90
       13
 70
   128
 43
0.0
 10
2.279062
 20
2.781837
 10
2.270186
 20
2.790714
 10
2.234681
 20
2.790714
 10
2.217815
 20
2.780062
 10
2.207164
 20
2.774736
 10
2.10346
 20
2.699751
 10
2.030525
 20
2.639816
 10
1.993244
 20
2.596322
 10
1.986143
 20
2.586558
 10
2.003896
 20
2.577682
 10
2.067396
 20
2.620015
 10
2.20987
 20
2.726397
 10
2.279062
 20
2.781837
  0
LWPOLYLINE
  5
45
330
1F
100
AcDbEntity
  8
0
100
AcDbPolyline
 90
       14
 70
   128
 43
0.0
 10
2.06603
 20
0.571629
 10
2.055378
 20
0.554764
 10
2.030525
 20
0.491742
 10
2.030525
 20
0.465113
 10
2.048277
 20
0.44736
 10
2.120176
 20
0.472214
 10
2.206686
 20
0.520419
 10
2.296815
 20
0.580505
 10
2.287939
 20
0.598258
 10
2.269298
 20
0.591157
 10
2.262197
 20
0.587606
 10
2.101535
 20
0.491742
 10
2.083783
 20
0.509495
 10
2.06603
 20
0.571629
  0
LWPOLYLINE
  5
46
330
1F
100
AcDbEntity
  8
0
100
AcDbPolyline
 90
       12
 70
   128
 43
0.0
 10
2.305691
 20
1.157467
 10
2.296815
 20
1.166344
 10
2.243557
 20
1.130838
 10
2.181423
 20
1.068704
 10
2.156924
 20
1.031601
 10
2.137041
 20
0.997693
 10
2.154793
 20
0.988817
 10
2.164557
 20
0.995918
 10
2.208052
 20
1.024322
 10
2.26131
 20
1.07758
 10
2.285808
 20
1.114683
 10
2.305691
 20
1.157467
  0
LWPOLYLINE
  5
47
330
1F
100
AcDbEntity
  8
0
100
AcDbPolyline
 90
       18
 70
   128
 43
0.0
 10
2.350073
 20
4.068907
 10
2.321846
 20
4.093405
 10
2.242669
 20
4.147018
 10
2.235568
 20
4.150569
 10
2.16367
 20
4.175423
 10
2.074906
 20
4.175423
 10
2.057154
 20
4.15767
 10
2.057154
 20
4.122165
 10
2.069581
 20
4.097311
 10
2.101535
 20
4.051154
 10
2.119288
 20
4.06003
 10
2.119288
 20
4.113288
 10
2.145917
 20
4.139917
 10
2.172546
 20
4.139917
 10
2.324332
 20
4.053817
 10
2.341197
 20
4.051154
 10
2.350073
 20
4.06003
 10
2.350073
 20
4.068907
  0
LWPOLYLINE
  5
48
330
1F
100
AcDbEntity
  8
0
100
AcDbPolyline
 90
       13
 70
   128
 43
0.0
 10
2.412207
 20
1.397128
 10
2.367826
 20
1.414881
 10
2.33232
 20
1.414881
 10
2.200063
 20
1.359848
 10
2.189411
 20
1.354522
 10
2.154793
 20
1.326118
 10
2.154793
 20
1.317241
 10
2.172546
 20
1.299489
 10
2.207164
 20
1.31014
 10
2.217815
 20
1.315466
 10
2.367042
 20
1.373632
 10
2.412207
 20
1.388252
 10
2.412207
 20
1.397128
  0
LWPOLYLINE
  5
49
330
1F
100
AcDbEntity
  8
0
100
AcDbPolyline
 90
       16
 70
   128
 43
0.0
 10
2.421084
 20
2.79959
 10
2.392857
 20
2.824089
 10
2.31368
 20
2.868826
 10
2.306579
 20
2.872376
 10
2.181423
 20
2.914983
 10
2.145917
 20
2.914983
 10
2.032122
 20
2.86847
 10
1.986143
 20
2.835095
 10
1.995019
 20
2.826219
 10
2.157375
 20
2.856584
 10
2.207268
 20
2.849715
 10
2.288826
 20
2.819118
 10
2.313202
 20
2.806418
 10
2.367826
 20
2.772961
 10
2.401965
 20
2.783886
 10
2.421084
 20
2.79959
  0
LWPOLYLINE
  5
4A
330
1F
100
AcDbEntity
  8
0
100
AcDbPolyline
 90
        9
 70
   128
 43
0.0
 10
2.438836
 20
3.243407
 10
2.395342
 20
3.271811
 10
2.296032
 20
3.320161
 10
2.199175
 20
3.341047
 10
2.190299
 20
3.33217
 10
2.208052
 20
3.305541
 10
2.385578
 20
3.234531
 10
2.42996
 20
3.234531
 10
2.438836
 20
3.243407
  0
LWPOLYLINE
  5
4B
330
1F
100
AcDbEntity
  8
0
100
AcDbPolyline
 90
       10
 70
   128
 43
0.0
 10
2.465465
 20
3.483068
 10
2.42996
 20
3.474192
 10
2.365695
 20
3.404779
 10
2.33232
 20
3.358799
 10
2.33232
 20
3.341047
 10
2.341197
 20
3.33217
 10
2.358949
 20
3.341047
 10
2.42996
 20
3.412058
 10
2.454459
 20
3.449161
 10
2.465465
 20
3.483068
  0
LWPOLYLINE
  5
4C
330
1F
100
AcDbEntity
  8
0
100
AcDbPolyline
 90
       10
 70
   128
 43
0.0
 10
2.571981
 20
0.873424
 10
2.536476
 20
0.864548
 10
2.463335
 20
0.786259
 10
2.428185
 20
0.732291
 10
2.423303
 20
0.706993
 10
2.42996
 20
0.704774
 10
2.447713
 20
0.704774
 10
2.483218
 20
0.740279
 10
2.570206
 20
0.856559
 10
2.571981
 20
0.873424
  0
LWPOLYLINE
  5
4D
330
1F
100
AcDbEntity
  8
0
100
AcDbPolyline
 90
        9
 70
   128
 43
0.0
 10
2.580858
 20
0.580505
 10
2.563105
 20
0.598258
 10
2.41132
 20
0.538786
 10
2.305691
 20
0.500618
 10
2.296815
 20
0.491742
 10
2.341197
 20
0.473989
 10
2.394455
 20
0.473989
 10
2.481852
 20
0.502667
 10
2.580858
 20
0.580505
  0
LWPOLYLINE
  5
4E
330
1F
100
AcDbEntity
  8
0
100
AcDbPolyline
 90
       11
 70
   128
 43
0.0
 10
2.456589
 20
3.62509
 10
2.456589
 20
3.616213
 10
2.500971
 20
3.536326
 10
2.580858
 20
3.456439
 10
2.589734
 20
3.456439
 10
2.59861
 20
3.465316
 10
2.57403
 20
3.511063
 10
2.545352
 20
3.554079
 10
2.483218
 20
3.616213
 10
2.464578
 20
3.623314
 10
2.456589
 20
3.62509
  0
LWPOLYLINE
  5
4F
330
1F
100
AcDbEntity
  8
0
100
AcDbPolyline
 90
       11
 70
   128
 43
0.0
 10
2.616363
 20
2.098359
 10
2.588846
 20
2.109011
 10
2.358949
 20
1.920832
 10
2.305691
 20
1.867574
 10
2.314568
 20
1.858698
 10
2.341197
 20
1.858698
 10
2.375814
 20
1.878226
 10
2.44931
 20
1.927579
 10
2.492094
 20
1.956338
 10
2.589734
 20
2.053978
 10
2.616363
 20
2.098359
  0
LWPOLYLINE
  5
50
330
1F
100
AcDbEntity
  8
0
100
AcDbPolyline
 90
       11
 70
   128
 43
0.0
 10
2.616363
 20
3.758235
 10
2.600386
 20
3.785751
 10
2.492094
 20
3.926885
 10
2.474342
 20
3.926885
 10
2.465465
 20
3.918009
 10
2.502746
 20
3.856762
 10
2.554229
 20
3.775987
 10
2.57997
 20
3.756459
 10
2.597723
 20
3.747583
 10
2.607487
 20
3.740482
 10
2.616363
 20
3.758235
  0
LWPOLYLINE
  5
51
330
1F
100
AcDbEntity
  8
0
100
AcDbPolyline
 90
       10
 70
   128
 43
0.0
 10
2.385578
 20
4.139917
 10
2.385578
 20
4.131041
 10
2.57997
 20
4.02275
 10
2.589734
 20
4.015649
 10
2.607487
 20
4.015649
 10
2.616363
 20
4.024525
 10
2.59861
 20
4.06003
 10
2.589734
 20
4.068907
 10
2.482435
 20
4.119032
 10
2.385578
 20
4.139917
  0
LWPOLYLINE
  5
52
330
1F
100
AcDbEntity
  8
0
100
AcDbPolyline
 90
       28
 70
   128
 43
0.0
 10
2.651868
 20
2.764085
 10
2.589734
 20
2.790714
 10
2.554229
 20
2.790714
 10
2.510735
 20
2.770298
 10
2.500083
 20
2.76586
 10
2.403331
 20
2.684198
 10
2.401283
 20
2.676687
 10
2.353206
 20
2.594651
 10
2.337598
 20
2.516147
 10
2.33232
 20
2.43566
 10
2.348298
 20
2.372638
 10
2.367826
 20
2.346897
 10
2.500288
 20
2.37694
 10
2.606599
 20
2.410806
 10
2.642992
 20
2.43566
 10
2.625239
 20
2.444537
 10
2.572581
 20
2.432062
 10
2.447713
 20
2.417908
 10
2.421084
 20
2.426784
 10
2.403331
 20
2.444537
 10
2.394455
 20
2.5333
 10
2.422859
 20
2.612299
 10
2.42996
 20
2.63094
 10
2.472744
 20
2.668575
 10
2.502568
 20
2.690944
 10
2.581745
 20
2.725916
 10
2.62289
 20
2.741372
 10
2.651868
 20
2.764085
  0
LWPOLYLINE
  5
53
330
1F
100
AcDbEntity
  8
0
100
AcDbPolyline
 90
       12
 70
   128
 43
0.0
 10
2.69625
 20
0.802414
 10
2.671396
 20
0.874312
 10
2.600659
 20
0.999059
 10
2.591509
 20
1.016334
 10
2.563105
 20
1.050951
 10
2.545352
 20
1.033199
 10
2.596835
 20
0.925795
 10
2.618138
 20
0.883188
 10
2.669621
 20
0.71365
 10
2.678498
 20
0.71365
 10
2.692652
 20
0.758632
 10
2.69625
 20
0.802414
  0
LWPOLYLINE
  5
54
330
1F
100
AcDbEntity
  8
0
100
AcDbPolyline
 90
       18
 70
   128
 43
0.0
 10
2.678498
 20
1.317241
 10
2.689149
 20
1.334106
 10
2.722879
 20
1.44151
 10
2.722879
 20
1.468139
 10
2.705127
 20
1.485892
 10
2.668734
 20
1.470802
 10
2.652756
 20
1.465476
 10
2.563993
 20
1.413106
 10
2.553341
 20
1.40778
 10
2.447713
 20
1.334994
 10
2.412207
 20
1.290612
 10
2.42996
 20
1.281736
 10
2.475939
 20
1.315111
 10
2.597723
 20
1.398904
 10
2.624352
 20
1.408668
 10
2.651868
 20
1.423757
 10
2.669621
 20
1.406005
 10
2.678498
 20
1.317241
  0
LWPOLYLINE
  5
55
330
1F
100
AcDbEntity
  8
0
100
AcDbPolyline
 90
       17
 70
   128
 43
0.0
 10
2.438836
 20
3.341047
 10
2.454541
 20
3.313052
 10
2.509847
 20
3.252283
 10
2.517358
 20
3.250235
 10
2.688261
 20
3.139554
 10
2.705127
 20
3.136891
 10
2.722879
 20
3.181273
 10
2.722879
 20
3.234531
 10
2.705127
 20
3.314418
 10
2.687374
 20
3.33217
 10
2.669621
 20
3.314418
 10
2.660745
 20
3.243407
 10
2.634116
 20
3.225654
 10
2.573579
 20
3.254414
 10
2.538074
 20
3.281043
 10
2.455701
 20
3.339272
 10
2.438836
 20
3.341047
  0
LWPOLYLINE
  5
56
330
1F
100
AcDbEntity
  8
0
100
AcDbPolyline
 90
       13
 70
   128
 43
0.0
 10
2.722879
 20
3.589584
 10
2.714003
 20
3.607337
 10
2.69625
 20
3.62509
 10
2.685599
 20
3.608225
 10
2.644767
 20
3.464428
 10
2.56925
 20
3.354703
 10
2.565324
 20
3.325513
 10
2.589734
 20
3.323294
 10
2.609617
 20
3.348325
 10
2.631985
 20
3.37815
 10
2.698025
 20
3.482181
 10
2.719465
 20
3.554762
 10
2.722879
 20
3.589584
  0
LWPOLYLINE
  5
57
330
1F
100
AcDbEntity
  8
0
100
AcDbPolyline
 90
       26
 70
   128
 43
0.0
 10
2.740632
 20
2.07173
 10
2.721104
 20
2.124101
 10
2.678498
 20
2.187123
 10
2.614998
 20
2.229456
 10
2.54482
 20
2.254405
 10
2.483218
 20
2.26701
 10
2.385578
 20
2.26701
 10
2.350073
 20
2.231504
 10
2.34741
 20
2.214639
 10
2.341197
 20
2.204875
 10
2.341197
 20
2.124988
 10
2.358949
 20
2.009596
 10
2.367826
 20
2.00072
 10
2.385578
 20
2.018472
 10
2.403331
 20
2.151617
 10
2.421084
 20
2.16937
 10
2.43962
 20
2.175114
 10
2.474342
 20
2.187123
 10
2.571981
 20
2.187123
 10
2.599498
 20
2.171145
 10
2.625239
 20
2.160494
 10
2.676367
 20
2.096762
 10
2.714003
 20
1.991843
 10
2.722879
 20
1.991843
 10
2.740632
 20
2.009596
 10
2.740632
 20
2.07173
  0
LWPOLYLINE
  5
58
330
1F
100
AcDbEntity
  8
0
100
AcDbPolyline
 90
       18
 70
   128
 43
0.0
 10
2.749508
 20
0.44736
 10
2.715778
 20
0.510382
 10
2.618412
 20
0.688387
 10
2.614233
 20
0.6943
 10
2.571981
 20
0.749156
 10
2.554229
 20
0.740279
 10
2.609262
 20
0.643527
 10
2.635891
 20
0.590269
 10
2.651868
 20
0.562753
 10
2.651868
 20
0.545
 10
2.625239
 20
0.509495
 10
2.574201
 20
0.507275
 10
2.571981
 20
0.491742
 10
2.617961
 20
0.458367
 10
2.714003
 20
0.420731
 10
2.731756
 20
0.420731
 10
2.749508
 20
0.438484
 10
2.749508
 20
0.44736
  0
LWPOLYLINE
  5
59
330
1F
100
AcDbEntity
  8
0
100
AcDbPolyline
 90
       20
 70
   128
 43
0.0
 10
2.79389
 20
2.639816
 10
2.788146
 20
2.649476
 10
2.740632
 20
2.764085
 10
2.651868
 20
2.852848
 10
2.614765
 20
2.877347
 10
2.555116
 20
2.908769
 10
2.518723
 20
2.923859
 10
2.421084
 20
2.923859
 10
2.385578
 20
2.89723
 10
2.403331
 20
2.879477
 10
2.421683
 20
2.874199
 10
2.537159
 20
2.856262
 10
2.596835
 20
2.840421
 10
2.660745
 20
2.79959
 10
2.724654
 20
2.711714
 10
2.737969
 20
2.665557
 10
2.758385
 20
2.577682
 10
2.776137
 20
2.559929
 10
2.79389
 20
2.577682
 10
2.79389
 20
2.639816
  0
LWPOLYLINE
  5
5A
330
1F
100
AcDbEntity
  8
0
100
AcDbPolyline
 90
       16
 70
   128
 43
0.0
 10
2.802766
 20
0.509495
 10
2.798194
 20
0.518497
 10
2.767261
 20
1.556903
 10
2.758385
 20
1.565779
 10
2.519507
 20
1.500512
 10
2.484001
 20
1.491635
 10
2.394455
 20
1.477016
 10
2.287939
 20
1.477016
 10
2.208485
 20
1.489789
 10
2.111299
 20
1.515184
 10
2.006115
 20
1.545807
 10
1.946475
 20
0.447605
 10
1.94398
 20
0.369692
 10
2.79389
 20
0.367473
 10
2.800547
 20
0.369692
 10
2.802766
 20
0.509495
  0
LWPOLYLINE
  5
5B
330
1F
100
AcDbEntity
  8
0
100
AcDbPolyline
 90
       12
 70
   128
 43
0.0
 10
2.802766
 20
2.409031
 10
2.716196
 20
2.517427
 10
2.627058
 20
2.606493
 10
2.579039
 20
2.64651
 10
2.554229
 20
2.657569
 10
2.545352
 20
2.648692
 10
2.591783
 20
2.587924
 10
2.687374
 20
2.462289
 10
2.766373
 20
2.389503
 10
2.785014
 20
2.382402
 10
2.795665
 20
2.399267
 10
2.802766
 20
2.409031
  0
LWPOLYLINE
  5
5C
330
1F
100
AcDbEntity
  8
0
100
AcDbPolyline
 90
       17
 70
   128
 43
0.0
 10
2.820519
 20
4.193175
 10
2.791646
 20
4.21008
 10
2.70549
 20
4.223806
 10
2.020966
 20
4.260772
 10
1.979486
 20
4.261967
 10
1.979486
 20
3.094728
 10
2.279062
 20
3.145767
 10
2.367826
 20
3.145767
 10
2.438358
 20
3.133067
 10
2.448312
 20
3.131613
 10
2.633228
 20
3.089846
 10
2.659857
 20
3.08097
 10
2.740632
 20
3.057004
 10
2.767261
 20
3.057004
 10
2.776137
 20
3.06588
 10
2.816564
 20
4.113684
 10
2.820519
 20
4.193175
  0
LWPOLYLINE
  5
5D
330
1F
100
AcDbEntity
  8
0
100
AcDbPolyline
 90
       22
 70
   128
 43
0.0
 10
2.835695
 20
2.725946
 10
2.829395
 20
2.737456
 10
2.820519
 20
2.746332
 10
2.811643
 20
2.737456
 10
2.818262
 20
2.724701
 10
2.823182
 20
2.702838
 10
2.847148
 20
2.577682
 10
2.847148
 20
2.462289
 10
2.834448
 20
2.391756
 10
2.765486
 20
2.267897
 10
2.747733
 20
2.232392
 10
2.740632
 20
2.222628
 10
2.749508
 20
2.213752
 10
2.777025
 20
2.220853
 10
2.785014
 20
2.222628
 10
2.813418
 20
2.274998
 10
2.866676
 20
2.390391
 10
2.900406
 20
2.506671
 10
2.900406
 20
2.568805
 10
2.887802
 20
2.630407
 10
2.863125
 20
2.68331
 10
2.835695
 20
2.725946
  0
LWPOLYLINE
  5
5E
330
1F
100
AcDbEntity
  8
0
100
AcDbPolyline
 90
       22
 70
   128
 43
0.0
 10
2.927035
 20
2.187123
 10
2.914431
 20
2.248724
 10
2.900406
 20
2.275886
 10
2.882653
 20
2.26701
 10
2.877817
 20
2.213415
 10
2.869737
 20
2.116449
 10
2.838272
 20
2.018472
 10
2.802766
 20
1.982967
 10
2.766373
 20
1.966989
 10
2.759272
 20
1.963439
 10
2.536476
 20
1.911956
 10
2.518723
 20
1.894203
 10
2.544465
 20
1.874676
 10
2.589734
 20
1.858698
 10
2.634116
 20
1.858698
 10
2.71322
 20
1.879584
 10
2.74152
 20
1.892428
 10
2.838272
 20
1.947462
 10
2.884702
 20
2.00823
 10
2.90615
 20
2.045884
 10
2.912415
 20
2.070947
 10
2.927035
 20
2.187123
  0
LWPOLYLINE
  5
5F
330
1F
100
AcDbEntity
  8
0
100
AcDbPolyline
 90
       12
 70
   128
 43
0.0
 10
3.397481
 20
2.116112
 10
3.342448
 20
2.195111
 10
3.302974
 20
2.285546
 10
3.27987
 20
2.389059
 10
3.264336
 20
2.391278
 10
3.246583
 20
2.364649
 10
3.246583
 20
2.258133
 10
3.262561
 20
2.22174
 10
3.308718
 20
2.142741
 10
3.369964
 20
2.087708
 10
3.395262
 20
2.082826
 10
3.397481
 20
2.116112
  0
LWPOLYLINE
  5
60
330
1F
100
AcDbEntity
  8
0
100
AcDbPolyline
 90
       12
 70
   128
 43
0.0
 10
3.601637
 20
2.373526
 10
3.575008
 20
2.409031
 10
3.557255
 20
2.409031
 10
3.532445
 20
2.389096
 10
3.42411
 20
2.293639
 10
3.42198
 20
2.28636
 10
3.379728
 20
2.222628
 10
3.388605
 20
2.213752
 10
3.407245
 20
2.219965
 10
3.423222
 20
2.225291
 10
3.475549
 20
2.260316
 10
3.601637
 20
2.373526
  0
LWPOLYLINE
  5
61
330
1F
100
AcDbEntity
  8
0
100
AcDbPolyline
 90
       26
 70
   128
 43
0.0
 10
3.619389
 20
2.089483
 10
3.601637
 20
2.107236
 10
3.575008
 20
2.107236
 10
3.487132
 20
2.069955
 10
3.469379
 20
2.061079
 10
3.405675
 20
2.030763
 10
3.361976
 20
2.018472
 10
3.299841
 20
2.018472
 10
3.282089
 20
2.027349
 10
3.273212
 20
2.036225
 10
3.273212
 20
2.107236
 10
3.25546
 20
2.124988
 10
3.237707
 20
2.116112
 10
3.219954
 20
2.098359
 10
3.205334
 20
2.062071
 10
3.193325
 20
2.027349
 10
3.193325
 20
1.982967
 10
3.21019
 20
1.972315
 10
3.219954
 20
1.965214
 10
3.290965
 20
1.965214
 10
3.387922
 20
1.986381
 10
3.398081
 20
1.988245
 10
3.494233
 20
2.011371
 10
3.520862
 20
2.021135
 10
3.610513
 20
2.062854
 10
3.619389
 20
2.089483
  0
LWPOLYLINE
  5
62
330
1F
100
AcDbEntity
  8
0
100
AcDbPolyline
 90
       12
 70
   128
 43
0.0
 10
3.805793
 20
2.364649
 10
3.796916
 20
2.382402
 10
3.754414
 20
2.4201
 10
3.697397
 20
2.468973
 10
3.591873
 20
2.531525
 10
3.557255
 20
2.542176
 10
3.539502
 20
2.524424
 10
3.548379
 20
2.497795
 10
3.647616
 20
2.420038
 10
3.744441
 20
2.367782
 10
3.796916
 20
2.355773
 10
3.805793
 20
2.364649
  0
LWPOLYLINE
  5
63
330
1F
100
AcDbEntity
  8
0
100
AcDbPolyline
 90
       16
 70
   128
 43
0.0
 10
3.841298
 20
2.648692
 10
3.779947
 20
2.669578
 10
3.770287
 20
2.675321
 10
3.646019
 20
2.675321
 10
3.566915
 20
2.654436
 10
3.478256
 20
2.611412
 10
3.379728
 20
2.559929
 10
3.370852
 20
2.551053
 10
3.370852
 20
2.524424
 10
3.379728
 20
2.515547
 10
3.424998
 20
2.531525
 10
3.449851
 20
2.543952
 10
3.557733
 20
2.591611
 10
3.716665
 20
2.608312
 10
3.804905
 20
2.624726
 10
3.841298
 20
2.648692
  0
LWPOLYLINE
  5
64
330
1F
100
AcDbEntity
  8
0
100
AcDbPolyline
 90
       13
 70
   128
 43
0.0
 10
4.027701
 20
2.400155
 10
4.018825
 20
2.409031
 10
3.964679
 20
2.393054
 10
3.84303
 20
2.318103
 10
3.734782
 20
2.231504
 10
3.725906
 20
2.204875
 10
3.734782
 20
2.195999
 10
3.796029
 20
2.215527
 10
3.80668
 20
2.220853
 10
3.9017
 20
2.286927
 10
3.946082
 20
2.322433
 10
4.018825
 20
2.382402
 10
4.027701
 20
2.400155
  0
LWPOLYLINE
  5
65
330
1F
100
AcDbEntity
  8
0
100
AcDbPolyline
 90
       19
 70
   128
 43
0.0
 10
4.063206
 20
2.07173
 10
4.045454
 20
2.089483
 10
4.027701
 20
2.089483
 10
3.993083
 20
2.069955
 10
3.982432
 20
2.064629
 10
3.849287
 20
2.012259
 10
3.833309
 20
2.006933
 10
3.628541
 20
1.987719
 10
3.618857
 20
1.986695
 10
3.566131
 20
1.982967
 10
3.557255
 20
1.974091
 10
3.575008
 20
1.956338
 10
3.601637
 20
1.947462
 10
3.752535
 20
1.947462
 10
3.858451
 20
1.968813
 10
3.964679
 20
2.002495
 10
4.00196
 20
2.016697
 10
4.027701
 20
2.027349
 10
4.063206
 20
2.07173
  0
LWPOLYLINE
  5
66
330
1F
100
AcDbEntity
  8
0
100
AcDbPolyline
 90
       14
 70
   128
 43
0.0
 10
4.267362
 20
2.053978
 10
4.258486
 20
2.07173
 10
4.224578
 20
2.10049
 10
4.189073
 20
2.127119
 10
4.03569
 20
2.229729
 10
3.965567
 20
2.258133
 10
3.95669
 20
2.249257
 10
3.95669
 20
2.231504
 10
4.061609
 20
2.140611
 10
4.091433
 20
2.118242
 10
4.214992
 20
2.046877
 10
4.222093
 20
2.043326
 10
4.265143
 20
2.038444
 10
4.267362
 20
2.053978
  0
LWPOLYLINE
  5
67
330
1F
100
AcDbEntity
  8
0
100
AcDbPolyline
 90
       15
 70
   128
 43
0.0
 10
4.293991
 20
2.684198
 10
4.258486
 20
2.710827
 10
4.205228
 20
2.710827
 10
4.108476
 20
2.690411
 10
4.071195
 20
2.677984
 10
3.877691
 20
2.602535
 10
3.860416
 20
2.593386
 10
3.752535
 20
2.515547
 10
3.752535
 20
2.506671
 10
3.770287
 20
2.488918
 10
3.804905
 20
2.49957
 10
3.920297
 20
2.561704
 10
4.055113
 20
2.627807
 10
4.284227
 20
2.677097
 10
4.293991
 20
2.684198
  0
LWPOLYLINE
  5
68
330
1F
100
AcDbEntity
  8
0
100
AcDbPolyline
 90
       18
 70
   128
 43
0.0
 10
4.507023
 20
2.053978
 10
4.498147
 20
2.062854
 10
4.435125
 20
2.047764
 10
4.419148
 20
2.042438
 10
4.2403
 20
1.986864
 10
4.160553
 20
1.978191
 10
3.974443
 20
1.965214
 10
3.965567
 20
1.947462
 10
4.010548
 20
1.924431
 10
4.05373
 20
1.917234
 10
4.063206
 20
1.911956
 10
4.160846
 20
1.911956
 10
4.2403
 20
1.924729
 10
4.293392
 20
1.933307
 10
4.408496
 20
1.984742
 10
4.419148
 20
1.990068
 10
4.460823
 20
2.011779
 10
4.507023
 20
2.053978
  0
LWPOLYLINE
  5
69
330
1F
100
AcDbEntity
  8
0
100
AcDbPolyline
 90
       12
 70
   128
 43
0.0
 10
4.5159
 20
2.400155
 10
4.507023
 20
2.409031
 10
4.452878
 20
2.393054
 10
4.340105
 20
2.326979
 10
4.196352
 20
2.204875
 10
4.194576
 20
2.196887
 10
4.187475
 20
2.187123
 10
4.205228
 20
2.16937
 10
4.223868
 20
2.176471
 10
4.451946
 20
2.340203
 10
4.5159
 20
2.391278
 10
4.5159
 20
2.400155
  0
LWPOLYLINE
  5
6A
330
1F
100
AcDbEntity
  8
0
100
AcDbPolyline
 90
       12
 70
   128
 43
0.0
 10
4.728932
 20
2.346897
 10
4.702303
 20
2.391278
 10
4.553003
 20
2.517678
 10
4.499035
 20
2.552828
 10
4.453765
 20
2.577682
 10
4.436013
 20
2.577682
 10
4.427136
 20
2.568805
 10
4.436013
 20
2.551053
 10
4.551405
 20
2.43566
 10
4.677449
 20
2.341571
 10
4.711179
 20
2.329144
 10
4.728932
 20
2.346897
  0
LWPOLYLINE
  5
6B
330
1F
100
AcDbEntity
  8
0
100
AcDbPolyline
 90
       16
 70
   128
 43
0.0
 10
4.737808
 20
2.009596
 10
4.720056
 20
2.036225
 10
4.677493
 20
2.073913
 10
4.629473
 20
2.113929
 10
4.463529
 20
2.23328
 10
4.452878
 20
2.238605
 10
4.427136
 20
2.249257
 10
4.409384
 20
2.231504
 10
4.416485
 20
2.212864
 10
4.41826
 20
2.204875
 10
4.451886
 20
2.176053
 10
4.508903
 20
2.127181
 10
4.674786
 20
2.007821
 10
4.685438
 20
2.002495
 10
4.720056
 20
1.991843
 10
4.737808
 20
2.009596
  0
LWPOLYLINE
  5
6C
330
1F
100
AcDbEntity
  8
0
100
AcDbPolyline
 90
       14
 70
   128
 43
0.0
 10
4.737808
 20
2.70195
 10
4.711179
 20
2.719703
 10
4.560281
 20
2.719703
 10
4.516787
 20
2.700175
 10
4.463529
 20
2.681535
 10
4.277126
 20
2.602535
 10
4.248722
 20
2.588333
 10
4.160846
 20
2.524424
 10
4.169723
 20
2.506671
 10
4.205228
 20
2.506671
 10
4.346362
 20
2.579457
 10
4.42792
 20
2.61893
 10
4.71828
 20
2.689523
 10
4.737808
 20
2.70195
  0
LWPOLYLINE
  5
6D
330
1F
100
AcDbEntity
  8
0
100
AcDbPolyline
 90
       17
 70
   128
 43
0.0
 10
4.986346
 20
2.00072
 10
4.941964
 20
2.027349
 10
4.914552
 20
2.021605
 10
4.862965
 20
2.006933
 10
4.701825
 20
1.951285
 10
4.630979
 20
1.942658
 10
4.436013
 20
1.920832
 10
4.427136
 20
1.911956
 10
4.444889
 20
1.894203
 10
4.543007
 20
1.871398
 10
4.657921
 20
1.858698
 10
4.710292
 20
1.879114
 10
4.745901
 20
1.88846
 10
4.887818
 20
1.94036
 10
4.89847
 20
1.945686
 10
4.967228
 20
1.985015
 10
4.986346
 20
2.00072
  0
LWPOLYLINE
  5
6E
330
1F
100
AcDbEntity
  8
0
100
AcDbPolyline
 90
       15
 70
   128
 43
0.0
 10
5.14612
 20
2.33802
 10
5.139019
 20
2.347784
 10
5.128367
 20
2.373526
 10
4.986346
 20
2.515547
 10
4.931269
 20
2.557746
 10
4.896695
 20
2.575019
 10
4.862077
 20
2.586558
 10
4.853201
 20
2.577682
 10
4.862077
 20
2.551053
 10
5.012975
 20
2.400155
 10
5.08591
 20
2.34022
 10
5.09113
 20
2.335855
 10
5.128367
 20
2.302515
 10
5.14612
 20
2.320268
 10
5.14612
 20
2.33802
  0
LWPOLYLINE
  5
6F
330
1F
100
AcDbEntity
  8
0
100
AcDbPolyline
 90
       16
 70
   128
 43
0.0
 10
5.14612
 20
2.719703
 10
5.137244
 20
2.728579
 10
5.021851
 20
2.728579
 10
4.924811
 20
2.707228
 10
4.889489
 20
2.698818
 10
4.720943
 20
2.611412
 10
4.703668
 20
2.602262
 10
4.649045
 20
2.559929
 10
4.649045
 20
2.551053
 10
4.657921
 20
2.542176
 10
4.693427
 20
2.542176
 10
4.728044
 20
2.561704
 10
4.843437
 20
2.614962
 10
4.924995
 20
2.654436
 10
5.126592
 20
2.705501
 10
5.14612
 20
2.719703
  0
LWPOLYLINE
  5
70
330
1F
100
AcDbEntity
  8
0
100
AcDbPolyline
 90
       11
 70
   128
 43
0.0
 10
5.163873
 20
1.956338
 10
5.156771
 20
1.966102
 10
4.977469
 20
2.151617
 10
4.904534
 20
2.211552
 10
4.862077
 20
2.249257
 10
4.844324
 20
2.231504
 10
4.851425
 20
2.212864
 10
4.862077
 20
2.187123
 10
5.110615
 20
1.938585
 10
5.14612
 20
1.938585
 10
5.163873
 20
1.956338
  0
LWPOLYLINE
  5
71
330
1F
100
AcDbEntity
  8
0
100
AcDbPolyline
 90
       18
 70
   128
 43
0.0
 10
5.403534
 20
2.00072
 10
5.386669
 20
2.011371
 10
5.36004
 20
2.007821
 10
5.342765
 20
1.998671
 10
5.180942
 20
1.91537
 10
5.146803
 20
1.908542
 10
4.959321
 20
1.889282
 10
4.87983
 20
1.885327
 10
4.870953
 20
1.876451
 10
4.914447
 20
1.856035
 10
4.968593
 20
1.840945
 10
5.101738
 20
1.840945
 10
5.154396
 20
1.85342
 10
5.164656
 20
1.855565
 10
5.269501
 20
1.895979
 10
5.286776
 20
1.905128
 10
5.394657
 20
1.982967
 10
5.403534
 20
2.00072
  0
LWPOLYLINE
  5
72
330
1F
100
AcDbEntity
  8
0
100
AcDbPolyline
 90
       12
 70
   128
 43
0.0
 10
5.421286
 20
2.391278
 10
5.394657
 20
2.426784
 10
5.368028
 20
2.426784
 10
5.234883
 20
2.329144
 10
5.075109
 20
2.16937
 10
5.066233
 20
2.151617
 10
5.073334
 20
2.132977
 10
5.075109
 20
2.124988
 10
5.083986
 20
2.116112
 10
5.101738
 20
2.116112
 10
5.303935
 20
2.286966
 10
5.421286
 20
2.391278
  0
LWPOLYLINE
  5
73
330
1F
100
AcDbEntity
  8
0
100
AcDbPolyline
 90
       17
 70
   128
 43
0.0
 10
5.581061
 20
2.728579
 10
5.572184
 20
2.737456
 10
5.41241
 20
2.737456
 10
5.279865
 20
2.716105
 10
5.253524
 20
2.708164
 10
5.147485
 20
2.646644
 10
5.109727
 20
2.623839
 10
5.030727
 20
2.551053
 10
5.030727
 20
2.542176
 10
5.04848
 20
2.524424
 10
5.083986
 20
2.524424
 10
5.135878
 20
2.561977
 10
5.251748
 20
2.641591
 10
5.333306
 20
2.681065
 10
5.368916
 20
2.690411
 10
5.572184
 20
2.710827
 10
5.581061
 20
2.728579
  0
LWPOLYLINE
  5
74
330
1F
100
AcDbEntity
  8
0
100
AcDbPolyline
 90
       11
 70
   128
 43
0.0
 10
5.589937
 20
2.346897
 10
5.579285
 20
2.363762
 10
5.51005
 20
2.462289
 10
5.439039
 20
2.5333
 10
5.31477
 20
2.622063
 10
5.297018
 20
2.604311
 10
5.304119
 20
2.576794
 10
5.492297
 20
2.382402
 10
5.499249
 20
2.380203
 10
5.563308
 20
2.320268
 10
5.589937
 20
2.346897
  0
LWPOLYLINE
  5
75
330
1F
100
AcDbEntity
  8
0
100
AcDbPolyline
 90
       10
 70
   128
 43
0.0
 10
5.616566
 20
1.929709
 10
5.60769
 20
1.956338
 10
5.323647
 20
2.231504
 10
5.297018
 20
2.204875
 10
5.297018
 20
2.178246
 10
5.359152
 20
2.098359
 10
5.454867
 20
2.007396
 10
5.563308
 20
1.911956
 10
5.598813
 20
1.911956
 10
5.616566
 20
1.929709
  0
LWPOLYLINE
  5
76
330
1F
100
AcDbEntity
  8
0
100
AcDbPolyline
 90
       17
 70
   128
 43
0.0
 10
5.829598
 20
1.982967
 10
5.811845
 20
2.00072
 10
5.794093
 20
2.00072
 10
5.706217
 20
1.93681
 10
5.695565
 20
1.931484
 10
5.56242
 20
1.879114
 10
5.536146
 20
1.871303
 10
5.323647
 20
1.849822
 10
5.305894
 20
1.832069
 10
5.323647
 20
1.814316
 10
5.368028
 20
1.796564
 10
5.492297
 20
1.796564
 10
5.589049
 20
1.825856
 10
5.747979
 20
1.896368
 10
5.794093
 20
1.929709
 10
5.822497
 20
1.964327
 10
5.829598
 20
1.982967
  0
LWPOLYLINE
  5
77
330
1F
100
AcDbEntity
  8
0
100
AcDbPolyline
 90
        9
 70
   128
 43
0.0
 10
5.847351
 20
2.444537
 10
5.820722
 20
2.457851
 10
5.769423
 20
2.433456
 10
5.687577
 20
2.364649
 10
5.474544
 20
2.151617
 10
5.501173
 20
2.138303
 10
5.552507
 20
2.162693
 10
5.61849
 20
2.220429
 10
5.847351
 20
2.444537
  0
LWPOLYLINE
  5
78
330
1F
100
AcDbEntity
  8
0
100
AcDbPolyline
 90
       19
 70
   128
 43
0.0
 10
6.007125
 20
2.746332
 10
5.989372
 20
2.764085
 10
5.882856
 20
2.764085
 10
5.750599
 20
2.726804
 10
5.739947
 20
2.721478
 10
5.600179
 20
2.65552
 10
5.56242
 20
2.632715
 10
5.501173
 20
2.595434
 10
5.494072
 20
2.576794
 10
5.483421
 20
2.551053
 10
5.492297
 20
2.5333
 10
5.509162
 20
2.522648
 10
5.517151
 20
2.520873
 10
5.579695
 20
2.561977
 10
5.662313
 20
2.620015
 10
5.768351
 20
2.681535
 10
5.79498
 20
2.691299
 10
5.998248
 20
2.728579
 10
6.007125
 20
2.746332
  0
LWPOLYLINE
  5
79
330
1F
100
AcDbEntity
  8
0
100
AcDbPolyline
 90
       11
 70
   128
 43
0.0
 10
6.024877
 20
1.929709
 10
6.0089
 20
1.957225
 10
5.925026
 20
2.060812
 10
5.740835
 20
2.258133
 10
5.705329
 20
2.222628
 10
5.716371
 20
2.197731
 10
5.747546
 20
2.158762
 10
5.802969
 20
2.089483
 10
5.980496
 20
1.911956
 10
6.015114
 20
1.922608
 10
6.024877
 20
1.929709
  0
LWPOLYLINE
  5
7A
330
1F
100
AcDbEntity
  8
0
100
AcDbPolyline
 90
       14
 70
   128
 43
0.0
 10
6.051507
 20
2.382402
 10
6.044405
 20
2.392166
 10
6.033754
 20
2.417908
 10
5.927238
 20
2.524424
 10
5.819124
 20
2.60218
 10
5.784329
 20
2.620288
 10
5.758587
 20
2.63094
 10
5.740835
 20
2.613187
 10
5.749711
 20
2.595434
 10
5.811845
 20
2.5333
 10
5.97913
 20
2.398106
 10
6.000024
 20
2.385953
 10
6.04263
 20
2.373526
 10
6.051507
 20
2.382402
  0
LWPOLYLINE
  5
7B
330
1F
100
AcDbEntity
  8
0
100
AcDbPolyline
 90
       12
 70
   128
 43
0.0
 10
6.282291
 20
2.444537
 10
6.229033
 20
2.471166
 10
6.220157
 20
2.471166
 10
6.14027
 20
2.391278
 10
5.909485
 20
2.142741
 10
5.918361
 20
2.124988
 10
5.935226
 20
2.114337
 10
5.94499
 20
2.107236
 10
5.972507
 20
2.114337
 10
5.980496
 20
2.116112
 10
6.106977
 20
2.256092
 10
6.282291
 20
2.444537
  0
LWPOLYLINE
  5
7C
330
1F
100
AcDbEntity
  8
0
100
AcDbPolyline
 90
       17
 70
   128
 43
0.0
 10
6.317797
 20
1.956338
 10
6.291168
 20
1.991843
 10
6.255662
 20
1.991843
 10
6.221045
 20
1.972315
 10
6.185539
 20
1.954563
 10
6.024094
 20
1.870707
 10
5.758587
 20
1.823193
 10
5.749711
 20
1.814316
 10
5.767464
 20
1.796564
 10
5.837587
 20
1.776148
 10
5.87398
 20
1.761058
 10
5.980496
 20
1.761058
 10
6.050723
 20
1.781944
 10
6.201517
 20
1.860473
 10
6.219269
 20
1.86935
 10
6.300044
 20
1.920832
 10
6.317797
 20
1.956338
  0
LWPOLYLINE
  5
7D
330
1F
100
AcDbEntity
  8
0
100
AcDbPolyline
 90
       17
 70
   128
 43
0.0
 10
6.459818
 20
2.293639
 10
6.443841
 20
2.365537
 10
6.404377
 20
2.442718
 10
6.328838
 20
2.535032
 10
6.273415
 20
2.595434
 10
6.201517
 20
2.646917
 10
6.166899
 20
2.657569
 10
6.158023
 20
2.648692
 10
6.191363
 20
2.602579
 10
6.195741
 20
2.597489
 10
6.316021
 20
2.461402
 10
6.350639
 20
2.390391
 10
6.397684
 20
2.160494
 10
6.424313
 20
2.142741
 10
6.442065
 20
2.160494
 10
6.447528
 20
2.178929
 10
6.459818
 20
2.293639
  0
LWPOLYLINE
  5
7E
330
1F
100
AcDbEntity
  8
0
100
AcDbPolyline
 90
       23
 70
   128
 43
0.0
 10
6.486447
 20
2.772961
 10
6.442065
 20
2.79959
 10
6.40656
 20
2.79959
 10
6.176558
 20
2.752076
 10
6.130506
 20
2.739231
 10
6.005759
 20
2.67737
 10
5.962743
 20
2.648692
 10
5.934339
 20
2.614075
 10
5.927238
 20
2.595434
 10
5.94499
 20
2.577682
 10
5.962743
 20
2.577682
 10
6.023512
 20
2.615235
 10
6.043996
 20
2.628891
 10
6.229921
 20
2.71704
 10
6.256446
 20
2.725447
 10
6.353302
 20
2.746332
 10
6.397684
 20
2.719703
 10
6.390583
 20
2.692186
 10
6.353302
 20
2.595434
 10
6.371055
 20
2.577682
 10
6.379931
 20
2.577682
 10
6.479346
 20
2.763197
 10
6.486447
 20
2.772961
  0
LWPOLYLINE
  5
7F
330
1F
100
AcDbEntity
  8
0
100
AcDbPolyline
 90
       28
 70
   128
 43
0.0
 10
6.513076
 20
1.80544
 10
6.492191
 20
1.89342
 10
6.44029
 20
1.999832
 10
6.417485
 20
2.03759
 10
6.344426
 20
2.142741
 10
6.291168
 20
2.195999
 10
6.245054
 20
2.229339
 10
6.19264
 20
2.256358
 10
6.177994
 20
2.255914
 10
6.177551
 20
2.241268
 10
6.188202
 20
2.215527
 10
6.275598
 20
2.100178
 10
6.315614
 20
2.052159
 10
6.360403
 20
1.982079
 10
6.397684
 20
1.885327
 10
6.371055
 20
1.840945
 10
6.336437
 20
1.812541
 10
6.273415
 20
1.787687
 10
6.229033
 20
1.787687
 10
6.220157
 20
1.796564
 10
6.166899
 20
1.769935
 10
6.229817
 20
1.746439
 10
6.254879
 20
1.740173
 10
6.388807
 20
1.7078
 10
6.468694
 20
1.7078
 10
6.486447
 20
1.716677
 10
6.5042
 20
1.734429
 10
6.513076
 20
1.80544
  0
LWPOLYLINE
  5
80
330
1F
100
AcDbEntity
  8
0
100
AcDbPolyline
 90
       45
 70
   128
 43
0.0
 10
6.637345
 20
1.920832
 10
6.614984
 20
2.675479
 10
6.610716
 20
2.906106
 10
6.60184
 20
2.914983
 10
5.864951
 20
2.892628
 10
3.024675
 20
2.781837
 10
2.893729
 20
2.93466
 10
2.859157
 20
2.986776
 10
2.852891
 20
3.011839
 10
2.838272
 20
3.057004
 10
2.838272
 20
3.802616
 10
2.85146
 20
4.122045
 10
2.853805
 20
4.27972
 10
1.932885
 20
4.281939
 10
1.926228
 20
4.27972
 10
1.924009
 20
3.074757
 10
1.614702
 20
2.788665
 10
1.587595
 20
2.771186
 10
1.541962
 20
2.75921
 10
1.453926
 20
2.751207
 10
1.293789
 20
2.746332
 10
0.82311
 20
2.777659
 10
0.503535
 20
2.795446
 10
0.299639
 20
2.808466
 10
0.290762
 20
2.79959
 10
0.28616
 20
2.053825
 10
0.281886
 20
1.814316
 10
0.290762
 20
1.80544
 10
1.622213
 20
1.840945
 10
1.695183
 20
1.772139
 10
1.819686
 20
1.647546
 10
1.881402
 20
1.566667
 10
1.902183
 20
1.503331
 10
1.915132
 20
1.388252
 10
1.910574
 20
1.112972
 10
1.901938
 20
0.784775
 10
1.890722
 20
0.316434
 10
2.844929
 20
0.316434
 10
2.820519
 20
1.619037
 10
3.06018
 20
1.867574
 10
5.261849
 20
1.685212
 10
5.580724
 20
1.659378
 10
6.617373
 20
1.576874
 10
6.633084
 20
1.699088
 10
6.637345
 20
1.920832
  0
LWPOLYLINE
  5
81
330
1F
100
AcDbEntity
  8
0
100
AcDbPolyline
 90
       69
 70
   128
 43
0.0
 10
6.779366
 20
1.716677
 10
6.748447
 20
2.941473
 10
6.726108
 20
3.003746
 10
6.708356
 20
3.021499
 10
6.637345
 20
3.057004
 10
6.388807
 20
3.057004
 10
3.211242
 20
2.93735
 10
3.086809
 20
2.932735
 10
2.987394
 20
3.04724
 10
2.976469
 20
3.11866
 10
2.971417
 20
3.128015
 10
2.975972
 20
3.465426
 10
2.998046
 20
4.299691
 10
2.986037
 20
4.334414
 10
2.953664
 20
4.388455
 10
2.935911
 20
4.406208
 10
2.873777
 20
4.42396
 10
1.89738
 20
4.42396
 10
1.844122
 20
4.397331
 10
1.790864
 20
4.344073
 10
1.786392
 20
4.308535
 10
1.781987
 20
3.128015
 10
1.575755
 20
2.93495
 10
1.539976
 20
2.910022
 10
1.525461
 20
2.903443
 10
1.471315
 20
2.888353
 10
1.311541
 20
2.888353
 10
0.672213
 20
2.928556
 10
0.27301
 20
2.950488
 10
0.256144
 20
2.939836
 10
0.210875
 20
2.923859
 10
0.164718
 20
2.862612
 10
0.159392
 20
2.851961
 10
0.139864
 20
2.053978
 10
0.139864
 20
1.796564
 10
0.164718
 20
1.733542
 10
0.201999
 20
1.690048
 10
0.254474
 20
1.669162
 10
0.264133
 20
1.663419
 10
0.779081
 20
1.67686
 10
1.568955
 20
1.698924
 10
1.755358
 20
1.512521
 10
1.761102
 20
1.485109
 10
1.767367
 20
1.460046
 10
1.773111
 20
1.450387
 10
1.773111
 20
1.042075
 10
1.759955
 20
0.784809
 10
1.759666
 20
0.775662
 10
1.746482
 20
0.287586
 10
1.752225
 20
0.277926
 10
1.755358
 20
0.252081
 10
1.826369
 20
0.18107
 10
1.852215
 20
0.177937
 10
1.861874
 20
0.172194
 10
2.873777
 20
0.172194
 10
2.883437
 20
0.177937
 10
2.909282
 20
0.18107
 10
2.973192
 20
0.251193
 10
2.989169
 20
0.296462
 10
2.984633
 20
0.527342
 10
2.96254
 20
1.556903
 10
3.113438
 20
1.716677
 10
4.800256
 20
1.578728
 10
5.660611
 20
1.508481
 10
6.539705
 20
1.432634
 10
6.655098
 20
1.432634
 10
6.734985
 20
1.485892
 10
6.752737
 20
1.503645
 10
6.779366
 20
1.716677
  0
LWPOLYLINE
  5
82
330
1F
100
AcDbEntity
  8
0
100
AcDbPolyline
 90
       80
 70
   128
 43
0.0
 10
6.921388
 20
1.725553
 10
6.908004
 20
2.107303
 10
6.899266
 20
2.675254
 10
6.889015
 20
2.986776
 10
6.866081
 20
3.046762
 10
6.805995
 20
3.128015
 10
6.768892
 20
3.152513
 10
6.663974
 20
3.199025
 10
6.388807
 20
3.199025
 10
3.486415
 20
3.088255
 10
3.477198
 20
3.087887
 10
3.140067
 20
3.074757
 10
3.122314
 20
3.092509
 10
3.118901
 20
3.127332
 10
3.113438
 20
3.136891
 10
3.140067
 20
4.32632
 10
3.128528
 20
4.352062
 10
3.069056
 20
4.477218
 10
2.945675
 20
4.550004
 10
2.909282
 20
4.565982
 10
1.861874
 20
4.565982
 10
1.765832
 20
4.51947
 10
1.7021
 20
4.468342
 10
1.66837
 20
4.40532
 10
1.66482
 20
4.398219
 10
1.64437
 20
4.34404
 10
1.639966
 20
3.190149
 10
1.524573
 20
3.083633
 10
1.524573
 20
3.074757
 10
1.462439
 20
3.030375
 10
1.311541
 20
3.030375
 10
1.009978
 20
3.052306
 10
0.530656
 20
3.078935
 10
0.406155
 20
3.092509
 10
0.27301
 20
3.092509
 10
0.202886
 20
3.072094
 10
0.192235
 20
3.067656
 10
0.104359
 20
3.021499
 10
0.062026
 20
2.966875
 10
0.011108
 20
2.870553
 10
-0.002157
 20
1.796564
 10
0.027605
 20
1.681955
 10
0.031573
 20
1.671407
 10
0.051101
 20
1.63679
 10
0.086606
 20
1.601284
 10
0.185134
 20
1.540925
 10
0.237504
 20
1.521397
 10
1.355796
 20
1.55233
 10
1.364799
 20
1.556903
 10
1.515697
 20
1.556903
 10
1.631089
 20
1.44151
 10
1.626493
 20
1.041927
 10
1.617645
 20
0.784538
 10
1.60446
 20
0.269833
 10
1.638191
 20
0.189059
 10
1.684347
 20
0.118936
 10
1.719853
 20
0.08343
 10
1.782875
 20
0.0497
 10
1.789976
 20
0.04615
 10
1.835245
 20
0.030172
 10
2.900406
 20
0.030172
 10
2.970529
 20
0.058576
 10
2.981181
 20
0.063902
 10
3.015798
 20
0.08343
 10
3.069056
 20
0.136688
 10
3.09391
 20
0.181958
 10
3.097461
 20
0.189059
 10
3.131191
 20
0.269833
 10
3.104562
 20
1.503645
 10
3.175573
 20
1.574655
 10
4.506687
 20
1.464099
 10
6.539705
 20
1.290612
 10
6.637345
 20
1.290612
 10
6.681044
 20
1.302903
 10
6.75185
 20
1.327893
 10
6.798717
 20
1.359493
 10
6.877006
 20
1.432634
 10
6.889015
 20
1.476232
 10
6.908615
 20
1.575088
 10
6.921388
 20
1.725553
  0
LWPOLYLINE
  5
83
330
1F
100
AcDbEntity
  8
0
100
AcDbPolyline
 90
       14
 70
   128
 43
0.0
 10
3.379728
 20
2.648692
 10
3.370169
 20
2.654155
 10
3.193325
 20
2.684198
 10
3.175573
 20
2.666445
 10
3.200426
 20
2.612299
 10
3.235932
 20
2.541289
 10
3.344223
 20
2.382402
 10
3.370852
 20
2.355773
 10
3.406357
 20
2.355773
 10
3.415234
 20
2.364649
 10
3.402807
 20
2.407256
 10
3.264336
 20
2.595434
 10
3.290965
 20
2.622063
 10
3.379728
 20
2.648692
  0
LWPOLYLINE
  5
84
330
1F
100
AcDbEntity
  8
0
100
AcDbPolyline
 90
        9
 70
   128
 43
0.0
 10
2.545352
 20
1.166344
 10
2.485417
 20
1.102285
 10
2.421084
 20
1.015446
 10
2.438836
 20
1.00657
 10
2.500971
 20
1.059828
 10
2.525469
 20
1.096931
 10
2.551566
 20
1.140602
 10
2.554229
 20
1.166344
 10
2.545352
 20
1.166344
  0
LWPOLYLINE
  5
85
330
1F
100
AcDbEntity
  8
0
100
AcDbPolyline
 90
        9
 70
   128
 43
0.0
 10
2.312064
 20
0.880058
 10
2.252129
 20
0.815999
 10
2.187795
 20
0.72916
 10
2.205547
 20
0.720283
 10
2.267682
 20
0.773542
 10
2.292181
 20
0.810645
 10
2.318277
 20
0.854316
 10
2.32094
 20
0.880058
 10
2.312064
 20
0.880058
  0
LWPOLYLINE
  5
86
330
1F
100
AcDbEntity
  8
0
100
AcDbPolyline
 90
       12
 70
   128
 43
0.0
 10
2.421084
 20
0.607134
 10
2.42996
 20
0.598258
 10
2.438836
 20
0.607134
 10
2.42996
 20
0.616011
 10
2.42996
 20
0.624887
 10
2.367826
 20
0.687021
 10
2.31368
 20
0.719864
 10
2.287939
 20
0.731403
 10
2.279062
 20
0.71365
 10
2.341197
 20
0.651516
 10
2.413095
 20
0.60891
 10
2.421084
 20
0.607134
  0
LWPOLYLINE
  5
87
330
1F
100
AcDbEntity
  8
0
100
AcDbPolyline
 90
       10
 70
   128
 43
0.0
 10
2.279062
 20
1.024322
 10
2.305691
 20
0.971064
 10
2.375104
 20
0.906799
 10
2.404929
 20
0.884431
 10
2.42996
 20
0.873424
 10
2.438836
 20
0.873424
 10
2.403331
 20
0.926682
 10
2.350073
 20
0.979941
 10
2.303959
 20
1.013281
 10
2.279062
 20
1.024322
  0
LWPOLYLINE
  5
88
330
1F
100
AcDbEntity
  8
0
100
AcDbPolyline
 90
        9
 70
   128
 43
0.0
 10
2.305691
 20
1.27286
 10
2.312792
 20
1.254219
 10
2.376702
 20
1.17522
 10
2.42996
 20
1.139715
 10
2.438836
 20
1.148591
 10
2.412207
 20
1.201849
 10
2.333208
 20
1.274635
 10
2.314568
 20
1.281736
 10
2.305691
 20
1.27286
  0
LWPOLYLINE
  5
89
330
1F
100
AcDbEntity
  8
0
100
AcDbPolyline
 90
       11
 70
   128
 43
0.0
 10
2.571981
 20
1.255107
 10
2.579083
 20
1.236467
 10
2.637249
 20
1.08724
 10
2.649206
 20
1.041187
 10
2.660745
 20
1.00657
 10
2.678498
 20
0.988817
 10
2.69625
 20
1.00657
 10
2.69625
 20
1.068704
 10
2.641217
 20
1.192085
 10
2.580858
 20
1.263983
 10
2.571981
 20
1.255107
  0
LWPOLYLINE
  5
8A
330
1F
100
AcDbEntity
  8
0
100
AcDbPolyline
 90
       17
 70
   128
 43
0.0
 10
2.199175
 20
3.775987
 10
2.170498
 20
3.724095
 10
2.121951
 20
3.633078
 10
2.095792
 20
3.508914
 10
2.083783
 20
3.465316
 10
2.074906
 20
3.456439
 10
2.048277
 20
3.518574
 10
2.048277
 20
3.554079
 10
2.076682
 20
3.641955
 10
2.082007
 20
3.652606
 10
2.130364
 20
3.720805
 10
2.190299
 20
3.784864
 10
2.199175
 20
3.79374
 10
2.208052
 20
3.802616
 10
2.216928
 20
3.802616
 10
2.208052
 20
3.784864
 10
2.199175
 20
3.775987
  0
LWPOLYLINE
  5
8B
330
1F
100
AcDbEntity
  8
0
100
AcDbPolyline
 90
       14
 70
   128
 43
0.0
 10
2.074906
 20
3.767111
 10
2.067805
 20
3.776875
 10
2.057154
 20
3.79374
 10
2.057154
 20
3.855875
 10
2.085948
 20
3.925153
 10
2.117123
 20
3.964123
 10
2.161938
 20
4.008937
 10
2.199175
 20
4.042278
 10
2.208052
 20
4.051154
 10
2.216928
 20
4.051154
 10
2.208052
 20
4.033401
 10
2.139089
 20
3.934396
 10
2.104198
 20
3.854987
 10
2.074906
 20
3.767111
  0
LWPOLYLINE
  5
8C
330
1F
100
AcDbEntity
  8
0
100
AcDbPolyline
 90
       11
 70
   128
 43
0.0
 10
2.341197
 20
3.767111
 10
2.323444
 20
3.775987
 10
2.285756
 20
3.81855
 10
2.209827
 20
3.918897
 10
2.208052
 20
3.935762
 10
2.21604
 20
3.933986
 10
2.234681
 20
3.926885
 10
2.296815
 20
3.864751
 10
2.316343
 20
3.821257
 10
2.33232
 20
3.784864
 10
2.341197
 20
3.767111
  0
LWPOLYLINE
  5
8D
330
1F
100
AcDbEntity
  8
0
100
AcDbPolyline
 90
       11
 70
   128
 43
0.0
 10
2.33232
 20
3.607337
 10
2.323444
 20
3.607337
 10
2.33232
 20
3.62509
 10
2.374519
 20
3.680167
 10
2.437239
 20
3.742612
 10
2.465465
 20
3.767111
 10
2.474342
 20
3.767111
 10
2.472211
 20
3.750956
 10
2.385578
 20
3.642842
 10
2.341197
 20
3.616213
 10
2.33232
 20
3.607337
  0
LWPOLYLINE
  5
8E
330
1F
100
AcDbEntity
  8
0
100
AcDbPolyline
 90
       12
 70
   128
 43
0.0
 10
2.323444
 20
3.474192
 10
2.33232
 20
3.465316
 10
2.341197
 20
3.474192
 10
2.33232
 20
3.483068
 10
2.312437
 20
3.525852
 10
2.290069
 20
3.555677
 10
2.216928
 20
3.633966
 10
2.190299
 20
3.642842
 10
2.209827
 20
3.599348
 10
2.270186
 20
3.509697
 10
2.296815
 20
3.483068
 10
2.323444
 20
3.474192
  0
LWPOLYLINE
  5
8F
330
1F
100
AcDbEntity
  8
0
100
AcDbPolyline
 90
       11
 70
   128
 43
0.0
 10
0.991993
 20
2.364649
 10
1.008148
 20
2.36678
 10
1.037972
 20
2.389148
 10
1.107385
 20
2.444537
 10
1.142891
 20
2.497795
 10
1.151767
 20
2.515547
 10
1.142891
 20
2.515547
 10
1.134014
 20
2.506671
 10
1.078937
 20
2.464472
 10
1.016492
 20
2.401753
 10
0.991993
 20
2.364649
  0
LWPOLYLINE
  5
90
330
1F
100
AcDbEntity
  8
0
100
AcDbPolyline
 90
       16
 70
   128
 43
0.0
 10
1.808616
 20
1.982967
 10
1.773111
 20
2.142741
 10
1.773111
 20
2.195999
 10
1.810392
 20
2.292751
 10
1.877579
 20
2.40152
 10
1.888503
 20
2.43566
 10
1.879627
 20
2.444537
 10
1.844122
 20
2.409031
 10
1.775774
 20
2.301627
 10
1.770448
 20
2.28565
 10
1.746482
 20
2.195999
 10
1.746482
 20
2.107236
 10
1.758957
 20
2.054577
 10
1.781987
 20
2.00072
 10
1.79974
 20
1.982967
 10
1.808616
 20
1.982967
  0
LWPOLYLINE
  5
91
330
1F
100
AcDbEntity
  8
0
100
AcDbPolyline
 90
       18
 70
   128
 43
0.0
 10
2.675271
 20
1.805348
 10
2.678498
 20
1.814316
 10
2.669621
 20
1.823193
 10
2.653754
 20
1.814513
 10
2.45433
 20
1.786629
 10
2.278175
 20
1.848047
 10
2.207268
 20
1.882194
 10
2.174765
 20
1.883108
 10
2.172546
 20
1.858698
 10
2.216928
 20
1.814316
 10
2.278175
 20
1.785912
 10
2.295927
 20
1.777036
 10
2.447713
 20
1.734429
 10
2.537009
 20
1.739578
 10
2.589202
 20
1.747034
 10
2.644358
 20
1.776763
 10
2.669621
 20
1.796564
 10
2.675271
 20
1.805348
  0
LWPOLYLINE
  5
92
330
1F
100
AcDbEntity
  8
0
100
AcDbPolyline
 90
       15
 70
   128
 43
0.0
 10
3.992196
 20
2.5333
 10
4.001072
 20
2.506671
 10
4.018825
 20
2.488918
 10
4.214992
 20
2.348672
 10
4.222093
 20
2.345122
 10
4.231857
 20
2.33802
 10
4.258486
 20
2.33802
 10
4.269138
 20
2.354885
 10
4.276239
 20
2.364649
 10
4.24961
 20
2.391278
 10
4.037465
 20
2.535075
 10
4.001072
 20
2.542176
 10
3.992196
 20
2.551053
 10
3.983319
 20
2.542176
 10
3.992196
 20
2.5333
  0
LWPOLYLINE
  5
93
330
1F
100
AcDbEntity
  8
0
100
AcDbPolyline
 90
       14
 70
   128
 43
0.0
 10
3.557255
 20
2.240381
 10
3.566131
 20
2.213752
 10
3.646019
 20
2.133865
 10
3.780051
 20
2.046877
 10
3.814669
 20
2.036225
 10
3.825321
 20
2.05309
 10
3.832422
 20
2.062854
 10
3.763143
 20
2.127153
 10
3.724174
 20
2.158329
 10
3.600749
 20
2.238605
 10
3.566131
 20
2.249257
 10
3.557255
 20
2.258133
 10
3.548379
 20
2.249257
 10
3.557255
 20
2.240381
  0
LWPOLYLINE
  5
94
330
1F
100
AcDbEntity
  8
0
100
AcDbPolyline
 90
       15
 70
   128
 43
0.0
 10
4.666798
 20
2.178246
 10
4.657921
 20
2.16937
 10
4.649045
 20
2.178246
 10
4.657921
 20
2.187123
 10
4.659696
 20
2.195111
 10
4.666798
 20
2.213752
 10
4.78219
 20
2.329144
 10
4.905571
 20
2.42057
 10
4.915335
 20
2.426784
 10
4.933088
 20
2.417908
 10
4.934863
 20
2.409919
 10
4.915335
 20
2.364649
 10
4.789187
 20
2.25145
 10
4.694314
 20
2.185347
 10
4.666798
 20
2.178246
  0
LWPOLYLINE
  5
95
330
1F
100
AcDbEntity
  8
0
100
AcDbPolyline
 90
       12
 70
   128
 43
0.0
 10
2.341194
 20
3.926901
 10
2.350073
 20
3.944638
 10
2.394455
 20
3.98902
 10
2.456589
 20
4.033401
 10
2.465465
 20
4.033401
 10
2.438836
 20
3.98902
 10
2.404929
 20
3.96026
 10
2.358949
 20
3.926885
 10
2.350073
 20
3.918009
 10
2.341197
 20
3.909133
 10
2.33232
 20
3.909133
 10
2.341194
 20
3.926901
  0
LWPOLYLINE
  5
96
330
1F
100
AcDbEntity
  8
0
100
AcDbPolyline
 90
       15
 70
   128
 43
0.0
 10
2.590524
 20
3.604237
 10
2.580858
 20
3.598461
 10
2.571981
 20
3.607337
 10
2.580858
 20
3.616213
 10
2.600386
 20
3.659707
 10
2.68116
 20
3.819482
 10
2.684241
 20
3.830029
 10
2.705127
 20
3.918009
 10
2.714003
 20
3.918009
 10
2.726012
 20
3.883287
 10
2.731756
 20
3.838122
 10
2.719465
 20
3.794423
 10
2.66252
 20
3.686336
 10
2.59861
 20
3.607337
 10
2.590524
 20
3.604237
  0
LWPOLYLINE
  5
97
330
1F
100
AcDbEntity
  8
0
100
AcDbPolyline
 90
       19
 70
   128
 43
0.0
 10
3.104101
 20
2.720014
 10
3.095806
 20
2.716434
 10
3.119652
 20
2.594547
 10
3.153996
 20
2.426306
 10
3.161643
 20
2.365127
 10
3.166696
 20
2.249257
 10
3.145811
 20
2.116895
 10
3.1432
 20
2.106452
 10
3.095685
 20
1.929709
 10
3.113438
 20
1.911956
 10
4.276552
 20
1.818389
 10
6.051799
 20
1.685272
 10
6.548582
 20
1.654542
 10
6.555239
 20
1.656761
 10
6.557458
 20
2.861724
 10
6.555239
 20
2.868382
 10
3.157997
 20
2.724334
 10
3.148944
 20
2.719703
 10
3.104101
 20
2.720014
  0
LWPOLYLINE
  5
98
330
1F
100
AcDbEntity
  8
0
100
AcDbPolyline
 90
       46
 70
   128
 43
0.0
 10
3.052542
 20
2.71729
 10
2.880548
 20
2.886137
 10
2.83654
 20
2.921694
 10
2.795256
 20
2.952536
 10
2.686486
 20
3.019723
 10
2.650981
 20
3.037476
 10
2.563888
 20
3.069013
 10
2.421084
 20
3.101386
 10
2.225804
 20
3.101386
 10
2.155271
 20
3.088686
 10
2.056266
 20
3.059667
 10
1.898977
 20
2.983863
 10
1.790864
 20
2.89723
 10
1.699935
 20
2.792446
 10
1.638191
 20
2.711714
 10
1.580964
 20
2.594651
 10
1.556665
 20
2.489601
 10
1.542326
 20
2.444537
 10
1.542326
 20
2.222628
 10
1.563677
 20
2.116712
 10
1.589371
 20
2.037113
 10
1.593809
 20
2.026461
 10
1.668643
 20
1.877816
 10
1.682299
 20
1.857333
 10
1.79974
 20
1.725553
 10
1.890101
 20
1.656673
 10
1.987031
 20
1.60306
 10
2.011884
 20
1.590633
 10
2.154111
 20
1.544612
 10
2.305691
 20
1.521397
 10
2.448191
 20
1.535326
 10
2.563993
 20
1.55424
 10
2.714891
 20
1.617262
 10
2.873777
 20
1.725553
 10
2.944788
 20
1.796564
 10
3.004874
 20
1.877816
 10
3.031503
 20
1.922198
 10
3.067281
 20
2.001607
 10
3.085034
 20
2.045989
 10
3.10984
 20
2.161093
 10
3.117037
 20
2.204276
 10
3.131191
 20
2.400155
 10
3.101148
 20
2.55037
 10
3.099099
 20
2.560612
 10
3.086809
 20
2.622063
 10
3.052542
 20
2.71729
  0
LWPOLYLINE
  5
99
330
1F
100
AcDbEntity
  8
0
100
AcDbPolyline
 90
       45
 70
   128
 43
0.0
 10
2.386677
 20
3.017084
 10
2.553341
 20
2.98333
 10
2.624352
 20
2.956701
 10
2.721281
 20
2.903976
 10
2.751106
 20
2.881607
 10
2.79389
 20
2.852848
 10
2.89153
 20
2.755208
 10
2.943012
 20
2.665557
 10
2.969641
 20
2.612299
 10
3.012666
 20
2.479259
 10
3.018931
 20
2.454196
 10
3.033551
 20
2.409031
 10
3.033551
 20
2.187123
 10
2.99627
 20
2.063742
 10
2.982068
 20
2.026461
 10
2.916028
 20
1.904678
 10
2.89366
 20
1.874853
 10
2.79389
 20
1.769935
 10
2.670509
 20
1.697149
 10
2.581745
 20
1.661643
 10
2.519406
 20
1.642252
 10
2.466065
 20
1.633191
 10
2.403331
 20
1.619037
 10
2.296815
 20
1.619037
 10
2.199539
 20
1.631915
 10
2.066813
 20
1.666551
 10
2.056266
 20
1.67052
 10
1.915132
 20
1.743306
 10
1.779939
 20
1.883962
 10
1.68701
 20
2.037113
 10
1.669728
 20
2.090266
 10
1.622213
 20
2.293639
 10
1.622213
 20
2.382402
 10
1.634986
 20
2.461856
 10
1.637303
 20
2.472053
 10
1.677246
 20
2.58567
 10
1.703875
 20
2.638928
 10
1.766365
 20
2.735858
 10
1.788733
 20
2.765682
 10
1.833426
 20
2.810649
 10
1.881446
 20
2.850665
 10
2.022536
 20
2.939836
 10
2.029637
 20
2.943387
 10
2.24737
 20
3.012415
 10
2.386677
 20
3.017084
  0
LWPOLYLINE
  5
9A
330
1F
100
AcDbEntity
  8
0
100
AcDbPolyline
 90
       46
 70
   128
 43
0.0
 10
2.392627
 20
3.040311
 10
2.312743
 20
3.040432
 10
2.225804
 20
3.030375
 10
2.074123
 20
2.998002
 10
2.049061
 20
2.991737
 10
1.969278
 20
2.948713
 10
1.958626
 20
2.943387
 10
1.888503
 20
2.906106
 10
1.737606
 20
2.755208
 10
1.730504
 20
2.736568
 10
1.673423
 20
2.641182
 10
1.634222
 20
2.568022
 10
1.586708
 20
2.355773
 10
1.59176
 20
2.257655
 10
1.599408
 20
2.196477
 10
1.625346
 20
2.090266
 10
1.677246
 20
1.974978
 10
1.735475
 20
1.883729
 10
1.755358
 20
1.849822
 10
1.870751
 20
1.734429
 10
1.96088
 20
1.674343
 10
2.075794
 20
1.620812
 10
2.082895
 20
1.617262
 10
2.234681
 20
1.592408
 10
2.42996
 20
1.592408
 10
2.545039
 20
1.605357
 10
2.642105
 20
1.639453
 10
2.703761
 20
1.674343
 10
2.724245
 20
1.687999
 10
2.79389
 20
1.734429
 10
2.927035
 20
1.867574
 10
2.99627
 20
1.983855
 10
3.027338
 20
2.061966
 10
3.056582
 20
2.152217
 10
3.072655
 20
2.248657
 10
3.077933
 20
2.258133
 10
3.077933
 20
2.346897
 10
3.065055
 20
2.444173
 10
3.030418
 20
2.568022
 10
3.017574
 20
2.596322
 10
2.951499
 20
2.726847
 10
2.864901
 20
2.835095
 10
2.714891
 20
2.952263
 10
2.652756
 20
2.97978
 10
2.562505
 20
3.0179
 10
2.392627
 20
3.040311
  0
LWPOLYLINE
  5
9B
330
1F
100
AcDbEntity
  8
0
100
AcDbPolyline
 90
       23
 70
   128
 43
0.0
 10
2.723797
 20
4.059227
 10
2.713168
 20
4.043561
 10
2.642921
 20
3.955896
 10
2.606934
 20
3.934304
 10
2.599737
 20
3.927107
 10
2.59254
 20
3.927107
 10
2.599737
 20
3.941502
 10
2.633954
 20
3.986161
 10
2.68481
 20
4.036795
 10
2.704962
 20
4.060394
 10
2.708259
 20
4.085876
 10
2.714003
 20
4.131041
 10
2.697138
 20
4.141693
 10
2.669621
 20
4.148794
 10
2.589734
 20
4.131041
 10
2.580858
 20
4.139917
 10
2.678498
 20
4.175423
 10
2.705127
 20
4.175423
 10
2.740632
 20
4.15767
 10
2.742407
 20
4.149681
 10
2.749508
 20
4.122165
 10
2.729707
 20
4.070272
 10
2.723797
 20
4.059227
  0
ENDSEC
  0
SECTION
  2
OBJECTS
  0
DICTIONARY
  5
C
330
0
100
AcDbDictionary
281
     1
  3
ACAD_GROUP
350
D
  3
ACAD_LAYOUT
350
1A
  3
ACAD_MLINESTYLE
350
17
  3
ACAD_PLOTSETTINGS
350
19
  3
ACAD_PLOTSTYLENAME
350
E
  0
DICTIONARY
  5
D
102
{ACAD_REACTORS
330
C
102
}
330
C
100
AcDbDictionary
281
     1
  0
DICTIONARY
  5
1A
102
{ACAD_REACTORS
330
C
102
}
330
C
100
AcDbDictionary
281
     1
  3
Layout1
350
1E
  3
Layout2
350
26
  3
Model
350
22
  0
DICTIONARY
  5
17
102
{ACAD_REACTORS
330
C
102
}
330
C
100
AcDbDictionary
281
     1
  3
Standard
350
18
  0
DICTIONARY
  5
19
102
{ACAD_REACTORS
330
C
102
}
330
C
100
AcDbDictionary
281
     1
  0
ACDBDICTIONARYWDFLT
  5
E
102
{ACAD_REACTORS
330
C
102
}
330
C
100
AcDbDictionary
281
     1
  3
Normal
350
F
100
AcDbDictionaryWithDefault
340
F
  0
LAYOUT
  5
1E
102
{ACAD_REACTORS
330
1A
102
}
330
1A
100
AcDbPlotSettings
  1

  2

  4

  6

 40
0.0
 41
0.0
 42
0.0
 43
0.0
 44
0.0
 45
0.0
 46
0.0
 47
0.0
 48
0.0
 49
0.0
140
0.0
141
0.0
142
1.0
143
1.0
 70
   688
 72
     0
 73
     0
 74
     5
  7

 75
    16
147
1.0
148
0.0
149
0.0
100
AcDbLayout
  1
Layout1
 70
     1
 71
     1
 10
0.0
 20
0.0
 11
420.0
 21
297.0
 12
0.0
 22
0.0
 32
0.0
 14
1.000000E+20
 24
1.000000E+20
 34
1.000000E+20
 15
-1.000000E+20
 25
-1.000000E+20
 35
-1.000000E+20
146
0.0
 13
0.0
 23
0.0
 33
0.0
 16
1.0
 26
0.0
 36
0.0
 17
0.0
 27
1.0
 37
0.0
 76
     0
330
1B
  0
LAYOUT
  5
26
102
{ACAD_REACTORS
330
1A
102
}
330
1A
100
AcDbPlotSettings
  1

  2

  4

  6

 40
0.0
 41
0.0
 42
0.0
 43
0.0
 44
0.0
 45
0.0
 46
0.0
 47
0.0
 48
0.0
 49
0.0
140
0.0
141
0.0
142
1.0
143
1.0
 70
   688
 72
     0
 73
     0
 74
     5
  7

 75
    16
147
1.0
148
0.0
149
0.0
100
AcDbLayout
  1
Layout2
 70
     1
 71
     2
 10
0.0
 20
0.0
 11
0.0
 21
0.0
 12
0.0
 22
0.0
 32
0.0
 14
0.0
 24
0.0
 34
0.0
 15
0.0
 25
0.0
 35
0.0
146
0.0
 13
0.0
 23
0.0
 33
0.0
 16
1.0
 26
0.0
 36
0.0
 17
0.0
 27
1.0
 37
0.0
 76
     0
330
23
  0
LAYOUT
  5
22
102
{ACAD_REACTORS
330
1A
102
}
330
1A
100
AcDbPlotSettings
  1

  2

  4

  6

 40
0.0
 41
0.0
 42
0.0
 43
0.0
 44
0.0
 45
0.0
 46
0.0
 47
0.0
 48
0.0
 49
0.0
140
0.0
141
0.0
142
1.0
143
1.0
 70
  1712
 72
     0
 73
     0
 74
     0
  7

 75
     0
147
1.0
148
0.0
149
0.0
100
AcDbLayout
  1
Model
 70
     1
 71
     0
 10
0.0
 20
0.0
 11
0.0
 21
0.0
 12
0.0
 22
0.0
 32
0.0
 14
0.0
 24
0.0
 34
0.0
 15
0.0
 25
0.0
 35
0.0
146
0.0
 13
0.0
 23
0.0
 33
0.0
 16
1.0
 26
0.0
 36
0.0
 17
0.0
 27
1.0
 37
0.0
 76
     0
330
1F
  0
MLINESTYLE
  5
18
102
{ACAD_REACTORS
330
17
102
}
330
17
100
AcDbMlineStyle
  2
Standard
 70
     0
  3

 62
   256
 51
90.0
 52
90.0
 71
     2
 49
1.0
 62
   256
  6
BYLAYER
 49
-1.0
 62
   256
  6
BYLAYER
  0
ACDBPLACEHOLDER
  5
F
102
{ACAD_REACTORS
330
E
102
}
330
E
  0
ENDSEC
  0
EOF
