0
SECTION
2
HEADER
9
$EXTMIN
10
0.240242
20
0.335560
9
$EXTMAX
10
13.770338
20
13.193889
0
ENDSEC
0
SECTION
2
TABLES
0
TABLE
2
LTYPE
70
1
0
LTYPE
2
0
70
0
3
Solid Line
72
65
73
0
40
0.0
0
ENDTAB
0
TABLE
2
LAYER
70
1
0
LAYER
2
1
70
0
62
7
6
0
0
ENDTAB
0
ENDSEC
0
SECTION
2
BLOCKS
0
ENDSEC
0
SECTION
2
ENTITIES
0
LINE
8
1
10
8.719961
20
9.283699
11
8.719961
21
9.283699
0
ARC
8
1
10
8.712217
20
9.495409
40
0.211852
50
160.691070
51
-87.905191
0
ARC
8
1
10
8.814390
20
9.465802
40
0.318121
50
121.057869
51
161.743531
0
ARC
8
1
10
9.024972
20
9.128160
40
0.716028
50
93.980272
51
121.554241
0
ARC
8
1
10
8.748933
20
12.989554
40
3.155222
50
-85.886396
51
-79.219801
0
ARC
8
1
10
9.215497
20
10.423212
40
0.547334
50
-76.949388
51
-58.730235
0
LINE
8
1
10
9.499600
20
9.955388
11
9.503469
21
9.954284
0
ARC
8
1
10
9.493892
20
9.889451
40
0.065536
50
-27.962331
51
81.596458
0
LINE
8
1
10
9.551777
20
9.858722
11
9.550801
21
9.855794
0
ARC
8
1
10
7.771170
20
10.718074
40
1.977527
50
-31.513984
51
-25.851455
0
LINE
8
1
10
9.457037
20
9.684407
11
9.455877
21
9.681837
0
LINE
8
1
10
9.455877
20
9.681837
11
9.454776
21
9.679298
0
LINE
8
1
10
9.454776
20
9.679298
11
9.453734
21
9.676796
0
ARC
8
1
10
9.852378
20
9.579025
40
0.410458
50
166.219725
51
-159.978071
0
ARC
8
1
10
9.134478
20
9.313287
40
0.355058
50
-12.424865
51
20.648572
0
ARC
8
1
10
9.151270
20
9.351246
40
0.349205
50
-57.874498
51
-19.115137
0
ARC
8
1
10
9.293926
20
9.141507
40
0.096168
50
-145.171126
51
-63.411824
0
LINE
8
1
10
9.214986
20
9.086583
11
9.210052
21
9.092235
0
ARC
8
1
10
9.831586
20
9.522419
40
0.755886
50
-166.888838
51
-145.311613
0
ARC
8
1
10
-1.703661
20
6.650628
40
11.131558
50
14.039035
51
15.890892
0
ARC
8
1
10
8.957240
20
9.690280
40
0.046006
50
10.316213
51
87.053193
0
ARC
8
1
10
8.932510
20
9.631246
40
0.108420
50
75.527988
51
154.833609
0
ARC
8
1
10
9.545591
20
9.312354
40
0.799401
50
152.832827
51
172.314792
0
ARC
8
1
10
8.142157
20
9.498002
40
0.616266
50
-20.349407
51
-7.341086
0
LINE
8
1
10
8.496477
20
11.213533
11
8.496477
21
11.213533
0
ARC
8
1
10
8.491947
20
11.174712
40
0.039085
50
-28.730067
51
83.344392
0
LINE
8
1
10
8.526220
20
11.155925
11
8.525456
21
11.153056
0
LINE
8
1
10
8.525456
20
11.153056
11
8.524611
21
11.150140
0
LINE
8
1
10
8.524611
20
11.150140
11
8.523686
21
11.147176
0
LINE
8
1
10
8.523686
20
11.147176
11
8.522686
21
11.144168
0
LINE
8
1
10
8.522686
20
11.144168
11
8.521610
21
11.141118
0
ARC
8
1
10
7.405533
20
11.690344
40
1.243896
50
-37.907719
51
-26.201968
0
LINE
8
1
10
8.386969
20
10.926105
11
8.385108
21
10.923360
0
LINE
8
1
10
8.385108
20
10.923360
11
8.383299
21
10.920668
0
LINE
8
1
10
8.383299
20
10.920668
11
8.381542
21
10.918030
0
LINE
8
1
10
8.381542
20
10.918030
11
8.379839
21
10.915448
0
LINE
8
1
10
8.379839
20
10.915448
11
8.378193
21
10.912924
0
LINE
8
1
10
8.378193
20
10.912924
11
8.376604
21
10.910459
0
LINE
8
1
10
8.376604
20
10.910459
11
8.375076
21
10.908054
0
LINE
8
1
10
8.375076
20
10.908054
11
8.373610
21
10.905712
0
ARC
8
1
10
10.037243
20
10.136289
40
1.832945
50
155.179651
51
-179.878725
0
LINE
8
1
10
8.204302
20
10.132409
11
8.204227
21
10.126033
0
LINE
8
1
10
8.204227
20
10.126033
11
8.206758
21
10.122477
0
ARC
8
1
10
8.219342
20
10.203328
40
0.081825
50
-98.847193
51
-32.742488
0
LINE
8
1
10
8.288166
20
10.159072
11
8.292759
21
10.164275
0
LINE
8
1
10
8.292759
20
10.164275
11
8.297362
21
10.169770
0
LINE
8
1
10
8.297362
20
10.169770
11
8.301973
21
10.175550
0
LINE
8
1
10
8.301973
20
10.175550
11
8.306595
21
10.181607
0
LINE
8
1
10
8.306595
20
10.181607
11
8.311225
21
10.187935
0
LINE
8
1
10
8.311225
20
10.187935
11
8.315864
21
10.194530
0
ARC
8
1
10
6.206799
20
11.444262
40
2.451526
50
-30.648958
51
-20.996780
0
ARC
8
1
10
10.725950
20
9.691133
40
2.395793
50
147.895630
51
158.586123
0
ARC
8
1
10
8.936689
20
10.823181
40
0.278616
50
112.619349
51
149.543311
0
ARC
8
1
10
8.834835
20
11.072125
40
0.009800
50
-15.923183
51
122.763699
0
LINE
8
1
10
8.844258
20
11.069437
11
8.844865
21
11.065637
0
LINE
8
1
10
8.844865
20
11.065637
11
8.845330
21
11.061575
0
LINE
8
1
10
8.845330
20
11.061575
11
8.845659
21
11.057261
0
LINE
8
1
10
8.845659
20
11.057261
11
8.845856
21
11.052700
0
LINE
8
1
10
8.845856
20
11.052700
11
8.845924
21
11.047895
0
ARC
8
1
10
6.881397
20
11.265915
40
1.976588
50
-15.825205
51
-6.332663
0
ARC
8
1
10
10.393781
20
10.287713
40
1.669512
50
164.748376
51
177.435114
0
ARC
8
1
10
8.884489
20
10.348518
40
0.159157
50
174.987337
51
-139.408048
0
LINE
8
1
10
8.763631
20
10.244960
11
8.767389
21
10.242007
0
ARC
8
1
10
8.818596
20
10.342107
40
0.112437
50
-117.092309
51
-48.144127
0
LINE
8
1
10
8.893620
20
10.258361
11
8.899249
21
10.261983
0
LINE
8
1
10
8.899249
20
10.261983
11
8.905064
21
10.265802
0
ARC
8
1
10
629.174805
20
-821.827026
40
1037.840560
50
126.671139
51
126.702071
0
ARC
8
1
10
9.868153
20
9.930454
40
0.844387
50
109.527868
51
127.479526
0
LINE
8
1
10
9.585903
20
10.726272
11
9.591803
21
10.727571
0
LINE
8
1
10
9.591803
20
10.727571
11
9.597516
21
10.728608
0
ARC
8
1
10
9.615335
20
10.678576
40
0.053111
50
-11.263728
51
109.603647
0
LINE
8
1
10
9.667424
20
10.668201
11
9.667339
21
10.661359
0
LINE
8
1
10
9.667339
20
10.661359
11
9.666958
21
10.654119
0
LINE
8
1
10
9.666958
20
10.654119
11
9.666660
21
10.650640
0
LINE
8
1
10
9.666660
20
10.650640
11
9.666285
21
10.647359
0
ARC
8
1
10
8.866581
20
10.865462
40
0.828912
50
-30.144910
51
-15.255280
0
ARC
8
1
10
9.887437
20
10.269904
40
0.352972
50
149.473394
51
176.037874
0
ARC
8
1
10
9.601628
20
10.299575
40
0.066529
50
-175.446771
51
-87.802450
0
LINE
8
1
10
9.604179
20
10.233094
11
9.608964
21
10.232509
0
LINE
8
1
10
9.608964
20
10.232509
11
9.613934
21
10.232033
0
ARC
8
1
10
9.621680
20
10.258847
40
0.027911
50
-106.114000
51
-23.001168
0
ARC
8
1
10
8.821618
20
10.947085
40
1.081976
50
-40.253712
51
-21.799477
0
ARC
8
1
10
10.731646
20
10.159706
40
0.984105
50
143.778333
51
156.933140
0
ARC
8
1
10
10.122415
20
10.597781
40
0.233845
50
103.016769
51
142.163520
0
ARC
8
1
10
10.072309
20
10.773046
40
0.052634
50
-2.226338
51
92.792674
0
LINE
8
1
10
10.124903
20
10.771002
11
10.125426
21
10.767614
0
LINE
8
1
10
10.125426
20
10.767614
11
10.125884
21
10.764110
0
LINE
8
1
10
10.125884
20
10.764110
11
10.126277
21
10.760490
0
LINE
8
1
10
10.126277
20
10.760490
11
10.126605
21
10.756754
0
LINE
8
1
10
10.126605
20
10.756754
11
10.126865
21
10.752897
0
LINE
8
1
10
10.126865
20
10.752897
11
10.127058
21
10.748922
0
LINE
8
1
10
10.127058
20
10.748922
11
10.127179
21
10.744825
0
LINE
8
1
10
10.127179
20
10.744825
11
10.127234
21
10.740605
0
LINE
8
1
10
10.127234
20
10.740605
11
10.127214
21
10.736262
0
ARC
8
1
10
8.041471
20
10.926874
40
2.094436
50
-16.841034
51
-5.221639
0
ARC
8
1
10
11.490698
20
9.912408
40
1.501038
50
164.240895
51
176.989253
0
ARC
8
1
10
10.012241
20
10.082453
40
0.093483
50
-102.673481
51
-38.878434
0
LINE
8
1
10
10.085016
20
10.023776
11
10.089222
21
10.027673
0
LINE
8
1
10
10.089222
20
10.027673
11
10.093442
21
10.031742
0
ARC
8
1
10
8.740731
20
11.187919
40
1.779486
50
-40.520870
51
-30.193171
0
ARC
8
1
10
11.093211
20
9.813628
40
0.945010
50
131.261496
51
149.519136
0
ARC
8
1
10
10.592098
20
10.374678
40
0.192898
50
94.075099
51
129.276947
0
ARC
8
1
10
10.286254
20
10.448630
40
0.315239
50
-25.217369
51
22.071976
0
ARC
8
1
10
8.741854
20
11.149221
40
2.011090
50
-35.327677
51
-24.528639
0
ARC
8
1
10
11.047499
20
9.510525
40
0.817578
50
144.412953
51
164.795826
0
ARC
8
1
10
10.292377
20
9.712600
40
0.036019
50
159.960639
51
-163.997504
0
LINE
8
1
10
10.257753
20
9.702670
11
10.261527
21
9.701536
0
LINE
8
1
10
10.261527
20
9.701536
11
10.265336
21
9.700539
0
ARC
8
1
10
10.291021
20
9.922191
40
0.223135
50
-96.610021
51
-51.940287
0
LINE
8
1
10
10.428580
20
9.746501
11
10.433173
21
9.749448
0
LINE
8
1
10
10.433173
20
9.749448
11
10.437773
21
9.752459
0
ARC
8
1
10
9.154968
20
11.458973
40
2.134895
50
-53.067435
51
-42.846606
0
ARC
8
1
10
11.017871
20
9.712816
40
0.418609
50
105.452657
51
135.319354
0
ARC
8
1
10
11.040728
20
9.807796
40
0.336498
50
86.267917
51
113.539612
0
ARC
8
1
10
11.058116
20
10.120191
40
0.023822
50
-42.759563
51
79.075573
0
ARC
8
1
10
10.612602
20
10.406892
40
0.553268
50
-47.331728
51
-33.190741
0
ARC
8
1
10
11.893021
20
9.135954
40
1.251612
50
136.337441
51
154.002223
0
ARC
8
1
10
10.904128
20
9.610629
40
0.154868
50
151.476715
51
-159.071258
0
ARC
8
1
10
10.850788
20
9.620307
40
0.112082
50
-144.555544
51
-88.049072
0
ARC
8
1
10
10.873384
20
10.235508
40
0.727460
50
-91.479282
51
-53.253121
0
ARC
8
1
10
11.874247
20
8.898064
40
0.943015
50
108.719178
51
126.856880
0
ARC
8
1
10
11.673484
20
9.406516
40
0.397942
50
99.215295
51
104.833731
0
LINE
8
1
10
11.609756
20
9.799322
11
11.612350
21
9.796435
0
ARC
8
1
10
11.418799
20
9.706157
40
0.213569
50
-31.726724
51
25.006011
0
ARC
8
1
10
11.006503
20
9.921715
40
0.678436
50
-72.080271
51
-28.899172
0
ARC
8
1
10
10.848330
20
10.411472
40
1.193102
50
-95.070069
51
-72.089455
0
ARC
8
1
10
10.481741
20
6.271504
40
2.963065
50
84.943662
51
93.685864
0
ARC
8
1
10
10.354731
20
8.466198
40
0.764881
50
94.760168
51
116.865904
0
LINE
8
1
10
10.009078
20
9.148522
11
10.000379
21
9.142963
0
ARC
8
1
10
10.071479
20
9.014050
40
0.147221
50
118.878174
51
-153.000226
0
LINE
8
1
10
9.940304
20
8.947213
11
9.943648
21
8.939162
0
LINE
8
1
10
9.943648
20
8.939162
11
9.947296
21
8.931063
0
LINE
8
1
10
9.947296
20
8.931063
11
9.951241
21
8.922919
0
ARC
8
1
10
10.768661
20
9.412321
40
0.952727
50
-149.090396
51
-128.065946
0
ARC
8
1
10
17.763279
20
18.091557
40
12.099561
50
-128.802474
51
-126.408424
0
LINE
8
1
10
10.581738
20
8.353751
11
10.585981
21
8.350026
0
ARC
8
1
10
11.474098
20
9.496334
40
1.450094
50
-127.767192
51
-112.241524
0
ARC
8
1
10
9.110711
20
3.853621
40
4.667637
50
60.509806
51
67.123715
0
ARC
8
1
10
11.077124
20
7.316504
40
0.685426
50
33.297410
51
61.091172
0
ARC
8
1
10
11.258250
20
7.481501
40
0.445120
50
-14.745452
51
28.338942
0
ARC
8
1
10
11.381443
20
7.485117
40
0.328757
50
-69.348186
51
-20.831053
0
ARC
8
1
10
11.058009
20
8.316813
40
1.221116
50
-88.765147
51
-68.910818
0
ARC
8
1
10
12.416638
20
-31.632427
40
38.751318
50
91.970279
51
92.494191
0
ARC
8
1
10
10.767064
20
6.612988
40
0.470633
50
94.486008
51
156.254019
0
LINE
8
1
10
10.336275
20
6.802504
11
10.331632
21
6.793055
0
ARC
8
1
10
12.127020
20
6.032381
40
1.949883
50
157.038488
51
169.941675
0
ARC
8
1
10
8.250368
20
6.736384
40
1.990206
50
-25.894061
51
-10.522516
0
ARC
8
1
10
6.369706
20
7.400842
40
3.978516
50
-36.967802
51
-22.672919
0
ARC
8
1
10
7.520067
20
6.643744
40
2.605564
50
-52.846441
51
-38.878785
0
LINE
8
1
10
9.093706
20
4.567059
11
9.090131
21
4.564167
0
LINE
8
1
10
9.090131
20
4.564167
11
9.086555
21
4.561275
0
LINE
8
1
10
9.086555
20
4.561275
11
9.082980
21
4.558382
0
LINE
8
1
10
9.082980
20
4.558382
11
9.079408
21
4.555486
0
LINE
8
1
10
9.079408
20
4.555486
11
9.075837
21
4.552588
0
LINE
8
1
10
9.075837
20
4.552588
11
9.072267
21
4.549690
0
LINE
8
1
10
9.072267
20
4.549690
11
9.068700
21
4.546789
0
ARC
8
1
10
10.083179
20
3.195507
40
1.689713
50
126.897515
51
143.974551
0
ARC
8
1
10
8.970901
20
4.001671
40
0.316018
50
143.577342
51
170.686766
0
ARC
8
1
10
8.789953
20
4.057532
40
0.130990
50
-177.935321
51
-115.520301
0
ARC
8
1
10
12.477722
20
10.463037
40
7.521829
50
-119.853121
51
-117.878994
0
ARC
8
1
10
4.890604
20
-6.139899
40
10.753983
50
65.119130
51
67.762163
0
ARC
8
1
10
9.081385
20
2.881287
40
0.806928
50
43.353420
51
65.566631
0
ARC
8
1
10
9.519735
20
3.294236
40
0.204702
50
-38.909049
51
43.537362
0
ARC
8
1
10
8.880659
20
3.796677
40
1.017624
50
-51.488493
51
-38.322152
0
ARC
8
1
10
2.798082
20
10.367544
40
9.969073
50
-54.558437
51
-47.646267
0
ARC
8
1
10
8.133676
20
2.824365
40
0.730131
50
-75.474365
51
-52.428698
0
ARC
8
1
10
7.328498
20
5.239588
40
3.274710
50
-86.730915
51
-72.434321
0
ARC
8
1
10
7.462626
20
2.616025
40
0.647959
50
-110.090929
51
-85.342539
0
ARC
8
1
10
7.294994
20
2.131576
40
0.135703
50
165.698804
51
-113.885931
0
LINE
8
1
10
7.163496
20
2.165097
11
7.164210
21
2.169530
0
LINE
8
1
10
7.164210
20
2.169530
11
7.165007
21
2.173974
0
ARC
8
1
10
7.677774
20
2.034087
40
0.531506
50
130.206896
51
164.740664
0
ARC
8
1
10
7.598308
20
2.186626
40
0.365667
50
100.072252
51
136.137478
0
ARC
8
1
10
7.629004
20
1.242513
40
1.307575
50
82.864998
51
94.150943
0
ARC
8
1
10
7.826942
20
2.879051
40
0.340945
50
-95.981124
51
-45.989625
0
ARC
8
1
10
8.597423
20
2.016808
40
0.815752
50
110.623486
51
130.852585
0
ARC
8
1
10
7.413866
20
4.964942
40
2.361347
50
-67.694752
51
-57.444528
0
ARC
8
1
10
8.578149
20
3.159633
40
0.213414
50
-60.096426
51
-19.817285
0
ARC
8
1
10
8.689991
20
3.096557
40
0.089415
50
-5.954549
51
64.661227
0
LINE
8
1
10
8.728258
20
3.177370
11
8.721726
21
3.181669
0
LINE
8
1
10
8.721726
20
3.181669
11
8.714772
21
3.185942
0
LINE
8
1
10
8.714772
20
3.185942
11
8.707389
21
3.190190
0
LINE
8
1
10
8.707389
20
3.190190
11
8.699571
21
3.194412
0
LINE
8
1
10
8.699571
20
3.194412
11
8.691312
21
3.198606
0
LINE
8
1
10
8.691312
20
3.198606
11
8.682608
21
3.202773
0
LINE
8
1
10
8.682608
20
3.202773
11
8.673450
21
3.206910
0
ARC
8
1
10
8.220354
20
2.007360
40
1.282270
50
69.307344
51
88.340326
0
ARC
8
1
10
8.306543
20
4.975595
40
1.687216
50
-105.884150
51
-91.665953
0
LINE
8
1
10
7.844764
20
3.352802
11
7.838024
21
3.355087
0
LINE
8
1
10
7.838024
20
3.355087
11
7.831290
21
3.357434
0
ARC
8
1
10
5.505567
20
-2.179222
40
6.005293
50
67.214710
51
71.319714
0
ARC
8
1
10
7.213372
20
2.841383
40
0.702251
50
72.119602
51
102.310920
0
ARC
8
1
10
7.126629
20
3.302832
40
0.233318
50
105.662482
51
175.003172
0
LINE
8
1
10
6.894198
20
3.323154
11
6.892854
21
3.314519
0
LINE
8
1
10
6.892854
20
3.314519
11
6.891671
21
3.305774
0
ARC
8
1
10
8.086321
20
3.234352
40
1.196783
50
176.578664
51
-165.608508
0
ARC
8
1
10
4.691143
20
2.373969
40
2.305723
50
5.549325
51
14.131232
0
LINE
8
1
10
6.986060
20
2.596938
11
6.986168
21
2.589778
0
ARC
8
1
10
6.624465
20
2.579927
40
0.361837
50
-52.248921
51
1.560105
0
LINE
8
1
10
6.845994
20
2.293831
11
6.837222
21
2.287859
0
ARC
8
1
10
6.563851
20
2.769698
40
0.553985
50
-94.246950
51
-60.431617
0
ARC
8
1
10
6.675775
20
4.779807
40
2.567134
50
-105.869657
51
-93.415692
0
ARC
8
1
10
5.105927
20
-0.812589
40
3.241446
50
74.470175
51
82.019018
0
ARC
8
1
10
6.017887
20
5.003405
40
2.646563
50
-125.393218
51
-100.051261
0
ARC
8
1
10
5.393353
20
4.296355
40
1.711359
50
-131.887924
51
-122.056586
0
ARC
8
1
10
4.421855
20
3.234827
40
0.272841
50
-166.424489
51
-128.846418
0
ARC
8
1
10
4.247289
20
3.176862
40
0.090855
50
107.833052
51
-176.164317
0
LINE
8
1
10
4.219465
20
3.263351
11
4.223562
21
3.265262
0
ARC
8
1
10
4.452893
20
2.585412
40
0.717487
50
88.080527
51
108.640590
0
ARC
8
1
10
4.498269
20
2.188659
40
1.114043
50
58.981747
51
91.097758
0
LINE
8
1
10
5.072347
20
3.143397
11
5.079710
21
3.138577
0
ARC
8
1
10
6.352163
20
4.966127
40
2.226898
50
-124.847996
51
-106.680325
0
ARC
8
1
10
6.256675
20
4.780190
40
2.021736
50
-105.600501
51
-94.072370
0
ARC
8
1
10
6.116373
20
2.816550
40
0.053093
50
-93.536417
51
21.038656
0
LINE
8
1
10
6.165926
20
2.835610
11
6.165405
21
2.838597
0
ARC
8
1
10
5.344209
20
2.581044
40
0.860637
50
17.413046
51
32.239418
0
LINE
8
1
10
6.072159
20
3.040158
11
6.070719
21
3.042870
0
LINE
8
1
10
6.070719
20
3.042870
11
6.069319
21
3.045532
0
ARC
8
1
10
5.099684
20
2.672094
40
1.039061
50
21.063325
51
36.595274
0
ARC
8
1
10
5.676599
20
3.054996
40
0.349518
50
42.591706
51
81.549795
0
ARC
8
1
10
4.400280
20
-2.588277
40
6.134397
50
77.500436
51
80.832185
0
ARC
8
1
10
5.012034
20
-0.596527
40
4.080698
50
84.859575
51
93.802583
0
LINE
8
1
10
4.741406
20
3.475187
11
4.729556
21
3.474763
0
LINE
8
1
10
4.729556
20
3.474763
11
4.717705
21
3.474346
0
ARC
8
1
10
4.523713
20
6.514787
40
3.046623
50
-99.000543
51
-86.349249
0
ARC
8
1
10
4.047289
20
3.104195
40
0.401482
50
90.028851
51
137.437448
0
LINE
8
1
10
3.751582
20
3.375756
11
3.744496
21
3.368792
0
LINE
8
1
10
3.744496
20
3.368792
11
3.737474
21
3.361688
0
LINE
8
1
10
3.737474
20
3.361688
11
3.730516
21
3.354448
0
LINE
8
1
10
3.730516
20
3.354448
11
3.723623
21
3.347075
0
ARC
8
1
10
4.765360
20
2.466903
40
1.363788
50
139.805276
51
163.568797
0
ARC
8
1
10
4.502813
20
2.499116
40
1.103704
50
161.316912
51
173.604329
0
ARC
8
1
10
3.611508
20
2.671805
40
0.211464
50
-166.394740
51
-125.924431
0
LINE
8
1
10
3.487438
20
2.500563
11
3.491832
21
2.496672
0
ARC
8
1
10
5.059851
20
4.516562
40
2.557076
50
-127.821805
51
-118.741201
0
ARC
8
1
10
3.133774
20
1.187581
40
1.290943
50
43.326076
51
57.348697
0
ARC
8
1
10
-37.141537
20
-37.808624
40
57.351559
50
43.475377
51
44.058699
0
ARC
8
1
10
4.136720
20
1.434461
40
0.403524
50
4.146057
51
32.572205
0
ARC
8
1
10
4.676262
20
1.477020
40
0.137726
50
-174.423002
51
-132.978656
0
ARC
8
1
10
5.629379
20
2.294423
40
1.392571
50
-138.751155
51
-126.496957
0
ARC
8
1
10
3.969114
20
0.201323
40
1.280689
50
17.415579
51
49.485206
0
ARC
8
1
10
4.576946
20
0.339134
40
0.661398
50
3.608396
51
21.788525
0
LINE
8
1
10
5.237033
20
0.380761
11
5.236513
21
0.372283
0
ARC
8
1
10
5.151073
20
0.369736
40
0.085478
50
-98.668929
51
1.707838
0
LINE
8
1
10
5.138189
20
0.285234
11
5.130777
21
0.285540
0
LINE
8
1
10
5.130777
20
0.285540
11
5.123154
21
0.286136
0
LINE
8
1
10
5.123154
20
0.286136
11
5.115327
21
0.287016
0
ARC
8
1
10
5.299882
20
1.121798
40
0.854939
50
-123.547425
51
-102.466554
0
ARC
8
1
10
6.175873
20
2.684577
40
2.644874
50
-133.239507
51
-120.652928
0
ARC
8
1
10
0.796807
20
-2.308719
40
4.704082
50
40.683763
51
47.499743
0
ARC
8
1
10
2.558970
20
-0.545788
40
2.216454
50
50.297152
51
62.015289
0
ARC
8
1
10
10.328021
20
13.746959
40
14.051444
50
-121.882872
51
-118.612533
0
ARC
8
1
10
3.370056
20
2.644699
40
0.950124
50
-136.548046
51
-119.218216
0
ARC
8
1
10
3.009455
20
2.225712
40
0.404110
50
-168.002408
51
-144.536707
0
ARC
8
1
10
2.454033
20
2.098708
40
0.165812
50
15.030661
51
71.181764
0
ARC
8
1
10
3.652112
20
4.653834
40
2.657319
50
-127.612185
51
-115.514029
0
ARC
8
1
10
2.972742
20
3.695893
40
1.484576
50
-136.367652
51
-129.406150
0
LINE
8
1
10
1.898232
20
2.671494
11
1.894883
21
2.678731
0
ARC
8
1
10
2.298866
20
2.688838
40
0.404110
50
136.331932
51
-178.566875
0
ARC
8
1
10
5.843434
20
-0.652650
40
5.275396
50
133.062738
51
136.661871
0
ARC
8
1
10
1.981659
20
3.487405
40
0.386208
50
-47.736441
51
-11.800740
0
ARC
8
1
10
2.056864
20
3.432931
40
0.303830
50
-4.626926
51
38.121014
0
LINE
8
1
10
2.295890
20
3.620493
11
2.288173
21
3.631550
0
LINE
8
1
10
2.288173
20
3.631550
11
2.279978
21
3.642749
0
LINE
8
1
10
2.279978
20
3.642749
11
2.271299
21
3.654096
0
ARC
8
1
10
1.118245
20
2.661349
40
1.521538
50
40.727498
51
52.875654
0
ARC
8
1
10
2.374681
20
4.334797
40
0.571125
50
-154.859828
51
-126.300364
0
LINE
8
1
10
1.857658
20
4.092164
11
1.856125
21
4.096231
0
LINE
8
1
10
1.856125
20
4.096231
11
1.854648
21
4.100324
0
LINE
8
1
10
1.854648
20
4.100324
11
1.853227
21
4.104444
0
LINE
8
1
10
1.853227
20
4.104444
11
1.851863
21
4.108592
0
LINE
8
1
10
1.851863
20
4.108592
11
1.850557
21
4.112768
0
LINE
8
1
10
1.850557
20
4.112768
11
1.849310
21
4.116971
0
LINE
8
1
10
1.849310
20
4.116971
11
1.848122
21
4.121204
0
ARC
8
1
10
-15.336281
20
0.928257
40
17.478519
50
10.525805
51
11.930881
0
ARC
8
1
10
0.888442
20
4.329561
40
0.901515
50
13.604795
51
45.576977
0
ARC
8
1
10
-2.267529
20
1.157018
40
5.376445
50
45.221631
51
50.296951
0
ARC
8
1
10
1.448175
20
5.507805
40
0.353559
50
-175.475100
51
-142.683140
0
ARC
8
1
10
-1.195539
20
5.248719
40
2.302891
50
5.761762
51
13.357933
0
LINE
8
1
10
1.045050
20
5.780765
11
1.043491
21
5.785679
0
LINE
8
1
10
1.043491
20
5.785679
11
1.041887
21
5.790556
0
ARC
8
1
10
0.799394
20
5.721846
40
0.252040
50
15.819913
51
64.652847
0
ARC
8
1
10
0.998323
20
6.125456
40
0.198000
50
-153.722915
51
-117.371092
0
ARC
8
1
10
-0.571635
20
5.527893
40
1.482847
50
20.112803
51
36.635345
0
ARC
8
1
10
7.948427
20
12.765328
40
9.699822
50
-141.846077
51
-139.086539
0
ARC
8
1
10
0.801372
20
7.153974
40
0.613152
50
-166.888318
51
-141.587373
0
LINE
8
1
10
0.204205
20
7.014880
11
0.207875
21
7.020543
0
ARC
8
1
10
0.409818
20
6.773729
40
0.318901
50
84.685984
51
129.289875
0
ARC
8
1
10
0.342534
20
5.828030
40
1.266934
50
64.203709
51
85.617219
0
ARC
8
1
10
0.164437
20
5.257814
40
1.859902
50
50.572845
51
66.909257
0
ARC
8
1
10
-0.417882
20
5.024708
40
2.428611
50
33.782096
51
43.435336
0
ARC
8
1
10
3.296751
20
7.520782
40
2.046765
50
-145.961410
51
-132.424757
0
LINE
8
1
10
1.915960
20
6.009933
11
1.924142
21
6.003237
0
ARC
8
1
10
2.213407
20
6.319382
40
0.428512
50
-132.457808
51
-89.923457
0
ARC
8
1
10
2.139385
20
6.724261
40
0.836721
50
-84.885235
51
-71.969338
0
ARC
8
1
10
2.089845
20
6.645979
40
0.780883
50
-66.727752
51
-42.944779
0
ARC
8
1
10
3.551396
20
5.283079
40
1.217524
50
120.041280
51
136.965233
0
ARC
8
1
10
4.206977
20
3.793690
40
2.840624
50
100.319858
51
116.446420
0
ARC
8
1
10
5.047740
20
-0.422391
40
7.139481
50
89.489434
51
100.896716
0
ARC
8
1
10
5.310324
20
18.204645
40
11.489562
50
-90.992235
51
-87.128785
0
ARC
8
1
10
-0.125614
20
78.499939
40
72.021751
50
-85.212102
51
-84.370664
0
ARC
8
1
10
7.573769
20
-1.064761
40
7.915766
50
90.138876
51
94.598247
0
ARC
8
1
10
7.538318
20
7.840559
40
0.989711
50
-89.058439
51
-56.289987
0
ARC
8
1
10
7.328269
20
8.038762
40
1.272810
50
-53.374857
51
-30.443414
0
ARC
8
1
10
6.232388
20
8.805029
40
2.607988
50
-32.758580
51
-24.467617
0
LINE
8
1
10
8.606167
20
7.724855
11
8.608801
21
7.732001
0
LINE
8
1
10
8.608801
20
7.732001
11
8.611281
21
7.739033
0
LINE
8
1
10
8.611281
20
7.739033
11
8.613610
21
7.745958
0
ARC
8
1
10
8.383689
20
7.840745
40
0.248694
50
-22.404443
51
45.234517
0
ARC
8
1
10
9.746588
20
9.186915
40
1.666959
50
-146.160358
51
-135.441572
0
ARC
8
1
10
10.939125
20
9.730376
40
2.967748
50
-159.132714
51
-150.270114
0
ARC
8
1
10
8.308282
20
8.725348
40
0.151484
50
133.668725
51
-159.884960
0
ARC
8
1
10
7.920037
20
9.072464
40
0.369975
50
-39.944651
51
-21.640724
0
ARC
8
1
10
8.933120
20
9.987245
40
1.246145
50
-149.242914
51
-122.479966
0
ARC
8
1
10
8.517033
20
9.715177
40
0.749742
50
168.710052
51
-150.848961
0
ARC
8
1
10
9.903262
20
9.621289
40
2.135071
50
147.179160
51
173.527801
0
ARC
8
1
10
10.186825
20
9.387260
40
2.500585
50
133.042533
51
146.194409
0
ARC
8
1
10
8.480666
20
11.116058
40
0.098749
50
80.786565
51
90.344175
0
ENDSEC
0
EOF
