999
DXF created by Inkscape
  0
SECTION
  2
HEADER
  9
$ACADVER
  1
AC1014
  9
$HANDSEED
  5
FFFF
  9
$MEASUREMENT
 70
     1
  0
ENDSEC
  0
SECTION
  2
TABLES
  0
TABLE
  2
VPORT
  5
8
330
0
100
AcDbSymbolTable
 70
     4
  0
VPORT
  5
2E
330
8
100
AcDbSymbolTableRecord
100
AcDbViewportTableRecord
  2
*ACTIVE
 70
     0
 10
0.0
 20
0.0
 11
1.0
 21
1.0
 12
210.0
 22
148.5
 13
0.0
 23
0.0
 14
10.0
 24
10.0
 15
10.0
 25
10.0
 16
0.0
 26
0.0
 36
1.0
 17
0.0
 27
0.0
 37
0.0
 40
341.0
 41
1.24
 42
50.0
 43
0.0
 44
0.0
 50
0.0
 51
0.0
 71
     0
 72
   100
 73
     1
 74
     3
 75
     0
 76
     0
 77
     0
 78
     0
  0
ENDTAB
  0
TABLE
  2
LTYPE
  5
5
330
0
100
AcDbSymbolTable
 70
     1
  0
LTYPE
  5
14
330
5
100
AcDbSymbolTableRecord
100
AcDbLinetypeTableRecord
  2
BYBLOCK
 70
     0
  3

 72
    65
 73
     0
 40
0.0
  0
LTYPE
  5
15
330
5
100
AcDbSymbolTableRecord
100
AcDbLinetypeTableRecord
  2
BYLAYER
 70
     0
  3

 72
    65
 73
     0
 40
0.0
  0
LTYPE
  5
16
330
5
100
AcDbSymbolTableRecord
100
AcDbLinetypeTableRecord
  2
CONTINUOUS
 70
     0
  3
Solid line
 72
    65
 73
     0
 40
0.0
  0
ENDTAB
  0
TABLE
  2
LAYER
  5
2
330
0
100
AcDbSymbolTable
 70
1
  0
LAYER
  5
10
330
2
100
AcDbSymbolTableRecord
100
AcDbLayerTableRecord
  2
0
 70
     0
 62
     7
  6
CONTINUOUS
  0
ENDTAB
  0
TABLE
  2
STYLE
  5
3
330
0
100
AcDbSymbolTable
 70
     1
  0
STYLE
  5
11
330
3
100
AcDbSymbolTableRecord
100
AcDbTextStyleTableRecord
  2
STANDARD
 70
     0
 40
0.0
 41
1.0
 50
0.0
 71
     0
 42
2.5
  3
txt
  4

  0
ENDTAB
  0
TABLE
  2
VIEW
  5
6
330
0
100
AcDbSymbolTable
 70
     0
  0
ENDTAB
  0
TABLE
  2
UCS
  5
7
330
0
100
AcDbSymbolTable
 70
     0
  0
ENDTAB
  0
TABLE
  2
APPID
  5
9
330
0
100
AcDbSymbolTable
 70
     2
  0
APPID
  5
12
330
9
100
AcDbSymbolTableRecord
100
AcDbRegAppTableRecord
  2
ACAD
 70
     0
  0
ENDTAB
  0
TABLE
  2
DIMSTYLE
  5
A
330
0
100
AcDbSymbolTable
 70
     1
  0
DIMSTYLE
105
27
330
A
100
AcDbSymbolTableRecord
100
AcDbDimStyleTableRecord
  2
ISO-25
 70
     0
  3

  4

  5

  6

  7

 40
1.0
 41
2.5
 42
0.625
 43
3.75
 44
1.25
 45
0.0
 46
0.0
 47
0.0
 48
0.0
140
2.5
141
2.5
142
0.0
143
0.03937007874016
144
1.0
145
0.0
146
1.0
147
0.625
 71
     0
 72
     0
 73
     0
 74
     0
 75
     0
 76
     0
 77
     1
 78
     8
170
     0
171
     3
172
     1
173
     0
174
     0
175
     0
176
     0
177
     0
178
     0
270
     2
271
     2
272
     2
273
     2
274
     3
340
11
275
     0
280
     0
281
     0
282
     0
283
     0
284
     8
285
     0
286
     0
287
     3
288
     0
  0
ENDTAB
  0
TABLE
  2
BLOCK_RECORD
  5
1
330
0
100
AcDbSymbolTable
 70
     1
  0
BLOCK_RECORD
  5
1F
330
1
100
AcDbSymbolTableRecord
100
AcDbBlockTableRecord
  2
*MODEL_SPACE
  0
BLOCK_RECORD
  5
1B
330
1
100
AcDbSymbolTableRecord
100
AcDbBlockTableRecord
  2
*PAPER_SPACE
  0
ENDTAB
  0
ENDSEC
  0
SECTION
  2
BLOCKS
  0
BLOCK
  5
20
330
1F
100
AcDbEntity
  8
0
100
AcDbBlockBegin
  2
*MODEL_SPACE
 70
     0
 10
0.0
 20
0.0
 30
0.0
  3
*MODEL_SPACE
  1

  0
ENDBLK
  5
21
330
1F
100
AcDbEntity
  8
0
100
AcDbBlockEnd
  0
BLOCK
  5
1C
330
1B
100
AcDbEntity
 67
     1
  8
0
100
AcDbBlockBegin
  2
*PAPER_SPACE
  1

  0
ENDBLK
  5
1D
330
1B
100
AcDbEntity
 67
     1
  8
0
100
AcDbBlockEnd
  0
ENDSEC
  0
SECTION
  2
ENTITIES
  0
SPLINE
  5
100
100
AcDbEntity
  8
0
 62
5
100
AcDbSpline
 70
8
 71
3
 72
8
 73
4
 74
0
 40
0
 40
0
 40
0
 40
0
 40
1
 40
1
 40
1
 40
1
 10
8.677513
 20
7.250910
 30
0.0
 10
8.814784
 20
7.167062
 30
0.0
 10
8.938030
 20
6.796137
 30
0.0
 10
9.013107
 20
6.301825
 30
0.0
  0
SPLINE
  5
101
100
AcDbEntity
  8
0
 62
5
100
AcDbSpline
 70
8
 71
3
 72
8
 73
4
 74
0
 40
0
 40
0
 40
0
 40
0
 40
1
 40
1
 40
1
 40
1
 10
9.013107
 20
6.301825
 30
0.0
 10
9.048981
 20
6.117026
 30
0.0
 10
8.980599
 20
5.720955
 30
0.0
 10
9.276688
 20
5.762696
 30
0.0
  0
SPLINE
  5
102
100
AcDbEntity
  8
0
 62
5
100
AcDbSpline
 70
8
 71
3
 72
8
 73
4
 74
0
 40
0
 40
0
 40
0
 40
0
 40
1
 40
1
 40
1
 40
1
 10
9.276688
 20
5.762696
 30
0.0
 10
9.925904
 20
5.678847
 30
0.0
 10
10.974088
 20
6.024231
 30
0.0
 10
11.148289
 20
5.981954
 30
0.0
  0
SPLINE
  5
103
100
AcDbEntity
  8
0
 62
5
100
AcDbSpline
 70
8
 71
3
 72
8
 73
4
 74
0
 40
0
 40
0
 40
0
 40
0
 40
1
 40
1
 40
1
 40
1
 10
11.148289
 20
5.981954
 30
0.0
 10
11.714015
 20
5.552525
 30
0.0
 10
10.050617
 20
5.442994
 30
0.0
 10
9.527325
 20
5.308290
 30
0.0
  0
SPLINE
  5
104
100
AcDbEntity
  8
0
 62
5
100
AcDbSpline
 70
8
 71
3
 72
8
 73
4
 74
0
 40
0
 40
0
 40
0
 40
0
 40
1
 40
1
 40
1
 40
1
 10
9.527325
 20
5.308290
 30
0.0
 10
9.207042
 20
5.204404
 30
0.0
 10
9.284098
 20
5.147903
 30
0.0
 10
9.577431
 20
5.080988
 30
0.0
  0
SPLINE
  5
105
100
AcDbEntity
  8
0
 62
5
100
AcDbSpline
 70
8
 71
3
 72
8
 73
4
 74
0
 40
0
 40
0
 40
0
 40
0
 40
1
 40
1
 40
1
 40
1
 10
9.577431
 20
5.080988
 30
0.0
 10
10.038041
 20
4.997140
 30
0.0
 10
10.621514
 20
5.308290
 30
0.0
 10
11.134824
 20
5.331968
 30
0.0
  0
SPLINE
  5
106
100
AcDbEntity
  8
0
 62
5
100
AcDbSpline
 70
8
 71
3
 72
8
 73
4
 74
0
 40
0
 40
0
 40
0
 40
0
 40
1
 40
1
 40
1
 40
1
 10
11.134824
 20
5.331968
 30
0.0
 10
11.679656
 20
5.331968
 30
0.0
 10
11.321105
 20
4.835285
 30
0.0
 10
11.264734
 20
4.641540
 30
0.0
  0
SPLINE
  5
107
100
AcDbEntity
  8
0
 62
5
100
AcDbSpline
 70
8
 71
3
 72
8
 73
4
 74
0
 40
0
 40
0
 40
0
 40
0
 40
1
 40
1
 40
1
 40
1
 10
11.264734
 20
4.641540
 30
0.0
 10
10.960385
 20
4.313287
 30
0.0
 10
10.841229
 20
4.144687
 30
0.0
 10
10.205848
 20
3.917386
 30
0.0
  0
SPLINE
  5
108
100
AcDbEntity
  8
0
 62
5
100
AcDbSpline
 70
8
 71
3
 72
8
 73
4
 74
0
 40
0
 40
0
 40
0
 40
0
 40
1
 40
1
 40
1
 40
1
 10
10.205848
 20
3.917386
 30
0.0
 10
9.554291
 20
3.833537
 30
0.0
 10
9.284200
 20
3.260316
 30
0.0
 10
8.778339
 20
3.075122
 30
0.0
  0
SPLINE
  5
109
100
AcDbEntity
  8
0
 62
5
100
AcDbSpline
 70
8
 71
3
 72
8
 73
4
 74
0
 40
0
 40
0
 40
0
 40
0
 40
1
 40
1
 40
1
 40
1
 10
8.778339
 20
3.075122
 30
0.0
 10
8.558916
 20
2.947529
 30
0.0
 10
8.520955
 20
2.620377
 30
0.0
 10
8.367020
 20
2.418419
 30
0.0
  0
SPLINE
  5
10a
100
AcDbEntity
  8
0
 62
5
100
AcDbSpline
 70
8
 71
3
 72
8
 73
4
 74
0
 40
0
 40
0
 40
0
 40
0
 40
1
 40
1
 40
1
 40
1
 10
8.367020
 20
2.418419
 30
0.0
 10
8.434897
 20
2.123496
 30
0.0
 10
8.549411
 20
1.820390
 30
0.0
 10
8.371247
 20
1.534216
 30
0.0
  0
SPLINE
  5
10b
100
AcDbEntity
  8
0
 62
5
100
AcDbSpline
 70
8
 71
3
 72
8
 73
4
 74
0
 40
0
 40
0
 40
0
 40
0
 40
1
 40
1
 40
1
 40
1
 10
8.371247
 20
1.534216
 30
0.0
 10
8.227470
 20
0.911042
 30
0.0
 10
7.816335
 20
0.420201
 30
0.0
 10
7.473347
 20
-0.097988
 30
0.0
  0
SPLINE
  5
10c
100
AcDbEntity
  8
0
 62
5
100
AcDbSpline
 70
8
 71
3
 72
8
 73
4
 74
0
 40
0
 40
0
 40
0
 40
0
 40
1
 40
1
 40
1
 40
1
 10
7.473347
 20
-0.097988
 30
0.0
 10
6.714745
 20
-0.906357
 30
0.0
 10
5.932972
 20
-1.691386
 30
0.0
 10
5.099426
 20
-2.422116
 30
0.0
  0
SPLINE
  5
10d
100
AcDbEntity
  8
0
 62
5
100
AcDbSpline
 70
8
 71
3
 72
8
 73
4
 74
0
 40
0
 40
0
 40
0
 40
0
 40
1
 40
1
 40
1
 40
1
 10
5.099426
 20
-2.422116
 30
0.0
 10
4.679163
 20
-2.969655
 30
0.0
 10
4.644509
 20
-3.683790
 30
0.0
 10
4.436306
 20
-4.323193
 30
0.0
  0
SPLINE
  5
10e
100
AcDbEntity
  8
0
 62
5
100
AcDbSpline
 70
8
 71
3
 72
8
 73
4
 74
0
 40
0
 40
0
 40
0
 40
0
 40
1
 40
1
 40
1
 40
1
 10
4.436306
 20
-4.323193
 30
0.0
 10
4.227539
 20
-5.395101
 30
0.0
 10
3.906624
 20
-6.521535
 30
0.0
 10
4.001980
 20
-7.575211
 30
0.0
  0
SPLINE
  5
10f
100
AcDbEntity
  8
0
 62
5
100
AcDbSpline
 70
8
 71
3
 72
8
 73
4
 74
0
 40
0
 40
0
 40
0
 40
0
 40
1
 40
1
 40
1
 40
1
 10
4.001980
 20
-7.575211
 30
0.0
 10
4.033981
 20
-7.895280
 30
0.0
 10
3.982614
 20
-8.299732
 30
0.0
 10
4.151881
 20
-8.702915
 30
0.0
  0
SPLINE
  5
110
100
AcDbEntity
  8
0
 62
5
100
AcDbSpline
 70
8
 71
3
 72
8
 73
4
 74
0
 40
0
 40
0
 40
0
 40
0
 40
1
 40
1
 40
1
 40
1
 10
4.151881
 20
-8.702915
 30
0.0
 10
4.208305
 20
-8.887742
 30
0.0
 10
3.433282
 20
-8.786763
 30
0.0
 10
3.480273
 20
-8.349319
 30
0.0
  0
SPLINE
  5
111
100
AcDbEntity
  8
0
 62
5
100
AcDbSpline
 70
8
 71
3
 72
8
 73
4
 74
0
 40
0
 40
0
 40
0
 40
0
 40
1
 40
1
 40
1
 40
1
 10
3.480273
 20
-8.349319
 30
0.0
 10
3.466803
 20
-7.549332
 30
0.0
 10
3.441536
 20
-6.752449
 30
0.0
 10
3.275044
 20
-5.968520
 30
0.0
  0
SPLINE
  5
112
100
AcDbEntity
  8
0
 62
5
100
AcDbSpline
 70
8
 71
3
 72
8
 73
4
 74
0
 40
0
 40
0
 40
0
 40
0
 40
1
 40
1
 40
1
 40
1
 10
3.275044
 20
-5.968520
 30
0.0
 10
3.189733
 20
-5.294856
 30
0.0
 10
3.247268
 20
-4.367474
 30
0.0
 10
3.090277
 20
-3.948261
 30
0.0
  0
SPLINE
  5
113
100
AcDbEntity
  8
0
 62
5
100
AcDbSpline
 70
8
 71
3
 72
8
 73
4
 74
0
 40
0
 40
0
 40
0
 40
0
 40
1
 40
1
 40
1
 40
1
 10
3.090277
 20
-3.948261
 30
0.0
 10
3.001600
 20
-3.619810
 30
0.0
 10
2.835613
 20
-3.291360
 30
0.0
 10
2.930522
 20
-2.919166
 30
0.0
  0
SPLINE
  5
114
100
AcDbEntity
  8
0
 62
5
100
AcDbSpline
 70
8
 71
3
 72
8
 73
4
 74
0
 40
0
 40
0
 40
0
 40
0
 40
1
 40
1
 40
1
 40
1
 10
2.930522
 20
-2.919166
 30
0.0
 10
2.030895
 20
-2.726323
 30
0.0
 10
2.373698
 20
-3.767808
 30
0.0
 10
2.420100
 20
-4.065270
 30
0.0
  0
SPLINE
  5
115
100
AcDbEntity
  8
0
 62
5
100
AcDbSpline
 70
8
 71
3
 72
8
 73
4
 74
0
 40
0
 40
0
 40
0
 40
0
 40
1
 40
1
 40
1
 40
1
 10
2.420100
 20
-4.065270
 30
0.0
 10
2.447876
 20
-4.840280
 30
0.0
 10
2.755946
 20
-5.590314
 30
0.0
 10
2.642592
 20
-6.371336
 30
0.0
  0
SPLINE
  5
116
100
AcDbEntity
  8
0
 62
5
100
AcDbSpline
 70
8
 71
3
 72
8
 73
4
 74
0
 40
0
 40
0
 40
0
 40
0
 40
1
 40
1
 40
1
 40
1
 10
2.642592
 20
-6.371336
 30
0.0
 10
2.592906
 20
-7.053382
 30
0.0
 10
2.590378
 20
-7.704102
 30
0.0
 10
2.685542
 20
-8.362809
 30
0.0
  0
SPLINE
  5
117
100
AcDbEntity
  8
0
 62
5
100
AcDbSpline
 70
8
 71
3
 72
8
 73
4
 74
0
 40
0
 40
0
 40
0
 40
0
 40
1
 40
1
 40
1
 40
1
 10
2.685542
 20
-8.362809
 30
0.0
 10
2.869466
 20
-8.809002
 30
0.0
 10
2.263966
 20
-8.716603
 30
0.0
 10
2.167625
 20
-8.446657
 30
0.0
  0
SPLINE
  5
118
100
AcDbEntity
  8
0
 62
5
100
AcDbSpline
 70
8
 71
3
 72
8
 73
4
 74
0
 40
0
 40
0
 40
0
 40
0
 40
1
 40
1
 40
1
 40
1
 10
2.167625
 20
-8.446657
 30
0.0
 10
1.998104
 20
-8.109458
 30
0.0
 10
2.150765
 20
-7.764413
 30
0.0
 10
2.062020
 20
-7.409716
 30
0.0
  0
SPLINE
  5
119
100
AcDbEntity
  8
0
 62
5
100
AcDbSpline
 70
8
 71
3
 72
8
 73
4
 74
0
 40
0
 40
0
 40
0
 40
0
 40
1
 40
1
 40
1
 40
1
 10
2.062020
 20
-7.409716
 30
0.0
 10
1.867822
 20
-6.812054
 30
0.0
 10
1.913043
 20
-6.168644
 30
0.0
 10
1.751101
 20
-5.574820
 30
0.0
  0
SPLINE
  5
11a
100
AcDbEntity
  8
0
 62
5
100
AcDbSpline
 70
8
 71
3
 72
8
 73
4
 74
0
 40
0
 40
0
 40
0
 40
0
 40
1
 40
1
 40
1
 40
1
 10
1.751101
 20
-5.574820
 30
0.0
 10
1.363463
 20
-4.516374
 30
0.0
 10
1.067282
 20
-3.421126
 30
0.0
 10
0.957298
 20
-2.297261
 30
0.0
  0
SPLINE
  5
11b
100
AcDbEntity
  8
0
 62
5
100
AcDbSpline
 70
8
 71
3
 72
8
 73
4
 74
0
 40
0
 40
0
 40
0
 40
0
 40
1
 40
1
 40
1
 40
1
 10
0.957298
 20
-2.297261
 30
0.0
 10
0.839988
 20
-2.011652
 30
0.0
 10
0.795607
 20
-1.631781
 30
0.0
 10
0.435170
 20
-1.530632
 30
0.0
  0
SPLINE
  5
11c
100
AcDbEntity
  8
0
 62
5
100
AcDbSpline
 70
8
 71
3
 72
8
 73
4
 74
0
 40
0
 40
0
 40
0
 40
0
 40
1
 40
1
 40
1
 40
1
 10
0.435170
 20
-1.530632
 30
0.0
 10
-0.053273
 20
-1.388477
 30
0.0
 10
-0.494235
 20
-1.016988
 30
0.0
 10
-1.029130
 20
-1.109585
 30
0.0
  0
SPLINE
  5
11d
100
AcDbEntity
  8
0
 62
5
100
AcDbSpline
 70
8
 71
3
 72
8
 73
4
 74
0
 40
0
 40
0
 40
0
 40
0
 40
1
 40
1
 40
1
 40
1
 10
-1.029130
 20
-1.109585
 30
0.0
 10
-1.521530
 20
-1.581291
 30
0.0
 10
-1.555385
 20
-2.354298
 30
0.0
 10
-2.023001
 20
-2.857190
 30
0.0
  0
SPLINE
  5
11e
100
AcDbEntity
  8
0
 62
5
100
AcDbSpline
 70
8
 71
3
 72
8
 73
4
 74
0
 40
0
 40
0
 40
0
 40
0
 40
1
 40
1
 40
1
 40
1
 10
-2.023001
 20
-2.857190
 30
0.0
 10
-2.305118
 20
-3.227550
 30
0.0
 10
-2.594647
 20
-3.623254
 30
0.0
 10
-2.776550
 20
-4.047942
 30
0.0
  0
SPLINE
  5
11f
100
AcDbEntity
  8
0
 62
5
100
AcDbSpline
 70
8
 71
3
 72
8
 73
4
 74
0
 40
0
 40
0
 40
0
 40
0
 40
1
 40
1
 40
1
 40
1
 10
-2.776550
 20
-4.047942
 30
0.0
 10
-2.892429
 20
-4.713422
 30
0.0
 10
-2.827921
 20
-5.410426
 30
0.0
 10
-2.467736
 20
-5.998238
 30
0.0
  0
SPLINE
  5
120
100
AcDbEntity
  8
0
 62
5
100
AcDbSpline
 70
8
 71
3
 72
8
 73
4
 74
0
 40
0
 40
0
 40
0
 40
0
 40
1
 40
1
 40
1
 40
1
 10
-2.467736
 20
-5.998238
 30
0.0
 10
-2.046918
 20
-6.554160
 30
0.0
 10
-2.284990
 20
-7.351578
 30
0.0
 10
-1.915375
 20
-7.906597
 30
0.0
  0
SPLINE
  5
121
100
AcDbEntity
  8
0
 62
5
100
AcDbSpline
 70
8
 71
3
 72
8
 73
4
 74
0
 40
0
 40
0
 40
0
 40
0
 40
1
 40
1
 40
1
 40
1
 10
-1.915375
 20
-7.906597
 30
0.0
 10
-1.349371
 20
-8.352790
 30
0.0
 10
-2.227304
 20
-8.176712
 30
0.0
 10
-2.543276
 20
-8.133870
 30
0.0
  0
SPLINE
  5
122
100
AcDbEntity
  8
0
 62
5
100
AcDbSpline
 70
8
 71
3
 72
8
 73
4
 74
0
 40
0
 40
0
 40
0
 40
0
 40
1
 40
1
 40
1
 40
1
 10
-2.543276
 20
-8.133870
 30
0.0
 10
-2.938746
 20
-7.848459
 30
0.0
 10
-2.584542
 20
-7.280684
 30
0.0
 10
-2.858237
 20
-6.910296
 30
0.0
  0
SPLINE
  5
123
100
AcDbEntity
  8
0
 62
5
100
AcDbSpline
 70
8
 71
3
 72
8
 73
4
 74
0
 40
0
 40
0
 40
0
 40
0
 40
1
 40
1
 40
1
 40
1
 10
-2.858237
 20
-6.910296
 30
0.0
 10
-3.100859
 20
-6.329228
 30
0.0
 10
-3.378850
 20
-5.767296
 30
0.0
 10
-3.456411
 20
-5.136642
 30
0.0
  0
SPLINE
  5
124
100
AcDbEntity
  8
0
 62
5
100
AcDbSpline
 70
8
 71
3
 72
8
 73
4
 74
0
 40
0
 40
0
 40
0
 40
0
 40
1
 40
1
 40
1
 40
1
 10
-3.456411
 20
-5.136642
 30
0.0
 10
-3.680674
 20
-4.622828
 30
0.0
 10
-3.939969
 20
-4.127980
 30
0.0
 10
-4.104439
 20
-3.591362
 30
0.0
  0
SPLINE
  5
125
100
AcDbEntity
  8
0
 62
5
100
AcDbSpline
 70
8
 71
3
 72
8
 73
4
 74
0
 40
0
 40
0
 40
0
 40
0
 40
1
 40
1
 40
1
 40
1
 10
-4.104439
 20
-3.591362
 30
0.0
 10
-4.177706
 20
-3.364089
 30
0.0
 10
-3.539783
 20
-2.527639
 30
0.0
 10
-3.269792
 20
-1.894614
 30
0.0
  0
SPLINE
  5
126
100
AcDbEntity
  8
0
 62
5
100
AcDbSpline
 70
8
 71
3
 72
8
 73
4
 74
0
 40
0
 40
0
 40
0
 40
0
 40
1
 40
1
 40
1
 40
1
 10
-3.269792
 20
-1.894614
 30
0.0
 10
-3.219264
 20
-1.609005
 30
0.0
 10
-3.148018
 20
-1.346906
 30
0.0
 10
-3.270865
 20
-0.989669
 30
0.0
  0
SPLINE
  5
127
100
AcDbEntity
  8
0
 62
5
100
AcDbSpline
 70
8
 71
3
 72
8
 73
4
 74
0
 40
0
 40
0
 40
0
 40
0
 40
1
 40
1
 40
1
 40
1
 10
-3.270865
 20
-0.989669
 30
0.0
 10
-3.487043
 20
-0.719723
 30
0.0
 10
-3.611848
 20
-0.743966
 30
0.0
 10
-3.932704
 20
-1.093555
 30
0.0
  0
SPLINE
  5
128
100
AcDbEntity
  8
0
 62
5
100
AcDbSpline
 70
8
 71
3
 72
8
 73
4
 74
0
 40
0
 40
0
 40
0
 40
0
 40
1
 40
1
 40
1
 40
1
 10
-3.932704
 20
-1.093555
 30
0.0
 10
-4.768193
 20
-1.950043
 30
0.0
 10
-5.470186
 20
-2.841696
 30
0.0
 10
-6.185839
 20
-3.797695
 30
0.0
  0
SPLINE
  5
129
100
AcDbEntity
  8
0
 62
5
100
AcDbSpline
 70
8
 71
3
 72
8
 73
4
 74
0
 40
0
 40
0
 40
0
 40
0
 40
1
 40
1
 40
1
 40
1
 10
-6.185839
 20
-3.797695
 30
0.0
 10
-6.588635
 20
-4.361998
 30
0.0
 10
-6.726747
 20
-5.033123
 30
0.0
 10
-6.832604
 20
-5.701679
 30
0.0
  0
SPLINE
  5
12a
100
AcDbEntity
  8
0
 62
5
100
AcDbSpline
 70
8
 71
3
 72
8
 73
4
 74
0
 40
0
 40
0
 40
0
 40
0
 40
1
 40
1
 40
1
 40
1
 10
-6.832604
 20
-5.701679
 30
0.0
 10
-6.898292
 20
-6.409069
 30
0.0
 10
-6.752600
 20
-6.842873
 30
0.0
 10
-6.851134
 20
-7.432322
 30
0.0
  0
SPLINE
  5
12b
100
AcDbEntity
  8
0
 62
5
100
AcDbSpline
 70
8
 71
3
 72
8
 73
4
 74
0
 40
0
 40
0
 40
0
 40
0
 40
1
 40
1
 40
1
 40
1
 10
-6.851134
 20
-7.432322
 30
0.0
 10
-6.941749
 20
-7.802682
 30
0.0
 10
-6.576091
 20
-8.467259
 30
0.0
 10
-7.118515
 20
-8.498586
 30
0.0
  0
SPLINE
  5
12c
100
AcDbEntity
  8
0
 62
5
100
AcDbSpline
 70
8
 71
3
 72
8
 73
4
 74
0
 40
0
 40
0
 40
0
 40
0
 40
1
 40
1
 40
1
 40
1
 10
-7.118515
 20
-8.498586
 30
0.0
 10
-7.461603
 20
-8.414766
 30
0.0
 10
-7.599125
 20
-8.068987
 30
0.0
 10
-7.515922
 20
-7.765683
 30
0.0
  0
SPLINE
  5
12d
100
AcDbEntity
  8
0
 62
5
100
AcDbSpline
 70
8
 71
3
 72
8
 73
4
 74
0
 40
0
 40
0
 40
0
 40
0
 40
1
 40
1
 40
1
 40
1
 10
-7.515922
 20
-7.765683
 30
0.0
 10
-7.518574
 20
-7.142706
 30
0.0
 10
-7.575713
 20
-6.585881
 30
0.0
 10
-7.506662
 20
-5.970524
 30
0.0
  0
SPLINE
  5
12e
100
AcDbEntity
  8
0
 62
5
100
AcDbSpline
 70
8
 71
3
 72
8
 73
4
 74
0
 40
0
 40
0
 40
0
 40
0
 40
1
 40
1
 40
1
 40
1
 10
-7.506662
 20
-5.970524
 30
0.0
 10
-7.502742
 20
-5.439749
 30
0.0
 10
-7.503580
 20
-4.988447
 30
0.0
 10
-7.449397
 20
-4.409017
 30
0.0
  0
SPLINE
  5
12f
100
AcDbEntity
  8
0
 62
5
100
AcDbSpline
 70
8
 71
3
 72
8
 73
4
 74
0
 40
0
 40
0
 40
0
 40
0
 40
1
 40
1
 40
1
 40
1
 10
-7.449397
 20
-4.409017
 30
0.0
 10
-7.480555
 20
-3.794224
 30
0.0
 10
-7.096202
 20
-3.225913
 30
0.0
 10
-6.810884
 20
-2.702814
 30
0.0
  0
SPLINE
  5
130
100
AcDbEntity
  8
0
 62
5
100
AcDbSpline
 70
8
 71
3
 72
8
 73
4
 74
0
 40
0
 40
0
 40
0
 40
0
 40
1
 40
1
 40
1
 40
1
 10
-6.810884
 20
-2.702814
 30
0.0
 10
-6.509145
 20
-2.113336
 30
0.0
 10
-6.213974
 20
-1.430387
 30
0.0
 10
-5.732008
 20
-0.889056
 30
0.0
  0
SPLINE
  5
131
100
AcDbEntity
  8
0
 62
5
100
AcDbSpline
 70
8
 71
3
 72
8
 73
4
 74
0
 40
0
 40
0
 40
0
 40
0
 40
1
 40
1
 40
1
 40
1
 10
-5.732008
 20
-0.889056
 30
0.0
 10
-5.406688
 20
-0.688199
 30
0.0
 10
-5.624130
 20
-0.290830
 30
0.0
 10
-5.752215
 20
0.052550
 30
0.0
  0
SPLINE
  5
132
100
AcDbEntity
  8
0
 62
5
100
AcDbSpline
 70
8
 71
3
 72
8
 73
4
 74
0
 40
0
 40
0
 40
0
 40
0
 40
1
 40
1
 40
1
 40
1
 10
-5.752215
 20
0.052550
 30
0.0
 10
-5.974456
 20
0.347472
 30
0.0
 10
-6.031132
 20
0.684107
 30
0.0
 10
-6.009574
 20
1.045549
 30
0.0
  0
SPLINE
  5
133
100
AcDbEntity
  8
0
 62
5
100
AcDbSpline
 70
8
 71
3
 72
8
 73
4
 74
0
 40
0
 40
0
 40
0
 40
0
 40
1
 40
1
 40
1
 40
1
 10
-6.009574
 20
1.045549
 30
0.0
 10
-6.044943
 20
1.853918
 30
0.0
 10
-6.049997
 20
2.656642
 30
0.0
 10
-5.919633
 20
3.454964
 30
0.0
  0
SPLINE
  5
134
100
AcDbEntity
  8
0
 62
5
100
AcDbSpline
 70
8
 71
3
 72
8
 73
4
 74
0
 40
0
 40
0
 40
0
 40
0
 40
1
 40
1
 40
1
 40
1
 10
-5.919633
 20
3.454964
 30
0.0
 10
-5.935635
 20
3.740602
 30
0.0
 10
-5.700760
 20
4.052626
 30
0.0
 10
-5.952476
 20
4.288677
 30
0.0
  0
SPLINE
  5
135
100
AcDbEntity
  8
0
 62
5
100
AcDbSpline
 70
8
 71
3
 72
8
 73
4
 74
0
 40
0
 40
0
 40
0
 40
0
 40
1
 40
1
 40
1
 40
1
 10
-5.952476
 20
4.288677
 30
0.0
 10
-6.125958
 20
4.567908
 30
0.0
 10
-6.237709
 20
4.903470
 30
0.0
 10
-6.581051
 20
5.012831
 30
0.0
  0
SPLINE
  5
136
100
AcDbEntity
  8
0
 62
5
100
AcDbSpline
 70
8
 71
3
 72
8
 73
4
 74
0
 40
0
 40
0
 40
0
 40
0
 40
1
 40
1
 40
1
 40
1
 10
-6.581051
 20
5.012831
 30
0.0
 10
-7.043640
 20
5.164102
 30
0.0
 10
-7.549127
 20
5.140424
 30
0.0
 10
-8.017551
 20
5.240105
 30
0.0
  0
SPLINE
  5
137
100
AcDbEntity
  8
0
 62
5
100
AcDbSpline
 70
8
 71
3
 72
8
 73
4
 74
0
 40
0
 40
0
 40
0
 40
0
 40
1
 40
1
 40
1
 40
1
 10
-8.017551
 20
5.240105
 30
0.0
 10
-8.650253
 20
5.432947
 30
0.0
 10
-7.865124
 20
5.829752
 30
0.0
 10
-7.736781
 20
5.838134
 30
0.0
  0
SPLINE
  5
138
100
AcDbEntity
  8
0
 62
5
100
AcDbSpline
 70
8
 71
3
 72
8
 73
4
 74
0
 40
0
 40
0
 40
0
 40
0
 40
1
 40
1
 40
1
 40
1
 10
-7.736781
 20
5.838134
 30
0.0
 10
-7.040835
 20
6.003996
 30
0.0
 10
-6.449753
 20
5.645291
 30
0.0
 10
-5.783180
 20
5.501132
 30
0.0
  0
SPLINE
  5
139
100
AcDbEntity
  8
0
 62
5
100
AcDbSpline
 70
8
 71
3
 72
8
 73
4
 74
0
 40
0
 40
0
 40
0
 40
0
 40
1
 40
1
 40
1
 40
1
 10
-5.783180
 20
5.501132
 30
0.0
 10
-5.230482
 20
5.300274
 30
0.0
 10
-4.983819
 20
4.684183
 30
0.0
 10
-4.463594
 20
4.432667
 30
0.0
  0
SPLINE
  5
13a
100
AcDbEntity
  8
0
 62
5
100
AcDbSpline
 70
8
 71
3
 72
8
 73
4
 74
0
 40
0
 40
0
 40
0
 40
0
 40
1
 40
1
 40
1
 40
1
 10
-4.463594
 20
4.432667
 30
0.0
 10
-4.121348
 20
4.769132
 30
0.0
 10
-3.672149
 20
4.988588
 30
0.0
 10
-3.218015
 20
5.106331
 30
0.0
  0
SPLINE
  5
13b
100
AcDbEntity
  8
0
 62
5
100
AcDbSpline
 70
8
 71
3
 72
8
 73
4
 74
0
 40
0
 40
0
 40
0
 40
0
 40
1
 40
1
 40
1
 40
1
 10
-3.218015
 20
5.106331
 30
0.0
 10
-2.449981
 20
5.206577
 30
0.0
 10
-1.680600
 20
5.190180
 30
0.0
 10
-0.910562
 20
5.106331
 30
0.0
  0
SPLINE
  5
13c
100
AcDbEntity
  8
0
 62
5
100
AcDbSpline
 70
8
 71
3
 72
8
 73
4
 74
0
 40
0
 40
0
 40
0
 40
0
 40
1
 40
1
 40
1
 40
1
 10
-0.910562
 20
5.106331
 30
0.0
 10
-0.177562
 20
4.953226
 30
0.0
 10
0.538865
 20
4.710261
 30
0.0
 10
1.238644
 20
4.449262
 30
0.0
  0
SPLINE
  5
13d
100
AcDbEntity
  8
0
 62
5
100
AcDbSpline
 70
8
 71
3
 72
8
 73
4
 74
0
 40
0
 40
0
 40
0
 40
0
 40
1
 40
1
 40
1
 40
1
 10
1.238644
 20
4.449262
 30
0.0
 10
1.596975
 20
4.365413
 30
0.0
 10
1.835722
 20
4.307078
 30
0.0
 10
2.190306
 20
4.163624
 30
0.0
  0
SPLINE
  5
13e
100
AcDbEntity
  8
0
 62
5
100
AcDbSpline
 70
8
 71
3
 72
8
 73
4
 74
0
 40
0
 40
0
 40
0
 40
0
 40
1
 40
1
 40
1
 40
1
 10
2.190306
 20
4.163624
 30
0.0
 10
2.598156
 20
4.056098
 30
0.0
 10
2.920191
 20
4.070689
 30
0.0
 10
3.262530
 20
4.010519
 30
0.0
  0
SPLINE
  5
13f
100
AcDbEntity
  8
0
 62
5
100
AcDbSpline
 70
8
 71
3
 72
8
 73
4
 74
0
 40
0
 40
0
 40
0
 40
0
 40
1
 40
1
 40
1
 40
1
 10
3.262530
 20
4.010519
 30
0.0
 10
3.756699
 20
3.926699
 30
0.0
 10
4.015068
 20
3.926699
 30
0.0
 10
4.393599
 20
3.775400
 30
0.0
  0
SPLINE
  5
140
100
AcDbEntity
  8
0
 62
5
100
AcDbSpline
 70
8
 71
3
 72
8
 73
4
 74
0
 40
0
 40
0
 40
0
 40
0
 40
1
 40
1
 40
1
 40
1
 10
4.393599
 20
3.775400
 30
0.0
 10
4.802022
 20
3.682436
 30
0.0
 10
5.165987
 20
3.480675
 30
0.0
 10
5.530861
 20
3.287296
 30
0.0
  0
SPLINE
  5
141
100
AcDbEntity
  8
0
 62
5
100
AcDbSpline
 70
8
 71
3
 72
8
 73
4
 74
0
 40
0
 40
0
 40
0
 40
0
 40
1
 40
1
 40
1
 40
1
 10
5.530861
 20
3.287296
 30
0.0
 10
5.685934
 20
3.834469
 30
0.0
 10
4.876626
 20
4.129193
 30
0.0
 10
4.708635
 20
4.173841
 30
0.0
  0
SPLINE
  5
142
100
AcDbEntity
  8
0
 62
5
100
AcDbSpline
 70
8
 71
3
 72
8
 73
4
 74
0
 40
0
 40
0
 40
0
 40
0
 40
1
 40
1
 40
1
 40
1
 10
4.708635
 20
4.173841
 30
0.0
 10
4.171062
 20
4.468763
 30
0.0
 10
3.597332
 20
5.265081
 30
0.0
 10
3.840248
 20
5.795857
 30
0.0
  0
SPLINE
  5
143
100
AcDbEntity
  8
0
 62
5
100
AcDbSpline
 70
8
 71
3
 72
8
 73
4
 74
0
 40
0
 40
0
 40
0
 40
0
 40
1
 40
1
 40
1
 40
1
 10
3.840248
 20
5.795857
 30
0.0
 10
4.173652
 20
5.879705
 30
0.0
 10
4.433663
 20
5.795857
 30
0.0
 10
4.732087
 20
5.662789
 30
0.0
  0
SPLINE
  5
144
100
AcDbEntity
  8
0
 62
5
100
AcDbSpline
 70
8
 71
3
 72
8
 73
4
 74
0
 40
0
 40
0
 40
0
 40
0
 40
1
 40
1
 40
1
 40
1
 10
4.732087
 20
5.662789
 30
0.0
 10
5.040244
 20
5.555262
 30
0.0
 10
5.207610
 20
5.325787
 30
0.0
 10
6.139334
 20
5.342918
 30
0.0
  0
SPLINE
  5
145
100
AcDbEntity
  8
0
 62
5
100
AcDbSpline
 70
8
 71
3
 72
8
 73
4
 74
0
 40
0
 40
0
 40
0
 40
0
 40
1
 40
1
 40
1
 40
1
 10
6.139334
 20
5.342918
 30
0.0
 10
6.095795
 20
5.470511
 30
0.0
 10
5.142194
 20
5.671368
 30
0.0
 10
4.896994
 20
5.847983
 30
0.0
  0
SPLINE
  5
146
100
AcDbEntity
  8
0
 62
5
100
AcDbSpline
 70
8
 71
3
 72
8
 73
4
 74
0
 40
0
 40
0
 40
0
 40
0
 40
1
 40
1
 40
1
 40
1
 10
4.896994
 20
5.847983
 30
0.0
 10
4.691056
 20
6.024795
 30
0.0
 10
4.573190
 20
6.048841
 30
0.0
 10
4.189561
 20
6.538609
 30
0.0
  0
SPLINE
  5
147
100
AcDbEntity
  8
0
 62
5
100
AcDbSpline
 70
8
 71
3
 72
8
 73
4
 74
0
 40
0
 40
0
 40
0
 40
0
 40
1
 40
1
 40
1
 40
1
 10
4.189561
 20
6.538609
 30
0.0
 10
4.489448
 20
6.622457
 30
0.0
 10
4.598218
 20
6.193395
 30
0.0
 10
4.944457
 20
6.210328
 30
0.0
  0
SPLINE
  5
148
100
AcDbEntity
  8
0
 62
5
100
AcDbSpline
 70
8
 71
3
 72
8
 73
4
 74
0
 40
0
 40
0
 40
0
 40
0
 40
1
 40
1
 40
1
 40
1
 10
4.944457
 20
6.210328
 30
0.0
 10
5.526790
 20
6.102802
 30
0.0
 10
5.634256
 20
5.772517
 30
0.0
 10
6.055586
 20
5.772517
 30
0.0
  0
SPLINE
  5
149
100
AcDbEntity
  8
0
 62
5
100
AcDbSpline
 70
8
 71
3
 72
8
 73
4
 74
0
 40
0
 40
0
 40
0
 40
0
 40
1
 40
1
 40
1
 40
1
 10
6.055586
 20
5.772517
 30
0.0
 10
6.409901
 20
5.957344
 30
0.0
 10
6.437683
 20
6.395522
 30
0.0
 10
6.542530
 20
6.736560
 30
0.0
  0
SPLINE
  5
14a
100
AcDbEntity
  8
0
 62
5
100
AcDbSpline
 70
8
 71
3
 72
8
 73
4
 74
0
 40
0
 40
0
 40
0
 40
0
 40
1
 40
1
 40
1
 40
1
 10
6.542530
 20
6.736560
 30
0.0
 10
6.799652
 20
6.576145
 30
0.0
 10
6.631065
 20
5.712573
 30
0.0
 10
7.027915
 20
5.545046
 30
0.0
  0
SPLINE
  5
14b
100
AcDbEntity
  8
0
 62
5
100
AcDbSpline
 70
8
 71
3
 72
8
 73
4
 74
0
 40
0
 40
0
 40
0
 40
0
 40
1
 40
1
 40
1
 40
1
 10
7.027915
 20
5.545046
 30
0.0
 10
7.441264
 20
5.461198
 30
0.0
 10
7.902852
 20
5.441160
 30
0.0
 10
8.321660
 20
5.545046
 30
0.0
  0
SPLINE
  5
14c
100
AcDbEntity
  8
0
 62
5
100
AcDbSpline
 70
8
 71
3
 72
8
 73
4
 74
0
 40
0
 40
0
 40
0
 40
0
 40
1
 40
1
 40
1
 40
1
 10
8.321660
 20
5.545046
 30
0.0
 10
8.760652
 20
6.201579
 30
0.0
 10
8.571186
 20
6.865959
 30
0.0
 10
8.576788
 20
6.998462
 30
0.0
  0
SPLINE
  5
14d
100
AcDbEntity
  8
0
 62
5
100
AcDbSpline
 70
8
 71
3
 72
8
 73
4
 74
0
 40
0
 40
0
 40
0
 40
0
 40
1
 40
1
 40
1
 40
1
 10
8.576788
 20
6.998462
 30
0.0
 10
8.610307
 20
7.082310
 30
0.0
 10
8.643737
 20
7.158877
 30
0.0
 10
8.677212
 20
7.233581
 30
0.0
  0
SPLINE
  5
14e
100
AcDbEntity
  8
0
 62
5
100
AcDbSpline
 70
8
 71
3
 72
8
 73
4
 74
0
 40
0
 40
0
 40
0
 40
0
 40
1
 40
1
 40
1
 40
1
 10
-7.690885
 20
5.619778
 30
0.0
 10
-7.769205
 20
5.619778
 30
0.0
 10
-7.848282
 20
5.535930
 30
0.0
 10
-7.886852
 20
5.510417
 30
0.0
  0
SPLINE
  5
14f
100
AcDbEntity
  8
0
 62
5
100
AcDbSpline
 70
8
 71
3
 72
8
 73
4
 74
0
 40
0
 40
0
 40
0
 40
0
 40
1
 40
1
 40
1
 40
1
 10
-7.886852
 20
5.510417
 30
0.0
 10
-7.890989
 20
5.426569
 30
0.0
 10
-7.867483
 20
5.322880
 30
0.0
 10
-7.777795
 20
5.333633
 30
0.0
  0
SPLINE
  5
150
100
AcDbEntity
  8
0
 62
5
100
AcDbSpline
 70
8
 71
3
 72
8
 73
4
 74
0
 40
0
 40
0
 40
0
 40
0
 40
1
 40
1
 40
1
 40
1
 10
-7.777795
 20
5.333633
 30
0.0
 10
-7.450791
 20
5.333633
 30
0.0
 10
-7.122776
 20
5.333633
 30
0.0
 10
-6.795748
 20
5.333633
 30
0.0
  0
SPLINE
  5
151
100
AcDbEntity
  8
0
 62
5
100
AcDbSpline
 70
8
 71
3
 72
8
 73
4
 74
0
 40
0
 40
0
 40
0
 40
0
 40
1
 40
1
 40
1
 40
1
 10
-6.795748
 20
5.333633
 30
0.0
 10
-6.713218
 20
5.333633
 30
0.0
 10
-6.640877
 20
5.249785
 30
0.0
 10
-6.576791
 20
5.240669
 30
0.0
  0
SPLINE
  5
152
100
AcDbEntity
  8
0
 62
5
100
AcDbSpline
 70
8
 71
3
 72
8
 73
4
 74
0
 40
0
 40
0
 40
0
 40
0
 40
1
 40
1
 40
1
 40
1
 10
-6.576791
 20
5.240669
 30
0.0
 10
-6.416616
 20
5.131308
 30
0.0
 10
-6.248945
 20
5.029228
 30
0.0
 10
-6.107633
 20
4.895088
 30
0.0
  0
SPLINE
  5
153
100
AcDbEntity
  8
0
 62
5
100
AcDbSpline
 70
8
 71
3
 72
8
 73
4
 74
0
 40
0
 40
0
 40
0
 40
0
 40
1
 40
1
 40
1
 40
1
 10
-6.107633
 20
4.895088
 30
0.0
 10
-6.039419
 20
4.811240
 30
0.0
 10
-5.945942
 20
4.787533
 30
0.0
 10
-5.853980
 20
4.811240
 30
0.0
  0
SPLINE
  5
154
100
AcDbEntity
  8
0
 62
5
100
AcDbSpline
 70
8
 71
3
 72
8
 73
4
 74
0
 40
0
 40
0
 40
0
 40
0
 40
1
 40
1
 40
1
 40
1
 10
-5.853980
 20
4.811240
 30
0.0
 10
-5.852851
 20
4.895088
 30
0.0
 10
-5.908719
 20
4.915126
 30
0.0
 10
-5.929773
 20
4.964345
 30
0.0
  0
SPLINE
  5
155
100
AcDbEntity
  8
0
 62
5
100
AcDbSpline
 70
8
 71
3
 72
8
 73
4
 74
0
 40
0
 40
0
 40
0
 40
0
 40
1
 40
1
 40
1
 40
1
 10
-5.929773
 20
4.964345
 30
0.0
 10
-5.992091
 20
5.082822
 30
0.0
 10
-6.084138
 20
5.180866
 30
0.0
 10
-6.161446
 20
5.292598
 30
0.0
  0
SPLINE
  5
156
100
AcDbEntity
  8
0
 62
5
100
AcDbSpline
 70
8
 71
3
 72
8
 73
4
 74
0
 40
0
 40
0
 40
0
 40
0
 40
1
 40
1
 40
1
 40
1
 10
-6.161446
 20
5.292598
 30
0.0
 10
-6.222080
 20
5.292598
 30
0.0
 10
-6.277156
 20
5.385562
 30
0.0
 10
-6.348991
 20
5.420191
 30
0.0
  0
SPLINE
  5
157
100
AcDbEntity
  8
0
 62
5
100
AcDbSpline
 70
8
 71
3
 72
8
 73
4
 74
0
 40
0
 40
0
 40
0
 40
0
 40
1
 40
1
 40
1
 40
1
 10
-6.348991
 20
5.420191
 30
0.0
 10
-6.453417
 20
5.504039
 30
0.0
 10
-6.576370
 20
5.513155
 30
0.0
 10
-6.692165
 20
5.562374
 30
0.0
  0
SPLINE
  5
158
100
AcDbEntity
  8
0
 62
5
100
AcDbSpline
 70
8
 71
3
 72
8
 73
4
 74
0
 40
0
 40
0
 40
0
 40
0
 40
1
 40
1
 40
1
 40
1
 10
-6.692165
 20
5.562374
 30
0.0
 10
-6.808800
 20
5.562374
 30
0.0
 10
-6.930828
 20
5.646222
 30
0.0
 10
-7.051675
 20
5.646222
 30
0.0
  0
SPLINE
  5
159
100
AcDbEntity
  8
0
 62
5
100
AcDbSpline
 70
8
 71
3
 72
8
 73
4
 74
0
 40
0
 40
0
 40
0
 40
0
 40
1
 40
1
 40
1
 40
1
 10
-7.051675
 20
5.646222
 30
0.0
 10
-7.237367
 20
5.646222
 30
0.0
 10
-7.423312
 20
5.646222
 30
0.0
 10
-7.608920
 20
5.646222
 30
0.0
  0
SPLINE
  5
15a
100
AcDbEntity
  8
0
 62
5
100
AcDbSpline
 70
8
 71
3
 72
8
 73
4
 74
0
 40
0
 40
0
 40
0
 40
0
 40
1
 40
1
 40
1
 40
1
 10
-7.608920
 20
5.646222
 30
0.0
 10
-7.635870
 20
5.646222
 30
0.0
 10
-7.663659
 20
5.646222
 30
0.0
 10
-7.690608
 20
5.646222
 30
0.0
  0
LWPOLYLINE
  5
15b
100
AcDbEntity
  8
0
 62
5
100
AcDbPolyline
 90
2
 70
0
 10
8.677212
 20
7.233581
 30
0.0
 10
8.677513
 20
7.250910
 30
0.0
  0
SPLINE
  5
15c
100
AcDbEntity
  8
0
 62
5
100
AcDbSpline
 70
8
 71
3
 72
8
 73
4
 74
0
 40
0
 40
0
 40
0
 40
0
 40
1
 40
1
 40
1
 40
1
 10
-4.723977
 20
-1.366774
 30
0.0
 10
-4.788821
 20
-1.366774
 30
0.0
 10
-4.849203
 20
-1.366774
 30
0.0
 10
-4.903437
 20
-1.450622
 30
0.0
  0
SPLINE
  5
15d
100
AcDbEntity
  8
0
 62
5
100
AcDbSpline
 70
8
 71
3
 72
8
 73
4
 74
0
 40
0
 40
0
 40
0
 40
0
 40
1
 40
1
 40
1
 40
1
 10
-4.903437
 20
-1.450622
 30
0.0
 10
-5.019231
 20
-1.534470
 30
0.0
 10
-5.133005
 20
-1.603728
 30
0.0
 10
-5.253347
 20
-1.669881
 30
0.0
  0
SPLINE
  5
15e
100
AcDbEntity
  8
0
 62
5
100
AcDbSpline
 70
8
 71
3
 72
8
 73
4
 74
0
 40
0
 40
0
 40
0
 40
0
 40
1
 40
1
 40
1
 40
1
 10
-5.253347
 20
-1.669881
 30
0.0
 10
-5.337561
 20
-1.753729
 30
0.0
 10
-5.393142
 20
-1.830296
 30
0.0
 10
-5.457146
 20
-1.905198
 30
0.0
  0
SPLINE
  5
15f
100
AcDbEntity
  8
0
 62
5
100
AcDbSpline
 70
8
 71
3
 72
8
 73
4
 74
0
 40
0
 40
0
 40
0
 40
0
 40
1
 40
1
 40
1
 40
1
 10
-5.457146
 20
-1.905198
 30
0.0
 10
-5.517779
 20
-2.040072
 30
0.0
 10
-5.589278
 20
-2.156178
 30
0.0
 10
-5.654207
 20
-2.292519
 30
0.0
  0
SPLINE
  5
160
100
AcDbEntity
  8
0
 62
5
100
AcDbSpline
 70
8
 71
3
 72
8
 73
4
 74
0
 40
0
 40
0
 40
0
 40
0
 40
1
 40
1
 40
1
 40
1
 10
-5.654207
 20
-2.292519
 30
0.0
 10
-5.691261
 20
-2.392765
 30
0.0
 10
-5.719895
 20
-2.493208
 30
0.0
 10
-5.752317
 20
-2.596557
 30
0.0
  0
SPLINE
  5
161
100
AcDbEntity
  8
0
 62
5
100
AcDbSpline
 70
8
 71
3
 72
8
 73
4
 74
0
 40
0
 40
0
 40
0
 40
0
 40
1
 40
1
 40
1
 40
1
 10
-5.752317
 20
-2.596557
 30
0.0
 10
-5.744790
 20
-2.596557
 30
0.0
 10
-5.685787
 20
-2.680377
 30
0.0
 10
-5.624479
 20
-2.680377
 30
0.0
  0
SPLINE
  5
162
100
AcDbEntity
  8
0
 62
5
100
AcDbSpline
 70
8
 71
3
 72
8
 73
4
 74
0
 40
0
 40
0
 40
0
 40
0
 40
1
 40
1
 40
1
 40
1
 10
-5.624479
 20
-2.680377
 30
0.0
 10
-5.529233
 20
-2.596557
 30
0.0
 10
-5.492431
 20
-2.578326
 30
0.0
 10
-5.422786
 20
-2.487535
 30
0.0
  0
SPLINE
  5
163
100
AcDbEntity
  8
0
 62
5
100
AcDbSpline
 70
8
 71
3
 72
8
 73
4
 74
0
 40
0
 40
0
 40
0
 40
0
 40
1
 40
1
 40
1
 40
1
 10
-5.422786
 20
-2.487535
 30
0.0
 10
-5.315918
 20
-2.359970
 30
0.0
 10
-5.215114
 20
-2.226000
 30
0.0
 10
-5.106562
 20
-2.100213
 30
0.0
  0
SPLINE
  5
164
100
AcDbEntity
  8
0
 62
5
100
AcDbSpline
 70
8
 71
3
 72
8
 73
4
 74
0
 40
0
 40
0
 40
0
 40
0
 40
1
 40
1
 40
1
 40
1
 10
-5.106562
 20
-2.100213
 30
0.0
 10
-4.966346
 20
-1.934351
 30
0.0
 10
-4.835729
 20
-1.754830
 30
0.0
 10
-4.694586
 20
-1.586597
 30
0.0
  0
SPLINE
  5
165
100
AcDbEntity
  8
0
 62
5
100
AcDbSpline
 70
8
 71
3
 72
8
 73
4
 74
0
 40
0
 40
0
 40
0
 40
0
 40
1
 40
1
 40
1
 40
1
 10
-4.694586
 20
-1.586597
 30
0.0
 10
-4.649952
 20
-1.586597
 30
0.0
 10
-4.619635
 20
-1.482711
 30
0.0
 10
-4.673532
 20
-1.444413
 30
0.0
  0
SPLINE
  5
166
100
AcDbEntity
  8
0
 62
5
100
AcDbSpline
 70
8
 71
3
 72
8
 73
4
 74
0
 40
0
 40
0
 40
0
 40
0
 40
1
 40
1
 40
1
 40
1
 10
-4.673532
 20
-1.444413
 30
0.0
 10
-4.688696
 20
-1.444413
 30
0.0
 10
-4.697112
 20
-1.360565
 30
0.0
 10
-4.724060
 20
-1.360565
 30
0.0
  0
LWPOLYLINE
  5
167
100
AcDbEntity
  8
0
 62
5
100
AcDbPolyline
 90
2
 70
0
 10
-7.690608
 20
5.646222
 30
0.0
 10
-7.690885
 20
5.619778
 30
0.0
  0
SPLINE
  5
168
100
AcDbEntity
  8
0
 62
5
100
AcDbSpline
 70
8
 71
3
 72
8
 73
4
 74
0
 40
0
 40
0
 40
0
 40
0
 40
1
 40
1
 40
1
 40
1
 10
-3.306795
 20
-2.846437
 30
0.0
 10
-3.347218
 20
-2.930285
 30
0.0
 10
-3.342164
 20
-3.012299
 30
0.0
 10
-3.385956
 20
-2.999542
 30
0.0
  0
SPLINE
  5
169
100
AcDbEntity
  8
0
 62
5
100
AcDbSpline
 70
8
 71
3
 72
8
 73
4
 74
0
 40
0
 40
0
 40
0
 40
0
 40
1
 40
1
 40
1
 40
1
 10
-3.385956
 20
-2.999542
 30
0.0
 10
-3.480191
 20
-2.999542
 30
0.0
 10
-3.466802
 20
-3.083391
 30
0.0
 10
-3.487856
 20
-3.083391
 30
0.0
  0
SPLINE
  5
16a
100
AcDbEntity
  8
0
 62
5
100
AcDbSpline
 70
8
 71
3
 72
8
 73
4
 74
0
 40
0
 40
0
 40
0
 40
0
 40
1
 40
1
 40
1
 40
1
 10
-3.487856
 20
-3.083391
 30
0.0
 10
-3.541753
 20
-3.167239
 30
0.0
 10
-3.583439
 20
-3.167239
 30
0.0
 10
-3.621082
 20
-3.216430
 30
0.0
  0
SPLINE
  5
16b
100
AcDbEntity
  8
0
 62
5
100
AcDbSpline
 70
8
 71
3
 72
8
 73
4
 74
0
 40
0
 40
0
 40
0
 40
0
 40
1
 40
1
 40
1
 40
1
 10
-3.621082
 20
-3.216430
 30
0.0
 10
-3.653925
 20
-3.300278
 30
0.0
 10
-3.689296
 20
-3.358614
 30
0.0
 10
-3.671610
 20
-3.435717
 30
0.0
  0
SPLINE
  5
16c
100
AcDbEntity
  8
0
 62
5
100
AcDbSpline
 70
8
 71
3
 72
8
 73
4
 74
0
 40
0
 40
0
 40
0
 40
0
 40
1
 40
1
 40
1
 40
1
 10
-3.671610
 20
-3.435717
 30
0.0
 10
-3.640451
 20
-3.537768
 30
0.0
 10
-3.600870
 20
-3.628559
 30
0.0
 10
-3.558257
 20
-3.721326
 30
0.0
  0
SPLINE
  5
16d
100
AcDbEntity
  8
0
 62
5
100
AcDbSpline
 70
8
 71
3
 72
8
 73
4
 74
0
 40
0
 40
0
 40
0
 40
0
 40
1
 40
1
 40
1
 40
1
 10
-3.558257
 20
-3.721326
 30
0.0
 10
-3.531308
 20
-3.721326
 30
0.0
 10
-3.490043
 20
-3.721326
 30
0.0
 10
-3.456527
 20
-3.721326
 30
0.0
  0
SPLINE
  5
16e
100
AcDbEntity
  8
0
 62
5
100
AcDbSpline
 70
8
 71
3
 72
8
 73
4
 74
0
 40
0
 40
0
 40
0
 40
0
 40
1
 40
1
 40
1
 40
1
 10
-3.456527
 20
-3.721326
 30
0.0
 10
-3.436320
 20
-3.721326
 30
0.0
 10
-3.443057
 20
-3.637478
 30
0.0
 10
-3.427895
 20
-3.613799
 30
0.0
  0
SPLINE
  5
16f
100
AcDbEntity
  8
0
 62
5
100
AcDbSpline
 70
8
 71
3
 72
8
 73
4
 74
0
 40
0
 40
0
 40
0
 40
0
 40
1
 40
1
 40
1
 40
1
 10
-3.427895
 20
-3.613799
 30
0.0
 10
-3.411052
 20
-3.529951
 30
0.0
 10
-3.384945
 20
-3.506244
 30
0.0
 10
-3.341575
 20
-3.460694
 30
0.0
  0
SPLINE
  5
170
100
AcDbEntity
  8
0
 62
5
100
AcDbSpline
 70
8
 71
3
 72
8
 73
4
 74
0
 40
0
 40
0
 40
0
 40
0
 40
1
 40
1
 40
1
 40
1
 10
-3.341575
 20
-3.460694
 30
0.0
 10
-3.285152
 20
-3.376845
 30
0.0
 10
-3.252982
 20
-3.307588
 30
0.0
 10
-3.226287
 20
-3.225546
 30
0.0
  0
SPLINE
  5
171
100
AcDbEntity
  8
0
 62
5
100
AcDbSpline
 70
8
 71
3
 72
8
 73
4
 74
0
 40
0
 40
0
 40
0
 40
0
 40
1
 40
1
 40
1
 40
1
 10
-3.226287
 20
-3.225546
 30
0.0
 10
-3.204392
 20
-3.141698
 30
0.0
 10
-3.125483
 20
-3.083391
 30
0.0
 10
-3.153862
 20
-3.006288
 30
0.0
  0
SPLINE
  5
172
100
AcDbEntity
  8
0
 62
5
100
AcDbSpline
 70
8
 71
3
 72
8
 73
4
 74
0
 40
0
 40
0
 40
0
 40
0
 40
1
 40
1
 40
1
 40
1
 10
-3.153862
 20
-3.006288
 30
0.0
 10
-3.164815
 20
-3.006288
 30
0.0
 10
-3.115123
 20
-2.922439
 30
0.0
 10
-3.117649
 20
-2.896926
 30
0.0
  0
SPLINE
  5
173
100
AcDbEntity
  8
0
 62
5
100
AcDbSpline
 70
8
 71
3
 72
8
 73
4
 74
0
 40
0
 40
0
 40
0
 40
0
 40
1
 40
1
 40
1
 40
1
 10
-3.117649
 20
-2.896926
 30
0.0
 10
-3.035961
 20
-2.796681
 30
0.0
 10
-3.124210
 20
-2.680377
 30
0.0
 10
-3.306710
 20
-2.813078
 30
0.0
  0
LWPOLYLINE
  5
174
100
AcDbEntity
  8
0
 62
5
100
AcDbPolyline
 90
2
 70
0
 10
-4.724060
 20
-1.360565
 30
0.0
 10
-4.723977
 20
-1.366774
 30
0.0
  0
SPLINE
  5
175
100
AcDbEntity
  8
0
 62
5
100
AcDbSpline
 70
8
 71
3
 72
8
 73
4
 74
0
 40
0
 40
0
 40
0
 40
0
 40
1
 40
1
 40
1
 40
1
 10
-1.425643
 20
1.074533
 30
0.0
 10
-1.784227
 20
1.074533
 30
0.0
 10
-1.707759
 20
1.074533
 30
0.0
 10
-2.057839
 20
0.970647
 30
0.0
  0
SPLINE
  5
176
100
AcDbEntity
  8
0
 62
5
100
AcDbSpline
 70
8
 71
3
 72
8
 73
4
 74
0
 40
0
 40
0
 40
0
 40
0
 40
1
 40
1
 40
1
 40
1
 10
-2.057839
 20
0.970647
 30
0.0
 10
-2.308543
 20
0.863120
 30
0.0
 10
-2.498111
 20
0.650579
 30
0.0
 10
-2.701657
 20
0.473597
 30
0.0
  0
SPLINE
  5
177
100
AcDbEntity
  8
0
 62
5
100
AcDbSpline
 70
8
 71
3
 72
8
 73
4
 74
0
 40
0
 40
0
 40
0
 40
0
 40
1
 40
1
 40
1
 40
1
 10
-2.701657
 20
0.473597
 30
0.0
 10
-2.932067
 20
0.246493
 30
0.0
 10
-3.202647
 20
0.069511
 30
0.0
 10
-3.435163
 20
-0.149408
 30
0.0
  0
SPLINE
  5
178
100
AcDbEntity
  8
0
 62
5
100
AcDbSpline
 70
8
 71
3
 72
8
 73
4
 74
0
 40
0
 40
0
 40
0
 40
0
 40
1
 40
1
 40
1
 40
1
 10
-3.435163
 20
-0.149408
 30
0.0
 10
-3.502535
 20
-0.334208
 30
0.0
 10
-3.194815
 20
-0.350068
 30
0.0
 10
-3.104117
 20
-0.477661
 30
0.0
  0
SPLINE
  5
179
100
AcDbEntity
  8
0
 62
5
100
AcDbSpline
 70
8
 71
3
 72
8
 73
4
 74
0
 40
0
 40
0
 40
0
 40
0
 40
1
 40
1
 40
1
 40
1
 10
-3.104117
 20
-0.477661
 30
0.0
 10
-2.916234
 20
-0.605254
 30
0.0
 10
-2.734585
 20
-0.763270
 30
0.0
 10
-2.664518
 20
-0.983460
 30
0.0
  0
SPLINE
  5
17a
100
AcDbEntity
  8
0
 62
5
100
AcDbSpline
 70
8
 71
3
 72
8
 73
4
 74
0
 40
0
 40
0
 40
0
 40
0
 40
1
 40
1
 40
1
 40
1
 10
-2.664518
 20
-0.983460
 30
0.0
 10
-2.611463
 20
-1.116528
 30
0.0
 10
-2.611463
 20
-1.184317
 30
0.0
 10
-2.581146
 20
-1.505289
 30
0.0
  0
SPLINE
  5
17b
100
AcDbEntity
  8
0
 62
5
100
AcDbSpline
 70
8
 71
3
 72
8
 73
4
 74
0
 40
0
 40
0
 40
0
 40
0
 40
1
 40
1
 40
1
 40
1
 10
-2.581146
 20
-1.505289
 30
0.0
 10
-2.575513
 20
-1.850503
 30
0.0
 10
-2.507880
 20
-1.985574
 30
0.0
 10
-2.554197
 20
-2.271748
 30
0.0
  0
SPLINE
  5
17c
100
AcDbEntity
  8
0
 62
5
100
AcDbSpline
 70
8
 71
3
 72
8
 73
4
 74
0
 40
0
 40
0
 40
0
 40
0
 40
1
 40
1
 40
1
 40
1
 10
-2.554197
 20
-2.271748
 30
0.0
 10
-2.604725
 20
-2.375634
 30
0.0
 10
-2.624095
 20
-2.464590
 30
0.0
 10
-2.512091
 20
-2.541693
 30
0.0
  0
SPLINE
  5
17d
100
AcDbEntity
  8
0
 62
5
100
AcDbSpline
 70
8
 71
3
 72
8
 73
4
 74
0
 40
0
 40
0
 40
0
 40
0
 40
1
 40
1
 40
1
 40
1
 10
-2.512091
 20
-2.541693
 30
0.0
 10
-2.405392
 20
-2.625513
 30
0.0
 10
-2.353854
 20
-2.414101
 30
0.0
 10
-2.292459
 20
-2.341005
 30
0.0
  0
SPLINE
  5
17e
100
AcDbEntity
  8
0
 62
5
100
AcDbSpline
 70
8
 71
3
 72
8
 73
4
 74
0
 40
0
 40
0
 40
0
 40
0
 40
1
 40
1
 40
1
 40
1
 10
-2.292459
 20
-2.341005
 30
0.0
 10
-2.152327
 20
-2.070890
 30
0.0
 10
-2.032828
 20
-1.793466
 30
0.0
 10
-1.888231
 20
-1.524085
 30
0.0
  0
SPLINE
  5
17f
100
AcDbEntity
  8
0
 62
5
100
AcDbSpline
 70
8
 71
3
 72
8
 73
4
 74
0
 40
0
 40
0
 40
0
 40
0
 40
1
 40
1
 40
1
 40
1
 10
-1.888231
 20
-1.524085
 30
0.0
 10
-1.749193
 20
-1.253942
 30
0.0
 10
-1.619251
 20
-0.985294
 30
0.0
 10
-1.559122
 20
-0.690372
 30
0.0
  0
SPLINE
  5
180
100
AcDbEntity
  8
0
 62
5
100
AcDbSpline
 70
8
 71
3
 72
8
 73
4
 74
0
 40
0
 40
0
 40
0
 40
0
 40
1
 40
1
 40
1
 40
1
 10
-1.559122
 20
-0.690372
 30
0.0
 10
-1.514490
 20
-0.524510
 30
0.0
 10
-1.190348
 20
-0.439392
 30
0.0
 10
-1.289722
 20
-0.260773
 30
0.0
  0
SPLINE
  5
181
100
AcDbEntity
  8
0
 62
5
100
AcDbSpline
 70
8
 71
3
 72
8
 73
4
 74
0
 40
0
 40
0
 40
0
 40
0
 40
1
 40
1
 40
1
 40
1
 10
-1.289722
 20
-0.260773
 30
0.0
 10
-1.335197
 20
-0.075946
 30
0.0
 10
-1.639379
 20
-0.075946
 30
0.0
 10
-1.618494
 20
0.143312
 30
0.0
  0
SPLINE
  5
182
100
AcDbEntity
  8
0
 62
5
100
AcDbSpline
 70
8
 71
3
 72
8
 73
4
 74
0
 40
0
 40
0
 40
0
 40
0
 40
1
 40
1
 40
1
 40
1
 10
-1.618494
 20
0.143312
 30
0.0
 10
-1.612999
 20
0.285496
 30
0.0
 10
-1.515163
 20
0.505319
 30
0.0
 10
-1.333935
 20
0.438235
 30
0.0
  0
SPLINE
  5
183
100
AcDbEntity
  8
0
 62
5
100
AcDbSpline
 70
8
 71
3
 72
8
 73
4
 74
0
 40
0
 40
0
 40
0
 40
0
 40
1
 40
1
 40
1
 40
1
 10
-1.333935
 20
0.438235
 30
0.0
 10
-1.165422
 20
0.354386
 30
0.0
 10
-1.005247
 20
0.438235
 30
0.0
 10
-0.894421
 20
0.591340
 30
0.0
  0
SPLINE
  5
184
100
AcDbEntity
  8
0
 62
5
100
AcDbSpline
 70
8
 71
3
 72
8
 73
4
 74
0
 40
0
 40
0
 40
0
 40
0
 40
1
 40
1
 40
1
 40
1
 10
-0.894421
 20
0.591340
 30
0.0
 10
-0.738286
 20
0.709817
 30
0.0
 10
-0.543080
 20
0.675188
 30
0.0
 10
-0.368503
 20
0.675188
 30
0.0
  0
SPLINE
  5
185
100
AcDbEntity
  8
0
 62
5
100
AcDbSpline
 70
8
 71
3
 72
8
 73
4
 74
0
 40
0
 40
0
 40
0
 40
0
 40
1
 40
1
 40
1
 40
1
 10
-0.368503
 20
0.675188
 30
0.0
 10
-0.290185
 20
0.675188
 30
0.0
 10
0.004397
 20
0.675188
 30
0.0
 10
-0.178178
 20
0.828294
 30
0.0
  0
SPLINE
  5
186
100
AcDbEntity
  8
0
 62
5
100
AcDbSpline
 70
8
 71
3
 72
8
 73
4
 74
0
 40
0
 40
0
 40
0
 40
0
 40
1
 40
1
 40
1
 40
1
 10
-0.178178
 20
0.828294
 30
0.0
 10
-0.369177
 20
1.055596
 30
0.0
 10
-0.471327
 20
1.173875
 30
0.0
 10
-0.715128
 20
1.148898
 30
0.0
  0
LWPOLYLINE
  5
187
100
AcDbEntity
  8
0
 62
5
100
AcDbPolyline
 90
2
 70
0
 10
-3.306710
 20
-2.813078
 30
0.0
 10
-3.306795
 20
-2.846437
 30
0.0
  0
SPLINE
  5
188
100
AcDbEntity
  8
0
 62
5
100
AcDbSpline
 70
8
 71
3
 72
8
 73
4
 74
0
 40
0
 40
0
 40
0
 40
0
 40
1
 40
1
 40
1
 40
1
 10
2.937757
 20
-1.488722
 30
0.0
 10
2.829795
 20
-1.488722
 30
0.0
 10
2.747180
 20
-1.572542
 30
0.0
 10
2.670460
 20
-1.630878
 30
0.0
  0
SPLINE
  5
189
100
AcDbEntity
  8
0
 62
5
100
AcDbSpline
 70
8
 71
3
 72
8
 73
4
 74
0
 40
0
 40
0
 40
0
 40
0
 40
1
 40
1
 40
1
 40
1
 10
2.670460
 20
-1.630878
 30
0.0
 10
2.628354
 20
-1.714726
 30
0.0
 10
2.574795
 20
-1.714726
 30
0.0
 10
2.557022
 20
-1.773061
 30
0.0
  0
SPLINE
  5
18a
100
AcDbEntity
  8
0
 62
5
100
AcDbSpline
 70
8
 71
3
 72
8
 73
4
 74
0
 40
0
 40
0
 40
0
 40
0
 40
1
 40
1
 40
1
 40
1
 10
2.557022
 20
-1.773061
 30
0.0
 10
2.564004
 20
-1.876947
 30
0.0
 10
2.577234
 20
-1.984304
 30
0.0
 10
2.607550
 20
-2.084550
 30
0.0
  0
SPLINE
  5
18b
100
AcDbEntity
  8
0
 62
5
100
AcDbSpline
 70
8
 71
3
 72
8
 73
4
 74
0
 40
0
 40
0
 40
0
 40
0
 40
1
 40
1
 40
1
 40
1
 10
2.607550
 20
-2.084550
 30
0.0
 10
2.654709
 20
-2.168398
 30
0.0
 10
2.735891
 20
-2.237655
 30
0.0
 10
2.822716
 20
-2.285238
 30
0.0
  0
SPLINE
  5
18c
100
AcDbEntity
  8
0
 62
5
100
AcDbSpline
 70
8
 71
3
 72
8
 73
4
 74
0
 40
0
 40
0
 40
0
 40
0
 40
1
 40
1
 40
1
 40
1
 10
2.822716
 20
-2.285238
 30
0.0
 10
2.893455
 20
-2.285238
 30
0.0
 10
2.973375
 20
-2.285238
 30
0.0
 10
3.048831
 20
-2.285238
 30
0.0
  0
SPLINE
  5
18d
100
AcDbEntity
  8
0
 62
5
100
AcDbSpline
 70
8
 71
3
 72
8
 73
4
 74
0
 40
0
 40
0
 40
0
 40
0
 40
1
 40
1
 40
1
 40
1
 10
3.048831
 20
-2.285238
 30
0.0
 10
3.217512
 20
-2.285238
 30
0.0
 10
3.388130
 20
-2.285238
 30
0.0
 10
3.555127
 20
-2.285238
 30
0.0
  0
SPLINE
  5
18e
100
AcDbEntity
  8
0
 62
5
100
AcDbSpline
 70
8
 71
3
 72
8
 73
4
 74
0
 40
0
 40
0
 40
0
 40
0
 40
1
 40
1
 40
1
 40
1
 10
3.555127
 20
-2.285238
 30
0.0
 10
3.629236
 20
-2.285238
 30
0.0
 10
3.710588
 20
-2.285238
 30
0.0
 10
3.772317
 20
-2.201390
 30
0.0
  0
SPLINE
  5
18f
100
AcDbEntity
  8
0
 62
5
100
AcDbSpline
 70
8
 71
3
 72
8
 73
4
 74
0
 40
0
 40
0
 40
0
 40
0
 40
1
 40
1
 40
1
 40
1
 10
3.772317
 20
-2.201390
 30
0.0
 10
3.821161
 20
-2.117542
 30
0.0
 10
3.842215
 20
-2.073797
 30
0.0
 10
3.856533
 20
-2.008547
 30
0.0
  0
SPLINE
  5
190
100
AcDbEntity
  8
0
 62
5
100
AcDbSpline
 70
8
 71
3
 72
8
 73
4
 74
0
 40
0
 40
0
 40
0
 40
0
 40
1
 40
1
 40
1
 40
1
 10
3.856533
 20
-2.008547
 30
0.0
 10
3.853880
 20
-1.924699
 30
0.0
 10
3.814426
 20
-1.877314
 30
0.0
 10
3.711685
 20
-1.815705
 30
0.0
  0
SPLINE
  5
191
100
AcDbEntity
  8
0
 62
5
100
AcDbSpline
 70
8
 71
3
 72
8
 73
4
 74
0
 40
0
 40
0
 40
0
 40
0
 40
1
 40
1
 40
1
 40
1
 10
3.711685
 20
-1.815705
 30
0.0
 10
3.558160
 20
-1.731857
 30
0.0
 10
3.408176
 20
-1.682637
 30
0.0
 10
3.258949
 20
-1.604462
 30
0.0
  0
SPLINE
  5
192
100
AcDbEntity
  8
0
 62
5
100
AcDbSpline
 70
8
 71
3
 72
8
 73
4
 74
0
 40
0
 40
0
 40
0
 40
0
 40
1
 40
1
 40
1
 40
1
 10
3.258949
 20
-1.604462
 30
0.0
 10
3.181470
 20
-1.520613
 30
0.0
 10
3.145933
 20
-1.520613
 30
0.0
 10
3.068539
 20
-1.485985
 30
0.0
  0
SPLINE
  5
193
100
AcDbEntity
  8
0
 62
5
100
AcDbSpline
 70
8
 71
3
 72
8
 73
4
 74
0
 40
0
 40
0
 40
0
 40
0
 40
1
 40
1
 40
1
 40
1
 10
3.068539
 20
-1.485985
 30
0.0
 10
3.039893
 20
-1.485985
 30
0.0
 10
2.967566
 20
-1.485985
 30
0.0
 10
2.937334
 20
-1.485985
 30
0.0
  0
LWPOLYLINE
  5
194
100
AcDbEntity
  8
0
 62
5
100
AcDbPolyline
 90
3
 70
0
 10
-0.715128
 20
1.148898
 30
0.0
 10
-1.425811
 20
1.065050
 30
0.0
 10
-1.425643
 20
1.074533
 30
0.0
  0
SPLINE
  5
195
100
AcDbEntity
  8
0
 62
5
100
AcDbSpline
 70
8
 71
3
 72
8
 73
4
 74
0
 40
0
 40
0
 40
0
 40
0
 40
1
 40
1
 40
1
 40
1
 10
4.395624
 20
-2.390027
 30
0.0
 10
4.283246
 20
-2.473875
 30
0.0
 10
4.170579
 20
-2.550442
 30
0.0
 10
4.058481
 20
-2.635730
 30
0.0
  0
SPLINE
  5
196
100
AcDbEntity
  8
0
 62
5
100
AcDbSpline
 70
8
 71
3
 72
8
 73
4
 74
0
 40
0
 40
0
 40
0
 40
0
 40
1
 40
1
 40
1
 40
1
 10
4.058481
 20
-2.635730
 30
0.0
 10
4.006266
 20
-2.719578
 30
0.0
 10
3.950685
 20
-2.801592
 30
0.0
 10
3.912624
 20
-2.897293
 30
0.0
  0
SPLINE
  5
197
100
AcDbEntity
  8
0
 62
5
100
AcDbSpline
 70
8
 71
3
 72
8
 73
4
 74
0
 40
0
 40
0
 40
0
 40
0
 40
1
 40
1
 40
1
 40
1
 10
3.912624
 20
-2.897293
 30
0.0
 10
3.899992
 20
-2.897293
 30
0.0
 10
3.928626
 20
-2.981142
 30
0.0
 10
3.954730
 20
-2.981142
 30
0.0
  0
SPLINE
  5
198
100
AcDbEntity
  8
0
 62
5
100
AcDbSpline
 70
8
 71
3
 72
8
 73
4
 74
0
 40
0
 40
0
 40
0
 40
0
 40
1
 40
1
 40
1
 40
1
 10
3.954730
 20
-2.981142
 30
0.0
 10
4.024628
 20
-2.981142
 30
0.0
 10
4.073471
 20
-2.981142
 30
0.0
 10
4.143203
 20
-2.981142
 30
0.0
  0
SPLINE
  5
199
100
AcDbEntity
  8
0
 62
5
100
AcDbSpline
 70
8
 71
3
 72
8
 73
4
 74
0
 40
0
 40
0
 40
0
 40
0
 40
1
 40
1
 40
1
 40
1
 10
4.143203
 20
-2.981142
 30
0.0
 10
4.209733
 20
-2.981142
 30
0.0
 10
4.264454
 20
-2.897293
 30
0.0
 10
4.327970
 20
-2.897293
 30
0.0
  0
SPLINE
  5
19a
100
AcDbEntity
  8
0
 62
5
100
AcDbSpline
 70
8
 71
3
 72
8
 73
4
 74
0
 40
0
 40
0
 40
0
 40
0
 40
1
 40
1
 40
1
 40
1
 10
4.327970
 20
-2.897293
 30
0.0
 10
4.374203
 20
-2.897293
 30
0.0
 10
4.403342
 20
-2.813445
 30
0.0
 10
4.434233
 20
-2.789738
 30
0.0
  0
SPLINE
  5
19b
100
AcDbEntity
  8
0
 62
5
100
AcDbSpline
 70
8
 71
3
 72
8
 73
4
 74
0
 40
0
 40
0
 40
0
 40
0
 40
1
 40
1
 40
1
 40
1
 10
4.434233
 20
-2.789738
 30
0.0
 10
4.491415
 20
-2.705918
 30
0.0
 10
4.519836
 20
-2.689493
 30
0.0
 10
4.573062
 20
-2.604939
 30
0.0
  0
SPLINE
  5
19c
100
AcDbEntity
  8
0
 62
5
100
AcDbSpline
 70
8
 71
3
 72
8
 73
4
 74
0
 40
0
 40
0
 40
0
 40
0
 40
1
 40
1
 40
1
 40
1
 10
4.573062
 20
-2.604939
 30
0.0
 10
4.589468
 20
-2.604939
 30
0.0
 10
4.622413
 20
-2.521091
 30
0.0
 10
4.638916
 20
-2.451834
 30
0.0
  0
SPLINE
  5
19d
100
AcDbEntity
  8
0
 62
5
100
AcDbSpline
 70
8
 71
3
 72
8
 73
4
 74
0
 40
0
 40
0
 40
0
 40
0
 40
1
 40
1
 40
1
 40
1
 10
4.638916
 20
-2.451834
 30
0.0
 10
4.566156
 20
-2.367986
 30
0.0
 10
4.480894
 20
-2.367986
 30
0.0
 10
4.395646
 20
-2.451834
 30
0.0
  0
LWPOLYLINE
  5
19e
100
AcDbEntity
  8
0
 62
5
100
AcDbPolyline
 90
2
 70
0
 10
2.937334
 20
-1.485985
 30
0.0
 10
2.937757
 20
-1.488722
 30
0.0
  0
SPLINE
  5
19f
100
AcDbEntity
  8
0
 62
5
100
AcDbSpline
 70
8
 71
3
 72
8
 73
4
 74
0
 40
0
 40
0
 40
0
 40
0
 40
1
 40
1
 40
1
 40
1
 10
3.422553
 20
3.058527
 30
0.0
 10
3.402063
 20
3.079129
 30
0.0
 10
3.364238
 20
3.062760
 30
0.0
 10
3.335561
 20
3.058527
 30
0.0
  0
SPLINE
  5
1a0
100
AcDbEntity
  8
0
 62
5
100
AcDbSpline
 70
8
 71
3
 72
8
 73
4
 74
0
 40
0
 40
0
 40
0
 40
0
 40
1
 40
1
 40
1
 40
1
 10
3.335561
 20
3.058527
 30
0.0
 10
3.241306
 20
3.044416
 30
0.0
 10
3.147726
 20
3.016758
 30
0.0
 10
3.062200
 20
2.974707
 30
0.0
  0
SPLINE
  5
1a1
100
AcDbEntity
  8
0
 62
5
100
AcDbSpline
 70
8
 71
3
 72
8
 73
4
 74
0
 40
0
 40
0
 40
0
 40
0
 40
1
 40
1
 40
1
 40
1
 10
3.062200
 20
2.974707
 30
0.0
 10
2.983932
 20
2.936212
 30
0.0
 10
2.910599
 20
2.884876
 30
0.0
 10
2.848717
 20
2.823408
 30
0.0
  0
SPLINE
  5
1a2
100
AcDbEntity
  8
0
 62
5
100
AcDbSpline
 70
8
 71
3
 72
8
 73
4
 74
0
 40
0
 40
0
 40
0
 40
0
 40
1
 40
1
 40
1
 40
1
 10
2.848717
 20
2.823408
 30
0.0
 10
2.799347
 20
2.774357
 30
0.0
 10
2.695114
 20
2.715824
 30
0.0
 10
2.726861
 20
2.653905
 30
0.0
  0
SPLINE
  5
1a3
100
AcDbEntity
  8
0
 62
5
100
AcDbSpline
 70
8
 71
3
 72
8
 73
4
 74
0
 40
0
 40
0
 40
0
 40
0
 40
1
 40
1
 40
1
 40
1
 10
2.726861
 20
2.653905
 30
0.0
 10
2.743471
 20
2.621506
 30
0.0
 10
2.800807
 20
2.644874
 30
0.0
 10
2.836086
 20
2.653905
 30
0.0
  0
SPLINE
  5
1a4
100
AcDbEntity
  8
0
 62
5
100
AcDbSpline
 70
8
 71
3
 72
8
 73
4
 74
0
 40
0
 40
0
 40
0
 40
0
 40
1
 40
1
 40
1
 40
1
 10
2.836086
 20
2.653905
 30
0.0
 10
3.012486
 20
2.698891
 30
0.0
 10
3.177748
 20
2.796455
 30
0.0
 10
3.315517
 20
2.915468
 30
0.0
  0
SPLINE
  5
1a5
100
AcDbEntity
  8
0
 62
5
100
AcDbSpline
 70
8
 71
3
 72
8
 73
4
 74
0
 40
0
 40
0
 40
0
 40
0
 40
1
 40
1
 40
1
 40
1
 10
3.315517
 20
2.915468
 30
0.0
 10
3.360406
 20
2.954246
 30
0.0
 10
3.403697
 20
3.001377
 30
0.0
 10
3.422551
 20
3.057624
 30
0.0
  0
SPLINE
  5
1a6
100
AcDbEntity
  8
0
 62
5
100
AcDbSpline
 70
8
 71
3
 72
8
 73
4
 74
0
 40
0
 40
0
 40
0
 40
0
 40
1
 40
1
 40
1
 40
1
 10
3.422551
 20
3.057624
 30
0.0
 10
3.422647
 20
3.057624
 30
0.0
 10
3.422765
 20
3.057624
 30
0.0
 10
3.422553
 20
3.057624
 30
0.0
  0
LWPOLYLINE
  5
1a7
100
AcDbEntity
  8
0
 62
5
100
AcDbPolyline
 90
2
 70
0
 10
4.395646
 20
-2.451834
 30
0.0
 10
4.395624
 20
-2.390027
 30
0.0
  0
SPLINE
  5
1a8
100
AcDbEntity
  8
0
 62
5
100
AcDbSpline
 70
8
 71
3
 72
8
 73
4
 74
0
 40
0
 40
0
 40
0
 40
0
 40
1
 40
1
 40
1
 40
1
 10
2.986585
 20
3.254192
 30
0.0
 10
2.888841
 20
3.327852
 30
0.0
 10
2.744194
 20
3.204408
 30
0.0
 10
2.634401
 20
3.150306
 30
0.0
  0
SPLINE
  5
1a9
100
AcDbEntity
  8
0
 62
5
100
AcDbSpline
 70
8
 71
3
 72
8
 73
4
 74
0
 40
0
 40
0
 40
0
 40
0
 40
1
 40
1
 40
1
 40
1
 10
2.634401
 20
3.150306
 30
0.0
 10
2.587138
 20
3.126881
 30
0.0
 10
2.546280
 20
3.091970
 30
0.0
 10
2.506563
 20
3.057342
 30
0.0
  0
SPLINE
  5
1aa
100
AcDbEntity
  8
0
 62
5
100
AcDbSpline
 70
8
 71
3
 72
8
 73
4
 74
0
 40
0
 40
0
 40
0
 40
0
 40
1
 40
1
 40
1
 40
1
 10
2.506563
 20
3.057342
 30
0.0
 10
2.444943
 20
3.003635
 30
0.0
 10
2.371843
 20
2.954302
 30
0.0
 10
2.336619
 20
2.880529
 30
0.0
  0
SPLINE
  5
1ab
100
AcDbEntity
  8
0
 62
5
100
AcDbSpline
 70
8
 71
3
 72
8
 73
4
 74
0
 40
0
 40
0
 40
0
 40
0
 40
1
 40
1
 40
1
 40
1
 10
2.336619
 20
2.880529
 30
0.0
 10
2.322107
 20
2.850134
 30
0.0
 10
2.296498
 20
2.799757
 30
0.0
 10
2.323987
 20
2.780284
 30
0.0
  0
SPLINE
  5
1ac
100
AcDbEntity
  8
0
 62
5
100
AcDbSpline
 70
8
 71
3
 72
8
 73
4
 74
0
 40
0
 40
0
 40
0
 40
0
 40
1
 40
1
 40
1
 40
1
 10
2.323987
 20
2.780284
 30
0.0
 10
2.374949
 20
2.744216
 30
0.0
 10
2.440856
 20
2.827584
 30
0.0
 10
2.491489
 20
2.864132
 30
0.0
  0
SPLINE
  5
1ad
100
AcDbEntity
  8
0
 62
5
100
AcDbSpline
 70
8
 71
3
 72
8
 73
4
 74
0
 40
0
 40
0
 40
0
 40
0
 40
1
 40
1
 40
1
 40
1
 10
2.491489
 20
2.864132
 30
0.0
 10
2.536748
 20
2.896785
 30
0.0
 10
2.563985
 20
2.950746
 30
0.0
 10
2.609807
 20
2.982609
 30
0.0
  0
SPLINE
  5
1ae
100
AcDbEntity
  8
0
 62
5
100
AcDbSpline
 70
8
 71
3
 72
8
 73
4
 74
0
 40
0
 40
0
 40
0
 40
0
 40
1
 40
1
 40
1
 40
1
 10
2.609807
 20
2.982609
 30
0.0
 10
2.698491
 20
3.044275
 30
0.0
 10
2.798929
 20
3.094482
 30
0.0
 10
2.904473
 20
3.117483
 30
0.0
  0
SPLINE
  5
1af
100
AcDbEntity
  8
0
 62
5
100
AcDbSpline
 70
8
 71
3
 72
8
 73
4
 74
0
 40
0
 40
0
 40
0
 40
0
 40
1
 40
1
 40
1
 40
1
 10
2.904473
 20
3.117483
 30
0.0
 10
2.936756
 20
3.124539
 30
0.0
 10
2.972395
 20
3.106476
 30
0.0
 10
3.003595
 20
3.117483
 30
0.0
  0
SPLINE
  5
1b0
100
AcDbEntity
  8
0
 62
5
100
AcDbSpline
 70
8
 71
3
 72
8
 73
4
 74
0
 40
0
 40
0
 40
0
 40
0
 40
1
 40
1
 40
1
 40
1
 10
3.003595
 20
3.117483
 30
0.0
 10
3.056214
 20
3.135828
 30
0.0
 10
3.152889
 20
3.168791
 30
0.0
 10
3.134548
 20
3.221397
 30
0.0
  0
SPLINE
  5
1b1
100
AcDbEntity
  8
0
 62
5
100
AcDbSpline
 70
8
 71
3
 72
8
 73
4
 74
0
 40
0
 40
0
 40
0
 40
0
 40
1
 40
1
 40
1
 40
1
 10
3.134548
 20
3.221397
 30
0.0
 10
3.118286
 20
3.268049
 30
0.0
 10
3.021132
 20
3.186317
 30
0.0
 10
2.986332
 20
3.221397
 30
0.0
  0
SPLINE
  5
1b2
100
AcDbEntity
  8
0
 62
5
100
AcDbSpline
 70
8
 71
3
 72
8
 73
4
 74
0
 40
0
 40
0
 40
0
 40
0
 40
1
 40
1
 40
1
 40
1
 10
2.986332
 20
3.221397
 30
0.0
 10
2.978633
 20
3.229300
 30
0.0
 10
2.995315
 20
3.247644
 30
0.0
 10
2.986585
 20
3.254192
 30
0.0
  0
LWPOLYLINE
  5
1b3
100
AcDbEntity
  8
0
 62
5
100
AcDbPolyline
 90
2
 70
0
 10
3.422553
 20
3.057624
 30
0.0
 10
3.422553
 20
3.058527
 30
0.0
  0
SPLINE
  5
1b4
100
AcDbEntity
  8
0
 62
5
100
AcDbSpline
 70
8
 71
3
 72
8
 73
4
 74
0
 40
0
 40
0
 40
0
 40
0
 40
1
 40
1
 40
1
 40
1
 10
6.327965
 20
3.160804
 30
0.0
 10
6.288892
 20
3.076956
 30
0.0
 10
6.329686
 20
3.056890
 30
0.0
 10
6.323390
 20
3.007699
 30
0.0
  0
SPLINE
  5
1b5
100
AcDbEntity
  8
0
 62
5
100
AcDbSpline
 70
8
 71
3
 72
8
 73
4
 74
0
 40
0
 40
0
 40
0
 40
0
 40
1
 40
1
 40
1
 40
1
 10
6.323390
 20
3.007699
 30
0.0
 10
6.321048
 20
3.007699
 30
0.0
 10
6.317940
 20
2.923850
 30
0.0
 10
6.316174
 20
2.914735
 30
0.0
  0
SPLINE
  5
1b6
100
AcDbEntity
  8
0
 62
5
100
AcDbSpline
 70
8
 71
3
 72
8
 73
4
 74
0
 40
0
 40
0
 40
0
 40
0
 40
1
 40
1
 40
1
 40
1
 10
6.316174
 20
2.914735
 30
0.0
 10
6.335780
 20
2.830886
 30
0.0
 10
6.333087
 20
2.796258
 30
0.0
 10
6.335540
 20
2.748873
 30
0.0
  0
SPLINE
  5
1b7
100
AcDbEntity
  8
0
 62
5
100
AcDbSpline
 70
8
 71
3
 72
8
 73
4
 74
0
 40
0
 40
0
 40
0
 40
0
 40
1
 40
1
 40
1
 40
1
 10
6.335540
 20
2.748873
 30
0.0
 10
6.337036
 20
2.655909
 30
0.0
 10
6.332241
 20
2.564045
 30
0.0
 10
6.328560
 20
2.478927
 30
0.0
  0
SPLINE
  5
1b8
100
AcDbEntity
  8
0
 62
5
100
AcDbSpline
 70
8
 71
3
 72
8
 73
4
 74
0
 40
0
 40
0
 40
0
 40
0
 40
1
 40
1
 40
1
 40
1
 10
6.328560
 20
2.478927
 30
0.0
 10
6.348350
 20
2.395079
 30
0.0
 10
6.405365
 20
2.375041
 30
0.0
 10
6.476399
 20
2.336744
 30
0.0
  0
SPLINE
  5
1b9
100
AcDbEntity
  8
0
 62
5
100
AcDbSpline
 70
8
 71
3
 72
8
 73
4
 74
0
 40
0
 40
0
 40
0
 40
0
 40
1
 40
1
 40
1
 40
1
 10
6.476399
 20
2.336744
 30
0.0
 10
6.515472
 20
2.336744
 30
0.0
 10
6.562247
 20
2.252895
 30
0.0
 10
6.640693
 20
2.252895
 30
0.0
  0
SPLINE
  5
1ba
100
AcDbEntity
  8
0
 62
5
100
AcDbSpline
 70
8
 71
3
 72
8
 73
4
 74
0
 40
0
 40
0
 40
0
 40
0
 40
1
 40
1
 40
1
 40
1
 10
6.640693
 20
2.252895
 30
0.0
 10
6.673621
 20
2.252895
 30
0.0
 10
6.635480
 20
2.336744
 30
0.0
 10
6.614350
 20
2.336744
 30
0.0
  0
SPLINE
  5
1bb
100
AcDbEntity
  8
0
 62
5
100
AcDbSpline
 70
8
 71
3
 72
8
 73
4
 74
0
 40
0
 40
0
 40
0
 40
0
 40
1
 40
1
 40
1
 40
1
 10
6.614350
 20
2.336744
 30
0.0
 10
6.604816
 20
2.336744
 30
0.0
 10
6.610340
 20
2.420592
 30
0.0
 10
6.595672
 20
2.464336
 30
0.0
  0
SPLINE
  5
1bc
100
AcDbEntity
  8
0
 62
5
100
AcDbSpline
 70
8
 71
3
 72
8
 73
4
 74
0
 40
0
 40
0
 40
0
 40
0
 40
1
 40
1
 40
1
 40
1
 10
6.595672
 20
2.464336
 30
0.0
 10
6.571497
 20
2.548184
 30
0.0
 10
6.531164
 20
2.630198
 30
0.0
 10
6.512468
 20
2.725900
 30
0.0
  0
SPLINE
  5
1bd
100
AcDbEntity
  8
0
 62
5
100
AcDbSpline
 70
8
 71
3
 72
8
 73
4
 74
0
 40
0
 40
0
 40
0
 40
0
 40
1
 40
1
 40
1
 40
1
 10
6.512468
 20
2.725900
 30
0.0
 10
6.508348
 20
2.809748
 30
0.0
 10
6.476341
 20
2.868055
 30
0.0
 10
6.452930
 20
2.937341
 30
0.0
  0
SPLINE
  5
1be
100
AcDbEntity
  8
0
 62
5
100
AcDbSpline
 70
8
 71
3
 72
8
 73
4
 74
0
 40
0
 40
0
 40
0
 40
0
 40
1
 40
1
 40
1
 40
1
 10
6.452930
 20
2.937341
 30
0.0
 10
6.435486
 20
3.021161
 30
0.0
 10
6.421926
 20
3.021161
 30
0.0
 10
6.405600
 20
3.072215
 30
0.0
  0
SPLINE
  5
1bf
100
AcDbEntity
  8
0
 62
5
100
AcDbSpline
 70
8
 71
3
 72
8
 73
4
 74
0
 40
0
 40
0
 40
0
 40
0
 40
1
 40
1
 40
1
 40
1
 10
6.405600
 20
3.072215
 30
0.0
 10
6.385046
 20
3.072215
 30
0.0
 10
6.419251
 20
3.205254
 30
0.0
 10
6.328039
 20
3.179741
 30
0.0
  0
LWPOLYLINE
  5
1c0
100
AcDbEntity
  8
0
 62
5
100
AcDbPolyline
 90
2
 70
0
 10
2.986585
 20
3.254192
 30
0.0
 10
2.986585
 20
3.254192
 30
0.0
  0
SPLINE
  5
1c1
100
AcDbEntity
  8
0
 62
5
100
AcDbSpline
 70
8
 71
3
 72
8
 73
4
 74
0
 40
0
 40
0
 40
0
 40
0
 40
1
 40
1
 40
1
 40
1
 10
6.272894
 20
4.446383
 30
0.0
 10
6.239170
 20
4.433118
 30
0.0
 10
6.194610
 20
4.388414
 30
0.0
 10
6.178382
 20
4.357398
 30
0.0
  0
SPLINE
  5
1c2
100
AcDbEntity
  8
0
 62
5
100
AcDbSpline
 70
8
 71
3
 72
8
 73
4
 74
0
 40
0
 40
0
 40
0
 40
0
 40
1
 40
1
 40
1
 40
1
 10
6.178382
 20
4.357398
 30
0.0
 10
6.162154
 20
4.326354
 30
0.0
 10
6.150690
 20
4.311932
 30
0.0
 10
6.151229
 20
4.277501
 30
0.0
  0
SPLINE
  5
1c3
100
AcDbEntity
  8
0
 62
5
100
AcDbSpline
 70
8
 71
3
 72
8
 73
4
 74
0
 40
0
 40
0
 40
0
 40
0
 40
1
 40
1
 40
1
 40
1
 10
6.151229
 20
4.277501
 30
0.0
 10
6.151766
 20
4.243098
 30
0.0
 10
6.146186
 20
4.228112
 30
0.0
 10
6.158090
 20
4.195008
 30
0.0
  0
SPLINE
  5
1c4
100
AcDbEntity
  8
0
 62
5
100
AcDbSpline
 70
8
 71
3
 72
8
 73
4
 74
0
 40
0
 40
0
 40
0
 40
0
 40
1
 40
1
 40
1
 40
1
 10
6.158090
 20
4.195008
 30
0.0
 10
6.169992
 20
4.161931
 30
0.0
 10
6.170830
 20
4.156174
 30
0.0
 10
6.206712
 20
4.115139
 30
0.0
  0
SPLINE
  5
1c5
100
AcDbEntity
  8
0
 62
5
100
AcDbSpline
 70
8
 71
3
 72
8
 73
4
 74
0
 40
0
 40
0
 40
0
 40
0
 40
1
 40
1
 40
1
 40
1
 10
6.206712
 20
4.115139
 30
0.0
 10
6.242595
 20
4.074104
 30
0.0
 10
6.270255
 20
4.063944
 30
0.0
 10
6.257967
 20
4.105825
 30
0.0
  0
SPLINE
  5
1c6
100
AcDbEntity
  8
0
 62
5
100
AcDbSpline
 70
8
 71
3
 72
8
 73
4
 74
0
 40
0
 40
0
 40
0
 40
0
 40
1
 40
1
 40
1
 40
1
 10
6.257967
 20
4.105825
 30
0.0
 10
6.245679
 20
4.147735
 30
0.0
 10
6.248261
 20
4.174349
 30
0.0
 10
6.253124
 20
4.202740
 30
0.0
  0
SPLINE
  5
1c7
100
AcDbEntity
  8
0
 62
5
100
AcDbSpline
 70
8
 71
3
 72
8
 73
4
 74
0
 40
0
 40
0
 40
0
 40
0
 40
1
 40
1
 40
1
 40
1
 10
6.253124
 20
4.202740
 30
0.0
 10
6.257990
 20
4.231132
 30
0.0
 10
6.280438
 20
4.264519
 30
0.0
 10
6.306651
 20
4.282609
 30
0.0
  0
SPLINE
  5
1c8
100
AcDbEntity
  8
0
 62
5
100
AcDbSpline
 70
8
 71
3
 72
8
 73
4
 74
0
 40
0
 40
0
 40
0
 40
0
 40
1
 40
1
 40
1
 40
1
 10
6.306651
 20
4.282609
 30
0.0
 10
6.332864
 20
4.300672
 30
0.0
 10
6.359007
 20
4.302365
 30
0.0
 10
6.391799
 20
4.302365
 30
0.0
  0
SPLINE
  5
1c9
100
AcDbEntity
  8
0
 62
5
100
AcDbSpline
 70
8
 71
3
 72
8
 73
4
 74
0
 40
0
 40
0
 40
0
 40
0
 40
1
 40
1
 40
1
 40
1
 10
6.391799
 20
4.302365
 30
0.0
 10
6.424591
 20
4.302365
 30
0.0
 10
6.452079
 20
4.302365
 30
0.0
 10
6.477440
 20
4.291640
 30
0.0
  0
SPLINE
  5
1ca
100
AcDbEntity
  8
0
 62
5
100
AcDbSpline
 70
8
 71
3
 72
8
 73
4
 74
0
 40
0
 40
0
 40
0
 40
0
 40
1
 40
1
 40
1
 40
1
 10
6.477440
 20
4.291640
 30
0.0
 10
6.502801
 20
4.279787
 30
0.0
 10
6.536012
 20
4.240474
 30
0.0
 10
6.551980
 20
4.198564
 30
0.0
  0
SPLINE
  5
1cb
100
AcDbEntity
  8
0
 62
5
100
AcDbSpline
 70
8
 71
3
 72
8
 73
4
 74
0
 40
0
 40
0
 40
0
 40
0
 40
1
 40
1
 40
1
 40
1
 10
6.551980
 20
4.198564
 30
0.0
 10
6.567948
 20
4.156654
 30
0.0
 10
6.579900
 20
4.156625
 30
0.0
 10
6.578856
 20
4.198564
 30
0.0
  0
SPLINE
  5
1cc
100
AcDbEntity
  8
0
 62
5
100
AcDbSpline
 70
8
 71
3
 72
8
 73
4
 74
0
 40
0
 40
0
 40
0
 40
0
 40
1
 40
1
 40
1
 40
1
 10
6.578856
 20
4.198564
 30
0.0
 10
6.577811
 20
4.240474
 30
0.0
 10
6.585036
 20
4.265394
 30
0.0
 10
6.572472
 20
4.292967
 30
0.0
  0
SPLINE
  5
1cd
100
AcDbEntity
  8
0
 62
5
100
AcDbSpline
 70
8
 71
3
 72
8
 73
4
 74
0
 40
0
 40
0
 40
0
 40
0
 40
1
 40
1
 40
1
 40
1
 10
6.572472
 20
4.292967
 30
0.0
 10
6.560410
 20
4.319496
 30
0.0
 10
6.545113
 20
4.374162
 30
0.0
 10
6.521283
 20
4.396684
 30
0.0
  0
SPLINE
  5
1ce
100
AcDbEntity
  8
0
 62
5
100
AcDbSpline
 70
8
 71
3
 72
8
 73
4
 74
0
 40
0
 40
0
 40
0
 40
0
 40
1
 40
1
 40
1
 40
1
 10
6.521283
 20
4.396684
 30
0.0
 10
6.497452
 20
4.419261
 30
0.0
 10
6.492532
 20
4.425640
 30
0.0
 10
6.459899
 20
4.433993
 30
0.0
  0
SPLINE
  5
1cf
100
AcDbEntity
  8
0
 62
5
100
AcDbSpline
 70
8
 71
3
 72
8
 73
4
 74
0
 40
0
 40
0
 40
0
 40
0
 40
1
 40
1
 40
1
 40
1
 10
6.459899
 20
4.433993
 30
0.0
 10
6.459899
 20
4.433993
 30
0.0
 10
6.406526
 20
4.450080
 30
0.0
 10
6.381731
 20
4.450080
 30
0.0
  0
SPLINE
  5
1d0
100
AcDbEntity
  8
0
 62
5
100
AcDbSpline
 70
8
 71
3
 72
8
 73
4
 74
0
 40
0
 40
0
 40
0
 40
0
 40
1
 40
1
 40
1
 40
1
 10
6.381731
 20
4.450080
 30
0.0
 10
6.345052
 20
4.453467
 30
0.0
 10
6.320968
 20
4.452902
 30
0.0
 10
6.272892
 20
4.446129
 30
0.0
  0
LWPOLYLINE
  5
1d1
100
AcDbEntity
  8
0
 62
5
100
AcDbPolyline
 90
2
 70
0
 10
6.328039
 20
3.179741
 30
0.0
 10
6.327965
 20
3.160804
 30
0.0
  0
SPLINE
  5
1d2
100
AcDbEntity
  8
0
 62
5
100
AcDbSpline
 70
8
 71
3
 72
8
 73
4
 74
0
 40
0
 40
0
 40
0
 40
0
 40
1
 40
1
 40
1
 40
1
 10
8.470071
 20
4.378480
 30
0.0
 10
8.458054
 20
4.375658
 30
0.0
 10
8.445636
 20
4.373400
 30
0.0
 10
8.434650
 20
4.367756
 30
0.0
  0
SPLINE
  5
1d3
100
AcDbEntity
  8
0
 62
5
100
AcDbSpline
 70
8
 71
3
 72
8
 73
4
 74
0
 40
0
 40
0
 40
0
 40
0
 40
1
 40
1
 40
1
 40
1
 10
8.434650
 20
4.367756
 30
0.0
 10
8.404112
 20
4.352234
 30
0.0
 10
8.371269
 20
4.334312
 30
0.0
 10
8.352743
 20
4.305441
 30
0.0
  0
SPLINE
  5
1d4
100
AcDbEntity
  8
0
 62
5
100
AcDbSpline
 70
8
 71
3
 72
8
 73
4
 74
0
 40
0
 40
0
 40
0
 40
0
 40
1
 40
1
 40
1
 40
1
 10
8.352743
 20
4.305441
 30
0.0
 10
8.336614
 20
4.280323
 30
0.0
 10
8.333374
 20
4.247896
 30
0.0
 10
8.333145
 20
4.218037
 30
0.0
  0
SPLINE
  5
1d5
100
AcDbEntity
  8
0
 62
5
100
AcDbSpline
 70
8
 71
3
 72
8
 73
4
 74
0
 40
0
 40
0
 40
0
 40
0
 40
1
 40
1
 40
1
 40
1
 10
8.333145
 20
4.218037
 30
0.0
 10
8.332807
 20
4.174405
 30
0.0
 10
8.368287
 20
4.235535
 30
0.0
 10
8.389585
 20
4.257576
 30
0.0
  0
SPLINE
  5
1d6
100
AcDbEntity
  8
0
 62
5
100
AcDbSpline
 70
8
 71
3
 72
8
 73
4
 74
0
 40
0
 40
0
 40
0
 40
0
 40
1
 40
1
 40
1
 40
1
 10
8.389585
 20
4.257576
 30
0.0
 10
8.406321
 20
4.274792
 30
0.0
 10
8.430633
 20
4.285234
 30
0.0
 10
8.454000
 20
4.292318
 30
0.0
  0
SPLINE
  5
1d7
100
AcDbEntity
  8
0
 62
5
100
AcDbSpline
 70
8
 71
3
 72
8
 73
4
 74
0
 40
0
 40
0
 40
0
 40
0
 40
1
 40
1
 40
1
 40
1
 10
8.454000
 20
4.292318
 30
0.0
 10
8.475745
 20
4.298809
 30
0.0
 10
8.499285
 20
4.300784
 30
0.0
 10
8.521838
 20
4.298244
 30
0.0
  0
SPLINE
  5
1d8
100
AcDbEntity
  8
0
 62
5
100
AcDbSpline
 70
8
 71
3
 72
8
 73
4
 74
0
 40
0
 40
0
 40
0
 40
0
 40
1
 40
1
 40
1
 40
1
 10
8.521838
 20
4.298244
 30
0.0
 10
8.549928
 20
4.295140
 30
0.0
 10
8.579887
 20
4.288931
 30
0.0
 10
8.602456
 20
4.271998
 30
0.0
  0
SPLINE
  5
1d9
100
AcDbEntity
  8
0
 62
5
100
AcDbSpline
 70
8
 71
3
 72
8
 73
4
 74
0
 40
0
 40
0
 40
0
 40
0
 40
1
 40
1
 40
1
 40
1
 10
8.602456
 20
4.271998
 30
0.0
 10
8.635535
 20
4.247162
 30
0.0
 10
8.664183
 20
4.209683
 30
0.0
 10
8.672039
 20
4.168987
 30
0.0
  0
SPLINE
  5
1da
100
AcDbEntity
  8
0
 62
5
100
AcDbSpline
 70
8
 71
3
 72
8
 73
4
 74
0
 40
0
 40
0
 40
0
 40
0
 40
1
 40
1
 40
1
 40
1
 10
8.672039
 20
4.168987
 30
0.0
 10
8.680610
 20
4.124593
 30
0.0
 10
8.678597
 20
4.064790
 30
0.0
 10
8.643412
 20
4.036399
 30
0.0
  0
SPLINE
  5
1db
100
AcDbEntity
  8
0
 62
5
100
AcDbSpline
 70
8
 71
3
 72
8
 73
4
 74
0
 40
0
 40
0
 40
0
 40
0
 40
1
 40
1
 40
1
 40
1
 10
8.643412
 20
4.036399
 30
0.0
 10
8.642566
 20
4.036399
 30
0.0
 10
8.640113
 20
4.036399
 30
0.0
 10
8.640113
 20
4.036399
 30
0.0
  0
SPLINE
  5
1dc
100
AcDbEntity
  8
0
 62
5
100
AcDbSpline
 70
8
 71
3
 72
8
 73
4
 74
0
 40
0
 40
0
 40
0
 40
0
 40
1
 40
1
 40
1
 40
1
 10
8.640113
 20
4.036399
 30
0.0
 10
8.640113
 20
4.036399
 30
0.0
 10
8.701081
 20
4.023134
 30
0.0
 10
8.726693
 20
4.036399
 30
0.0
  0
SPLINE
  5
1dd
100
AcDbEntity
  8
0
 62
5
100
AcDbSpline
 70
8
 71
3
 72
8
 73
4
 74
0
 40
0
 40
0
 40
0
 40
0
 40
1
 40
1
 40
1
 40
1
 10
8.726693
 20
4.036399
 30
0.0
 10
8.757013
 20
4.052203
 30
0.0
 10
8.779085
 20
4.086719
 30
0.0
 10
8.785642
 20
4.120247
 30
0.0
  0
SPLINE
  5
1de
100
AcDbEntity
  8
0
 62
5
100
AcDbSpline
 70
8
 71
3
 72
8
 73
4
 74
0
 40
0
 40
0
 40
0
 40
0
 40
1
 40
1
 40
1
 40
1
 10
8.785642
 20
4.120247
 30
0.0
 10
8.795695
 20
4.171640
 30
0.0
 10
8.774579
 20
4.226899
 30
0.0
 10
8.750355
 20
4.273352
 30
0.0
  0
SPLINE
  5
1df
100
AcDbEntity
  8
0
 62
5
100
AcDbSpline
 70
8
 71
3
 72
8
 73
4
 74
0
 40
0
 40
0
 40
0
 40
0
 40
1
 40
1
 40
1
 40
1
 10
8.750355
 20
4.273352
 30
0.0
 10
8.731928
 20
4.308658
 30
0.0
 10
8.708970
 20
4.347972
 30
0.0
 10
8.670195
 20
4.361970
 30
0.0
  0
SPLINE
  5
1e0
100
AcDbEntity
  8
0
 62
5
100
AcDbSpline
 70
8
 71
3
 72
8
 73
4
 74
0
 40
0
 40
0
 40
0
 40
0
 40
1
 40
1
 40
1
 40
1
 10
8.670195
 20
4.361970
 30
0.0
 10
8.618214
 20
4.380879
 30
0.0
 10
8.610698
 20
4.380879
 30
0.0
 10
8.574497
 20
4.388217
 30
0.0
  0
SPLINE
  5
1e1
100
AcDbEntity
  8
0
 62
5
100
AcDbSpline
 70
8
 71
3
 72
8
 73
4
 74
0
 40
0
 40
0
 40
0
 40
0
 40
1
 40
1
 40
1
 40
1
 10
8.574497
 20
4.388217
 30
0.0
 10
8.557431
 20
4.391604
 30
0.0
 10
8.529409
 20
4.388217
 30
0.0
 10
8.507018
 20
4.384548
 30
0.0
  0
SPLINE
  5
1e2
100
AcDbEntity
  8
0
 62
5
100
AcDbSpline
 70
8
 71
3
 72
8
 73
4
 74
0
 40
0
 40
0
 40
0
 40
0
 40
1
 40
1
 40
1
 40
1
 10
8.507018
 20
4.384548
 30
0.0
 10
8.494606
 20
4.384548
 30
0.0
 10
8.482228
 20
4.381161
 30
0.0
 10
8.470071
 20
4.378339
 30
0.0
  0
LWPOLYLINE
  5
1e3
100
AcDbEntity
  8
0
 62
5
100
AcDbPolyline
 90
2
 70
0
 10
6.272892
 20
4.446129
 30
0.0
 10
6.272894
 20
4.446383
 30
0.0
  0
SPLINE
  5
1e4
100
AcDbEntity
  8
0
 62
5
100
AcDbSpline
 70
8
 71
3
 72
8
 73
4
 74
0
 40
0
 40
0
 40
0
 40
0
 40
1
 40
1
 40
1
 40
1
 10
7.132179
 20
2.895402
 30
0.0
 10
7.100296
 20
2.904716
 30
0.0
 10
7.089047
 20
2.842994
 30
0.0
 10
7.078283
 20
2.811554
 30
0.0
  0
SPLINE
  5
1e5
100
AcDbEntity
  8
0
 62
5
100
AcDbSpline
 70
8
 71
3
 72
8
 73
4
 74
0
 40
0
 40
0
 40
0
 40
0
 40
1
 40
1
 40
1
 40
1
 10
7.078283
 20
2.811554
 30
0.0
 10
7.060896
 20
2.760782
 30
0.0
 10
7.057735
 20
2.704479
 30
0.0
 10
7.064048
 20
2.651167
 30
0.0
  0
SPLINE
  5
1e6
100
AcDbEntity
  8
0
 62
5
100
AcDbSpline
 70
8
 71
3
 72
8
 73
4
 74
0
 40
0
 40
0
 40
0
 40
0
 40
1
 40
1
 40
1
 40
1
 10
7.064048
 20
2.651167
 30
0.0
 10
7.069250
 20
2.607254
 30
0.0
 10
7.083792
 20
2.563453
 30
0.0
 10
7.106324
 20
2.525409
 30
0.0
  0
SPLINE
  5
1e7
100
AcDbEntity
  8
0
 62
5
100
AcDbSpline
 70
8
 71
3
 72
8
 73
4
 74
0
 40
0
 40
0
 40
0
 40
0
 40
1
 40
1
 40
1
 40
1
 10
7.106324
 20
2.525409
 30
0.0
 10
7.125693
 20
2.492700
 30
0.0
 10
7.148813
 20
2.456829
 30
0.0
 10
7.183633
 20
2.441561
 30
0.0
  0
SPLINE
  5
1e8
100
AcDbEntity
  8
0
 62
5
100
AcDbSpline
 70
8
 71
3
 72
8
 73
4
 74
0
 40
0
 40
0
 40
0
 40
0
 40
1
 40
1
 40
1
 40
1
 10
7.183633
 20
2.441561
 30
0.0
 10
7.239256
 20
2.417290
 30
0.0
 10
7.305089
 20
2.441561
 30
0.0
 10
7.365817
 20
2.441561
 30
0.0
  0
SPLINE
  5
1e9
100
AcDbEntity
  8
0
 62
5
100
AcDbSpline
 70
8
 71
3
 72
8
 73
4
 74
0
 40
0
 40
0
 40
0
 40
0
 40
1
 40
1
 40
1
 40
1
 10
7.365817
 20
2.441561
 30
0.0
 10
7.431208
 20
2.441561
 30
0.0
 10
7.499695
 20
2.421805
 30
0.0
 10
7.561992
 20
2.441561
 30
0.0
  0
SPLINE
  5
1ea
100
AcDbEntity
  8
0
 62
5
100
AcDbSpline
 70
8
 71
3
 72
8
 73
4
 74
0
 40
0
 40
0
 40
0
 40
0
 40
1
 40
1
 40
1
 40
1
 10
7.561992
 20
2.441561
 30
0.0
 10
7.617956
 20
2.459341
 30
0.0
 10
7.671209
 20
2.496058
 30
0.0
 10
7.705651
 20
2.543641
 30
0.0
  0
SPLINE
  5
1eb
100
AcDbEntity
  8
0
 62
5
100
AcDbSpline
 70
8
 71
3
 72
8
 73
4
 74
0
 40
0
 40
0
 40
0
 40
0
 40
1
 40
1
 40
1
 40
1
 10
7.705651
 20
2.543641
 30
0.0
 10
7.738460
 20
2.588966
 30
0.0
 10
7.749294
 20
2.648373
 30
0.0
 10
7.755253
 20
2.704028
 30
0.0
  0
SPLINE
  5
1ec
100
AcDbEntity
  8
0
 62
5
100
AcDbSpline
 70
8
 71
3
 72
8
 73
4
 74
0
 40
0
 40
0
 40
0
 40
0
 40
1
 40
1
 40
1
 40
1
 10
7.755253
 20
2.704028
 30
0.0
 10
7.759475
 20
2.743454
 30
0.0
 10
7.774188
 20
2.795722
 30
0.0
 10
7.744972
 20
2.822504
 30
0.0
  0
SPLINE
  5
1ed
100
AcDbEntity
  8
0
 62
5
100
AcDbSpline
 70
8
 71
3
 72
8
 73
4
 74
0
 40
0
 40
0
 40
0
 40
0
 40
1
 40
1
 40
1
 40
1
 10
7.744972
 20
2.822504
 30
0.0
 10
7.725626
 20
2.840284
 30
0.0
 10
7.692477
 20
2.822504
 30
0.0
 10
7.666230
 20
2.822504
 30
0.0
  0
SPLINE
  5
1ee
100
AcDbEntity
  8
0
 62
5
100
AcDbSpline
 70
8
 71
3
 72
8
 73
4
 74
0
 40
0
 40
0
 40
0
 40
0
 40
1
 40
1
 40
1
 40
1
 10
7.666230
 20
2.822504
 30
0.0
 10
7.637255
 20
2.822504
 30
0.0
 10
7.607190
 20
2.830407
 30
0.0
 10
7.579306
 20
2.822504
 30
0.0
  0
SPLINE
  5
1ef
100
AcDbEntity
  8
0
 62
5
100
AcDbSpline
 70
8
 71
3
 72
8
 73
4
 74
0
 40
0
 40
0
 40
0
 40
0
 40
1
 40
1
 40
1
 40
1
 10
7.579306
 20
2.822504
 30
0.0
 10
7.527886
 20
2.808111
 30
0.0
 10
7.494113
 20
2.753191
 30
0.0
 10
7.442693
 20
2.738656
 30
0.0
  0
SPLINE
  5
1f0
100
AcDbEntity
  8
0
 62
5
100
AcDbSpline
 70
8
 71
3
 72
8
 73
4
 74
0
 40
0
 40
0
 40
0
 40
0
 40
1
 40
1
 40
1
 40
1
 10
7.442693
 20
2.738656
 30
0.0
 10
7.413269
 20
2.730472
 30
0.0
 10
7.379516
 20
2.727650
 30
0.0
 10
7.350966
 20
2.738656
 30
0.0
  0
SPLINE
  5
1f1
100
AcDbEntity
  8
0
 62
5
100
AcDbSpline
 70
8
 71
3
 72
8
 73
4
 74
0
 40
0
 40
0
 40
0
 40
0
 40
1
 40
1
 40
1
 40
1
 10
7.350966
 20
2.738656
 30
0.0
 10
7.311925
 20
2.753614
 30
0.0
 10
7.296715
 20
2.807547
 30
0.0
 10
7.257674
 20
2.822504
 30
0.0
  0
SPLINE
  5
1f2
100
AcDbEntity
  8
0
 62
5
100
AcDbSpline
 70
8
 71
3
 72
8
 73
4
 74
0
 40
0
 40
0
 40
0
 40
0
 40
1
 40
1
 40
1
 40
1
 10
7.257674
 20
2.822504
 30
0.0
 10
7.218632
 20
2.837462
 30
0.0
 10
7.161814
 20
2.792956
 30
0.0
 10
7.132236
 20
2.822504
 30
0.0
  0
SPLINE
  5
1f3
100
AcDbEntity
  8
0
 62
5
100
AcDbSpline
 70
8
 71
3
 72
8
 73
4
 74
0
 40
0
 40
0
 40
0
 40
0
 40
1
 40
1
 40
1
 40
1
 10
7.132236
 20
2.822504
 30
0.0
 10
7.115046
 20
2.839720
 30
0.0
 10
7.155497
 20
2.888573
 30
0.0
 10
7.132179
 20
2.895402
 30
0.0
  0
LWPOLYLINE
  5
1f4
100
AcDbEntity
  8
0
 62
5
100
AcDbPolyline
 90
2
 70
0
 10
8.470071
 20
4.378339
 30
0.0
 10
8.470071
 20
4.378480
 30
0.0
  0
SPLINE
  5
1f5
100
AcDbEntity
  8
0
 62
5
100
AcDbSpline
 70
8
 71
3
 72
8
 73
4
 74
0
 40
0
 40
0
 40
0
 40
0
 40
1
 40
1
 40
1
 40
1
 10
7.540326
 20
3.248011
 30
0.0
 10
7.479838
 20
3.248011
 30
0.0
 10
7.480998
 20
3.274258
 30
0.0
 10
7.370151
 20
3.253655
 30
0.0
  0
SPLINE
  5
1f6
100
AcDbEntity
  8
0
 62
5
100
AcDbSpline
 70
8
 71
3
 72
8
 73
4
 74
0
 40
0
 40
0
 40
0
 40
0
 40
1
 40
1
 40
1
 40
1
 10
7.370151
 20
3.253655
 30
0.0
 10
7.346524
 20
3.249140
 30
0.0
 10
7.315163
 20
3.261275
 30
0.0
 10
7.287666
 20
3.259300
 30
0.0
  0
SPLINE
  5
1f7
100
AcDbEntity
  8
0
 62
5
100
AcDbSpline
 70
8
 71
3
 72
8
 73
4
 74
0
 40
0
 40
0
 40
0
 40
0
 40
1
 40
1
 40
1
 40
1
 10
7.287666
 20
3.259300
 30
0.0
 10
7.269062
 20
3.259300
 30
0.0
 10
7.242269
 20
3.264098
 30
0.0
 10
7.232876
 20
3.248011
 30
0.0
  0
SPLINE
  5
1f8
100
AcDbEntity
  8
0
 62
5
100
AcDbSpline
 70
8
 71
3
 72
8
 73
4
 74
0
 40
0
 40
0
 40
0
 40
0
 40
1
 40
1
 40
1
 40
1
 10
7.232876
 20
3.248011
 30
0.0
 10
7.218085
 20
3.222611
 30
0.0
 10
7.236170
 20
3.181463
 30
0.0
 10
7.259908
 20
3.164163
 30
0.0
  0
SPLINE
  5
1f9
100
AcDbEntity
  8
0
 62
5
100
AcDbSpline
 70
8
 71
3
 72
8
 73
4
 74
0
 40
0
 40
0
 40
0
 40
0
 40
1
 40
1
 40
1
 40
1
 10
7.259908
 20
3.164163
 30
0.0
 10
7.272523
 20
3.154849
 30
0.0
 10
7.291123
 20
3.164163
 30
0.0
 10
7.306731
 20
3.164163
 30
0.0
  0
SPLINE
  5
1fa
100
AcDbEntity
  8
0
 62
5
100
AcDbSpline
 70
8
 71
3
 72
8
 73
4
 74
0
 40
0
 40
0
 40
0
 40
0
 40
1
 40
1
 40
1
 40
1
 10
7.306731
 20
3.164163
 30
0.0
 10
7.352019
 20
3.164163
 30
0.0
 10
7.397702
 20
3.170089
 30
0.0
 10
7.442596
 20
3.164163
 30
0.0
  0
SPLINE
  5
1fb
100
AcDbEntity
  8
0
 62
5
100
AcDbSpline
 70
8
 71
3
 72
8
 73
4
 74
0
 40
0
 40
0
 40
0
 40
0
 40
1
 40
1
 40
1
 40
1
 10
7.442596
 20
3.164163
 30
0.0
 10
7.485425
 20
3.158518
 30
0.0
 10
7.524507
 20
3.130437
 30
0.0
 10
7.567713
 20
3.130296
 30
0.0
  0
SPLINE
  5
1fc
100
AcDbEntity
  8
0
 62
5
100
AcDbSpline
 70
8
 71
3
 72
8
 73
4
 74
0
 40
0
 40
0
 40
0
 40
0
 40
1
 40
1
 40
1
 40
1
 10
7.567713
 20
3.130296
 30
0.0
 10
7.612029
 20
3.130155
 30
0.0
 10
7.701966
 20
3.120136
 30
0.0
 10
7.696274
 20
3.164163
 30
0.0
  0
SPLINE
  5
1fd
100
AcDbEntity
  8
0
 62
5
100
AcDbSpline
 70
8
 71
3
 72
8
 73
4
 74
0
 40
0
 40
0
 40
0
 40
0
 40
1
 40
1
 40
1
 40
1
 10
7.696274
 20
3.164163
 30
0.0
 10
7.696226
 20
3.164163
 30
0.0
 10
7.684189
 20
3.144125
 30
0.0
 10
7.695145
 20
3.164163
 30
0.0
  0
SPLINE
  5
1fe
100
AcDbEntity
  8
0
 62
5
100
AcDbSpline
 70
8
 71
3
 72
8
 73
4
 74
0
 40
0
 40
0
 40
0
 40
0
 40
1
 40
1
 40
1
 40
1
 10
7.695145
 20
3.164163
 30
0.0
 10
7.705607
 20
3.183072
 30
0.0
 10
7.675596
 20
3.204859
 30
0.0
 10
7.658139
 20
3.217785
 30
0.0
  0
SPLINE
  5
1ff
100
AcDbEntity
  8
0
 62
5
100
AcDbSpline
 70
8
 71
3
 72
8
 73
4
 74
0
 40
0
 40
0
 40
0
 40
0
 40
1
 40
1
 40
1
 40
1
 10
7.658139
 20
3.217785
 30
0.0
 10
7.631395
 20
3.237540
 30
0.0
 10
7.595890
 20
3.242903
 30
0.0
 10
7.563011
 20
3.248011
 30
0.0
  0
SPLINE
  5
200
100
AcDbEntity
  8
0
 62
5
100
AcDbSpline
 70
8
 71
3
 72
8
 73
4
 74
0
 40
0
 40
0
 40
0
 40
0
 40
1
 40
1
 40
1
 40
1
 10
7.563011
 20
3.248011
 30
0.0
 10
7.555544
 20
3.248011
 30
0.0
 10
7.547898
 20
3.248011
 30
0.0
 10
7.540343
 20
3.248011
 30
0.0
  0
SPLINE
  5
201
100
AcDbEntity
  8
0
 62
5
100
AcDbSpline
 70
8
 71
3
 72
8
 73
4
 74
0
 40
0
 40
0
 40
0
 40
0
 40
1
 40
1
 40
1
 40
1
 10
7.540343
 20
3.248011
 30
0.0
 10
7.540337
 20
3.248011
 30
0.0
 10
7.540332
 20
3.248011
 30
0.0
 10
7.540326
 20
3.248011
 30
0.0
  0
LWPOLYLINE
  5
202
100
AcDbEntity
  8
0
 62
5
100
AcDbPolyline
 90
2
 70
0
 10
7.132179
 20
2.895402
 30
0.0
 10
7.132179
 20
2.895402
 30
0.0
  0
SPLINE
  5
203
100
AcDbEntity
  8
0
 62
5
100
AcDbSpline
 70
8
 71
3
 72
8
 73
4
 74
0
 40
0
 40
0
 40
0
 40
0
 40
1
 40
1
 40
1
 40
1
 10
7.422299
 20
3.394823
 30
0.0
 10
7.345947
 20
3.451211
 30
0.0
 10
7.237746
 20
3.347607
 30
0.0
 10
7.150185
 20
3.310975
 30
0.0
  0
SPLINE
  5
204
100
AcDbEntity
  8
0
 62
5
100
AcDbSpline
 70
8
 71
3
 72
8
 73
4
 74
0
 40
0
 40
0
 40
0
 40
0
 40
1
 40
1
 40
1
 40
1
 10
7.150185
 20
3.310975
 30
0.0
 10
7.080383
 20
3.281765
 30
0.0
 10
7.012750
 20
3.246148
 30
0.0
 10
6.950277
 20
3.203448
 30
0.0
  0
SPLINE
  5
205
100
AcDbEntity
  8
0
 62
5
100
AcDbSpline
 70
8
 71
3
 72
8
 73
4
 74
0
 40
0
 40
0
 40
0
 40
0
 40
1
 40
1
 40
1
 40
1
 10
6.950277
 20
3.203448
 30
0.0
 10
6.910812
 20
3.176637
 30
0.0
 10
6.885956
 20
3.126994
 30
0.0
 10
6.841100
 20
3.110484
 30
0.0
  0
SPLINE
  5
206
100
AcDbEntity
  8
0
 62
5
100
AcDbSpline
 70
8
 71
3
 72
8
 73
4
 74
0
 40
0
 40
0
 40
0
 40
0
 40
1
 40
1
 40
1
 40
1
 10
6.841100
 20
3.110484
 30
0.0
 10
6.785109
 20
3.089882
 30
0.0
 10
6.705795
 20
3.151124
 30
0.0
 10
6.662111
 20
3.110484
 30
0.0
  0
SPLINE
  5
207
100
AcDbEntity
  8
0
 62
5
100
AcDbSpline
 70
8
 71
3
 72
8
 73
4
 74
0
 40
0
 40
0
 40
0
 40
0
 40
1
 40
1
 40
1
 40
1
 10
6.662111
 20
3.110484
 30
0.0
 10
6.618845
 20
3.070239
 30
0.0
 10
6.647086
 20
2.992713
 30
0.0
 10
6.649315
 20
2.933672
 30
0.0
  0
SPLINE
  5
208
100
AcDbEntity
  8
0
 62
5
100
AcDbSpline
 70
8
 71
3
 72
8
 73
4
 74
0
 40
0
 40
0
 40
0
 40
0
 40
1
 40
1
 40
1
 40
1
 10
6.649315
 20
2.933672
 30
0.0
 10
6.654669
 20
2.791883
 30
0.0
 10
6.667578
 20
2.647414
 30
0.0
 10
6.711968
 20
2.512653
 30
0.0
  0
SPLINE
  5
209
100
AcDbEntity
  8
0
 62
5
100
AcDbSpline
 70
8
 71
3
 72
8
 73
4
 74
0
 40
0
 40
0
 40
0
 40
0
 40
1
 40
1
 40
1
 40
1
 10
6.711968
 20
2.512653
 30
0.0
 10
6.732853
 20
2.449266
 30
0.0
 10
6.776807
 20
2.395869
 30
0.0
 10
6.805983
 20
2.335840
 30
0.0
  0
SPLINE
  5
20a
100
AcDbEntity
  8
0
 62
5
100
AcDbSpline
 70
8
 71
3
 72
8
 73
4
 74
0
 40
0
 40
0
 40
0
 40
0
 40
1
 40
1
 40
1
 40
1
 10
6.805983
 20
2.335840
 30
0.0
 10
6.822529
 20
2.301804
 30
0.0
 10
6.820159
 20
2.252613
 30
0.0
 10
6.851878
 20
2.231954
 30
0.0
  0
SPLINE
  5
20b
100
AcDbEntity
  8
0
 62
5
100
AcDbSpline
 70
8
 71
3
 72
8
 73
4
 74
0
 40
0
 40
0
 40
0
 40
0
 40
1
 40
1
 40
1
 40
1
 10
6.851878
 20
2.231954
 30
0.0
 10
6.870835
 20
2.219537
 30
0.0
 10
6.905072
 20
2.214739
 30
0.0
 10
6.919755
 20
2.231954
 30
0.0
  0
SPLINE
  5
20c
100
AcDbEntity
  8
0
 62
5
100
AcDbSpline
 70
8
 71
3
 72
8
 73
4
 74
0
 40
0
 40
0
 40
0
 40
0
 40
1
 40
1
 40
1
 40
1
 10
6.919755
 20
2.231954
 30
0.0
 10
6.963755
 20
2.283545
 30
0.0
 10
6.896915
 20
2.365643
 30
0.0
 10
6.887670
 20
2.432812
 30
0.0
  0
SPLINE
  5
20d
100
AcDbEntity
  8
0
 62
5
100
AcDbSpline
 70
8
 71
3
 72
8
 73
4
 74
0
 40
0
 40
0
 40
0
 40
0
 40
1
 40
1
 40
1
 40
1
 10
6.887670
 20
2.432812
 30
0.0
 10
6.879582
 20
2.491571
 30
0.0
 10
6.816315
 20
2.579144
 30
0.0
 10
6.867220
 20
2.609596
 30
0.0
  0
SPLINE
  5
20e
100
AcDbEntity
  8
0
 62
5
100
AcDbSpline
 70
8
 71
3
 72
8
 73
4
 74
0
 40
0
 40
0
 40
0
 40
0
 40
1
 40
1
 40
1
 40
1
 10
6.867220
 20
2.609596
 30
0.0
 10
6.909216
 20
2.634714
 30
0.0
 10
6.951041
 20
2.558119
 30
0.0
 10
6.987757
 20
2.525776
 30
0.0
  0
SPLINE
  5
20f
100
AcDbEntity
  8
0
 62
5
100
AcDbSpline
 70
8
 71
3
 72
8
 73
4
 74
0
 40
0
 40
0
 40
0
 40
0
 40
1
 40
1
 40
1
 40
1
 10
6.987757
 20
2.525776
 30
0.0
 10
7.039311
 20
2.480338
 30
0.0
 10
7.068565
 20
2.410686
 30
0.0
 10
7.125798
 20
2.372670
 30
0.0
  0
SPLINE
  5
210
100
AcDbEntity
  8
0
 62
5
100
AcDbSpline
 70
8
 71
3
 72
8
 73
4
 74
0
 40
0
 40
0
 40
0
 40
0
 40
1
 40
1
 40
1
 40
1
 10
7.125798
 20
2.372670
 30
0.0
 10
7.196431
 20
2.325737
 30
0.0
 10
7.282384
 20
2.302990
 30
0.0
 10
7.365995
 20
2.288822
 30
0.0
  0
SPLINE
  5
211
100
AcDbEntity
  8
0
 62
5
100
AcDbSpline
 70
8
 71
3
 72
8
 73
4
 74
0
 40
0
 40
0
 40
0
 40
0
 40
1
 40
1
 40
1
 40
1
 10
7.365995
 20
2.288822
 30
0.0
 10
7.448608
 20
2.274711
 30
0.0
 10
7.538402
 20
2.260882
 30
0.0
 10
7.617368
 20
2.288822
 30
0.0
  0
SPLINE
  5
212
100
AcDbEntity
  8
0
 62
5
100
AcDbSpline
 70
8
 71
3
 72
8
 73
4
 74
0
 40
0
 40
0
 40
0
 40
0
 40
1
 40
1
 40
1
 40
1
 10
7.617368
 20
2.288822
 30
0.0
 10
7.670955
 20
2.307731
 30
0.0
 10
7.707489
 20
2.358362
 30
0.0
 10
7.749794
 20
2.396349
 30
0.0
  0
SPLINE
  5
213
100
AcDbEntity
  8
0
 62
5
100
AcDbSpline
 70
8
 71
3
 72
8
 73
4
 74
0
 40
0
 40
0
 40
0
 40
0
 40
1
 40
1
 40
1
 40
1
 10
7.749794
 20
2.396349
 30
0.0
 10
7.799856
 20
2.441307
 30
0.0
 10
7.837981
 20
2.499924
 30
0.0
 10
7.893085
 20
2.538532
 30
0.0
  0
SPLINE
  5
214
100
AcDbEntity
  8
0
 62
5
100
AcDbSpline
 70
8
 71
3
 72
8
 73
4
 74
0
 40
0
 40
0
 40
0
 40
0
 40
1
 40
1
 40
1
 40
1
 10
7.893085
 20
2.538532
 30
0.0
 10
7.946712
 20
2.576124
 30
0.0
 10
8.028276
 20
2.572540
 30
0.0
 10
8.070744
 20
2.622381
 30
0.0
  0
SPLINE
  5
215
100
AcDbEntity
  8
0
 62
5
100
AcDbSpline
 70
8
 71
3
 72
8
 73
4
 74
0
 40
0
 40
0
 40
0
 40
0
 40
1
 40
1
 40
1
 40
1
 10
8.070744
 20
2.622381
 30
0.0
 10
8.114134
 20
2.673294
 30
0.0
 10
8.127088
 20
2.748280
 30
0.0
 10
8.126495
 20
2.815195
 30
0.0
  0
SPLINE
  5
216
100
AcDbEntity
  8
0
 62
5
100
AcDbSpline
 70
8
 71
3
 72
8
 73
4
 74
0
 40
0
 40
0
 40
0
 40
0
 40
1
 40
1
 40
1
 40
1
 10
8.126495
 20
2.815195
 30
0.0
 10
8.125930
 20
2.879654
 30
0.0
 10
8.105630
 20
2.946626
 30
0.0
 10
8.069481
 20
3.000022
 30
0.0
  0
SPLINE
  5
217
100
AcDbEntity
  8
0
 62
5
100
AcDbSpline
 70
8
 71
3
 72
8
 73
4
 74
0
 40
0
 40
0
 40
0
 40
0
 40
1
 40
1
 40
1
 40
1
 10
8.069481
 20
3.000022
 30
0.0
 10
8.014473
 20
3.081274
 30
0.0
 10
7.919861
 20
3.127276
 30
0.0
 10
7.840545
 20
3.185019
 30
0.0
  0
SPLINE
  5
218
100
AcDbEntity
  8
0
 62
5
100
AcDbSpline
 70
8
 71
3
 72
8
 73
4
 74
0
 40
0
 40
0
 40
0
 40
0
 40
1
 40
1
 40
1
 40
1
 10
7.840545
 20
3.185019
 30
0.0
 10
7.745581
 20
3.254163
 30
0.0
 10
7.658163
 20
3.344333
 30
0.0
 10
7.545583
 20
3.377861
 30
0.0
  0
SPLINE
  5
219
100
AcDbEntity
  8
0
 62
5
100
AcDbSpline
 70
8
 71
3
 72
8
 73
4
 74
0
 40
0
 40
0
 40
0
 40
0
 40
1
 40
1
 40
1
 40
1
 10
7.545583
 20
3.377861
 30
0.0
 10
7.506198
 20
3.389715
 30
0.0
 10
7.451351
 20
3.348792
 30
0.0
 10
7.422295
 20
3.377861
 30
0.0
  0
SPLINE
  5
21a
100
AcDbEntity
  8
0
 62
5
100
AcDbSpline
 70
8
 71
3
 72
8
 73
4
 74
0
 40
0
 40
0
 40
0
 40
0
 40
1
 40
1
 40
1
 40
1
 10
7.422295
 20
3.377861
 30
0.0
 10
7.418298
 20
3.381812
 30
0.0
 10
7.426847
 20
3.391408
 30
0.0
 10
7.422299
 20
3.394795
 30
0.0
  0
LWPOLYLINE
  5
21b
100
AcDbEntity
  8
0
 62
5
100
AcDbPolyline
 90
2
 70
0
 10
7.540326
 20
3.248011
 30
0.0
 10
7.540326
 20
3.248011
 30
0.0
  0
SPLINE
  5
21c
100
AcDbEntity
  8
0
 62
5
100
AcDbSpline
 70
8
 71
3
 72
8
 73
4
 74
0
 40
0
 40
0
 40
0
 40
0
 40
1
 40
1
 40
1
 40
1
 10
5.909115
 20
4.011591
 30
0.0
 10
5.859427
 20
3.927743
 30
0.0
 10
6.118453
 20
3.734393
 30
0.0
 10
5.990810
 20
3.565793
 30
0.0
  0
SPLINE
  5
21d
100
AcDbEntity
  8
0
 62
5
100
AcDbSpline
 70
8
 71
3
 72
8
 73
4
 74
0
 40
0
 40
0
 40
0
 40
0
 40
1
 40
1
 40
1
 40
1
 10
5.990810
 20
3.565793
 30
0.0
 10
5.824304
 20
3.314813
 30
0.0
 10
5.665929
 20
3.043400
 30
0.0
 10
5.500936
 20
2.790783
 30
0.0
  0
SPLINE
  5
21e
100
AcDbEntity
  8
0
 62
5
100
AcDbSpline
 70
8
 71
3
 72
8
 73
4
 74
0
 40
0
 40
0
 40
0
 40
0
 40
1
 40
1
 40
1
 40
1
 10
5.500936
 20
2.790783
 30
0.0
 10
5.350056
 20
2.511552
 30
0.0
 10
5.330318
 20
2.201333
 30
0.0
 10
5.242441
 20
1.904238
 30
0.0
  0
SPLINE
  5
21f
100
AcDbEntity
  8
0
 62
5
100
AcDbSpline
 70
8
 71
3
 72
8
 73
4
 74
0
 40
0
 40
0
 40
0
 40
0
 40
1
 40
1
 40
1
 40
1
 10
5.242441
 20
1.904238
 30
0.0
 10
5.153247
 20
1.618601
 30
0.0
 10
4.832040
 20
1.415740
 30
0.0
 10
4.854314
 20
1.112266
 30
0.0
  0
SPLINE
  5
220
100
AcDbEntity
  8
0
 62
5
100
AcDbSpline
 70
8
 71
3
 72
8
 73
4
 74
0
 40
0
 40
0
 40
0
 40
0
 40
1
 40
1
 40
1
 40
1
 10
4.854314
 20
1.112266
 30
0.0
 10
4.959042
 20
0.742273
 30
0.0
 10
4.450077
 20
0.699968
 30
0.0
 10
4.204846
 20
0.615950
 30
0.0
  0
SPLINE
  5
221
100
AcDbEntity
  8
0
 62
5
100
AcDbSpline
 70
8
 71
3
 72
8
 73
4
 74
0
 40
0
 40
0
 40
0
 40
0
 40
1
 40
1
 40
1
 40
1
 10
4.204846
 20
0.615950
 30
0.0
 10
3.971486
 20
0.532102
 30
0.0
 10
3.652906
 20
0.462844
 30
0.0
 10
3.474371
 20
0.699798
 30
0.0
  0
SPLINE
  5
222
100
AcDbEntity
  8
0
 62
5
100
AcDbSpline
 70
8
 71
3
 72
8
 73
4
 74
0
 40
0
 40
0
 40
0
 40
0
 40
1
 40
1
 40
1
 40
1
 10
3.474371
 20
0.699798
 30
0.0
 10
3.377608
 20
0.934918
 30
0.0
 10
3.542584
 20
1.196481
 30
0.0
 10
3.425527
 20
1.432334
 30
0.0
  0
SPLINE
  5
223
100
AcDbEntity
  8
0
 62
5
100
AcDbSpline
 70
8
 71
3
 72
8
 73
4
 74
0
 40
0
 40
0
 40
0
 40
0
 40
1
 40
1
 40
1
 40
1
 10
3.425527
 20
1.432334
 30
0.0
 10
3.373312
 20
1.617331
 30
0.0
 10
3.272763
 20
1.844802
 30
0.0
 10
3.049258
 20
1.702449
 30
0.0
  0
SPLINE
  5
224
100
AcDbEntity
  8
0
 62
5
100
AcDbSpline
 70
8
 71
3
 72
8
 73
4
 74
0
 40
0
 40
0
 40
0
 40
0
 40
1
 40
1
 40
1
 40
1
 10
3.049258
 20
1.702449
 30
0.0
 10
2.872325
 20
1.702449
 30
0.0
 10
2.726381
 20
1.542062
 30
0.0
 10
2.636608
 20
1.357066
 30
0.0
  0
SPLINE
  5
225
100
AcDbEntity
  8
0
 62
5
100
AcDbSpline
 70
8
 71
3
 72
8
 73
4
 74
0
 40
0
 40
0
 40
0
 40
0
 40
1
 40
1
 40
1
 40
1
 10
2.636608
 20
1.357066
 30
0.0
 10
2.597029
 20
1.156208
 30
0.0
 10
2.707347
 20
0.843421
 30
0.0
 10
2.770004
 20
0.574040
 30
0.0
  0
SPLINE
  5
226
100
AcDbEntity
  8
0
 62
5
100
AcDbSpline
 70
8
 71
3
 72
8
 73
4
 74
0
 40
0
 40
0
 40
0
 40
0
 40
1
 40
1
 40
1
 40
1
 10
2.770004
 20
0.574040
 30
0.0
 10
2.766231
 20
0.294781
 30
0.0
 10
2.903567
 20
0.060396
 30
0.0
 10
3.058438
 20
-0.158694
 30
0.0
  0
SPLINE
  5
227
100
AcDbEntity
  8
0
 62
5
100
AcDbSpline
 70
8
 71
3
 72
8
 73
4
 74
0
 40
0
 40
0
 40
0
 40
0
 40
1
 40
1
 40
1
 40
1
 10
3.058438
 20
-0.158694
 30
0.0
 10
3.285142
 20
-0.562977
 30
0.0
 10
3.727184
 20
-0.849320
 30
0.0
 10
3.778722
 20
-1.332512
 30
0.0
  0
SPLINE
  5
228
100
AcDbEntity
  8
0
 62
5
100
AcDbSpline
 70
8
 71
3
 72
8
 73
4
 74
0
 40
0
 40
0
 40
0
 40
0
 40
1
 40
1
 40
1
 40
1
 10
3.778722
 20
-1.332512
 30
0.0
 10
3.725667
 20
-1.694688
 30
0.0
 10
4.186488
 20
-1.567632
 30
0.0
 10
4.407946
 20
-1.652750
 30
0.0
  0
SPLINE
  5
229
100
AcDbEntity
  8
0
 62
5
100
AcDbSpline
 70
8
 71
3
 72
8
 73
4
 74
0
 40
0
 40
0
 40
0
 40
0
 40
1
 40
1
 40
1
 40
1
 10
4.407946
 20
-1.652750
 30
0.0
 10
4.696582
 20
-1.745714
 30
0.0
 10
4.311110
 20
-1.525157
 30
0.0
 10
4.400967
 20
-1.382804
 30
0.0
  0
SPLINE
  5
22a
100
AcDbEntity
  8
0
 62
5
100
AcDbSpline
 70
8
 71
3
 72
8
 73
4
 74
0
 40
0
 40
0
 40
0
 40
0
 40
1
 40
1
 40
1
 40
1
 10
4.400967
 20
-1.382804
 30
0.0
 10
4.321805
 20
-1.189792
 30
0.0
 10
4.191153
 20
-0.641717
 30
0.0
 10
4.579124
 20
-0.759827
 30
0.0
  0
SPLINE
  5
22b
100
AcDbEntity
  8
0
 62
5
100
AcDbSpline
 70
8
 71
3
 72
8
 73
4
 74
0
 40
0
 40
0
 40
0
 40
0
 40
1
 40
1
 40
1
 40
1
 10
4.579124
 20
-0.759827
 30
0.0
 10
4.861931
 20
-0.843675
 30
0.0
 10
5.136663
 20
-0.979085
 30
0.0
 10
5.432040
 20
-1.021362
 30
0.0
  0
SPLINE
  5
22c
100
AcDbEntity
  8
0
 62
5
100
AcDbSpline
 70
8
 71
3
 72
8
 73
4
 74
0
 40
0
 40
0
 40
0
 40
0
 40
1
 40
1
 40
1
 40
1
 10
5.432040
 20
-1.021362
 30
0.0
 10
5.829557
 20
-0.804644
 30
0.0
 10
6.203097
 20
-0.533259
 30
0.0
 10
6.617719
 20
-0.356277
 30
0.0
  0
SPLINE
  5
22d
100
AcDbEntity
  8
0
 62
5
100
AcDbSpline
 70
8
 71
3
 72
8
 73
4
 74
0
 40
0
 40
0
 40
0
 40
0
 40
1
 40
1
 40
1
 40
1
 10
6.617719
 20
-0.356277
 30
0.0
 10
7.067987
 20
0.089916
 30
0.0
 10
7.454657
 20
0.604661
 30
0.0
 10
7.844491
 20
1.107355
 30
0.0
  0
SPLINE
  5
22e
100
AcDbEntity
  8
0
 62
5
100
AcDbSpline
 70
8
 71
3
 72
8
 73
4
 74
0
 40
0
 40
0
 40
0
 40
0
 40
1
 40
1
 40
1
 40
1
 10
7.844491
 20
1.107355
 30
0.0
 10
8.026206
 20
1.562100
 30
0.0
 10
8.083803
 20
2.048030
 30
0.0
 10
8.237190
 20
2.509548
 30
0.0
  0
SPLINE
  5
22f
100
AcDbEntity
  8
0
 62
5
100
AcDbSpline
 70
8
 71
3
 72
8
 73
4
 74
0
 40
0
 40
0
 40
0
 40
0
 40
1
 40
1
 40
1
 40
1
 10
8.237190
 20
2.509548
 30
0.0
 10
8.189084
 20
2.593425
 30
0.0
 10
8.116009
 20
2.373997
 30
0.0
 10
8.040912
 20
2.324552
 30
0.0
  0
SPLINE
  5
230
100
AcDbEntity
  8
0
 62
5
100
AcDbSpline
 70
8
 71
3
 72
8
 73
4
 74
0
 40
0
 40
0
 40
0
 40
0
 40
1
 40
1
 40
1
 40
1
 10
8.040912
 20
2.324552
 30
0.0
 10
7.845178
 20
2.195717
 30
0.0
 10
7.647328
 20
1.853184
 30
0.0
 10
7.395755
 20
2.045293
 30
0.0
  0
SPLINE
  5
231
100
AcDbEntity
  8
0
 62
5
100
AcDbSpline
 70
8
 71
3
 72
8
 73
4
 74
0
 40
0
 40
0
 40
0
 40
0
 40
1
 40
1
 40
1
 40
1
 10
7.395755
 20
2.045293
 30
0.0
 10
7.218165
 20
2.129141
 30
0.0
 10
6.846763
 20
1.961473
 30
0.0
 10
6.569446
 20
1.961473
 30
0.0
  0
SPLINE
  5
232
100
AcDbEntity
  8
0
 62
5
100
AcDbSpline
 70
8
 71
3
 72
8
 73
4
 74
0
 40
0
 40
0
 40
0
 40
0
 40
1
 40
1
 40
1
 40
1
 10
6.569446
 20
1.961473
 30
0.0
 10
6.324482
 20
2.045293
 30
0.0
 10
6.011787
 20
2.323818
 30
0.0
 10
6.014331
 20
2.635306
 30
0.0
  0
SPLINE
  5
233
100
AcDbEntity
  8
0
 62
5
100
AcDbSpline
 70
8
 71
3
 72
8
 73
4
 74
0
 40
0
 40
0
 40
0
 40
0
 40
1
 40
1
 40
1
 40
1
 10
6.014331
 20
2.635306
 30
0.0
 10
5.991425
 20
2.955205
 30
0.0
 10
6.196051
 20
3.182676
 30
0.0
 10
6.249135
 20
3.491794
 30
0.0
  0
SPLINE
  5
234
100
AcDbEntity
  8
0
 62
5
100
AcDbSpline
 70
8
 71
3
 72
8
 73
4
 74
0
 40
0
 40
0
 40
0
 40
0
 40
1
 40
1
 40
1
 40
1
 10
6.249135
 20
3.491794
 30
0.0
 10
6.255843
 20
3.633950
 30
0.0
 10
6.136803
 20
3.879116
 30
0.0
 10
6.046550
 20
3.980265
 30
0.0
  0
SPLINE
  5
235
100
AcDbEntity
  8
0
 62
5
100
AcDbSpline
 70
8
 71
3
 72
8
 73
4
 74
0
 40
0
 40
0
 40
0
 40
0
 40
1
 40
1
 40
1
 40
1
 10
6.046550
 20
3.980265
 30
0.0
 10
6.006296
 20
3.980265
 30
0.0
 10
6.015308
 20
4.146127
 30
0.0
 10
5.925779
 20
4.087820
 30
0.0
  0
LWPOLYLINE
  5
236
100
AcDbEntity
  8
0
 62
5
100
AcDbPolyline
 90
2
 70
0
 10
7.422299
 20
3.394795
 30
0.0
 10
7.422299
 20
3.394823
 30
0.0
  0
SPLINE
  5
237
100
AcDbEntity
  8
0
 62
5
100
AcDbSpline
 70
8
 71
3
 72
8
 73
4
 74
0
 40
0
 40
0
 40
0
 40
0
 40
1
 40
1
 40
1
 40
1
 10
10.802028
 20
6.490490
 30
0.0
 10
10.720422
 20
6.406642
 30
0.0
 10
10.610989
 20
6.357422
 30
0.0
 10
10.570496
 20
6.279247
 30
0.0
  0
SPLINE
  5
238
100
AcDbEntity
  8
0
 62
5
100
AcDbSpline
 70
8
 71
3
 72
8
 73
4
 74
0
 40
0
 40
0
 40
0
 40
0
 40
1
 40
1
 40
1
 40
1
 10
10.570496
 20
6.279247
 30
0.0
 10
10.562970
 20
6.279247
 30
0.0
 10
10.555259
 20
6.195399
 30
0.0
 10
10.573262
 20
6.195399
 30
0.0
  0
SPLINE
  5
239
100
AcDbEntity
  8
0
 62
5
100
AcDbSpline
 70
8
 71
3
 72
8
 73
4
 74
0
 40
0
 40
0
 40
0
 40
0
 40
1
 40
1
 40
1
 40
1
 10
10.573262
 20
6.195399
 30
0.0
 10
10.587314
 20
6.195399
 30
0.0
 10
10.615538
 20
6.195399
 30
0.0
 10
10.631454
 20
6.195399
 30
0.0
  0
SPLINE
  5
23a
100
AcDbEntity
  8
0
 62
5
100
AcDbSpline
 70
8
 71
3
 72
8
 73
4
 74
0
 40
0
 40
0
 40
0
 40
0
 40
1
 40
1
 40
1
 40
1
 10
10.631454
 20
6.195399
 30
0.0
 10
10.698237
 20
6.299285
 30
0.0
 10
10.847346
 20
6.279247
 30
0.0
 10
10.957691
 20
6.326632
 30
0.0
  0
SPLINE
  5
23b
100
AcDbEntity
  8
0
 62
5
100
AcDbSpline
 70
8
 71
3
 72
8
 73
4
 74
0
 40
0
 40
0
 40
0
 40
0
 40
1
 40
1
 40
1
 40
1
 10
10.957691
 20
6.326632
 30
0.0
 10
10.974715
 20
6.326632
 30
0.0
 10
10.983452
 20
6.326632
 30
0.0
 10
10.979674
 20
6.410480
 30
0.0
  0
SPLINE
  5
23c
100
AcDbEntity
  8
0
 62
5
100
AcDbSpline
 70
8
 71
3
 72
8
 73
4
 74
0
 40
0
 40
0
 40
0
 40
0
 40
1
 40
1
 40
1
 40
1
 10
10.979674
 20
6.410480
 30
0.0
 10
10.985834
 20
6.410480
 30
0.0
 10
10.964527
 20
6.494300
 30
0.0
 10
10.946914
 20
6.503416
 30
0.0
  0
SPLINE
  5
23d
100
AcDbEntity
  8
0
 62
5
100
AcDbSpline
 70
8
 71
3
 72
8
 73
4
 74
0
 40
0
 40
0
 40
0
 40
0
 40
1
 40
1
 40
1
 40
1
 10
10.946914
 20
6.503416
 30
0.0
 10
10.907335
 20
6.503416
 30
0.0
 10
10.891333
 20
6.503416
 30
0.0
 10
10.802050
 20
6.503416
 30
0.0
  0
LWPOLYLINE
  5
23e
100
AcDbEntity
  8
0
 62
5
100
AcDbPolyline
 90
3
 70
0
 10
5.925779
 20
4.087820
 30
0.0
 10
5.909116
 20
4.011591
 30
0.0
 10
5.909115
 20
4.011591
 30
0.0
  0
SPLINE
  5
23f
100
AcDbEntity
  8
0
 62
5
100
AcDbSpline
 70
8
 71
3
 72
8
 73
4
 74
0
 40
0
 40
0
 40
0
 40
0
 40
1
 40
1
 40
1
 40
1
 10
10.925672
 20
9.537305
 30
0.0
 10
10.833691
 20
9.444341
 30
0.0
 10
10.974514
 20
9.275741
 30
0.0
 10
10.977799
 20
9.149983
 30
0.0
  0
SPLINE
  5
240
100
AcDbEntity
  8
0
 62
5
100
AcDbSpline
 70
8
 71
3
 72
8
 73
4
 74
0
 40
0
 40
0
 40
0
 40
0
 40
1
 40
1
 40
1
 40
1
 10
10.977799
 20
9.149983
 30
0.0
 10
11.086234
 20
8.644551
 30
0.0
 10
11.060667
 20
8.115949
 30
0.0
 10
11.033041
 20
7.599398
 30
0.0
  0
SPLINE
  5
241
100
AcDbEntity
  8
0
 62
5
100
AcDbSpline
 70
8
 71
3
 72
8
 73
4
 74
0
 40
0
 40
0
 40
0
 40
0
 40
1
 40
1
 40
1
 40
1
 10
11.033041
 20
7.599398
 30
0.0
 10
11.018642
 20
7.515578
 30
0.0
 10
11.007678
 20
7.320167
 30
0.0
 10
10.954133
 20
7.313789
 30
0.0
  0
SPLINE
  5
242
100
AcDbEntity
  8
0
 62
5
100
AcDbSpline
 70
8
 71
3
 72
8
 73
4
 74
0
 40
0
 40
0
 40
0
 40
0
 40
1
 40
1
 40
1
 40
1
 10
10.954133
 20
7.313789
 30
0.0
 10
10.844728
 20
7.599398
 30
0.0
 10
10.824080
 20
7.903238
 30
0.0
 10
10.743884
 20
8.197257
 30
0.0
  0
SPLINE
  5
243
100
AcDbEntity
  8
0
 62
5
100
AcDbSpline
 70
8
 71
3
 72
8
 73
4
 74
0
 40
0
 40
0
 40
0
 40
0
 40
1
 40
1
 40
1
 40
1
 10
10.743884
 20
8.197257
 30
0.0
 10
10.630465
 20
8.104293
 30
0.0
 10
10.751303
 20
7.927312
 30
0.0
 10
10.713064
 20
7.792974
 30
0.0
  0
SPLINE
  5
244
100
AcDbEntity
  8
0
 62
5
100
AcDbSpline
 70
8
 71
3
 72
8
 73
4
 74
0
 40
0
 40
0
 40
0
 40
0
 40
1
 40
1
 40
1
 40
1
 10
10.713064
 20
7.792974
 30
0.0
 10
10.693590
 20
7.639868
 30
0.0
 10
10.579955
 20
7.935158
 30
0.0
 10
10.550192
 20
7.986014
 30
0.0
  0
SPLINE
  5
245
100
AcDbEntity
  8
0
 62
5
100
AcDbSpline
 70
8
 71
3
 72
8
 73
4
 74
0
 40
0
 40
0
 40
0
 40
0
 40
1
 40
1
 40
1
 40
1
 10
10.550192
 20
7.986014
 30
0.0
 10
10.442338
 20
8.271425
 30
0.0
 10
10.377687
 20
8.541738
 30
0.0
 10
10.250473
 20
8.819698
 30
0.0
  0
SPLINE
  5
246
100
AcDbEntity
  8
0
 62
5
100
AcDbSpline
 70
8
 71
3
 72
8
 73
4
 74
0
 40
0
 40
0
 40
0
 40
0
 40
1
 40
1
 40
1
 40
1
 10
10.250473
 20
8.819698
 30
0.0
 10
10.187145
 20
8.952766
 30
0.0
 10
10.061119
 20
9.047000
 30
0.0
 10
9.970057
 20
9.156531
 30
0.0
  0
SPLINE
  5
247
100
AcDbEntity
  8
0
 62
5
100
AcDbSpline
 70
8
 71
3
 72
8
 73
4
 74
0
 40
0
 40
0
 40
0
 40
0
 40
1
 40
1
 40
1
 40
1
 10
9.970057
 20
9.156531
 30
0.0
 10
9.881875
 20
9.240379
 30
0.0
 10
9.800481
 20
9.407511
 30
0.0
 10
9.696311
 20
9.383832
 30
0.0
  0
SPLINE
  5
248
100
AcDbEntity
  8
0
 62
5
100
AcDbSpline
 70
8
 71
3
 72
8
 73
4
 74
0
 40
0
 40
0
 40
0
 40
0
 40
1
 40
1
 40
1
 40
1
 10
9.696311
 20
9.383832
 30
0.0
 10
9.830903
 20
9.122269
 30
0.0
 10
10.002328
 20
8.878401
 30
0.0
 10
10.093356
 20
8.592227
 30
0.0
  0
SPLINE
  5
249
100
AcDbEntity
  8
0
 62
5
100
AcDbSpline
 70
8
 71
3
 72
8
 73
4
 74
0
 40
0
 40
0
 40
0
 40
0
 40
1
 40
1
 40
1
 40
1
 10
10.093356
 20
8.592227
 30
0.0
 10
10.175717
 20
8.365123
 30
0.0
 10
10.248581
 20
8.137285
 30
0.0
 10
10.375854
 20
7.935524
 30
0.0
  0
SPLINE
  5
24a
100
AcDbEntity
  8
0
 62
5
100
AcDbSpline
 70
8
 71
3
 72
8
 73
4
 74
0
 40
0
 40
0
 40
0
 40
0
 40
1
 40
1
 40
1
 40
1
 10
10.375854
 20
7.935524
 30
0.0
 10
10.514428
 20
7.782419
 30
0.0
 10
10.349672
 20
7.573151
 30
0.0
 10
10.178937
 20
7.700377
 30
0.0
  0
SPLINE
  5
24b
100
AcDbEntity
  8
0
 62
5
100
AcDbSpline
 70
8
 71
3
 72
8
 73
4
 74
0
 40
0
 40
0
 40
0
 40
0
 40
1
 40
1
 40
1
 40
1
 10
10.178937
 20
7.700377
 30
0.0
 10
9.987745
 20
7.784225
 30
0.0
 10
9.802920
 20
7.877189
 30
0.0
 10
9.636117
 20
7.995102
 30
0.0
  0
SPLINE
  5
24c
100
AcDbEntity
  8
0
 62
5
100
AcDbSpline
 70
8
 71
3
 72
8
 73
4
 74
0
 40
0
 40
0
 40
0
 40
0
 40
1
 40
1
 40
1
 40
1
 10
9.636117
 20
7.995102
 30
0.0
 10
9.352989
 20
8.180126
 30
0.0
 10
9.074013
 20
8.365659
 30
0.0
 10
8.809681
 20
8.576197
 30
0.0
  0
SPLINE
  5
24d
100
AcDbEntity
  8
0
 62
5
100
AcDbSpline
 70
8
 71
3
 72
8
 73
4
 74
0
 40
0
 40
0
 40
0
 40
0
 40
1
 40
1
 40
1
 40
1
 10
8.809681
 20
8.576197
 30
0.0
 10
8.753257
 20
8.660045
 30
0.0
 10
8.528061
 20
8.827177
 30
0.0
 10
8.626270
 20
8.660045
 30
0.0
  0
SPLINE
  5
24e
100
AcDbEntity
  8
0
 62
5
100
AcDbSpline
 70
8
 71
3
 72
8
 73
4
 74
0
 40
0
 40
0
 40
0
 40
0
 40
1
 40
1
 40
1
 40
1
 10
8.626270
 20
8.660045
 30
0.0
 10
8.748516
 20
8.467005
 30
0.0
 10
8.923099
 20
8.297672
 30
0.0
 10
9.127150
 20
8.179929
 30
0.0
  0
SPLINE
  5
24f
100
AcDbEntity
  8
0
 62
5
100
AcDbSpline
 70
8
 71
3
 72
8
 73
4
 74
0
 40
0
 40
0
 40
0
 40
0
 40
1
 40
1
 40
1
 40
1
 10
9.127150
 20
8.179929
 30
0.0
 10
9.385950
 20
8.003145
 30
0.0
 10
9.594345
 20
7.758712
 30
0.0
 10
9.861919
 20
7.590480
 30
0.0
  0
SPLINE
  5
250
100
AcDbEntity
  8
0
 62
5
100
AcDbSpline
 70
8
 71
3
 72
8
 73
4
 74
0
 40
0
 40
0
 40
0
 40
0
 40
1
 40
1
 40
1
 40
1
 10
9.861919
 20
7.590480
 30
0.0
 10
10.056992
 20
7.448296
 30
0.0
 10
10.470434
 20
7.397637
 30
0.0
 10
10.667176
 20
7.253280
 30
0.0
  0
SPLINE
  5
251
100
AcDbEntity
  8
0
 62
5
100
AcDbSpline
 70
8
 71
3
 72
8
 73
4
 74
0
 40
0
 40
0
 40
0
 40
0
 40
1
 40
1
 40
1
 40
1
 10
10.667176
 20
7.253280
 30
0.0
 10
10.881433
 20
7.042037
 30
0.0
 10
11.003240
 20
6.487216
 30
0.0
 10
11.062544
 20
6.512165
 30
0.0
  0
SPLINE
  5
252
100
AcDbEntity
  8
0
 62
5
100
AcDbSpline
 70
8
 71
3
 72
8
 73
4
 74
0
 40
0
 40
0
 40
0
 40
0
 40
1
 40
1
 40
1
 40
1
 10
11.062544
 20
6.512165
 30
0.0
 10
11.108527
 20
6.512165
 30
0.0
 10
11.181218
 20
6.941792
 30
0.0
 10
11.154032
 20
7.076666
 30
0.0
  0
SPLINE
  5
253
100
AcDbEntity
  8
0
 62
5
100
AcDbSpline
 70
8
 71
3
 72
8
 73
4
 74
0
 40
0
 40
0
 40
0
 40
0
 40
1
 40
1
 40
1
 40
1
 10
11.154032
 20
7.076666
 30
0.0
 10
11.106786
 20
7.421880
 30
0.0
 10
11.187719
 20
7.237053
 30
0.0
 10
11.183578
 20
7.581731
 30
0.0
  0
SPLINE
  5
254
100
AcDbEntity
  8
0
 62
5
100
AcDbSpline
 70
8
 71
3
 72
8
 73
4
 74
0
 40
0
 40
0
 40
0
 40
0
 40
1
 40
1
 40
1
 40
1
 10
11.183578
 20
7.581731
 30
0.0
 10
11.191432
 20
7.885938
 30
0.0
 10
11.240423
 20
8.188142
 30
0.0
 10
11.241347
 20
8.492518
 30
0.0
  0
SPLINE
  5
255
100
AcDbEntity
  8
0
 62
5
100
AcDbSpline
 70
8
 71
3
 72
8
 73
4
 74
0
 40
0
 40
0
 40
0
 40
0
 40
1
 40
1
 40
1
 40
1
 10
11.241347
 20
8.492518
 30
0.0
 10
11.193428
 20
8.738221
 30
0.0
 10
11.145646
 20
8.989201
 30
0.0
 10
11.097576
 20
9.233634
 30
0.0
  0
SPLINE
  5
256
100
AcDbEntity
  8
0
 62
5
100
AcDbSpline
 70
8
 71
3
 72
8
 73
4
 74
0
 40
0
 40
0
 40
0
 40
0
 40
1
 40
1
 40
1
 40
1
 10
11.097576
 20
9.233634
 30
0.0
 10
11.040225
 20
9.326598
 30
0.0
 10
10.982969
 20
9.426476
 30
0.0
 10
10.925578
 20
9.518876
 30
0.0
  0
LWPOLYLINE
  5
257
100
AcDbEntity
  8
0
 62
5
100
AcDbPolyline
 90
2
 70
0
 10
10.802050
 20
6.503416
 30
0.0
 10
10.802028
 20
6.490490
 30
0.0
  0
SPLINE
  5
258
100
AcDbEntity
  8
0
 62
5
100
AcDbSpline
 70
8
 71
3
 72
8
 73
4
 74
0
 40
0
 40
0
 40
0
 40
0
 40
1
 40
1
 40
1
 40
1
 10
11.651977
 20
9.829461
 30
0.0
 10
11.639929
 20
9.721935
 30
0.0
 10
11.606756
 20
9.618218
 30
0.0
 10
11.627458
 20
9.509591
 30
0.0
  0
SPLINE
  5
259
100
AcDbEntity
  8
0
 62
5
100
AcDbSpline
 70
8
 71
3
 72
8
 73
4
 74
0
 40
0
 40
0
 40
0
 40
0
 40
1
 40
1
 40
1
 40
1
 10
11.627458
 20
9.509591
 30
0.0
 10
11.640781
 20
9.324594
 30
0.0
 10
11.663585
 20
9.147415
 30
0.0
 10
11.671166
 20
8.962249
 30
0.0
  0
SPLINE
  5
25a
100
AcDbEntity
  8
0
 62
5
100
AcDbSpline
 70
8
 71
3
 72
8
 73
4
 74
0
 40
0
 40
0
 40
0
 40
0
 40
1
 40
1
 40
1
 40
1
 10
11.671166
 20
8.962249
 30
0.0
 10
11.648997
 20
8.633799
 30
0.0
 10
11.631081
 20
8.305151
 30
0.0
 10
11.606320
 20
7.982712
 30
0.0
  0
SPLINE
  5
25b
100
AcDbEntity
  8
0
 62
5
100
AcDbSpline
 70
8
 71
3
 72
8
 73
4
 74
0
 40
0
 40
0
 40
0
 40
0
 40
1
 40
1
 40
1
 40
1
 10
11.606320
 20
7.982712
 30
0.0
 10
11.547875
 20
7.771469
 30
0.0
 10
11.478340
 20
7.553113
 30
0.0
 10
11.427131
 20
7.342773
 30
0.0
  0
SPLINE
  5
25c
100
AcDbEntity
  8
0
 62
5
100
AcDbSpline
 70
8
 71
3
 72
8
 73
4
 74
0
 40
0
 40
0
 40
0
 40
0
 40
1
 40
1
 40
1
 40
1
 10
11.427131
 20
7.342773
 30
0.0
 10
11.389487
 20
7.157946
 30
0.0
 10
11.357067
 20
6.972215
 30
0.0
 10
11.316281
 20
6.787049
 30
0.0
  0
SPLINE
  5
25d
100
AcDbEntity
  8
0
 62
5
100
AcDbSpline
 70
8
 71
3
 72
8
 73
4
 74
0
 40
0
 40
0
 40
0
 40
0
 40
1
 40
1
 40
1
 40
1
 10
11.316281
 20
6.787049
 30
0.0
 10
11.266425
 20
6.703201
 30
0.0
 10
11.246047
 20
6.617518
 30
0.0
 10
11.223232
 20
6.525486
 30
0.0
  0
SPLINE
  5
25e
100
AcDbEntity
  8
0
 62
5
100
AcDbSpline
 70
8
 71
3
 72
8
 73
4
 74
0
 40
0
 40
0
 40
0
 40
0
 40
1
 40
1
 40
1
 40
1
 10
11.223232
 20
6.525486
 30
0.0
 10
11.233166
 20
6.432522
 30
0.0
 10
11.236355
 20
6.340489
 30
0.0
 10
11.219713
 20
6.246058
 30
0.0
  0
SPLINE
  5
25f
100
AcDbEntity
  8
0
 62
5
100
AcDbSpline
 70
8
 71
3
 72
8
 73
4
 74
0
 40
0
 40
0
 40
0
 40
0
 40
1
 40
1
 40
1
 40
1
 10
11.219713
 20
6.246058
 30
0.0
 10
11.204476
 20
6.162209
 30
0.0
 10
11.339236
 20
6.127581
 30
0.0
 10
11.367347
 20
6.162209
 30
0.0
  0
SPLINE
  5
260
100
AcDbEntity
  8
0
 62
5
100
AcDbSpline
 70
8
 71
3
 72
8
 73
4
 74
0
 40
0
 40
0
 40
0
 40
0
 40
1
 40
1
 40
1
 40
1
 10
11.367347
 20
6.162209
 30
0.0
 10
11.500622
 20
6.397357
 30
0.0
 10
11.520616
 20
6.684236
 30
0.0
 10
11.611434
 20
6.936853
 30
0.0
  0
SPLINE
  5
261
100
AcDbEntity
  8
0
 62
5
100
AcDbSpline
 70
8
 71
3
 72
8
 73
4
 74
0
 40
0
 40
0
 40
0
 40
0
 40
1
 40
1
 40
1
 40
1
 10
11.611434
 20
6.936853
 30
0.0
 10
11.633997
 20
7.198416
 30
0.0
 10
11.660615
 20
7.450667
 30
0.0
 10
11.714822
 20
7.703312
 30
0.0
  0
SPLINE
  5
262
100
AcDbEntity
  8
0
 62
5
100
AcDbSpline
 70
8
 71
3
 72
8
 73
4
 74
0
 40
0
 40
0
 40
0
 40
0
 40
1
 40
1
 40
1
 40
1
 10
11.714822
 20
7.703312
 30
0.0
 10
11.738309
 20
7.829070
 30
0.0
 10
11.770655
 20
7.964847
 30
0.0
 10
11.768128
 20
8.090634
 30
0.0
  0
SPLINE
  5
263
100
AcDbEntity
  8
0
 62
5
100
AcDbSpline
 70
8
 71
3
 72
8
 73
4
 74
0
 40
0
 40
0
 40
0
 40
0
 40
1
 40
1
 40
1
 40
1
 10
11.768128
 20
8.090634
 30
0.0
 10
11.774289
 20
8.283476
 30
0.0
 10
11.792304
 20
8.477956
 30
0.0
 10
11.791115
 20
8.671504
 30
0.0
  0
SPLINE
  5
264
100
AcDbEntity
  8
0
 62
5
100
AcDbSpline
 70
8
 71
3
 72
8
 73
4
 74
0
 40
0
 40
0
 40
0
 40
0
 40
1
 40
1
 40
1
 40
1
 10
11.791115
 20
8.671504
 30
0.0
 10
11.774603
 20
8.991572
 30
0.0
 10
11.761633
 20
9.319853
 30
0.0
 10
11.718354
 20
9.643364
 30
0.0
  0
SPLINE
  5
265
100
AcDbEntity
  8
0
 62
5
100
AcDbSpline
 70
8
 71
3
 72
8
 73
4
 74
0
 40
0
 40
0
 40
0
 40
0
 40
1
 40
1
 40
1
 40
1
 10
11.718354
 20
9.643364
 30
0.0
 10
11.696185
 20
9.727212
 30
0.0
 10
11.673973
 20
9.736328
 30
0.0
 10
11.651909
 20
9.785548
 30
0.0
  0
LWPOLYLINE
  5
266
100
AcDbEntity
  8
0
 62
5
100
AcDbPolyline
 90
2
 70
0
 10
10.925578
 20
9.518876
 30
0.0
 10
10.925672
 20
9.537305
 30
0.0
  0
SPLINE
  5
267
100
AcDbEntity
  8
0
 62
5
100
AcDbSpline
 70
8
 71
3
 72
8
 73
4
 74
0
 40
0
 40
0
 40
0
 40
0
 40
1
 40
1
 40
1
 40
1
 10
4.847599
 20
9.740166
 30
0.0
 10
4.755537
 20
9.656318
 30
0.0
 10
4.713161
 20
9.574304
 30
0.0
 10
4.647329
 20
9.489186
 30
0.0
  0
SPLINE
  5
268
100
AcDbEntity
  8
0
 62
5
100
AcDbSpline
 70
8
 71
3
 72
8
 73
4
 74
0
 40
0
 40
0
 40
0
 40
0
 40
1
 40
1
 40
1
 40
1
 10
4.647329
 20
9.489186
 30
0.0
 10
4.592422
 20
9.405338
 30
0.0
 10
4.580546
 20
9.312374
 30
0.0
 10
4.543678
 20
9.227622
 30
0.0
  0
SPLINE
  5
269
100
AcDbEntity
  8
0
 62
5
100
AcDbSpline
 70
8
 71
3
 72
8
 73
4
 74
0
 40
0
 40
0
 40
0
 40
0
 40
1
 40
1
 40
1
 40
1
 10
4.543678
 20
9.227622
 30
0.0
 10
4.484140
 20
9.050810
 30
0.0
 10
4.416356
 20
8.865447
 30
0.0
 10
4.361757
 20
8.688465
 30
0.0
  0
SPLINE
  5
26a
100
AcDbEntity
  8
0
 62
5
100
AcDbSpline
 70
8
 71
3
 72
8
 73
4
 74
0
 40
0
 40
0
 40
0
 40
0
 40
1
 40
1
 40
1
 40
1
 10
4.361757
 20
8.688465
 30
0.0
 10
4.327820
 20
8.487608
 30
0.0
 10
4.307605
 20
8.275997
 30
0.0
 10
4.264682
 20
8.073672
 30
0.0
  0
SPLINE
  5
26b
100
AcDbEntity
  8
0
 62
5
100
AcDbSpline
 70
8
 71
3
 72
8
 73
4
 74
0
 40
0
 40
0
 40
0
 40
0
 40
1
 40
1
 40
1
 40
1
 10
4.264682
 20
8.073672
 30
0.0
 10
4.218953
 20
7.880830
 30
0.0
 10
4.163253
 20
7.686350
 30
0.0
 10
4.123761
 20
7.492605
 30
0.0
  0
SPLINE
  5
26c
100
AcDbEntity
  8
0
 62
5
100
AcDbSpline
 70
8
 71
3
 72
8
 73
4
 74
0
 40
0
 40
0
 40
0
 40
0
 40
1
 40
1
 40
1
 40
1
 10
4.123761
 20
7.492605
 30
0.0
 10
4.101011
 20
7.365012
 30
0.0
 10
4.086706
 20
7.231041
 30
0.0
 10
4.118712
 20
7.105283
 30
0.0
  0
SPLINE
  5
26d
100
AcDbEntity
  8
0
 62
5
100
AcDbSpline
 70
8
 71
3
 72
8
 73
4
 74
0
 40
0
 40
0
 40
0
 40
0
 40
1
 40
1
 40
1
 40
1
 10
4.118712
 20
7.105283
 30
0.0
 10
4.096809
 20
7.105283
 30
0.0
 10
4.179348
 20
6.963100
 30
0.0
 10
4.186925
 20
7.003203
 30
0.0
  0
SPLINE
  5
26e
100
AcDbEntity
  8
0
 62
5
100
AcDbSpline
 70
8
 71
3
 72
8
 73
4
 74
0
 40
0
 40
0
 40
0
 40
0
 40
1
 40
1
 40
1
 40
1
 10
4.186925
 20
7.003203
 30
0.0
 10
4.191336
 20
7.087052
 30
0.0
 10
4.188703
 20
7.105283
 30
0.0
 10
4.231557
 20
7.136271
 30
0.0
  0
SPLINE
  5
26f
100
AcDbEntity
  8
0
 62
5
100
AcDbSpline
 70
8
 71
3
 72
8
 73
4
 74
0
 40
0
 40
0
 40
0
 40
0
 40
1
 40
1
 40
1
 40
1
 10
4.231557
 20
7.136271
 30
0.0
 10
4.245719
 20
7.220119
 30
0.0
 10
4.322989
 20
7.220119
 30
0.0
 10
4.321572
 20
7.136271
 30
0.0
  0
SPLINE
  5
270
100
AcDbEntity
  8
0
 62
5
100
AcDbSpline
 70
8
 71
3
 72
8
 73
4
 74
0
 40
0
 40
0
 40
0
 40
0
 40
1
 40
1
 40
1
 40
1
 10
4.321572
 20
7.136271
 30
0.0
 10
4.326147
 20
7.017794
 30
0.0
 10
4.306242
 20
6.890568
 30
0.0
 10
4.346092
 20
6.782477
 30
0.0
  0
SPLINE
  5
271
100
AcDbEntity
  8
0
 62
5
100
AcDbSpline
 70
8
 71
3
 72
8
 73
4
 74
0
 40
0
 40
0
 40
0
 40
0
 40
1
 40
1
 40
1
 40
1
 10
4.346092
 20
6.782477
 30
0.0
 10
4.353949
 20
6.698629
 30
0.0
 10
4.360655
 20
6.689513
 30
0.0
 10
4.413969
 20
6.674951
 30
0.0
  0
SPLINE
  5
272
100
AcDbEntity
  8
0
 62
5
100
AcDbSpline
 70
8
 71
3
 72
8
 73
4
 74
0
 40
0
 40
0
 40
0
 40
0
 40
1
 40
1
 40
1
 40
1
 10
4.413969
 20
6.674951
 30
0.0
 10
4.476795
 20
6.674951
 30
0.0
 10
4.532945
 20
6.581987
 30
0.0
 10
4.609412
 20
6.581987
 30
0.0
  0
SPLINE
  5
273
100
AcDbEntity
  8
0
 62
5
100
AcDbSpline
 70
8
 71
3
 72
8
 73
4
 74
0
 40
0
 40
0
 40
0
 40
0
 40
1
 40
1
 40
1
 40
1
 10
4.609412
 20
6.581987
 30
0.0
 10
4.713482
 20
6.498138
 30
0.0
 10
4.711926
 20
6.581987
 30
0.0
 10
4.690006
 20
6.700464
 30
0.0
  0
SPLINE
  5
274
100
AcDbEntity
  8
0
 62
5
100
AcDbSpline
 70
8
 71
3
 72
8
 73
4
 74
0
 40
0
 40
0
 40
0
 40
0
 40
1
 40
1
 40
1
 40
1
 10
4.690006
 20
6.700464
 30
0.0
 10
4.661454
 20
6.911876
 30
0.0
 10
4.669610
 20
7.138275
 30
0.0
 10
4.545200
 20
7.315256
 30
0.0
  0
SPLINE
  5
275
100
AcDbEntity
  8
0
 62
5
100
AcDbSpline
 70
8
 71
3
 72
8
 73
4
 74
0
 40
0
 40
0
 40
0
 40
0
 40
1
 40
1
 40
1
 40
1
 10
4.545200
 20
7.315256
 30
0.0
 10
4.447637
 20
7.468362
 30
0.0
 10
4.672809
 20
7.550573
 30
0.0
 10
4.767738
 20
7.619464
 30
0.0
  0
SPLINE
  5
276
100
AcDbEntity
  8
0
 62
5
100
AcDbSpline
 70
8
 71
3
 72
8
 73
4
 74
0
 40
0
 40
0
 40
0
 40
0
 40
1
 40
1
 40
1
 40
1
 10
4.767738
 20
7.619464
 30
0.0
 10
4.948596
 20
7.747056
 30
0.0
 10
5.112191
 20
7.889409
 30
0.0
 10
5.300300
 20
7.998404
 30
0.0
  0
SPLINE
  5
277
100
AcDbEntity
  8
0
 62
5
100
AcDbSpline
 70
8
 71
3
 72
8
 73
4
 74
0
 40
0
 40
0
 40
0
 40
0
 40
1
 40
1
 40
1
 40
1
 10
5.300300
 20
7.998404
 30
0.0
 10
5.560740
 20
8.156956
 30
0.0
 10
5.815472
 20
8.335236
 30
0.0
 10
6.059222
 20
8.520402
 30
0.0
  0
SPLINE
  5
278
100
AcDbEntity
  8
0
 62
5
100
AcDbSpline
 70
8
 71
3
 72
8
 73
4
 74
0
 40
0
 40
0
 40
0
 40
0
 40
1
 40
1
 40
1
 40
1
 10
6.059222
 20
8.520402
 30
0.0
 10
6.180026
 20
8.627957
 30
0.0
 10
6.301052
 20
8.731673
 30
0.0
 10
6.421739
 20
8.840301
 30
0.0
  0
SPLINE
  5
279
100
AcDbEntity
  8
0
 62
5
100
AcDbSpline
 70
8
 71
3
 72
8
 73
4
 74
0
 40
0
 40
0
 40
0
 40
0
 40
1
 40
1
 40
1
 40
1
 10
6.421739
 20
8.840301
 30
0.0
 10
6.527941
 20
8.967893
 30
0.0
 10
6.604299
 20
9.075420
 30
0.0
 10
6.660485
 20
9.219240
 30
0.0
  0
SPLINE
  5
27a
100
AcDbEntity
  8
0
 62
5
100
AcDbSpline
 70
8
 71
3
 72
8
 73
4
 74
0
 40
0
 40
0
 40
0
 40
0
 40
1
 40
1
 40
1
 40
1
 10
6.660485
 20
9.219240
 30
0.0
 10
6.675960
 20
9.219240
 30
0.0
 10
6.687175
 20
9.326767
 30
0.0
 10
6.622336
 20
9.303089
 30
0.0
  0
SPLINE
  5
27b
100
AcDbEntity
  8
0
 62
5
100
AcDbSpline
 70
8
 71
3
 72
8
 73
4
 74
0
 40
0
 40
0
 40
0
 40
0
 40
1
 40
1
 40
1
 40
1
 10
6.622336
 20
9.303089
 30
0.0
 10
6.534275
 20
9.219240
 30
0.0
 10
6.481798
 20
9.160905
 30
0.0
 10
6.404375
 20
9.102231
 30
0.0
  0
SPLINE
  5
27c
100
AcDbEntity
  8
0
 62
5
100
AcDbSpline
 70
8
 71
3
 72
8
 73
4
 74
0
 40
0
 40
0
 40
0
 40
0
 40
1
 40
1
 40
1
 40
1
 10
6.404375
 20
9.102231
 30
0.0
 10
6.260282
 20
8.983754
 30
0.0
 10
6.130300
 20
8.840668
 30
0.0
 10
5.968086
 20
8.748804
 30
0.0
  0
SPLINE
  5
27d
100
AcDbEntity
  8
0
 62
5
100
AcDbSpline
 70
8
 71
3
 72
8
 73
4
 74
0
 40
0
 40
0
 40
0
 40
0
 40
1
 40
1
 40
1
 40
1
 10
5.968086
 20
8.748804
 30
0.0
 10
5.804620
 20
8.644918
 30
0.0
 10
5.648839
 20
8.529348
 30
0.0
 10
5.480335
 20
8.437287
 30
0.0
  0
SPLINE
  5
27e
100
AcDbEntity
  8
0
 62
5
100
AcDbSpline
 70
8
 71
3
 72
8
 73
4
 74
0
 40
0
 40
0
 40
0
 40
0
 40
1
 40
1
 40
1
 40
1
 10
5.480335
 20
8.437287
 30
0.0
 10
5.289462
 20
8.333401
 30
0.0
 10
5.091652
 20
8.244276
 30
0.0
 10
4.905227
 20
8.132911
 30
0.0
  0
SPLINE
  5
27f
100
AcDbEntity
  8
0
 62
5
100
AcDbSpline
 70
8
 71
3
 72
8
 73
4
 74
0
 40
0
 40
0
 40
0
 40
0
 40
1
 40
1
 40
1
 40
1
 10
4.905227
 20
8.132911
 30
0.0
 10
4.821686
 20
8.049062
 30
0.0
 10
4.738088
 20
8.025384
 30
0.0
 10
4.654504
 20
7.972524
 30
0.0
  0
SPLINE
  5
280
100
AcDbEntity
  8
0
 62
5
100
AcDbSpline
 70
8
 71
3
 72
8
 73
4
 74
0
 40
0
 40
0
 40
0
 40
0
 40
1
 40
1
 40
1
 40
1
 10
4.654504
 20
7.972524
 30
0.0
 10
4.586709
 20
7.888676
 30
0.0
 10
4.595555
 20
8.132911
 30
0.0
 10
4.601954
 20
8.223673
 30
0.0
  0
SPLINE
  5
281
100
AcDbEntity
  8
0
 62
5
100
AcDbSpline
 70
8
 71
3
 72
8
 73
4
 74
0
 40
0
 40
0
 40
0
 40
0
 40
1
 40
1
 40
1
 40
1
 10
4.601954
 20
8.223673
 30
0.0
 10
4.610192
 20
8.389535
 30
0.0
 10
4.609591
 20
8.560703
 30
0.0
 10
4.631252
 20
8.728738
 30
0.0
  0
SPLINE
  5
282
100
AcDbEntity
  8
0
 62
5
100
AcDbSpline
 70
8
 71
3
 72
8
 73
4
 74
0
 40
0
 40
0
 40
0
 40
0
 40
1
 40
1
 40
1
 40
1
 10
4.631252
 20
8.728738
 30
0.0
 10
4.682960
 20
8.898269
 30
0.0
 10
4.724484
 20
9.065937
 30
0.0
 10
4.782502
 20
9.234368
 30
0.0
  0
SPLINE
  5
283
100
AcDbEntity
  8
0
 62
5
100
AcDbSpline
 70
8
 71
3
 72
8
 73
4
 74
0
 40
0
 40
0
 40
0
 40
0
 40
1
 40
1
 40
1
 40
1
 10
4.782502
 20
9.234368
 30
0.0
 10
4.826043
 20
9.318216
 30
0.0
 10
4.870252
 20
9.387473
 30
0.0
 10
4.913286
 20
9.451086
 30
0.0
  0
SPLINE
  5
284
100
AcDbEntity
  8
0
 62
5
100
AcDbSpline
 70
8
 71
3
 72
8
 73
4
 74
0
 40
0
 40
0
 40
0
 40
0
 40
1
 40
1
 40
1
 40
1
 10
4.913286
 20
9.451086
 30
0.0
 10
4.899962
 20
9.554972
 30
0.0
 10
4.923457
 20
9.670344
 30
0.0
 10
4.847850
 20
9.755096
 30
0.0
  0
LWPOLYLINE
  5
285
100
AcDbEntity
  8
0
 62
5
100
AcDbPolyline
 90
2
 70
0
 10
11.651909
 20
9.785548
 30
0.0
 10
11.651977
 20
9.829461
 30
0.0
  0
SPLINE
  5
286
100
AcDbEntity
  8
0
 62
5
100
AcDbSpline
 70
8
 71
3
 72
8
 73
4
 74
0
 40
0
 40
0
 40
0
 40
0
 40
1
 40
1
 40
1
 40
1
 10
4.463349
 20
10.206764
 30
0.0
 10
4.404569
 20
10.206764
 30
0.0
 10
4.276291
 20
10.053659
 30
0.0
 10
4.243675
 20
10.037262
 30
0.0
  0
SPLINE
  5
287
100
AcDbEntity
  8
0
 62
5
100
AcDbSpline
 70
8
 71
3
 72
8
 73
4
 74
0
 40
0
 40
0
 40
0
 40
0
 40
1
 40
1
 40
1
 40
1
 10
4.243675
 20
10.037262
 30
0.0
 10
4.209316
 20
9.953413
 30
0.0
 10
4.168640
 20
9.944298
 30
0.0
 10
4.137815
 20
9.895078
 30
0.0
  0
SPLINE
  5
288
100
AcDbEntity
  8
0
 62
5
100
AcDbSpline
 70
8
 71
3
 72
8
 73
4
 74
0
 40
0
 40
0
 40
0
 40
0
 40
1
 40
1
 40
1
 40
1
 10
4.137815
 20
9.895078
 30
0.0
 10
3.952797
 20
9.474228
 30
0.0
 10
3.913045
 20
9.038788
 30
0.0
 10
3.860581
 20
8.592594
 30
0.0
  0
SPLINE
  5
289
100
AcDbEntity
  8
0
 62
5
100
AcDbSpline
 70
8
 71
3
 72
8
 73
4
 74
0
 40
0
 40
0
 40
0
 40
0
 40
1
 40
1
 40
1
 40
1
 10
3.860581
 20
8.592594
 30
0.0
 10
3.825210
 20
8.365292
 30
0.0
 10
3.760703
 20
8.145865
 30
0.0
 10
3.778892
 20
7.918732
 30
0.0
  0
SPLINE
  5
28a
100
AcDbEntity
  8
0
 62
5
100
AcDbSpline
 70
8
 71
3
 72
8
 73
4
 74
0
 40
0
 40
0
 40
0
 40
0
 40
1
 40
1
 40
1
 40
1
 10
3.778892
 20
7.918732
 30
0.0
 10
3.789865
 20
7.699474
 30
0.0
 10
3.767117
 20
7.413300
 30
0.0
 10
3.825210
 20
7.202791
 30
0.0
  0
SPLINE
  5
28b
100
AcDbEntity
  8
0
 62
5
100
AcDbSpline
 70
8
 71
3
 72
8
 73
4
 74
0
 40
0
 40
0
 40
0
 40
0
 40
1
 40
1
 40
1
 40
1
 10
3.825210
 20
7.202791
 30
0.0
 10
3.869002
 20
7.202791
 30
0.0
 10
3.906053
 20
7.363178
 30
0.0
 10
3.907739
 20
7.472906
 30
0.0
  0
SPLINE
  5
28c
100
AcDbEntity
  8
0
 62
5
100
AcDbSpline
 70
8
 71
3
 72
8
 73
4
 74
0
 40
0
 40
0
 40
0
 40
0
 40
1
 40
1
 40
1
 40
1
 10
3.907739
 20
7.472906
 30
0.0
 10
3.936385
 20
7.843294
 30
0.0
 10
3.968375
 20
8.205272
 30
0.0
 10
3.995659
 20
8.570891
 30
0.0
  0
SPLINE
  5
28d
100
AcDbEntity
  8
0
 62
5
100
AcDbSpline
 70
8
 71
3
 72
8
 73
4
 74
0
 40
0
 40
0
 40
0
 40
0
 40
1
 40
1
 40
1
 40
1
 10
3.995659
 20
8.570891
 30
0.0
 10
4.047028
 20
8.832455
 30
0.0
 10
4.093011
 20
9.101300
 30
0.0
 10
4.147247
 20
9.362496
 30
0.0
  0
SPLINE
  5
28e
100
AcDbEntity
  8
0
 62
5
100
AcDbSpline
 70
8
 71
3
 72
8
 73
4
 74
0
 40
0
 40
0
 40
0
 40
0
 40
1
 40
1
 40
1
 40
1
 10
4.147247
 20
9.362496
 30
0.0
 10
4.209568
 20
9.528358
 30
0.0
 10
4.265949
 20
9.707541
 30
0.0
 10
4.331128
 20
9.876141
 30
0.0
  0
SPLINE
  5
28f
100
AcDbEntity
  8
0
 62
5
100
AcDbSpline
 70
8
 71
3
 72
8
 73
4
 74
0
 40
0
 40
0
 40
0
 40
0
 40
1
 40
1
 40
1
 40
1
 10
4.331128
 20
9.876141
 30
0.0
 10
4.363802
 20
9.959989
 30
0.0
 10
4.510169
 20
10.121844
 30
0.0
 10
4.539206
 20
10.170866
 30
0.0
  0
SPLINE
  5
290
100
AcDbEntity
  8
0
 62
5
100
AcDbSpline
 70
8
 71
3
 72
8
 73
4
 74
0
 40
0
 40
0
 40
0
 40
0
 40
1
 40
1
 40
1
 40
1
 10
4.539206
 20
10.170866
 30
0.0
 10
4.562850
 20
10.254714
 30
0.0
 10
4.536440
 20
10.254714
 30
0.0
 10
4.463664
 20
10.254714
 30
0.0
  0
LWPOLYLINE
  5
291
100
AcDbEntity
  8
0
 62
5
100
AcDbPolyline
 90
2
 70
0
 10
4.847850
 20
9.755096
 30
0.0
 10
4.847599
 20
9.740166
 30
0.0
  0
LWPOLYLINE
  5
292
100
AcDbEntity
  8
0
 62
5
100
AcDbPolyline
 90
2
 70
0
 10
4.463664
 20
10.254714
 30
0.0
 10
4.463349
 20
10.206764
 30
0.0
  0
ENDSEC
  0
SECTION
  2
OBJECTS
  0
DICTIONARY
  5
C
330
0
100
AcDbDictionary
  3
ACAD_GROUP
350
D
  3
ACAD_MLINESTYLE
350
17
  0
DICTIONARY
  5
D
330
C
100
AcDbDictionary
  0
DICTIONARY
  5
1A
330
C
100
AcDbDictionary
  0
DICTIONARY
  5
17
330
C
100
AcDbDictionary
  3
STANDARD
350
18
  0
DICTIONARY
  5
19
330
C
100
AcDbDictionary
  0
ENDSEC
  0
EOF
