  0
SECTION
  2
HEADER
  9
$ACADVER
  1
AC1009
  9
$LIMMIN
 10
0.000000
 20
0.000000
  9
$LIMMAX
 10
18.473444
 20
18.541737
  0
ENDSEC
  0
SECTION
  2
TABLES
  0
TABLE
  2
LTYPE
 70
     4
  0
LTYPE
  2
CONTINUOUS
 70
     0
  3
Solid line
 72
     65
 73
     0
 40
0.000000
  0
LTYPE
  2
HIDDEN
 70
     0
  3
 _ _ _ _ _ _ _ _ _ _ _
 72
     65
 73
     2
 40
0.375000
 49
0.250000
 49
-0.125000
  0
LTYPE
  2
DASHED
 70
     0
  3
 ___ ___ ___ ___ ___ ___ ___ 
 72
     65
 73
     2
 40
0.750000
 49
0.500000
 49
-0.250000
  0
LTYPE
  2
CENTER
 70
     0
  3
___ _ ___ _ ___ _ ___
 72
     65
 73
     4
 40
2.000000
 49
1.250000
 49
-0.250000
 49
0.250000
 49
-0.250000
  0
LTYPE
  2
BORDER
 70
     0
  3
___ ___ . ___ ___ . ___ ___
 72
     65
 73
     6
 40
1.750000
 49
0.500000
 49
-0.250000
 49
0.500000
 49
-0.250000
 49
0.000000
 49
-0.250000
  0
LTYPE
  2
DOT
 70
     0
  3
.................
 72
     65
 73
     2
 40
0.250000
 49
0.000000
 49
-0.250000
  0
LTYPE
  2
DASHDOT
 70
     0
  3
__ . __ . __ . __
 72
     65
 73
     4
 40
1.000000
 49
0.500000
 49
-0.250000
 49
0.000000
 49
-0.250000
  0
LTYPE
  2
DIVIDE
 70
     0
  3
___ .. ___ .. ___ .. ___
 72
     65
 73
     6
 40
1.250000
 49
0.500000
 49
-0.250000
 49
0.000000
 49
-0.250000
 49
0.000000
 49
-0.250000
  0
ENDTAB
  0
TABLE
  2
LAYER
 70
     8
  0
LAYER
  2
BLACK
 70
     0
 62
     1
  6
CONTINUOUS
  0
LAYER
  2
WHITE
 70
     0
 62
     7
  6
CONTINUOUS
  0
LAYER
  2
RED
 70
     0
 62
     1
  6
CONTINUOUS
  0
LAYER
  2
YELLOW
 70
     0
 62
     2
  6
CONTINUOUS
  0
LAYER
  2
GREEN
 70
     0
 62
     3
  6
CONTINUOUS
  0
LAYER
  2
CYAN
 70
     0
 62
     4
  6
CONTINUOUS
  0
LAYER
  2
BLUE
 70
     0
 62
     5
  6
CONTINUOUS
  0
LAYER
  2
MAGENTA
 70
     0
 62
     6
  6
CONTINUOUS
  0
ENDTAB
  0
TABLE
  2
APPID
 70
     1
  0
APPID
  2
TC_BEND_DATA
 70
     0
  0
ENDTAB
  0
ENDSEC
  0
SECTION
  2
BLOCKS
  0
ENDSEC
  0
SECTION
  2
ENTITIES
  0
LINE
  8
WHITE
 10
1.418811
 20
18.541737
 30
0.000000
 11
17.054633
 21
18.541737
 31
0.000000
  6
CONTINUOUS
  0
ARC
  8
WHITE
 10
17.054633
 20
17.122926
 30
0.000000
 40
1.418811
 50
0.000000
 51
90.000000
  6
CONTINUOUS
  0
LINE
  8
WHITE
 10
18.473444
 20
17.122926
 30
0.000000
 11
18.473444
 21
1.418811
 31
0.000000
  6
CONTINUOUS
  0
ARC
  8
WHITE
 10
17.054633
 20
1.418811
 30
0.000000
 40
1.418811
 50
-90.000000
 51
0.000000
  6
CONTINUOUS
  0
LINE
  8
WHITE
 10
17.054633
 20
0.000000
 30
0.000000
 11
1.418811
 21
0.000000
 31
0.000000
  6
CONTINUOUS
  0
ARC
  8
WHITE
 10
1.418811
 20
1.418811
 30
0.000000
 40
1.418811
 50
180.000000
 51
270.000000
  6
CONTINUOUS
  0
LINE
  8
WHITE
 10
0.000000
 20
1.418811
 30
0.000000
 11
0.000000
 21
17.122926
 31
0.000000
  6
CONTINUOUS
  0
ARC
  8
WHITE
 10
1.418811
 20
17.122926
 30
0.000000
 40
1.418811
 50
90.000003
 51
180.000000
  6
CONTINUOUS
  0
LINE
  8
WHITE
 10
1.418811
 20
16.413520
 30
0.000000
 11
1.418811
 21
11.824778
 31
0.000000
  6
CONTINUOUS
  0
ARC
  8
WHITE
 10
1.834125
 20
11.455260
 30
0.000000
 40
0.555903
 50
82.175043
 51
138.339533
  6
CONTINUOUS
  0
ARC
  8
WHITE
 10
1.814780
 20
12.377678
 30
0.000000
 40
0.383647
 50
-75.658569
 51
-11.136856
  6
CONTINUOUS
  0
ARC
  8
WHITE
 10
2.797932
 20
12.041097
 30
0.000000
 40
0.661072
 50
136.011825
 51
156.606129
  6
CONTINUOUS
  0
ARC
  8
WHITE
 10
4.088439
 20
10.705654
 30
0.000000
 40
2.517876
 50
125.518351
 51
134.542591
  6
CONTINUOUS
  0
ARC
  8
WHITE
 10
2.570890
 20
12.820212
 30
0.000000
 40
0.085129
 50
-49.969545
 51
-24.444231
  6
CONTINUOUS
  0
LINE
  8
WHITE
 10
2.648388
 20
12.784985
 30
0.000000
 11
2.685567
 21
12.866781
 31
0.000000
  6
CONTINUOUS
  0
ARC
  8
WHITE
 10
2.763066
 20
12.831554
 30
0.000000
 40
0.085129
 50
94.763404
 51
155.555768
  6
CONTINUOUS
  0
LINE
  8
WHITE
 10
2.755997
 20
12.916389
 30
0.000000
 11
2.874977
 21
12.926304
 31
0.000000
  6
CONTINUOUS
  0
ARC
  8
WHITE
 10
2.867907
 20
13.011138
 30
0.000000
 40
0.085128
 50
-85.236080
 51
-23.099217
  6
CONTINUOUS
  0
ARC
  8
WHITE
 10
3.350435
 20
12.881254
 30
0.000000
 40
0.415581
 50
107.948032
 51
166.575104
  6
CONTINUOUS
  0
ARC
  8
WHITE
 10
3.214642
 20
13.361388
 30
0.000000
 40
0.085128
 50
-84.790054
 51
-47.121746
  6
CONTINUOUS
  0
LINE
  8
WHITE
 10
3.272567
 20
13.299005
 30
0.000000
 11
3.367675
 21
13.387318
 31
0.000000
  6
CONTINUOUS
  0
ARC
  8
WHITE
 10
3.425600
 20
13.324936
 30
0.000000
 40
0.085129
 50
109.082974
 51
132.878407
  6
CONTINUOUS
  0
ARC
  8
WHITE
 10
3.785569
 20
11.889711
 30
0.000000
 40
1.564501
 50
93.608591
 51
104.351801
  6
CONTINUOUS
  0
ARC
  8
WHITE
 10
3.682929
 20
13.238329
 30
0.000000
 40
0.212822
 50
49.608960
 51
88.877352
  6
CONTINUOUS
  0
ARC
  8
WHITE
 10
0.820885
 20
10.486905
 30
0.000000
 40
4.181901
 50
32.817519
 51
44.162582
  6
CONTINUOUS
  0
ARC
  8
WHITE
 10
4.502221
 20
12.885448
 30
0.000000
 40
0.212822
 50
-141.632739
 51
-87.181489
  6
CONTINUOUS
  0
ARC
  8
WHITE
 10
4.528856
 20
12.383295
 30
0.000000
 40
0.290040
 50
52.703212
 51
93.195882
  6
CONTINUOUS
  0
ARC
  8
WHITE
 10
4.747217
 20
12.670739
 30
0.000000
 40
0.070941
 50
-126.919424
 51
-68.830668
  6
CONTINUOUS
  0
ARC
  8
WHITE
 10
4.818667
 20
12.483772
 30
0.000000
 40
0.129215
 50
34.201146
 51
110.774214
  6
CONTINUOUS
  0
LINE
  8
WHITE
 10
4.925537
 20
12.556404
 30
0.000000
 11
5.158501
 21
12.223598
 31
0.000000
  6
CONTINUOUS
  0
ARC
  8
WHITE
 10
5.216618
 20
12.264280
 30
0.000000
 40
0.070940
 50
-145.008027
 51
-73.610718
  6
CONTINUOUS
  0
LINE
  8
WHITE
 10
5.236634
 20
12.196222
 30
0.000000
 11
5.308496
 21
12.217358
 31
0.000000
  6
CONTINUOUS
  0
ARC
  8
WHITE
 10
5.328513
 20
12.149300
 30
0.000000
 40
0.070941
 50
47.489286
 51
106.389608
  6
CONTINUOUS
  0
ARC
  8
WHITE
 10
8.186589
 20
14.791179
 30
0.000000
 40
3.821365
 50
-137.338975
 51
-121.524300
  6
CONTINUOUS
  0
ARC
  8
WHITE
 10
6.234582
 20
11.605385
 30
0.000000
 40
0.085128
 50
-122.734568
 51
8.252237
  6
CONTINUOUS
  0
ARC
  8
WHITE
 10
7.905812
 20
11.847772
 30
0.000000
 40
1.603587
 50
138.230229
 51
188.252363
  6
CONTINUOUS
  0
ARC
  8
WHITE
 10
6.648401
 20
12.974938
 30
0.000000
 40
0.085128
 50
-43.830418
 51
13.279282
  6
CONTINUOUS
  0
ARC
  8
WHITE
 10
8.606387
 20
13.437038
 30
0.000000
 40
1.926647
 50
165.372835
 51
193.279279
  6
CONTINUOUS
  0
ARC
  8
WHITE
 10
4.127751
 20
15.161803
 30
0.000000
 40
2.892830
 50
-25.342915
 51
16.164725
  6
CONTINUOUS
  0
ARC
  8
WHITE
 10
6.933468
 20
15.975067
 30
0.000000
 40
0.028376
 50
133.600441
 51
196.164784
  6
CONTINUOUS
  0
LINE
  8
WHITE
 10
6.913899
 20
15.995616
 30
0.000000
 11
6.940073
 21
16.020541
 31
0.000000
  6
CONTINUOUS
  0
ARC
  8
WHITE
 10
6.959642
 20
15.999992
 30
0.000000
 40
0.028376
 50
14.248973
 51
133.600101
  6
CONTINUOUS
  0
ARC
  8
WHITE
 10
8.913356
 20
16.496110
 30
0.000000
 40
1.987345
 50
-165.751729
 51
-143.324611
  6
CONTINUOUS
  0
ARC
  8
WHITE
 10
7.370648
 20
15.347241
 30
0.000000
 40
0.063847
 50
-143.324207
 51
-20.126251
  6
CONTINUOUS
  0
ARC
  8
WHITE
 10
9.924989
 20
14.411147
 30
0.000000
 40
2.656618
 50
128.685490
 51
159.873528
  6
CONTINUOUS
  0
ARC
  8
WHITE
 10
8.302173
 20
16.437804
 30
0.000000
 40
0.060300
 50
-33.043616
 51
128.685180
  6
CONTINUOUS
  0
ARC
  8
WHITE
 10
15.009535
 20
12.074876
 30
0.000000
 40
7.941192
 50
146.957271
 51
160.840858
  6
CONTINUOUS
  0
ARC
  8
WHITE
 10
7.538357
 20
14.670643
 30
0.000000
 40
0.031923
 50
160.840861
 51
303.689714
  6
CONTINUOUS
  0
LINE
  8
WHITE
 10
7.556064
 20
14.644081
 30
0.000000
 11
7.811627
 21
14.814452
 31
0.000000
  6
CONTINUOUS
  0
ARC
  8
WHITE
 10
7.835237
 20
14.779036
 30
0.000000
 40
0.042564
 50
-31.072172
 51
123.689274
  6
CONTINUOUS
  0
LINE
  8
WHITE
 10
7.871694
 20
14.757068
 30
0.000000
 11
7.397675
 21
13.970394
 31
0.000000
  6
CONTINUOUS
  0
ARC
  8
WHITE
 10
8.010300
 20
13.505338
 30
0.000000
 40
0.769147
 50
142.797153
 51
196.553274
  6
CONTINUOUS
  0
ARC
  8
WHITE
 10
7.313831
 20
13.298330
 30
0.000000
 40
0.042564
 50
-163.446757
 51
-59.309178
  6
CONTINUOUS
  0
ARC
  8
WHITE
 10
5.231288
 20
16.807081
 30
0.000000
 40
4.122799
 50
-59.309664
 51
-51.786894
  6
CONTINUOUS
  0
ARC
  8
WHITE
 10
3.853930
 20
16.287994
 30
0.000000
 40
4.777701
 50
-34.706010
 51
-22.773453
  6
CONTINUOUS
  0
ARC
  8
WHITE
 10
11.942255
 20
12.916885
 30
0.000000
 40
3.985061
 50
133.461405
 51
157.551367
  6
CONTINUOUS
  0
ARC
  8
WHITE
 10
9.230347
 20
15.778498
 30
0.000000
 40
0.042564
 50
-30.408567
 51
133.461081
  6
CONTINUOUS
  0
ARC
  8
WHITE
 10
6.853497
 20
17.041842
 30
0.000000
 40
2.734265
 50
-41.374544
 51
-28.029164
  6
CONTINUOUS
  0
ARC
  8
WHITE
 10
9.124441
 20
15.061113
 30
0.000000
 40
0.279470
 50
141.639797
 51
181.415596
  6
CONTINUOUS
  0
ARC
  8
WHITE
 10
8.887609
 20
15.055260
 30
0.000000
 40
0.042564
 50
-178.584453
 51
-60.291381
  6
CONTINUOUS
  0
ARC
  8
WHITE
 10
9.866736
 20
13.339266
 30
0.000000
 40
1.933120
 50
113.106794
 51
119.708605
  6
CONTINUOUS
  0
ARC
  8
WHITE
 10
9.124795
 20
15.078151
 30
0.000000
 40
0.042564
 50
-22.797056
 51
113.106786
  6
CONTINUOUS
  0
ARC
  8
WHITE
 10
8.032175
 20
15.537384
 30
0.000000
 40
1.227771
 50
-58.122594
 51
-22.797222
  6
CONTINUOUS
  0
ARC
  8
WHITE
 10
9.688413
 20
13.655985
 30
0.000000
 40
1.311239
 50
140.230450
 51
187.319318
  6
CONTINUOUS
  0
LINE
  8
WHITE
 10
8.387859
 20
13.488934
 30
0.000000
 11
8.479019
 21
13.513744
 31
0.000000
  6
CONTINUOUS
  0
ARC
  8
WHITE
 10
12.304447
 20
12.541938
 30
0.000000
 40
3.946937
 50
161.058019
 51
165.746183
  6
CONTINUOUS
  0
ARC
  8
WHITE
 10
8.614860
 20
13.808186
 30
0.000000
 40
0.046111
 50
-3.223443
 51
161.057641
  6
CONTINUOUS
  0
ARC
  8
WHITE
 10
12.833768
 20
13.570532
 30
0.000000
 40
4.179485
 50
176.775883
 51
180.197541
  6
CONTINUOUS
  0
ARC
  8
WHITE
 10
8.169902
 20
17.429805
 30
0.000000
 40
3.903853
 50
-82.872151
 51
-70.885442
  6
CONTINUOUS
  0
LINE
  8
WHITE
 10
9.448250
 20
13.741188
 30
0.000000
 11
9.436165
 21
14.079443
 31
0.000000
  6
CONTINUOUS
  0
ARC
  8
WHITE
 10
9.468068
 20
14.080583
 30
0.000000
 40
0.031923
 50
33.154465
 51
182.046330
  6
CONTINUOUS
  0
ARC
  8
WHITE
 10
8.487904
 20
13.440290
 30
0.000000
 40
1.202690
 50
18.967554
 51
33.154595
  6
CONTINUOUS
  0
ARC
  8
WHITE
 10
9.274601
 20
14.392952
 30
0.000000
 40
0.662227
 50
-58.024168
 51
-36.083278
  6
CONTINUOUS
  0
ARC
  8
WHITE
 10
9.637794
 20
14.128270
 30
0.000000
 40
0.212822
 50
-36.083268
 51
-16.820833
  6
CONTINUOUS
  0
ARC
  8
WHITE
 10
13.561174
 20
12.942175
 30
0.000000
 40
3.885926
 50
146.808810
 51
163.179167
  6
CONTINUOUS
  0
ARC
  8
WHITE
 10
10.344862
 20
15.046164
 30
0.000000
 40
0.042564
 50
-14.931416
 51
146.808106
  6
CONTINUOUS
  0
LINE
  8
WHITE
 10
10.385990
 20
15.035196
 30
0.000000
 11
10.281835
 21
14.644613
 31
0.000000
  6
CONTINUOUS
  0
ARC
  8
WHITE
 10
10.871957
 20
14.433569
 30
0.000000
 40
0.626724
 50
160.321606
 51
200.587981
  6
CONTINUOUS
  0
ARC
  8
WHITE
 10
10.370259
 20
14.238453
 30
0.000000
 40
0.088676
 50
-163.444054
 51
-104.128498
  6
CONTINUOUS
  0
ARC
  8
WHITE
 10
10.453228
 20
14.782927
 30
0.000000
 40
0.639088
 50
-99.421371
 51
-66.854808
  6
CONTINUOUS
  0
ARC
  8
WHITE
 10
4.621228
 20
14.870785
 30
0.000000
 40
6.120593
 50
-6.336438
 51
11.344741
  6
CONTINUOUS
  0
LINE
  8
WHITE
 10
10.622232
 20
16.074778
 30
0.000000
 11
10.645705
 21
16.127279
 31
0.000000
  6
CONTINUOUS
  0
ARC
  8
WHITE
 10
10.723420
 20
16.092533
 30
0.000000
 40
0.085129
 50
11.644637
 51
155.910556
  6
CONTINUOUS
  0
ARC
  8
WHITE
 10
12.262282
 20
16.409663
 30
0.000000
 40
1.486071
 50
-168.355465
 51
-148.752069
  6
CONTINUOUS
  0
ARC
  8
WHITE
 10
11.064574
 20
15.682935
 30
0.000000
 40
0.085129
 50
-148.752084
 51
-33.690062
  6
CONTINUOUS
  0
LINE
  8
WHITE
 10
11.135405
 20
15.635714
 30
0.000000
 11
11.242250
 21
15.795982
 31
0.000000
  6
CONTINUOUS
  0
LINE
  8
WHITE
 10
11.242250
 20
15.795982
 30
0.000000
 11
11.317449
 21
15.771153
 31
0.000000
  6
CONTINUOUS
  0
LINE
  8
WHITE
 10
11.317449
 20
15.771153
 30
0.000000
 11
11.309645
 21
15.553366
 31
0.000000
  6
CONTINUOUS
  0
LINE
  8
WHITE
 10
11.309645
 20
15.553366
 30
0.000000
 11
11.208910
 21
15.294433
 31
0.000000
  6
CONTINUOUS
  0
ARC
  8
WHITE
 10
14.675947
 20
14.577018
 30
0.000000
 40
3.540484
 50
168.309105
 51
182.241097
  6
CONTINUOUS
  0
LINE
  8
WHITE
 10
11.138171
 20
14.438569
 30
0.000000
 11
11.469778
 21
14.628283
 31
0.000000
  6
CONTINUOUS
  0
ARC
  8
WHITE
 10
11.497770
 20
14.595594
 30
0.000000
 40
0.043036
 50
-39.443493
 51
130.573285
  6
CONTINUOUS
  0
ARC
  8
WHITE
 10
8.855480
 20
17.133426
 30
0.000000
 40
3.706555
 50
-51.667865
 51
-43.793729
  6
CONTINUOUS
  0
ARC
  8
WHITE
 10
24.529805
 20
15.341167
 30
0.000000
 40
13.421865
 50
-175.233602
 51
-173.389347
  6
CONTINUOUS
  0
ARC
  8
WHITE
 10
11.373349
 20
13.816434
 30
0.000000
 40
0.177351
 50
-173.389342
 51
-41.252912
  6
CONTINUOUS
  0
ARC
  8
WHITE
 10
14.868084
 20
10.751320
 30
0.000000
 40
4.471099
 50
132.368793
 51
138.747094
  6
CONTINUOUS
  0
ARC
  8
WHITE
 10
10.169256
 20
14.823463
 30
0.000000
 40
1.852785
 50
-24.515525
 51
7.813950
  6
CONTINUOUS
  0
ARC
  8
WHITE
 10
5.149897
 20
14.073049
 30
0.000000
 40
6.927831
 50
8.318697
 51
17.290040
  6
CONTINUOUS
  0
ARC
  8
WHITE
 10
11.833852
 20
16.147784
 30
0.000000
 40
0.070940
 50
33.779749
 51
192.804472
  6
CONTINUOUS
  0
ARC
  8
WHITE
 10
17.923266
 20
18.617403
 30
0.000000
 40
6.501698
 50
-158.051346
 51
-152.059918
  6
CONTINUOUS
  0
ARC
  8
WHITE
 10
12.217022
 20
15.590990
 30
0.000000
 40
0.042564
 50
-152.059918
 51
-83.871817
  6
CONTINUOUS
  0
ARC
  8
WHITE
 10
12.210106
 20
15.655398
 30
0.000000
 40
0.107343
 50
-83.871454
 51
-14.871088
  6
CONTINUOUS
  0
ARC
  8
WHITE
 10
12.422606
 20
15.550805
 30
0.000000
 40
0.133277
 50
109.728752
 51
144.684956
  6
CONTINUOUS
  0
ARC
  8
WHITE
 10
12.391984
 20
15.636193
 30
0.000000
 40
0.042564
 50
8.016369
 51
109.728814
  6
CONTINUOUS
  0
ARC
  8
WHITE
 10
11.981410
 20
15.578371
 30
0.000000
 40
0.457190
 50
-31.784330
 51
8.016391
  6
CONTINUOUS
  0
ARC
  8
WHITE
 10
16.002217
 20
14.626793
 30
0.000000
 40
3.701068
 50
168.927952
 51
186.260011
  6
CONTINUOUS
  0
ARC
  8
WHITE
 10
12.566577
 20
14.280008
 30
0.000000
 40
0.249897
 50
-166.866579
 51
-102.801768
  6
CONTINUOUS
  0
ARC
  8
WHITE
 10
12.084280
 20
15.058954
 30
0.000000
 40
1.108169
 50
-67.340587
 51
-30.629755
  6
CONTINUOUS
  0
ARC
  8
WHITE
 10
12.875459
 20
14.565683
 30
0.000000
 40
0.177351
 50
-23.714824
 51
1.195624
  6
CONTINUOUS
  0
ARC
  8
WHITE
 10
22.342233
 20
14.763254
 30
0.000000
 40
9.291484
 50
174.221732
 51
181.195589
  6
CONTINUOUS
  0
ARC
  8
WHITE
 10
13.117090
 20
15.689388
 30
0.000000
 40
0.021282
 50
3.567958
 51
154.020437
  6
CONTINUOUS
  0
ARC
  8
WHITE
 10
16.069742
 20
15.873496
 30
0.000000
 40
2.937104
 50
-176.432034
 51
-163.089881
  6
CONTINUOUS
  0
ARC
  8
WHITE
 10
13.780410
 20
15.198880
 30
0.000000
 40
0.550911
 50
-160.962236
 51
-129.666111
  6
CONTINUOUS
  0
ARC
  8
WHITE
 10
13.442342
 20
14.791184
 30
0.000000
 40
0.021282
 50
-129.666158
 51
-45.425341
  6
CONTINUOUS
  0
ARC
  8
WHITE
 10
12.512867
 20
15.734515
 30
0.000000
 40
1.345592
 50
-45.423944
 51
-4.851118
  6
CONTINUOUS
  0
ARC
  8
WHITE
 10
13.909285
 20
15.624239
 30
0.000000
 40
0.055757
 50
18.980458
 51
183.615540
  6
CONTINUOUS
  0
ARC
  8
WHITE
 10
13.209179
 20
15.419670
 30
0.000000
 40
0.785081
 50
2.808768
 51
16.479318
  6
CONTINUOUS
  0
ARC
  8
WHITE
 10
12.464021
 20
15.477798
 30
0.000000
 40
1.529422
 50
-33.009010
 51
-0.736394
  6
CONTINUOUS
  0
ARC
  8
WHITE
 10
10.668914
 20
17.269307
 30
0.000000
 40
4.044873
 50
-70.151403
 51
-40.458280
  6
CONTINUOUS
  0
ARC
  8
WHITE
 10
7.830456
 20
19.849748
 30
0.000000
 40
7.649056
 50
-72.209733
 51
-56.589419
  6
CONTINUOUS
  0
ARC
  8
WHITE
 10
10.297545
 20
12.161170
 30
0.000000
 40
0.425643
 50
107.789993
 51
188.441723
  6
CONTINUOUS
  0
ARC
  8
WHITE
 10
10.933067
 20
12.189262
 30
0.000000
 40
1.060429
 50
-175.100051
 51
-150.483182
  6
CONTINUOUS
  0
LINE
  8
WHITE
 10
10.010270
 20
11.666810
 30
0.000000
 11
10.023094
 21
11.591768
 31
0.000000
  6
CONTINUOUS
  0
ARC
  8
WHITE
 10
10.065050
 20
11.598937
 30
0.000000
 40
0.042564
 50
-170.302656
 51
-116.453626
  6
CONTINUOUS
  0
ARC
  8
WHITE
 10
9.674613
 20
10.814254
 30
0.000000
 40
0.833888
 50
17.680170
 51
63.546297
  6
CONTINUOUS
  0
LINE
  8
WHITE
 10
10.469114
 20
11.067509
 30
0.000000
 11
11.592816
 21
10.159181
 31
0.000000
  6
CONTINUOUS
  0
ARC
  8
WHITE
 10
11.455718
 20
9.896948
 30
0.000000
 40
0.295909
 50
-32.536803
 51
62.398952
  6
CONTINUOUS
  0
ARC
  8
WHITE
 10
10.527747
 20
10.664596
 30
0.000000
 40
1.498437
 50
-49.704369
 51
-38.207494
  6
CONTINUOUS
  0
ARC
  8
WHITE
 10
11.480776
 20
9.540650
 30
0.000000
 40
0.024830
 50
-116.564318
 51
-49.705647
  6
CONTINUOUS
  0
LINE
  8
WHITE
 10
11.469672
 20
9.518442
 30
0.000000
 11
11.386803
 21
9.559874
 31
0.000000
  6
CONTINUOUS
  0
ARC
  8
WHITE
 10
11.476631
 20
12.526802
 30
0.000000
 40
2.968287
 50
-103.796550
 51
-91.734184
  6
CONTINUOUS
  0
LINE
  8
WHITE
 10
10.768769
 20
9.644154
 30
0.000000
 11
10.723006
 21
9.612214
 31
0.000000
  6
CONTINUOUS
  0
ARC
  8
WHITE
 10
11.335363
 20
11.794511
 30
0.000000
 40
2.266583
 50
-105.674211
 51
-89.856466
  6
CONTINUOUS
  0
LINE
  8
WHITE
 10
11.341041
 20
9.527935
 30
0.000000
 11
11.406089
 21
9.495412
 31
0.000000
  6
CONTINUOUS
  0
ARC
  8
WHITE
 10
11.394985
 20
9.473204
 30
0.000000
 40
0.024829
 50
-53.948377
 51
63.435682
  6
CONTINUOUS
  0
ARC
  8
WHITE
 10
10.527747
 20
10.664596
 30
0.000000
 40
1.498436
 50
-64.955621
 51
-53.948369
  6
CONTINUOUS
  0
ARC
  8
WHITE
 10
11.036795
 20
9.790904
 30
0.000000
 40
0.499815
 50
-121.165907
 51
-75.485028
  6
CONTINUOUS
  0
ARC
  8
WHITE
 10
10.172583
 20
4.792076
 30
0.000000
 40
4.611085
 50
82.453854
 51
93.996139
  6
CONTINUOUS
  0
LINE
  8
WHITE
 10
9.851240
 20
9.391950
 30
0.000000
 11
9.635706
 21
8.539181
 31
0.000000
  6
CONTINUOUS
  0
ARC
  8
WHITE
 10
3.768987
 20
9.698398
 30
0.000000
 40
5.980148
 50
-41.336049
 51
-11.177212
  6
CONTINUOUS
  0
ARC
  8
WHITE
 10
9.150269
 20
5.004515
 30
0.000000
 40
1.160952
 50
140.134867
 51
191.316085
  6
CONTINUOUS
  0
ARC
  8
WHITE
 10
7.942324
 20
4.762791
 30
0.000000
 40
0.070941
 50
-66.393964
 51
11.315881
  6
CONTINUOUS
  0
ARC
  8
WHITE
 10
8.223640
 20
4.119069
 30
0.000000
 40
0.631567
 50
113.606064
 51
157.302431
  6
CONTINUOUS
  0
LINE
  8
WHITE
 10
7.640986
 20
4.362770
 30
0.000000
 11
8.584609
 21
4.362770
 31
0.000000
  6
CONTINUOUS
  0
ARC
  8
WHITE
 10
8.584609
 20
4.447899
 30
0.000000
 40
0.085129
 50
-89.999999
 51
-12.129858
  6
CONTINUOUS
  0
ARC
  8
WHITE
 10
9.250060
 20
4.304875
 30
0.000000
 40
0.595518
 50
147.078698
 51
167.870108
  6
CONTINUOUS
  0
ARC
  8
WHITE
 10
8.729330
 20
4.642025
 30
0.000000
 40
0.024829
 50
-32.921234
 51
27.130970
  6
CONTINUOUS
  0
LINE
  8
WHITE
 10
8.751427
 20
4.653348
 30
0.000000
 11
8.681255
 21
4.790295
 31
0.000000
  6
CONTINUOUS
  0
ARC
  8
WHITE
 10
8.706509
 20
4.803236
 30
0.000000
 40
0.028376
 50
138.608178
 51
207.130695
  6
CONTINUOUS
  0
LINE
  8
WHITE
 10
8.685222
 20
4.821998
 30
0.000000
 11
8.774692
 21
4.923513
 31
0.000000
  6
CONTINUOUS
  0
ARC
  8
WHITE
 10
8.753404
 20
4.942276
 30
0.000000
 40
0.028376
 50
-41.391592
 51
13.420630
  6
CONTINUOUS
  0
LINE
  8
WHITE
 10
8.781005
 20
4.948862
 30
0.000000
 11
8.754626
 21
5.059407
 31
0.000000
  6
CONTINUOUS
  0
LINE
  8
WHITE
 10
8.754626
 20
5.059407
 30
0.000000
 11
8.815736
 21
5.162972
 31
0.000000
  6
CONTINUOUS
  0
ARC
  8
WHITE
 10
8.803516
 20
5.170183
 30
0.000000
 40
0.014188
 50
-30.543685
 51
51.596517
  6
CONTINUOUS
  0
LINE
  8
WHITE
 10
8.812330
 20
5.181301
 30
0.000000
 11
8.774088
 21
5.211615
 31
0.000000
  6
CONTINUOUS
  0
ARC
  8
WHITE
 10
8.782902
 20
5.222734
 30
0.000000
 40
0.014188
 50
146.303977
 51
231.596520
  6
CONTINUOUS
  0
LINE
  8
WHITE
 10
8.771097
 20
5.230605
 30
0.000000
 11
8.830943
 21
5.320353
 31
0.000000
  6
CONTINUOUS
  0
ARC
  8
WHITE
 10
8.792579
 20
5.345935
 30
0.000000
 40
0.046111
 50
-33.695963
 51
3.684434
  6
CONTINUOUS
  0
LINE
  8
WHITE
 10
8.838595
 20
5.348898
 30
0.000000
 11
8.834728
 21
5.408963
 31
0.000000
  6
CONTINUOUS
  0
ARC
  8
WHITE
 10
8.870125
 20
5.411242
 30
0.000000
 40
0.035470
 50
140.275125
 51
183.683800
  6
CONTINUOUS
  0
LINE
  8
WHITE
 10
8.842844
 20
5.433911
 30
0.000000
 11
8.875674
 21
5.473420
 31
0.000000
  6
CONTINUOUS
  0
LINE
  8
WHITE
 10
8.875674
 20
5.473420
 30
0.000000
 11
8.909851
 21
5.535444
 31
0.000000
  6
CONTINUOUS
  0
ARC
  8
WHITE
 10
8.878785
 20
5.552563
 30
0.000000
 40
0.035471
 50
-28.856378
 51
0.000000
  6
CONTINUOUS
  0
LINE
  8
WHITE
 10
8.914255
 20
5.552563
 30
0.000000
 11
8.914255
 21
5.607297
 31
0.000000
  6
CONTINUOUS
  0
ARC
  8
WHITE
 10
8.939084
 20
5.607297
 30
0.000000
 40
0.024829
 50
138.575538
 51
180.000005
  6
CONTINUOUS
  0
LINE
  8
WHITE
 10
8.920467
 20
5.623725
 30
0.000000
 11
9.013486
 21
5.729144
 31
0.000000
  6
CONTINUOUS
  0
ARC
  8
WHITE
 10
9.032104
 20
5.712716
 30
0.000000
 40
0.024829
 50
36.469259
 51
138.575536
  6
CONTINUOUS
  0
LINE
  8
WHITE
 10
9.052071
 20
5.727474
 30
0.000000
 11
9.163856
 21
5.576237
 31
0.000000
  6
CONTINUOUS
  0
ARC
  8
WHITE
 10
9.143889
 20
5.561478
 30
0.000000
 40
0.024829
 50
-4.085426
 51
36.469259
  6
CONTINUOUS
  0
LINE
  8
WHITE
 10
9.168655
 20
5.559709
 30
0.000000
 11
9.161338
 21
5.457276
 31
0.000000
  6
CONTINUOUS
  0
LINE
  8
WHITE
 10
9.161338
 20
5.457276
 30
0.000000
 11
9.209210
 21
5.392936
 31
0.000000
  6
CONTINUOUS
  0
ARC
  8
WHITE
 10
9.189290
 20
5.378115
 30
0.000000
 40
0.024829
 50
-51.428857
 51
36.651193
  6
CONTINUOUS
  0
LINE
  8
WHITE
 10
9.204770
 20
5.358702
 30
0.000000
 11
9.177778
 21
5.337177
 31
0.000000
  6
CONTINUOUS
  0
ARC
  8
WHITE
 10
9.186624
 20
5.326085
 30
0.000000
 40
0.014188
 50
128.571126
 51
214.206932
  6
CONTINUOUS
  0
LINE
  8
WHITE
 10
9.174890
 20
5.318108
 30
0.000000
 11
9.238648
 21
5.224317
 31
0.000000
  6
CONTINUOUS
  0
ARC
  8
WHITE
 10
9.218114
 20
5.210358
 30
0.000000
 40
0.024829
 50
-58.717877
 51
34.206929
  6
CONTINUOUS
  0
LINE
  8
WHITE
 10
9.231006
 20
5.189138
 30
0.000000
 11
9.208146
 21
5.175248
 31
0.000000
  6
CONTINUOUS
  0
ARC
  8
WHITE
 10
9.215514
 20
5.163123
 30
0.000000
 40
0.014188
 50
121.282835
 51
204.937109
  6
CONTINUOUS
  0
LINE
  8
WHITE
 10
9.202648
 20
5.157141
 30
0.000000
 11
9.249081
 21
5.057279
 31
0.000000
  6
CONTINUOUS
  0
LINE
  8
WHITE
 10
9.249081
 20
5.057279
 30
0.000000
 11
9.228372
 21
4.931020
 31
0.000000
  6
CONTINUOUS
  0
ARC
  8
WHITE
 10
9.242373
 20
4.928722
 30
0.000000
 40
0.014188
 50
170.682737
 51
229.048812
  6
CONTINUOUS
  0
LINE
  8
WHITE
 10
9.233074
 20
4.918007
 30
0.000000
 11
9.302935
 21
4.857385
 31
0.000000
  6
CONTINUOUS
  0
ARC
  8
WHITE
 10
9.286661
 20
4.838631
 30
0.000000
 40
0.024830
 50
-7.053747
 51
49.048918
  6
CONTINUOUS
  0
LINE
  8
WHITE
 10
9.311303
 20
4.835582
 30
0.000000
 11
9.297419
 21
4.723391
 31
0.000000
  6
CONTINUOUS
  0
ARC
  8
WHITE
 10
9.322061
 20
4.720342
 30
0.000000
 40
0.024829
 50
172.945799
 51
321.245600
  6
CONTINUOUS
  0
LINE
  8
WHITE
 10
9.341424
 20
4.704799
 30
0.000000
 11
9.380697
 21
4.753725
 31
0.000000
  6
CONTINUOUS
  0
LINE
  8
WHITE
 10
9.380697
 20
4.753725
 30
0.000000
 11
9.445281
 21
4.989640
 31
0.000000
  6
CONTINUOUS
  0
ARC
  8
WHITE
 10
9.431597
 20
4.993386
 30
0.000000
 40
0.014188
 50
-15.307888
 51
65.074999
  6
CONTINUOUS
  0
LINE
  8
WHITE
 10
9.437576
 20
5.006253
 30
0.000000
 11
9.416968
 21
5.015829
 31
0.000000
  6
CONTINUOUS
  0
ARC
  8
WHITE
 10
9.422947
 20
5.028695
 30
0.000000
 40
0.014188
 50
144.986857
 51
245.074728
  6
CONTINUOUS
  0
LINE
  8
WHITE
 10
9.411327
 20
5.036836
 30
0.000000
 11
9.475384
 21
5.128276
 31
0.000000
  6
CONTINUOUS
  0
ARC
  8
WHITE
 10
9.463764
 20
5.136417
 30
0.000000
 40
0.014188
 50
-35.012577
 51
56.688719
  6
CONTINUOUS
  0
LINE
  8
WHITE
 10
9.471556
 20
5.148274
 30
0.000000
 11
9.455187
 21
5.159030
 31
0.000000
  6
CONTINUOUS
  0
ARC
  8
WHITE
 10
9.462978
 20
5.170887
 30
0.000000
 40
0.014188
 50
155.442951
 51
236.688701
  6
CONTINUOUS
  0
LINE
  8
WHITE
 10
9.450074
 20
5.176784
 30
0.000000
 11
9.487949
 21
5.259678
 31
0.000000
  6
CONTINUOUS
  0
ARC
  8
WHITE
 10
9.475044
 20
5.265575
 30
0.000000
 40
0.014188
 50
-24.556133
 51
55.198464
  6
CONTINUOUS
  0
LINE
  8
WHITE
 10
9.483142
 20
5.277225
 30
0.000000
 11
9.467870
 21
5.287839
 31
0.000000
  6
CONTINUOUS
  0
ARC
  8
WHITE
 10
9.475968
 20
5.299490
 30
0.000000
 40
0.014188
 50
152.459886
 51
235.198467
  6
CONTINUOUS
  0
LINE
  8
WHITE
 10
9.463388
 20
5.306050
 30
0.000000
 11
9.555192
 21
5.482098
 31
0.000000
  6
CONTINUOUS
  0
ARC
  8
WHITE
 10
9.567773
 20
5.475537
 30
0.000000
 40
0.014188
 50
29.615658
 51
152.457351
  6
CONTINUOUS
  0
LINE
  8
WHITE
 10
9.580107
 20
5.482549
 30
0.000000
 11
9.678009
 21
5.309796
 31
0.000000
  6
CONTINUOUS
  0
ARC
  8
WHITE
 10
9.665666
 20
5.302801
 30
0.000000
 40
0.014188
 50
-53.198477
 51
29.541276
  6
CONTINUOUS
  0
LINE
  8
WHITE
 10
9.674165
 20
5.291440
 30
0.000000
 11
9.659273
 21
5.280299
 31
0.000000
  6
CONTINUOUS
  0
ARC
  8
WHITE
 10
9.667773
 20
5.268939
 30
0.000000
 40
0.014188
 50
126.801535
 51
206.556119
  6
CONTINUOUS
  0
LINE
  8
WHITE
 10
9.655081
 20
5.262595
 30
0.000000
 11
9.695826
 21
5.181073
 31
0.000000
  6
CONTINUOUS
  0
ARC
  8
WHITE
 10
9.683135
 20
5.174730
 30
0.000000
 40
0.014188
 50
-54.686446
 51
26.554802
  6
CONTINUOUS
  0
LINE
  8
WHITE
 10
9.691336
 20
5.163153
 30
0.000000
 11
9.675353
 21
5.151831
 31
0.000000
  6
CONTINUOUS
  0
ARC
  8
WHITE
 10
9.683554
 20
5.140253
 30
0.000000
 40
0.014188
 50
125.311278
 51
217.011412
  6
CONTINUOUS
  0
LINE
  8
WHITE
 10
9.672224
 20
5.131712
 30
0.000000
 11
9.739433
 21
5.042564
 31
0.000000
  6
CONTINUOUS
  0
ARC
  8
WHITE
 10
9.728104
 20
5.034022
 30
0.000000
 40
0.014188
 50
-63.073663
 51
37.013138
  6
CONTINUOUS
  0
LINE
  8
WHITE
 10
9.734529
 20
5.021372
 30
0.000000
 11
9.714268
 21
5.011082
 31
0.000000
  6
CONTINUOUS
  0
ARC
  8
WHITE
 10
9.720693
 20
4.998432
 30
0.000000
 40
0.014188
 50
116.925269
 51
197.310615
  6
CONTINUOUS
  0
LINE
  8
WHITE
 10
9.707147
 20
4.994211
 30
0.000000
 11
9.737279
 21
4.897527
 31
0.000000
  6
CONTINUOUS
  0
ARC
  8
WHITE
 10
9.754212
 20
4.902804
 30
0.000000
 40
0.017735
 50
-162.689176
 51
-15.310397
  6
CONTINUOUS
  0
LINE
  8
WHITE
 10
9.771317
 20
4.898122
 30
0.000000
 11
9.822250
 21
5.084171
 31
0.000000
  6
CONTINUOUS
  0
ARC
  8
WHITE
 10
9.808565
 20
5.087917
 30
0.000000
 40
0.014189
 50
-15.309892
 51
65.074737
  6
CONTINUOUS
  0
LINE
  8
WHITE
 10
9.814544
 20
5.100784
 30
0.000000
 11
9.793937
 21
5.110361
 31
0.000000
  6
CONTINUOUS
  0
ARC
  8
WHITE
 10
9.799916
 20
5.123227
 30
0.000000
 40
0.014188
 50
144.987431
 51
245.074728
  6
CONTINUOUS
  0
LINE
  8
WHITE
 10
9.788296
 20
5.131368
 30
0.000000
 11
9.852352
 21
5.222808
 31
0.000000
  6
CONTINUOUS
  0
ARC
  8
WHITE
 10
9.840732
 20
5.230948
 30
0.000000
 40
0.014188
 50
-35.012581
 51
56.688139
  6
CONTINUOUS
  0
LINE
  8
WHITE
 10
9.848524
 20
5.242805
 30
0.000000
 11
9.832156
 21
5.253562
 31
0.000000
  6
CONTINUOUS
  0
ARC
  8
WHITE
 10
9.839947
 20
5.265419
 30
0.000000
 40
0.014188
 50
155.443879
 51
236.688706
  6
CONTINUOUS
  0
LINE
  8
WHITE
 10
9.827043
 20
5.271316
 30
0.000000
 11
9.864918
 21
5.354210
 31
0.000000
  6
CONTINUOUS
  0
ARC
  8
WHITE
 10
9.852013
 20
5.360106
 30
0.000000
 40
0.014188
 50
-24.557047
 51
55.199029
  6
CONTINUOUS
  0
LINE
  8
WHITE
 10
9.860110
 20
5.371756
 30
0.000000
 11
9.844839
 21
5.382371
 31
0.000000
  6
CONTINUOUS
  0
ARC
  8
WHITE
 10
9.852937
 20
5.394022
 30
0.000000
 40
0.014188
 50
152.461212
 51
235.198463
  6
CONTINUOUS
  0
LINE
  8
WHITE
 10
9.840356
 20
5.400582
 30
0.000000
 11
9.932161
 21
5.576630
 31
0.000000
  6
CONTINUOUS
  0
ARC
  8
WHITE
 10
9.944742
 20
5.570069
 30
0.000000
 40
0.014188
 50
29.541274
 51
152.458673
  6
CONTINUOUS
  0
LINE
  8
WHITE
 10
9.957085
 20
5.577065
 30
0.000000
 11
10.054978
 21
5.404328
 31
0.000000
  6
CONTINUOUS
  0
ARC
  8
WHITE
 10
10.042634
 20
5.397332
 30
0.000000
 40
0.014188
 50
-53.197711
 51
29.541276
  6
CONTINUOUS
  0
LINE
  8
WHITE
 10
10.051133
 20
5.385972
 30
0.000000
 11
10.036241
 21
5.374831
 31
0.000000
  6
CONTINUOUS
  0
ARC
  8
WHITE
 10
10.044741
 20
5.363470
 30
0.000000
 40
0.014188
 50
126.802289
 51
206.557365
  6
CONTINUOUS
  0
LINE
  8
WHITE
 10
10.032050
 20
5.357127
 30
0.000000
 11
10.072795
 21
5.275605
 31
0.000000
  6
CONTINUOUS
  0
ARC
  8
WHITE
 10
10.060104
 20
5.269262
 30
0.000000
 40
0.014188
 50
-54.690441
 51
26.554804
  6
CONTINUOUS
  0
LINE
  8
WHITE
 10
10.068304
 20
5.257684
 30
0.000000
 11
10.052322
 21
5.246362
 31
0.000000
  6
CONTINUOUS
  0
ARC
  8
WHITE
 10
10.060522
 20
5.234785
 30
0.000000
 40
0.014188
 50
125.311214
 51
217.013138
  6
CONTINUOUS
  0
LINE
  8
WHITE
 10
10.049193
 20
5.226244
 30
0.000000
 11
10.116402
 21
5.137095
 31
0.000000
  6
CONTINUOUS
  0
ARC
  8
WHITE
 10
10.105073
 20
5.128554
 30
0.000000
 40
0.014188
 50
-63.074740
 51
37.010849
  6
CONTINUOUS
  0
LINE
  8
WHITE
 10
10.111498
 20
5.115904
 30
0.000000
 11
10.091237
 21
5.105614
 31
0.000000
  6
CONTINUOUS
  0
ARC
  8
WHITE
 10
10.097662
 20
5.092964
 30
0.000000
 40
0.014188
 50
116.925273
 51
197.309762
  6
CONTINUOUS
  0
LINE
  8
WHITE
 10
10.084116
 20
5.088742
 30
0.000000
 11
10.146443
 21
4.888756
 31
0.000000
  6
CONTINUOUS
  0
ARC
  8
WHITE
 10
10.187080
 20
4.901420
 30
0.000000
 40
0.042564
 50
-162.690295
 51
-15.309474
  6
CONTINUOUS
  0
LINE
  8
WHITE
 10
10.228134
 20
4.890182
 30
0.000000
 11
10.296901
 21
5.141380
 31
0.000000
  6
CONTINUOUS
  0
ARC
  8
WHITE
 10
10.283217
 20
5.145126
 30
0.000000
 40
0.014188
 50
-15.307884
 51
65.077601
  6
CONTINUOUS
  0
LINE
  8
WHITE
 10
10.289196
 20
5.157993
 30
0.000000
 11
10.268588
 21
5.167569
 31
0.000000
  6
CONTINUOUS
  0
ARC
  8
WHITE
 10
10.274568
 20
5.180436
 30
0.000000
 40
0.014188
 50
144.988499
 51
245.074728
  6
CONTINUOUS
  0
LINE
  8
WHITE
 10
10.262947
 20
5.188576
 30
0.000000
 11
10.327004
 21
5.280017
 31
0.000000
  6
CONTINUOUS
  0
ARC
  8
WHITE
 10
10.315383
 20
5.288157
 30
0.000000
 40
0.014188
 50
-35.011501
 51
56.688136
  6
CONTINUOUS
  0
LINE
  8
WHITE
 10
10.323175
 20
5.300014
 30
0.000000
 11
10.306807
 21
5.310771
 31
0.000000
  6
CONTINUOUS
  0
ARC
  8
WHITE
 10
10.314599
 20
5.322628
 30
0.000000
 40
0.014188
 50
155.442953
 51
236.688139
  6
CONTINUOUS
  0
LINE
  8
WHITE
 10
10.301694
 20
5.328524
 30
0.000000
 11
10.339569
 21
5.411419
 31
0.000000
  6
CONTINUOUS
  0
ARC
  8
WHITE
 10
10.326664
 20
5.417315
 30
0.000000
 40
0.014188
 50
-24.556133
 51
55.198467
  6
CONTINUOUS
  0
LINE
  8
WHITE
 10
10.334762
 20
5.428965
 30
0.000000
 11
10.319490
 21
5.439580
 31
0.000000
  6
CONTINUOUS
  0
ARC
  8
WHITE
 10
10.327588
 20
5.451230
 30
0.000000
 40
0.014188
 50
152.461212
 51
235.198467
  6
CONTINUOUS
  0
LINE
  8
WHITE
 10
10.315007
 20
5.457790
 30
0.000000
 11
10.406812
 21
5.633838
 31
0.000000
  6
CONTINUOUS
  0
ARC
  8
WHITE
 10
10.419393
 20
5.627278
 30
0.000000
 40
0.014188
 50
29.541276
 51
152.458673
  6
CONTINUOUS
  0
LINE
  8
WHITE
 10
10.431737
 20
5.634273
 30
0.000000
 11
10.529630
 21
5.461537
 31
0.000000
  6
CONTINUOUS
  0
ARC
  8
WHITE
 10
10.517286
 20
5.454541
 30
0.000000
 40
0.014188
 50
-53.200007
 51
29.541276
  6
CONTINUOUS
  0
LINE
  8
WHITE
 10
10.525785
 20
5.443181
 30
0.000000
 11
10.510893
 21
5.432039
 31
0.000000
  6
CONTINUOUS
  0
ARC
  8
WHITE
 10
10.519392
 20
5.420679
 30
0.000000
 40
0.014188
 50
126.802289
 51
206.556122
  6
CONTINUOUS
  0
LINE
  8
WHITE
 10
10.506701
 20
5.414336
 30
0.000000
 11
10.547446
 21
5.332814
 31
0.000000
  6
CONTINUOUS
  0
ARC
  8
WHITE
 10
10.534755
 20
5.326471
 30
0.000000
 40
0.014188
 50
-54.688715
 51
26.556122
  6
CONTINUOUS
  0
LINE
  8
WHITE
 10
10.542956
 20
5.314893
 30
0.000000
 11
10.526973
 21
5.303571
 31
0.000000
  6
CONTINUOUS
  0
ARC
  8
WHITE
 10
10.535174
 20
5.291994
 30
0.000000
 40
0.014188
 50
125.311282
 51
217.013138
  6
CONTINUOUS
  0
LINE
  8
WHITE
 10
10.523844
 20
5.283452
 30
0.000000
 11
10.591054
 21
5.194304
 31
0.000000
  6
CONTINUOUS
  0
ARC
  8
WHITE
 10
10.579724
 20
5.185763
 30
0.000000
 40
0.014188
 50
-63.076215
 51
37.012571
  6
CONTINUOUS
  0
LINE
  8
WHITE
 10
10.586149
 20
5.173113
 30
0.000000
 11
10.565888
 21
5.162823
 31
0.000000
  6
CONTINUOUS
  0
ARC
  8
WHITE
 10
10.572313
 20
5.150173
 30
0.000000
 40
0.014188
 50
116.926337
 51
197.310615
  6
CONTINUOUS
  0
LINE
  8
WHITE
 10
10.558768
 20
5.145951
 30
0.000000
 11
10.705427
 21
4.675371
 31
0.000000
  6
CONTINUOUS
  0
ARC
  8
WHITE
 10
10.746064
 20
4.688035
 30
0.000000
 40
0.042564
 50
-162.690297
 51
-15.310050
  6
CONTINUOUS
  0
LINE
  8
WHITE
 10
10.787117
 20
4.676797
 30
0.000000
 11
10.856622
 21
4.930688
 31
0.000000
  6
CONTINUOUS
  0
ARC
  8
WHITE
 10
10.842938
 20
4.934433
 30
0.000000
 40
0.014188
 50
-15.307884
 51
65.077601
  6
CONTINUOUS
  0
LINE
  8
WHITE
 10
10.848917
 20
4.947300
 30
0.000000
 11
10.828309
 21
4.956877
 31
0.000000
  6
CONTINUOUS
  0
ARC
  8
WHITE
 10
10.834289
 20
4.969743
 30
0.000000
 40
0.014188
 50
144.986154
 51
245.073793
  6
CONTINUOUS
  0
LINE
  8
WHITE
 10
10.822668
 20
4.977884
 30
0.000000
 11
10.886725
 21
5.069324
 31
0.000000
  6
CONTINUOUS
  0
ARC
  8
WHITE
 10
10.875104
 20
5.077464
 30
0.000000
 40
0.014188
 50
-35.012577
 51
56.688715
  6
CONTINUOUS
  0
LINE
  8
WHITE
 10
10.882896
 20
5.089321
 30
0.000000
 11
10.866528
 21
5.100078
 31
0.000000
  6
CONTINUOUS
  0
ARC
  8
WHITE
 10
10.874320
 20
5.111935
 30
0.000000
 40
0.014188
 50
155.442953
 51
236.688139
  6
CONTINUOUS
  0
LINE
  8
WHITE
 10
10.861415
 20
5.117832
 30
0.000000
 11
10.899290
 21
5.200726
 31
0.000000
  6
CONTINUOUS
  0
ARC
  8
WHITE
 10
10.886385
 20
5.206622
 30
0.000000
 40
0.014188
 50
-24.556130
 51
55.196678
  6
CONTINUOUS
  0
LINE
  8
WHITE
 10
10.894483
 20
5.218272
 30
0.000000
 11
10.879211
 21
5.228887
 31
0.000000
  6
CONTINUOUS
  0
ARC
  8
WHITE
 10
10.887309
 20
5.240538
 30
0.000000
 40
0.014188
 50
152.461215
 51
235.198467
  6
CONTINUOUS
  0
LINE
  8
WHITE
 10
10.874728
 20
5.247097
 30
0.000000
 11
10.966534
 21
5.423145
 31
0.000000
  6
CONTINUOUS
  0
ARC
  8
WHITE
 10
10.979114
 20
5.416585
 30
0.000000
 40
0.014188
 50
29.540976
 51
152.459031
  6
CONTINUOUS
  0
LINE
  8
WHITE
 10
10.991458
 20
5.423580
 30
0.000000
 11
11.089351
 21
5.250844
 31
0.000000
  6
CONTINUOUS
  0
ARC
  8
WHITE
 10
11.077007
 20
5.243848
 30
0.000000
 40
0.014188
 50
-53.200007
 51
29.541276
  6
CONTINUOUS
  0
LINE
  8
WHITE
 10
11.085506
 20
5.232488
 30
0.000000
 11
11.070614
 21
5.221347
 31
0.000000
  6
CONTINUOUS
  0
ARC
  8
WHITE
 10
11.079113
 20
5.209986
 30
0.000000
 40
0.014188
 50
126.801532
 51
206.557365
  6
CONTINUOUS
  0
LINE
  8
WHITE
 10
11.066422
 20
5.203643
 30
0.000000
 11
11.107167
 21
5.122121
 31
0.000000
  6
CONTINUOUS
  0
ARC
  8
WHITE
 10
11.094476
 20
5.115778
 30
0.000000
 40
0.014188
 50
-54.688788
 51
26.557365
  6
CONTINUOUS
  0
LINE
  8
WHITE
 10
11.102677
 20
5.104200
 30
0.000000
 11
11.086694
 21
5.092879
 31
0.000000
  6
CONTINUOUS
  0
ARC
  8
WHITE
 10
11.094895
 20
5.081301
 30
0.000000
 40
0.014188
 50
125.311278
 51
217.013138
  6
CONTINUOUS
  0
LINE
  8
WHITE
 10
11.083565
 20
5.072760
 30
0.000000
 11
11.150775
 21
4.983611
 31
0.000000
  6
CONTINUOUS
  0
ARC
  8
WHITE
 10
11.139445
 20
4.975070
 30
0.000000
 40
0.014188
 50
-63.074737
 51
37.012571
  6
CONTINUOUS
  0
LINE
  8
WHITE
 10
11.145870
 20
4.962420
 30
0.000000
 11
11.125609
 21
4.952130
 31
0.000000
  6
CONTINUOUS
  0
ARC
  8
WHITE
 10
11.132034
 20
4.939480
 30
0.000000
 40
0.014188
 50
116.926343
 51
197.310055
  6
CONTINUOUS
  0
LINE
  8
WHITE
 10
11.118489
 20
4.935258
 30
0.000000
 11
11.189797
 21
4.706455
 31
0.000000
  6
CONTINUOUS
  0
ARC
  8
WHITE
 10
11.220274
 20
4.715953
 30
0.000000
 40
0.031923
 50
-162.689945
 51
-15.310049
  6
CONTINUOUS
  0
LINE
  8
WHITE
 10
11.251065
 20
4.707524
 30
0.000000
 11
11.286522
 21
4.837046
 31
0.000000
  6
CONTINUOUS
  0
ARC
  8
WHITE
 10
11.272838
 20
4.840792
 30
0.000000
 40
0.014188
 50
-15.307884
 51
65.077601
  6
CONTINUOUS
  0
LINE
  8
WHITE
 10
11.278817
 20
4.853659
 30
0.000000
 11
11.258209
 21
4.863235
 31
0.000000
  6
CONTINUOUS
  0
ARC
  8
WHITE
 10
11.264189
 20
4.876102
 30
0.000000
 40
0.014188
 50
144.986154
 51
245.073793
  6
CONTINUOUS
  0
LINE
  8
WHITE
 10
11.252568
 20
4.884243
 30
0.000000
 11
11.316625
 21
4.975682
 31
0.000000
  6
CONTINUOUS
  0
ARC
  8
WHITE
 10
11.305004
 20
4.983823
 30
0.000000
 40
0.014188
 50
-35.011501
 51
56.688715
  6
CONTINUOUS
  0
LINE
  8
WHITE
 10
11.312796
 20
4.995680
 30
0.000000
 11
11.296428
 21
5.006436
 31
0.000000
  6
CONTINUOUS
  0
ARC
  8
WHITE
 10
11.304220
 20
5.018293
 30
0.000000
 40
0.014188
 50
155.442953
 51
236.688139
  6
CONTINUOUS
  0
LINE
  8
WHITE
 10
11.291315
 20
5.024190
 30
0.000000
 11
11.329190
 21
5.107084
 31
0.000000
  6
CONTINUOUS
  0
ARC
  8
WHITE
 10
11.316285
 20
5.112981
 30
0.000000
 40
0.014188
 50
-24.557045
 51
55.196675
  6
CONTINUOUS
  0
LINE
  8
WHITE
 10
11.324383
 20
5.124631
 30
0.000000
 11
11.309111
 21
5.135245
 31
0.000000
  6
CONTINUOUS
  0
ARC
  8
WHITE
 10
11.317209
 20
5.146896
 30
0.000000
 40
0.014188
 50
152.458673
 51
235.198312
  6
CONTINUOUS
  0
LINE
  8
WHITE
 10
11.304628
 20
5.153457
 30
0.000000
 11
11.396433
 21
5.329504
 31
0.000000
  6
CONTINUOUS
  0
ARC
  8
WHITE
 10
11.409014
 20
5.322943
 30
0.000000
 40
0.014188
 50
29.541276
 51
152.458673
  6
CONTINUOUS
  0
LINE
  8
WHITE
 10
11.421358
 20
5.329939
 30
0.000000
 11
11.519251
 21
5.157202
 31
0.000000
  6
CONTINUOUS
  0
ARC
  8
WHITE
 10
11.506907
 20
5.150207
 30
0.000000
 40
0.014188
 50
-53.200004
 51
29.541274
  6
CONTINUOUS
  0
LINE
  8
WHITE
 10
11.515406
 20
5.138846
 30
0.000000
 11
11.500514
 21
5.127705
 31
0.000000
  6
CONTINUOUS
  0
ARC
  8
WHITE
 10
11.509013
 20
5.116345
 30
0.000000
 40
0.014188
 50
126.802289
 51
206.557365
  6
CONTINUOUS
  0
LINE
  8
WHITE
 10
11.496322
 20
5.110001
 30
0.000000
 11
11.537067
 21
5.028479
 31
0.000000
  6
CONTINUOUS
  0
ARC
  8
WHITE
 10
11.524376
 20
5.022136
 30
0.000000
 40
0.014188
 50
-54.688797
 51
26.556126
  6
CONTINUOUS
  0
LINE
  8
WHITE
 10
11.532577
 20
5.010558
 30
0.000000
 11
11.516594
 21
4.999237
 31
0.000000
  6
CONTINUOUS
  0
ARC
  8
WHITE
 10
11.524795
 20
4.987659
 30
0.000000
 40
0.014188
 50
125.311282
 51
217.013136
  6
CONTINUOUS
  0
LINE
  8
WHITE
 10
11.513465
 20
4.979118
 30
0.000000
 11
11.580674
 21
4.889970
 31
0.000000
  6
CONTINUOUS
  0
ARC
  8
WHITE
 10
11.569345
 20
4.881429
 30
0.000000
 40
0.014188
 50
-63.074737
 51
37.013132
  6
CONTINUOUS
  0
LINE
  8
WHITE
 10
11.575770
 20
4.868778
 30
0.000000
 11
11.555509
 21
4.858488
 31
0.000000
  6
CONTINUOUS
  0
ARC
  8
WHITE
 10
11.561934
 20
4.845838
 30
0.000000
 40
0.014188
 50
116.925273
 51
197.310614
  6
CONTINUOUS
  0
LINE
  8
WHITE
 10
11.548389
 20
4.841617
 30
0.000000
 11
11.589206
 21
4.710646
 31
0.000000
  6
CONTINUOUS
  0
ARC
  8
WHITE
 10
11.602752
 20
4.714867
 30
0.000000
 40
0.014188
 50
-162.689945
 51
-15.310649
  6
CONTINUOUS
  0
LINE
  8
WHITE
 10
11.616436
 20
4.711121
 30
0.000000
 11
11.682371
 21
4.951968
 31
0.000000
  6
CONTINUOUS
  0
ARC
  8
WHITE
 10
11.668686
 20
4.955715
 30
0.000000
 40
0.014188
 50
-15.310644
 51
65.074737
  6
CONTINUOUS
  0
LINE
  8
WHITE
 10
11.674666
 20
4.968581
 30
0.000000
 11
11.654058
 21
4.978158
 31
0.000000
  6
CONTINUOUS
  0
ARC
  8
WHITE
 10
11.660037
 20
4.991025
 30
0.000000
 40
0.014188
 50
144.986856
 51
245.074728
  6
CONTINUOUS
  0
LINE
  8
WHITE
 10
11.648417
 20
4.999165
 30
0.000000
 11
11.712473
 21
5.090605
 31
0.000000
  6
CONTINUOUS
  0
ARC
  8
WHITE
 10
11.700853
 20
5.098746
 30
0.000000
 40
0.014188
 50
-35.012577
 51
56.688719
  6
CONTINUOUS
  0
LINE
  8
WHITE
 10
11.708645
 20
5.110603
 30
0.000000
 11
11.692276
 21
5.121359
 31
0.000000
  6
CONTINUOUS
  0
ARC
  8
WHITE
 10
11.700068
 20
5.133216
 30
0.000000
 40
0.014188
 50
155.443876
 51
236.688704
  6
CONTINUOUS
  0
LINE
  8
WHITE
 10
11.687163
 20
5.139113
 30
0.000000
 11
11.725039
 21
5.222007
 31
0.000000
  6
CONTINUOUS
  0
ARC
  8
WHITE
 10
11.712134
 20
5.227903
 30
0.000000
 40
0.014188
 50
-24.556133
 51
55.198309
  6
CONTINUOUS
  0
LINE
  8
WHITE
 10
11.720232
 20
5.239554
 30
0.000000
 11
11.704959
 21
5.250168
 31
0.000000
  6
CONTINUOUS
  0
ARC
  8
WHITE
 10
11.713057
 20
5.261819
 30
0.000000
 40
0.014188
 50
152.459033
 51
235.198309
  6
CONTINUOUS
  0
LINE
  8
WHITE
 10
11.700477
 20
5.268379
 30
0.000000
 11
11.792282
 21
5.444427
 31
0.000000
  6
CONTINUOUS
  0
ARC
  8
WHITE
 10
11.804862
 20
5.437867
 30
0.000000
 40
0.014188
 50
29.540974
 51
152.459031
  6
CONTINUOUS
  0
LINE
  8
WHITE
 10
11.817206
 20
5.444862
 30
0.000000
 11
11.915099
 21
5.272125
 31
0.000000
  6
CONTINUOUS
  0
ARC
  8
WHITE
 10
11.902755
 20
5.265130
 30
0.000000
 40
0.014188
 50
-53.197711
 51
29.541274
  6
CONTINUOUS
  0
LINE
  8
WHITE
 10
11.911255
 20
5.253769
 30
0.000000
 11
11.896362
 21
5.242628
 31
0.000000
  6
CONTINUOUS
  0
ARC
  8
WHITE
 10
11.904861
 20
5.231268
 30
0.000000
 40
0.014188
 50
126.801535
 51
206.557363
  6
CONTINUOUS
  0
LINE
  8
WHITE
 10
11.892170
 20
5.224924
 30
0.000000
 11
11.932916
 21
5.143402
 31
0.000000
  6
CONTINUOUS
  0
ARC
  8
WHITE
 10
11.920224
 20
5.137059
 30
0.000000
 40
0.014188
 50
-54.688713
 51
26.556124
  6
CONTINUOUS
  0
LINE
  8
WHITE
 10
11.928425
 20
5.125481
 30
0.000000
 11
11.912442
 21
5.114160
 31
0.000000
  6
CONTINUOUS
  0
ARC
  8
WHITE
 10
11.920643
 20
5.102582
 30
0.000000
 40
0.014188
 50
125.311282
 51
217.013138
  6
CONTINUOUS
  0
LINE
  8
WHITE
 10
11.909314
 20
5.094041
 30
0.000000
 11
11.976523
 21
5.004892
 31
0.000000
  6
CONTINUOUS
  0
ARC
  8
WHITE
 10
11.965194
 20
4.996352
 30
0.000000
 40
0.014188
 50
-63.074740
 51
37.010849
  6
CONTINUOUS
  0
LINE
  8
WHITE
 10
11.971618
 20
4.983701
 30
0.000000
 11
11.951357
 21
4.973411
 31
0.000000
  6
CONTINUOUS
  0
ARC
  8
WHITE
 10
11.957782
 20
4.960761
 30
0.000000
 40
0.014188
 50
116.926341
 51
197.307881
  6
CONTINUOUS
  0
LINE
  8
WHITE
 10
11.944237
 20
4.956540
 30
0.000000
 11
12.021985
 21
4.707072
 31
0.000000
  6
CONTINUOUS
  0
ARC
  8
WHITE
 10
12.035530
 20
4.711294
 30
0.000000
 40
0.014188
 50
-162.689385
 51
-15.309888
  6
CONTINUOUS
  0
LINE
  8
WHITE
 10
12.049216
 20
4.707548
 30
0.000000
 11
12.102738
 21
4.903060
 31
0.000000
  6
CONTINUOUS
  0
ARC
  8
WHITE
 10
12.089054
 20
4.906807
 30
0.000000
 40
0.014188
 50
-15.310649
 51
65.073797
  6
CONTINUOUS
  0
LINE
  8
WHITE
 10
12.095033
 20
4.919673
 30
0.000000
 11
12.074426
 21
4.929250
 31
0.000000
  6
CONTINUOUS
  0
ARC
  8
WHITE
 10
12.080405
 20
4.942117
 30
0.000000
 40
0.014188
 50
144.988505
 51
245.074724
  6
CONTINUOUS
  0
LINE
  8
WHITE
 10
12.068785
 20
4.950257
 30
0.000000
 11
12.125938
 21
5.031842
 31
0.000000
  6
CONTINUOUS
  0
ARC
  8
WHITE
 10
12.111413
 20
5.042018
 30
0.000000
 40
0.017735
 50
-35.012578
 51
33.293943
  6
CONTINUOUS
  0
LINE
  8
WHITE
 10
12.126237
 20
5.051754
 30
0.000000
 11
12.112644
 21
5.072452
 31
0.000000
  6
CONTINUOUS
  0
ARC
  8
WHITE
 10
12.120436
 20
5.084309
 30
0.000000
 40
0.014188
 50
155.445559
 51
236.688701
  6
CONTINUOUS
  0
LINE
  8
WHITE
 10
12.107532
 20
5.090204
 30
0.000000
 11
12.145407
 21
5.173099
 31
0.000000
  6
CONTINUOUS
  0
ARC
  8
WHITE
 10
12.132501
 20
5.178995
 30
0.000000
 40
0.014188
 50
-24.553253
 51
55.198467
  6
CONTINUOUS
  0
LINE
  8
WHITE
 10
12.140599
 20
5.190645
 30
0.000000
 11
12.125328
 21
5.201261
 31
0.000000
  6
CONTINUOUS
  0
ARC
  8
WHITE
 10
12.133426
 20
5.212910
 30
0.000000
 40
0.014188
 50
152.458670
 51
235.196676
  6
CONTINUOUS
  0
LINE
  8
WHITE
 10
12.120845
 20
5.219471
 30
0.000000
 11
12.212649
 21
5.395519
 31
0.000000
  6
CONTINUOUS
  0
ARC
  8
WHITE
 10
12.225230
 20
5.388959
 30
0.000000
 40
0.014188
 50
29.540976
 51
152.459028
  6
CONTINUOUS
  0
LINE
  8
WHITE
 10
12.237574
 20
5.395954
 30
0.000000
 11
12.335467
 21
5.223217
 31
0.000000
  6
CONTINUOUS
  0
ARC
  8
WHITE
 10
12.323123
 20
5.216222
 30
0.000000
 40
0.014188
 50
-53.197715
 51
29.541276
  6
CONTINUOUS
  0
LINE
  8
WHITE
 10
12.331622
 20
5.204861
 30
0.000000
 11
12.316730
 21
5.193720
 31
0.000000
  6
CONTINUOUS
  0
ARC
  8
WHITE
 10
12.325230
 20
5.182359
 30
0.000000
 40
0.014188
 50
126.801535
 51
206.554802
  6
CONTINUOUS
  0
LINE
  8
WHITE
 10
12.312539
 20
5.176016
 30
0.000000
 11
12.353284
 21
5.094494
 31
0.000000
  6
CONTINUOUS
  0
ARC
  8
WHITE
 10
12.340593
 20
5.088151
 30
0.000000
 40
0.014188
 50
-54.688716
 51
26.554800
  6
CONTINUOUS
  0
LINE
  8
WHITE
 10
12.348794
 20
5.076574
 30
0.000000
 11
12.332810
 21
5.065252
 31
0.000000
  6
CONTINUOUS
  0
ARC
  8
WHITE
 10
12.341011
 20
5.053674
 30
0.000000
 40
0.014189
 50
125.311893
 51
217.010852
  6
CONTINUOUS
  0
LINE
  8
WHITE
 10
12.329682
 20
5.045133
 30
0.000000
 11
12.396890
 21
4.955984
 31
0.000000
  6
CONTINUOUS
  0
ARC
  8
WHITE
 10
12.385561
 20
4.947443
 30
0.000000
 40
0.014188
 50
-63.074737
 51
37.013136
  6
CONTINUOUS
  0
LINE
  8
WHITE
 10
12.391986
 20
4.934793
 30
0.000000
 11
12.371725
 21
4.924503
 31
0.000000
  6
CONTINUOUS
  0
ARC
  8
WHITE
 10
12.378150
 20
4.911853
 30
0.000000
 40
0.014188
 50
116.925273
 51
197.310614
  6
CONTINUOUS
  0
LINE
  8
WHITE
 10
12.364605
 20
4.907631
 30
0.000000
 11
12.446163
 21
4.645938
 31
0.000000
  6
CONTINUOUS
  0
ARC
  8
WHITE
 10
12.480027
 20
4.656492
 30
0.000000
 40
0.035470
 50
-162.689877
 51
-19.608206
  6
CONTINUOUS
  0
LINE
  8
WHITE
 10
12.513440
 20
4.644589
 30
0.000000
 11
12.542591
 21
4.726416
 31
0.000000
  6
CONTINUOUS
  0
LINE
  8
WHITE
 10
12.542591
 20
4.726416
 30
0.000000
 11
12.618500
 21
4.842758
 31
0.000000
  6
CONTINUOUS
  0
LINE
  8
WHITE
 10
12.618500
 20
4.842758
 30
0.000000
 11
12.580191
 21
4.864040
 31
0.000000
  6
CONTINUOUS
  0
LINE
  8
WHITE
 10
12.580191
 20
4.864040
 30
0.000000
 11
12.627020
 21
4.971572
 31
0.000000
  6
CONTINUOUS
  0
ARC
  8
WHITE
 10
12.612494
 20
4.981748
 30
0.000000
 40
0.017735
 50
-35.012297
 51
33.293942
  6
CONTINUOUS
  0
LINE
  8
WHITE
 10
12.627319
 20
4.991483
 30
0.000000
 11
12.613726
 21
5.012181
 31
0.000000
  6
CONTINUOUS
  0
ARC
  8
WHITE
 10
12.621518
 20
5.024038
 30
0.000000
 40
0.014188
 50
155.442953
 51
236.688139
  6
CONTINUOUS
  0
LINE
  8
WHITE
 10
12.608613
 20
5.029934
 30
0.000000
 11
12.646488
 21
5.112828
 31
0.000000
  6
CONTINUOUS
  0
ARC
  8
WHITE
 10
12.633584
 20
5.118725
 30
0.000000
 40
0.014188
 50
-24.556133
 51
55.198463
  6
CONTINUOUS
  0
LINE
  8
WHITE
 10
12.641681
 20
5.130375
 30
0.000000
 11
12.626409
 21
5.140989
 31
0.000000
  6
CONTINUOUS
  0
ARC
  8
WHITE
 10
12.634507
 20
5.152640
 30
0.000000
 40
0.014188
 50
152.459033
 51
235.198311
  6
CONTINUOUS
  0
LINE
  8
WHITE
 10
12.621927
 20
5.159200
 30
0.000000
 11
12.713732
 21
5.335248
 31
0.000000
  6
CONTINUOUS
  0
ARC
  8
WHITE
 10
12.726312
 20
5.328688
 30
0.000000
 40
0.014188
 50
29.540974
 51
152.459028
  6
CONTINUOUS
  0
LINE
  8
WHITE
 10
12.738656
 20
5.335683
 30
0.000000
 11
12.836549
 21
5.162946
 31
0.000000
  6
CONTINUOUS
  0
ARC
  8
WHITE
 10
12.824205
 20
5.155951
 30
0.000000
 40
0.014188
 50
-53.198474
 51
29.540974
  6
CONTINUOUS
  0
LINE
  8
WHITE
 10
12.832705
 20
5.144590
 30
0.000000
 11
12.817813
 21
5.133449
 31
0.000000
  6
CONTINUOUS
  0
ARC
  8
WHITE
 10
12.826312
 20
5.122089
 30
0.000000
 40
0.014188
 50
126.802289
 51
206.556122
  6
CONTINUOUS
  0
LINE
  8
WHITE
 10
12.813621
 20
5.115746
 30
0.000000
 11
12.850299
 21
5.042359
 31
0.000000
  6
CONTINUOUS
  0
ARC
  8
WHITE
 10
12.828089
 20
5.031259
 30
0.000000
 40
0.024830
 50
-56.729210
 51
26.556264
  6
CONTINUOUS
  0
ARC
  8
WHITE
 10
12.855331
 20
4.989740
 30
0.000000
 40
0.024829
 50
123.269834
 51
198.792665
  6
CONTINUOUS
  0
LINE
  8
WHITE
 10
12.831826
 20
4.981741
 30
0.000000
 11
12.872015
 21
4.863635
 31
0.000000
  6
CONTINUOUS
  0
ARC
  8
WHITE
 10
12.888804
 20
4.869348
 30
0.000000
 40
0.017735
 50
-161.206299
 51
-7.386268
  6
CONTINUOUS
  0
LINE
  8
WHITE
 10
12.906392
 20
4.867068
 30
0.000000
 11
12.914330
 21
4.928298
 31
0.000000
  6
CONTINUOUS
  0
LINE
  8
WHITE
 10
12.914330
 20
4.928298
 30
0.000000
 11
12.908654
 21
4.934683
 31
0.000000
  6
CONTINUOUS
  0
LINE
  8
WHITE
 10
12.908654
 20
4.934683
 30
0.000000
 11
12.900141
 21
4.942486
 31
0.000000
  6
CONTINUOUS
  0
LINE
  8
WHITE
 10
12.900141
 20
4.942486
 30
0.000000
 11
12.935612
 21
5.007042
 31
0.000000
  6
CONTINUOUS
  0
LINE
  8
WHITE
 10
12.935612
 20
5.007042
 30
0.000000
 11
12.924261
 21
5.016973
 31
0.000000
  6
CONTINUOUS
  0
LINE
  8
WHITE
 10
12.924261
 20
5.016973
 30
0.000000
 11
12.955200
 21
5.062278
 31
0.000000
  6
CONTINUOUS
  0
ARC
  8
WHITE
 10
12.963988
 20
5.056276
 30
0.000000
 40
0.010641
 50
34.330367
 51
145.670109
  6
CONTINUOUS
  0
LINE
  8
WHITE
 10
12.972775
 20
5.062278
 30
0.000000
 11
13.003715
 21
5.016973
 31
0.000000
  6
CONTINUOUS
  0
LINE
  8
WHITE
 10
13.003715
 20
5.016973
 30
0.000000
 11
12.992364
 21
5.007042
 31
0.000000
  6
CONTINUOUS
  0
LINE
  8
WHITE
 10
12.992364
 20
5.007042
 30
0.000000
 11
13.027835
 21
4.942486
 31
0.000000
  6
CONTINUOUS
  0
LINE
  8
WHITE
 10
13.027835
 20
4.942486
 30
0.000000
 11
13.013510
 21
4.929355
 31
0.000000
  6
CONTINUOUS
  0
LINE
  8
WHITE
 10
13.013510
 20
4.929355
 30
0.000000
 11
13.018915
 21
4.887660
 31
0.000000
  6
CONTINUOUS
  0
LINE
  8
WHITE
 10
13.018915
 20
4.887660
 30
0.000000
 11
13.060874
 21
4.857866
 31
0.000000
  6
CONTINUOUS
  0
LINE
  8
WHITE
 10
13.060874
 20
4.857866
 30
0.000000
 11
13.066142
 21
4.898503
 31
0.000000
  6
CONTINUOUS
  0
LINE
  8
WHITE
 10
13.066142
 20
4.898503
 30
0.000000
 11
13.060467
 21
4.904888
 31
0.000000
  6
CONTINUOUS
  0
LINE
  8
WHITE
 10
13.060467
 20
4.904888
 30
0.000000
 11
13.051954
 21
4.912691
 31
0.000000
  6
CONTINUOUS
  0
LINE
  8
WHITE
 10
13.051954
 20
4.912691
 30
0.000000
 11
13.087425
 21
4.977247
 31
0.000000
  6
CONTINUOUS
  0
LINE
  8
WHITE
 10
13.087425
 20
4.977247
 30
0.000000
 11
13.076073
 21
4.987178
 31
0.000000
  6
CONTINUOUS
  0
LINE
  8
WHITE
 10
13.076073
 20
4.987178
 30
0.000000
 11
13.107013
 21
5.032483
 31
0.000000
  6
CONTINUOUS
  0
ARC
  8
WHITE
 10
13.115801
 20
5.026482
 30
0.000000
 40
0.010641
 50
34.330367
 51
145.669633
  6
CONTINUOUS
  0
LINE
  8
WHITE
 10
13.124588
 20
5.032483
 30
0.000000
 11
13.155528
 21
4.987178
 31
0.000000
  6
CONTINUOUS
  0
LINE
  8
WHITE
 10
13.155528
 20
4.987178
 30
0.000000
 11
13.144177
 21
4.977247
 31
0.000000
  6
CONTINUOUS
  0
LINE
  8
WHITE
 10
13.144177
 20
4.977247
 30
0.000000
 11
13.179647
 21
4.912691
 31
0.000000
  6
CONTINUOUS
  0
LINE
  8
WHITE
 10
13.179647
 20
4.912691
 30
0.000000
 11
13.165323
 21
4.899561
 31
0.000000
  6
CONTINUOUS
  0
LINE
  8
WHITE
 10
13.165323
 20
4.899561
 30
0.000000
 11
13.169630
 21
4.866331
 31
0.000000
  6
CONTINUOUS
  0
ARC
  8
WHITE
 10
13.178072
 20
4.867425
 30
0.000000
 40
0.008513
 50
-172.614891
 51
-7.287507
  6
CONTINUOUS
  0
LINE
  8
WHITE
 10
13.186516
 20
4.866345
 30
0.000000
 11
13.193116
 21
4.917955
 31
0.000000
  6
CONTINUOUS
  0
LINE
  8
WHITE
 10
13.193116
 20
4.917955
 30
0.000000
 11
13.213691
 21
4.960519
 31
0.000000
  6
CONTINUOUS
  0
LINE
  8
WHITE
 10
13.213691
 20
4.960519
 30
0.000000
 11
13.211561
 21
5.005212
 31
0.000000
  6
CONTINUOUS
  0
LINE
  8
WHITE
 10
13.211561
 20
5.005212
 30
0.000000
 11
13.239938
 21
5.037845
 31
0.000000
  6
CONTINUOUS
  0
LINE
  8
WHITE
 10
13.239938
 20
5.037845
 30
0.000000
 11
13.227880
 21
5.049905
 31
0.000000
  6
CONTINUOUS
  0
LINE
  8
WHITE
 10
13.227880
 20
5.049905
 30
0.000000
 11
13.240240
 21
5.089833
 31
0.000000
  6
CONTINUOUS
  0
LINE
  8
WHITE
 10
13.240240
 20
5.089833
 30
0.000000
 11
13.234565
 21
5.096218
 31
0.000000
  6
CONTINUOUS
  0
LINE
  8
WHITE
 10
13.234565
 20
5.096218
 30
0.000000
 11
13.226052
 21
5.104021
 31
0.000000
  6
CONTINUOUS
  0
LINE
  8
WHITE
 10
13.226052
 20
5.104021
 30
0.000000
 11
13.261523
 21
5.168577
 31
0.000000
  6
CONTINUOUS
  0
LINE
  8
WHITE
 10
13.261523
 20
5.168577
 30
0.000000
 11
13.250171
 21
5.178508
 31
0.000000
  6
CONTINUOUS
  0
LINE
  8
WHITE
 10
13.250171
 20
5.178508
 30
0.000000
 11
13.281111
 21
5.223813
 31
0.000000
  6
CONTINUOUS
  0
ARC
  8
WHITE
 10
13.289899
 20
5.217812
 30
0.000000
 40
0.010641
 50
34.328908
 51
145.671092
  6
CONTINUOUS
  0
LINE
  8
WHITE
 10
13.298686
 20
5.223813
 30
0.000000
 11
13.329626
 21
5.178508
 31
0.000000
  6
CONTINUOUS
  0
LINE
  8
WHITE
 10
13.329626
 20
5.178508
 30
0.000000
 11
13.318275
 21
5.168577
 31
0.000000
  6
CONTINUOUS
  0
LINE
  8
WHITE
 10
13.318275
 20
5.168577
 30
0.000000
 11
13.353745
 21
5.104021
 31
0.000000
  6
CONTINUOUS
  0
LINE
  8
WHITE
 10
13.353745
 20
5.104021
 30
0.000000
 11
13.339421
 21
5.090891
 31
0.000000
  6
CONTINUOUS
  0
LINE
  8
WHITE
 10
13.339421
 20
5.090891
 30
0.000000
 11
13.344825
 21
5.049195
 31
0.000000
  6
CONTINUOUS
  0
LINE
  8
WHITE
 10
13.344825
 20
5.049195
 30
0.000000
 11
13.372703
 21
5.055222
 31
0.000000
  6
CONTINUOUS
  0
ARC
  8
WHITE
 10
13.370904
 20
5.063543
 30
0.000000
 40
0.008513
 50
-77.800986
 51
-7.386345
  6
CONTINUOUS
  0
LINE
  8
WHITE
 10
13.379347
 20
5.062448
 30
0.000000
 11
13.383843
 21
5.097129
 31
0.000000
  6
CONTINUOUS
  0
LINE
  8
WHITE
 10
13.383843
 20
5.097129
 30
0.000000
 11
13.369654
 21
5.111317
 31
0.000000
  6
CONTINUOUS
  0
LINE
  8
WHITE
 10
13.369654
 20
5.111317
 30
0.000000
 11
13.405125
 21
5.175873
 31
0.000000
  6
CONTINUOUS
  0
LINE
  8
WHITE
 10
13.405125
 20
5.175873
 30
0.000000
 11
13.393774
 21
5.185805
 31
0.000000
  6
CONTINUOUS
  0
LINE
  8
WHITE
 10
13.393774
 20
5.185805
 30
0.000000
 11
13.424714
 21
5.231109
 31
0.000000
  6
CONTINUOUS
  0
ARC
  8
WHITE
 10
13.433501
 20
5.225108
 30
0.000000
 40
0.010641
 50
34.328908
 51
145.671089
  6
CONTINUOUS
  0
LINE
  8
WHITE
 10
13.442288
 20
5.231109
 30
0.000000
 11
13.473228
 21
5.185805
 31
0.000000
  6
CONTINUOUS
  0
LINE
  8
WHITE
 10
13.473228
 20
5.185805
 30
0.000000
 11
13.461877
 21
5.175873
 31
0.000000
  6
CONTINUOUS
  0
LINE
  8
WHITE
 10
13.461877
 20
5.175873
 30
0.000000
 11
13.497348
 21
5.111317
 31
0.000000
  6
CONTINUOUS
  0
LINE
  8
WHITE
 10
13.497348
 20
5.111317
 30
0.000000
 11
13.483023
 21
5.098187
 31
0.000000
  6
CONTINUOUS
  0
LINE
  8
WHITE
 10
13.483023
 20
5.098187
 30
0.000000
 11
13.487797
 21
5.061353
 31
0.000000
  6
CONTINUOUS
  0
ARC
  8
WHITE
 10
13.496239
 20
5.062448
 30
0.000000
 40
0.008513
 50
-172.614890
 51
-112.736391
  6
CONTINUOUS
  0
LINE
  8
WHITE
 10
13.492949
 20
5.054596
 30
0.000000
 11
13.522626
 21
5.042161
 31
0.000000
  6
CONTINUOUS
  0
ARC
  8
WHITE
 10
13.525916
 20
5.050012
 30
0.000000
 40
0.008513
 50
-112.737768
 51
-7.386345
  6
CONTINUOUS
  0
LINE
  8
WHITE
 10
13.534358
 20
5.048917
 30
0.000000
 11
13.538191
 21
5.078483
 31
0.000000
  6
CONTINUOUS
  0
LINE
  8
WHITE
 10
13.538191
 20
5.078483
 30
0.000000
 11
13.524003
 21
5.092671
 31
0.000000
  6
CONTINUOUS
  0
LINE
  8
WHITE
 10
13.524003
 20
5.092671
 30
0.000000
 11
13.559473
 21
5.157227
 31
0.000000
  6
CONTINUOUS
  0
LINE
  8
WHITE
 10
13.559473
 20
5.157227
 30
0.000000
 11
13.548122
 21
5.167159
 31
0.000000
  6
CONTINUOUS
  0
LINE
  8
WHITE
 10
13.548122
 20
5.167159
 30
0.000000
 11
13.579062
 21
5.212463
 31
0.000000
  6
CONTINUOUS
  0
ARC
  8
WHITE
 10
13.587849
 20
5.206463
 30
0.000000
 40
0.010641
 50
34.328908
 51
145.671092
  6
CONTINUOUS
  0
LINE
  8
WHITE
 10
13.596637
 20
5.212463
 30
0.000000
 11
13.627577
 21
5.167159
 31
0.000000
  6
CONTINUOUS
  0
LINE
  8
WHITE
 10
13.627577
 20
5.167159
 30
0.000000
 11
13.616225
 21
5.157227
 31
0.000000
  6
CONTINUOUS
  0
LINE
  8
WHITE
 10
13.616225
 20
5.157227
 30
0.000000
 11
13.651696
 21
5.092671
 31
0.000000
  6
CONTINUOUS
  0
LINE
  8
WHITE
 10
13.651696
 20
5.092671
 30
0.000000
 11
13.641767
 21
5.083570
 31
0.000000
  6
CONTINUOUS
  0
ARC
  8
WHITE
 10
13.647999
 20
5.076772
 30
0.000000
 40
0.009222
 50
132.509932
 51
200.555350
  6
CONTINUOUS
  0
LINE
  8
WHITE
 10
13.639364
 20
5.073534
 30
0.000000
 11
13.649804
 21
5.045695
 31
0.000000
  6
CONTINUOUS
  0
ARC
  8
WHITE
 10
13.666410
 20
5.051922
 30
0.000000
 40
0.017735
 50
-159.444649
 51
-35.536698
  6
CONTINUOUS
  0
LINE
  8
WHITE
 10
13.680841
 20
5.041614
 30
0.000000
 11
13.709564
 21
5.081828
 31
0.000000
  6
CONTINUOUS
  0
LINE
  8
WHITE
 10
13.709564
 20
5.081828
 30
0.000000
 11
13.721809
 21
5.154485
 31
0.000000
  6
CONTINUOUS
  0
ARC
  8
WHITE
 10
13.720729
 20
5.191177
 30
0.000000
 40
0.036707
 50
-88.313372
 51
-21.411951
  6
CONTINUOUS
  0
ARC
  8
WHITE
 10
13.846239
 20
5.120775
 30
0.000000
 40
0.107664
 50
125.575096
 51
148.032715
  6
CONTINUOUS
  0
ARC
  8
WHITE
 10
13.819147
 20
5.097986
 30
0.000000
 40
0.115940
 50
66.254570
 51
107.852293
  6
CONTINUOUS
  0
ARC
  8
WHITE
 10
13.868216
 20
5.253165
 30
0.000000
 40
0.049112
 50
-92.780983
 51
-26.861337
  6
CONTINUOUS
  0
ARC
  8
WHITE
 10
14.018202
 20
5.177277
 30
0.000000
 40
0.118980
 50
116.911162
 51
153.171808
  6
CONTINUOUS
  0
ARC
  8
WHITE
 10
13.995633
 20
5.253607
 30
0.000000
 40
0.043181
 50
78.989913
 51
136.422548
  6
CONTINUOUS
  0
LINE
  8
WHITE
 10
14.003880
 20
5.295993
 30
0.000000
 11
14.052917
 21
5.298906
 31
0.000000
  6
CONTINUOUS
  0
LINE
  8
WHITE
 10
14.052917
 20
5.298906
 30
0.000000
 11
14.076023
 21
5.321607
 31
0.000000
  6
CONTINUOUS
  0
ARC
  8
WHITE
 10
14.108339
 20
5.288715
 30
0.000000
 40
0.046111
 50
78.929611
 51
134.493241
  6
CONTINUOUS
  0
LINE
  8
WHITE
 10
14.117194
 20
5.333968
 30
0.000000
 11
14.158617
 21
5.325863
 31
0.000000
  6
CONTINUOUS
  0
LINE
  8
WHITE
 10
14.158617
 20
5.325863
 30
0.000000
 11
14.203313
 21
5.290393
 31
0.000000
  6
CONTINUOUS
  0
LINE
  8
WHITE
 10
14.203313
 20
5.290393
 30
0.000000
 11
14.292810
 21
5.277771
 31
0.000000
  6
CONTINUOUS
  0
ARC
  8
WHITE
 10
14.299249
 20
5.323432
 30
0.000000
 40
0.046112
 50
-98.027260
 51
-48.281548
  6
CONTINUOUS
  0
LINE
  8
WHITE
 10
14.329935
 20
5.289013
 30
0.000000
 11
14.372859
 21
5.327282
 31
0.000000
  6
CONTINUOUS
  0
LINE
  8
WHITE
 10
14.372859
 20
5.327282
 30
0.000000
 11
14.419679
 21
5.335795
 31
0.000000
  6
CONTINUOUS
  0
LINE
  8
WHITE
 10
14.419679
 20
5.335795
 30
0.000000
 11
14.491668
 21
5.286409
 31
0.000000
  6
CONTINUOUS
  0
ARC
  8
WHITE
 10
14.517753
 20
5.324433
 30
0.000000
 40
0.046111
 50
-124.451200
 51
-75.004539
  6
CONTINUOUS
  0
LINE
  8
WHITE
 10
14.529684
 20
5.279891
 30
0.000000
 11
14.582132
 21
5.293940
 31
0.000000
  6
CONTINUOUS
  0
LINE
  8
WHITE
 10
14.582132
 20
5.293940
 30
0.000000
 11
14.597774
 21
5.297069
 31
0.000000
  6
CONTINUOUS
  0
ARC
  8
WHITE
 10
14.606817
 20
5.251853
 30
0.000000
 40
0.046111
 50
61.700246
 51
101.309232
  6
CONTINUOUS
  0
LINE
  8
WHITE
 10
14.628678
 20
5.292453
 30
0.000000
 11
14.641725
 21
5.285427
 31
0.000000
  6
CONTINUOUS
  0
LINE
  8
WHITE
 10
14.641725
 20
5.285427
 30
0.000000
 11
14.706290
 21
5.265101
 31
0.000000
  6
CONTINUOUS
  0
ARC
  8
WHITE
 10
14.711616
 20
5.282018
 30
0.000000
 40
0.017735
 50
-107.475066
 51
-36.552078
  6
CONTINUOUS
  0
LINE
  8
WHITE
 10
14.725863
 20
5.271456
 30
0.000000
 11
14.779347
 21
5.343599
 31
0.000000
  6
CONTINUOUS
  0
LINE
  8
WHITE
 10
14.779347
 20
5.343599
 30
0.000000
 11
14.858118
 21
5.426030
 31
0.000000
  6
CONTINUOUS
  0
ARC
  8
WHITE
 10
14.864785
 20
5.419659
 30
0.000000
 40
0.009222
 50
-3.178102
 51
136.301216
  6
CONTINUOUS
  0
LINE
  8
WHITE
 10
14.873993
 20
5.419148
 30
0.000000
 11
14.870153
 21
5.349983
 31
0.000000
  6
CONTINUOUS
  0
LINE
  8
WHITE
 10
14.870153
 20
5.349983
 30
0.000000
 11
14.887536
 21
5.304681
 31
0.000000
  6
CONTINUOUS
  0
ARC
  8
WHITE
 10
14.896147
 20
5.307985
 30
0.000000
 40
0.009222
 50
-159.006592
 51
-36.468006
  6
CONTINUOUS
  0
LINE
  8
WHITE
 10
14.903563
 20
5.302503
 30
0.000000
 11
14.941801
 21
5.354240
 31
0.000000
  6
CONTINUOUS
  0
LINE
  8
WHITE
 10
14.941801
 20
5.354240
 30
0.000000
 11
15.012037
 21
5.381553
 31
0.000000
  6
CONTINUOUS
  0
ARC
  8
WHITE
 10
15.015380
 20
5.372958
 30
0.000000
 40
0.009222
 50
38.073336
 51
111.250118
  6
CONTINUOUS
  0
LINE
  8
WHITE
 10
15.022640
 20
5.378645
 30
0.000000
 11
15.051761
 21
5.341470
 31
0.000000
  6
CONTINUOUS
  0
LINE
  8
WHITE
 10
15.051761
 20
5.341470
 30
0.000000
 11
15.084548
 21
5.196965
 31
0.000000
  6
CONTINUOUS
  0
ARC
  8
WHITE
 10
15.101844
 20
5.200889
 30
0.000000
 40
0.017735
 50
-167.216340
 51
-65.631987
  6
CONTINUOUS
  0
LINE
  8
WHITE
 10
15.109161
 20
5.184734
 30
0.000000
 11
15.302781
 21
5.272433
 31
0.000000
  6
CONTINUOUS
  0
ARC
  8
WHITE
 10
15.310098
 20
5.256278
 30
0.000000
 40
0.017735
 50
43.667663
 51
114.368087
  6
CONTINUOUS
  0
LINE
  8
WHITE
 10
15.322927
 20
5.268523
 30
0.000000
 11
15.358933
 21
5.230803
 31
0.000000
  6
CONTINUOUS
  0
LINE
  8
WHITE
 10
15.358933
 20
5.230803
 30
0.000000
 11
15.402916
 21
5.152768
 31
0.000000
  6
CONTINUOUS
  0
LINE
  8
WHITE
 10
15.402916
 20
5.152768
 30
0.000000
 11
15.595874
 21
5.086794
 31
0.000000
  6
CONTINUOUS
  0
LINE
  8
WHITE
 10
15.595874
 20
5.086794
 30
0.000000
 11
15.894083
 21
5.071369
 31
0.000000
  6
CONTINUOUS
  0
ARC
  8
WHITE
 10
15.894999
 20
5.089081
 30
0.000000
 40
0.017735
 50
-92.960942
 51
-32.261076
  6
CONTINUOUS
  0
ARC
  8
WHITE
 10
9.270103
 20
9.270869
 30
0.000000
 40
7.852057
 50
-32.261070
 51
-24.180957
  6
CONTINUOUS
  0
LINE
  8
WHITE
 10
16.433192
 20
6.054510
 30
0.000000
 11
16.399631
 21
6.205526
 31
0.000000
  6
CONTINUOUS
  0
LINE
  8
WHITE
 10
16.399631
 20
6.205526
 30
0.000000
 11
16.351393
 21
6.404869
 31
0.000000
  6
CONTINUOUS
  0
LINE
  8
WHITE
 10
16.351393
 20
6.404869
 30
0.000000
 11
16.244981
 21
6.883718
 31
0.000000
  6
CONTINUOUS
  0
LINE
  8
WHITE
 10
16.244981
 20
6.883718
 30
0.000000
 11
16.223550
 21
6.945013
 31
0.000000
  6
CONTINUOUS
  0
ARC
  8
WHITE
 10
16.203460
 20
6.937989
 30
0.000000
 40
0.021282
 50
19.271839
 51
146.108238
  6
CONTINUOUS
  0
LINE
  8
WHITE
 10
16.185794
 20
6.949857
 30
0.000000
 11
16.147083
 21
6.892231
 31
0.000000
  6
CONTINUOUS
  0
LINE
  8
WHITE
 10
16.147083
 20
6.892231
 30
0.000000
 11
16.019115
 21
6.806918
 31
0.000000
  6
CONTINUOUS
  0
ARC
  8
WHITE
 10
16.007310
 20
6.824626
 30
0.000000
 40
0.021282
 50
-162.276500
 51
-56.309654
  6
CONTINUOUS
  0
LINE
  8
WHITE
 10
15.987038
 20
6.818147
 30
0.000000
 11
15.930713
 21
6.994386
 31
0.000000
  6
CONTINUOUS
  0
LINE
  8
WHITE
 10
15.930713
 20
6.994386
 30
0.000000
 11
15.881764
 21
7.189472
 31
0.000000
  6
CONTINUOUS
  0
LINE
  8
WHITE
 10
15.881764
 20
7.189472
 30
0.000000
 11
15.868842
 21
7.217821
 31
0.000000
  6
CONTINUOUS
  0
ARC
  8
WHITE
 10
15.849476
 20
7.208993
 30
0.000000
 40
0.021282
 50
24.506011
 51
116.041486
  6
CONTINUOUS
  0
LINE
  8
WHITE
 10
15.840133
 20
7.228115
 30
0.000000
 11
15.797346
 21
7.207207
 31
0.000000
  6
CONTINUOUS
  0
LINE
  8
WHITE
 10
15.797346
 20
7.207207
 30
0.000000
 11
15.744140
 21
7.149036
 31
0.000000
  6
CONTINUOUS
  0
LINE
  8
WHITE
 10
15.744140
 20
7.149036
 30
0.000000
 11
15.660794
 21
7.102362
 31
0.000000
  6
CONTINUOUS
  0
ARC
  8
WHITE
 10
15.650395
 20
7.120931
 30
0.000000
 40
0.021282
 50
-141.020739
 51
-60.750917
  6
CONTINUOUS
  0
LINE
  8
WHITE
 10
15.633851
 20
7.107544
 30
0.000000
 11
15.549764
 21
7.211464
 31
0.000000
  6
CONTINUOUS
  0
LINE
  8
WHITE
 10
15.549764
 20
7.211464
 30
0.000000
 11
15.542226
 21
7.319140
 31
0.000000
  6
CONTINUOUS
  0
ARC
  8
WHITE
 10
15.520996
 20
7.317655
 30
0.000000
 40
0.021282
 50
4.002476
 51
147.926798
  6
CONTINUOUS
  0
LINE
  8
WHITE
 10
15.502962
 20
7.328956
 30
0.000000
 11
15.465345
 21
7.268926
 31
0.000000
  6
CONTINUOUS
  0
LINE
  8
WHITE
 10
15.465345
 20
7.268926
 30
0.000000
 11
15.434129
 21
7.229199
 31
0.000000
  6
CONTINUOUS
  0
LINE
  8
WHITE
 10
15.434129
 20
7.229199
 30
0.000000
 11
15.314949
 21
7.162515
 31
0.000000
  6
CONTINUOUS
  0
LINE
  8
WHITE
 10
15.314949
 20
7.162515
 30
0.000000
 11
15.239753
 21
7.105053
 31
0.000000
  6
CONTINUOUS
  0
LINE
  8
WHITE
 10
15.239753
 20
7.105053
 30
0.000000
 11
15.140205
 21
7.057938
 31
0.000000
  6
CONTINUOUS
  0
ARC
  8
WHITE
 10
15.131100
 20
7.077175
 30
0.000000
 40
0.021282
 50
163.548727
 51
295.327381
  6
CONTINUOUS
  0
LINE
  8
WHITE
 10
15.110689
 20
7.083202
 30
0.000000
 11
15.151077
 21
7.219977
 31
0.000000
  6
CONTINUOUS
  0
LINE
  8
WHITE
 10
15.151077
 20
7.219977
 30
0.000000
 11
15.222799
 21
7.408532
 31
0.000000
  6
CONTINUOUS
  0
ARC
  8
WHITE
 10
15.202907
 20
7.416098
 30
0.000000
 40
0.021282
 50
-20.826072
 51
129.063200
  6
CONTINUOUS
  0
LINE
  8
WHITE
 10
15.189496
 20
7.432623
 30
0.000000
 11
15.041120
 21
7.312199
 31
0.000000
  6
CONTINUOUS
  0
LINE
  8
WHITE
 10
15.041120
 20
7.312199
 30
0.000000
 11
14.811272
 21
7.178831
 31
0.000000
  6
CONTINUOUS
  0
LINE
  8
WHITE
 10
14.811272
 20
7.178831
 30
0.000000
 11
14.536343
 21
7.025505
 31
0.000000
  6
CONTINUOUS
  0
ARC
  8
WHITE
 10
14.525977
 20
7.044092
 30
0.000000
 40
0.021282
 50
169.241789
 51
299.148080
  6
CONTINUOUS
  0
LINE
  8
WHITE
 10
14.505069
 20
7.048065
 30
0.000000
 11
14.523704
 21
7.146140
 31
0.000000
  6
CONTINUOUS
  0
ARC
  8
WHITE
 10
14.502796
 20
7.150112
 30
0.000000
 40
0.021282
 50
-10.758211
 51
128.381848
  6
CONTINUOUS
  0
LINE
  8
WHITE
 10
14.489582
 20
7.166795
 30
0.000000
 11
13.356927
 21
6.269647
 31
0.000000
  6
CONTINUOUS
  0
ARC
  8
WHITE
 10
13.345915
 20
6.283550
 30
0.000000
 40
0.017735
 50
143.695275
 51
308.381839
  6
CONTINUOUS
  0
LINE
  8
WHITE
 10
13.331623
 20
6.294050
 30
0.000000
 11
13.754728
 21
6.869939
 31
0.000000
  6
CONTINUOUS
  0
ARC
  8
WHITE
 10
13.708992
 20
6.903541
 30
0.000000
 40
0.056752
 50
-36.304741
 51
125.941967
  6
CONTINUOUS
  0
LINE
  8
WHITE
 10
13.675680
 20
6.949489
 30
0.000000
 11
12.988072
 21
6.450977
 31
0.000000
  6
CONTINUOUS
  0
LINE
  8
WHITE
 10
12.988072
 20
6.450977
 30
0.000000
 11
12.919584
 21
6.432296
 31
0.000000
  6
CONTINUOUS
  0
ARC
  8
WHITE
 10
12.915850
 20
6.445985
 30
0.000000
 40
0.014188
 50
-147.721354
 51
-74.743679
  6
CONTINUOUS
  0
LINE
  8
WHITE
 10
12.903855
 20
6.438408
 30
0.000000
 11
12.875106
 21
6.483920
 31
0.000000
  6
CONTINUOUS
  0
ARC
  8
WHITE
 10
12.863111
 20
6.476344
 30
0.000000
 40
0.014188
 50
32.277171
 51
130.601919
  6
CONTINUOUS
  0
LINE
  8
WHITE
 10
12.853877
 20
6.487116
 30
0.000000
 11
12.335982
 21
6.043204
 31
0.000000
  6
CONTINUOUS
  0
ARC
  8
WHITE
 10
12.326749
 20
6.053976
 30
0.000000
 40
0.014188
 50
150.500769
 51
310.601919
  6
CONTINUOUS
  0
ARC
  8
WHITE
 10
15.120246
 20
4.422796
 30
0.000000
 40
3.249056
 50
121.578474
 51
149.721886
  6
CONTINUOUS
  0
LINE
  8
WHITE
 10
13.418827
 20
7.190744
 30
0.000000
 11
13.624838
 21
7.275023
 31
0.000000
  6
CONTINUOUS
  0
LINE
  8
WHITE
 10
13.624838
 20
7.275023
 30
0.000000
 11
13.736893
 21
7.283642
 31
0.000000
  6
CONTINUOUS
  0
ARC
  8
WHITE
 10
13.734444
 20
7.315470
 30
0.000000
 40
0.031923
 50
-85.601685
 51
-51.611249
  6
CONTINUOUS
  0
ARC
  8
WHITE
 10
12.693237
 20
8.629677
 30
0.000000
 40
1.708602
 50
-51.611245
 51
-32.733836
  6
CONTINUOUS
  0
LINE
  8
WHITE
 10
14.130499
 20
7.705772
 30
0.000000
 11
14.248004
 21
7.893203
 31
0.000000
  6
CONTINUOUS
  0
LINE
  8
WHITE
 10
14.248004
 20
7.893203
 30
0.000000
 11
14.339516
 21
7.945699
 31
0.000000
  6
CONTINUOUS
  0
LINE
  8
WHITE
 10
14.339516
 20
7.945699
 30
0.000000
 11
14.501276
 21
7.997502
 31
0.000000
  6
CONTINUOUS
  0
ARC
  8
WHITE
 10
14.490661
 20
8.138986
 30
0.000000
 40
0.141881
 50
-85.709111
 51
-22.135221
  6
CONTINUOUS
  0
ARC
  8
WHITE
 10
15.083230
 20
7.998547
 30
0.000000
 40
0.469276
 50
123.612887
 51
169.318723
  6
CONTINUOUS
  0
ARC
  8
WHITE
 10
14.506576
 20
9.097479
 30
0.000000
 40
0.775785
 50
-65.892195
 51
-32.871833
  6
CONTINUOUS
  0
ARC
  8
WHITE
 10
15.274065
 20
8.594599
 30
0.000000
 40
0.141882
 50
113.962047
 51
144.785850
  6
CONTINUOUS
  0
ARC
  8
WHITE
 10
15.580366
 20
8.061096
 30
0.000000
 40
0.756450
 50
104.645492
 51
118.756841
  6
CONTINUOUS
  0
ARC
  8
WHITE
 10
15.423521
 20
8.655324
 30
0.000000
 40
0.141881
 50
49.398488
 51
104.037573
  6
CONTINUOUS
  0
LINE
  8
WHITE
 10
15.515856
 20
8.763048
 30
0.000000
 11
15.624809
 21
8.669659
 31
0.000000
  6
CONTINUOUS
  0
ARC
  8
WHITE
 10
15.717144
 20
8.777383
 30
0.000000
 40
0.141881
 50
-130.601403
 51
-72.077200
  6
CONTINUOUS
  0
LINE
  8
WHITE
 10
15.760806
 20
8.642387
 30
0.000000
 11
15.996133
 21
8.718500
 31
0.000000
  6
CONTINUOUS
  0
ARC
  8
WHITE
 10
16.039795
 20
8.583503
 30
0.000000
 40
0.141882
 50
68.149691
 51
107.922733
  6
CONTINUOUS
  0
ARC
  8
WHITE
 10
16.426802
 20
9.450948
 30
0.000000
 40
0.808102
 50
-114.428881
 51
-98.602459
  6
CONTINUOUS
  0
ARC
  8
WHITE
 10
16.287461
 20
8.568836
 30
0.000000
 40
0.085129
 50
21.800172
 51
77.470906
  6
CONTINUOUS
  0
ARC
  8
WHITE
 10
16.718117
 20
8.764024
 30
0.000000
 40
0.387802
 50
-155.051855
 51
-122.658002
  6
CONTINUOUS
  0
ARC
  8
WHITE
 10
16.604517
 20
8.542309
 30
0.000000
 40
0.141882
 50
-132.397649
 51
-89.999999
  6
CONTINUOUS
  0
LINE
  8
WHITE
 10
16.604517
 20
8.400428
 30
0.000000
 11
16.796969
 21
8.400428
 31
0.000000
  6
CONTINUOUS
  0
ARC
  8
WHITE
 10
16.796969
 20
8.432351
 30
0.000000
 40
0.031923
 50
-89.999998
 51
-63.438458
  6
CONTINUOUS
  0
ARC
  8
WHITE
 10
16.849309
 20
8.327653
 30
0.000000
 40
0.085129
 50
44.999663
 51
116.561456
  6
CONTINUOUS
  0
LINE
  8
WHITE
 10
16.909505
 20
8.387848
 30
0.000000
 11
16.949465
 21
8.347887
 31
0.000000
  6
CONTINUOUS
  0
ARC
  8
WHITE
 10
16.972039
 20
8.370460
 30
0.000000
 40
0.031923
 50
-135.000440
 51
-103.626608
  6
CONTINUOUS
  0
LINE
  8
WHITE
 10
16.964518
 20
8.339435
 30
0.000000
 11
17.054633
 21
8.317589
 31
0.000000
  6
CONTINUOUS
  0
LINE
  8
WHITE
 10
17.054633
 20
8.317589
 30
0.000000
 11
17.054633
 21
16.413520
 31
0.000000
  6
CONTINUOUS
  0
ARC
  8
WHITE
 10
16.345227
 20
16.413520
 30
0.000000
 40
0.709406
 50
0.000000
 51
90.000000
  6
CONTINUOUS
  0
LINE
  8
WHITE
 10
16.345227
 20
17.122926
 30
0.000000
 11
2.128217
 21
17.122926
 31
0.000000
  6
CONTINUOUS
  0
ARC
  8
WHITE
 10
2.128217
 20
16.413520
 30
0.000000
 40
0.709406
 50
90.000000
 51
180.000000
  6
CONTINUOUS
  0
LINE
  8
WHITE
 10
12.791594
 20
2.399565
 30
0.000000
 11
14.743057
 21
2.462827
 31
0.000000
  6
CONTINUOUS
  0
ARC
  8
WHITE
 10
14.740988
 20
2.526640
 30
0.000000
 40
0.063847
 50
-88.143252
 51
58.247095
  6
CONTINUOUS
  0
ARC
  8
WHITE
 10
13.730690
 20
0.894202
 30
0.000000
 40
1.983627
 50
58.247094
 51
87.269150
  6
CONTINUOUS
  0
ARC
  8
WHITE
 10
13.656365
 20
3.750631
 30
0.000000
 40
0.891194
 50
-111.039338
 51
-79.079510
  6
CONTINUOUS
  0
LINE
  8
WHITE
 10
13.336419
 20
2.918850
 30
0.000000
 11
13.348361
 21
3.025480
 31
0.000000
  6
CONTINUOUS
  0
ARC
  8
WHITE
 10
13.306061
 20
3.030218
 30
0.000000
 40
0.042564
 50
-6.390479
 51
101.107484
  6
CONTINUOUS
  0
LINE
  8
WHITE
 10
13.297861
 20
3.071985
 30
0.000000
 11
13.208016
 21
3.054346
 31
0.000000
  6
CONTINUOUS
  0
LINE
  8
WHITE
 10
13.208016
 20
3.054346
 30
0.000000
 11
13.105162
 21
3.041422
 31
0.000000
  6
CONTINUOUS
  0
ARC
  8
WHITE
 10
13.099855
 20
3.083655
 30
0.000000
 40
0.042564
 50
133.129269
 51
277.161618
  6
CONTINUOUS
  0
LINE
  8
WHITE
 10
13.070756
 20
3.114719
 30
0.000000
 11
13.102854
 21
3.144786
 31
0.000000
  6
CONTINUOUS
  0
ARC
  8
WHITE
 10
13.073756
 20
3.175850
 30
0.000000
 40
0.042564
 50
-46.871098
 51
84.193256
  6
CONTINUOUS
  0
LINE
  8
WHITE
 10
13.078062
 20
3.218196
 30
0.000000
 11
12.554652
 21
3.271424
 31
0.000000
  6
CONTINUOUS
  0
LINE
  8
WHITE
 10
12.554652
 20
3.271424
 30
0.000000
 11
12.522730
 21
3.290148
 31
0.000000
  6
CONTINUOUS
  0
ARC
  8
WHITE
 10
12.565800
 20
3.363578
 30
0.000000
 40
0.085129
 50
124.439217
 51
239.606742
  6
CONTINUOUS
  0
ARC
  8
WHITE
 10
14.317527
 20
-0.579404
 30
0.000000
 40
4.398320
 50
110.424352
 51
114.155691
  6
CONTINUOUS
  0
ARC
  8
WHITE
 10
12.767410
 20
3.566351
 30
0.000000
 40
0.028376
 50
-57.532231
 51
87.754251
  6
CONTINUOUS
  0
LINE
  8
WHITE
 10
12.768522
 20
3.594706
 30
0.000000
 11
12.347116
 21
3.611231
 31
0.000000
  6
CONTINUOUS
  0
ARC
  8
WHITE
 10
12.350452
 20
3.696295
 30
0.000000
 40
0.085129
 50
112.853023
 51
267.754262
  6
CONTINUOUS
  0
ARC
  8
WHITE
 10
13.661281
 20
0.586015
 30
0.000000
 40
3.460350
 50
94.817408
 51
112.853017
  6
CONTINUOUS
  0
ARC
  8
WHITE
 10
13.368296
 20
4.062416
 30
0.000000
 40
0.028376
 50
-85.182585
 51
-43.701407
  6
CONTINUOUS
  0
LINE
  8
WHITE
 10
13.388811
 20
4.042811
 30
0.000000
 11
13.409251
 21
4.064200
 31
0.000000
  6
CONTINUOUS
  0
ARC
  8
WHITE
 10
13.388737
 20
4.083805
 30
0.000000
 40
0.028376
 50
-43.701406
 51
73.300695
  6
CONTINUOUS
  0
ARC
  8
WHITE
 10
13.677835
 20
5.047523
 30
0.000000
 40
0.977769
 50
-123.580242
 51
-106.698255
  6
CONTINUOUS
  0
ARC
  8
WHITE
 10
13.152721
 20
4.256573
 30
0.000000
 40
0.028376
 50
116.546259
 51
236.420227
  6
CONTINUOUS
  0
ARC
  8
WHITE
 10
13.944812
 20
2.671070
 30
0.000000
 40
1.800726
 50
106.304224
 51
116.545949
  6
CONTINUOUS
  0
LINE
  8
WHITE
 10
13.439280
 20
4.399379
 30
0.000000
 11
14.262193
 21
4.430593
 31
0.000000
  6
CONTINUOUS
  0
LINE
  8
WHITE
 10
14.262193
 20
4.430593
 30
0.000000
 11
14.084130
 21
4.516431
 31
0.000000
  6
CONTINUOUS
  0
LINE
  8
WHITE
 10
14.084130
 20
4.516431
 30
0.000000
 11
14.115346
 21
4.583116
 31
0.000000
  6
CONTINUOUS
  0
LINE
  8
WHITE
 10
14.115346
 20
4.583116
 30
0.000000
 11
14.267868
 21
4.632774
 31
0.000000
  6
CONTINUOUS
  0
LINE
  8
WHITE
 10
14.267868
 20
4.632774
 30
0.000000
 11
14.482107
 21
4.607945
 31
0.000000
  6
CONTINUOUS
  0
LINE
  8
WHITE
 10
14.482107
 20
4.607945
 30
0.000000
 11
14.849580
 21
4.571056
 31
0.000000
  6
CONTINUOUS
  0
LINE
  8
WHITE
 10
14.849580
 20
4.571056
 30
0.000000
 11
17.054633
 21
4.447508
 31
0.000000
  6
CONTINUOUS
  0
LINE
  8
WHITE
 10
17.054633
 20
4.447508
 30
0.000000
 11
17.054633
 21
2.128217
 31
0.000000
  6
CONTINUOUS
  0
ARC
  8
WHITE
 10
16.345227
 20
2.128217
 30
0.000000
 40
0.709406
 50
-90.000000
 51
0.000000
  6
CONTINUOUS
  0
LINE
  8
WHITE
 10
16.345227
 20
1.418811
 30
0.000000
 11
2.128217
 21
1.418811
 31
0.000000
  6
CONTINUOUS
  0
ARC
  8
WHITE
 10
2.128217
 20
2.128217
 30
0.000000
 40
0.709406
 50
180.000000
 51
270.000000
  6
CONTINUOUS
  0
LINE
  8
WHITE
 10
1.418811
 20
2.128217
 30
0.000000
 11
1.418811
 21
2.591508
 31
0.000000
  6
CONTINUOUS
  0
LINE
  8
WHITE
 10
1.418811
 20
2.591508
 30
0.000000
 11
4.552732
 21
3.526668
 31
0.000000
  6
CONTINUOUS
  0
ARC
  8
WHITE
 10
4.593302
 20
3.390710
 30
0.000000
 40
0.141881
 50
62.450223
 51
106.615107
  6
CONTINUOUS
  0
LINE
  8
WHITE
 10
4.658925
 20
3.516503
 30
0.000000
 11
5.066166
 21
3.304057
 31
0.000000
  6
CONTINUOUS
  0
LINE
  8
WHITE
 10
5.066166
 20
3.304057
 30
0.000000
 11
5.727044
 21
3.247027
 31
0.000000
  6
CONTINUOUS
  0
ARC
  8
WHITE
 10
5.739242
 20
3.388383
 30
0.000000
 40
0.141881
 50
-94.932079
 51
-64.923397
  6
CONTINUOUS
  0
LINE
  8
WHITE
 10
5.799375
 20
3.259875
 30
0.000000
 11
6.063589
 21
3.383511
 31
0.000000
  6
CONTINUOUS
  0
LINE
  8
WHITE
 10
6.063589
 20
3.383511
 30
0.000000
 11
6.398600
 21
3.681518
 31
0.000000
  6
CONTINUOUS
  0
ARC
  8
WHITE
 10
6.492900
 20
3.575509
 30
0.000000
 40
0.141881
 50
105.465900
 51
131.654587
  6
CONTINUOUS
  0
LINE
  8
WHITE
 10
6.455065
 20
3.712253
 30
0.000000
 11
6.782217
 21
3.802769
 31
0.000000
  6
CONTINUOUS
  0
LINE
  8
WHITE
 10
6.782217
 20
3.802769
 30
0.000000
 11
7.194242
 21
4.090792
 31
0.000000
  6
CONTINUOUS
  0
ARC
  8
WHITE
 10
7.275530
 20
3.974506
 30
0.000000
 40
0.141881
 50
86.600365
 51
124.955173
  6
CONTINUOUS
  0
LINE
  8
WHITE
 10
7.283944
 20
4.116137
 30
0.000000
 11
8.136249
 21
4.065506
 31
0.000000
  6
CONTINUOUS
  0
ARC
  8
WHITE
 10
8.132884
 20
4.008853
 30
0.000000
 40
0.056752
 50
-71.292958
 51
86.600324
  6
CONTINUOUS
  0
LINE
  8
WHITE
 10
8.151086
 20
3.955099
 30
0.000000
 11
7.747417
 21
3.818409
 31
0.000000
  6
CONTINUOUS
  0
ARC
  8
WHITE
 10
7.765620
 20
3.764655
 30
0.000000
 40
0.056752
 50
108.707044
 51
268.985819
  6
CONTINUOUS
  0
LINE
  8
WHITE
 10
7.764615
 20
3.707911
 30
0.000000
 11
10.023754
 21
3.667927
 31
0.000000
  6
CONTINUOUS
  0
ARC
  8
WHITE
 10
10.023252
 20
3.639555
 30
0.000000
 40
0.028376
 50
-43.235336
 51
88.986020
  6
CONTINUOUS
  0
LINE
  8
WHITE
 10
10.043925
 20
3.620117
 30
0.000000
 11
9.882260
 21
3.448170
 31
0.000000
  6
CONTINUOUS
  0
ARC
  8
WHITE
 10
9.902325
 20
3.428105
 30
0.000000
 40
0.028376
 50
134.999332
 51
258.278513
  6
CONTINUOUS
  0
LINE
  8
WHITE
 10
9.896560
 20
3.400321
 30
0.000000
 11
10.983084
 21
3.174889
 31
0.000000
  6
CONTINUOUS
  0
ARC
  8
WHITE
 10
10.977319
 20
3.147104
 30
0.000000
 40
0.028376
 50
-78.240591
 51
78.278804
  6
CONTINUOUS
  0
LINE
  8
WHITE
 10
10.983102
 20
3.119324
 30
0.000000
 11
10.769789
 21
3.074919
 31
0.000000
  6
CONTINUOUS
  0
LINE
  8
WHITE
 10
10.769789
 20
3.074919
 30
0.000000
 11
10.534288
 21
2.956257
 31
0.000000
  6
CONTINUOUS
  0
ARC
  8
WHITE
 10
10.547057
 20
2.930917
 30
0.000000
 40
0.028376
 50
116.742495
 51
266.394835
  6
CONTINUOUS
  0
LINE
  8
WHITE
 10
10.545273
 20
2.902597
 30
0.000000
 11
11.154286
 21
2.864226
 31
0.000000
  6
CONTINUOUS
  0
LINE
  8
WHITE
 10
11.154286
 20
2.864226
 30
0.000000
 11
11.785655
 21
2.830770
 31
0.000000
  6
CONTINUOUS
  0
ARC
  8
WHITE
 10
11.784153
 20
2.802433
 30
0.000000
 40
0.028376
 50
-74.995138
 51
86.966208
  6
CONTINUOUS
  0
LINE
  8
WHITE
 10
11.791500
 20
2.775025
 30
0.000000
 11
11.522539
 21
2.702932
 31
0.000000
  6
CONTINUOUS
  0
ARC
  8
WHITE
 10
11.529885
 20
2.675524
 30
0.000000
 40
0.028376
 50
105.004849
 51
270.000000
  6
CONTINUOUS
  0
LINE
  8
WHITE
 10
11.529885
 20
2.647147
 30
0.000000
 11
11.958043
 21
2.647147
 31
0.000000
  6
CONTINUOUS
  0
LINE
  8
WHITE
 10
11.958043
 20
2.647147
 30
0.000000
 11
12.278693
 21
2.674814
 31
0.000000
  6
CONTINUOUS
  0
LINE
  8
WHITE
 10
12.278693
 20
2.674814
 30
0.000000
 11
12.529483
 21
2.694221
 31
0.000000
  6
CONTINUOUS
  0
ARC
  8
WHITE
 10
12.531673
 20
2.665929
 30
0.000000
 40
0.028376
 50
-71.742439
 51
94.424742
  6
CONTINUOUS
  0
LINE
  8
WHITE
 10
12.540562
 20
2.638981
 30
0.000000
 11
12.287916
 21
2.555634
 31
0.000000
  6
CONTINUOUS
  0
LINE
  8
WHITE
 10
12.287916
 20
2.555634
 30
0.000000
 11
12.093930
 21
2.422616
 31
0.000000
  6
CONTINUOUS
  0
ARC
  8
WHITE
 10
12.109978
 20
2.399214
 30
0.000000
 40
0.028376
 50
124.438955
 51
275.002499
  6
CONTINUOUS
  0
LINE
  8
WHITE
 10
12.112452
 20
2.370945
 30
0.000000
 11
12.334027
 21
2.390343
 31
0.000000
  6
CONTINUOUS
  0
LINE
  8
WHITE
 10
12.334027
 20
2.390343
 30
0.000000
 11
12.791594
 21
2.399565
 31
0.000000
  6
CONTINUOUS
  0
LINE
  8
WHITE
 10
4.636751
 20
9.734591
 30
0.000000
 11
5.215825
 21
8.838835
 31
0.000000
  6
CONTINUOUS
  0
LINE
  8
WHITE
 10
5.215825
 20
8.838835
 30
0.000000
 11
5.506114
 21
8.829471
 31
0.000000
  6
CONTINUOUS
  0
ARC
  8
WHITE
 10
5.776731
 20
10.608271
 30
0.000000
 40
1.799267
 50
-98.650342
 51
-60.333865
  6
CONTINUOUS
  0
LINE
  8
WHITE
 10
6.667269
 20
9.044845
 30
0.000000
 11
7.931431
 21
10.496291
 31
0.000000
  6
CONTINUOUS
  0
LINE
  8
WHITE
 10
7.931431
 20
10.496291
 30
0.000000
 11
8.083049
 21
10.752151
 31
0.000000
  6
CONTINUOUS
  0
ARC
  8
WHITE
 10
10.160669
 20
16.318904
 30
0.000000
 40
5.941822
 50
-117.506947
 51
-110.466552
  6
CONTINUOUS
  0
ARC
  8
WHITE
 10
8.204838
 20
12.106814
 30
0.000000
 40
1.319498
 50
-177.769474
 51
-126.693010
  6
CONTINUOUS
  0
ARC
  8
WHITE
 10
6.904061
 20
12.056149
 30
0.000000
 40
0.017735
 50
94.192987
 51
182.229969
  6
CONTINUOUS
  0
ARC
  8
WHITE
 10
6.940721
 20
11.556098
 30
0.000000
 40
0.519128
 50
79.562777
 51
94.192993
  6
CONTINUOUS
  0
ARC
  8
WHITE
 10
7.856869
 20
12.835744
 30
0.000000
 40
1.125780
 50
-151.554366
 51
-136.907543
  6
CONTINUOUS
  0
LINE
  8
WHITE
 10
6.867005
 20
12.299507
 30
0.000000
 11
6.798367
 21
12.181839
 31
0.000000
  6
CONTINUOUS
  0
LINE
  8
WHITE
 10
6.798367
 20
12.181839
 30
0.000000
 11
6.723456
 21
11.545078
 31
0.000000
  6
CONTINUOUS
  0
LINE
  8
WHITE
 10
6.723456
 20
11.545078
 30
0.000000
 11
6.582801
 21
11.271585
 31
0.000000
  6
CONTINUOUS
  0
ARC
  8
WHITE
 10
6.661659
 20
11.231029
 30
0.000000
 40
0.088676
 50
152.783600
 51
220.357981
  6
CONTINUOUS
  0
LINE
  8
WHITE
 10
6.594087
 20
11.173606
 30
0.000000
 11
6.795376
 21
10.823619
 31
0.000000
  6
CONTINUOUS
  0
ARC
  8
WHITE
 10
6.761930
 20
10.811807
 30
0.000000
 40
0.035470
 50
-117.552682
 51
19.451305
  6
CONTINUOUS
  0
LINE
  8
WHITE
 10
6.745522
 20
10.780360
 30
0.000000
 11
6.519336
 21
10.898369
 31
0.000000
  6
CONTINUOUS
  0
ARC
  8
WHITE
 10
6.502929
 20
10.866921
 30
0.000000
 40
0.035470
 50
62.447366
 51
190.007714
  6
CONTINUOUS
  0
LINE
  8
WHITE
 10
6.467998
 20
10.860757
 30
0.000000
 11
6.491299
 21
10.728716
 31
0.000000
  6
CONTINUOUS
  0
ARC
  8
WHITE
 10
6.470340
 20
10.725018
 30
0.000000
 40
0.021282
 50
-131.684308
 51
10.006763
  6
CONTINUOUS
  0
ARC
  8
WHITE
 10
3.288384
 20
7.151719
 30
0.000000
 40
4.763412
 50
48.315532
 51
62.623518
  6
CONTINUOUS
  0
ARC
  8
WHITE
 10
5.446568
 20
11.318439
 30
0.000000
 40
0.070940
 50
63.004166
 51
221.347425
  6
CONTINUOUS
  0
ARC
  8
WHITE
 10
3.388691
 20
9.495856
 30
0.000000
 40
2.677999
 50
25.826849
 51
41.534930
  6
CONTINUOUS
  0
ARC
  8
WHITE
 10
5.735444
 20
10.631419
 30
0.000000
 40
0.070941
 50
-121.293327
 51
26.014644
  6
CONTINUOUS
  0
LINE
  8
WHITE
 10
5.698597
 20
10.570799
 30
0.000000
 11
5.270594
 21
10.830956
 31
0.000000
  6
CONTINUOUS
  0
ARC
  8
WHITE
 10
5.233746
 20
10.770335
 30
0.000000
 40
0.070941
 50
58.707460
 51
149.924401
  6
CONTINUOUS
  0
ARC
  8
WHITE
 10
5.135523
 20
10.827217
 30
0.000000
 40
0.042564
 50
-128.412064
 51
-30.075984
  6
CONTINUOUS
  0
ARC
  8
WHITE
 10
4.245187
 20
9.706906
 30
0.000000
 40
1.388448
 50
51.523126
 51
65.853221
  6
CONTINUOUS
  0
ARC
  8
WHITE
 10
3.168219
 20
9.498426
 30
0.000000
 40
2.209700
 50
41.890571
 51
61.787114
  6
CONTINUOUS
  0
ARC
  8
WHITE
 10
4.198822
 20
11.420943
 30
0.000000
 40
0.028376
 50
60.366990
 51
155.556043
  6
CONTINUOUS
  0
LINE
  8
WHITE
 10
4.172989
 20
11.432685
 30
0.000000
 11
4.146508
 21
11.374427
 31
0.000000
  6
CONTINUOUS
  0
ARC
  8
WHITE
 10
4.120675
 20
11.386170
 30
0.000000
 40
0.028376
 50
-90.000000
 51
-24.443600
  6
CONTINUOUS
  0
LINE
  8
WHITE
 10
4.120675
 20
11.357793
 30
0.000000
 11
3.993127
 21
11.357793
 31
0.000000
  6
CONTINUOUS
  0
ARC
  8
WHITE
 10
3.993127
 20
11.286853
 30
0.000000
 40
0.070941
 50
90.000000
 51
125.538344
  6
CONTINUOUS
  0
LINE
  8
WHITE
 10
3.951893
 20
11.344579
 30
0.000000
 11
3.921403
 21
11.322800
 31
0.000000
  6
CONTINUOUS
  0
ARC
  8
WHITE
 10
3.904910
 20
11.345891
 30
0.000000
 40
0.028376
 50
-125.753745
 51
-54.463489
  6
CONTINUOUS
  0
LINE
  8
WHITE
 10
3.888329
 20
11.322863
 30
0.000000
 11
3.713896
 21
11.448453
 31
0.000000
  6
CONTINUOUS
  0
ARC
  8
WHITE
 10
3.697315
 20
11.425425
 30
0.000000
 40
0.028376
 50
54.246019
 51
164.744628
  6
CONTINUOUS
  0
LINE
  8
WHITE
 10
3.669939
 20
11.432892
 30
0.000000
 11
3.582265
 21
11.123045
 31
0.000000
  6
CONTINUOUS
  0
ARC
  8
WHITE
 10
3.554981
 20
11.130841
 30
0.000000
 40
0.028376
 50
-144.709924
 51
-15.945985
  6
CONTINUOUS
  0
LINE
  8
WHITE
 10
3.531819
 20
11.114447
 30
0.000000
 11
3.153252
 21
11.635881
 31
0.000000
  6
CONTINUOUS
  0
ARC
  8
WHITE
 10
3.096350
 20
11.593517
 30
0.000000
 40
0.070941
 50
36.668102
 51
114.149844
  6
CONTINUOUS
  0
LINE
  8
WHITE
 10
3.067327
 20
11.658249
 30
0.000000
 11
2.489093
 21
11.398989
 31
0.000000
  6
CONTINUOUS
  0
ARC
  8
WHITE
 10
2.460069
 20
11.463720
 30
0.000000
 40
0.070940
 50
169.046046
 51
294.149815
  6
CONTINUOUS
  0
LINE
  8
WHITE
 10
2.390421
 20
11.477200
 30
0.000000
 11
2.400110
 21
11.527260
 31
0.000000
  6
CONTINUOUS
  0
ARC
  8
WHITE
 10
2.330462
 20
11.540740
 30
0.000000
 40
0.070941
 50
-10.953954
 51
126.430461
  6
CONTINUOUS
  0
ARC
  8
WHITE
 10
3.339195
 20
9.643007
 30
0.000000
 40
2.219368
 50
118.261461
 51
149.915169
  6
CONTINUOUS
  0
LINE
  8
WHITE
 10
1.418811
 20
10.755535
 30
0.000000
 11
1.418811
 21
10.194191
 31
0.000000
  6
CONTINUOUS
  0
ARC
  8
WHITE
 10
0.734878
 20
11.819895
 30
0.000000
 40
1.763711
 50
-67.183497
 51
-38.928392
  6
CONTINUOUS
  0
ARC
  8
WHITE
 10
3.213120
 20
9.657109
 30
0.000000
 40
1.528320
 50
110.285249
 51
136.368934
  6
CONTINUOUS
  0
ARC
  8
WHITE
 10
2.698017
 20
11.050716
 30
0.000000
 40
0.042564
 50
72.923459
 51
110.285234
  6
CONTINUOUS
  0
LINE
  8
WHITE
 10
2.710516
 20
11.091404
 30
0.000000
 11
2.898222
 21
11.033742
 31
0.000000
  6
CONTINUOUS
  0
LINE
  8
WHITE
 10
2.898222
 20
11.033742
 30
0.000000
 11
2.931975
 21
10.977678
 31
0.000000
  6
CONTINUOUS
  0
ARC
  8
WHITE
 10
2.968441
 20
10.999632
 30
0.000000
 40
0.042564
 50
-148.950352
 51
-108.435035
  6
CONTINUOUS
  0
LINE
  8
WHITE
 10
2.954981
 20
10.959252
 30
0.000000
 11
3.044359
 21
10.929459
 31
0.000000
  6
CONTINUOUS
  0
LINE
  8
WHITE
 10
3.044359
 20
10.929459
 30
0.000000
 11
3.110335
 21
10.894698
 31
0.000000
  6
CONTINUOUS
  0
LINE
  8
WHITE
 10
3.110335
 20
10.894698
 30
0.000000
 11
3.183402
 21
10.801057
 31
0.000000
  6
CONTINUOUS
  0
LINE
  8
WHITE
 10
3.183402
 20
10.801057
 30
0.000000
 11
3.272966
 21
10.702032
 31
0.000000
  6
CONTINUOUS
  0
ARC
  8
WHITE
 10
3.304534
 20
10.730584
 30
0.000000
 40
0.042564
 50
-137.871936
 51
-95.131929
  6
CONTINUOUS
  0
ARC
  8
WHITE
 10
3.317549
 20
10.303759
 30
0.000000
 40
0.384799
 50
61.129074
 51
92.505685
  6
CONTINUOUS
  0
LINE
  8
WHITE
 10
3.503345
 20
10.640731
 30
0.000000
 11
3.602766
 21
10.544580
 31
0.000000
  6
CONTINUOUS
  0
ARC
  8
WHITE
 10
3.632356
 20
10.575177
 30
0.000000
 40
0.042564
 50
-134.041907
 51
-103.309169
  6
CONTINUOUS
  0
LINE
  8
WHITE
 10
3.622557
 20
10.533756
 30
0.000000
 11
3.743125
 21
10.505235
 31
0.000000
  6
CONTINUOUS
  0
LINE
  8
WHITE
 10
3.743125
 20
10.505235
 30
0.000000
 11
3.809098
 21
10.435713
 31
0.000000
  6
CONTINUOUS
  0
LINE
  8
WHITE
 10
3.809098
 20
10.435713
 30
0.000000
 11
4.032561
 21
10.291703
 31
0.000000
  6
CONTINUOUS
  0
LINE
  8
WHITE
 10
4.032561
 20
10.291703
 30
0.000000
 11
4.310648
 21
10.229276
 31
0.000000
  6
CONTINUOUS
  0
LINE
  8
WHITE
 10
4.310648
 20
10.229276
 30
0.000000
 11
4.516375
 21
10.002266
 31
0.000000
  6
CONTINUOUS
  0
LINE
  8
WHITE
 10
4.516375
 20
10.002266
 30
0.000000
 11
4.636751
 21
9.734591
 31
0.000000
  6
CONTINUOUS
  0
LINE
  8
WHITE
 10
1.418811
 20
9.132823
 30
0.000000
 11
1.418811
 21
7.258522
 31
0.000000
  6
CONTINUOUS
  0
ARC
  8
WHITE
 10
1.454282
 20
7.258522
 30
0.000000
 40
0.035470
 50
180.000000
 51
314.055108
  6
CONTINUOUS
  0
LINE
  8
WHITE
 10
1.478946
 20
7.233030
 30
0.000000
 11
1.961097
 21
7.699535
 31
0.000000
  6
CONTINUOUS
  0
LINE
  8
WHITE
 10
1.961097
 20
7.699535
 30
0.000000
 11
2.053908
 21
7.778764
 31
0.000000
  6
CONTINUOUS
  0
ARC
  8
WHITE
 10
2.040090
 20
7.794951
 30
0.000000
 40
0.021282
 50
-49.513883
 51
61.439889
  6
CONTINUOUS
  0
LINE
  8
WHITE
 10
2.050264
 20
7.813643
 30
0.000000
 11
2.021397
 21
7.829356
 31
0.000000
  6
CONTINUOUS
  0
LINE
  8
WHITE
 10
2.021397
 20
7.829356
 30
0.000000
 11
1.926336
 21
7.825100
 31
0.000000
  6
CONTINUOUS
  0
LINE
  8
WHITE
 10
1.926336
 20
7.825100
 30
0.000000
 11
1.871496
 21
7.822263
 31
0.000000
  6
CONTINUOUS
  0
ARC
  8
WHITE
 10
1.870397
 20
7.843517
 30
0.000000
 40
0.021282
 50
136.254284
 51
272.960970
  6
CONTINUOUS
  0
LINE
  8
WHITE
 10
1.855023
 20
7.858232
 30
0.000000
 11
1.930593
 21
7.937186
 31
0.000000
  6
CONTINUOUS
  0
LINE
  8
WHITE
 10
1.930593
 20
7.937186
 30
0.000000
 11
1.985926
 21
8.011673
 31
0.000000
  6
CONTINUOUS
  0
LINE
  8
WHITE
 10
1.985926
 20
8.011673
 30
0.000000
 11
2.120004
 21
8.098221
 31
0.000000
  6
CONTINUOUS
  0
LINE
  8
WHITE
 10
2.120004
 20
8.098221
 30
0.000000
 11
2.165488
 21
8.117601
 31
0.000000
  6
CONTINUOUS
  0
ARC
  8
WHITE
 10
2.157145
 20
8.137180
 30
0.000000
 40
0.021282
 50
-66.921720
 51
56.129191
  6
CONTINUOUS
  0
LINE
  8
WHITE
 10
2.169006
 20
8.154851
 30
0.000000
 11
2.149799
 21
8.167743
 31
0.000000
  6
CONTINUOUS
  0
LINE
  8
WHITE
 10
2.149799
 20
8.167743
 30
0.000000
 11
2.111473
 21
8.200247
 31
0.000000
  6
CONTINUOUS
  0
ARC
  8
WHITE
 10
2.065588
 20
8.146144
 30
0.000000
 40
0.070941
 50
49.698837
 51
85.962471
  6
CONTINUOUS
  0
LINE
  8
WHITE
 10
2.070583
 20
8.216909
 30
0.000000
 11
2.033455
 21
8.219529
 31
0.000000
  6
CONTINUOUS
  0
LINE
  8
WHITE
 10
2.033455
 20
8.219529
 30
0.000000
 11
2.019509
 21
8.218545
 31
0.000000
  6
CONTINUOUS
  0
ARC
  8
WHITE
 10
2.018010
 20
8.239774
 30
0.000000
 40
0.021282
 50
112.900912
 51
274.037734
  6
CONTINUOUS
  0
LINE
  8
WHITE
 10
2.009729
 20
8.259379
 30
0.000000
 11
2.068218
 21
8.284085
 31
0.000000
  6
CONTINUOUS
  0
LINE
  8
WHITE
 10
2.068218
 20
8.284085
 30
0.000000
 11
2.176046
 21
8.366376
 31
0.000000
  6
CONTINUOUS
  0
LINE
  8
WHITE
 10
2.176046
 20
8.366376
 30
0.000000
 11
2.249115
 21
8.444411
 31
0.000000
  6
CONTINUOUS
  0
LINE
  8
WHITE
 10
2.249115
 20
8.444411
 30
0.000000
 11
2.378937
 21
8.543728
 31
0.000000
  6
CONTINUOUS
  0
LINE
  8
WHITE
 10
2.378937
 20
8.543728
 30
0.000000
 11
2.422210
 21
8.604027
 31
0.000000
  6
CONTINUOUS
  0
LINE
  8
WHITE
 10
2.422210
 20
8.604027
 30
0.000000
 11
2.434979
 21
8.703344
 31
0.000000
  6
CONTINUOUS
  0
LINE
  8
WHITE
 10
2.434979
 20
8.703344
 30
0.000000
 11
2.434979
 21
8.772156
 31
0.000000
  6
CONTINUOUS
  0
LINE
  8
WHITE
 10
2.434979
 20
8.772156
 30
0.000000
 11
2.523967
 21
8.926222
 31
0.000000
  6
CONTINUOUS
  0
ARC
  8
WHITE
 10
2.542396
 20
8.915578
 30
0.000000
 40
0.021282
 50
21.630826
 51
149.989369
  6
CONTINUOUS
  0
LINE
  8
WHITE
 10
2.562180
 20
8.923423
 30
0.000000
 11
2.659861
 21
8.677096
 31
0.000000
  6
CONTINUOUS
  0
LINE
  8
WHITE
 10
2.659861
 20
8.677096
 30
0.000000
 11
2.698169
 21
8.577779
 31
0.000000
  6
CONTINUOUS
  0
LINE
  8
WHITE
 10
2.698169
 20
8.577779
 30
0.000000
 11
2.939367
 21
8.311752
 31
0.000000
  6
CONTINUOUS
  0
LINE
  8
WHITE
 10
2.939367
 20
8.311752
 30
0.000000
 11
2.994488
 21
8.236065
 31
0.000000
  6
CONTINUOUS
  0
ARC
  8
WHITE
 10
2.977284
 20
8.223536
 30
0.000000
 40
0.021282
 50
-102.917908
 51
36.064302
  6
CONTINUOUS
  0
LINE
  8
WHITE
 10
2.972527
 20
8.202792
 30
0.000000
 11
2.874811
 21
8.225205
 31
0.000000
  6
CONTINUOUS
  0
LINE
  8
WHITE
 10
2.874811
 20
8.225205
 30
0.000000
 11
2.705679
 21
8.238470
 31
0.000000
  6
CONTINUOUS
  0
ARC
  8
WHITE
 10
2.704016
 20
8.217253
 30
0.000000
 40
0.021282
 50
85.516777
 51
228.771854
  6
CONTINUOUS
  0
LINE
  8
WHITE
 10
2.689989
 20
8.201247
 30
0.000000
 11
2.766272
 21
8.134401
 31
0.000000
  6
CONTINUOUS
  0
LINE
  8
WHITE
 10
2.766272
 20
8.134401
 30
0.000000
 11
2.922341
 21
8.000323
 31
0.000000
  6
CONTINUOUS
  0
LINE
  8
WHITE
 10
2.922341
 20
8.000323
 30
0.000000
 11
2.995410
 21
7.901006
 31
0.000000
  6
CONTINUOUS
  0
LINE
  8
WHITE
 10
2.995410
 20
7.901006
 30
0.000000
 11
3.032152
 21
7.809527
 31
0.000000
  6
CONTINUOUS
  0
ARC
  8
WHITE
 10
3.012403
 20
7.801595
 30
0.000000
 40
0.021282
 50
-104.257006
 51
21.882626
  6
CONTINUOUS
  0
LINE
  8
WHITE
 10
3.007162
 20
7.780968
 30
0.000000
 11
2.908863
 21
7.805946
 31
0.000000
  6
CONTINUOUS
  0
LINE
  8
WHITE
 10
2.908863
 20
7.805946
 30
0.000000
 11
2.840050
 21
7.805946
 31
0.000000
  6
CONTINUOUS
  0
LINE
  8
WHITE
 10
2.840050
 20
7.805946
 30
0.000000
 11
2.731703
 21
7.801831
 31
0.000000
  6
CONTINUOUS
  0
ARC
  8
WHITE
 10
2.732511
 20
7.780565
 30
0.000000
 40
0.021282
 50
92.175879
 51
190.567916
  6
CONTINUOUS
  0
LINE
  8
WHITE
 10
2.711590
 20
7.776662
 30
0.000000
 11
2.727964
 21
7.688894
 31
0.000000
  6
CONTINUOUS
  0
LINE
  8
WHITE
 10
2.727964
 20
7.688894
 30
0.000000
 11
2.860622
 21
7.616534
 31
0.000000
  6
CONTINUOUS
  0
LINE
  8
WHITE
 10
2.860622
 20
7.616534
 30
0.000000
 11
3.111753
 21
7.508705
 31
0.000000
  6
CONTINUOUS
  0
LINE
  8
WHITE
 10
3.111753
 20
7.508705
 30
0.000000
 11
3.193334
 21
7.434927
 31
0.000000
  6
CONTINUOUS
  0
LINE
  8
WHITE
 10
3.193334
 20
7.434927
 30
0.000000
 11
3.238629
 21
7.377519
 31
0.000000
  6
CONTINUOUS
  0
ARC
  8
WHITE
 10
3.221921
 20
7.364336
 30
0.000000
 40
0.021282
 50
-61.741950
 51
38.274147
  6
CONTINUOUS
  0
LINE
  8
WHITE
 10
3.231997
 20
7.345590
 30
0.000000
 11
3.197591
 21
7.327097
 31
0.000000
  6
CONTINUOUS
  0
LINE
  8
WHITE
 10
3.197591
 20
7.327097
 30
0.000000
 11
3.094018
 21
7.331353
 31
0.000000
  6
CONTINUOUS
  0
LINE
  8
WHITE
 10
3.094018
 20
7.331353
 30
0.000000
 11
2.933859
 21
7.320851
 31
0.000000
  6
CONTINUOUS
  0
ARC
  8
WHITE
 10
2.935251
 20
7.299615
 30
0.000000
 40
0.021282
 50
93.751697
 51
216.536813
  6
CONTINUOUS
  0
LINE
  8
WHITE
 10
2.918152
 20
7.286945
 30
0.000000
 11
3.151188
 21
6.972449
 31
0.000000
  6
CONTINUOUS
  0
ARC
  8
WHITE
 10
3.168288
 20
6.985119
 30
0.000000
 40
0.021282
 50
-143.461653
 51
-27.989011
  6
CONTINUOUS
  0
LINE
  8
WHITE
 10
3.187080
 20
6.975132
 30
0.000000
 11
3.279881
 21
7.149745
 31
0.000000
  6
CONTINUOUS
  0
LINE
  8
WHITE
 10
3.279881
 20
7.149745
 30
0.000000
 11
3.531011
 21
7.305815
 31
0.000000
  6
CONTINUOUS
  0
LINE
  8
WHITE
 10
3.531011
 20
7.305815
 30
0.000000
 11
3.626072
 21
7.391653
 31
0.000000
  6
CONTINUOUS
  0
LINE
  8
WHITE
 10
3.626072
 20
7.391653
 30
0.000000
 11
3.680274
 21
7.531031
 31
0.000000
  6
CONTINUOUS
  0
ARC
  8
WHITE
 10
3.660439
 20
7.538745
 30
0.000000
 40
0.021282
 50
-21.250403
 51
102.816541
  6
CONTINUOUS
  0
LINE
  8
WHITE
 10
3.655718
 20
7.559497
 30
0.000000
 11
3.494832
 21
7.522893
 31
0.000000
  6
CONTINUOUS
  0
LINE
  8
WHITE
 10
3.494832
 20
7.522893
 30
0.000000
 11
3.408285
 21
7.493098
 31
0.000000
  6
CONTINUOUS
  0
LINE
  8
WHITE
 10
3.408285
 20
7.493098
 30
0.000000
 11
3.379158
 21
7.476307
 31
0.000000
  6
CONTINUOUS
  0
ARC
  8
WHITE
 10
3.368529
 20
7.494745
 30
0.000000
 40
0.021282
 50
150.785330
 51
299.961856
  6
CONTINUOUS
  0
LINE
  8
WHITE
 10
3.349954
 20
7.505133
 30
0.000000
 11
3.408285
 21
7.609440
 31
0.000000
  6
CONTINUOUS
  0
LINE
  8
WHITE
 10
3.408285
 20
7.609440
 30
0.000000
 11
3.581379
 21
7.735005
 31
0.000000
  6
CONTINUOUS
  0
LINE
  8
WHITE
 10
3.581379
 20
7.735005
 30
0.000000
 11
3.733193
 21
7.860570
 31
0.000000
  6
CONTINUOUS
  0
LINE
  8
WHITE
 10
3.733193
 20
7.860570
 30
0.000000
 11
3.776466
 21
7.899587
 31
0.000000
  6
CONTINUOUS
  0
LINE
  8
WHITE
 10
3.776466
 20
7.899587
 30
0.000000
 11
3.820914
 21
7.962591
 31
0.000000
  6
CONTINUOUS
  0
ARC
  8
WHITE
 10
3.803524
 20
7.974860
 30
0.000000
 40
0.021282
 50
-35.202375
 51
98.392892
  6
CONTINUOUS
  0
LINE
  8
WHITE
 10
3.800418
 20
7.995914
 30
0.000000
 11
3.762988
 21
7.990391
 31
0.000000
  6
CONTINUOUS
  0
LINE
  8
WHITE
 10
3.762988
 20
7.990391
 30
0.000000
 11
3.689918
 21
7.990391
 31
0.000000
  6
CONTINUOUS
  0
LINE
  8
WHITE
 10
3.689918
 20
7.990391
 30
0.000000
 11
3.650060
 21
8.007540
 31
0.000000
  6
CONTINUOUS
  0
ARC
  8
WHITE
 10
3.658471
 20
8.027090
 30
0.000000
 40
0.021282
 50
137.440645
 51
246.721186
  6
CONTINUOUS
  0
LINE
  8
WHITE
 10
3.642795
 20
8.041484
 30
0.000000
 11
3.758731
 21
8.167743
 31
0.000000
  6
CONTINUOUS
  0
LINE
  8
WHITE
 10
3.758731
 20
8.167743
 30
0.000000
 11
3.867270
 21
8.271316
 31
0.000000
  6
CONTINUOUS
  0
LINE
  8
WHITE
 10
3.867270
 20
8.271316
 30
0.000000
 11
3.927569
 21
8.367086
 31
0.000000
  6
CONTINUOUS
  0
LINE
  8
WHITE
 10
3.927569
 20
8.367086
 30
0.000000
 11
3.936082
 21
8.513933
 31
0.000000
  6
CONTINUOUS
  0
LINE
  8
WHITE
 10
3.936082
 20
8.513933
 30
0.000000
 11
4.025593
 21
8.703580
 31
0.000000
  6
CONTINUOUS
  0
ARC
  8
WHITE
 10
4.044839
 20
8.694496
 30
0.000000
 40
0.021282
 50
26.893890
 51
154.733312
  6
CONTINUOUS
  0
LINE
  8
WHITE
 10
4.063819
 20
8.704123
 30
0.000000
 11
4.308520
 21
8.221658
 31
0.000000
  6
CONTINUOUS
  0
LINE
  8
WHITE
 10
4.308520
 20
8.221658
 30
0.000000
 11
4.462462
 21
8.018058
 31
0.000000
  6
CONTINUOUS
  0
LINE
  8
WHITE
 10
4.462462
 20
8.018058
 30
0.000000
 11
4.502897
 21
7.930801
 31
0.000000
  6
CONTINUOUS
  0
LINE
  8
WHITE
 10
4.502897
 20
7.930801
 30
0.000000
 11
4.502897
 21
7.834322
 31
0.000000
  6
CONTINUOUS
  0
LINE
  8
WHITE
 10
4.502897
 20
7.834322
 30
0.000000
 11
4.585188
 21
7.764091
 31
0.000000
  6
CONTINUOUS
  0
LINE
  8
WHITE
 10
4.585188
 20
7.764091
 30
0.000000
 11
4.762539
 21
7.618663
 31
0.000000
  6
CONTINUOUS
  0
LINE
  8
WHITE
 10
4.762539
 20
7.618663
 30
0.000000
 11
4.817978
 21
7.563861
 31
0.000000
  6
CONTINUOUS
  0
ARC
  8
WHITE
 10
4.775587
 20
7.520978
 30
0.000000
 40
0.060299
 50
-93.366436
 51
45.331164
  6
CONTINUOUS
  0
LINE
  8
WHITE
 10
4.772046
 20
7.460782
 30
0.000000
 11
4.668898
 21
7.466850
 31
0.000000
  6
CONTINUOUS
  0
LINE
  8
WHITE
 10
4.668898
 20
7.466850
 30
0.000000
 11
4.550295
 21
7.385602
 31
0.000000
  6
CONTINUOUS
  0
ARC
  8
WHITE
 10
4.584373
 20
7.335855
 30
0.000000
 40
0.060300
 50
124.412845
 51
250.906165
  6
CONTINUOUS
  0
LINE
  8
WHITE
 10
4.564648
 20
7.278873
 30
0.000000
 11
4.788079
 21
7.201532
 31
0.000000
  6
CONTINUOUS
  0
LINE
  8
WHITE
 10
4.788079
 20
7.201532
 30
0.000000
 11
4.844122
 21
7.131301
 31
0.000000
  6
CONTINUOUS
  0
LINE
  8
WHITE
 10
4.844122
 20
7.131301
 30
0.000000
 11
4.983875
 21
7.055395
 31
0.000000
  6
CONTINUOUS
  0
LINE
  8
WHITE
 10
4.983875
 20
7.055395
 30
0.000000
 11
5.048635
 21
6.929797
 31
0.000000
  6
CONTINUOUS
  0
ARC
  8
WHITE
 10
4.995041
 20
6.902163
 30
0.000000
 40
0.060299
 50
-89.999999
 51
27.276755
  6
CONTINUOUS
  0
LINE
  8
WHITE
 10
4.995041
 20
6.841863
 30
0.000000
 11
4.926488
 21
6.841863
 31
0.000000
  6
CONTINUOUS
  0
ARC
  8
WHITE
 10
4.926488
 20
6.902163
 30
0.000000
 40
0.060299
 50
-124.147922
 51
-90.000000
  6
CONTINUOUS
  0
LINE
  8
WHITE
 10
4.892640
 20
6.852260
 30
0.000000
 11
4.826386
 21
6.897197
 31
0.000000
  6
CONTINUOUS
  0
LINE
  8
WHITE
 10
4.826386
 20
6.897197
 30
0.000000
 11
4.591790
 21
6.908531
 31
0.000000
  6
CONTINUOUS
  0
ARC
  8
WHITE
 10
4.588880
 20
6.848301
 30
0.000000
 40
0.060300
 50
87.233900
 51
231.210391
  6
CONTINUOUS
  0
LINE
  8
WHITE
 10
4.551104
 20
6.801301
 30
0.000000
 11
4.776019
 21
6.620529
 31
0.000000
  6
CONTINUOUS
  0
LINE
  8
WHITE
 10
4.776019
 20
6.620529
 30
0.000000
 11
4.866823
 21
6.555973
 31
0.000000
  6
CONTINUOUS
  0
LINE
  8
WHITE
 10
4.866823
 20
6.555973
 30
0.000000
 11
4.963302
 21
6.494255
 31
0.000000
  6
CONTINUOUS
  0
LINE
  8
WHITE
 10
4.963302
 20
6.494255
 30
0.000000
 11
5.047721
 21
6.427570
 31
0.000000
  6
CONTINUOUS
  0
LINE
  8
WHITE
 10
5.047721
 20
6.427570
 30
0.000000
 11
5.170448
 21
6.368690
 31
0.000000
  6
CONTINUOUS
  0
LINE
  8
WHITE
 10
5.170448
 20
6.368690
 30
0.000000
 11
5.349095
 21
6.235384
 31
0.000000
  6
CONTINUOUS
  0
ARC
  8
WHITE
 10
5.323639
 20
6.201270
 30
0.000000
 40
0.042565
 50
-89.999999
 51
53.269903
  6
CONTINUOUS
  0
LINE
  8
WHITE
 10
5.323639
 20
6.158706
 30
0.000000
 11
5.122917
 21
6.158706
 31
0.000000
  6
CONTINUOUS
  0
LINE
  8
WHITE
 10
5.122917
 20
6.158706
 30
0.000000
 11
5.070421
 21
6.188501
 31
0.000000
  6
CONTINUOUS
  0
LINE
  8
WHITE
 10
5.070421
 20
6.188501
 30
0.000000
 11
5.026440
 21
6.217586
 31
0.000000
  6
CONTINUOUS
  0
LINE
  8
WHITE
 10
5.026440
 20
6.217586
 30
0.000000
 11
4.986003
 21
6.188501
 31
0.000000
  6
CONTINUOUS
  0
LINE
  8
WHITE
 10
4.986003
 20
6.188501
 30
0.000000
 11
4.898036
 21
6.182116
 31
0.000000
  6
CONTINUOUS
  0
LINE
  8
WHITE
 10
4.898036
 20
6.182116
 30
0.000000
 11
4.833481
 21
6.188501
 31
0.000000
  6
CONTINUOUS
  0
LINE
  8
WHITE
 10
4.833481
 20
6.188501
 30
0.000000
 11
4.757573
 21
6.147355
 31
0.000000
  6
CONTINUOUS
  0
LINE
  8
WHITE
 10
4.757573
 20
6.147355
 30
0.000000
 11
4.792334
 21
6.050876
 31
0.000000
  6
CONTINUOUS
  0
LINE
  8
WHITE
 10
4.792334
 20
6.050876
 30
0.000000
 11
4.944856
 21
5.904029
 31
0.000000
  6
CONTINUOUS
  0
LINE
  8
WHITE
 10
4.944856
 20
5.904029
 30
0.000000
 11
5.017217
 21
5.849405
 31
0.000000
  6
CONTINUOUS
  0
LINE
  8
WHITE
 10
5.017217
 20
5.849405
 30
0.000000
 11
5.163356
 21
5.794071
 31
0.000000
  6
CONTINUOUS
  0
LINE
  8
WHITE
 10
5.163356
 20
5.794071
 30
0.000000
 11
5.481503
 21
5.663963
 31
0.000000
  6
CONTINUOUS
  0
ARC
  8
WHITE
 10
5.458678
 20
5.608150
 30
0.000000
 40
0.060299
 50
-42.240421
 51
67.757357
  6
CONTINUOUS
  0
LINE
  8
WHITE
 10
5.503319
 20
5.567614
 30
0.000000
 11
5.485424
 21
5.547907
 31
0.000000
  6
CONTINUOUS
  0
LINE
  8
WHITE
 10
5.485424
 20
5.547907
 30
0.000000
 11
5.368372
 21
5.506762
 31
0.000000
  6
CONTINUOUS
  0
LINE
  8
WHITE
 10
5.368372
 20
5.506762
 30
0.000000
 11
5.152003
 21
5.495411
 31
0.000000
  6
CONTINUOUS
  0
LINE
  8
WHITE
 10
5.152003
 20
5.495411
 30
0.000000
 11
5.008703
 21
5.535847
 31
0.000000
  6
CONTINUOUS
  0
LINE
  8
WHITE
 10
5.008703
 20
5.535847
 30
0.000000
 11
4.884165
 21
5.554604
 31
0.000000
  6
CONTINUOUS
  0
ARC
  8
WHITE
 10
4.875185
 20
5.494977
 30
0.000000
 40
0.060299
 50
81.435294
 51
235.460144
  6
CONTINUOUS
  0
LINE
  8
WHITE
 10
4.840996
 20
5.445306
 30
0.000000
 11
4.920738
 21
5.390419
 31
0.000000
  6
CONTINUOUS
  0
LINE
  8
WHITE
 10
4.920738
 20
5.390419
 30
0.000000
 11
4.966848
 21
5.288265
 31
0.000000
  6
CONTINUOUS
  0
LINE
  8
WHITE
 10
4.966848
 20
5.288265
 30
0.000000
 11
5.159808
 21
5.085375
 31
0.000000
  6
CONTINUOUS
  0
LINE
  8
WHITE
 10
5.159808
 20
5.085375
 30
0.000000
 11
5.298851
 21
5.049195
 31
0.000000
  6
CONTINUOUS
  0
LINE
  8
WHITE
 10
5.298851
 20
5.049195
 30
0.000000
 11
5.459177
 21
4.971870
 31
0.000000
  6
CONTINUOUS
  0
LINE
  8
WHITE
 10
5.459177
 20
4.971870
 30
0.000000
 11
5.668689
 21
4.974578
 31
0.000000
  6
CONTINUOUS
  0
ARC
  8
WHITE
 10
5.670459
 20
4.946257
 30
0.000000
 40
0.028376
 50
-52.274652
 51
93.576337
  6
CONTINUOUS
  0
LINE
  8
WHITE
 10
5.687822
 20
4.923813
 30
0.000000
 11
5.634399
 21
4.882485
 31
0.000000
  6
CONTINUOUS
  0
LINE
  8
WHITE
 10
5.634399
 20
4.882485
 30
0.000000
 11
5.459177
 21
4.814382
 31
0.000000
  6
CONTINUOUS
  0
LINE
  8
WHITE
 10
5.459177
 20
4.814382
 30
0.000000
 11
5.309491
 21
4.799484
 31
0.000000
  6
CONTINUOUS
  0
LINE
  8
WHITE
 10
5.309491
 20
4.799484
 30
0.000000
 11
5.260542
 21
4.743441
 31
0.000000
  6
CONTINUOUS
  0
LINE
  8
WHITE
 10
5.260542
 20
4.743441
 30
0.000000
 11
5.110858
 21
4.728544
 31
0.000000
  6
CONTINUOUS
  0
LINE
  8
WHITE
 10
5.110858
 20
4.728544
 30
0.000000
 11
5.023227
 21
4.721802
 31
0.000000
  6
CONTINUOUS
  0
ARC
  8
WHITE
 10
5.025404
 20
4.693509
 30
0.000000
 40
0.028376
 50
94.399553
 51
209.171389
  6
CONTINUOUS
  0
ARC
  8
WHITE
 10
5.332994
 20
4.867037
 30
0.000000
 40
0.381539
 50
-150.589609
 51
-77.976653
  6
CONTINUOUS
  0
ARC
  8
WHITE
 10
5.382700
 20
4.060516
 30
0.000000
 40
0.434374
 50
28.183165
 51
86.069716
  6
CONTINUOUS
  0
ARC
  8
WHITE
 10
5.740516
 20
4.252352
 30
0.000000
 40
0.028376
 50
-81.869889
 51
27.983967
  6
CONTINUOUS
  0
LINE
  8
WHITE
 10
5.744529
 20
4.224261
 30
0.000000
 11
5.337559
 21
4.166123
 31
0.000000
  6
CONTINUOUS
  0
LINE
  8
WHITE
 10
5.337559
 20
4.166123
 30
0.000000
 11
5.213429
 21
4.060612
 31
0.000000
  6
CONTINUOUS
  0
ARC
  8
WHITE
 10
5.259374
 20
4.006560
 30
0.000000
 40
0.070941
 50
130.364581
 51
278.797303
  6
CONTINUOUS
  0
LINE
  8
WHITE
 10
5.270223
 20
3.936453
 30
0.000000
 11
5.479040
 21
3.968770
 31
0.000000
  6
CONTINUOUS
  0
LINE
  8
WHITE
 10
5.479040
 20
3.968770
 30
0.000000
 11
5.806076
 21
3.923861
 31
0.000000
  6
CONTINUOUS
  0
ARC
  8
WHITE
 10
5.814280
 20
3.983600
 30
0.000000
 40
0.060299
 50
-97.819173
 51
-45.726320
  6
CONTINUOUS
  0
ARC
  8
WHITE
 10
5.074965
 20
4.741897
 30
0.000000
 40
1.119357
 50
-45.726194
 51
-7.714941
  6
CONTINUOUS
  0
ARC
  8
WHITE
 10
2.664587
 20
4.696591
 30
0.000000
 40
3.521167
 50
-1.708166
 51
22.080488
  6
CONTINUOUS
  0
ARC
  8
WHITE
 10
7.769998
 20
7.453426
 30
0.000000
 40
2.334278
 50
-176.307949
 51
-142.122225
  6
CONTINUOUS
  0
ARC
  8
WHITE
 10
6.642601
 20
8.415712
 30
0.000000
 40
1.637916
 50
-165.000818
 51
-137.212808
  6
CONTINUOUS
  0
ARC
  8
WHITE
 10
2.391278
 20
7.779716
 30
0.000000
 40
2.677624
 50
4.543152
 51
17.356351
  6
CONTINUOUS
  0
ARC
  8
WHITE
 10
3.658126
 20
7.644655
 30
0.000000
 40
1.591604
 50
35.924956
 51
61.054480
  6
CONTINUOUS
  0
ARC
  8
WHITE
 10
4.414693
 20
9.012604
 30
0.000000
 40
0.028376
 50
61.053584
 51
148.570231
  6
CONTINUOUS
  0
LINE
  8
WHITE
 10
4.390481
 20
9.027401
 30
0.000000
 11
4.301997
 21
8.882608
 31
0.000000
  6
CONTINUOUS
  0
ARC
  8
WHITE
 10
4.277784
 20
8.897405
 30
0.000000
 40
0.028376
 50
-144.597511
 51
-31.429771
  6
CONTINUOUS
  0
ARC
  8
WHITE
 10
-0.407342
 20
5.567557
 30
0.000000
 40
5.719518
 50
35.402452
 51
45.049592
  6
CONTINUOUS
  0
ARC
  8
WHITE
 10
3.613192
 20
9.595512
 30
0.000000
 40
0.028377
 50
44.401300
 51
178.363519
  6
CONTINUOUS
  0
LINE
  8
WHITE
 10
3.584827
 20
9.596322
 30
0.000000
 11
3.569544
 21
9.061388
 31
0.000000
  6
CONTINUOUS
  0
ARC
  8
WHITE
 10
3.541180
 20
9.062198
 30
0.000000
 40
0.028376
 50
-146.634509
 51
-1.636004
  6
CONTINUOUS
  0
LINE
  8
WHITE
 10
3.517480
 20
9.046592
 30
0.000000
 11
3.326991
 21
9.335855
 31
0.000000
  6
CONTINUOUS
  0
ARC
  8
WHITE
 10
3.303292
 20
9.320249
 30
0.000000
 40
0.028376
 50
33.366102
 51
138.813266
  6
CONTINUOUS
  0
LINE
  8
WHITE
 10
3.281938
 20
9.338935
 30
0.000000
 11
3.236361
 21
9.286847
 31
0.000000
  6
CONTINUOUS
  0
ARC
  8
WHITE
 10
3.215005
 20
9.305533
 30
0.000000
 40
0.028376
 50
-126.326148
 51
-41.185790
  6
CONTINUOUS
  0
LINE
  8
WHITE
 10
3.198196
 20
9.282672
 30
0.000000
 11
3.148642
 21
9.319108
 31
0.000000
  6
CONTINUOUS
  0
LINE
  8
WHITE
 10
3.148642
 20
9.319108
 30
0.000000
 11
3.076283
 21
9.324783
 31
0.000000
  6
CONTINUOUS
  0
LINE
  8
WHITE
 10
3.076283
 20
9.324783
 30
0.000000
 11
3.016603
 21
9.341498
 31
0.000000
  6
CONTINUOUS
  0
ARC
  8
WHITE
 10
3.024255
 20
9.368823
 30
0.000000
 40
0.028376
 50
-148.706578
 51
-105.645886
  6
CONTINUOUS
  0
ARC
  8
WHITE
 10
4.240973
 20
10.108389
 30
0.000000
 40
1.452230
 50
-164.079366
 51
-148.707196
  6
CONTINUOUS
  0
ARC
  8
WHITE
 10
2.816527
 20
9.704968
 30
0.000000
 40
0.028376
 50
10.283988
 51
159.274297
  6
CONTINUOUS
  0
LINE
  8
WHITE
 10
2.789986
 20
9.715010
 30
0.000000
 11
2.678139
 21
9.419411
 31
0.000000
  6
CONTINUOUS
  0
LINE
  8
WHITE
 10
2.678139
 20
9.419411
 30
0.000000
 11
2.618327
 21
9.339664
 31
0.000000
  6
CONTINUOUS
  0
ARC
  8
WHITE
 10
2.595627
 20
9.356690
 30
0.000000
 40
0.028376
 50
-170.537848
 51
-36.871901
  6
CONTINUOUS
  0
LINE
  8
WHITE
 10
2.567637
 20
9.352025
 30
0.000000
 11
2.544603
 21
9.490226
 31
0.000000
  6
CONTINUOUS
  0
ARC
  8
WHITE
 10
2.516613
 20
9.485561
 30
0.000000
 40
0.028376
 50
9.462148
 51
104.034158
  6
CONTINUOUS
  0
LINE
  8
WHITE
 10
2.509732
 20
9.513090
 30
0.000000
 11
2.379759
 21
9.477852
 31
0.000000
  6
CONTINUOUS
  0
ARC
  8
WHITE
 10
2.371605
 20
9.505031
 30
0.000000
 40
0.028376
 50
176.819853
 51
286.700441
  6
CONTINUOUS
  0
LINE
  8
WHITE
 10
2.343273
 20
9.506606
 30
0.000000
 11
2.349838
 21
9.624781
 31
0.000000
  6
CONTINUOUS
  0
ARC
  8
WHITE
 10
2.321505
 20
9.626355
 30
0.000000
 40
0.028376
 50
-3.180147
 51
139.600212
  6
CONTINUOUS
  0
LINE
  8
WHITE
 10
2.299895
 20
9.644747
 30
0.000000
 11
1.905062
 21
9.180820
 31
0.000000
  6
CONTINUOUS
  0
ARC
  8
WHITE
 10
1.883452
 20
9.199212
 30
0.000000
 40
0.028376
 50
173.885055
 51
319.599284
  6
CONTINUOUS
  0
LINE
  8
WHITE
 10
1.855237
 20
9.202234
 30
0.000000
 11
1.883281
 21
9.463979
 31
0.000000
  6
CONTINUOUS
  0
ARC
  8
WHITE
 10
1.855067
 20
9.467002
 30
0.000000
 40
0.028376
 50
-6.115097
 51
133.452171
  6
CONTINUOUS
  0
LINE
  8
WHITE
 10
1.835551
 20
9.487602
 30
0.000000
 11
1.513426
 21
9.182431
 31
0.000000
  6
CONTINUOUS
  0
LINE
  8
WHITE
 10
1.513426
 20
9.182431
 30
0.000000
 11
1.446523
 21
9.167435
 31
0.000000
  6
CONTINUOUS
  0
ARC
  8
WHITE
 10
1.454282
 20
9.132823
 30
0.000000
 40
0.035470
 50
102.634294
 51
180.000000
  6
CONTINUOUS
  0
LINE
  8
WHITE
 10
11.274434
 20
4.194215
 30
0.000000
 11
9.022164
 21
4.155714
 31
0.000000
  6
CONTINUOUS
  0
ARC
  8
WHITE
 10
9.022528
 20
4.134435
 30
0.000000
 40
0.021282
 50
90.979793
 51
250.371565
  6
CONTINUOUS
  0
LINE
  8
WHITE
 10
9.015379
 20
4.114389
 30
0.000000
 11
9.175043
 21
4.057446
 31
0.000000
  6
CONTINUOUS
  0
LINE
  8
WHITE
 10
9.175043
 20
4.057446
 30
0.000000
 11
10.071024
 21
3.995728
 31
0.000000
  6
CONTINUOUS
  0
LINE
  8
WHITE
 10
10.071024
 20
3.995728
 30
0.000000
 11
10.111459
 21
3.905633
 31
0.000000
  6
CONTINUOUS
  0
LINE
  8
WHITE
 10
10.111459
 20
3.905633
 30
0.000000
 11
10.586684
 21
3.893998
 31
0.000000
  6
CONTINUOUS
  0
ARC
  8
WHITE
 10
10.585642
 20
3.851446
 30
0.000000
 40
0.042564
 50
-31.669282
 51
88.597416
  6
CONTINUOUS
  0
ARC
  8
WHITE
 10
10.657792
 20
3.806262
 30
0.000000
 40
0.042568
 50
147.555409
 51
261.870169
  6
CONTINUOUS
  0
LINE
  8
WHITE
 10
10.651773
 20
3.764125
 30
0.000000
 11
10.823681
 21
3.739567
 31
0.000000
  6
CONTINUOUS
  0
ARC
  8
WHITE
 10
10.816659
 20
3.690407
 30
0.000000
 40
0.049658
 50
8.263684
 51
81.869822
  6
CONTINUOUS
  0
LINE
  8
WHITE
 10
10.865801
 20
3.697545
 30
0.000000
 11
10.879506
 21
3.603184
 31
0.000000
  6
CONTINUOUS
  0
ARC
  8
WHITE
 10
10.928648
 20
3.610321
 30
0.000000
 40
0.049658
 50
-171.736316
 51
-99.054326
  6
CONTINUOUS
  0
LINE
  8
WHITE
 10
10.920833
 20
3.561281
 30
0.000000
 11
11.350792
 21
3.492759
 31
0.000000
  6
CONTINUOUS
  0
LINE
  8
WHITE
 10
11.350792
 20
3.492759
 30
0.000000
 11
11.496219
 21
3.398408
 31
0.000000
  6
CONTINUOUS
  0
LINE
  8
WHITE
 10
11.496219
 20
3.398408
 30
0.000000
 11
11.738835
 21
3.316117
 31
0.000000
  6
CONTINUOUS
  0
LINE
  8
WHITE
 10
11.738835
 20
3.316117
 30
0.000000
 11
11.948111
 21
3.250142
 31
0.000000
  6
CONTINUOUS
  0
LINE
  8
WHITE
 10
11.948111
 20
3.250142
 30
0.000000
 11
12.061192
 21
3.214804
 31
0.000000
  6
CONTINUOUS
  0
ARC
  8
WHITE
 10
12.069656
 20
3.241888
 30
0.000000
 40
0.028376
 50
-107.354225
 51
24.057023
  6
CONTINUOUS
  0
LINE
  8
WHITE
 10
12.095568
 20
3.253456
 30
0.000000
 11
12.045040
 21
3.366636
 31
0.000000
  6
CONTINUOUS
  0
ARC
  8
WHITE
 10
11.999696
 20
3.346393
 30
0.000000
 40
0.049658
 50
24.057538
 51
78.366130
  6
CONTINUOUS
  0
LINE
  8
WHITE
 10
12.009710
 20
3.395031
 30
0.000000
 11
11.672861
 21
3.464383
 31
0.000000
  6
CONTINUOUS
  0
LINE
  8
WHITE
 10
11.672861
 20
3.464383
 30
0.000000
 11
11.601677
 21
3.524521
 31
0.000000
  6
CONTINUOUS
  0
ARC
  8
WHITE
 10
11.613122
 20
3.538069
 30
0.000000
 40
0.017735
 50
151.113673
 51
229.808215
  6
CONTINUOUS
  0
LINE
  8
WHITE
 10
11.597593
 20
3.546636
 30
0.000000
 11
11.611631
 21
3.572081
 31
0.000000
  6
CONTINUOUS
  0
ARC
  8
WHITE
 10
11.561940
 20
3.599496
 30
0.000000
 40
0.056752
 50
-28.886538
 51
77.969219
  6
CONTINUOUS
  0
LINE
  8
WHITE
 10
11.573770
 20
3.655002
 30
0.000000
 11
11.428844
 21
3.685888
 31
0.000000
  6
CONTINUOUS
  0
ARC
  8
WHITE
 10
11.432540
 20
3.703233
 30
0.000000
 40
0.017735
 50
162.239088
 51
257.971354
  6
CONTINUOUS
  0
LINE
  8
WHITE
 10
11.415650
 20
3.708643
 30
0.000000
 11
11.430711
 21
3.755662
 31
0.000000
  6
CONTINUOUS
  0
ARC
  8
WHITE
 10
11.376664
 20
3.772974
 30
0.000000
 40
0.056752
 50
-17.761077
 51
90.000003
  6
CONTINUOUS
  0
LINE
  8
WHITE
 10
11.376664
 20
3.829727
 30
0.000000
 11
11.187045
 21
3.829727
 31
0.000000
  6
CONTINUOUS
  0
ARC
  8
WHITE
 10
11.187045
 20
3.875838
 30
0.000000
 40
0.046111
 50
106.509026
 51
270.000000
  6
CONTINUOUS
  0
LINE
  8
WHITE
 10
11.173942
 20
3.920049
 30
0.000000
 11
11.508277
 21
4.019138
 31
0.000000
  6
CONTINUOUS
  0
LINE
  8
WHITE
 10
11.508277
 20
4.019138
 30
0.000000
 11
12.065729
 21
4.121100
 31
0.000000
  6
CONTINUOUS
  0
ARC
  8
WHITE
 10
12.061901
 20
4.142035
 30
0.000000
 40
0.021282
 50
-79.635879
 51
87.755345
  6
CONTINUOUS
  0
LINE
  8
WHITE
 10
12.062734
 20
4.163301
 30
0.000000
 11
11.274434
 21
4.194215
 31
0.000000
  6
CONTINUOUS
  0
ARC
  8
WHITE
 10
10.153532
 20
12.423006
 30
0.000000
 40
1.325077
 50
177.357903
 51
205.874961
  6
CONTINUOUS
  0
ARC
  8
WHITE
 10
9.200176
 20
8.127741
 30
0.000000
 40
3.724658
 50
86.322813
 51
93.677173
  6
CONTINUOUS
  0
ARC
  8
WHITE
 10
4.807943
 20
11.779422
 30
0.000000
 40
4.631574
 50
0.807954
 51
14.635801
  6
CONTINUOUS
  0
ARC
  8
WHITE
 10
9.915873
 20
13.128090
 30
0.000000
 40
0.651540
 50
177.205624
 51
195.890413
  6
CONTINUOUS
  0
ARC
  8
WHITE
 10
9.293450
 20
13.158471
 30
0.000000
 40
0.028376
 50
28.785254
 51
177.205610
  6
CONTINUOUS
  0
LINE
  8
WHITE
 10
9.318320
 20
13.172135
 30
0.000000
 11
9.437133
 21
12.955882
 31
0.000000
  6
CONTINUOUS
  0
ARC
  8
WHITE
 10
9.462002
 20
12.969546
 30
0.000000
 40
0.028376
 50
-151.214746
 51
-6.632814
  6
CONTINUOUS
  0
ARC
  8
WHITE
 10
8.144162
 20
13.122791
 30
0.000000
 40
1.355097
 50
-6.632822
 51
11.312114
  6
CONTINUOUS
  0
ARC
  8
WHITE
 10
59.366348
 20
-172.500939
 30
0.000000
 40
192.468887
 50
105.024288
 51
105.270893
  6
CONTINUOUS
  0
ARC
  8
WHITE
 10
12.833768
 20
13.570532
 30
0.000000
 40
4.179485
 50
-174.530106
 51
-170.643660
  6
CONTINUOUS
  0
ARC
  8
WHITE
 10
8.727384
 20
12.893939
 30
0.000000
 40
0.017735
 50
-170.643415
 51
-31.154830
  6
CONTINUOUS
  0
ARC
  8
WHITE
 10
9.055391
 20
12.695640
 30
0.000000
 40
0.365554
 50
103.880784
 51
148.844603
  6
CONTINUOUS
  0
ARC
  8
WHITE
 10
8.971948
 20
13.033302
 30
0.000000
 40
0.017735
 50
-34.370541
 51
103.881339
  6
CONTINUOUS
  0
ARC
  8
WHITE
 10
9.678473
 20
12.550068
 30
0.000000
 40
0.838239
 50
145.629463
 51
175.239554
  6
CONTINUOUS
  0
ARC
  8
WHITE
 10
10.153532
 20
12.423006
 30
0.000000
 40
1.325077
 50
171.466415
 51
176.863105
  6
CONTINUOUS
  0
LINE
  8
WHITE
 10
8.830441
 20
12.495517
 30
0.000000
 11
8.829864
 21
12.484088
 31
0.000000
  6
CONTINUOUS
  0
ARC
  8
WHITE
 10
6.794748
 20
12.505485
 30
0.000000
 40
1.553808
 50
-0.367558
 51
4.645169
  6
CONTINUOUS
  0
ARC
  8
WHITE
 10
10.476908
 20
12.564974
 30
0.000000
 40
2.134487
 50
165.477762
 51
178.218812
  6
CONTINUOUS
  0
ARC
  8
WHITE
 10
59.366348
 20
-172.500939
 30
0.000000
 40
192.468887
 50
105.351973
 51
105.468134
  6
CONTINUOUS
  0
ARC
  8
WHITE
 10
8.174134
 20
12.174312
 30
0.000000
 40
0.833991
 50
99.642901
 51
147.449263
  6
CONTINUOUS
  0
ARC
  8
WHITE
 10
9.390344
 20
14.722759
 30
0.000000
 40
2.844668
 50
-132.428069
 51
-112.666194
  6
CONTINUOUS
  0
ARC
  8
WHITE
 10
6.794748
 20
12.505485
 30
0.000000
 40
1.553808
 50
-15.211340
 51
-0.602238
  6
CONTINUOUS
  0
LINE
  8
WHITE
 10
8.348470
 20
12.489153
 30
0.000000
 11
8.348524
 21
12.495517
 31
0.000000
  6
CONTINUOUS
  0
LINE
  8
WHITE
 10
3.737894
 20
13.151916
 30
0.000000
 11
4.177990
 21
12.550451
 31
0.000000
  6
CONTINUOUS
  0
LINE
  8
WHITE
 10
4.177990
 20
12.550451
 30
0.000000
 11
4.214146
 21
12.500147
 31
0.000000
  6
CONTINUOUS
  0
ARC
  8
WHITE
 10
4.191104
 20
12.483585
 30
0.000000
 40
0.028376
 50
-118.842988
 51
35.707854
  6
CONTINUOUS
  0
LINE
  8
WHITE
 10
4.177415
 20
12.458729
 30
0.000000
 11
4.090733
 21
12.506468
 31
0.000000
  6
CONTINUOUS
  0
LINE
  8
WHITE
 10
4.090733
 20
12.506468
 30
0.000000
 11
3.884972
 21
12.597669
 31
0.000000
  6
CONTINUOUS
  0
ARC
  8
WHITE
 10
3.873474
 20
12.571727
 30
0.000000
 40
0.028376
 50
66.096268
 51
152.403022
  6
CONTINUOUS
  0
LINE
  8
WHITE
 10
3.848326
 20
12.584872
 30
0.000000
 11
3.808931
 21
12.509509
 31
0.000000
  6
CONTINUOUS
  0
ARC
  8
WHITE
 10
3.783784
 20
12.522654
 30
0.000000
 40
0.028376
 50
-113.263131
 51
-27.596987
  6
CONTINUOUS
  0
LINE
  8
WHITE
 10
3.772576
 20
12.496585
 30
0.000000
 11
3.698431
 21
12.528460
 31
0.000000
  6
CONTINUOUS
  0
LINE
  8
WHITE
 10
3.698431
 20
12.528460
 30
0.000000
 11
3.611188
 21
12.662157
 31
0.000000
  6
CONTINUOUS
  0
ARC
  8
WHITE
 10
3.563659
 20
12.631143
 30
0.000000
 40
0.056752
 50
33.126027
 51
143.729870
  6
CONTINUOUS
  0
LINE
  8
WHITE
 10
3.517903
 20
12.664718
 30
0.000000
 11
3.440616
 21
12.559388
 31
0.000000
  6
CONTINUOUS
  0
ARC
  8
WHITE
 10
3.417737
 20
12.576175
 30
0.000000
 40
0.028376
 50
-173.386313
 51
-36.268855
  6
CONTINUOUS
  0
LINE
  8
WHITE
 10
3.389550
 20
12.572907
 30
0.000000
 11
3.382036
 21
12.637708
 31
0.000000
  6
CONTINUOUS
  0
LINE
  8
WHITE
 10
3.382036
 20
12.637708
 30
0.000000
 11
3.338714
 21
12.698867
 31
0.000000
  6
CONTINUOUS
  0
ARC
  8
WHITE
 10
3.315559
 20
12.682465
 30
0.000000
 40
0.028376
 50
35.312383
 51
123.410862
  6
CONTINUOUS
  0
LINE
  8
WHITE
 10
3.299934
 20
12.706152
 30
0.000000
 11
2.942061
 21
12.470081
 31
0.000000
  6
CONTINUOUS
  0
ARC
  8
WHITE
 10
2.926436
 20
12.493768
 30
0.000000
 40
0.028376
 50
145.688462
 51
303.409987
  6
CONTINUOUS
  0
ARC
  8
WHITE
 10
6.239464
 20
10.232772
 30
0.000000
 40
4.039393
 50
133.219302
 51
145.688181
  6
CONTINUOUS
  0
ARC
  8
WHITE
 10
3.594766
 20
13.047188
 30
0.000000
 40
0.177352
 50
36.193169
 51
133.219197
  6
CONTINUOUS
  0
LINE
  8
WHITE
 10
9.757433
 20
13.464725
 30
0.000000
 11
9.716325
 21
13.453555
 31
0.000000
  6
CONTINUOUS
  0
ARC
  8
WHITE
 10
10.344772
 20
13.494626
 30
0.000000
 40
0.629788
 50
-176.260904
 51
-159.598750
  6
CONTINUOUS
  0
LINE
  8
WHITE
 10
9.754488
 20
13.275086
 30
0.000000
 11
9.758865
 21
13.263658
 31
0.000000
  6
CONTINUOUS
  0
ARC
  8
WHITE
 10
10.344772
 20
13.494626
 30
0.000000
 40
0.629788
 50
-158.485345
 51
-139.860257
  6
CONTINUOUS
  0
ARC
  8
WHITE
 10
9.944664
 20
13.157229
 30
0.000000
 40
0.106411
 50
-139.860160
 51
-69.846211
  6
CONTINUOUS
  0
ARC
  8
WHITE
 10
9.575736
 20
14.162442
 30
0.000000
 40
1.177187
 50
-69.846133
 51
-33.022450
  6
CONTINUOUS
  0
ARC
  8
WHITE
 10
7.662779
 20
14.647530
 30
0.000000
 40
3.111131
 50
-21.230731
 51
-13.884085
  6
CONTINUOUS
  0
ARC
  8
WHITE
 10
8.572313
 20
17.467317
 30
0.000000
 40
4.144123
 50
-62.468955
 51
-59.381217
  6
CONTINUOUS
  0
ARC
  8
WHITE
 10
4.613484
 20
25.906199
 30
0.000000
 40
13.462931
 50
-67.537266
 51
-64.129657
  6
CONTINUOUS
  0
ARC
  8
WHITE
 10
15.385190
 20
8.531244
 30
0.000000
 40
0.056752
 50
55.957240
 51
105.802169
  6
CONTINUOUS
  0
ARC
  8
WHITE
 10
14.881076
 20
7.785057
 30
0.000000
 40
0.957267
 50
34.951272
 51
55.957503
  6
CONTINUOUS
  0
ARC
  8
WHITE
 10
15.712206
 20
8.365968
 30
0.000000
 40
0.056752
 50
-145.048742
 51
-82.406031
  6
CONTINUOUS
  0
LINE
  8
WHITE
 10
15.719706
 20
8.309714
 30
0.000000
 11
15.803039
 21
8.320823
 31
0.000000
  6
CONTINUOUS
  0
ARC
  8
WHITE
 10
15.810539
 20
8.264569
 30
0.000000
 40
0.056752
 50
54.218919
 51
97.594595
  6
CONTINUOUS
  0
LINE
  8
WHITE
 10
15.843722
 20
8.310610
 30
0.000000
 11
16.151529
 21
8.088767
 31
0.000000
  6
CONTINUOUS
  0
ARC
  8
WHITE
 10
16.139085
 20
8.071501
 30
0.000000
 40
0.021282
 50
-81.375083
 51
54.218771
  6
CONTINUOUS
  0
LINE
  8
WHITE
 10
16.142277
 20
8.050459
 30
0.000000
 11
16.001566
 21
8.029116
 31
0.000000
  6
CONTINUOUS
  0
ARC
  8
WHITE
 10
15.999971
 20
8.039637
 30
0.000000
 40
0.010641
 50
-110.667819
 51
-81.374973
  6
CONTINUOUS
  0
LINE
  8
WHITE
 10
15.996215
 20
8.029681
 30
0.000000
 11
15.799475
 21
8.103896
 31
0.000000
  6
CONTINUOUS
  0
LINE
  8
WHITE
 10
15.799475
 20
8.103896
 30
0.000000
 11
15.715213
 21
8.137020
 31
0.000000
  6
CONTINUOUS
  0
ARC
  8
WHITE
 10
15.699641
 20
8.097407
 30
0.000000
 40
0.042564
 50
68.540252
 51
118.847928
  6
CONTINUOUS
  0
LINE
  8
WHITE
 10
15.679104
 20
8.134689
 30
0.000000
 11
15.621627
 21
8.103028
 31
0.000000
  6
CONTINUOUS
  0
ARC
  8
WHITE
 10
15.616493
 20
8.112349
 30
0.000000
 40
0.010641
 50
-147.379988
 51
-61.153899
  6
CONTINUOUS
  0
LINE
  8
WHITE
 10
15.607531
 20
8.106612
 30
0.000000
 11
15.583727
 21
8.143805
 31
0.000000
  6
CONTINUOUS
  0
ARC
  8
WHITE
 10
15.574764
 20
8.138069
 30
0.000000
 40
0.010641
 50
32.620012
 51
113.365605
  6
CONTINUOUS
  0
LINE
  8
WHITE
 10
15.570544
 20
8.147837
 30
0.000000
 11
15.521387
 21
8.126597
 31
0.000000
  6
CONTINUOUS
  0
LINE
  8
WHITE
 10
15.521387
 20
8.126597
 30
0.000000
 11
15.469999
 21
8.090069
 31
0.000000
  6
CONTINUOUS
  0
ARC
  8
WHITE
 10
15.463834
 20
8.098742
 30
0.000000
 40
0.010641
 50
-136.246641
 51
-54.593474
  6
CONTINUOUS
  0
LINE
  8
WHITE
 10
15.456147
 20
8.091383
 30
0.000000
 11
15.430584
 21
8.118084
 31
0.000000
  6
CONTINUOUS
  0
LINE
  8
WHITE
 10
15.430584
 20
8.118084
 30
0.000000
 11
15.379596
 21
8.144919
 31
0.000000
  6
CONTINUOUS
  0
ARC
  8
WHITE
 10
15.372988
 20
8.132363
 30
0.000000
 40
0.014189
 50
62.242128
 51
149.741294
  6
CONTINUOUS
  0
LINE
  8
WHITE
 10
15.360733
 20
8.139513
 30
0.000000
 11
15.321333
 21
8.071973
 31
0.000000
  6
CONTINUOUS
  0
LINE
  8
WHITE
 10
15.321333
 20
8.071973
 30
0.000000
 11
15.281483
 21
7.991594
 31
0.000000
  6
CONTINUOUS
  0
ARC
  8
WHITE
 10
15.265593
 20
7.999472
 30
0.000000
 40
0.017735
 50
-54.903777
 51
-26.371349
  6
CONTINUOUS
  0
LINE
  8
WHITE
 10
15.275790
 20
7.984961
 30
0.000000
 11
15.265328
 21
7.977609
 31
0.000000
  6
CONTINUOUS
  0
ARC
  8
WHITE
 10
15.259210
 20
7.986316
 30
0.000000
 40
0.010641
 50
-163.412351
 51
-54.901903
  6
CONTINUOUS
  0
LINE
  8
WHITE
 10
15.249012
 20
7.983278
 30
0.000000
 11
15.246657
 21
7.991186
 31
0.000000
  6
CONTINUOUS
  0
ARC
  8
WHITE
 10
15.229660
 20
7.986123
 30
0.000000
 40
0.017735
 50
16.588127
 51
83.659303
  6
CONTINUOUS
  0
LINE
  8
WHITE
 10
15.231618
 20
8.003749
 30
0.000000
 11
15.224739
 21
8.004513
 31
0.000000
  6
CONTINUOUS
  0
ARC
  8
WHITE
 10
15.226697
 20
8.022140
 30
0.000000
 40
0.017735
 50
-139.539157
 51
-96.339672
  6
CONTINUOUS
  0
LINE
  8
WHITE
 10
15.213203
 20
8.010631
 30
0.000000
 11
15.203734
 21
8.021734
 31
0.000000
  6
CONTINUOUS
  0
ARC
  8
WHITE
 10
15.195638
 20
8.014827
 30
0.000000
 40
0.010642
 50
40.463334
 51
127.404542
  6
CONTINUOUS
  0
LINE
  8
WHITE
 10
15.189174
 20
8.023280
 30
0.000000
 11
15.173067
 21
8.010964
 31
0.000000
  6
CONTINUOUS
  0
LINE
  8
WHITE
 10
15.173067
 20
8.010964
 30
0.000000
 11
15.138561
 21
8.004910
 31
0.000000
  6
CONTINUOUS
  0
ARC
  8
WHITE
 10
15.141626
 20
7.987442
 30
0.000000
 40
0.017735
 50
99.950796
 51
137.446190
  6
CONTINUOUS
  0
LINE
  8
WHITE
 10
15.128561
 20
7.999435
 30
0.000000
 11
15.095161
 21
7.963053
 31
0.000000
  6
CONTINUOUS
  0
ARC
  8
WHITE
 10
15.082097
 20
7.975047
 30
0.000000
 40
0.017735
 50
-169.426057
 51
-42.552451
  6
CONTINUOUS
  0
LINE
  8
WHITE
 10
15.064663
 20
7.971792
 30
0.000000
 11
15.058145
 21
8.006708
 31
0.000000
  6
CONTINUOUS
  0
LINE
  8
WHITE
 10
15.058145
 20
8.006708
 30
0.000000
 11
15.043458
 21
8.098491
 31
0.000000
  6
CONTINUOUS
  0
ARC
  8
WHITE
 10
15.029448
 20
8.096249
 30
0.000000
 40
0.014188
 50
9.091057
 51
114.944391
  6
CONTINUOUS
  0
LINE
  8
WHITE
 10
15.023465
 20
8.109114
 30
0.000000
 11
14.978692
 21
8.088289
 31
0.000000
  6
CONTINUOUS
  0
LINE
  8
WHITE
 10
14.978692
 20
8.088289
 30
0.000000
 11
14.919102
 21
8.061332
 31
0.000000
  6
CONTINUOUS
  0
LINE
  8
WHITE
 10
14.919102
 20
8.061332
 30
0.000000
 11
14.854546
 21
7.994648
 31
0.000000
  6
CONTINUOUS
  0
LINE
  8
WHITE
 10
14.854546
 20
7.994648
 30
0.000000
 11
14.811473
 21
7.964921
 31
0.000000
  6
CONTINUOUS
  0
ARC
  8
WHITE
 10
14.805429
 20
7.973678
 30
0.000000
 40
0.010641
 50
153.840869
 51
304.611626
  6
CONTINUOUS
  0
ARC
  8
WHITE
 10
16.121185
 20
7.310968
 30
0.000000
 40
1.483868
 50
131.783036
 51
153.270965
  6
CONTINUOUS
  0
ARC
  8
WHITE
 10
14.791020
 20
9.112797
 30
0.000000
 40
0.774657
 50
-63.846955
 51
-44.748065
  6
CONTINUOUS
  0
LINE
  8
WHITE
 10
15.341189
 20
8.567445
 30
0.000000
 11
15.369736
 21
8.585851
 31
0.000000
  6
CONTINUOUS
  0
LINE
  8
WHITE
 10
2.792717
 20
10.813749
 30
0.000000
 11
2.595252
 21
10.819918
 31
0.000000
  6
CONTINUOUS
  0
ARC
  8
WHITE
 10
2.589713
 20
10.642654
 30
0.000000
 40
0.177351
 50
88.210350
 51
139.698275
  6
CONTINUOUS
  0
LINE
  8
WHITE
 10
2.454457
 20
10.757367
 30
0.000000
 11
2.160421
 21
10.409869
 31
0.000000
  6
CONTINUOUS
  0
ARC
  8
WHITE
 10
2.173960
 20
10.398413
 30
0.000000
 40
0.017735
 50
139.763715
 51
294.227536
  6
CONTINUOUS
  0
LINE
  8
WHITE
 10
2.181237
 20
10.382240
 30
0.000000
 11
2.240151
 21
10.408750
 31
0.000000
  6
CONTINUOUS
  0
LINE
  8
WHITE
 10
2.240151
 20
10.408750
 30
0.000000
 11
2.389496
 21
10.419417
 31
0.000000
  6
CONTINUOUS
  0
ARC
  8
WHITE
 10
2.390507
 20
10.405265
 30
0.000000
 40
0.014188
 50
30.965230
 51
94.085820
  6
CONTINUOUS
  0
LINE
  8
WHITE
 10
2.402673
 20
10.412565
 30
0.000000
 11
2.437046
 21
10.355278
 31
0.000000
  6
CONTINUOUS
  0
ARC
  8
WHITE
 10
2.449212
 20
10.362577
 30
0.000000
 40
0.014188
 50
-149.036243
 51
-30.551539
  6
CONTINUOUS
  0
LINE
  8
WHITE
 10
2.461430
 20
10.355365
 30
0.000000
 11
2.480382
 21
10.387473
 31
0.000000
  6
CONTINUOUS
  0
LINE
  8
WHITE
 10
2.480382
 20
10.387473
 30
0.000000
 11
2.540325
 21
10.451163
 31
0.000000
  6
CONTINUOUS
  0
ARC
  8
WHITE
 10
2.560989
 20
10.431715
 30
0.000000
 40
0.028376
 50
44.998989
 51
136.735920
  6
CONTINUOUS
  0
LINE
  8
WHITE
 10
2.581054
 20
10.451780
 30
0.000000
 11
2.670903
 21
10.361930
 31
0.000000
  6
CONTINUOUS
  0
LINE
  8
WHITE
 10
2.670903
 20
10.361930
 30
0.000000
 11
2.721832
 21
10.336467
 31
0.000000
  6
CONTINUOUS
  0
ARC
  8
WHITE
 10
2.728177
 20
10.349157
 30
0.000000
 40
0.014188
 50
-116.563314
 51
-71.566862
  6
CONTINUOUS
  0
LINE
  8
WHITE
 10
2.732663
 20
10.335697
 30
0.000000
 11
2.824216
 21
10.366212
 31
0.000000
  6
CONTINUOUS
  0
ARC
  8
WHITE
 10
2.833189
 20
10.339292
 30
0.000000
 40
0.028376
 50
49.398899
 51
108.433597
  6
CONTINUOUS
  0
LINE
  8
WHITE
 10
2.851656
 20
10.360837
 30
0.000000
 11
2.983140
 21
10.248137
 31
0.000000
  6
CONTINUOUS
  0
ARC
  8
WHITE
 10
2.992373
 20
10.258910
 30
0.000000
 40
0.014188
 50
-130.601919
 51
2.292444
  6
CONTINUOUS
  0
LINE
  8
WHITE
 10
3.006550
 20
10.259477
 30
0.000000
 11
3.000032
 21
10.422328
 31
0.000000
  6
CONTINUOUS
  0
ARC
  8
WHITE
 10
3.028386
 20
10.423463
 30
0.000000
 40
0.028376
 50
45.970370
 51
182.292442
  6
CONTINUOUS
  0
LINE
  8
WHITE
 10
3.048108
 20
10.443865
 30
0.000000
 11
3.116718
 21
10.377541
 31
0.000000
  6
CONTINUOUS
  0
LINE
  8
WHITE
 10
3.116718
 20
10.377541
 30
0.000000
 11
3.185530
 21
10.359097
 31
0.000000
  6
CONTINUOUS
  0
LINE
  8
WHITE
 10
3.185530
 20
10.359097
 30
0.000000
 11
3.237468
 21
10.377646
 31
0.000000
  6
CONTINUOUS
  0
ARC
  8
WHITE
 10
3.232696
 20
10.391007
 30
0.000000
 40
0.014188
 50
-70.345599
 51
42.436532
  6
CONTINUOUS
  0
LINE
  8
WHITE
 10
3.243167
 20
10.400581
 30
0.000000
 11
2.918069
 21
10.756155
 31
0.000000
  6
CONTINUOUS
  0
ARC
  8
WHITE
 10
2.787179
 20
10.636484
 30
0.000000
 40
0.177351
 50
42.436211
 51
88.210476
  6
CONTINUOUS
  0
ARC
  8
WHITE
 10
10.863887
 20
9.138697
 30
0.000000
 40
2.054113
 50
179.638361
 51
204.172646
  6
CONTINUOUS
  0
ARC
  8
WHITE
 10
9.370494
 20
8.400216
 30
0.000000
 40
0.394206
 50
-164.906071
 51
-114.735256
  6
CONTINUOUS
  0
LINE
  8
WHITE
 10
9.205548
 20
8.042178
 30
0.000000
 11
9.244565
 21
8.068425
 31
0.000000
  6
CONTINUOUS
  0
ARC
  8
WHITE
 10
9.502889
 20
8.501968
 30
0.000000
 40
0.504668
 50
-158.118009
 51
-120.788334
  6
CONTINUOUS
  0
ARC
  8
WHITE
 10
10.845412
 20
9.132879
 30
0.000000
 40
1.987429
 50
161.427437
 51
204.336188
  6
CONTINUOUS
  0
ARC
  8
WHITE
 10
10.287985
 20
11.714334
 30
0.000000
 40
2.357126
 50
-124.246925
 51
-104.462691
  6
CONTINUOUS
  0
LINE
  8
WHITE
 10
9.699294
 20
9.431904
 30
0.000000
 11
9.704968
 21
9.478724
 31
0.000000
  6
CONTINUOUS
  0
ARC
  8
WHITE
 10
10.859015
 20
12.939862
 30
0.000000
 40
3.648465
 50
-121.853952
 51
-108.439934
  6
CONTINUOUS
  0
ARC
  8
WHITE
 10
10.863887
 20
9.138697
 30
0.000000
 40
2.054113
 50
160.011142
 51
179.485396
  6
CONTINUOUS
  0
LINE
  8
WHITE
 10
8.809858
 20
9.157146
 30
0.000000
 11
8.809816
 21
9.151662
 31
0.000000
  6
CONTINUOUS
  0
LINE
  8
WHITE
 10
9.682312
 20
11.028463
 30
0.000000
 11
9.553838
 21
11.002768
 31
0.000000
  6
CONTINUOUS
  0
ARC
  8
WHITE
 10
9.581664
 20
10.863643
 30
0.000000
 40
0.141881
 50
101.310157
 51
135.000000
  6
CONTINUOUS
  0
LINE
  8
WHITE
 10
9.481339
 20
10.963968
 30
0.000000
 11
9.418328
 21
10.900957
 31
0.000000
  6
CONTINUOUS
  0
LINE
  8
WHITE
 10
9.418328
 20
10.900957
 30
0.000000
 11
9.448426
 21
10.870859
 31
0.000000
  6
CONTINUOUS
  0
LINE
  8
WHITE
 10
9.448426
 20
10.870859
 30
0.000000
 11
9.492601
 21
10.915034
 31
0.000000
  6
CONTINUOUS
  0
ARC
  8
WHITE
 10
9.749152
 20
10.997647
 30
0.000000
 40
0.269525
 50
-162.150770
 51
-41.696932
  6
CONTINUOUS
  0
LINE
  8
WHITE
 10
9.950399
 20
10.818362
 30
0.000000
 11
10.075823
 21
10.692938
 31
0.000000
  6
CONTINUOUS
  0
LINE
  8
WHITE
 10
10.075823
 20
10.692938
 30
0.000000
 11
10.105921
 21
10.723035
 31
0.000000
  6
CONTINUOUS
  0
LINE
  8
WHITE
 10
10.105921
 20
10.723035
 30
0.000000
 11
9.847912
 21
10.981045
 31
0.000000
  6
CONTINUOUS
  0
ARC
  8
WHITE
 10
9.722505
 20
10.855638
 30
0.000000
 40
0.177351
 50
45.000001
 51
97.370713
  6
CONTINUOUS
  0
LINE
  8
WHITE
 10
9.699753
 20
11.031524
 30
0.000000
 11
9.682312
 21
11.028463
 31
0.000000
  6
CONTINUOUS
  0
ARC
  8
WHITE
 10
6.986683
 20
10.983910
 30
0.000000
 40
1.052843
 50
6.431518
 51
33.867828
  6
CONTINUOUS
  0
ARC
  8
WHITE
 10
7.920967
 20
11.610962
 30
0.000000
 40
0.072360
 50
69.518268
 51
213.868030
  6
CONTINUOUS
  0
ARC
  8
WHITE
 10
7.402571
 20
10.223088
 30
0.000000
 40
1.553889
 50
43.429970
 51
69.518424
  6
CONTINUOUS
  0
ARC
  8
WHITE
 10
8.634065
 20
11.388874
 30
0.000000
 40
0.141881
 50
-136.570063
 51
-66.029150
  6
CONTINUOUS
  0
ARC
  8
WHITE
 10
9.001881
 20
10.561612
 30
0.000000
 40
0.763464
 50
81.552748
 51
113.970844
  6
CONTINUOUS
  0
LINE
  8
WHITE
 10
9.114033
 20
11.316795
 30
0.000000
 11
9.101951
 21
11.292246
 31
0.000000
  6
CONTINUOUS
  0
ARC
  8
WHITE
 10
9.038065
 20
10.406054
 30
0.000000
 40
0.888492
 50
85.876682
 51
112.744612
  6
CONTINUOUS
  0
ARC
  8
WHITE
 10
8.635531
 20
11.389409
 30
0.000000
 40
0.174255
 50
-133.875331
 51
-70.201706
  6
CONTINUOUS
  0
ARC
  8
WHITE
 10
7.222127
 20
9.968148
 30
0.000000
 40
1.830190
 50
45.066845
 51
66.790303
  6
CONTINUOUS
  0
ARC
  8
WHITE
 10
7.922702
 20
11.610020
 30
0.000000
 40
0.045214
 50
62.755550
 51
215.618151
  6
CONTINUOUS
  0
ARC
  8
WHITE
 10
6.795225
 20
10.913094
 30
0.000000
 40
1.280379
 50
8.194772
 51
31.583935
  6
CONTINUOUS
  0
ARC
  8
WHITE
 10
8.505646
 20
11.194296
 30
0.000000
 40
0.453975
 50
-167.443054
 51
-116.090244
  6
CONTINUOUS
  0
LINE
  8
WHITE
 10
8.305995
 20
10.786581
 30
0.000000
 11
8.298218
 21
10.761330
 31
0.000000
  6
CONTINUOUS
  0
ARC
  8
WHITE
 10
8.464435
 20
11.164462
 30
0.000000
 40
0.436054
 50
-171.743787
 51
-112.407088
  6
CONTINUOUS
  0
LINE
  8
WHITE
 10
6.587394
 20
4.428565
 30
0.000000
 11
6.629813
 21
4.428318
 31
0.000000
  6
CONTINUOUS
  0
ARC
  8
WHITE
 10
5.681161
 20
5.278665
 30
0.000000
 40
1.273982
 50
-41.872219
 51
3.293908
  6
CONTINUOUS
  0
ARC
  8
WHITE
 10
6.775980
 20
5.341675
 30
0.000000
 40
0.177351
 50
3.293885
 51
38.622836
  6
CONTINUOUS
  0
ARC
  8
WHITE
 10
8.260124
 20
6.527424
 30
0.000000
 40
1.722302
 50
-160.245843
 51
-141.377078
  6
CONTINUOUS
  0
LINE
  8
WHITE
 10
6.639177
 20
5.945312
 30
0.000000
 11
6.612671
 21
5.914670
 31
0.000000
  6
CONTINUOUS
  0
ARC
  8
WHITE
 10
8.233617
 20
6.496782
 30
0.000000
 40
1.722302
 50
-160.245843
 51
-141.644344
  6
CONTINUOUS
  0
ARC
  8
WHITE
 10
6.782900
 20
5.348785
 30
0.000000
 40
0.127693
 50
3.494469
 51
38.355501
  6
CONTINUOUS
  0
ARC
  8
WHITE
 10
5.638743
 20
5.278911
 30
0.000000
 40
1.273982
 50
-4.429444
 51
3.494686
  6
CONTINUOUS
  0
LINE
  8
WHITE
 10
6.908919
 20
5.180520
 30
0.000000
 11
6.908345
 21
5.173364
 31
0.000000
  6
CONTINUOUS
  0
ARC
  8
WHITE
 10
5.638743
 20
5.278911
 30
0.000000
 40
1.273982
 50
-41.872219
 51
-4.752319
  6
CONTINUOUS
  0
ARC
  8
WHITE
 10
8.701731
 20
12.507230
 30
0.000000
 40
1.702089
 50
-152.478608
 51
-135.124162
  6
CONTINUOUS
  0
LINE
  8
WHITE
 10
7.192253
 20
11.720729
 30
0.000000
 11
7.172932
 21
11.676173
 31
0.000000
  6
CONTINUOUS
  0
ARC
  8
WHITE
 10
8.682410
 20
12.462674
 30
0.000000
 40
1.702089
 50
-152.478608
 51
-123.830937
  6
CONTINUOUS
  0
LINE
  8
WHITE
 10
7.734782
 20
11.048776
 30
0.000000
 11
7.754102
 21
11.093332
 31
0.000000
  6
CONTINUOUS
  0
ARC
  8
WHITE
 10
8.701731
 20
12.507230
 30
0.000000
 40
1.702089
 50
-134.766691
 51
-123.830937
  6
CONTINUOUS
  0
LINE
  8
WHITE
 10
7.503083
 20
11.298780
 30
0.000000
 11
7.495567
 21
11.306282
 31
0.000000
  6
CONTINUOUS
  0
ARC
  8
WHITE
 10
8.504371
 20
12.511008
 30
0.000000
 40
1.056203
 50
178.937764
 51
208.264684
  6
CONTINUOUS
  0
ARC
  8
WHITE
 10
8.178192
 20
12.380109
 30
0.000000
 40
0.745194
 50
168.350038
 51
210.890015
  6
CONTINUOUS
  0
LINE
  8
WHITE
 10
7.538700
 20
11.997533
 30
0.000000
 11
7.169554
 21
12.061671
 31
0.000000
  6
CONTINUOUS
  0
LINE
  8
WHITE
 10
7.169554
 20
12.061671
 30
0.000000
 11
7.155365
 21
12.048901
 31
0.000000
  6
CONTINUOUS
  0
ARC
  8
WHITE
 10
6.502626
 20
8.980051
 30
0.000000
 40
3.137501
 50
68.747791
 51
77.992236
  6
CONTINUOUS
  0
ARC
  8
WHITE
 10
8.504371
 20
12.511008
 30
0.000000
 40
1.056203
 50
-151.326278
 51
-144.932984
  6
CONTINUOUS
  0
LINE
  8
WHITE
 10
7.577694
 20
12.004219
 30
0.000000
 11
7.574099
 21
12.010847
 31
0.000000
  6
CONTINUOUS
  0
LINE
  8
WHITE
 10
11.423568
 20
10.215645
 30
0.000000
 11
11.063758
 21
10.206865
 31
0.000000
  6
CONTINUOUS
  0
ARC
  8
WHITE
 10
11.063633
 20
10.135901
 30
0.000000
 40
0.070965
 50
89.899422
 51
148.132011
  6
CONTINUOUS
  0
LINE
  8
WHITE
 10
11.003366
 20
10.173367
 30
0.000000
 11
10.763801
 21
9.809588
 31
0.000000
  6
CONTINUOUS
  0
LINE
  8
WHITE
 10
10.763801
 20
9.809588
 30
0.000000
 11
10.787500
 21
9.793981
 31
0.000000
  6
CONTINUOUS
  0
LINE
  8
WHITE
 10
10.787500
 20
9.793981
 30
0.000000
 11
11.028085
 21
10.159311
 31
0.000000
  6
CONTINUOUS
  0
ARC
  8
WHITE
 10
11.063633
 20
10.135901
 30
0.000000
 40
0.042564
 50
91.397829
 51
146.633412
  6
CONTINUOUS
  0
LINE
  8
WHITE
 10
11.062595
 20
10.178453
 30
0.000000
 11
11.424260
 21
10.187277
 31
0.000000
  6
CONTINUOUS
  0
LINE
  8
WHITE
 10
11.424260
 20
10.187277
 30
0.000000
 11
11.423568
 21
10.215645
 31
0.000000
  6
CONTINUOUS
  0
ARC
  8
WHITE
 10
11.327056
 20
10.886592
 30
0.000000
 40
1.048221
 50
-93.902961
 51
-86.097065
  6
CONTINUOUS
  0
ARC
  8
WHITE
 10
11.398405
 20
9.854990
 30
0.000000
 40
0.014188
 50
-89.999479
 51
68.962270
  6
CONTINUOUS
  0
LINE
  8
WHITE
 10
11.403498
 20
9.868233
 30
0.000000
 11
11.250001
 21
9.927270
 31
0.000000
  6
CONTINUOUS
  0
ARC
  8
WHITE
 10
11.265281
 20
9.966998
 30
0.000000
 40
0.042565
 50
-178.712532
 51
-111.037648
  6
CONTINUOUS
  0
ARC
  8
WHITE
 10
11.378207
 20
9.969536
 30
0.000000
 40
0.155519
 50
135.690090
 51
181.287584
  6
CONTINUOUS
  0
LINE
  8
WHITE
 10
11.266923
 20
10.078172
 30
0.000000
 11
11.246339
 21
10.093635
 31
0.000000
  6
CONTINUOUS
  0
ARC
  8
WHITE
 10
11.341421
 20
9.970568
 30
0.000000
 40
0.155519
 50
127.689907
 51
236.554189
  6
CONTINUOUS
  0
ARC
  8
WHITE
 10
9.420642
 20
11.117189
 30
0.000000
 40
0.709597
 50
64.516001
 51
77.188869
  6
CONTINUOUS
  0
LINE
  8
WHITE
 10
9.577986
 20
11.809122
 30
0.000000
 11
9.545353
 21
11.782165
 31
0.000000
  6
CONTINUOUS
  0
ARC
  8
WHITE
 10
9.388008
 20
11.090232
 30
0.000000
 40
0.709597
 50
47.575782
 51
77.188869
  6
CONTINUOUS
  0
LINE
  8
WHITE
 10
9.866713
 20
11.614036
 30
0.000000
 11
9.899347
 21
11.640993
 31
0.000000
  6
CONTINUOUS
  0
ARC
  8
WHITE
 10
9.420642
 20
11.117189
 30
0.000000
 40
0.709598
 50
47.575782
 51
63.932885
  6
CONTINUOUS
  0
LINE
  8
WHITE
 10
9.732456
 20
11.754606
 30
0.000000
 11
9.725952
 21
11.757747
 31
0.000000
  6
CONTINUOUS
  0
ENDSEC
  0
EOF
