  0
SECTION
  2
HEADER
  9
$ACADVER
  1
AC1009
  9
$EXTMIN
 10
2.32178477
 20
1.51047671
 30
0.0
  9
$EXTMAX
 10
9.67821523
 20
10.32336945
 30
0.0
  0
ENDSEC
  0
SECTION
  2
TABLES
  0
TABLE
  2
LAYER
 70
1
 0
LAYER
 2
Default_Layer
 70
0
 62
1
 6
CONTINUOUS
 0
ENDTAB
 0
ENDSEC
  0
SECTION
  2
ENTITIES
  0
POLYLINE
  8
Default_Layer
 66
   1
 39
0.000000
 70
    1
  0
VERTEX
  8
0
 10
2.78891502
 20
5.33732500
  0
VERTEX
  8
0
 10
2.78585379
 20
5.36636464
  0
VERTEX
  8
0
 10
2.78548240
 20
5.39488956
  0
VERTEX
  8
0
 10
2.78761783
 20
5.42289934
  0
VERTEX
  8
0
 10
2.79207708
 20
5.45039358
  0
VERTEX
  8
0
 10
2.79867712
 20
5.47737186
  0
VERTEX
  8
0
 10
2.80723495
 20
5.50383379
  0
VERTEX
  8
0
 10
2.81756756
 20
5.52977895
  0
VERTEX
  8
0
 10
2.82949194
 20
5.55520694
  0
VERTEX
  8
0
 10
2.84282507
 20
5.58011736
  0
VERTEX
  8
0
 10
2.85738394
 20
5.60450979
  0
VERTEX
  8
0
 10
2.87298555
 20
5.62838382
  0
VERTEX
  8
0
 10
2.88944687
 20
5.65173906
  0
VERTEX
  8
0
 10
2.90658490
 20
5.67457509
  0
VERTEX
  8
0
 10
2.92421662
 20
5.69689151
  0
VERTEX
  8
0
 10
2.96022912
 20
5.73996389
  0
VERTEX
  8
0
 10
2.99677344
 20
5.77974877
  0
VERTEX
  8
0
 10
3.03453684
 20
5.81834713
  0
VERTEX
  8
0
 10
3.07337121
 20
5.85587453
  0
VERTEX
  8
0
 10
3.11312842
 20
5.89244653
  0
VERTEX
  8
0
 10
3.15366038
 20
5.92817868
  0
VERTEX
  8
0
 10
3.19481896
 20
5.96318654
  0
VERTEX
  8
0
 10
3.27842356
 20
6.03149167
  0
VERTEX
  8
0
 10
3.28693539
 20
6.03820635
  0
VERTEX
  8
0
 10
3.29620568
 20
6.04247474
  0
VERTEX
  8
0
 10
3.30605540
 20
6.04470211
  0
VERTEX
  8
0
 10
3.31630551
 20
6.04529375
  0
VERTEX
  8
0
 10
3.32677697
 20
6.04465491
  0
VERTEX
  8
0
 10
3.33729075
 20
6.04319088
  0
VERTEX
  8
0
 10
3.35772912
 20
6.03940833
  0
VERTEX
  8
0
 10
3.40791331
 20
6.02953339
  0
VERTEX
  8
0
 10
3.45842139
 20
6.02217960
  0
VERTEX
  8
0
 10
3.50918664
 20
6.01700355
  0
VERTEX
  8
0
 10
3.56014231
 20
6.01366180
  0
VERTEX
  8
0
 10
3.61122169
 20
6.01181095
  0
VERTEX
  8
0
 10
3.66235803
 20
6.01110755
  0
VERTEX
  8
0
 10
3.76453467
 20
6.01176944
  0
VERTEX
  8
0
 10
3.82054135
 20
6.01439206
  0
VERTEX
  8
0
 10
3.87652035
 20
6.01866180
  0
VERTEX
  8
0
 10
3.93237891
 20
6.02465030
  0
VERTEX
  8
0
 10
3.98802426
 20
6.03242917
  0
VERTEX
  8
0
 10
4.04336361
 20
6.04207001
  0
VERTEX
  8
0
 10
4.09830421
 20
6.05364444
  0
VERTEX
  8
0
 10
4.15275326
 20
6.06722409
  0
VERTEX
  8
0
 10
4.20661801
 20
6.08288055
  0
VERTEX
  8
0
 10
4.17811812
 20
6.06435516
  0
VERTEX
  8
0
 10
4.15072825
 20
6.04436493
  0
VERTEX
  8
0
 10
4.12426938
 20
6.02316376
  0
VERTEX
  8
0
 10
4.09856245
 20
6.00100555
  0
VERTEX
  8
0
 10
4.04868832
 20
5.95483368
  0
VERTEX
  8
0
 10
3.99967356
 20
5.90788055
  0
VERTEX
  8
0
 10
3.95843102
 20
5.86557773
  0
VERTEX
  8
0
 10
3.91897152
 20
5.82174313
  0
VERTEX
  8
0
 10
3.88129100
 20
5.77645630
  0
VERTEX
  8
0
 10
3.84538537
 20
5.72979679
  0
VERTEX
  8
0
 10
3.81125058
 20
5.68184414
  0
VERTEX
  8
0
 10
3.77888255
 20
5.63267792
  0
VERTEX
  8
0
 10
3.74827721
 20
5.58237766
  0
VERTEX
  8
0
 10
3.71943051
 20
5.53102292
  0
VERTEX
  8
0
 10
3.69233836
 20
5.47869324
  0
VERTEX
  8
0
 10
3.66699670
 20
5.42546817
  0
VERTEX
  8
0
 10
3.64340146
 20
5.37142727
  0
VERTEX
  8
0
 10
3.62154856
 20
5.31665009
  0
VERTEX
  8
0
 10
3.60143395
 20
5.26121616
  0
VERTEX
  8
0
 10
3.58305355
 20
5.20520504
  0
VERTEX
  8
0
 10
3.56640330
 20
5.14869629
  0
VERTEX
  8
0
 10
3.55147912
 20
5.09176944
  0
VERTEX
  8
0
 10
3.52347412
 20
5.08201399
  0
VERTEX
  8
0
 10
3.49511492
 20
5.07333520
  0
VERTEX
  8
0
 10
3.46644769
 20
5.06575504
  0
VERTEX
  8
0
 10
3.43751862
 20
5.05929548
  0
VERTEX
  8
0
 10
3.40837389
 20
5.05397851
  0
VERTEX
  8
0
 10
3.37905969
 20
5.04982608
  0
VERTEX
  8
0
 10
3.34962219
 20
5.04686018
  0
VERTEX
  8
0
 10
3.32010759
 20
5.04510278
  0
VERTEX
  8
0
 10
3.29056207
 20
5.04457584
  0
VERTEX
  8
0
 10
3.26103180
 20
5.04530134
  0
VERTEX
  8
0
 10
3.23156297
 20
5.04730126
  0
VERTEX
  8
0
 10
3.20220178
 20
5.05059757
  0
VERTEX
  8
0
 10
3.17299438
 20
5.05521223
  0
VERTEX
  8
0
 10
3.14398699
 20
5.06116723
  0
VERTEX
  8
0
 10
3.11522576
 20
5.06848453
  0
VERTEX
  8
0
 10
3.08675690
 20
5.07718611
  0
VERTEX
  8
0
 10
3.04222538
 20
5.09438907
  0
VERTEX
  8
0
 10
3.01993713
 20
5.10394484
  0
VERTEX
  8
0
 10
2.99782244
 20
5.11421085
  0
VERTEX
  8
0
 10
2.97602268
 20
5.12524265
  0
VERTEX
  8
0
 10
2.95467926
 20
5.13709578
  0
VERTEX
  8
0
 10
2.93393358
 20
5.14982578
  0
VERTEX
  8
0
 10
2.91392704
 20
5.16348819
  0
VERTEX
  8
0
 10
2.89480103
 20
5.17813856
  0
VERTEX
  8
0
 10
2.87669695
 20
5.19383243
  0
VERTEX
  8
0
 10
2.85975620
 20
5.21062534
  0
VERTEX
  8
0
 10
2.84412018
 20
5.22857283
  0
VERTEX
  8
0
 10
2.82993028
 20
5.24773044
  0
VERTEX
  8
0
 10
2.81732791
 20
5.26815372
  0
VERTEX
  8
0
 10
2.80645447
 20
5.28989821
  0
VERTEX
  8
0
 10
2.79745134
 20
5.31301944
  0
VERTEX
  8
0
 10
2.79263635
 20
5.32506827
  0
VERTEX
  8
0
 10
2.79040511
 20
5.33111844
  0
VERTEX
  8
0
 10
2.78891502
 20
5.33732500
  0
SEQEND
  0
POLYLINE
  8
Default_Layer
 66
   1
 39
0.000000
 70
    1
  0
VERTEX
  8
0
 10
6.53884388
 20
2.08840786
  0
VERTEX
  8
0
 10
6.53445241
 20
2.16025560
  0
VERTEX
  8
0
 10
6.52828171
 20
2.22795623
  0
VERTEX
  8
0
 10
6.52078223
 20
2.29210952
  0
VERTEX
  8
0
 10
6.51240438
 20
2.35331526
  0
VERTEX
  8
0
 10
6.49481533
 20
2.46928321
  0
VERTEX
  8
0
 10
6.48650499
 20
2.52524498
  0
VERTEX
  8
0
 10
6.47911801
 20
2.58065833
  0
VERTEX
  8
0
 10
6.44260705
 20
2.59802894
  0
VERTEX
  8
0
 10
6.40489492
 20
2.61543047
  0
VERTEX
  8
0
 10
6.36621273
 20
2.63142249
  0
VERTEX
  8
0
 10
6.34658010
 20
2.63843981
  0
VERTEX
  8
0
 10
6.32679162
 20
2.64456458
  0
VERTEX
  8
0
 10
6.30687619
 20
2.64961677
  0
VERTEX
  8
0
 10
6.28686269
 20
2.65341631
  0
VERTEX
  8
0
 10
6.26678002
 20
2.65578315
  0
VERTEX
  8
0
 10
6.24665707
 20
2.65653724
  0
VERTEX
  8
0
 10
6.22652273
 20
2.65549852
  0
VERTEX
  8
0
 10
6.20640588
 20
2.65248695
  0
VERTEX
  8
0
 10
6.18633542
 20
2.64732246
  0
VERTEX
  8
0
 10
6.16634023
 20
2.63982500
  0
VERTEX
  8
0
 10
6.10465675
 20
2.61592933
  0
VERTEX
  8
0
 10
6.04216922
 20
2.59428463
  0
VERTEX
  8
0
 10
5.97897207
 20
2.57479814
  0
VERTEX
  8
0
 10
5.91515967
 20
2.55737708
  0
VERTEX
  8
0
 10
5.85082645
 20
2.54192868
  0
VERTEX
  8
0
 10
5.78606679
 20
2.52836015
  0
VERTEX
  8
0
 10
5.72097510
 20
2.51657874
  0
VERTEX
  8
0
 10
5.65564579
 20
2.50649167
  0
VERTEX
  8
0
 10
5.62411123
 20
2.50461748
  0
VERTEX
  8
0
 10
5.59253598
 20
2.50355547
  0
VERTEX
  8
0
 10
5.52930898
 20
2.50310625
  0
VERTEX
  8
0
 10
5.46605594
 20
2.50362057
  0
VERTEX
  8
0
 10
5.40286801
 20
2.50357500
  0
VERTEX
  8
0
 10
5.36611403
 20
2.50809343
  0
VERTEX
  8
0
 10
5.32964345
 20
2.51433183
  0
VERTEX
  8
0
 10
5.29351834
 20
2.52225237
  0
VERTEX
  8
0
 10
5.25780073
 20
2.53181719
  0
VERTEX
  8
0
 10
5.22255269
 20
2.54298845
  0
VERTEX
  8
0
 10
5.18783627
 20
2.55572832
  0
VERTEX
  8
0
 10
5.15371351
 20
2.56999895
  0
VERTEX
  8
0
 10
5.12024648
 20
2.58576250
  0
VERTEX
  8
0
 10
5.08749722
 20
2.60298113
  0
VERTEX
  8
0
 10
5.05552778
 20
2.62161699
  0
VERTEX
  8
0
 10
5.02440023
 20
2.64163225
  0
VERTEX
  8
0
 10
4.99417660
 20
2.66298906
  0
VERTEX
  8
0
 10
4.96491896
 20
2.68564958
  0
VERTEX
  8
0
 10
4.93668935
 20
2.70957598
  0
VERTEX
  8
0
 10
4.90954983
 20
2.73473039
  0
VERTEX
  8
0
 10
4.88356245
 20
2.76107500
  0
VERTEX
  8
0
 10
4.85509833
 20
2.79207838
  0
VERTEX
  8
0
 10
4.82786774
 20
2.82406301
  0
VERTEX
  8
0
 10
4.80184767
 20
2.85697496
  0
VERTEX
  8
0
 10
4.77701514
 20
2.89076033
  0
VERTEX
  8
0
 10
4.75334717
 20
2.92536519
  0
VERTEX
  8
0
 10
4.73082075
 20
2.96073564
  0
VERTEX
  8
0
 10
4.70941291
 20
2.99681776
  0
VERTEX
  8
0
 10
4.68910065
 20
3.03355764
  0
VERTEX
  8
0
 10
4.66986098
 20
3.07090135
  0
VERTEX
  8
0
 10
4.65167091
 20
3.10879500
  0
VERTEX
  8
0
 10
4.63450745
 20
3.14718465
  0
VERTEX
  8
0
 10
4.61834761
 20
3.18601640
  0
VERTEX
  8
0
 10
4.60316840
 20
3.22523634
  0
VERTEX
  8
0
 10
4.58894684
 20
3.26479055
  0
VERTEX
  8
0
 10
4.57565993
 20
3.30462511
  0
VERTEX
  8
0
 10
4.56328467
 20
3.34468611
  0
VERTEX
  8
0
 10
4.54504683
 20
3.40749644
  0
VERTEX
  8
0
 10
4.52717356
 20
3.47060625
  0
VERTEX
  8
0
 10
4.51943159
 20
3.50241587
  0
VERTEX
  8
0
 10
4.51305030
 20
3.53447127
  0
VERTEX
  8
0
 10
4.50845286
 20
3.56682939
  0
VERTEX
  8
0
 10
4.50606245
 20
3.59954722
  0
VERTEX
  8
0
 10
4.55914134
 20
3.60517873
  0
VERTEX
  8
0
 10
4.61215186
 20
3.61150035
  0
VERTEX
  8
0
 10
4.71811106
 20
3.62465139
  0
VERTEX
  8
0
 10
4.77113135
 20
3.63069956
  0
VERTEX
  8
0
 10
4.82422652
 20
3.63587535
  0
VERTEX
  8
0
 10
4.87743235
 20
3.63978811
  0
VERTEX
  8
0
 10
4.93078467
 20
3.64204722
  0
VERTEX
  8
0
 10
5.02450212
 20
3.64238576
  0
VERTEX
  8
0
 10
5.11823259
 20
3.64225555
  0
VERTEX
  8
0
 10
5.16504167
 20
3.64108693
  0
VERTEX
  8
0
 10
5.21178077
 20
3.63868785
  0
VERTEX
  8
0
 10
5.25842546
 20
3.63468719
  0
VERTEX
  8
0
 10
5.30495134
 20
3.62871389
  0
VERTEX
  8
0
 10
5.37590186
 20
3.61788489
  0
VERTEX
  8
0
 10
5.41151872
 20
3.61240041
  0
VERTEX
  8
0
 10
5.44693051
 20
3.60604028
  0
VERTEX
  8
0
 10
5.48191260
 20
3.59818275
  0
VERTEX
  8
0
 10
5.51624040
 20
3.58820608
  0
VERTEX
  8
0
 10
5.53308875
 20
3.58222877
  0
VERTEX
  8
0
 10
5.54968930
 20
3.57548852
  0
VERTEX
  8
0
 10
5.56601396
 20
3.56790761
  0
VERTEX
  8
0
 10
5.58203467
 20
3.55940833
  0
VERTEX
  8
0
 10
5.61774865
 20
3.54663408
  0
VERTEX
  8
0
 10
5.65324127
 20
3.53309974
  0
VERTEX
  8
0
 10
5.68838233
 20
3.51864417
  0
VERTEX
  8
0
 10
5.72304162
 20
3.50310625
  0
VERTEX
  8
0
 10
5.75708893
 20
3.48632484
  0
VERTEX
  8
0
 10
5.79039405
 20
3.46813880
  0
VERTEX
  8
0
 10
5.82282678
 20
3.44838701
  0
VERTEX
  8
0
 10
5.85425690
 20
3.42690833
  0
VERTEX
  8
0
 10
5.87727909
 20
3.41009410
  0
VERTEX
  8
0
 10
5.89924171
 20
3.39205590
  0
VERTEX
  8
0
 10
5.92042633
 20
3.37311927
  0
VERTEX
  8
0
 10
5.94111454
 20
3.35360972
  0
VERTEX
  8
0
 10
5.98212799
 20
3.31417396
  0
VERTEX
  8
0
 10
6.00301639
 20
3.29489878
  0
VERTEX
  8
0
 10
6.02453467
 20
3.27635278
  0
VERTEX
  8
0
 10
6.04133477
 20
3.25517819
  0
VERTEX
  8
0
 10
6.05716461
 20
3.23334930
  0
VERTEX
  8
0
 10
6.07204352
 20
3.21090844
  0
VERTEX
  8
0
 10
6.08599084
 20
3.18789792
  0
VERTEX
  8
0
 10
6.09902588
 20
3.16436005
  0
VERTEX
  8
0
 10
6.11116798
 20
3.14033715
  0
VERTEX
  8
0
 10
6.12243646
 20
3.11587155
  0
VERTEX
  8
0
 10
6.13285065
 20
3.09100555
  0
VERTEX
  8
0
 10
6.14242988
 20
3.06578149
  0
VERTEX
  8
0
 10
6.15119347
 20
3.04024167
  0
VERTEX
  8
0
 10
6.15916077
 20
3.01442841
  0
VERTEX
  8
0
 10
6.16635108
 20
2.98838403
  0
VERTEX
  8
0
 10
6.17278375
 20
2.96215084
  0
VERTEX
  8
0
 10
6.17847809
 20
2.93577118
  0
VERTEX
  8
0
 10
6.18772912
 20
2.88274167
  0
VERTEX
  8
0
 10
6.18922923
 20
2.87382782
  0
VERTEX
  8
0
 10
6.19264665
 20
2.86611840
  0
VERTEX
  8
0
 10
6.19760705
 20
2.85941159
  0
VERTEX
  8
0
 10
6.20373606
 20
2.85350555
  0
VERTEX
  8
0
 10
6.21800256
 20
2.84328854
  0
VERTEX
  8
0
 10
6.23245134
 20
2.83385278
  0
VERTEX
  8
0
 10
6.34470829
 20
2.76475555
  0
VERTEX
  8
0
 10
6.45717356
 20
2.69607500
  0
VERTEX
  8
0
 10
6.43576189
 20
2.79941132
  0
VERTEX
  8
0
 10
6.41223433
 20
2.90229679
  0
VERTEX
  8
0
 10
6.38655833
 20
3.00467119
  0
VERTEX
  8
0
 10
6.35870134
 20
3.10647430
  0
VERTEX
  8
0
 10
6.32863081
 20
3.20764591
  0
VERTEX
  8
0
 10
6.29631419
 20
3.30812578
  0
VERTEX
  8
0
 10
6.26171892
 20
3.40785370
  0
VERTEX
  8
0
 10
6.22481245
 20
3.50676944
  0
VERTEX
  8
0
 10
6.20413239
 20
3.56658417
  0
VERTEX
  8
0
 10
6.18187191
 20
3.62583411
  0
VERTEX
  8
0
 10
6.15816939
 20
3.68454044
  0
VERTEX
  8
0
 10
6.13316315
 20
3.74272430
  0
VERTEX
  8
0
 10
6.10699154
 20
3.80040687
  0
VERTEX
  8
0
 10
6.07979292
 20
3.85760929
  0
VERTEX
  8
0
 10
6.05170563
 20
3.91435272
  0
VERTEX
  8
0
 10
6.02286801
 20
3.97065833
  0
VERTEX
  8
0
 10
6.00004140
 20
4.00115258
  0
VERTEX
  8
0
 10
5.97913537
 20
4.03284149
  0
VERTEX
  8
0
 10
5.95963559
 20
4.06540931
  0
VERTEX
  8
0
 10
5.94102773
 20
4.09854028
  0
VERTEX
  8
0
 10
5.90443051
 20
4.16522864
  0
VERTEX
  8
0
 10
5.88541250
 20
4.19815453
  0
VERTEX
  8
0
 10
5.86522912
 20
4.23038055
  0
VERTEX
  8
0
 10
5.81324561
 20
4.15026120
  0
VERTEX
  8
0
 10
5.78646447
 20
4.11059296
  0
VERTEX
  8
0
 10
5.75873606
 20
4.07161319
  0
VERTEX
  8
0
 10
5.72974464
 20
4.03364254
  0
VERTEX
  8
0
 10
5.69917443
 20
3.99700165
  0
VERTEX
  8
0
 10
5.66670970
 20
3.96201114
  0
VERTEX
  8
0
 10
5.64966821
 20
3.94523499
  0
VERTEX
  8
0
 10
5.63203467
 20
3.92899167
  0
VERTEX
  8
0
 10
5.59637251
 20
3.89708927
  0
VERTEX
  8
0
 10
5.55913320
 20
3.86723602
  0
VERTEX
  8
0
 10
5.52056251
 20
3.83915036
  0
VERTEX
  8
0
 10
5.48090620
 20
3.81255069
  0
VERTEX
  8
0
 10
5.44041005
 20
3.78715546
  0
VERTEX
  8
0
 10
5.39931983
 20
3.76268307
  0
VERTEX
  8
0
 10
5.31634023
 20
3.71538055
  0
VERTEX
  8
0
 10
5.30091760
 20
3.70652720
  0
VERTEX
  8
0
 10
5.28491228
 20
3.69903290
  0
VERTEX
  8
0
 10
5.26840566
 20
3.69290253
  0
VERTEX
  8
0
 10
5.25147912
 20
3.68814097
  0
VERTEX
  8
0
 10
5.23421404
 20
3.68475311
  0
VERTEX
  8
0
 10
5.21669179
 20
3.68274384
  0
VERTEX
  8
0
 10
5.19899377
 20
3.68211802
  0
VERTEX
  8
0
 10
5.18120134
 20
3.68288055
  0
VERTEX
  8
0
 10
5.16411313
 20
3.68262210
  0
VERTEX
  8
0
 10
5.14732764
 20
3.68376217
  0
VERTEX
  8
0
 10
5.13084490
 20
3.68620514
  0
VERTEX
  8
0
 10
5.11466488
 20
3.68985538
  0
VERTEX
  8
0
 10
5.09878760
 20
3.69461728
  0
VERTEX
  8
0
 10
5.08321306
 20
3.70039520
  0
VERTEX
  8
0
 10
5.06794125
 20
3.70709354
  0
VERTEX
  8
0
 10
5.05297217
 20
3.71461667
  0
VERTEX
  8
0
 10
5.02394223
 20
3.73175479
  0
VERTEX
  8
0
 10
4.99612322
 20
3.75104462
  0
VERTEX
  8
0
 10
4.96951514
 20
3.77172116
  0
VERTEX
  8
0
 10
4.94411801
 20
3.79301944
  0
VERTEX
  8
0
 10
4.91931013
 20
3.81755558
  0
VERTEX
  8
0
 10
4.89504954
 20
3.84282413
  0
VERTEX
  8
0
 10
4.87142453
 20
3.86881534
  0
VERTEX
  8
0
 10
4.84852339
 20
3.89551944
  0
VERTEX
  8
0
 10
4.82643443
 20
3.92292667
  0
VERTEX
  8
0
 10
4.80524594
 20
3.95102726
  0
VERTEX
  8
0
 10
4.78504622
 20
3.97981144
  0
VERTEX
  8
0
 10
4.76592356
 20
4.00926944
  0
VERTEX
  8
0
 10
4.74796627
 20
4.03939151
  0
VERTEX
  8
0
 10
4.73126265
 20
4.07016788
  0
VERTEX
  8
0
 10
4.71590098
 20
4.10158878
  0
VERTEX
  8
0
 10
4.70196957
 20
4.13364444
  0
VERTEX
  8
0
 10
4.68955672
 20
4.16632511
  0
VERTEX
  8
0
 10
4.67875071
 20
4.19962101
  0
VERTEX
  8
0
 10
4.66963986
 20
4.23352237
  0
VERTEX
  8
0
 10
4.66231245
 20
4.26801944
  0
VERTEX
  8
0
 10
4.62776927
 20
4.23747501
  0
VERTEX
  8
0
 10
4.59239926
 20
4.20772647
  0
VERTEX
  8
0
 10
4.55609175
 20
4.17910099
  0
VERTEX
  8
0
 10
4.51873606
 20
4.15192569
  0
VERTEX
  8
0
 10
4.48022152
 20
4.12652774
  0
VERTEX
  8
0
 10
4.44043745
 20
4.10323429
  0
VERTEX
  8
0
 10
4.42003476
 20
4.09247898
  0
VERTEX
  8
0
 10
4.39927317
 20
4.08237247
  0
VERTEX
  8
0
 10
4.37813887
 20
4.07295566
  0
VERTEX
  8
0
 10
4.35661801
 20
4.06426944
  0
VERTEX
  8
0
 10
4.32005795
 20
4.05267846
  0
VERTEX
  8
0
 10
4.28320004
 20
4.04195825
  0
VERTEX
  8
0
 10
4.24605893
 20
4.03225040
  0
VERTEX
  8
0
 10
4.20864926
 20
4.02369653
  0
VERTEX
  8
0
 10
4.17098568
 20
4.01643823
  0
VERTEX
  8
0
 10
4.13308285
 20
4.01061710
  0
VERTEX
  8
0
 10
4.09495541
 20
4.00637475
  0
VERTEX
  8
0
 10
4.05661801
 20
4.00385278
  0
VERTEX
  8
0
 10
4.02859850
 20
4.00413279
  0
VERTEX
  8
0
 10
4.00069109
 20
4.00678952
  0
VERTEX
  8
0
 10
3.97305996
 20
4.01173547
  0
VERTEX
  8
0
 10
3.94586931
 20
4.01888316
  0
VERTEX
  8
0
 10
3.91928331
 20
4.02814511
  0
VERTEX
  8
0
 10
3.89346615
 20
4.03943383
  0
VERTEX
  8
0
 10
3.86858202
 20
4.05266184
  0
VERTEX
  8
0
 10
3.84479509
 20
4.06774167
  0
VERTEX
  8
0
 10
3.82226956
 20
4.08458581
  0
VERTEX
  8
0
 10
3.80116960
 20
4.10310679
  0
VERTEX
  8
0
 10
3.78165941
 20
4.12321713
  0
VERTEX
  8
0
 10
3.76390316
 20
4.14482934
  0
VERTEX
  8
0
 10
3.74806505
 20
4.16785594
  0
VERTEX
  8
0
 10
3.73430925
 20
4.19220944
  0
VERTEX
  8
0
 10
3.72279995
 20
4.21780236
  0
VERTEX
  8
0
 10
3.71370134
 20
4.24454722
  0
VERTEX
  8
0
 10
3.70926432
 20
4.26682261
  0
VERTEX
  8
0
 10
3.70597863
 20
4.28920217
  0
VERTEX
  8
0
 10
3.70380419
 20
4.31165660
  0
VERTEX
  8
0
 10
3.70270091
 20
4.33415660
  0
VERTEX
  8
0
 10
3.70262872
 20
4.35667287
  0
VERTEX
  8
0
 10
3.70354753
 20
4.37917613
  0
VERTEX
  8
0
 10
3.70541728
 20
4.40163706
  0
VERTEX
  8
0
 10
3.70819787
 20
4.42402639
  0
VERTEX
  8
0
 10
3.71184923
 20
4.44631480
  0
VERTEX
  8
0
 10
3.71633128
 20
4.46847300
  0
VERTEX
  8
0
 10
3.72160394
 20
4.49047170
  0
VERTEX
  8
0
 10
3.72762712
 20
4.51228160
  0
VERTEX
  8
0
 10
3.74176476
 20
4.55521779
  0
VERTEX
  8
0
 10
3.75842356
 20
4.59704722
  0
VERTEX
  8
0
 10
3.73432912
 20
4.60521708
  0
VERTEX
  8
0
 10
3.71157949
 20
4.61551158
  0
VERTEX
  8
0
 10
3.69017832
 20
4.62777995
  0
VERTEX
  8
0
 10
3.67012929
 20
4.64187144
  0
VERTEX
  8
0
 10
3.65143606
 20
4.65763529
  0
VERTEX
  8
0
 10
3.63410227
 20
4.67492076
  0
VERTEX
  8
0
 10
3.61813161
 20
4.69357707
  0
VERTEX
  8
0
 10
3.60352773
 20
4.71345347
  0
VERTEX
  8
0
 10
3.59029429
 20
4.73439921
  0
VERTEX
  8
0
 10
3.57843496
 20
4.75626353
  0
VERTEX
  8
0
 10
3.56795339
 20
4.77889567
  0
VERTEX
  8
0
 10
3.55885325
 20
4.80214488
  0
VERTEX
  8
0
 10
3.55113820
 20
4.82586039
  0
VERTEX
  8
0
 10
3.54481191
 20
4.84989146
  0
VERTEX
  8
0
 10
3.53987803
 20
4.87408732
  0
VERTEX
  8
0
 10
3.53634023
 20
4.89829722
  0
VERTEX
  8
0
 10
3.53349952
 20
4.91835473
  0
VERTEX
  8
0
 10
3.53244266
 20
4.93841875
  0
VERTEX
  8
0
 10
3.53280507
 20
4.95848277
  0
VERTEX
  8
0
 10
3.53422217
 20
4.97854028
  0
VERTEX
  8
0
 10
3.53876211
 20
5.01860972
  0
VERTEX
  8
0
 10
3.54314579
 20
5.05857500
  0
VERTEX
  8
0
 10
3.50075528
 20
5.04474413
  0
VERTEX
  8
0
 10
3.45755686
 20
5.03361813
  0
VERTEX
  8
0
 10
3.41372898
 20
5.02520006
  0
VERTEX
  8
0
 10
3.36945004
 20
5.01949297
  0
VERTEX
  8
0
 10
3.32489848
 20
5.01649991
  0
VERTEX
  8
0
 10
3.28025272
 20
5.01622392
  0
VERTEX
  8
0
 10
3.23569119
 20
5.01866808
  0
VERTEX
  8
0
 10
3.19139231
 20
5.02383542
  0
VERTEX
  8
0
 10
3.14753452
 20
5.03172899
  0
VERTEX
  8
0
 10
3.10429623
 20
5.04235185
  0
VERTEX
  8
0
 10
3.06185588
 20
5.05570706
  0
VERTEX
  8
0
 10
3.02039188
 20
5.07179765
  0
VERTEX
  8
0
 10
3.00008177
 20
5.08086968
  0
VERTEX
  8
0
 10
2.98008267
 20
5.09062670
  0
VERTEX
  8
0
 10
2.96041687
 20
5.10106909
  0
VERTEX
  8
0
 10
2.94110667
 20
5.11219723
  0
VERTEX
  8
0
 10
2.92217438
 20
5.12401151
  0
VERTEX
  8
0
 10
2.90364231
 20
5.13651232
  0
VERTEX
  8
0
 10
2.88553275
 20
5.14970002
  0
VERTEX
  8
0
 10
2.86786801
 20
5.16357500
  0
VERTEX
  8
0
 10
2.85225382
 20
5.17727739
  0
VERTEX
  8
0
 10
2.83740116
 20
5.19207435
  0
VERTEX
  8
0
 10
2.82340420
 20
5.20787554
  0
VERTEX
  8
0
 10
2.81035716
 20
5.22459062
  0
VERTEX
  8
0
 10
2.79835422
 20
5.24212928
  0
VERTEX
  8
0
 10
2.78748959
 20
5.26040117
  0
VERTEX
  8
0
 10
2.77785746
 20
5.27931597
  0
VERTEX
  8
0
 10
2.76955204
 20
5.29878333
  0
VERTEX
  8
0
 10
2.76266751
 20
5.31871294
  0
VERTEX
  8
0
 10
2.75729808
 20
5.33901445
  0
VERTEX
  8
0
 10
2.75353794
 20
5.35959754
  0
VERTEX
  8
0
 10
2.75148129
 20
5.38037187
  0
VERTEX
  8
0
 10
2.75122233
 20
5.40124712
  0
VERTEX
  8
0
 10
2.75285526
 20
5.42213294
  0
VERTEX
  8
0
 10
2.75647427
 20
5.44293901
  0
VERTEX
  8
0
 10
2.76217356
 20
5.46357500
  0
VERTEX
  8
0
 10
2.76778029
 20
5.48266890
  0
VERTEX
  8
0
 10
2.77420183
 20
5.50141734
  0
VERTEX
  8
0
 10
2.78138713
 20
5.51983293
  0
VERTEX
  8
0
 10
2.78928511
 20
5.53792830
  0
VERTEX
  8
0
 10
2.80701487
 20
5.57320879
  0
VERTEX
  8
0
 10
2.82698259
 20
5.60735972
  0
VERTEX
  8
0
 10
2.84877974
 20
5.64048201
  0
VERTEX
  8
0
 10
2.87199778
 20
5.67267656
  0
VERTEX
  8
0
 10
2.89622820
 20
5.70404429
  0
VERTEX
  8
0
 10
2.92106245
 20
5.73468611
  0
VERTEX
  8
0
 10
2.96023834
 20
5.77813609
  0
VERTEX
  8
0
 10
3.00069353
 20
5.82033281
  0
VERTEX
  8
0
 10
3.04228804
 20
5.86139021
  0
VERTEX
  8
0
 10
3.08488190
 20
5.90142222
  0
VERTEX
  8
0
 10
3.12833513
 20
5.94054277
  0
VERTEX
  8
0
 10
3.17250777
 20
5.97886580
  0
VERTEX
  8
0
 10
3.21725983
 20
6.01650523
  0
VERTEX
  8
0
 10
3.26245134
 20
6.05357500
  0
VERTEX
  8
0
 10
3.22679810
 20
6.06016259
  0
VERTEX
  8
0
 10
3.19144413
 20
6.06779917
  0
VERTEX
  8
0
 10
3.15637621
 20
6.07642046
  0
VERTEX
  8
0
 10
3.12158112
 20
6.08596215
  0
VERTEX
  8
0
 10
3.08704563
 20
6.09635997
  0
VERTEX
  8
0
 10
3.05275652
 20
6.10754961
  0
VERTEX
  8
0
 10
2.98486454
 20
6.13204722
  0
VERTEX
  8
0
 10
2.91779938
 20
6.15894067
  0
VERTEX
  8
0
 10
2.85145525
 20
6.18771562
  0
VERTEX
  8
0
 10
2.78572635
 20
6.21785777
  0
VERTEX
  8
0
 10
2.72050690
 20
6.24885278
  0
VERTEX
  8
0
 10
2.69685164
 20
6.25671017
  0
VERTEX
  8
0
 10
2.67354997
 20
6.26578746
  0
VERTEX
  8
0
 10
2.65069183
 20
6.27606103
  0
VERTEX
  8
0
 10
2.62836714
 20
6.28750729
  0
VERTEX
  8
0
 10
2.60666582
 20
6.30010264
  0
VERTEX
  8
0
 10
2.58567780
 20
6.31382348
  0
VERTEX
  8
0
 10
2.56549299
 20
6.32864621
  0
VERTEX
  8
0
 10
2.54620134
 20
6.34454722
  0
VERTEX
  8
0
 10
2.52789276
 20
6.36150292
  0
VERTEX
  8
0
 10
2.51065718
 20
6.37948971
  0
VERTEX
  8
0
 10
2.49458452
 20
6.39848399
  0
VERTEX
  8
0
 10
2.47976471
 20
6.41846215
  0
VERTEX
  8
0
 10
2.46628767
 20
6.43940060
  0
VERTEX
  8
0
 10
2.45424333
 20
6.46127574
  0
VERTEX
  8
0
 10
2.44372162
 20
6.48406396
  0
VERTEX
  8
0
 10
2.43481245
 20
6.50774167
  0
VERTEX
  8
0
 10
2.42824948
 20
6.52517537
  0
VERTEX
  8
0
 10
2.42280345
 20
6.54312931
  0
VERTEX
  8
0
 10
2.41851057
 20
6.56148892
  0
VERTEX
  8
0
 10
2.41540707
 20
6.58013967
  0
VERTEX
  8
0
 10
2.41352915
 20
6.59896701
  0
VERTEX
  8
0
 10
2.41291304
 20
6.61785641
  0
VERTEX
  8
0
 10
2.41359494
 20
6.63669332
  0
VERTEX
  8
0
 10
2.41561106
 20
6.65536319
  0
VERTEX
  8
0
 10
2.41899763
 20
6.67375149
  0
VERTEX
  8
0
 10
2.42379086
 20
6.69174367
  0
VERTEX
  8
0
 10
2.43002696
 20
6.70922519
  0
VERTEX
  8
0
 10
2.43774214
 20
6.72608151
  0
VERTEX
  8
0
 10
2.44697262
 20
6.74219808
  0
VERTEX
  8
0
 10
2.45775462
 20
6.75746036
  0
VERTEX
  8
0
 10
2.47012434
 20
6.77175381
  0
VERTEX
  8
0
 10
2.48411801
 20
6.78496389
  0
VERTEX
  8
0
 10
2.53018138
 20
6.82035885
  0
VERTEX
  8
0
 10
2.55365414
 20
6.83754690
  0
VERTEX
  8
0
 10
2.57752079
 20
6.85416528
  0
VERTEX
  8
0
 10
2.60185618
 20
6.87004147
  0
VERTEX
  8
0
 10
2.62673520
 20
6.88500295
  0
VERTEX
  8
0
 10
2.65223270
 20
6.89887719
  0
VERTEX
  8
0
 10
2.67842356
 20
6.91149167
  0
VERTEX
  8
0
 10
2.69186296
 20
6.91802677
  0
VERTEX
  8
0
 10
2.70461063
 20
6.92564748
  0
VERTEX
  8
0
 10
2.72885759
 20
6.94286319
  0
VERTEX
  8
0
 10
2.75281809
 20
6.96057370
  0
VERTEX
  8
0
 10
2.76520769
 20
6.96881290
  0
VERTEX
  8
0
 10
2.77814579
 20
6.97621389
  0
VERTEX
  8
0
 10
2.80266184
 20
6.98876814
  0
VERTEX
  8
0
 10
2.82750342
 20
7.00071042
  0
VERTEX
  8
0
 10
2.87717356
 20
7.02468611
  0
VERTEX
  8
0
 10
2.81620351
 20
7.03734887
  0
VERTEX
  8
0
 10
2.75514231
 20
7.05189965
  0
VERTEX
  8
0
 10
2.72476064
 20
7.06007836
  0
VERTEX
  8
0
 10
2.69457591
 20
7.06896345
  0
VERTEX
  8
0
 10
2.66466136
 20
7.07863305
  0
VERTEX
  8
0
 10
2.63509023
 20
7.08916528
  0
VERTEX
  8
0
 10
2.60593577
 20
7.10063826
  0
VERTEX
  8
0
 10
2.57727122
 20
7.11313012
  0
VERTEX
  8
0
 10
2.54916982
 20
7.12671899
  0
VERTEX
  8
0
 10
2.52170481
 20
7.14148298
  0
VERTEX
  8
0
 10
2.49494944
 20
7.15750024
  0
VERTEX
  8
0
 10
2.46897695
 20
7.17484887
  0
VERTEX
  8
0
 10
2.44386058
 20
7.19360701
  0
VERTEX
  8
0
 10
2.41967356
 20
7.21385278
  0
VERTEX
  8
0
 10
2.40615245
 20
7.22615940
  0
VERTEX
  8
0
 10
2.39339264
 20
7.23938256
  0
VERTEX
  8
0
 10
2.38145884
 20
7.25344598
  0
VERTEX
  8
0
 10
2.37041575
 20
7.26827335
  0
VERTEX
  8
0
 10
2.36032806
 20
7.28378838
  0
VERTEX
  8
0
 10
2.35126048
 20
7.29991479
  0
VERTEX
  8
0
 10
2.34327769
 20
7.31657627
  0
VERTEX
  8
0
 10
2.33644440
 20
7.33369653
  0
VERTEX
  8
0
 10
2.33082530
 20
7.35119927
  0
VERTEX
  8
0
 10
2.32648509
 20
7.36900821
  0
VERTEX
  8
0
 10
2.32348846
 20
7.38704705
  0
VERTEX
  8
0
 10
2.32190013
 20
7.40523950
  0
VERTEX
  8
0
 10
2.32178477
 20
7.42350925
  0
VERTEX
  8
0
 10
2.32320709
 20
7.44178002
  0
VERTEX
  8
0
 10
2.32623179
 20
7.45997552
  0
VERTEX
  8
0
 10
2.33092356
 20
7.47801944
  0
VERTEX
  8
0
 10
2.33477224
 20
7.49241340
  0
VERTEX
  8
0
 10
2.33955800
 20
7.50633514
  0
VERTEX
  8
0
 10
2.34521861
 20
7.51980075
  0
VERTEX
  8
0
 10
2.35169179
 20
7.53282630
  0
VERTEX
  8
0
 10
2.35891530
 20
7.54542786
  0
VERTEX
  8
0
 10
2.36682688
 20
7.55762149
  0
VERTEX
  8
0
 10
2.38446523
 20
7.58084930
  0
VERTEX
  8
0
 10
2.40410878
 20
7.60263831
  0
VERTEX
  8
0
 10
2.42525950
 20
7.62311710
  0
VERTEX
  8
0
 10
2.44741933
 20
7.64241425
  0
VERTEX
  8
0
 10
2.47009023
 20
7.66065833
  0
VERTEX
  8
0
 10
2.49202220
 20
7.67636824
  0
VERTEX
  8
0
 10
2.51440013
 20
7.69151988
  0
VERTEX
  8
0
 10
2.53725332
 20
7.70595862
  0
VERTEX
  8
0
 10
2.56061106
 20
7.71952986
  0
VERTEX
  8
0
 10
2.58450267
 20
7.73207896
  0
VERTEX
  8
0
 10
2.60895742
 20
7.74345130
  0
VERTEX
  8
0
 10
2.63400462
 20
7.75349226
  0
VERTEX
  8
0
 10
2.65967356
 20
7.76204722
  0
VERTEX
  8
0
 10
2.70504330
 20
7.77499129
  0
VERTEX
  8
0
 10
2.75073042
 20
7.78729245
  0
VERTEX
  8
0
 10
2.79672679
 20
7.79852915
  0
VERTEX
  8
0
 10
2.84302426
 20
7.80827986
  0
VERTEX
  8
0
 10
2.88961470
 20
7.81612301
  0
VERTEX
  8
0
 10
2.93648997
 20
7.82163706
  0
VERTEX
  8
0
 10
2.96003187
 20
7.82338894
  0
VERTEX
  8
0
 10
2.98364193
 20
7.82440047
  0
VERTEX
  8
0
 10
3.00731913
 20
7.82461894
  0
VERTEX
  8
0
 10
3.03106245
 20
7.82399167
  0
VERTEX
  8
0
 10
2.94162018
 20
7.91293481
  0
VERTEX
  8
0
 10
2.89774946
 20
7.95828610
  0
VERTEX
  8
0
 10
2.85469092
 20
8.00439097
  0
VERTEX
  8
0
 10
2.81262848
 20
8.05137475
  0
VERTEX
  8
0
 10
2.77174605
 20
8.09936276
  0
VERTEX
  8
0
 10
2.73222755
 20
8.14848033
  0
VERTEX
  8
0
 10
2.69425690
 20
8.19885278
  0
VERTEX
  8
0
 10
2.67469652
 20
8.22048180
  0
VERTEX
  8
0
 10
2.65645226
 20
8.24322615
  0
VERTEX
  8
0
 10
2.63955444
 20
8.26699670
  0
VERTEX
  8
0
 10
2.62403337
 20
8.29170434
  0
VERTEX
  8
0
 10
2.60991937
 20
8.31725996
  0
VERTEX
  8
0
 10
2.59724274
 20
8.34357446
  0
VERTEX
  8
0
 10
2.58603380
 20
8.37055871
  0
VERTEX
  8
0
 10
2.57632287
 20
8.39812361
  0
VERTEX
  8
0
 10
2.56814026
 20
8.42618005
  0
VERTEX
  8
0
 10
2.56151628
 20
8.45463891
  0
VERTEX
  8
0
 10
2.55648126
 20
8.48341109
  0
VERTEX
  8
0
 10
2.55306549
 20
8.51240746
  0
VERTEX
  8
0
 10
2.55129930
 20
8.54153893
  0
VERTEX
  8
0
 10
2.55121301
 20
8.57071638
  0
VERTEX
  8
0
 10
2.55283691
 20
8.59985070
  0
VERTEX
  8
0
 10
2.55620134
 20
8.62885278
  0
VERTEX
  8
0
 10
2.55840149
 20
8.64590481
  0
VERTEX
  8
0
 10
2.56160200
 20
8.66275604
  0
VERTEX
  8
0
 10
2.56578111
 20
8.67935540
  0
VERTEX
  8
0
 10
2.57091705
 20
8.69565182
  0
VERTEX
  8
0
 10
2.57698805
 20
8.71159424
  0
VERTEX
  8
0
 10
2.58397234
 20
8.72713159
  0
VERTEX
  8
0
 10
2.59184814
 20
8.74221280
  0
VERTEX
  8
0
 10
2.60059370
 20
8.75678680
  0
VERTEX
  8
0
 10
2.61018724
 20
8.77080254
  0
VERTEX
  8
0
 10
2.62060699
 20
8.78420895
  0
VERTEX
  8
0
 10
2.63183119
 20
8.79695496
  0
VERTEX
  8
0
 10
2.64383806
 20
8.80898950
  0
VERTEX
  8
0
 10
2.65660583
 20
8.82026150
  0
VERTEX
  8
0
 10
2.67011275
 20
8.83071991
  0
VERTEX
  8
0
 10
2.68433702
 20
8.84031365
  0
VERTEX
  8
0
 10
2.69925690
 20
8.84899167
  0
VERTEX
  8
0
 10
2.71759667
 20
8.86494205
  0
VERTEX
  8
0
 10
2.73678891
 20
8.87953746
  0
VERTEX
  8
0
 10
2.75676483
 20
8.89281613
  0
VERTEX
  8
0
 10
2.77745568
 20
8.90481632
  0
VERTEX
  8
0
 10
2.79879269
 20
8.91557627
  0
VERTEX
  8
0
 10
2.82070709
 20
8.92513424
  0
VERTEX
  8
0
 10
2.84313012
 20
8.93352848
  0
VERTEX
  8
0
 10
2.86599301
 20
8.94079722
  0
VERTEX
  8
0
 10
2.88922699
 20
8.94697873
  0
VERTEX
  8
0
 10
2.91276330
 20
8.95211124
  0
VERTEX
  8
0
 10
2.93653317
 20
8.95623301
  0
VERTEX
  8
0
 10
2.96046783
 20
8.95938229
  0
VERTEX
  8
0
 10
2.98449853
 20
8.96159732
  0
VERTEX
  8
0
 10
3.00855648
 20
8.96291636
  0
VERTEX
  8
0
 10
3.03257294
 20
8.96337765
  0
VERTEX
  8
0
 10
3.05647912
 20
8.96301944
  0
VERTEX
  8
0
 10
3.10149784
 20
8.96363576
  0
VERTEX
  8
0
 10
3.14634240
 20
8.96164792
  0
VERTEX
  8
0
 10
3.19100793
 20
8.95739444
  0
VERTEX
  8
0
 10
3.23548954
 20
8.95121389
  0
VERTEX
  8
0
 10
3.27978234
 20
8.94344479
  0
VERTEX
  8
0
 10
3.32388146
 20
8.93442569
  0
VERTEX
  8
0
 10
3.41147912
 20
8.91399167
  0
VERTEX
  8
0
 10
3.43082204
 20
8.90945353
  0
VERTEX
  8
0
 10
3.44986833
 20
8.90409285
  0
VERTEX
  8
0
 10
3.48723867
 20
8.89136363
  0
VERTEX
  8
0
 10
3.52392541
 20
8.87672360
  0
VERTEX
  8
0
 10
3.56026384
 20
8.86109236
  0
VERTEX
  8
0
 10
3.59658925
 20
8.84538951
  0
VERTEX
  8
0
 10
3.63323693
 20
8.83053463
  0
VERTEX
  8
0
 10
3.67054216
 20
8.81744734
  0
VERTEX
  8
0
 10
3.68954614
 20
8.81185391
  0
VERTEX
  8
0
 10
3.70884023
 20
8.80704722
  0
VERTEX
  8
0
 10
3.67889041
 20
8.86197398
  0
VERTEX
  8
0
 10
3.65072608
 20
8.91818003
  0
VERTEX
  8
0
 10
3.63751743
 20
8.94674754
  0
VERTEX
  8
0
 10
3.62499990
 20
8.97561656
  0
VERTEX
  8
0
 10
3.61325507
 20
9.00478099
  0
VERTEX
  8
0
 10
3.60236454
 20
9.03423472
  0
VERTEX
  8
0
 10
3.59240987
 20
9.06397166
  0
VERTEX
  8
0
 10
3.58347266
 20
9.09398570
  0
VERTEX
  8
0
 10
3.57563449
 20
9.12427073
  0
VERTEX
  8
0
 10
3.56897695
 20
9.15482066
  0
VERTEX
  8
0
 10
3.56358161
 20
9.18562937
  0
VERTEX
  8
0
 10
3.55953006
 20
9.21669078
  0
VERTEX
  8
0
 10
3.55690389
 20
9.24799876
  0
VERTEX
  8
0
 10
3.55578467
 20
9.27954722
  0
VERTEX
  8
0
 10
3.55714433
 20
9.30776038
  0
VERTEX
  8
0
 10
3.56024919
 20
9.33574080
  0
VERTEX
  8
0
 10
3.56504432
 20
9.36342173
  0
VERTEX
  8
0
 10
3.57147478
 20
9.39073646
  0
VERTEX
  8
0
 10
3.57948564
 20
9.41761824
  0
VERTEX
  8
0
 10
3.58902198
 20
9.44400035
  0
VERTEX
  8
0
 10
3.60002886
 20
9.46981605
  0
VERTEX
  8
0
 10
3.61245134
 20
9.49499861
  0
VERTEX
  8
0
 10
3.62623450
 20
9.51948130
  0
VERTEX
  8
0
 10
3.64132341
 20
9.54319739
  0
VERTEX
  8
0
 10
3.65766313
 20
9.56608015
  0
VERTEX
  8
0
 10
3.67519874
 20
9.58806285
  0
VERTEX
  8
0
 10
3.69387529
 20
9.60907874
  0
VERTEX
  8
0
 10
3.71363786
 20
9.62906111
  0
VERTEX
  8
0
 10
3.73443153
 20
9.64794322
  0
VERTEX
  8
0
 10
3.75620134
 20
9.66565833
  0
VERTEX
  8
0
 10
3.77712162
 20
9.67800900
  0
VERTEX
  8
0
 10
3.79868073
 20
9.68825273
  0
VERTEX
  8
0
 10
3.82079485
 20
9.69648963
  0
VERTEX
  8
0
 10
3.84338016
 20
9.70281979
  0
VERTEX
  8
0
 10
3.86635284
 20
9.70734331
  0
VERTEX
  8
0
 10
3.88962908
 20
9.71016029
  0
VERTEX
  8
0
 10
3.91312503
 20
9.71137082
  0
VERTEX
  8
0
 10
3.93675690
 20
9.71107500
  0
VERTEX
  8
0
 10
3.96044084
 20
9.70937293
  0
VERTEX
  8
0
 10
3.98409305
 20
9.70636471
  0
VERTEX
  8
0
 10
4.00762970
 20
9.70215044
  0
VERTEX
  8
0
 10
4.03096697
 20
9.69683021
  0
VERTEX
  8
0
 10
4.05402103
 20
9.69050412
  0
VERTEX
  8
0
 10
4.07670807
 20
9.68327226
  0
VERTEX
  8
0
 10
4.09894426
 20
9.67523475
  0
VERTEX
  8
0
 10
4.12064579
 20
9.66649167
  0
VERTEX
  8
0
 10
4.15001319
 20
9.65429142
  0
VERTEX
  8
0
 10
4.17855377
 20
9.64053029
  0
VERTEX
  8
0
 10
4.20645633
 20
9.62556149
  0
VERTEX
  8
0
 10
4.23390967
 20
9.60973819
  0
VERTEX
  8
0
 10
4.28822391
 20
9.57694088
  0
VERTEX
  8
0
 10
4.31546241
 20
9.56067325
  0
VERTEX
  8
0
 10
4.34300690
 20
9.54496389
  0
VERTEX
  8
0
 10
4.34682390
 20
9.58193753
  0
VERTEX
  8
0
 10
4.35138146
 20
9.61891707
  0
VERTEX
  8
0
 10
4.35673004
 20
9.65584981
  0
VERTEX
  8
0
 10
4.36292009
 20
9.69268307
  0
VERTEX
  8
0
 10
4.37000207
 20
9.72936415
  0
VERTEX
  8
0
 10
4.37802643
 20
9.76584035
  0
VERTEX
  8
0
 10
4.38704363
 20
9.80205899
  0
VERTEX
  8
0
 10
4.39710412
 20
9.83796736
  0
VERTEX
  8
0
 10
4.40825836
 20
9.87351278
  0
VERTEX
  8
0
 10
4.42055681
 20
9.90864254
  0
VERTEX
  8
0
 10
4.43404992
 20
9.94330397
  0
VERTEX
  8
0
 10
4.44878815
 20
9.97744436
  0
VERTEX
  8
0
 10
4.46482195
 20
10.01101101
  0
VERTEX
  8
0
 10
4.48220178
 20
10.04395125
  0
VERTEX
  8
0
 10
4.50097809
 20
10.07621236
  0
VERTEX
  8
0
 10
4.52120134
 20
10.10774167
  0
VERTEX
  8
0
 10
4.54767487
 20
10.14719913
  0
VERTEX
  8
0
 10
4.57392704
 20
10.18704722
  0
VERTEX
  8
0
 10
4.58782867
 20
10.20634464
  0
VERTEX
  8
0
 10
4.60270525
 20
10.22481198
  0
VERTEX
  8
0
 10
4.61890018
 20
10.24213999
  0
VERTEX
  8
0
 10
4.63675690
 20
10.25801944
  0
VERTEX
  8
0
 10
4.65016222
 20
10.26801544
  0
VERTEX
  8
0
 10
4.66409712
 20
10.27712806
  0
VERTEX
  8
0
 10
4.67851501
 20
10.28537235
  0
VERTEX
  8
0
 10
4.69336931
 20
10.29276337
  0
VERTEX
  8
0
 10
4.70861342
 20
10.29931617
  0
VERTEX
  8
0
 10
4.72420074
 20
10.30504581
  0
VERTEX
  8
0
 10
4.74008470
 20
10.30996735
  0
VERTEX
  8
0
 10
4.75621870
 20
10.31409583
  0
VERTEX
  8
0
 10
4.77255615
 20
10.31744632
  0
VERTEX
  8
0
 10
4.78905046
 20
10.32003387
  0
VERTEX
  8
0
 10
4.82232330
 20
10.32298038
  0
VERTEX
  8
0
 10
4.85566450
 20
10.32305579
  0
VERTEX
  8
0
 10
4.88870134
 20
10.32038055
  0
VERTEX
  8
0
 10
4.91225298
 20
10.31672953
  0
VERTEX
  8
0
 10
4.93560401
 20
10.31214895
  0
VERTEX
  8
0
 10
4.95873613
 20
10.30666626
  0
VERTEX
  8
0
 10
4.98163103
 20
10.30030894
  0
VERTEX
  8
0
 10
5.00427039
 20
10.29310445
  0
VERTEX
  8
0
 10
5.02663591
 20
10.28508026
  0
VERTEX
  8
0
 10
5.04870928
 20
10.27626383
  0
VERTEX
  8
0
 10
5.07047217
 20
10.26668264
  0
VERTEX
  8
0
 10
5.09190630
 20
10.25636414
  0
VERTEX
  8
0
 10
5.11299333
 20
10.24533580
  0
VERTEX
  8
0
 10
5.13371497
 20
10.23362508
  0
VERTEX
  8
0
 10
5.15405290
 20
10.22125946
  0
VERTEX
  8
0
 10
5.19350440
 20
10.19467336
  0
VERTEX
  8
0
 10
5.23120134
 20
10.16579722
  0
VERTEX
  8
0
 10
5.25915253
 20
10.14297658
  0
VERTEX
  8
0
 10
5.28625614
 20
10.11928680
  0
VERTEX
  8
0
 10
5.31254350
 20
10.09477671
  0
VERTEX
  8
0
 10
5.33804596
 20
10.06949514
  0
VERTEX
  8
0
 10
5.36279483
 20
10.04349091
  0
VERTEX
  8
0
 10
5.38682146
 20
10.01681285
  0
VERTEX
  8
0
 10
5.41015717
 20
9.98950979
  0
VERTEX
  8
0
 10
5.43283329
 20
9.96163055
  0
VERTEX
  8
0
 10
5.45488115
 20
9.93322398
  0
VERTEX
  8
0
 10
5.47633209
 20
9.90433889
  0
VERTEX
  8
0
 10
5.51756853
 20
9.84532847
  0
VERTEX
  8
0
 10
5.55679325
 20
9.78498993
  0
VERTEX
  8
0
 10
5.59425690
 20
9.72371389
  0
VERTEX
  8
0
 10
5.60367154
 20
9.75748759
  0
VERTEX
  8
0
 10
5.61382531
 20
9.79120168
  0
VERTEX
  8
0
 10
5.62477051
 20
9.82477376
  0
VERTEX
  8
0
 10
5.63655941
 20
9.85812144
  0
VERTEX
  8
0
 10
5.64924432
 20
9.89116231
  0
VERTEX
  8
0
 10
5.66287750
 20
9.92381399
  0
VERTEX
  8
0
 10
5.67751126
 20
9.95599406
  0
VERTEX
  8
0
 10
5.69319787
 20
9.98762014
  0
VERTEX
  8
0
 10
5.70998962
 20
10.01860982
  0
VERTEX
  8
0
 10
5.72793881
 20
10.04888072
  0
VERTEX
  8
0
 10
5.74709771
 20
10.07835042
  0
VERTEX
  8
0
 10
5.76751862
 20
10.10693654
  0
VERTEX
  8
0
 10
5.78925381
 20
10.13455668
  0
VERTEX
  8
0
 10
5.81235558
 20
10.16112844
  0
VERTEX
  8
0
 10
5.83687622
 20
10.18656942
  0
VERTEX
  8
0
 10
5.86286801
 20
10.21079722
  0
VERTEX
  8
0
 10
5.88085622
 20
10.22645827
  0
VERTEX
  8
0
 10
5.89985965
 20
10.24059079
  0
VERTEX
  8
0
 10
5.91978024
 20
10.25321574
  0
VERTEX
  8
0
 10
5.94051992
 20
10.26435408
  0
VERTEX
  8
0
 10
5.96198062
 20
10.27402676
  0
VERTEX
  8
0
 10
5.98406430
 20
10.28225474
  0
VERTEX
  8
0
 10
6.00667287
 20
10.28905897
  0
VERTEX
  8
0
 10
6.02970829
 20
10.29446042
  0
VERTEX
  8
0
 10
6.05307248
 20
10.29848002
  0
VERTEX
  8
0
 10
6.07666738
 20
10.30113875
  0
VERTEX
  8
0
 10
6.10039493
 20
10.30245755
  0
VERTEX
  8
0
 10
6.12415707
 20
10.30245738
  0
VERTEX
  8
0
 10
6.14785573
 20
10.30115919
  0
VERTEX
  8
0
 10
6.17139286
 20
10.29858395
  0
VERTEX
  8
0
 10
6.19467038
 20
10.29475260
  0
VERTEX
  8
0
 10
6.21759023
 20
10.28968611
  0
VERTEX
  8
0
 10
6.24736406
 20
10.27866486
  0
VERTEX
  8
0
 10
6.27567671
 20
10.26539629
  0
VERTEX
  8
0
 10
6.30257741
 20
10.25004194
  0
VERTEX
  8
0
 10
6.32811540
 20
10.23276337
  0
VERTEX
  8
0
 10
6.35233992
 20
10.21372209
  0
VERTEX
  8
0
 10
6.37530019
 20
10.19307966
  0
VERTEX
  8
0
 10
6.39704546
 20
10.17099762
  0
VERTEX
  8
0
 10
6.41762495
 20
10.14763750
  0
VERTEX
  8
0
 10
6.43708791
 20
10.12316084
  0
VERTEX
  8
0
 10
6.45548357
 20
10.09772919
  0
VERTEX
  8
0
 10
6.47286116
 20
10.07150408
  0
VERTEX
  8
0
 10
6.48926992
 20
10.04464705
  0
VERTEX
  8
0
 10
6.50475908
 20
10.01731964
  0
VERTEX
  8
0
 10
6.51937788
 20
9.98968340
  0
VERTEX
  8
0
 10
6.54620134
 20
9.93413055
  0
VERTEX
  8
0
 10
6.60016917
 20
9.98433400
  0
VERTEX
  8
0
 10
6.65575646
 20
10.03390920
  0
VERTEX
  8
0
 10
6.68427287
 20
10.05802480
  0
VERTEX
  8
0
 10
6.71333269
 20
10.08145966
  0
VERTEX
  8
0
 10
6.74298211
 20
10.10403920
  0
VERTEX
  8
0
 10
6.77326731
 20
10.12558889
  0
VERTEX
  8
0
 10
6.80423448
 20
10.14593414
  0
VERTEX
  8
0
 10
6.83592980
 20
10.16490041
  0
VERTEX
  8
0
 10
6.86839945
 20
10.18231313
  0
VERTEX
  8
0
 10
6.90168962
 20
10.19799774
  0
VERTEX
  8
0
 10
6.93584649
 20
10.21177968
  0
VERTEX
  8
0
 10
6.97091624
 20
10.22348440
  0
VERTEX
  8
0
 10
7.00694505
 20
10.23293732
  0
VERTEX
  8
0
 10
7.04397912
 20
10.23996389
  0
VERTEX
  8
0
 10
7.08857547
 20
10.24126814
  0
VERTEX
  8
0
 10
7.11103478
 20
10.24175832
  0
VERTEX
  8
0
 10
7.13345829
 20
10.24154375
  0
VERTEX
  8
0
 10
7.15573856
 20
10.24017683
  0
VERTEX
  8
0
 10
7.17776818
 20
10.23720998
  0
VERTEX
  8
0
 10
7.19943973
 20
10.23219560
  0
VERTEX
  8
0
 10
7.22064579
 20
10.22468611
  0
VERTEX
  8
0
 10
7.23826135
 20
10.21747664
  0
VERTEX
  8
0
 10
7.25459110
 20
10.20828637
  0
VERTEX
  8
0
 10
7.26985965
 20
10.19749129
  0
VERTEX
  8
0
 10
7.28429162
 20
10.18546736
  0
VERTEX
  8
0
 10
7.29811161
 20
10.17259057
  0
VERTEX
  8
0
 10
7.31154422
 20
10.15923689
  0
VERTEX
  8
0
 10
7.33814579
 20
10.13260278
  0
VERTEX
  8
0
 10
7.35776720
 20
10.11130890
  0
VERTEX
  8
0
 10
7.37593089
 20
10.08899004
  0
VERTEX
  8
0
 10
7.39267978
 20
10.06572472
  0
VERTEX
  8
0
 10
7.40805681
 20
10.04159149
  0
VERTEX
  8
0
 10
7.42210490
 20
10.01666887
  0
VERTEX
  8
0
 10
7.43486698
 20
9.99103539
  0
VERTEX
  8
0
 10
7.44638597
 20
9.96476959
  0
VERTEX
  8
0
 10
7.45670481
 20
9.93795000
  0
VERTEX
  8
0
 10
7.46586643
 20
9.91065514
  0
VERTEX
  8
0
 10
7.47391374
 20
9.88296356
  0
VERTEX
  8
0
 10
7.48088969
 20
9.85495378
  0
VERTEX
  8
0
 10
7.48683719
 20
9.82670434
  0
VERTEX
  8
0
 10
7.49179918
 20
9.79829376
  0
VERTEX
  8
0
 10
7.49581858
 20
9.76980058
  0
VERTEX
  8
0
 10
7.49893833
 20
9.74130334
  0
VERTEX
  8
0
 10
7.50120134
 20
9.71288055
  0
VERTEX
  8
0
 10
7.50130985
 20
9.64376814
  0
VERTEX
  8
0
 10
7.50186106
 20
9.57456458
  0
VERTEX
  8
0
 10
7.50113895
 20
9.54003035
  0
VERTEX
  8
0
 10
7.49913103
 20
9.50559540
  0
VERTEX
  8
0
 10
7.49537181
 20
9.47130042
  0
VERTEX
  8
0
 10
7.48939579
 20
9.43718611
  0
VERTEX
  8
0
 10
7.51429596
 20
9.46728024
  0
VERTEX
  8
0
 10
7.53992530
 20
9.49687144
  0
VERTEX
  8
0
 10
7.56642704
 20
9.52570418
  0
VERTEX
  8
0
 10
7.59394440
 20
9.55352292
  0
VERTEX
  8
0
 10
7.62262061
 20
9.58007212
  0
VERTEX
  8
0
 10
7.65259891
 20
9.60509627
  0
VERTEX
  8
0
 10
7.68402252
 20
9.62833981
  0
VERTEX
  8
0
 10
7.71703467
 20
9.64954722
  0
VERTEX
  8
0
 10
7.74214990
 20
9.66840773
  0
VERTEX
  8
0
 10
7.76817780
 20
9.68627764
  0
VERTEX
  8
0
 10
7.79504798
 20
9.70305827
  0
VERTEX
  8
0
 10
7.82269006
 20
9.71865095
  0
VERTEX
  8
0
 10
7.85103363
 20
9.73295702
  0
VERTEX
  8
0
 10
7.88000831
 20
9.74587779
  0
VERTEX
  8
0
 10
7.90954369
 20
9.75731459
  0
VERTEX
  8
0
 10
7.93956940
 20
9.76716875
  0
VERTEX
  8
0
 10
7.97001502
 20
9.77534159
  0
VERTEX
  8
0
 10
8.00081017
 20
9.78173445
  0
VERTEX
  8
0
 10
8.03188446
 20
9.78624864
  0
VERTEX
  8
0
 10
8.06316749
 20
9.78878550
  0
VERTEX
  8
0
 10
8.09458886
 20
9.78924635
  0
VERTEX
  8
0
 10
8.12607819
 20
9.78753252
  0
VERTEX
  8
0
 10
8.15756507
 20
9.78354533
  0
VERTEX
  8
0
 10
8.18897912
 20
9.77718611
  0
VERTEX
  8
0
 10
8.20591193
 20
9.77139774
  0
VERTEX
  8
0
 10
8.22241689
 20
9.76458357
  0
VERTEX
  8
0
 10
8.23846002
 20
9.75678877
  0
VERTEX
  8
0
 10
8.25400733
 20
9.74805851
  0
VERTEX
  8
0
 10
8.26902486
 20
9.73843794
  0
VERTEX
  8
0
 10
8.28347863
 20
9.72797224
  0
VERTEX
  8
0
 10
8.29733466
 20
9.71670658
  0
VERTEX
  8
0
 10
8.31055898
 20
9.70468611
  0
VERTEX
  8
0
 10
8.32311761
 20
9.69195601
  0
VERTEX
  8
0
 10
8.33497657
 20
9.67856144
  0
VERTEX
  8
0
 10
8.34610189
 20
9.66454756
  0
VERTEX
  8
0
 10
8.35645959
 20
9.64995955
  0
VERTEX
  8
0
 10
8.36601569
 20
9.63484256
  0
VERTEX
  8
0
 10
8.37473623
 20
9.61924177
  0
VERTEX
  8
0
 10
8.38258721
 20
9.60320235
  0
VERTEX
  8
0
 10
8.38953467
 20
9.58676944
  0
VERTEX
  8
0
 10
8.39750085
 20
9.56755120
  0
VERTEX
  8
0
 10
8.40446198
 20
9.54808862
  0
VERTEX
  8
0
 10
8.41048072
 20
9.52840427
  0
VERTEX
  8
0
 10
8.41561974
 20
9.50852075
  0
VERTEX
  8
0
 10
8.41994171
 20
9.48846063
  0
VERTEX
  8
0
 10
8.42350928
 20
9.46824649
  0
VERTEX
  8
0
 10
8.42863190
 20
9.42744653
  0
VERTEX
  8
0
 10
8.43148888
 20
9.38630151
  0
VERTEX
  8
0
 10
8.43258155
 20
9.34499210
  0
VERTEX
  8
0
 10
8.43241119
 20
9.30369897
  0
VERTEX
  8
0
 10
8.43147912
 20
9.26260278
  0
VERTEX
  8
0
 10
8.47911150
 20
9.26595347
  0
VERTEX
  8
0
 10
8.52691315
 20
9.26847083
  0
VERTEX
  8
0
 10
8.55083269
 20
9.26901011
  0
VERTEX
  8
0
 10
8.57474084
 20
9.26885278
  0
VERTEX
  8
0
 10
8.59861969
 20
9.26783607
  0
VERTEX
  8
0
 10
8.62245134
 20
9.26579722
  0
VERTEX
  8
0
 10
8.64815474
 20
9.25781138
  0
VERTEX
  8
0
 10
8.67320872
 20
9.24732717
  0
VERTEX
  8
0
 10
8.69718523
 20
9.23439830
  0
VERTEX
  8
0
 10
8.71965620
 20
9.21907847
  0
VERTEX
  8
0
 10
8.73019335
 20
9.21053874
  0
VERTEX
  8
0
 10
8.74019358
 20
9.20142141
  0
VERTEX
  8
0
 10
8.74960341
 20
9.19173319
  0
VERTEX
  8
0
 10
8.75836931
 20
9.18148081
  0
VERTEX
  8
0
 10
8.76643778
 20
9.17067098
  0
VERTEX
  8
0
 10
8.77375532
 20
9.15931040
  0
VERTEX
  8
0
 10
8.78026842
 20
9.14740580
  0
VERTEX
  8
0
 10
8.78592356
 20
9.13496389
  0
VERTEX
  8
0
 10
8.80398102
 20
9.09596188
  0
VERTEX
  8
0
 10
8.81201396
 20
9.07596639
  0
VERTEX
  8
0
 10
8.81934153
 20
9.05568220
  0
VERTEX
  8
0
 10
8.82593262
 20
9.03514004
  0
VERTEX
  8
0
 10
8.83175608
 20
9.01437063
  0
VERTEX
  8
0
 10
8.83678080
 20
8.99340468
  0
VERTEX
  8
0
 10
8.84097565
 20
8.97227292
  0
VERTEX
  8
0
 10
8.84430949
 20
8.95100606
  0
VERTEX
  8
0
 10
8.84675120
 20
8.92963484
  0
VERTEX
  8
0
 10
8.84826965
 20
8.90818997
  0
VERTEX
  8
0
 10
8.84883372
 20
8.88670217
  0
VERTEX
  8
0
 10
8.84841227
 20
8.86520216
  0
VERTEX
  8
0
 10
8.84697418
 20
8.84372067
  0
VERTEX
  8
0
 10
8.84448832
 20
8.82228841
  0
VERTEX
  8
0
 10
8.84092356
 20
8.80093611
  0
VERTEX
  8
0
 10
8.83677904
 20
8.77774116
  0
VERTEX
  8
0
 10
8.83182987
 20
8.75476451
  0
VERTEX
  8
0
 10
8.81973650
 20
8.70942786
  0
VERTEX
  8
0
 10
8.80508128
 20
8.66484968
  0
VERTEX
  8
0
 10
8.78830204
 20
8.62095347
  0
VERTEX
  8
0
 10
8.76983660
 20
8.57766273
  0
VERTEX
  8
0
 10
8.75012278
 20
8.53490095
  0
VERTEX
  8
0
 10
8.70870134
 20
8.45065833
  0
VERTEX
  8
0
 10
8.74069160
 20
8.44857493
  0
VERTEX
  8
0
 10
8.77276140
 20
8.44572289
  0
VERTEX
  8
0
 10
8.80484056
 20
8.44204322
  0
VERTEX
  8
0
 10
8.83685889
 20
8.43747691
  0
VERTEX
  8
0
 10
8.86874620
 20
8.43196496
  0
VERTEX
  8
0
 10
8.90043230
 20
8.42544837
  0
VERTEX
  8
0
 10
8.93184699
 20
8.41786814
  0
VERTEX
  8
0
 10
8.96292009
 20
8.40916528
  0
VERTEX
  8
0
 10
8.99358141
 20
8.39928077
  0
VERTEX
  8
0
 10
9.02376075
 20
8.38815562
  0
VERTEX
  8
0
 10
9.05338793
 20
8.37573083
  0
VERTEX
  8
0
 10
9.08239275
 20
8.36194739
  0
VERTEX
  8
0
 10
9.11070502
 20
8.34674632
  0
VERTEX
  8
0
 10
9.13825456
 20
8.33006860
  0
VERTEX
  8
0
 10
9.16497118
 20
8.31185523
  0
VERTEX
  8
0
 10
9.19078467
 20
8.29204722
  0
VERTEX
  8
0
 10
9.20550174
 20
8.28030002
  0
VERTEX
  8
0
 10
9.21970612
 20
8.26774411
  0
VERTEX
  8
0
 10
9.23332130
 20
8.25442362
  0
VERTEX
  8
0
 10
9.24627079
 20
8.24038272
  0
VERTEX
  8
0
 10
9.25847809
 20
8.22566555
  0
VERTEX
  8
0
 10
9.26986671
 20
8.21031626
  0
VERTEX
  8
0
 10
9.28036014
 20
8.19437900
  0
VERTEX
  8
0
 10
9.28988190
 20
8.17789792
  0
VERTEX
  8
0
 10
9.29835548
 20
8.16091715
  0
VERTEX
  8
0
 10
9.30570438
 20
8.14348087
  0
VERTEX
  8
0
 10
9.31185211
 20
8.12563321
  0
VERTEX
  8
0
 10
9.31672217
 20
8.10741831
  0
VERTEX
  8
0
 10
9.32023807
 20
8.08888034
  0
VERTEX
  8
0
 10
9.32232330
 20
8.07006344
  0
VERTEX
  8
0
 10
9.32290137
 20
8.05101176
  0
VERTEX
  8
0
 10
9.32189579
 20
8.03176944
  0
VERTEX
  8
0
 10
9.32218031
 20
8.01042179
  0
VERTEX
  8
0
 10
9.32046105
 20
7.98956892
  0
VERTEX
  8
0
 10
9.31686313
 20
7.96923038
  0
VERTEX
  8
0
 10
9.31151167
 20
7.94942569
  0
VERTEX
  8
0
 10
9.30453179
 20
7.93017439
  0
VERTEX
  8
0
 10
9.29604862
 20
7.91149601
  0
VERTEX
  8
0
 10
9.28618727
 20
7.89341007
  0
VERTEX
  8
0
 10
9.27507287
 20
7.87593611
  0
VERTEX
  8
0
 10
9.26283054
 20
7.85909366
  0
VERTEX
  8
0
 10
9.24958540
 20
7.84290226
  0
VERTEX
  8
0
 10
9.23546258
 20
7.82738142
  0
VERTEX
  8
0
 10
9.22058719
 20
7.81255069
  0
VERTEX
  8
0
 10
9.20508436
 20
7.79842960
  0
VERTEX
  8
0
 10
9.18907922
 20
7.78503767
  0
VERTEX
  8
0
 10
9.17269687
 20
7.77239444
  0
VERTEX
  8
0
 10
9.15606245
 20
7.76051944
  0
VERTEX
  8
0
 10
9.18251129
 20
7.74768904
  0
VERTEX
  8
0
 10
9.20809587
 20
7.73342309
  0
VERTEX
  8
0
 10
9.23295454
 20
7.71796573
  0
VERTEX
  8
0
 10
9.25722565
 20
7.70156111
  0
VERTEX
  8
0
 10
9.30455855
 20
7.66688663
  0
VERTEX
  8
0
 10
9.35120134
 20
7.63135278
  0
VERTEX
  8
0
 10
9.36501771
 20
7.61882776
  0
VERTEX
  8
0
 10
9.37805393
 20
7.60562853
  0
VERTEX
  8
0
 10
9.39030782
 20
7.59179540
  0
VERTEX
  8
0
 10
9.40177724
 20
7.57736867
  0
VERTEX
  8
0
 10
9.41246002
 20
7.56238867
  0
VERTEX
  8
0
 10
9.42235399
 20
7.54689568
  0
VERTEX
  8
0
 10
9.43145700
 20
7.53093004
  0
VERTEX
  8
0
 10
9.43976688
 20
7.51453203
  0
VERTEX
  8
0
 10
9.44728147
 20
7.49774197
  0
VERTEX
  8
0
 10
9.45399862
 20
7.48060018
  0
VERTEX
  8
0
 10
9.45991615
 20
7.46314695
  0
VERTEX
  8
0
 10
9.46503191
 20
7.44542260
  0
VERTEX
  8
0
 10
9.46934373
 20
7.42746744
  0
VERTEX
  8
0
 10
9.47284946
 20
7.40932176
  0
VERTEX
  8
0
 10
9.47554693
 20
7.39102590
  0
VERTEX
  8
0
 10
9.47743398
 20
7.37262014
  0
VERTEX
  8
0
 10
9.47850845
 20
7.35414480
  0
VERTEX
  8
0
 10
9.47876817
 20
7.33564019
  0
VERTEX
  8
0
 10
9.47821100
 20
7.31714662
  0
VERTEX
  8
0
 10
9.47683475
 20
7.29870439
  0
VERTEX
  8
0
 10
9.47463728
 20
7.28035382
  0
VERTEX
  8
0
 10
9.47161641
 20
7.26213521
  0
VERTEX
  8
0
 10
9.46777000
 20
7.24408888
  0
VERTEX
  8
0
 10
9.46309587
 20
7.22625512
  0
VERTEX
  8
0
 10
9.45759187
 20
7.20867425
  0
VERTEX
  8
0
 10
9.45125583
 20
7.19138658
  0
VERTEX
  8
0
 10
9.44408560
 20
7.17443242
  0
VERTEX
  8
0
 10
9.43607900
 20
7.15785207
  0
VERTEX
  8
0
 10
9.42723388
 20
7.14168585
  0
VERTEX
  8
0
 10
9.41754808
 20
7.12597405
  0
VERTEX
  8
0
 10
9.40701944
 20
7.11075700
  0
VERTEX
  8
0
 10
9.39564579
 20
7.09607500
  0
VERTEX
  8
0
 10
9.37897885
 20
7.07467336
  0
VERTEX
  8
0
 10
9.36061757
 20
7.05488793
  0
VERTEX
  8
0
 10
9.34114627
 20
7.03616045
  0
VERTEX
  8
0
 10
9.32114926
 20
7.01793264
  0
VERTEX
  8
0
 10
9.30121084
 20
6.99964623
  0
VERTEX
  8
0
 10
9.28191532
 20
6.98074297
  0
VERTEX
  8
0
 10
9.26384701
 20
6.96066457
  0
VERTEX
  8
0
 10
9.25545566
 20
6.95001024
  0
VERTEX
  8
0
 10
9.24759023
 20
6.93885278
  0
VERTEX
  8
0
 10
9.23235742
 20
6.92339478
  0
VERTEX
  8
0
 10
9.21658057
 20
6.90856116
  0
VERTEX
  8
0
 10
9.18354943
 20
6.88063446
  0
VERTEX
  8
0
 10
9.14880605
 20
6.85480737
  0
VERTEX
  8
0
 10
9.11265967
 20
6.83081458
  0
VERTEX
  8
0
 10
9.07541955
 20
6.80839081
  0
VERTEX
  8
0
 10
9.03739492
 20
6.78727075
  0
VERTEX
  8
0
 10
8.99889503
 20
6.76718909
  0
VERTEX
  8
0
 10
8.96022912
 20
6.74788055
  0
VERTEX
  8
0
 10
9.01396637
 20
6.73169132
  0
VERTEX
  8
0
 10
9.06671566
 20
6.71295000
  0
VERTEX
  8
0
 10
9.11859582
 20
6.69202118
  0
VERTEX
  8
0
 10
9.16972565
 20
6.66926944
  0
VERTEX
  8
0
 10
9.22022397
 20
6.64505937
  0
VERTEX
  8
0
 10
9.27020959
 20
6.61975555
  0
VERTEX
  8
0
 10
9.36911801
 20
6.56732500
  0
VERTEX
  8
0
 10
9.40964589
 20
6.54040117
  0
VERTEX
  8
0
 10
9.44888797
 20
6.51136146
  0
VERTEX
  8
0
 10
9.48645688
 20
6.48014726
  0
VERTEX
  8
0
 10
9.50449283
 20
6.46370643
  0
VERTEX
  8
0
 10
9.52196523
 20
6.44670000
  0
VERTEX
  8
0
 10
9.53882565
 20
6.42912065
  0
VERTEX
  8
0
 10
9.55502567
 20
6.41096107
  0
VERTEX
  8
0
 10
9.57051687
 20
6.39221391
  0
VERTEX
  8
0
 10
9.58525082
 20
6.37287187
  0
VERTEX
  8
0
 10
9.59917911
 20
6.35292762
  0
VERTEX
  8
0
 10
9.61225332
 20
6.33237383
  0
VERTEX
  8
0
 10
9.62442501
 20
6.31120317
  0
VERTEX
  8
0
 10
9.63564579
 20
6.28940833
  0
VERTEX
  8
0
 10
9.64571652
 20
6.26785631
  0
VERTEX
  8
0
 10
9.65449941
 20
6.24566403
  0
VERTEX
  8
0
 10
9.66195987
 20
6.22293342
  0
VERTEX
  8
0
 10
9.66806332
 20
6.19976640
  0
VERTEX
  8
0
 10
9.67277517
 20
6.17626492
  0
VERTEX
  8
0
 10
9.67606082
 20
6.15253089
  0
VERTEX
  8
0
 10
9.67788571
 20
6.12866625
  0
VERTEX
  8
0
 10
9.67821523
 20
6.10477292
  0
VERTEX
  8
0
 10
9.67701480
 20
6.08095283
  0
VERTEX
  8
0
 10
9.67424984
 20
6.05730791
  0
VERTEX
  8
0
 10
9.66988576
 20
6.03394009
  0
VERTEX
  8
0
 10
9.66388797
 20
6.01095130
  0
VERTEX
  8
0
 10
9.65622189
 20
5.98844347
  0
VERTEX
  8
0
 10
9.64685293
 20
5.96651852
  0
VERTEX
  8
0
 10
9.63574649
 20
5.94527839
  0
VERTEX
  8
0
 10
9.62286801
 20
5.92482500
  0
VERTEX
  8
0
 10
9.60541073
 20
5.90154076
  0
VERTEX
  8
0
 10
9.58673845
 20
5.87947561
  0
VERTEX
  8
0
 10
9.56693173
 20
5.85859209
  0
VERTEX
  8
0
 10
9.54607113
 20
5.83885278
  0
VERTEX
  8
0
 10
9.52423723
 20
5.82022024
  0
VERTEX
  8
0
 10
9.50151059
 20
5.80265703
  0
VERTEX
  8
0
 10
9.47797177
 20
5.78612573
  0
VERTEX
  8
0
 10
9.45370134
 20
5.77058889
  0
VERTEX
  8
0
 10
9.42877987
 20
5.75600908
  0
VERTEX
  8
0
 10
9.40328793
 20
5.74234887
  0
VERTEX
  8
0
 10
9.37730608
 20
5.72957082
  0
VERTEX
  8
0
 10
9.35091488
 20
5.71763750
  0
VERTEX
  8
0
 10
9.32419491
 20
5.70651147
  0
VERTEX
  8
0
 10
9.29722673
 20
5.69615529
  0
VERTEX
  8
0
 10
9.24286801
 20
5.67760278
  0
VERTEX
  8
0
 10
9.20814579
 20
5.66517358
  0
VERTEX
  8
0
 10
9.17290273
 20
5.65480981
  0
VERTEX
  8
0
 10
9.13724301
 20
5.64611596
  0
VERTEX
  8
0
 10
9.10127079
 20
5.63869653
  0
VERTEX
  8
0
 10
9.02880551
 20
5.62609887
  0
VERTEX
  8
0
 10
8.95634023
 20
5.61385278
  0
VERTEX
  8
0
 10
8.94322445
 20
5.60310137
  0
VERTEX
  8
0
 10
8.93078902
 20
5.59156545
  0
VERTEX
  8
0
 10
8.90693051
 20
5.56732500
  0
VERTEX
  8
0
 10
8.88270742
 20
5.54350121
  0
VERTEX
  8
0
 10
8.86981625
 20
5.53248613
  0
VERTEX
  8
0
 10
8.85606245
 20
5.52246389
  0
VERTEX
  8
0
 10
8.82381826
 20
5.50176483
  0
VERTEX
  8
0
 10
8.79032244
 20
5.48325165
  0
VERTEX
  8
0
 10
8.75574263
 20
5.46683156
  0
VERTEX
  8
0
 10
8.72024648
 20
5.45241180
  0
VERTEX
  8
0
 10
8.68400163
 20
5.43989960
  0
VERTEX
  8
0
 10
8.64717573
 20
5.42920217
  0
VERTEX
  8
0
 10
8.60993642
 20
5.42022675
  0
VERTEX
  8
0
 10
8.57245134
 20
5.41288055
  0
VERTEX
  8
0
 10
8.47460195
 20
5.39828637
  0
VERTEX
  8
0
 10
8.37663537
 20
5.38477292
  0
VERTEX
  8
0
 10
8.27848650
 20
5.37274384
  0
VERTEX
  8
0
 10
8.18009023
 20
5.36260278
  0
VERTEX
  8
0
 10
8.22207048
 20
5.30496063
  0
VERTEX
  8
0
 10
8.24235219
 20
5.27544824
  0
VERTEX
  8
0
 10
8.26205204
 20
5.24547604
  0
VERTEX
  8
0
 10
8.28108782
 20
5.21504486
  0
VERTEX
  8
0
 10
8.29937734
 20
5.18415551
  0
VERTEX
  8
0
 10
8.31683841
 20
5.15280880
  0
VERTEX
  8
0
 10
8.33338884
 20
5.12100555
  0
VERTEX
  8
0
 10
8.34894643
 20
5.08874658
  0
VERTEX
  8
0
 10
8.36342899
 20
5.05603268
  0
VERTEX
  8
0
 10
8.37675432
 20
5.02286469
  0
VERTEX
  8
0
 10
8.38884023
 20
4.98924340
  0
VERTEX
  8
0
 10
8.39960453
 20
4.95516964
  0
VERTEX
  8
0
 10
8.40896501
 20
4.92064423
  0
VERTEX
  8
0
 10
8.41683950
 20
4.88566796
  0
VERTEX
  8
0
 10
8.42314579
 20
4.85024167
  0
VERTEX
  8
0
 10
8.42783953
 20
4.82129608
  0
VERTEX
  8
0
 10
8.43072174
 20
4.79219262
  0
VERTEX
  8
0
 10
8.43218143
 20
4.76296872
  0
VERTEX
  8
0
 10
8.43260759
 20
4.73366180
  0
VERTEX
  8
0
 10
8.43191532
 20
4.67494870
  0
VERTEX
  8
0
 10
8.43175690
 20
4.61635278
  0
VERTEX
  8
0
 10
8.42798357
 20
4.57740828
  0
VERTEX
  8
0
 10
8.42250777
 20
4.53870304
  0
VERTEX
  8
0
 10
8.41550201
 20
4.50024194
  0
VERTEX
  8
0
 10
8.40713884
 20
4.46202986
  0
VERTEX
  8
0
 10
8.39759077
 20
4.42407169
  0
VERTEX
  8
0
 10
8.38703033
 20
4.38637231
  0
VERTEX
  8
0
 10
8.37563005
 20
4.34893660
  0
VERTEX
  8
0
 10
8.36356245
 20
4.31176944
  0
VERTEX
  8
0
 10
8.38476417
 20
4.31072940
  0
VERTEX
  8
0
 10
8.40588450
 20
4.30889184
  0
VERTEX
  8
0
 10
8.44797217
 20
4.30364444
  0
VERTEX
  8
0
 10
8.49000777
 20
4.29766788
  0
VERTEX
  8
0
 10
8.53217356
 20
4.29260278
  0
VERTEX
  8
0
 10
8.52328786
 20
4.24836677
  0
VERTEX
  8
0
 10
8.51363352
 20
4.20418345
  0
VERTEX
  8
0
 10
8.50316783
 20
4.16010552
  0
VERTEX
  8
0
 10
8.49184804
 20
4.11618568
  0
VERTEX
  8
0
 10
8.47963145
 20
4.07247660
  0
VERTEX
  8
0
 10
8.46647532
 20
4.02903100
  0
VERTEX
  8
0
 10
8.45233693
 20
3.98590156
  0
VERTEX
  8
0
 10
8.43717356
 20
3.94314097
  0
VERTEX
  8
0
 10
8.42094248
 20
3.90080193
  0
VERTEX
  8
0
 10
8.40360097
 20
3.85893714
  0
VERTEX
  8
0
 10
8.38510630
 20
3.81759928
  0
VERTEX
  8
0
 10
8.36541575
 20
3.77684106
  0
VERTEX
  8
0
 10
8.34448659
 20
3.73671516
  0
VERTEX
  8
0
 10
8.32227610
 20
3.69727427
  0
VERTEX
  8
0
 10
8.29874156
 20
3.65857110
  0
VERTEX
  8
0
 10
8.27384023
 20
3.62065833
  0
VERTEX
  8
0
 10
8.25228207
 20
3.58285177
  0
VERTEX
  8
0
 10
8.22856896
 20
3.54644799
  0
VERTEX
  8
0
 10
8.20281484
 20
3.51150214
  0
VERTEX
  8
0
 10
8.17513363
 20
3.47806936
  0
VERTEX
  8
0
 10
8.14563928
 20
3.44620477
  0
VERTEX
  8
0
 10
8.11444570
 20
3.41596351
  0
VERTEX
  8
0
 10
8.08166684
 20
3.38740072
  0
VERTEX
  8
0
 10
8.04741662
 20
3.36057153
  0
VERTEX
  8
0
 10
8.01180898
 20
3.33553107
  0
VERTEX
  8
0
 10
7.97495785
 20
3.31233449
  0
VERTEX
  8
0
 10
7.93697717
 20
3.29103692
  0
VERTEX
  8
0
 10
7.89798086
 20
3.27169349
  0
VERTEX
  8
0
 10
7.85808285
 20
3.25435933
  0
VERTEX
  8
0
 10
7.81739709
 20
3.23908959
  0
VERTEX
  8
0
 10
7.77603750
 20
3.22593940
  0
VERTEX
  8
0
 10
7.73411801
 20
3.21496389
  0
VERTEX
  8
0
 10
7.71464674
 20
3.21031952
  0
VERTEX
  8
0
 10
7.69509267
 20
3.20653941
  0
VERTEX
  8
0
 10
7.65576948
 20
3.20123993
  0
VERTEX
  8
0
 10
7.61621518
 20
3.19840139
  0
VERTEX
  8
0
 10
7.57649648
 20
3.19735972
  0
VERTEX
  8
0
 10
7.49683285
 20
3.19801076
  0
VERTEX
  8
0
 10
7.45702138
 20
3.19837535
  0
VERTEX
  8
0
 10
7.41731245
 20
3.19788055
  0
VERTEX
  8
0
 10
7.37269494
 20
3.20107391
  0
VERTEX
  8
0
 10
7.32831506
 20
3.20621389
  0
VERTEX
  8
0
 10
7.28416304
 20
3.21304657
  0
VERTEX
  8
0
 10
7.24022912
 20
3.22131805
  0
VERTEX
  8
0
 10
7.19650353
 20
3.23077443
  0
VERTEX
  8
0
 10
7.15297652
 20
3.24116180
  0
VERTEX
  8
0
 10
7.06647912
 20
3.26371389
  0
VERTEX
  8
0
 10
7.03648265
 20
3.27241018
  0
VERTEX
  8
0
 10
7.00692400
 20
3.28239878
  0
VERTEX
  8
0
 10
6.94857981
 20
3.30465139
  0
VERTEX
  8
0
 10
6.89036584
 20
3.32726858
  0
VERTEX
  8
0
 10
6.86096995
 20
3.33771291
  0
VERTEX
  8
0
 10
6.83120134
 20
3.34704722
  0
VERTEX
  8
0
 10
6.81718794
 20
3.34932312
  0
VERTEX
  8
0
 10
6.80317617
 20
3.35071665
  0
VERTEX
  8
0
 10
6.78917742
 20
3.35127970
  0
VERTEX
  8
0
 10
6.77520308
 20
3.35106415
  0
VERTEX
  8
0
 10
6.74737322
 20
3.34850474
  0
VERTEX
  8
0
 10
6.71977773
 20
3.34345347
  0
VERTEX
  8
0
 10
6.69250777
 20
3.33632538
  0
VERTEX
  8
0
 10
6.66565447
 20
3.32753550
  0
VERTEX
  8
0
 10
6.63930898
 20
3.31749888
  0
VERTEX
  8
0
 10
6.61356245
 20
3.30663055
  0
VERTEX
  8
0
 10
6.62845503
 20
3.19768551
  0
VERTEX
  8
0
 10
6.64236454
 20
3.08858585
  0
VERTEX
  8
0
 10
6.66824995
 20
2.87008542
  0
VERTEX
  8
0
 10
6.69324995
 20
2.65145477
  0
VERTEX
  8
0
 10
6.71939579
 20
2.43301944
  0
VERTEX
  8
0
 10
6.72538062
 20
2.38032846
  0
VERTEX
  8
0
 10
6.73283555
 20
2.32315935
  0
VERTEX
  8
0
 10
6.74161306
 20
2.25684912
  0
VERTEX
  8
0
 10
6.75156566
 20
2.17673478
  0
VERTEX
  8
0
 10
6.53884388
 20
2.08840786
  0
SEQEND
  0
POLYLINE
  8
Default_Layer
 66
   1
 39
0.000000
 70
    1
  0
VERTEX
  8
0
 10
4.62064579
 20
10.20454722
  0
VERTEX
  8
0
 10
4.57501428
 20
10.14028073
  0
VERTEX
  8
0
 10
4.55300663
 20
10.10754038
  0
VERTEX
  8
0
 10
4.53184370
 20
10.07426944
  0
VERTEX
  8
0
 10
4.51175500
 20
10.04037350
  0
VERTEX
  8
0
 10
4.49297000
 20
10.00575816
  0
VERTEX
  8
0
 10
4.47571821
 20
9.97032901
  0
VERTEX
  8
0
 10
4.46022912
 20
9.93399167
  0
VERTEX
  8
0
 10
4.44023356
 20
9.88009711
  0
VERTEX
  8
0
 10
4.42294044
 20
9.82549801
  0
VERTEX
  8
0
 10
4.40824944
 20
9.77027432
  0
VERTEX
  8
0
 10
4.39606028
 20
9.71450599
  0
VERTEX
  8
0
 10
4.38627265
 20
9.65827298
  0
VERTEX
  8
0
 10
4.37878625
 20
9.60165524
  0
VERTEX
  8
0
 10
4.37350077
 20
9.54473273
  0
VERTEX
  8
0
 10
4.37031592
 20
9.48758542
  0
VERTEX
  8
0
 10
4.36913140
 20
9.43029324
  0
VERTEX
  8
0
 10
4.36984690
 20
9.37293616
  0
VERTEX
  8
0
 10
4.37236213
 20
9.31559414
  0
VERTEX
  8
0
 10
4.37657678
 20
9.25834713
  0
VERTEX
  8
0
 10
4.38239054
 20
9.20127509
  0
VERTEX
  8
0
 10
4.38970313
 20
9.14445797
  0
VERTEX
  8
0
 10
4.39841424
 20
9.08797574
  0
VERTEX
  8
0
 10
4.40842356
 20
9.03190833
  0
VERTEX
  8
0
 10
4.41887516
 20
8.97589077
  0
VERTEX
  8
0
 10
4.43051938
 20
8.92001787
  0
VERTEX
  8
0
 10
4.44339976
 20
8.86435615
  0
VERTEX
  8
0
 10
4.45755985
 20
8.80897213
  0
VERTEX
  8
0
 10
4.47304318
 20
8.75393236
  0
VERTEX
  8
0
 10
4.48989329
 20
8.69930335
  0
VERTEX
  8
0
 10
4.50815372
 20
8.64515164
  0
VERTEX
  8
0
 10
4.52786801
 20
8.59154375
  0
VERTEX
  8
0
 10
4.54907969
 20
8.53854621
  0
VERTEX
  8
0
 10
4.57183231
 20
8.48622555
  0
VERTEX
  8
0
 10
4.59616940
 20
8.43464830
  0
VERTEX
  8
0
 10
4.62213450
 20
8.38388099
  0
VERTEX
  8
0
 10
4.64977115
 20
8.33399014
  0
VERTEX
  8
0
 10
4.67912289
 20
8.28504228
  0
VERTEX
  8
0
 10
4.71023326
 20
8.23710395
  0
VERTEX
  8
0
 10
4.74314579
 20
8.19024167
  0
VERTEX
  8
0
 10
4.76818644
 20
8.15513160
  0
VERTEX
  8
0
 10
4.79397234
 20
8.12058509
  0
VERTEX
  8
0
 10
4.82048374
 20
8.08660580
  0
VERTEX
  8
0
 10
4.84770091
 20
8.05319739
  0
VERTEX
  8
0
 10
4.87560411
 20
8.02036353
  0
VERTEX
  8
0
 10
4.90417362
 20
7.98810788
  0
VERTEX
  8
0
 10
4.93338969
 20
7.95643409
  0
VERTEX
  8
0
 10
4.96323259
 20
7.92534583
  0
VERTEX
  8
0
 10
4.99368259
 20
7.89484677
  0
VERTEX
  8
0
 10
5.02471995
 20
7.86494056
  0
VERTEX
  8
0
 10
5.05632494
 20
7.83563087
  0
VERTEX
  8
0
 10
5.08847782
 20
7.80692135
  0
VERTEX
  8
0
 10
5.12115885
 20
7.77881568
  0
VERTEX
  8
0
 10
5.15434831
 20
7.75131751
  0
VERTEX
  8
0
 10
5.18802646
 20
7.72443051
  0
VERTEX
  8
0
 10
5.22217356
 20
7.69815833
  0
VERTEX
  8
0
 10
5.25233198
 20
7.67569088
  0
VERTEX
  8
0
 10
5.28239926
 20
7.65279375
  0
VERTEX
  8
0
 10
5.29779341
 20
7.64192868
  0
VERTEX
  8
0
 10
5.31363841
 20
7.63184974
  0
VERTEX
  8
0
 10
5.33009213
 20
7.62285478
  0
VERTEX
  8
0
 10
5.34731245
 20
7.61524167
  0
VERTEX
  8
0
 10
5.40731191
 20
7.64565019
  0
VERTEX
  8
0
 10
5.43783552
 20
7.65989682
  0
VERTEX
  8
0
 10
5.46868832
 20
7.67345781
  0
VERTEX
  8
0
 10
5.49985524
 20
7.68629778
  0
VERTEX
  8
0
 10
5.53132124
 20
7.69838131
  0
VERTEX
  8
0
 10
5.56307126
 20
7.70967302
  0
VERTEX
  8
0
 10
5.59509023
 20
7.72013750
  0
VERTEX
  8
0
 10
5.62736311
 20
7.72973935
  0
VERTEX
  8
0
 10
5.65987484
 20
7.73844316
  0
VERTEX
  8
0
 10
5.69261037
 20
7.74621355
  0
VERTEX
  8
0
 10
5.72555464
 20
7.75301510
  0
VERTEX
  8
0
 10
5.75869259
 20
7.75881243
  0
VERTEX
  8
0
 10
5.79200918
 20
7.76357012
  0
VERTEX
  8
0
 10
5.82548933
 20
7.76725277
  0
VERTEX
  8
0
 10
5.85911801
 20
7.76982500
  0
VERTEX
  8
0
 10
5.87152388
 20
7.82777666
  0
VERTEX
  8
0
 10
5.88169830
 20
7.88606849
  0
VERTEX
  8
0
 10
5.89001400
 20
7.94463701
  0
VERTEX
  8
0
 10
5.89684370
 20
8.00341875
  0
VERTEX
  8
0
 10
5.90256012
 20
8.06235023
  0
VERTEX
  8
0
 10
5.90753598
 20
8.12136797
  0
VERTEX
  8
0
 10
5.91675690
 20
8.23940833
  0
VERTEX
  8
0
 10
5.91756012
 20
8.26703990
  0
VERTEX
  8
0
 10
5.91714101
 20
8.29462752
  0
VERTEX
  8
0
 10
5.91378815
 20
8.34970347
  0
VERTEX
  8
0
 10
5.90900299
 20
8.40470130
  0
VERTEX
  8
0
 10
5.90509023
 20
8.45968611
  0
VERTEX
  8
0
 10
5.90231381
 20
8.52949459
  0
VERTEX
  8
0
 10
5.89714969
 20
8.59911753
  0
VERTEX
  8
0
 10
5.88981435
 20
8.66853865
  0
VERTEX
  8
0
 10
5.88052426
 20
8.73774167
  0
VERTEX
  8
0
 10
5.86949588
 20
8.80671031
  0
VERTEX
  8
0
 10
5.85694570
 20
8.87542830
  0
VERTEX
  8
0
 10
5.84309018
 20
8.94387936
  0
VERTEX
  8
0
 10
5.82814579
 20
9.01204722
  0
VERTEX
  8
0
 10
5.80928999
 20
9.08255741
  0
VERTEX
  8
0
 10
5.78934370
 20
9.15309486
  0
VERTEX
  8
0
 10
5.76816043
 20
9.22349803
  0
VERTEX
  8
0
 10
5.74559370
 20
9.29360538
  0
VERTEX
  8
0
 10
5.72149702
 20
9.36325538
  0
VERTEX
  8
0
 10
5.69572391
 20
9.43228648
  0
VERTEX
  8
0
 10
5.66812788
 20
9.50053714
  0
VERTEX
  8
0
 10
5.63856245
 20
9.56784583
  0
VERTEX
  8
0
 10
5.60688114
 20
9.63405101
  0
VERTEX
  8
0
 10
5.57293745
 20
9.69899112
  0
VERTEX
  8
0
 10
5.53658491
 20
9.76250465
  0
VERTEX
  8
0
 10
5.51745955
 20
9.79367595
  0
VERTEX
  8
0
 10
5.49767704
 20
9.82443003
  0
VERTEX
  8
0
 10
5.47721907
 20
9.85474670
  0
VERTEX
  8
0
 10
5.45606734
 20
9.88460575
  0
VERTEX
  8
0
 10
5.43420353
 20
9.91398699
  0
VERTEX
  8
0
 10
5.41160933
 20
9.94287025
  0
VERTEX
  8
0
 10
5.38826643
 20
9.97123531
  0
VERTEX
  8
0
 10
5.36415653
 20
9.99906199
  0
VERTEX
  8
0
 10
5.33926131
 20
10.02633010
  0
VERTEX
  8
0
 10
5.31356245
 20
10.05301944
  0
VERTEX
  8
0
 10
5.26920400
 20
10.09341766
  0
VERTEX
  8
0
 10
5.22301775
 20
10.13266354
  0
VERTEX
  8
0
 10
5.19919698
 20
10.15152679
  0
VERTEX
  8
0
 10
5.17486860
 20
10.16970890
  0
VERTEX
  8
0
 10
5.15001573
 20
10.18707882
  0
VERTEX
  8
0
 10
5.12462148
 20
10.20350555
  0
VERTEX
  8
0
 10
5.09866896
 20
10.21885807
  0
VERTEX
  8
0
 10
5.07214128
 20
10.23300534
  0
VERTEX
  8
0
 10
5.04502157
 20
10.24581635
  0
VERTEX
  8
0
 10
5.01729292
 20
10.25716007
  0
VERTEX
  8
0
 10
4.98893846
 20
10.26690548
  0
VERTEX
  8
0
 10
4.95994130
 20
10.27492157
  0
VERTEX
  8
0
 10
4.93028456
 20
10.28107730
  0
VERTEX
  8
0
 10
4.89995134
 20
10.28524167
  0
VERTEX
  8
0
 10
4.88134677
 20
10.28783732
  0
VERTEX
  8
0
 10
4.86251455
 20
10.28956160
  0
VERTEX
  8
0
 10
4.84353624
 20
10.29038296
  0
VERTEX
  8
0
 10
4.82449344
 20
10.29026988
  0
VERTEX
  8
0
 10
4.80546773
 20
10.28919081
  0
VERTEX
  8
0
 10
4.78654070
 20
10.28711422
  0
VERTEX
  8
0
 10
4.76779392
 20
10.28400859
  0
VERTEX
  8
0
 10
4.74930898
 20
10.27984236
  0
VERTEX
  8
0
 10
4.73116747
 20
10.27458401
  0
VERTEX
  8
0
 10
4.71345096
 20
10.26820201
  0
VERTEX
  8
0
 10
4.69624105
 20
10.26066481
  0
VERTEX
  8
0
 10
4.67961931
 20
10.25194088
  0
VERTEX
  8
0
 10
4.66366733
 20
10.24199870
  0
VERTEX
  8
0
 10
4.64846670
 20
10.23080672
  0
VERTEX
  8
0
 10
4.63409899
 20
10.21833340
  0
VERTEX
  8
0
 10
4.62064579
 20
10.20454722
  0
SEQEND
  0
POLYLINE
  8
Default_Layer
 66
   1
 39
0.000000
 70
    1
  0
VERTEX
  8
0
 10
5.87536801
 20
10.18524167
  0
VERTEX
  8
0
 10
5.85351902
 20
10.16416409
  0
VERTEX
  8
0
 10
5.83274404
 20
10.14216793
  0
VERTEX
  8
0
 10
5.81301358
 20
10.11931118
  0
VERTEX
  8
0
 10
5.79429813
 20
10.09565182
  0
VERTEX
  8
0
 10
5.77656820
 20
10.07124783
  0
VERTEX
  8
0
 10
5.75979428
 20
10.04615719
  0
VERTEX
  8
0
 10
5.74394687
 20
10.02043789
  0
VERTEX
  8
0
 10
5.72899648
 20
9.99414792
  0
VERTEX
  8
0
 10
5.71491360
 20
9.96734524
  0
VERTEX
  8
0
 10
5.70166874
 20
9.94008786
  0
VERTEX
  8
0
 10
5.68923238
 20
9.91243374
  0
VERTEX
  8
0
 10
5.67757504
 20
9.88444088
  0
VERTEX
  8
0
 10
5.66666721
 20
9.85616726
  0
VERTEX
  8
0
 10
5.65647939
 20
9.82767086
  0
VERTEX
  8
0
 10
5.63814579
 20
9.77024167
  0
VERTEX
  8
0
 10
5.63018138
 20
9.73996606
  0
VERTEX
  8
0
 10
5.62605106
 20
9.72449704
  0
VERTEX
  8
0
 10
5.62276384
 20
9.70897430
  0
VERTEX
  8
0
 10
5.62102610
 20
9.69352319
  0
VERTEX
  8
0
 10
5.62154422
 20
9.67826901
  0
VERTEX
  8
0
 10
5.62286997
 20
9.67075494
  0
VERTEX
  8
0
 10
5.62502458
 20
9.66333710
  0
VERTEX
  8
0
 10
5.62809635
 20
9.65603116
  0
VERTEX
  8
0
 10
5.63217356
 20
9.64885278
  0
VERTEX
  8
0
 10
5.66771583
 20
9.57372989
  0
VERTEX
  8
0
 10
5.70070438
 20
9.49750512
  0
VERTEX
  8
0
 10
5.73130686
 20
9.42030053
  0
VERTEX
  8
0
 10
5.75969092
 20
9.34223819
  0
VERTEX
  8
0
 10
5.78602420
 20
9.26344018
  0
VERTEX
  8
0
 10
5.81047434
 20
9.18402856
  0
VERTEX
  8
0
 10
5.83320899
 20
9.10412540
  0
VERTEX
  8
0
 10
5.85439579
 20
9.02385278
  0
VERTEX
  8
0
 10
5.87867747
 20
8.91232066
  0
VERTEX
  8
0
 10
5.88982303
 20
8.85631860
  0
VERTEX
  8
0
 10
5.89989926
 20
8.80013750
  0
VERTEX
  8
0
 10
5.90860179
 20
8.74376109
  0
VERTEX
  8
0
 10
5.91562625
 20
8.68717309
  0
VERTEX
  8
0
 10
5.92066830
 20
8.63035723
  0
VERTEX
  8
0
 10
5.92342356
 20
8.57329722
  0
VERTEX
  8
0
 10
5.92799686
 20
8.61119626
  0
VERTEX
  8
0
 10
5.93342139
 20
8.64896345
  0
VERTEX
  8
0
 10
5.94642704
 20
8.72414792
  0
VERTEX
  8
0
 10
5.96164622
 20
8.79894175
  0
VERTEX
  8
0
 10
5.97828467
 20
8.87343611
  0
VERTEX
  8
0
 10
5.98278853
 20
8.89008813
  0
VERTEX
  8
0
 10
5.98853424
 20
8.90628767
  0
VERTEX
  8
0
 10
6.00215620
 20
8.93791528
  0
VERTEX
  8
0
 10
6.01596046
 20
8.96949080
  0
VERTEX
  8
0
 10
6.02193403
 20
8.98562524
  0
VERTEX
  8
0
 10
6.02675690
 20
9.00218611
  0
VERTEX
  8
0
 10
6.03942858
 20
9.04653666
  0
VERTEX
  8
0
 10
6.05301314
 20
9.09061683
  0
VERTEX
  8
0
 10
6.06750549
 20
9.13440687
  0
VERTEX
  8
0
 10
6.08290056
 20
9.17788706
  0
VERTEX
  8
0
 10
6.09919325
 20
9.22103767
  0
VERTEX
  8
0
 10
6.11637848
 20
9.26383894
  0
VERTEX
  8
0
 10
6.13445116
 20
9.30627116
  0
VERTEX
  8
0
 10
6.15340620
 20
9.34831458
  0
VERTEX
  8
0
 10
6.17323853
 20
9.38994948
  0
VERTEX
  8
0
 10
6.19394304
 20
9.43115611
  0
VERTEX
  8
0
 10
6.21551466
 20
9.47191474
  0
VERTEX
  8
0
 10
6.23794830
 20
9.51220564
  0
VERTEX
  8
0
 10
6.26123888
 20
9.55200907
  0
VERTEX
  8
0
 10
6.28538130
 20
9.59130530
  0
VERTEX
  8
0
 10
6.31037048
 20
9.63007460
  0
VERTEX
  8
0
 10
6.33620134
 20
9.66829722
  0
VERTEX
  8
0
 10
6.35834435
 20
9.69946991
  0
VERTEX
  8
0
 10
6.38115794
 20
9.73012665
  0
VERTEX
  8
0
 10
6.42835412
 20
9.79022430
  0
VERTEX
  8
0
 10
6.47690447
 20
9.84925425
  0
VERTEX
  8
0
 10
6.52592356
 20
9.90788055
  0
VERTEX
  8
0
 10
6.50825185
 20
9.94787757
  0
VERTEX
  8
0
 10
6.48889882
 20
9.98717960
  0
VERTEX
  8
0
 10
6.46773265
 20
10.02553436
  0
VERTEX
  8
0
 10
6.44462148
 20
10.06268958
  0
VERTEX
  8
0
 10
6.41943349
 20
10.09839298
  0
VERTEX
  8
0
 10
6.39203684
 20
10.13239227
  0
VERTEX
  8
0
 10
6.37746908
 20
10.14867405
  0
VERTEX
  8
0
 10
6.36229970
 20
10.16443519
  0
VERTEX
  8
0
 10
6.34651225
 20
10.17964417
  0
VERTEX
  8
0
 10
6.33009023
 20
10.19426944
  0
VERTEX
  8
0
 10
6.31824173
 20
10.20473203
  0
VERTEX
  8
0
 10
6.30592068
 20
10.21445614
  0
VERTEX
  8
0
 10
6.29315912
 20
10.22344631
  0
VERTEX
  8
0
 10
6.27998905
 20
10.23170705
  0
VERTEX
  8
0
 10
6.26644249
 20
10.23924290
  0
VERTEX
  8
0
 10
6.25255147
 20
10.24605838
  0
VERTEX
  8
0
 10
6.23834800
 20
10.25215803
  0
VERTEX
  8
0
 10
6.22386410
 20
10.25754635
  0
VERTEX
  8
0
 10
6.19418308
 20
10.26620717
  0
VERTEX
  8
0
 10
6.16376455
 20
10.27207706
  0
VERTEX
  8
0
 10
6.13286465
 20
10.27519223
  0
VERTEX
  8
0
 10
6.10173954
 20
10.27558889
  0
VERTEX
  8
0
 10
6.07064535
 20
10.27330326
  0
VERTEX
  8
0
 10
6.03983822
 20
10.26837155
  0
VERTEX
  8
0
 10
6.00957431
 20
10.26082998
  0
VERTEX
  8
0
 10
5.98010976
 20
10.25071476
  0
VERTEX
  8
0
 10
5.95170071
 20
10.23806210
  0
VERTEX
  8
0
 10
5.92460331
 20
10.22290822
  0
VERTEX
  8
0
 10
5.89907369
 20
10.20528934
  0
VERTEX
  8
0
 10
5.88697685
 20
10.19556684
  0
VERTEX
  8
0
 10
5.87536801
 20
10.18524167
  0
SEQEND
  0
POLYLINE
  8
Default_Layer
 66
   1
 39
0.000000
 70
    1
  0
VERTEX
  8
0
 10
6.18120134
 20
7.94718611
  0
VERTEX
  8
0
 10
6.18514123
 20
7.99601569
  0
VERTEX
  8
0
 10
6.19020742
 20
8.04469126
  0
VERTEX
  8
0
 10
6.19634783
 20
8.09321181
  0
VERTEX
  8
0
 10
6.20351037
 20
8.14157630
  0
VERTEX
  8
0
 10
6.21164296
 20
8.18978373
  0
VERTEX
  8
0
 10
6.22069353
 20
8.23783308
  0
VERTEX
  8
0
 10
6.23060998
 20
8.28572333
  0
VERTEX
  8
0
 10
6.24134023
 20
8.33345347
  0
VERTEX
  8
0
 10
6.26503381
 20
8.42842933
  0
VERTEX
  8
0
 10
6.29135759
 20
8.52275252
  0
VERTEX
  8
0
 10
6.31989492
 20
8.61641490
  0
VERTEX
  8
0
 10
6.35022912
 20
8.70940833
  0
VERTEX
  8
0
 10
6.38478370
 20
8.79762990
  0
VERTEX
  8
0
 10
6.42176992
 20
8.88481632
  0
VERTEX
  8
0
 10
6.46101525
 20
8.97100013
  0
VERTEX
  8
0
 10
6.50234717
 20
9.05621389
  0
VERTEX
  8
0
 10
6.54559316
 20
9.14049015
  0
VERTEX
  8
0
 10
6.59058068
 20
9.22386146
  0
VERTEX
  8
0
 10
6.63713721
 20
9.30636037
  0
VERTEX
  8
0
 10
6.68509023
 20
9.38801944
  0
VERTEX
  8
0
 10
6.68908790
 20
9.39489471
  0
VERTEX
  8
0
 10
6.69366011
 20
9.40125078
  0
VERTEX
  8
0
 10
6.70437842
 20
9.41241180
  0
VERTEX
  8
0
 10
6.71694570
 20
9.42151554
  0
VERTEX
  8
0
 10
6.73106245
 20
9.42857500
  0
VERTEX
  8
0
 10
6.72772261
 20
9.40944088
  0
VERTEX
  8
0
 10
6.72205204
 20
9.39102292
  0
VERTEX
  8
0
 10
6.71432417
 20
9.37336015
  0
VERTEX
  8
0
 10
6.70481245
 20
9.35649167
  0
VERTEX
  8
0
 10
6.66881554
 20
9.29574378
  0
VERTEX
  8
0
 10
6.63376428
 20
9.23444088
  0
VERTEX
  8
0
 10
6.59969282
 20
9.17258786
  0
VERTEX
  8
0
 10
6.56663537
 20
9.11018958
  0
VERTEX
  8
0
 10
6.53462609
 20
9.04725094
  0
VERTEX
  8
0
 10
6.50369917
 20
8.98377682
  0
VERTEX
  8
0
 10
6.47388879
 20
8.91977210
  0
VERTEX
  8
0
 10
6.44522912
 20
8.85524167
  0
VERTEX
  8
0
 10
6.42280506
 20
8.80015009
  0
VERTEX
  8
0
 10
6.40118413
 20
8.74465261
  0
VERTEX
  8
0
 10
6.38041534
 20
8.68876665
  0
VERTEX
  8
0
 10
6.36054768
 20
8.63250964
  0
VERTEX
  8
0
 10
6.34163014
 20
8.57589901
  0
VERTEX
  8
0
 10
6.32371173
 20
8.51895220
  0
VERTEX
  8
0
 10
6.30684144
 20
8.46168662
  0
VERTEX
  8
0
 10
6.29106826
 20
8.40411971
  0
VERTEX
  8
0
 10
6.27644120
 20
8.34626890
  0
VERTEX
  8
0
 10
6.26300924
 20
8.28815162
  0
VERTEX
  8
0
 10
6.25082140
 20
8.22978529
  0
VERTEX
  8
0
 10
6.23992666
 20
8.17118735
  0
VERTEX
  8
0
 10
6.23037401
 20
8.11237522
  0
VERTEX
  8
0
 10
6.22221247
 20
8.05336634
  0
VERTEX
  8
0
 10
6.21549102
 20
7.99417812
  0
VERTEX
  8
0
 10
6.21025866
 20
7.93482802
  0
VERTEX
  8
0
 10
6.20859657
 20
7.92975062
  0
VERTEX
  8
0
 10
6.20493694
 20
7.92598677
  0
VERTEX
  8
0
 10
6.19999710
 20
7.92382571
  0
VERTEX
  8
0
 10
6.19449438
 20
7.92355670
  0
VERTEX
  8
0
 10
6.18914611
 20
7.92546898
  0
VERTEX
  8
0
 10
6.18466963
 20
7.92985181
  0
VERTEX
  8
0
 10
6.18298248
 20
7.93306007
  0
VERTEX
  8
0
 10
6.18178226
 20
7.93699444
  0
VERTEX
  8
0
 10
6.18120134
 20
7.94718611
  0
SEQEND
  0
POLYLINE
  8
Default_Layer
 66
   1
 39
0.000000
 70
    1
  0
VERTEX
  8
0
 10
7.93411801
 20
9.73524167
  0
VERTEX
  8
0
 10
7.91404992
 20
9.72864773
  0
VERTEX
  8
0
 10
7.89449127
 20
9.72106442
  0
VERTEX
  8
0
 10
7.87539486
 20
9.71258633
  0
VERTEX
  8
0
 10
7.85671349
 20
9.70330807
  0
VERTEX
  8
0
 10
7.82040707
 20
9.68272946
  0
VERTEX
  8
0
 10
7.78519440
 20
9.66008542
  0
VERTEX
  8
0
 10
7.75069787
 20
9.63613278
  0
VERTEX
  8
0
 10
7.71653988
 20
9.61162838
  0
VERTEX
  8
0
 10
7.68234283
 20
9.58732907
  0
VERTEX
  8
0
 10
7.64772912
 20
9.56399167
  0
VERTEX
  8
0
 10
7.62617123
 20
9.54587263
  0
VERTEX
  8
0
 10
7.60534414
 20
9.52687795
  0
VERTEX
  8
0
 10
7.58523644
 20
9.50708249
  0
VERTEX
  8
0
 10
7.56583676
 20
9.48656111
  0
VERTEX
  8
0
 10
7.54713369
 20
9.46538869
  0
VERTEX
  8
0
 10
7.52911584
 20
9.44364010
  0
VERTEX
  8
0
 10
7.51177182
 20
9.42139021
  0
VERTEX
  8
0
 10
7.49509023
 20
9.39871389
  0
VERTEX
  8
0
 10
7.48827247
 20
9.37617564
  0
VERTEX
  8
0
 10
7.48289188
 20
9.35330373
  0
VERTEX
  8
0
 10
7.47858877
 20
9.33018117
  0
VERTEX
  8
0
 10
7.47500342
 20
9.30689097
  0
VERTEX
  8
0
 10
7.46854726
 20
9.26013967
  0
VERTEX
  8
0
 10
7.46495704
 20
9.23684458
  0
VERTEX
  8
0
 10
7.46064579
 20
9.21371389
  0
VERTEX
  8
0
 10
7.43971046
 20
9.10823212
  0
VERTEX
  8
0
 10
7.42822147
 20
9.05565236
  0
VERTEX
  8
0
 10
7.41576731
 20
9.00329722
  0
VERTEX
  8
0
 10
7.40213477
 20
8.95125458
  0
VERTEX
  8
0
 10
7.38711063
 20
8.89961233
  0
VERTEX
  8
0
 10
7.37048167
 20
8.84845835
  0
VERTEX
  8
0
 10
7.35203467
 20
8.79788055
  0
VERTEX
  8
0
 10
7.38977285
 20
8.82571123
  0
VERTEX
  8
0
 10
7.42672652
 20
8.85469262
  0
VERTEX
  8
0
 10
7.50009023
 20
8.91341875
  0
VERTEX
  8
0
 10
7.53740523
 20
8.94181909
  0
VERTEX
  8
0
 10
7.57574561
 20
8.96868134
  0
VERTEX
  8
0
 10
7.59544172
 20
8.98132562
  0
VERTEX
  8
0
 10
7.61556386
 20
8.99333330
  0
VERTEX
  8
0
 10
7.63616859
 20
9.00462036
  0
VERTEX
  8
0
 10
7.65731245
 20
9.01510278
  0
VERTEX
  8
0
 10
7.69958893
 20
9.03517873
  0
VERTEX
  8
0
 10
7.74135759
 20
9.05633542
  0
VERTEX
  8
0
 10
7.78315230
 20
9.07746606
  0
VERTEX
  8
0
 10
7.82550690
 20
9.09746389
  0
VERTEX
  8
0
 10
7.85978339
 20
9.11298286
  0
VERTEX
  8
0
 10
7.89437381
 20
9.12781355
  0
VERTEX
  8
0
 10
7.92926331
 20
9.14194478
  0
VERTEX
  8
0
 10
7.96443702
 20
9.15536536
  0
VERTEX
  8
0
 10
7.99988010
 20
9.16806410
  0
VERTEX
  8
0
 10
8.03557770
 20
9.18002981
  0
VERTEX
  8
0
 10
8.07151496
 20
9.19125129
  0
VERTEX
  8
0
 10
8.10767704
 20
9.20171736
  0
VERTEX
  8
0
 10
8.14404907
 20
9.21141683
  0
VERTEX
  8
0
 10
8.18061622
 20
9.22033851
  0
VERTEX
  8
0
 10
8.21736362
 20
9.22847120
  0
VERTEX
  8
0
 10
8.25427643
 20
9.23580373
  0
VERTEX
  8
0
 10
8.29133979
 20
9.24232490
  0
VERTEX
  8
0
 10
8.32853885
 20
9.24802351
  0
VERTEX
  8
0
 10
8.36585876
 20
9.25288839
  0
VERTEX
  8
0
 10
8.40328467
 20
9.25690833
  0
VERTEX
  8
0
 10
8.40428321
 20
9.30461477
  0
VERTEX
  8
0
 10
8.40413754
 20
9.35285668
  0
VERTEX
  8
0
 10
8.40204200
 20
9.40119300
  0
VERTEX
  8
0
 10
8.40001126
 20
9.42525872
  0
VERTEX
  8
0
 10
8.39719092
 20
9.44918264
  0
VERTEX
  8
0
 10
8.39348029
 20
9.47290961
  0
VERTEX
  8
0
 10
8.38877865
 20
9.49638451
  0
VERTEX
  8
0
 10
8.38298530
 20
9.51955221
  0
VERTEX
  8
0
 10
8.37599952
 20
9.54235755
  0
VERTEX
  8
0
 10
8.36772061
 20
9.56474542
  0
VERTEX
  8
0
 10
8.35804786
 20
9.58666066
  0
VERTEX
  8
0
 10
8.34688056
 20
9.60804816
  0
VERTEX
  8
0
 10
8.33411801
 20
9.62885278
  0
VERTEX
  8
0
 10
8.31473813
 20
9.65316050
  0
VERTEX
  8
0
 10
8.29324561
 20
9.67620521
  0
VERTEX
  8
0
 10
8.26976742
 20
9.69738793
  0
VERTEX
  8
0
 10
8.25732337
 20
9.70709388
  0
VERTEX
  8
0
 10
8.24443051
 20
9.71610972
  0
VERTEX
  8
0
 10
8.23110470
 20
9.72436059
  0
VERTEX
  8
0
 10
8.21736182
 20
9.73177161
  0
VERTEX
  8
0
 10
8.20321774
 20
9.73826792
  0
VERTEX
  8
0
 10
8.18868832
 20
9.74377465
  0
VERTEX
  8
0
 10
8.17378944
 20
9.74821693
  0
VERTEX
  8
0
 10
8.15853695
 20
9.75151988
  0
VERTEX
  8
0
 10
8.14294674
 20
9.75360864
  0
VERTEX
  8
0
 10
8.12703467
 20
9.75440833
  0
VERTEX
  8
0
 10
8.07827816
 20
9.75549557
  0
VERTEX
  8
0
 10
8.05384864
 20
9.75521644
  0
VERTEX
  8
0
 10
8.02948259
 20
9.75404375
  0
VERTEX
  8
0
 10
8.00525326
 20
9.75171872
  0
VERTEX
  8
0
 10
7.98123389
 20
9.74798255
  0
VERTEX
  8
0
 10
7.95749773
 20
9.74257646
  0
VERTEX
  8
0
 10
7.93411801
 20
9.73524167
  0
SEQEND
  0
POLYLINE
  8
Default_Layer
 66
   1
 39
0.000000
 70
    1
  0
VERTEX
  8
0
 10
3.73620134
 20
9.61607500
  0
VERTEX
  8
0
 10
3.75064830
 20
9.62821021
  0
VERTEX
  8
0
 10
3.76586551
 20
9.63910723
  0
VERTEX
  8
0
 10
3.78177690
 20
9.64878435
  0
VERTEX
  8
0
 10
3.79830638
 20
9.65725989
  0
VERTEX
  8
0
 10
3.81537784
 20
9.66455217
  0
VERTEX
  8
0
 10
3.83291521
 20
9.67067949
  0
VERTEX
  8
0
 10
3.85084239
 20
9.67566016
  0
VERTEX
  8
0
 10
3.86908329
 20
9.67951250
  0
VERTEX
  8
0
 10
3.88756182
 20
9.68225481
  0
VERTEX
  8
0
 10
3.90620188
 20
9.68390540
  0
VERTEX
  8
0
 10
3.92492740
 20
9.68448259
  0
VERTEX
  8
0
 10
3.94366228
 20
9.68400469
  0
VERTEX
  8
0
 10
3.96233042
 20
9.68249000
  0
VERTEX
  8
0
 10
3.98085575
 20
9.67995683
  0
VERTEX
  8
0
 10
3.99916216
 20
9.67642351
  0
VERTEX
  8
0
 10
4.01717356
 20
9.67190833
  0
VERTEX
  8
0
 10
4.03973609
 20
9.66654687
  0
VERTEX
  8
0
 10
4.06187300
 20
9.66015594
  0
VERTEX
  8
0
 10
4.08361766
 20
9.65282264
  0
VERTEX
  8
0
 10
4.10500342
 20
9.64463403
  0
VERTEX
  8
0
 10
4.12606367
 20
9.63567719
  0
VERTEX
  8
0
 10
4.14683177
 20
9.62603919
  0
VERTEX
  8
0
 10
4.18762495
 20
9.60506805
  0
VERTEX
  8
0
 10
4.22764991
 20
9.58241723
  0
VERTEX
  8
0
 10
4.26717356
 20
9.55878333
  0
VERTEX
  8
0
 10
4.34578467
 20
9.51135278
  0
VERTEX
  8
0
 10
4.34318892
 20
9.45203339
  0
VERTEX
  8
0
 10
4.34257070
 20
9.39265703
  0
VERTEX
  8
0
 10
4.34390235
 20
9.33328393
  0
VERTEX
  8
0
 10
4.34715620
 20
9.27397430
  0
VERTEX
  8
0
 10
4.35230459
 20
9.21478838
  0
VERTEX
  8
0
 10
4.35931983
 20
9.15578637
  0
VERTEX
  8
0
 10
4.36817427
 20
9.09702850
  0
VERTEX
  8
0
 10
4.37884023
 20
9.03857500
  0
VERTEX
  8
0
 10
4.39710195
 20
8.94552758
  0
VERTEX
  8
0
 10
4.40726796
 20
8.89912737
  0
VERTEX
  8
0
 10
4.41818919
 20
8.85286753
  0
VERTEX
  8
0
 10
4.42991445
 20
8.80679162
  0
VERTEX
  8
0
 10
4.44249257
 20
8.76094316
  0
VERTEX
  8
0
 10
4.45597239
 20
8.71536570
  0
VERTEX
  8
0
 10
4.47040273
 20
8.67010278
  0
VERTEX
  8
0
 10
4.48583242
 20
8.62519792
  0
VERTEX
  8
0
 10
4.50231028
 20
8.58069468
  0
VERTEX
  8
0
 10
4.51988515
 20
8.53663659
  0
VERTEX
  8
0
 10
4.53860586
 20
8.49306719
  0
VERTEX
  8
0
 10
4.55852122
 20
8.45003001
  0
VERTEX
  8
0
 10
4.57968007
 20
8.40756860
  0
VERTEX
  8
0
 10
4.60213125
 20
8.36572649
  0
VERTEX
  8
0
 10
4.62592356
 20
8.32454722
  0
VERTEX
  8
0
 10
4.64210412
 20
8.29508542
  0
VERTEX
  8
0
 10
4.65745134
 20
8.26510278
  0
VERTEX
  8
0
 10
4.61316315
 20
8.29320662
  0
VERTEX
  8
0
 10
4.56936974
 20
8.32217309
  0
VERTEX
  8
0
 10
4.48206940
 20
8.38062361
  0
VERTEX
  8
0
 10
4.43796349
 20
8.40907250
  0
VERTEX
  8
0
 10
4.39315447
 20
8.43631371
  0
VERTEX
  8
0
 10
4.34734283
 20
8.46182966
  0
VERTEX
  8
0
 10
4.30022912
 20
8.48510278
  0
VERTEX
  8
0
 10
4.23890099
 20
8.52084713
  0
VERTEX
  8
0
 10
4.17710412
 20
8.55584930
  0
VERTEX
  8
0
 10
4.11530724
 20
8.59082543
  0
VERTEX
  8
0
 10
4.05397912
 20
8.62649167
  0
VERTEX
  8
0
 10
4.03787364
 20
8.63935503
  0
VERTEX
  8
0
 10
4.02121599
 20
8.65129961
  0
VERTEX
  8
0
 10
4.00407250
 20
8.66243527
  0
VERTEX
  8
0
 10
3.98650950
 20
8.67287187
  0
VERTEX
  8
0
 10
3.95039025
 20
8.69208737
  0
VERTEX
  8
0
 10
3.91338884
 20
8.70982500
  0
VERTEX
  8
0
 10
3.83886193
 20
8.74438229
  0
VERTEX
  8
0
 10
3.80239763
 20
8.76295976
  0
VERTEX
  8
0
 10
3.78459741
 20
8.77295773
  0
VERTEX
  8
0
 10
3.76717356
 20
8.78357500
  0
VERTEX
  8
0
 10
3.74903093
 20
8.81055311
  0
VERTEX
  8
0
 10
3.73160933
 20
8.83808482
  0
VERTEX
  8
0
 10
3.71494944
 20
8.86614427
  0
VERTEX
  8
0
 10
3.69909197
 20
8.89470564
  0
VERTEX
  8
0
 10
3.68407759
 20
8.92374308
  0
VERTEX
  8
0
 10
3.66994700
 20
8.95323076
  0
VERTEX
  8
0
 10
3.65674089
 20
8.98314284
  0
VERTEX
  8
0
 10
3.64449995
 20
9.01345347
  0
VERTEX
  8
0
 10
3.63326487
 20
9.04413683
  0
VERTEX
  8
0
 10
3.62307634
 20
9.07516707
  0
VERTEX
  8
0
 10
3.61397505
 20
9.10651835
  0
VERTEX
  8
0
 10
3.60600169
 20
9.13816484
  0
VERTEX
  8
0
 10
3.59919695
 20
9.17008070
  0
VERTEX
  8
0
 10
3.59360152
 20
9.20224009
  0
VERTEX
  8
0
 10
3.58925608
 20
9.23461717
  0
VERTEX
  8
0
 10
3.58620134
 20
9.26718611
  0
VERTEX
  8
0
 10
3.58674191
 20
9.28944516
  0
VERTEX
  8
0
 10
3.58835141
 20
9.31161265
  0
VERTEX
  8
0
 10
3.59101152
 20
9.33364912
  0
VERTEX
  8
0
 10
3.59470395
 20
9.35551510
  0
VERTEX
  8
0
 10
3.59941037
 20
9.37717112
  0
VERTEX
  8
0
 10
3.60511247
 20
9.39857771
  0
VERTEX
  8
0
 10
3.61179196
 20
9.41969540
  0
VERTEX
  8
0
 10
3.61943051
 20
9.44048472
  0
VERTEX
  8
0
 10
3.62800981
 20
9.46090620
  0
VERTEX
  8
0
 10
3.63751156
 20
9.48092038
  0
VERTEX
  8
0
 10
3.64791745
 20
9.50048777
  0
VERTEX
  8
0
 10
3.65920915
 20
9.51956892
  0
VERTEX
  8
0
 10
3.67136837
 20
9.53812436
  0
VERTEX
  8
0
 10
3.68437680
 20
9.55611460
  0
VERTEX
  8
0
 10
3.69821611
 20
9.57350020
  0
VERTEX
  8
0
 10
3.71286801
 20
9.59024167
  0
VERTEX
  8
0
 10
3.72426428
 20
9.60344480
  0
VERTEX
  8
0
 10
3.73620134
 20
9.61607500
  0
SEQEND
  0
POLYLINE
  8
Default_Layer
 66
   1
 39
0.000000
 70
    1
  0
VERTEX
  8
0
 10
6.78032161
 20
7.66331897
  0
VERTEX
  8
0
 10
6.84280186
 20
7.76087912
  0
VERTEX
  8
0
 10
6.87499759
 20
7.80905150
  0
VERTEX
  8
0
 10
6.90785279
 20
7.85677568
  0
VERTEX
  8
0
 10
6.94138429
 20
7.90401932
  0
VERTEX
  8
0
 10
6.97560889
 20
7.95075011
  0
VERTEX
  8
0
 10
7.01054339
 20
7.99693574
  0
VERTEX
  8
0
 10
7.04620462
 20
8.04254389
  0
VERTEX
  8
0
 10
7.08260938
 20
8.08754224
  0
VERTEX
  8
0
 10
7.11977447
 20
8.13189847
  0
VERTEX
  8
0
 10
7.15771672
 20
8.17558027
  0
VERTEX
  8
0
 10
7.19645293
 20
8.21855532
  0
VERTEX
  8
0
 10
7.23599991
 20
8.26079130
  0
VERTEX
  8
0
 10
7.27637446
 20
8.30225590
  0
VERTEX
  8
0
 10
7.31759341
 20
8.34291679
  0
VERTEX
  8
0
 10
7.35967356
 20
8.38274167
  0
VERTEX
  8
0
 10
7.43643789
 20
8.44965790
  0
VERTEX
  8
0
 10
7.47520823
 20
8.48274411
  0
VERTEX
  8
0
 10
7.51451731
 20
8.51515486
  0
VERTEX
  8
0
 10
7.55457509
 20
8.54656952
  0
VERTEX
  8
0
 10
7.59559153
 20
8.57666745
  0
VERTEX
  8
0
 10
7.63777659
 20
8.60512800
  0
VERTEX
  8
0
 10
7.68134023
 20
8.63163055
  0
VERTEX
  8
0
 10
7.70095747
 20
8.64740991
  0
VERTEX
  8
0
 10
7.72129900
 20
8.66213620
  0
VERTEX
  8
0
 10
7.74225576
 20
8.67595428
  0
VERTEX
  8
0
 10
7.76371870
 20
8.68900903
  0
VERTEX
  8
0
 10
7.80772695
 20
8.71340790
  0
VERTEX
  8
0
 10
7.85245134
 20
8.73649167
  0
VERTEX
  8
0
 10
7.92139014
 20
8.77024167
  0
VERTEX
  8
0
 10
7.99073259
 20
8.80367917
  0
VERTEX
  8
0
 10
8.02586036
 20
8.81925534
  0
VERTEX
  8
0
 10
8.06145525
 20
8.83352292
  0
VERTEX
  8
0
 10
8.09763933
 20
8.84607174
  0
VERTEX
  8
0
 10
8.13453467
 20
8.85649167
  0
VERTEX
  8
0
 10
8.12134023
 20
8.82968611
  0
VERTEX
  8
0
 10
8.03385542
 20
8.78946259
  0
VERTEX
  8
0
 10
7.94604509
 20
8.74956458
  0
VERTEX
  8
0
 10
7.90253462
 20
8.72883026
  0
VERTEX
  8
0
 10
7.85956289
 20
8.70708845
  0
VERTEX
  8
0
 10
7.81733660
 20
8.68397620
  0
VERTEX
  8
0
 10
7.77606245
 20
8.65913055
  0
VERTEX
  8
0
 10
7.75693648
 20
8.64233151
  0
VERTEX
  8
0
 10
7.73662235
 20
8.62736840
  0
VERTEX
  8
0
 10
7.71540327
 20
8.61379852
  0
VERTEX
  8
0
 10
7.69356245
 20
8.60117917
  0
VERTEX
  8
0
 10
7.64914839
 20
8.57702118
  0
VERTEX
  8
0
 10
7.62714155
 20
8.56459713
  0
VERTEX
  8
0
 10
7.60564579
 20
8.55135278
  0
VERTEX
  8
0
 10
7.54529875
 20
8.50494544
  0
VERTEX
  8
0
 10
7.48634456
 20
8.45691494
  0
VERTEX
  8
0
 10
7.42877483
 20
8.40732161
  0
VERTEX
  8
0
 10
7.37258120
 20
8.35622582
  0
VERTEX
  8
0
 10
7.31775529
 20
8.30368792
  0
VERTEX
  8
0
 10
7.26428872
 20
8.24976828
  0
VERTEX
  8
0
 10
7.21217311
 20
8.19452725
  0
VERTEX
  8
0
 10
7.16140011
 20
8.13802518
  0
VERTEX
  8
0
 10
7.11196132
 20
8.08032244
  0
VERTEX
  8
0
 10
7.06384837
 20
8.02147938
  0
VERTEX
  8
0
 10
7.01705290
 20
7.96155636
  0
VERTEX
  8
0
 10
6.97156651
 20
7.90061374
  0
VERTEX
  8
0
 10
6.92738085
 20
7.83871186
  0
VERTEX
  8
0
 10
6.88448753
 20
7.77591110
  0
VERTEX
  8
0
 10
6.84287818
 20
7.71227181
  0
VERTEX
  8
0
 10
6.80254442
 20
7.64785435
  0
VERTEX
  8
0
 10
6.79859789
 20
7.64364772
  0
VERTEX
  8
0
 10
6.79386165
 20
7.64180553
  0
VERTEX
  8
0
 10
6.78889752
 20
7.64202266
  0
VERTEX
  8
0
 10
6.78426729
 20
7.64399400
  0
VERTEX
  8
0
 10
6.78053278
 20
7.64741442
  0
VERTEX
  8
0
 10
6.77825579
 20
7.65197880
  0
VERTEX
  8
0
 10
6.77799813
 20
7.65738202
  0
VERTEX
  8
0
 10
6.78032161
 20
7.66331897
  0
SEQEND
  0
POLYLINE
  8
Default_Layer
 66
   1
 39
0.000000
 70
    1
  0
VERTEX
  8
0
 10
5.11995134
 20
7.41676944
  0
VERTEX
  8
0
 10
5.10160434
 20
7.39846117
  0
VERTEX
  8
0
 10
5.08391754
 20
7.37954152
  0
VERTEX
  8
0
 10
5.06690660
 20
7.36003391
  0
VERTEX
  8
0
 10
5.05058719
 20
7.33996172
  0
VERTEX
  8
0
 10
5.03497498
 20
7.31934835
  0
VERTEX
  8
0
 10
5.02008562
 20
7.29821720
  0
VERTEX
  8
0
 10
5.00593479
 20
7.27659166
  0
VERTEX
  8
0
 10
4.99253815
 20
7.25449514
  0
VERTEX
  8
0
 10
4.97991136
 20
7.23195102
  0
VERTEX
  8
0
 10
4.96807010
 20
7.20898271
  0
VERTEX
  8
0
 10
4.95703003
 20
7.18561361
  0
VERTEX
  8
0
 10
4.94680681
 20
7.16186710
  0
VERTEX
  8
0
 10
4.93741611
 20
7.13776659
  0
VERTEX
  8
0
 10
4.92887360
 20
7.11333547
  0
VERTEX
  8
0
 10
4.92119493
 20
7.08859714
  0
VERTEX
  8
0
 10
4.91439579
 20
7.06357500
  0
VERTEX
  8
0
 10
4.86617015
 20
7.07542911
  0
VERTEX
  8
0
 10
4.81775733
 20
7.08645477
  0
VERTEX
  8
0
 10
4.72045481
 20
7.10630069
  0
VERTEX
  8
0
 10
4.62265750
 20
7.12367265
  0
VERTEX
  8
0
 10
4.52453467
 20
7.13913055
  0
VERTEX
  8
0
 10
4.44656158
 20
7.14815616
  0
VERTEX
  8
0
 10
4.36856245
 20
7.15779375
  0
VERTEX
  8
0
 10
4.32978912
 20
7.16384708
  0
VERTEX
  8
0
 10
4.29129249
 20
7.17125946
  0
VERTEX
  8
0
 10
4.25316694
 20
7.18043291
  0
VERTEX
  8
0
 10
4.21550690
 20
7.19176944
  0
VERTEX
  8
0
 10
4.14115095
 20
7.21390205
  0
VERTEX
  8
0
 10
4.06729997
 20
7.23786021
  0
VERTEX
  8
0
 10
3.99402924
 20
7.26365634
  0
VERTEX
  8
0
 10
3.92141402
 20
7.29130286
  0
VERTEX
  8
0
 10
3.84952959
 20
7.32081217
  0
VERTEX
  8
0
 10
3.77845123
 20
7.35219669
  0
VERTEX
  8
0
 10
3.70825422
 20
7.38546882
  0
VERTEX
  8
0
 10
3.63901384
 20
7.42064097
  0
VERTEX
  8
0
 10
3.57080536
 20
7.45772556
  0
VERTEX
  8
0
 10
3.50370405
 20
7.49673499
  0
VERTEX
  8
0
 10
3.43778520
 20
7.53768168
  0
VERTEX
  8
0
 10
3.37312408
 20
7.58057804
  0
VERTEX
  8
0
 10
3.30979597
 20
7.62543647
  0
VERTEX
  8
0
 10
3.24787615
 20
7.67226939
  0
VERTEX
  8
0
 10
3.18743988
 20
7.72108921
  0
VERTEX
  8
0
 10
3.12856245
 20
7.77190833
  0
VERTEX
  8
0
 10
3.08234853
 20
7.81228594
  0
VERTEX
  8
0
 10
3.03744483
 20
7.85401771
  0
VERTEX
  8
0
 10
2.99367720
 20
7.89690833
  0
VERTEX
  8
0
 10
2.95087148
 20
7.94076250
  0
VERTEX
  8
0
 10
2.90885352
 20
7.98538489
  0
VERTEX
  8
0
 10
2.86744917
 20
8.03058021
  0
VERTEX
  8
0
 10
2.78578467
 20
8.12190833
  0
VERTEX
  8
0
 10
2.76801151
 20
8.14399926
  0
VERTEX
  8
0
 10
2.75081289
 20
8.16652639
  0
VERTEX
  8
0
 10
2.71736454
 20
8.21229028
  0
VERTEX
  8
0
 10
2.68389014
 20
8.25800208
  0
VERTEX
  8
0
 10
2.66665897
 20
8.28046410
  0
VERTEX
  8
0
 10
2.64884023
 20
8.30246389
  0
VERTEX
  8
0
 10
2.63405762
 20
8.32884196
  0
VERTEX
  8
0
 10
2.62080719
 20
8.35630747
  0
VERTEX
  8
0
 10
2.60917257
 20
8.38470113
  0
VERTEX
  8
0
 10
2.59923737
 20
8.41386363
  0
VERTEX
  8
0
 10
2.59108521
 20
8.44363566
  0
VERTEX
  8
0
 10
2.58479970
 20
8.47385793
  0
VERTEX
  8
0
 10
2.58046448
 20
8.50437113
  0
VERTEX
  8
0
 10
2.57816315
 20
8.53501597
  0
VERTEX
  8
0
 10
2.57797933
 20
8.56563314
  0
VERTEX
  8
0
 10
2.57999664
 20
8.59606333
  0
VERTEX
  8
0
 10
2.58429871
 20
8.62614726
  0
VERTEX
  8
0
 10
2.59096914
 20
8.65572561
  0
VERTEX
  8
0
 10
2.60009155
 20
8.68463908
  0
VERTEX
  8
0
 10
2.61174957
 20
8.71272837
  0
VERTEX
  8
0
 10
2.62602681
 20
8.73983419
  0
VERTEX
  8
0
 10
2.64300690
 20
8.76579722
  0
VERTEX
  8
0
 10
2.66710358
 20
8.78774004
  0
VERTEX
  8
0
 10
2.69195221
 20
8.80915226
  0
VERTEX
  8
0
 10
2.71764069
 20
8.82965953
  0
VERTEX
  8
0
 10
2.74425690
 20
8.84888750
  0
VERTEX
  8
0
 10
2.77188873
 20
8.86646183
  0
VERTEX
  8
0
 10
2.80062408
 20
8.88200816
  0
VERTEX
  8
0
 10
2.83055084
 20
8.89515215
  0
VERTEX
  8
0
 10
2.84598846
 20
8.90070628
  0
VERTEX
  8
0
 10
2.86175690
 20
8.90551944
  0
VERTEX
  8
0
 10
2.88534688
 20
8.91218889
  0
VERTEX
  8
0
 10
2.90912262
 20
8.91794403
  0
VERTEX
  8
0
 10
2.93306152
 20
8.92281131
  0
VERTEX
  8
0
 10
2.95714101
 20
8.92681719
  0
VERTEX
  8
0
 10
2.98133850
 20
8.92998810
  0
VERTEX
  8
0
 10
3.00563141
 20
8.93235050
  0
VERTEX
  8
0
 10
3.02999715
 20
8.93393083
  0
VERTEX
  8
0
 10
3.05441315
 20
8.93475555
  0
VERTEX
  8
0
 10
3.10330556
 20
8.93424394
  0
VERTEX
  8
0
 10
3.15212799
 20
8.93102726
  0
VERTEX
  8
0
 10
3.20069977
 20
8.92531708
  0
VERTEX
  8
0
 10
3.24884023
 20
8.91732500
  0
VERTEX
  8
0
 10
3.32385759
 20
8.90323863
  0
VERTEX
  8
0
 10
3.36136953
 20
8.89572099
  0
VERTEX
  8
0
 10
3.39866662
 20
8.88734236
  0
VERTEX
  8
0
 10
3.43558611
 20
8.87769419
  0
VERTEX
  8
0
 10
3.47196523
 20
8.86636797
  0
VERTEX
  8
0
 10
3.50764123
 20
8.85295515
  0
VERTEX
  8
0
 10
3.54245134
 20
8.83704722
  0
VERTEX
  8
0
 10
3.56691776
 20
8.82556230
  0
VERTEX
  8
0
 10
3.59188059
 20
8.81532413
  0
VERTEX
  8
0
 10
3.64267704
 20
8.79701250
  0
VERTEX
  8
0
 10
3.69360369
 20
8.77896128
  0
VERTEX
  8
0
 10
3.71872928
 20
8.76904863
  0
VERTEX
  8
0
 10
3.74342356
 20
8.75801944
  0
VERTEX
  8
0
 10
3.77689633
 20
8.74220537
  0
VERTEX
  8
0
 10
3.81076297
 20
8.72702769
  0
VERTEX
  8
0
 10
3.87849301
 20
8.69654375
  0
VERTEX
  8
0
 10
3.91176395
 20
8.68021861
  0
VERTEX
  8
0
 10
3.94424388
 20
8.66249210
  0
VERTEX
  8
0
 10
3.97563656
 20
8.64285478
  0
VERTEX
  8
0
 10
3.99083262
 20
8.63216037
  0
VERTEX
  8
0
 10
4.00564579
 20
8.62079722
  0
VERTEX
  8
0
 10
4.07519440
 20
8.58245955
  0
VERTEX
  8
0
 10
4.14505551
 20
8.54472083
  0
VERTEX
  8
0
 10
4.21455204
 20
8.50630503
  0
VERTEX
  8
0
 10
4.24895199
 20
8.48644446
  0
VERTEX
  8
0
 10
4.28300690
 20
8.46593611
  0
VERTEX
  8
0
 10
4.32691884
 20
8.44363196
  0
VERTEX
  8
0
 10
4.36990143
 20
8.41971649
  0
VERTEX
  8
0
 10
4.41210602
 20
8.39446638
  0
VERTEX
  8
0
 10
4.45368398
 20
8.36815833
  0
VERTEX
  8
0
 10
4.53556549
 20
8.31347517
  0
VERTEX
  8
0
 10
4.61675690
 20
8.25788055
  0
VERTEX
  8
0
 10
4.64927426
 20
8.23566267
  0
VERTEX
  8
0
 10
4.68127079
 20
8.21253333
  0
VERTEX
  8
0
 10
4.69642270
 20
8.20003279
  0
VERTEX
  8
0
 10
4.71066315
 20
8.18659149
  0
VERTEX
  8
0
 10
4.72373172
 20
8.17197181
  0
VERTEX
  8
0
 10
4.73536801
 20
8.15593611
  0
VERTEX
  8
0
 10
4.76545241
 20
8.11434608
  0
VERTEX
  8
0
 10
4.79666168
 20
8.07367808
  0
VERTEX
  8
0
 10
4.82894558
 20
8.03391340
  0
VERTEX
  8
0
 10
4.86225386
 20
7.99503333
  0
VERTEX
  8
0
 10
4.89653625
 20
7.95701914
  0
VERTEX
  8
0
 10
4.93174252
 20
7.91985213
  0
VERTEX
  8
0
 10
4.96782240
 20
7.88351356
  0
VERTEX
  8
0
 10
5.00472565
 20
7.84798472
  0
VERTEX
  8
0
 10
5.04240200
 20
7.81324690
  0
VERTEX
  8
0
 10
5.08080122
 20
7.77928138
  0
VERTEX
  8
0
 10
5.11987305
 20
7.74606944
  0
VERTEX
  8
0
 10
5.15956723
 20
7.71359236
  0
VERTEX
  8
0
 10
5.19983351
 20
7.68183143
  0
VERTEX
  8
0
 10
5.24062164
 20
7.65076792
  0
VERTEX
  8
0
 10
5.28188137
 20
7.62038313
  0
VERTEX
  8
0
 10
5.32356245
 20
7.59065833
  0
VERTEX
  8
0
 10
5.27605811
 20
7.55327552
  0
VERTEX
  8
0
 10
5.22811106
 20
7.51638750
  0
VERTEX
  8
0
 10
5.20445167
 20
7.49756751
  0
VERTEX
  8
0
 10
5.18125777
 20
7.47819739
  0
VERTEX
  8
0
 10
5.15872142
 20
7.45805254
  0
VERTEX
  8
0
 10
5.13703467
 20
7.43690833
  0
VERTEX
  8
0
 10
5.12856127
 20
7.42676409
  0
VERTEX
  8
0
 10
5.11995134
 20
7.41676944
  0
SEQEND
  0
POLYLINE
  8
Default_Layer
 66
   1
 39
0.000000
 70
    1
  0
VERTEX
  8
0
 10
8.37495134
 20
7.97649167
  0
VERTEX
  8
0
 10
8.41864709
 20
8.02470781
  0
VERTEX
  8
0
 10
8.46092356
 20
8.07414792
  0
VERTEX
  8
0
 10
8.50168962
 20
8.12481198
  0
VERTEX
  8
0
 10
8.54085412
 20
8.17670000
  0
VERTEX
  8
0
 10
8.57832591
 20
8.22981198
  0
VERTEX
  8
0
 10
8.61401384
 20
8.28414792
  0
VERTEX
  8
0
 10
8.64782678
 20
8.33970781
  0
VERTEX
  8
0
 10
8.67967356
 20
8.39649167
  0
VERTEX
  8
0
 10
8.68247318
 20
8.40264045
  0
VERTEX
  8
0
 10
8.68593116
 20
8.40771318
  0
VERTEX
  8
0
 10
8.68997996
 20
8.41180569
  0
VERTEX
  8
0
 10
8.69455204
 20
8.41501380
  0
VERTEX
  8
0
 10
8.69957984
 20
8.41743334
  0
VERTEX
  8
0
 10
8.70499583
 20
8.41916012
  0
VERTEX
  8
0
 10
8.71672217
 20
8.42091875
  0
VERTEX
  8
0
 10
8.72919071
 20
8.42105628
  0
VERTEX
  8
0
 10
8.74186106
 20
8.42033932
  0
VERTEX
  8
0
 10
8.75419288
 20
8.41953447
  0
VERTEX
  8
0
 10
8.76564579
 20
8.41940833
  0
VERTEX
  8
0
 10
8.79782179
 20
8.41520396
  0
VERTEX
  8
0
 10
8.83011112
 20
8.41014835
  0
VERTEX
  8
0
 10
8.86240573
 20
8.40417152
  0
VERTEX
  8
0
 10
8.89459761
 20
8.39720347
  0
VERTEX
  8
0
 10
8.92657871
 20
8.38917423
  0
VERTEX
  8
0
 10
8.95824100
 20
8.38001380
  0
VERTEX
  8
0
 10
8.98947645
 20
8.36965220
  0
VERTEX
  8
0
 10
9.02017704
 20
8.35801944
  0
VERTEX
  8
0
 10
9.05023471
 20
8.34504554
  0
VERTEX
  8
0
 10
9.07954146
 20
8.33066050
  0
VERTEX
  8
0
 10
9.10798923
 20
8.31479435
  0
VERTEX
  8
0
 10
9.13547000
 20
8.29737708
  0
VERTEX
  8
0
 10
9.16187575
 20
8.27833872
  0
VERTEX
  8
0
 10
9.18709842
 20
8.25760929
  0
VERTEX
  8
0
 10
9.21103000
 20
8.23511878
  0
VERTEX
  8
0
 10
9.23356245
 20
8.21079722
  0
VERTEX
  8
0
 10
9.24438053
 20
8.19778571
  0
VERTEX
  8
0
 10
9.25413049
 20
8.18410750
  0
VERTEX
  8
0
 10
9.26281843
 20
8.16982829
  0
VERTEX
  8
0
 10
9.27045047
 20
8.15501380
  0
VERTEX
  8
0
 10
9.27703271
 20
8.13972975
  0
VERTEX
  8
0
 10
9.28257124
 20
8.12404185
  0
VERTEX
  8
0
 10
9.28707218
 20
8.10801581
  0
VERTEX
  8
0
 10
9.29054162
 20
8.09171736
  0
VERTEX
  8
0
 10
9.29298567
 20
8.07521220
  0
VERTEX
  8
0
 10
9.29441043
 20
8.05856605
  0
VERTEX
  8
0
 10
9.29482201
 20
8.04184462
  0
VERTEX
  8
0
 10
9.29422652
 20
8.02511363
  0
VERTEX
  8
0
 10
9.29263004
 20
8.00843879
  0
VERTEX
  8
0
 10
9.29003869
 20
7.99188582
  0
VERTEX
  8
0
 10
9.28645857
 20
7.97552043
  0
VERTEX
  8
0
 10
9.28189579
 20
7.95940833
  0
VERTEX
  8
0
 10
9.27625444
 20
7.94541385
  0
VERTEX
  8
0
 10
9.26992259
 20
7.93172333
  0
VERTEX
  8
0
 10
9.25530290
 20
7.90532413
  0
VERTEX
  8
0
 10
9.23826786
 20
7.88035071
  0
VERTEX
  8
0
 10
9.21904856
 20
7.85694305
  0
VERTEX
  8
0
 10
9.19787615
 20
7.83524112
  0
VERTEX
  8
0
 10
9.17498172
 20
7.81538489
  0
VERTEX
  8
0
 10
9.15059642
 20
7.79751434
  0
VERTEX
  8
0
 10
9.12495134
 20
7.78176944
  0
VERTEX
  8
0
 10
9.07404395
 20
7.79458520
  0
VERTEX
  8
0
 10
9.02271827
 20
7.80554548
  0
VERTEX
  8
0
 10
8.97103777
 20
7.81451358
  0
VERTEX
  8
0
 10
8.91906592
 20
7.82135278
  0
VERTEX
  8
0
 10
8.86686622
 20
7.82592634
  0
VERTEX
  8
0
 10
8.81450212
 20
7.82809757
  0
VERTEX
  8
0
 10
8.76203712
 20
7.82772973
  0
VERTEX
  8
0
 10
8.70953467
 20
7.82468611
  0
VERTEX
  8
0
 10
8.67153826
 20
7.82488156
  0
VERTEX
  8
0
 10
8.63359066
 20
7.82425100
  0
VERTEX
  8
0
 10
8.55784197
 20
7.82071042
  0
VERTEX
  8
0
 10
8.48228858
 20
7.81446150
  0
VERTEX
  8
0
 10
8.40693051
 20
7.80590139
  0
VERTEX
  8
0
 10
8.33176775
 20
7.79542721
  0
VERTEX
  8
0
 10
8.25680030
 20
7.78343611
  0
VERTEX
  8
0
 10
8.18202816
 20
7.77032522
  0
VERTEX
  8
0
 10
8.10745134
 20
7.75649167
  0
VERTEX
  8
0
 10
8.13056142
 20
7.77708194
  0
VERTEX
  8
0
 10
8.15428511
 20
7.79696910
  0
VERTEX
  8
0
 10
8.20305898
 20
7.83520694
  0
VERTEX
  8
0
 10
8.30231245
 20
7.90954722
  0
VERTEX
  8
0
 10
8.32154770
 20
7.92506406
  0
VERTEX
  8
0
 10
8.34001670
 20
7.94148059
  0
VERTEX
  8
0
 10
8.35779330
 20
7.95866655
  0
VERTEX
  8
0
 10
8.37495134
 20
7.97649167
  0
SEQEND
  0
POLYLINE
  8
Default_Layer
 66
   1
 39
0.000000
 70
    1
  0
VERTEX
  8
0
 10
7.21522912
 20
6.96926944
  0
VERTEX
  8
0
 10
7.34523563
 20
7.00967309
  0
VERTEX
  8
0
 10
7.47569787
 20
7.04874861
  0
VERTEX
  8
0
 10
7.54120975
 20
7.06727563
  0
VERTEX
  8
0
 10
7.60696740
 20
7.08485538
  0
VERTEX
  8
0
 10
7.67301476
 20
7.10128279
  0
VERTEX
  8
0
 10
7.73939579
 20
7.11635278
  0
VERTEX
  8
0
 10
7.87321008
 20
7.14835500
  0
VERTEX
  8
0
 10
8.00774865
 20
7.17851640
  0
VERTEX
  8
0
 10
8.07527581
 20
7.19260824
  0
VERTEX
  8
0
 10
8.14296756
 20
7.20588159
  0
VERTEX
  8
0
 10
8.21081841
 20
7.21821703
  0
VERTEX
  8
0
 10
8.27882287
 20
7.22949514
  0
VERTEX
  8
0
 10
8.34697544
 20
7.23959649
  0
VERTEX
  8
0
 10
8.41527062
 20
7.24840166
  0
VERTEX
  8
0
 10
8.48370294
 20
7.25579122
  0
VERTEX
  8
0
 10
8.55226688
 20
7.26164575
  0
VERTEX
  8
0
 10
8.62095696
 20
7.26584581
  0
VERTEX
  8
0
 10
8.68976769
 20
7.26827199
  0
VERTEX
  8
0
 10
8.75869358
 20
7.26880486
  0
VERTEX
  8
0
 10
8.82772912
 20
7.26732500
  0
VERTEX
  8
0
 10
8.81314579
 20
7.24676944
  0
VERTEX
  8
0
 10
8.79004954
 20
7.24266571
  0
VERTEX
  8
0
 10
8.76673520
 20
7.24037187
  0
VERTEX
  8
0
 10
8.74325809
 20
7.23944522
  0
VERTEX
  8
0
 10
8.71967356
 20
7.23944305
  0
VERTEX
  8
0
 10
8.67240360
 20
7.24044132
  0
VERTEX
  8
0
 10
8.64882884
 20
7.24055634
  0
VERTEX
  8
0
 10
8.62536801
 20
7.23982500
  0
VERTEX
  8
0
 10
8.55812219
 20
7.23507165
  0
VERTEX
  8
0
 10
8.49106679
 20
7.22889455
  0
VERTEX
  8
0
 10
8.42419369
 20
7.22138689
  0
VERTEX
  8
0
 10
8.35749474
 20
7.21264184
  0
VERTEX
  8
0
 10
8.29096181
 20
7.20275258
  0
VERTEX
  8
0
 10
8.22458676
 20
7.19181230
  0
VERTEX
  8
0
 10
8.15836144
 20
7.17991418
  0
VERTEX
  8
0
 10
8.09227773
 20
7.16715139
  0
VERTEX
  8
0
 10
7.96050256
 20
7.13940453
  0
VERTEX
  8
0
 10
7.82919613
 20
7.10931719
  0
VERTEX
  8
0
 10
7.69829336
 20
7.07763479
  0
VERTEX
  8
0
 10
7.56772912
 20
7.04510278
  0
VERTEX
  8
0
 10
7.52587853
 20
7.03246741
  0
VERTEX
  8
0
 10
7.48370568
 20
7.02063446
  0
VERTEX
  8
0
 10
7.39929162
 20
6.99706458
  0
VERTEX
  8
0
 10
7.35749963
 20
6.98417206
  0
VERTEX
  8
0
 10
7.31628381
 20
6.96977075
  0
VERTEX
  8
0
 10
7.27586877
 20
6.95328284
  0
VERTEX
  8
0
 10
7.25603173
 20
6.94407586
  0
VERTEX
  8
0
 10
7.23647912
 20
6.93413055
  0
VERTEX
  8
0
 10
7.23066319
 20
6.93161316
  0
VERTEX
  8
0
 10
7.22530812
 20
6.93039827
  0
VERTEX
  8
0
 10
7.22044337
 20
6.93034143
  0
VERTEX
  8
0
 10
7.21609841
 20
6.93129822
  0
VERTEX
  8
0
 10
7.21230271
 20
6.93312422
  0
VERTEX
  8
0
 10
7.20908574
 20
6.93567497
  0
VERTEX
  8
0
 10
7.20647696
 20
6.93880606
  0
VERTEX
  8
0
 10
7.20450585
 20
6.94237305
  0
VERTEX
  8
0
 10
7.20259450
 20
6.95023699
  0
VERTEX
  8
0
 10
7.20271319
 20
6.95424508
  0
VERTEX
  8
0
 10
7.20358742
 20
6.95811134
  0
VERTEX
  8
0
 10
7.20524667
 20
6.96169134
  0
VERTEX
  8
0
 10
7.20772038
 20
6.96484065
  0
VERTEX
  8
0
 10
7.21103804
 20
6.96741482
  0
VERTEX
  8
0
 10
7.21522912
 20
6.96926944
  0
SEQEND
  0
POLYLINE
  8
Default_Layer
 66
   1
 39
0.000000
 70
    1
  0
VERTEX
  8
0
 10
2.61995134
 20
7.71649167
  0
VERTEX
  8
0
 10
2.58134566
 20
7.69683373
  0
VERTEX
  8
0
 10
2.54287669
 20
7.67542613
  0
VERTEX
  8
0
 10
2.50541033
 20
7.65189938
  0
VERTEX
  8
0
 10
2.48732371
 20
7.63922587
  0
VERTEX
  8
0
 10
2.46981245
 20
7.62588403
  0
VERTEX
  8
0
 10
2.45298479
 20
7.61182766
  0
VERTEX
  8
0
 10
2.43694895
 20
7.59701060
  0
VERTEX
  8
0
 10
2.42181318
 20
7.58138665
  0
VERTEX
  8
0
 10
2.40768572
 20
7.56490963
  0
VERTEX
  8
0
 10
2.39467478
 20
7.54753337
  0
VERTEX
  8
0
 10
2.38288862
 20
7.52921166
  0
VERTEX
  8
0
 10
2.37243547
 20
7.50989834
  0
VERTEX
  8
0
 10
2.36342356
 20
7.48954722
  0
VERTEX
  8
0
 10
2.35717363
 20
7.47322859
  0
VERTEX
  8
0
 10
2.35274051
 20
7.45666745
  0
VERTEX
  8
0
 10
2.35003672
 20
7.43994029
  0
VERTEX
  8
0
 10
2.34897478
 20
7.42312361
  0
VERTEX
  8
0
 10
2.34946720
 20
7.40629391
  0
VERTEX
  8
0
 10
2.35142649
 20
7.38952769
  0
VERTEX
  8
0
 10
2.35476518
 20
7.37290144
  0
VERTEX
  8
0
 10
2.35939579
 20
7.35649167
  0
VERTEX
  8
0
 10
2.36523081
 20
7.34037486
  0
VERTEX
  8
0
 10
2.37218279
 20
7.32462752
  0
VERTEX
  8
0
 10
2.38016422
 20
7.30932614
  0
VERTEX
  8
0
 10
2.38908763
 20
7.29454722
  0
VERTEX
  8
0
 10
2.39886553
 20
7.28036726
  0
VERTEX
  8
0
 10
2.40941043
 20
7.26686276
  0
VERTEX
  8
0
 10
2.42063487
 20
7.25411021
  0
VERTEX
  8
0
 10
2.43245134
 20
7.24218611
  0
VERTEX
  8
0
 10
2.45499658
 20
7.22212050
  0
VERTEX
  8
0
 10
2.47851634
 20
7.20362735
  0
VERTEX
  8
0
 10
2.50293047
 20
7.18660597
  0
VERTEX
  8
0
 10
2.52815881
 20
7.17095564
  0
VERTEX
  8
0
 10
2.55412120
 20
7.15657566
  0
VERTEX
  8
0
 10
2.58073747
 20
7.14336531
  0
VERTEX
  8
0
 10
2.60792748
 20
7.13122389
  0
VERTEX
  8
0
 10
2.63561106
 20
7.12005069
  0
VERTEX
  8
0
 10
2.66370806
 20
7.10974501
  0
VERTEX
  8
0
 10
2.69213830
 20
7.10020613
  0
VERTEX
  8
0
 10
2.74967790
 20
7.08302595
  0
VERTEX
  8
0
 10
2.80758860
 20
7.06770450
  0
VERTEX
  8
0
 10
2.86522912
 20
7.05343611
  0
VERTEX
  8
0
 10
2.87842451
 20
7.04979455
  0
VERTEX
  8
0
 10
2.89150842
 20
7.04766951
  0
VERTEX
  8
0
 10
2.90449304
 20
7.04690108
  0
VERTEX
  8
0
 10
2.91739058
 20
7.04732934
  0
VERTEX
  8
0
 10
2.93021325
 20
7.04879439
  0
VERTEX
  8
0
 10
2.94297326
 20
7.05113631
  0
VERTEX
  8
0
 10
2.96835412
 20
7.05781111
  0
VERTEX
  8
0
 10
3.01890099
 20
7.07464705
  0
VERTEX
  8
0
 10
3.04426232
 20
7.08224959
  0
VERTEX
  8
0
 10
3.05700768
 20
7.08528731
  0
VERTEX
  8
0
 10
3.06981245
 20
7.08760278
  0
VERTEX
  8
0
 10
3.18730811
 20
7.10934106
  0
VERTEX
  8
0
 10
3.30488190
 20
7.13109236
  0
VERTEX
  8
0
 10
3.36383643
 20
7.14073998
  0
VERTEX
  8
0
 10
3.42297652
 20
7.14891137
  0
VERTEX
  8
0
 10
3.48235748
 20
7.15511336
  0
VERTEX
  8
0
 10
3.54203467
 20
7.15885278
  0
VERTEX
  8
0
 10
3.58117130
 20
7.16289049
  0
VERTEX
  8
0
 10
3.62034902
 20
7.16601125
  0
VERTEX
  8
0
 10
3.69880985
 20
7.16992265
  0
VERTEX
  8
0
 10
3.77738135
 20
7.17142846
  0
VERTEX
  8
0
 10
3.85602773
 20
7.17137014
  0
VERTEX
  8
0
 10
4.01340186
 20
7.16992700
  0
VERTEX
  8
0
 10
4.09205800
 20
7.17022512
  0
VERTEX
  8
0
 10
4.17064579
 20
7.17232500
  0
VERTEX
  8
0
 10
4.09780087
 20
7.19578640
  0
VERTEX
  8
0
 10
4.02541250
 20
7.22087562
  0
VERTEX
  8
0
 10
3.95355960
 20
7.24761888
  0
VERTEX
  8
0
 10
3.88232113
 20
7.27604245
  0
VERTEX
  8
0
 10
3.81177602
 20
7.30617255
  0
VERTEX
  8
0
 10
3.74200321
 20
7.33803545
  0
VERTEX
  8
0
 10
3.67308163
 20
7.37165738
  0
VERTEX
  8
0
 10
3.60509023
 20
7.40706458
  0
VERTEX
  8
0
 10
3.53810794
 20
7.44428331
  0
VERTEX
  8
0
 10
3.47221371
 20
7.48333981
  0
VERTEX
  8
0
 10
3.40748647
 20
7.52426032
  0
VERTEX
  8
0
 10
3.34400516
 20
7.56707109
  0
VERTEX
  8
0
 10
3.28184872
 20
7.61179837
  0
VERTEX
  8
0
 10
3.22109609
 20
7.65846839
  0
VERTEX
  8
0
 10
3.16182621
 20
7.70710741
  0
VERTEX
  8
0
 10
3.10411801
 20
7.75774167
  0
VERTEX
  8
0
 10
3.08990360
 20
7.76969696
  0
VERTEX
  8
0
 10
3.07561106
 20
7.78202986
  0
VERTEX
  8
0
 10
3.06805301
 20
7.78736542
  0
VERTEX
  8
0
 10
3.06001645
 20
7.79162838
  0
VERTEX
  8
0
 10
3.05134837
 20
7.79442976
  0
VERTEX
  8
0
 10
3.04189579
 20
7.79538055
  0
VERTEX
  8
0
 10
3.01483812
 20
7.79617917
  0
VERTEX
  8
0
 10
2.98783681
 20
7.79595564
  0
VERTEX
  8
0
 10
2.96089939
 20
7.79476532
  0
VERTEX
  8
0
 10
2.93403337
 20
7.79266354
  0
VERTEX
  8
0
 10
2.90724630
 20
7.78970564
  0
VERTEX
  8
0
 10
2.88054569
 20
7.78594696
  0
VERTEX
  8
0
 10
2.82743398
 20
7.77624861
  0
VERTEX
  8
0
 10
2.77475847
 20
7.76401120
  0
VERTEX
  8
0
 10
2.72257938
 20
7.74967743
  0
VERTEX
  8
0
 10
2.67095693
 20
7.73369002
  0
VERTEX
  8
0
 10
2.61995134
 20
7.71649167
  0
SEQEND
  0
POLYLINE
  8
Default_Layer
 66
   1
 39
0.000000
 70
    1
  0
VERTEX
  8
0
 10
5.78370134
 20
7.73496389
  0
VERTEX
  8
0
 10
5.71676368
 20
7.72165904
  0
VERTEX
  8
0
 10
5.68337755
 20
7.71394185
  0
VERTEX
  8
0
 10
5.65012712
 20
7.70545217
  0
VERTEX
  8
0
 10
5.61707282
 20
7.69614299
  0
VERTEX
  8
0
 10
5.58427507
 20
7.68596731
  0
VERTEX
  8
0
 10
5.55179430
 20
7.67487813
  0
VERTEX
  8
0
 10
5.51969092
 20
7.66282847
  0
VERTEX
  8
0
 10
5.48802538
 20
7.64977132
  0
VERTEX
  8
0
 10
5.45685808
 20
7.63565969
  0
VERTEX
  8
0
 10
5.42624946
 20
7.62044657
  0
VERTEX
  8
0
 10
5.39625994
 20
7.60408498
  0
VERTEX
  8
0
 10
5.36694994
 20
7.58652791
  0
VERTEX
  8
0
 10
5.33837989
 20
7.56772837
  0
VERTEX
  8
0
 10
5.31061022
 20
7.54763936
  0
VERTEX
  8
0
 10
5.28370134
 20
7.52621389
  0
VERTEX
  8
0
 10
5.25434207
 20
7.50390188
  0
VERTEX
  8
0
 10
5.22583242
 20
7.48055634
  0
VERTEX
  8
0
 10
5.19814958
 20
7.45625051
  0
VERTEX
  8
0
 10
5.17127079
 20
7.43105764
  0
VERTEX
  8
0
 10
5.14517324
 20
7.40505096
  0
VERTEX
  8
0
 10
5.11983415
 20
7.37830373
  0
VERTEX
  8
0
 10
5.09523075
 20
7.35088918
  0
VERTEX
  8
0
 10
5.07134023
 20
7.32288055
  0
VERTEX
  8
0
 10
5.04539368
 20
7.28587789
  0
VERTEX
  8
0
 10
5.02159332
 20
7.24741262
  0
VERTEX
  8
0
 10
4.99998250
 20
7.20762695
  0
VERTEX
  8
0
 10
4.98060455
 20
7.16666311
  0
VERTEX
  8
0
 10
4.96350281
 20
7.12466329
  0
VERTEX
  8
0
 10
4.94872060
 20
7.08176971
  0
VERTEX
  8
0
 10
4.93630127
 20
7.03812459
  0
VERTEX
  8
0
 10
4.92628815
 20
6.99387014
  0
VERTEX
  8
0
 10
4.91872457
 20
6.94914856
  0
VERTEX
  8
0
 10
4.91365387
 20
6.90410207
  0
VERTEX
  8
0
 10
4.91111938
 20
6.85887288
  0
VERTEX
  8
0
 10
4.91116445
 20
6.81360321
  0
VERTEX
  8
0
 10
4.91383240
 20
6.76843526
  0
VERTEX
  8
0
 10
4.91916656
 20
6.72351125
  0
VERTEX
  8
0
 10
4.92721029
 20
6.67897339
  0
VERTEX
  8
0
 10
4.93800690
 20
6.63496389
  0
VERTEX
  8
0
 10
4.94497548
 20
6.61098212
  0
VERTEX
  8
0
 10
4.95298086
 20
6.58741967
  0
VERTEX
  8
0
 10
4.96196930
 20
6.56427266
  0
VERTEX
  8
0
 10
4.97188711
 20
6.54153724
  0
VERTEX
  8
0
 10
4.98268056
 20
6.51920953
  0
VERTEX
  8
0
 10
4.99429596
 20
6.49728566
  0
VERTEX
  8
0
 10
5.00667959
 20
6.47576179
  0
VERTEX
  8
0
 10
5.01977773
 20
6.45463403
  0
VERTEX
  8
0
 10
5.04790273
 20
6.41355140
  0
VERTEX
  8
0
 10
5.07824127
 20
6.37400686
  0
VERTEX
  8
0
 10
5.11036367
 20
6.33596948
  0
VERTEX
  8
0
 10
5.14384023
 20
6.29940833
  0
VERTEX
  8
0
 10
5.16687727
 20
6.27525574
  0
VERTEX
  8
0
 10
5.19089698
 20
6.25220971
  0
VERTEX
  8
0
 10
5.21584035
 20
6.23024726
  0
VERTEX
  8
0
 10
5.24164839
 20
6.20934540
  0
VERTEX
  8
0
 10
5.26826209
 20
6.18948113
  0
VERTEX
  8
0
 10
5.29562246
 20
6.17063148
  0
VERTEX
  8
0
 10
5.32367048
 20
6.15277344
  0
VERTEX
  8
0
 10
5.35234717
 20
6.13588403
  0
VERTEX
  8
0
 10
5.38159353
 20
6.11994025
  0
VERTEX
  8
0
 10
5.41135054
 20
6.10491913
  0
VERTEX
  8
0
 10
5.44155921
 20
6.09079766
  0
VERTEX
  8
0
 10
5.47216054
 20
6.07755286
  0
VERTEX
  8
0
 10
5.50309553
 20
6.06516174
  0
VERTEX
  8
0
 10
5.53430518
 20
6.05360131
  0
VERTEX
  8
0
 10
5.56573049
 20
6.04284858
  0
VERTEX
  8
0
 10
5.59731245
 20
6.03288055
  0
VERTEX
  8
0
 10
5.62937137
 20
6.02384091
  0
VERTEX
  8
0
 10
5.66162886
 20
6.01599959
  0
VERTEX
  8
0
 10
5.69406538
 20
6.00928864
  0
VERTEX
  8
0
 10
5.72666141
 20
6.00364010
  0
VERTEX
  8
0
 10
5.75939741
 20
5.99898604
  0
VERTEX
  8
0
 10
5.79225386
 20
5.99525848
  0
VERTEX
  8
0
 10
5.82521122
 20
5.99238949
  0
VERTEX
  8
0
 10
5.85824995
 20
5.99031111
  0
VERTEX
  8
0
 10
5.92449344
 20
5.98825436
  0
VERTEX
  8
0
 10
5.99082808
 20
5.98854462
  0
VERTEX
  8
0
 10
6.05709761
 20
5.99063826
  0
VERTEX
  8
0
 10
6.12314579
 20
5.99399167
  0
VERTEX
  8
0
 10
6.21550690
 20
6.01343828
  0
VERTEX
  8
0
 10
6.26151493
 20
6.02446774
  0
VERTEX
  8
0
 10
6.30713884
 20
6.03685625
  0
VERTEX
  8
0
 10
6.35217682
 20
6.05097002
  0
VERTEX
  8
0
 10
6.39642704
 20
6.06717526
  0
VERTEX
  8
0
 10
6.43968767
 20
6.08583818
  0
VERTEX
  8
0
 10
6.46088382
 20
6.09620572
  0
VERTEX
  8
0
 10
6.48175690
 20
6.10732500
  0
VERTEX
  8
0
 10
6.53816098
 20
6.13980547
  0
VERTEX
  8
0
 10
6.59423954
 20
6.17289792
  0
VERTEX
  8
0
 10
6.62156674
 20
6.19046709
  0
VERTEX
  8
0
 10
6.64810455
 20
6.20914140
  0
VERTEX
  8
0
 10
6.67361698
 20
6.22923825
  0
VERTEX
  8
0
 10
6.69786801
 20
6.25107500
  0
VERTEX
  8
0
 10
6.73068892
 20
6.27925371
  0
VERTEX
  8
0
 10
6.76283112
 20
6.30848385
  0
VERTEX
  8
0
 10
6.79387631
 20
6.33893144
  0
VERTEX
  8
0
 10
6.82340620
 20
6.37076250
  0
VERTEX
  8
0
 10
6.85100250
 20
6.40414303
  0
VERTEX
  8
0
 10
6.86394484
 20
6.42146623
  0
VERTEX
  8
0
 10
6.87624691
 20
6.43923906
  0
VERTEX
  8
0
 10
6.88785645
 20
6.45748227
  0
VERTEX
  8
0
 10
6.89872114
 20
6.47621660
  0
VERTEX
  8
0
 10
6.90878872
 20
6.49546282
  0
VERTEX
  8
0
 10
6.91800690
 20
6.51524167
  0
VERTEX
  8
0
 10
6.93233110
 20
6.54378984
  0
VERTEX
  8
0
 10
6.94564090
 20
6.57289140
  0
VERTEX
  8
0
 10
6.95789520
 20
6.60249752
  0
VERTEX
  8
0
 10
6.96905290
 20
6.63255937
  0
VERTEX
  8
0
 10
6.97907291
 20
6.66302812
  0
VERTEX
  8
0
 10
6.98791412
 20
6.69385495
  0
VERTEX
  8
0
 10
6.99553545
 20
6.72499101
  0
VERTEX
  8
0
 10
7.00189579
 20
6.75638750
  0
VERTEX
  8
0
 10
7.00695404
 20
6.78799557
  0
VERTEX
  8
0
 10
7.01066911
 20
6.81976640
  0
VERTEX
  8
0
 10
7.01299991
 20
6.85165117
  0
VERTEX
  8
0
 10
7.01390533
 20
6.88360104
  0
VERTEX
  8
0
 10
7.01334429
 20
6.91556719
  0
VERTEX
  8
0
 10
7.01127567
 20
6.94750078
  0
VERTEX
  8
0
 10
7.00765839
 20
6.97935299
  0
VERTEX
  8
0
 10
7.00245134
 20
7.01107500
  0
VERTEX
  8
0
 10
6.99604438
 20
7.04860752
  0
VERTEX
  8
0
 10
6.98754981
 20
7.08559296
  0
VERTEX
  8
0
 10
6.97704149
 20
7.12197252
  0
VERTEX
  8
0
 10
6.96459327
 20
7.15768741
  0
VERTEX
  8
0
 10
6.95027900
 20
7.19267883
  0
VERTEX
  8
0
 10
6.93417253
 20
7.22688799
  0
VERTEX
  8
0
 10
6.91634772
 20
7.26025608
  0
VERTEX
  8
0
 10
6.89687842
 20
7.29272430
  0
VERTEX
  8
0
 10
6.87583849
 20
7.32423387
  0
VERTEX
  8
0
 10
6.85330176
 20
7.35472599
  0
VERTEX
  8
0
 10
6.82934211
 20
7.38414185
  0
VERTEX
  8
0
 10
6.80403337
 20
7.41242265
  0
VERTEX
  8
0
 10
6.77744941
 20
7.43950962
  0
VERTEX
  8
0
 10
6.74966407
 20
7.46534393
  0
VERTEX
  8
0
 10
6.72075121
 20
7.48986681
  0
VERTEX
  8
0
 10
6.69078467
 20
7.51301944
  0
VERTEX
  8
0
 10
6.66142656
 20
7.53697140
  0
VERTEX
  8
0
 10
6.63110206
 20
7.55951792
  0
VERTEX
  8
0
 10
6.59987342
 20
7.58067936
  0
VERTEX
  8
0
 10
6.56780290
 20
7.60047604
  0
VERTEX
  8
0
 10
6.53495277
 20
7.61892832
  0
VERTEX
  8
0
 10
6.50138526
 20
7.63605655
  0
VERTEX
  8
0
 10
6.46716265
 20
7.65188107
  0
VERTEX
  8
0
 10
6.43234717
 20
7.66642222
  0
VERTEX
  8
0
 10
6.39700111
 20
7.67970035
  0
VERTEX
  8
0
 10
6.36118669
 20
7.69173581
  0
VERTEX
  8
0
 10
6.32496619
 20
7.70254893
  0
VERTEX
  8
0
 10
6.28840186
 20
7.71216007
  0
VERTEX
  8
0
 10
6.25155596
 20
7.72058957
  0
VERTEX
  8
0
 10
6.21449073
 20
7.72785777
  0
VERTEX
  8
0
 10
6.17726844
 20
7.73398502
  0
VERTEX
  8
0
 10
6.13995134
 20
7.73899167
  0
VERTEX
  8
0
 10
6.09535173
 20
7.73924015
  0
VERTEX
  8
0
 10
6.05073259
 20
7.74058889
  0
VERTEX
  8
0
 10
5.96151384
 20
7.74395694
  0
VERTEX
  8
0
 10
5.91695329
 20
7.74466115
  0
VERTEX
  8
0
 10
5.87245134
 20
7.74383542
  0
VERTEX
  8
0
 10
5.82802751
 20
7.74082218
  0
VERTEX
  8
0
 10
5.80585100
 20
7.73828976
  0
VERTEX
  8
0
 10
5.78370134
 20
7.73496389
  0
SEQEND
  0
POLYLINE
  8
Default_Layer
 66
   1
 39
0.000000
 70
    1
  0
VERTEX
  8
0
 10
4.81912034
 20
6.80297638
  0
VERTEX
  8
0
 10
4.71714733
 20
6.81329576
  0
VERTEX
  8
0
 10
4.61509170
 20
6.82232730
  0
VERTEX
  8
0
 10
4.51295643
 20
6.82998554
  0
VERTEX
  8
0
 10
4.41074454
 20
6.83618502
  0
VERTEX
  8
0
 10
4.30845902
 20
6.84084028
  0
VERTEX
  8
0
 10
4.20610287
 20
6.84386585
  0
VERTEX
  8
0
 10
4.10367908
 20
6.84517628
  0
VERTEX
  8
0
 10
4.00119066
 20
6.84468611
  0
VERTEX
  8
0
 10
3.94278357
 20
6.84509830
  0
VERTEX
  8
0
 10
3.88438971
 20
6.84472843
  0
VERTEX
  8
0
 10
3.82601579
 20
6.84358870
  0
VERTEX
  8
0
 10
3.76766852
 20
6.84169132
  0
VERTEX
  8
0
 10
3.65108079
 20
6.83567244
  0
VERTEX
  8
0
 10
3.53468024
 20
6.82676944
  0
VERTEX
  8
0
 10
3.41852057
 20
6.81507999
  0
VERTEX
  8
0
 10
3.30265550
 20
6.80070173
  0
VERTEX
  8
0
 10
3.18713874
 20
6.78373233
  0
VERTEX
  8
0
 10
3.07202399
 20
6.76426944
  0
VERTEX
  8
0
 10
3.02797017
 20
6.75586667
  0
VERTEX
  8
0
 10
2.98396844
 20
6.74694305
  0
VERTEX
  8
0
 10
2.96190572
 20
6.74298581
  0
VERTEX
  8
0
 10
2.93975837
 20
6.73973819
  0
VERTEX
  8
0
 10
2.91749383
 20
6.73748016
  0
VERTEX
  8
0
 10
2.89507955
 20
6.73649167
  0
VERTEX
  8
0
 10
2.91188510
 20
6.75982500
  0
VERTEX
  8
0
 10
2.97063700
 20
6.77368703
  0
VERTEX
  8
0
 10
3.02976488
 20
6.78611189
  0
VERTEX
  8
0
 10
3.08920200
 20
6.79726396
  0
VERTEX
  8
0
 10
3.14888163
 20
6.80730764
  0
VERTEX
  8
0
 10
3.20873704
 20
6.81640730
  0
VERTEX
  8
0
 10
3.26870151
 20
6.82472734
  0
VERTEX
  8
0
 10
3.38869066
 20
6.83968611
  0
VERTEX
  8
0
 10
3.43624990
 20
6.84594235
  0
VERTEX
  8
0
 10
3.48387159
 20
6.85131805
  0
VERTEX
  8
0
 10
3.53154985
 20
6.85587996
  0
VERTEX
  8
0
 10
3.57927877
 20
6.85969479
  0
VERTEX
  8
0
 10
3.67486497
 20
6.86535017
  0
VERTEX
  8
0
 10
3.77058302
 20
6.86881805
  0
VERTEX
  8
0
 10
3.86638570
 20
6.87063229
  0
VERTEX
  8
0
 10
3.96222581
 20
6.87132673
  0
VERTEX
  8
0
 10
4.15382955
 20
6.87149167
  0
VERTEX
  8
0
 10
4.31981960
 20
6.86719115
  0
VERTEX
  8
0
 10
4.40276375
 20
6.86389486
  0
VERTEX
  8
0
 10
4.48564686
 20
6.85960974
  0
VERTEX
  8
0
 10
4.56844857
 20
6.85416716
  0
VERTEX
  8
0
 10
4.65114852
 20
6.84739853
  0
VERTEX
  8
0
 10
4.73372638
 20
6.83913522
  0
VERTEX
  8
0
 10
4.81616180
 20
6.82920864
  0
VERTEX
  8
0
 10
4.82344982
 20
6.82715479
  0
VERTEX
  8
0
 10
4.82825716
 20
6.82362902
  0
VERTEX
  8
0
 10
4.83083584
 20
6.81919225
  0
VERTEX
  8
0
 10
4.83143789
 20
6.81440544
  0
VERTEX
  8
0
 10
4.83031533
 20
6.80982950
  0
VERTEX
  8
0
 10
4.82772020
 20
6.80602539
  0
VERTEX
  8
0
 10
4.82390453
 20
6.80355403
  0
VERTEX
  8
0
 10
4.81912034
 20
6.80297638
  0
SEQEND
  0
POLYLINE
  8
Default_Layer
 66
   1
 39
0.000000
 70
    1
  0
VERTEX
  8
0
 10
8.57050690
 20
6.43579722
  0
VERTEX
  8
0
 10
8.53321170
 20
6.45635495
  0
VERTEX
  8
0
 10
8.49625994
 20
6.47775903
  0
VERTEX
  8
0
 10
8.42236454
 20
6.52086667
  0
VERTEX
  8
0
 10
8.38490984
 20
6.54145043
  0
VERTEX
  8
0
 10
8.34677643
 20
6.56064097
  0
VERTEX
  8
0
 10
8.30770877
 20
6.57787838
  0
VERTEX
  8
0
 10
8.28774475
 20
6.58558970
  0
VERTEX
  8
0
 10
8.26745134
 20
6.59260278
  0
VERTEX
  8
0
 10
8.30622399
 20
6.59397498
  0
VERTEX
  8
0
 10
8.34497630
 20
6.59616506
  0
VERTEX
  8
0
 10
8.38368791
 20
6.59917382
  0
VERTEX
  8
0
 10
8.42233849
 20
6.60300208
  0
VERTEX
  8
0
 10
8.46090769
 20
6.60765066
  0
VERTEX
  8
0
 10
8.49937517
 20
6.61312035
  0
VERTEX
  8
0
 10
8.53772057
 20
6.61941199
  0
VERTEX
  8
0
 10
8.57592356
 20
6.62652639
  0
VERTEX
  8
0
 10
8.61396379
 20
6.63446435
  0
VERTEX
  8
0
 10
8.65182092
 20
6.64322669
  0
VERTEX
  8
0
 10
8.68947459
 20
6.65281423
  0
VERTEX
  8
0
 10
8.72690447
 20
6.66322778
  0
VERTEX
  8
0
 10
8.76409020
 20
6.67446815
  0
VERTEX
  8
0
 10
8.80101145
 20
6.68653615
  0
VERTEX
  8
0
 10
8.83764787
 20
6.69943261
  0
VERTEX
  8
0
 10
8.87397912
 20
6.71315833
  0
VERTEX
  8
0
 10
8.89043311
 20
6.71907630
  0
VERTEX
  8
0
 10
8.90738190
 20
6.72393958
  0
VERTEX
  8
0
 10
8.91598487
 20
6.72540198
  0
VERTEX
  8
0
 10
8.92464318
 20
6.72591224
  0
VERTEX
  8
0
 10
8.93333405
 20
6.72524085
  0
VERTEX
  8
0
 10
8.94203467
 20
6.72315833
  0
VERTEX
  8
0
 10
8.97128981
 20
6.71484263
  0
VERTEX
  8
0
 10
9.00026194
 20
6.70576033
  0
VERTEX
  8
0
 10
9.05741011
 20
6.68548472
  0
VERTEX
  8
0
 10
9.11358497
 20
6.66270911
  0
VERTEX
  8
0
 10
9.16889231
 20
6.63781111
  0
VERTEX
  8
0
 10
9.22343794
 20
6.61116831
  0
VERTEX
  8
0
 10
9.27732764
 20
6.58315833
  0
VERTEX
  8
0
 10
9.33066722
 20
6.55415877
  0
VERTEX
  8
0
 10
9.38356245
 20
6.52454722
  0
VERTEX
  8
0
 10
9.40688531
 20
6.50774255
  0
VERTEX
  8
0
 10
9.42993696
 20
6.49009030
  0
VERTEX
  8
0
 10
9.45257643
 20
6.47159251
  0
VERTEX
  8
0
 10
9.47466271
 20
6.45225121
  0
VERTEX
  8
0
 10
9.49605482
 20
6.43206845
  0
VERTEX
  8
0
 10
9.51661177
 20
6.41104624
  0
VERTEX
  8
0
 10
9.53619256
 20
6.38918664
  0
VERTEX
  8
0
 10
9.55465620
 20
6.36649167
  0
VERTEX
  8
0
 10
9.57186171
 20
6.34296336
  0
VERTEX
  8
0
 10
9.58766808
 20
6.31860375
  0
VERTEX
  8
0
 10
9.60193434
 20
6.29341488
  0
VERTEX
  8
0
 10
9.61451948
 20
6.26739878
  0
VERTEX
  8
0
 10
9.62528252
 20
6.24055749
  0
VERTEX
  8
0
 10
9.63408247
 20
6.21289303
  0
VERTEX
  8
0
 10
9.64077833
 20
6.18440745
  0
VERTEX
  8
0
 10
9.64522912
 20
6.15510278
  0
VERTEX
  8
0
 10
9.64779534
 20
6.13277564
  0
VERTEX
  8
0
 10
9.64851281
 20
6.11052867
  0
VERTEX
  8
0
 10
9.64745660
 20
6.08843224
  0
VERTEX
  8
0
 10
9.64470178
 20
6.06655677
  0
VERTEX
  8
0
 10
9.64032342
 20
6.04497264
  0
VERTEX
  8
0
 10
9.63439660
 20
6.02375024
  0
VERTEX
  8
0
 10
9.62699639
 20
6.00295997
  0
VERTEX
  8
0
 10
9.61819787
 20
5.98267222
  0
VERTEX
  8
0
 10
9.60807610
 20
5.96295739
  0
VERTEX
  8
0
 10
9.59670617
 20
5.94388587
  0
VERTEX
  8
0
 10
9.58416314
 20
5.92552806
  0
VERTEX
  8
0
 10
9.57052209
 20
5.90795434
  0
VERTEX
  8
0
 10
9.55585809
 20
5.89123511
  0
VERTEX
  8
0
 10
9.54024621
 20
5.87544078
  0
VERTEX
  8
0
 10
9.52376153
 20
5.86064172
  0
VERTEX
  8
0
 10
9.50647912
 20
5.84690833
  0
VERTEX
  8
0
 10
9.47737739
 20
5.82561879
  0
VERTEX
  8
0
 10
9.44745433
 20
5.80568058
  0
VERTEX
  8
0
 10
9.41676751
 20
5.78705176
  0
VERTEX
  8
0
 10
9.38537452
 20
5.76969045
  0
VERTEX
  8
0
 10
9.35333293
 20
5.75355472
  0
VERTEX
  8
0
 10
9.32070031
 20
5.73860267
  0
VERTEX
  8
0
 10
9.28753425
 20
5.72479238
  0
VERTEX
  8
0
 10
9.25389231
 20
5.71208194
  0
VERTEX
  8
0
 10
9.21983209
 20
5.70042945
  0
VERTEX
  8
0
 10
9.18541114
 20
5.68979299
  0
VERTEX
  8
0
 10
9.15068705
 20
5.68013065
  0
VERTEX
  8
0
 10
9.11571740
 20
5.67140052
  0
VERTEX
  8
0
 10
9.08055976
 20
5.66356069
  0
VERTEX
  8
0
 10
9.04527171
 20
5.65656925
  0
VERTEX
  8
0
 10
9.00991082
 20
5.65038428
  0
VERTEX
  8
0
 10
8.97453467
 20
5.64496389
  0
VERTEX
  8
0
 10
8.98432180
 20
5.66399278
  0
VERTEX
  8
0
 10
8.99303999
 20
5.68358178
  0
VERTEX
  8
0
 10
9.00066199
 20
5.70365621
  0
VERTEX
  8
0
 10
9.00716054
 20
5.72414140
  0
VERTEX
  8
0
 10
9.01250838
 20
5.74496270
  0
VERTEX
  8
0
 10
9.01667823
 20
5.76604543
  0
VERTEX
  8
0
 10
9.01964284
 20
5.78731493
  0
VERTEX
  8
0
 10
9.02137495
 20
5.80869653
  0
VERTEX
  8
0
 10
9.02184730
 20
5.83011556
  0
VERTEX
  8
0
 10
9.02103261
 20
5.85149736
  0
VERTEX
  8
0
 10
9.01890364
 20
5.87276727
  0
VERTEX
  8
0
 10
9.01543311
 20
5.89385061
  0
VERTEX
  8
0
 10
9.01059377
 20
5.91467272
  0
VERTEX
  8
0
 10
9.00435835
 20
5.93515893
  0
VERTEX
  8
0
 10
8.99669959
 20
5.95523458
  0
VERTEX
  8
0
 10
8.98759023
 20
5.97482500
  0
VERTEX
  8
0
 10
8.97214786
 20
6.00641184
  0
VERTEX
  8
0
 10
8.95521664
 20
6.03699242
  0
VERTEX
  8
0
 10
8.93690603
 20
6.06662493
  0
VERTEX
  8
0
 10
8.91732547
 20
6.09536753
  0
VERTEX
  8
0
 10
8.89658444
 20
6.12327844
  0
VERTEX
  8
0
 10
8.87479238
 20
6.15041582
  0
VERTEX
  8
0
 10
8.85205875
 20
6.17683787
  0
VERTEX
  8
0
 10
8.82849301
 20
6.20260278
  0
VERTEX
  8
0
 10
8.80420461
 20
6.22776872
  0
VERTEX
  8
0
 10
8.77930301
 20
6.25239390
  0
VERTEX
  8
0
 10
8.72809804
 20
6.30025469
  0
VERTEX
  8
0
 10
8.67575375
 20
6.34665063
  0
VERTEX
  8
0
 10
8.62314579
 20
6.39204722
  0
VERTEX
  8
0
 10
8.59781445
 20
6.41552846
  0
VERTEX
  8
0
 10
8.58471961
 20
6.42657965
  0
VERTEX
  8
0
 10
8.57050690
 20
6.43579722
  0
SEQEND
  0
POLYLINE
  8
Default_Layer
 66
   1
 39
0.000000
 70
    1
  0
VERTEX
  8
0
 10
7.01075765
 20
6.46192643
  0
VERTEX
  8
0
 10
7.08323083
 20
6.46265729
  0
VERTEX
  8
0
 10
7.15569233
 20
6.46284619
  0
VERTEX
  8
0
 10
7.19189126
 20
6.46215400
  0
VERTEX
  8
0
 10
7.22805435
 20
6.46062623
  0
VERTEX
  8
0
 10
7.26417063
 20
6.45802954
  0
VERTEX
  8
0
 10
7.30022912
 20
6.45413055
  0
VERTEX
  8
0
 10
7.35517758
 20
6.44882212
  0
VERTEX
  8
0
 10
7.40992096
 20
6.44187144
  0
VERTEX
  8
0
 10
7.46446252
 20
6.43345917
  0
VERTEX
  8
0
 10
7.51880551
 20
6.42376597
  0
VERTEX
  8
0
 10
7.57295319
 20
6.41297251
  0
VERTEX
  8
0
 10
7.62690881
 20
6.40125946
  0
VERTEX
  8
0
 10
7.73425690
 20
6.37579722
  0
VERTEX
  8
0
 10
7.78055355
 20
6.36055532
  0
VERTEX
  8
0
 10
7.82645308
 20
6.34410940
  0
VERTEX
  8
0
 10
7.87192291
 20
6.32647288
  0
VERTEX
  8
0
 10
7.91693051
 20
6.30765920
  0
VERTEX
  8
0
 10
7.96144331
 20
6.28768178
  0
VERTEX
  8
0
 10
8.00542877
 20
6.26655406
  0
VERTEX
  8
0
 10
8.04885434
 20
6.24428945
  0
VERTEX
  8
0
 10
8.09168745
 20
6.22090139
  0
VERTEX
  8
0
 10
8.13389557
 20
6.19640330
  0
VERTEX
  8
0
 10
8.17544613
 20
6.17080861
  0
VERTEX
  8
0
 10
8.21630659
 20
6.14413076
  0
VERTEX
  8
0
 10
8.25644440
 20
6.11638316
  0
VERTEX
  8
0
 10
8.29582699
 20
6.08757924
  0
VERTEX
  8
0
 10
8.33442183
 20
6.05773244
  0
VERTEX
  8
0
 10
8.37219635
 20
6.02685618
  0
VERTEX
  8
0
 10
8.40911801
 20
5.99496389
  0
VERTEX
  8
0
 10
8.43592139
 20
5.97067135
  0
VERTEX
  8
0
 10
8.46229509
 20
5.94572778
  0
VERTEX
  8
0
 10
8.47479591
 20
5.93262936
  0
VERTEX
  8
0
 10
8.48655941
 20
5.91890920
  0
VERTEX
  8
0
 10
8.49737566
 20
5.90441430
  0
VERTEX
  8
0
 10
8.50703467
 20
5.88899167
  0
VERTEX
  8
0
 10
8.49992991
 20
5.88987783
  0
VERTEX
  8
0
 10
8.49317834
 20
5.89145206
  0
VERTEX
  8
0
 10
8.48061106
 20
5.89640920
  0
VERTEX
  8
0
 10
8.46908546
 20
5.90335202
  0
VERTEX
  8
0
 10
8.45835412
 20
5.91176944
  0
VERTEX
  8
0
 10
8.43828467
 20
5.93098385
  0
VERTEX
  8
0
 10
8.41842356
 20
5.94996389
  0
VERTEX
  8
0
 10
8.38226437
 20
5.98227010
  0
VERTEX
  8
0
 10
8.34521773
 20
6.01351125
  0
VERTEX
  8
0
 10
8.30732066
 20
6.04368673
  0
VERTEX
  8
0
 10
8.26861020
 20
6.07279592
  0
VERTEX
  8
0
 10
8.22912337
 20
6.10083822
  0
VERTEX
  8
0
 10
8.18889720
 20
6.12781301
  0
VERTEX
  8
0
 10
8.14796872
 20
6.15371969
  0
VERTEX
  8
0
 10
8.10637495
 20
6.17855764
  0
VERTEX
  8
0
 10
8.06415293
 20
6.20232625
  0
VERTEX
  8
0
 10
8.02133969
 20
6.22502492
  0
VERTEX
  8
0
 10
7.97797224
 20
6.24665304
  0
VERTEX
  8
0
 10
7.93408763
 20
6.26720998
  0
VERTEX
  8
0
 10
7.88972287
 20
6.28669515
  0
VERTEX
  8
0
 10
7.84491499
 20
6.30510793
  0
VERTEX
  8
0
 10
7.79970103
 20
6.32244771
  0
VERTEX
  8
0
 10
7.75411801
 20
6.33871389
  0
VERTEX
  8
0
 10
7.68899512
 20
6.35625675
  0
VERTEX
  8
0
 10
7.62344744
 20
6.37220781
  0
VERTEX
  8
0
 10
7.55751889
 20
6.38655080
  0
VERTEX
  8
0
 10
7.49125342
 20
6.39926944
  0
VERTEX
  8
0
 10
7.42469499
 20
6.41034746
  0
VERTEX
  8
0
 10
7.35788754
 20
6.41976858
  0
VERTEX
  8
0
 10
7.29087501
 20
6.42751651
  0
VERTEX
  8
0
 10
7.22370134
 20
6.43357500
  0
VERTEX
  8
0
 10
7.12408693
 20
6.43444695
  0
VERTEX
  8
0
 10
7.02449857
 20
6.43424272
  0
VERTEX
  8
0
 10
7.01451010
 20
6.43537805
  0
VERTEX
  8
0
 10
7.00751335
 20
6.43848327
  0
VERTEX
  8
0
 10
7.00319400
 20
6.44290558
  0
VERTEX
  8
0
 10
7.00123776
 20
6.44799222
  0
VERTEX
  8
0
 10
7.00133031
 20
6.45309040
  0
VERTEX
  8
0
 10
7.00315734
 20
6.45754735
  0
VERTEX
  8
0
 10
7.00640456
 20
6.46071029
  0
VERTEX
  8
0
 10
7.01075765
 20
6.46192643
  0
SEQEND
  0
POLYLINE
  8
Default_Layer
 66
   1
 39
0.000000
 70
    1
  0
VERTEX
  8
0
 10
5.25884023
 20
6.16524167
  0
VERTEX
  8
0
 10
5.28146691
 20
6.14971788
  0
VERTEX
  8
0
 10
5.30448910
 20
6.13485348
  0
VERTEX
  8
0
 10
5.35163537
 20
6.10703203
  0
VERTEX
  8
0
 10
5.40010976
 20
6.08163571
  0
VERTEX
  8
0
 10
5.44974301
 20
6.05852292
  0
VERTEX
  8
0
 10
5.50036584
 20
6.03755205
  0
VERTEX
  8
0
 10
5.55180898
 20
6.01858151
  0
VERTEX
  8
0
 10
5.60390316
 20
6.00146969
  0
VERTEX
  8
0
 10
5.65647912
 20
5.98607500
  0
VERTEX
  8
0
 10
5.64628089
 20
5.93971052
  0
VERTEX
  8
0
 10
5.63480214
 20
5.89361623
  0
VERTEX
  8
0
 10
5.62204492
 20
5.84783769
  0
VERTEX
  8
0
 10
5.60801124
 20
5.80242048
  0
VERTEX
  8
0
 10
5.59270315
 20
5.75741018
  0
VERTEX
  8
0
 10
5.57612267
 20
5.71285234
  0
VERTEX
  8
0
 10
5.55827186
 20
5.66879256
  0
VERTEX
  8
0
 10
5.53915273
 20
5.62527639
  0
VERTEX
  8
0
 10
5.51876733
 20
5.58234941
  0
VERTEX
  8
0
 10
5.49711768
 20
5.54005720
  0
VERTEX
  8
0
 10
5.47420583
 20
5.49844533
  0
VERTEX
  8
0
 10
5.45003381
 20
5.45755937
  0
VERTEX
  8
0
 10
5.42460364
 20
5.41744490
  0
VERTEX
  8
0
 10
5.39791738
 20
5.37814748
  0
VERTEX
  8
0
 10
5.36997704
 20
5.33971269
  0
VERTEX
  8
0
 10
5.34078467
 20
5.30218611
  0
VERTEX
  8
0
 10
5.32845639
 20
5.28290734
  0
VERTEX
  8
0
 10
5.31545915
 20
5.26416690
  0
VERTEX
  8
0
 10
5.30183692
 20
5.24593672
  0
VERTEX
  8
0
 10
5.28763363
 20
5.22818871
  0
VERTEX
  8
0
 10
5.25765967
 20
5.19402693
  0
VERTEX
  8
0
 10
5.22588884
 20
5.16145694
  0
VERTEX
  8
0
 10
5.19267270
 20
5.13025414
  0
VERTEX
  8
0
 10
5.15836280
 20
5.10019392
  0
VERTEX
  8
0
 10
5.12331072
 20
5.07105167
  0
VERTEX
  8
0
 10
5.08786801
 20
5.04260278
  0
VERTEX
  8
0
 10
5.05094537
 20
5.01452789
  0
VERTEX
  8
0
 10
5.01322906
 20
4.98767168
  0
VERTEX
  8
0
 10
4.97476529
 20
4.96199304
  0
VERTEX
  8
0
 10
4.93560021
 20
4.93745087
  0
VERTEX
  8
0
 10
4.89578003
 20
4.91400408
  0
VERTEX
  8
0
 10
4.85535092
 20
4.89161157
  0
VERTEX
  8
0
 10
4.81435906
 20
4.87023224
  0
VERTEX
  8
0
 10
4.77285065
 20
4.84982500
  0
VERTEX
  8
0
 10
4.73087185
 20
4.83034875
  0
VERTEX
  8
0
 10
4.68846887
 20
4.81176239
  0
VERTEX
  8
0
 10
4.64568787
 20
4.79402483
  0
VERTEX
  8
0
 10
4.60257504
 20
4.77709496
  0
VERTEX
  8
0
 10
4.55917657
 20
4.76093170
  0
VERTEX
  8
0
 10
4.51553864
 20
4.74549394
  0
VERTEX
  8
0
 10
4.42772912
 20
4.71663055
  0
VERTEX
  8
0
 10
4.34728804
 20
4.69584442
  0
VERTEX
  8
0
 10
4.26638797
 20
4.67409149
  0
VERTEX
  8
0
 10
4.18503869
 20
4.65321747
  0
VERTEX
  8
0
 10
4.14419864
 20
4.64368683
  0
VERTEX
  8
0
 10
4.10324995
 20
4.63506805
  0
VERTEX
  8
0
 10
4.06219384
 20
4.62759186
  0
VERTEX
  8
0
 10
4.02103153
 20
4.62148895
  0
VERTEX
  8
0
 10
3.97976423
 20
4.61699005
  0
VERTEX
  8
0
 10
3.93839318
 20
4.61432587
  0
VERTEX
  8
0
 10
3.89691959
 20
4.61372711
  0
VERTEX
  8
0
 10
3.85534468
 20
4.61542450
  0
VERTEX
  8
0
 10
3.81366967
 20
4.61964874
  0
VERTEX
  8
0
 10
3.77189579
 20
4.62663055
  0
VERTEX
  8
0
 10
3.75269477
 20
4.63124556
  0
VERTEX
  8
0
 10
3.73441396
 20
4.63761308
  0
VERTEX
  8
0
 10
3.71705234
 20
4.64561066
  0
VERTEX
  8
0
 10
3.70060889
 20
4.65511580
  0
VERTEX
  8
0
 10
3.68508260
 20
4.66600603
  0
VERTEX
  8
0
 10
3.67047245
 20
4.67815887
  0
VERTEX
  8
0
 10
3.65677741
 20
4.69145186
  0
VERTEX
  8
0
 10
3.64399648
 20
4.70576250
  0
VERTEX
  8
0
 10
3.63212863
 20
4.72096832
  0
VERTEX
  8
0
 10
3.62117286
 20
4.73694685
  0
VERTEX
  8
0
 10
3.61112813
 20
4.75357561
  0
VERTEX
  8
0
 10
3.60199344
 20
4.77073212
  0
VERTEX
  8
0
 10
3.59376777
 20
4.78829390
  0
VERTEX
  8
0
 10
3.58645009
 20
4.80613848
  0
VERTEX
  8
0
 10
3.58003940
 20
4.82414337
  0
VERTEX
  8
0
 10
3.57453467
 20
4.84218611
  0
VERTEX
  8
0
 10
3.56852003
 20
4.86451287
  0
VERTEX
  8
0
 10
3.56415192
 20
4.88694604
  0
VERTEX
  8
0
 10
3.56131904
 20
4.90946181
  0
VERTEX
  8
0
 10
3.55991011
 20
4.93203637
  0
VERTEX
  8
0
 10
3.55981384
 20
4.95464593
  0
VERTEX
  8
0
 10
3.56091895
 20
4.97726668
  0
VERTEX
  8
0
 10
3.56311415
 20
4.99987481
  0
VERTEX
  8
0
 10
3.56628815
 20
5.02244653
  0
VERTEX
  8
0
 10
3.57032966
 20
5.04495802
  0
VERTEX
  8
0
 10
3.57512739
 20
5.06738549
  0
VERTEX
  8
0
 10
3.58654639
 20
5.11189314
  0
VERTEX
  8
0
 10
3.59965485
 20
5.15577905
  0
VERTEX
  8
0
 10
3.61356245
 20
5.19885278
  0
VERTEX
  8
0
 10
3.62461880
 20
5.23443392
  0
VERTEX
  8
0
 10
3.63647936
 20
5.26976010
  0
VERTEX
  8
0
 10
3.64913454
 20
5.30481477
  0
VERTEX
  8
0
 10
3.66257477
 20
5.33958140
  0
VERTEX
  8
0
 10
3.67679045
 20
5.37404347
  0
VERTEX
  8
0
 10
3.69177199
 20
5.40818444
  0
VERTEX
  8
0
 10
3.70750980
 20
5.44198779
  0
VERTEX
  8
0
 10
3.72399431
 20
5.47543698
  0
VERTEX
  8
0
 10
3.74121592
 20
5.50851548
  0
VERTEX
  8
0
 10
3.75916504
 20
5.54120677
  0
VERTEX
  8
0
 10
3.77783209
 20
5.57349431
  0
VERTEX
  8
0
 10
3.79720747
 20
5.60536157
  0
VERTEX
  8
0
 10
3.81728161
 20
5.63679202
  0
VERTEX
  8
0
 10
3.83804491
 20
5.66776913
  0
VERTEX
  8
0
 10
3.85948778
 20
5.69827638
  0
VERTEX
  8
0
 10
3.88160065
 20
5.72829722
  0
VERTEX
  8
0
 10
3.90437391
 20
5.75781514
  0
VERTEX
  8
0
 10
3.92779799
 20
5.78681359
  0
VERTEX
  8
0
 10
3.95186329
 20
5.81527606
  0
VERTEX
  8
0
 10
3.97656023
 20
5.84318600
  0
VERTEX
  8
0
 10
4.00187922
 20
5.87052689
  0
VERTEX
  8
0
 10
4.02781067
 20
5.89728221
  0
VERTEX
  8
0
 10
4.05434500
 20
5.92343541
  0
VERTEX
  8
0
 10
4.08147261
 20
5.94896996
  0
VERTEX
  8
0
 10
4.10918392
 20
5.97386935
  0
VERTEX
  8
0
 10
4.13746935
 20
5.99811703
  0
VERTEX
  8
0
 10
4.16631930
 20
6.02169648
  0
VERTEX
  8
0
 10
4.19572418
 20
6.04459117
  0
VERTEX
  8
0
 10
4.22567442
 20
6.06678456
  0
VERTEX
  8
0
 10
4.25616041
 20
6.08826013
  0
VERTEX
  8
0
 10
4.28717258
 20
6.10900134
  0
VERTEX
  8
0
 10
4.31870134
 20
6.12899167
  0
VERTEX
  8
0
 10
4.34311595
 20
6.14086178
  0
VERTEX
  8
0
 10
4.36716922
 20
6.15340573
  0
VERTEX
  8
0
 10
4.41467356
 20
6.17961667
  0
VERTEX
  8
0
 10
4.46217790
 20
6.20582760
  0
VERTEX
  8
0
 10
4.48623118
 20
6.21837155
  0
VERTEX
  8
0
 10
4.51064579
 20
6.23024167
  0
VERTEX
  8
0
 10
4.57109934
 20
6.25816023
  0
VERTEX
  8
0
 10
4.63232113
 20
6.28439748
  0
VERTEX
  8
0
 10
4.69425907
 20
6.30892575
  0
VERTEX
  8
0
 10
4.75686106
 20
6.33171736
  0
VERTEX
  8
0
 10
4.82007504
 20
6.35274465
  0
VERTEX
  8
0
 10
4.88384891
 20
6.37197995
  0
VERTEX
  8
0
 10
4.94813059
 20
6.38939558
  0
VERTEX
  8
0
 10
5.01286801
 20
6.40496389
  0
VERTEX
  8
0
 10
5.03463857
 20
6.38058238
  0
VERTEX
  8
0
 10
5.05591271
 20
6.35569305
  0
VERTEX
  8
0
 10
5.09837148
 20
6.30579722
  0
VERTEX
  8
0
 10
5.12025597
 20
6.28149384
  0
VERTEX
  8
0
 10
5.14304379
 20
6.25808889
  0
VERTEX
  8
0
 10
5.16708486
 20
6.23593394
  0
VERTEX
  8
0
 10
5.19272912
 20
6.21538055
  0
VERTEX
  8
0
 10
5.22565939
 20
6.19013364
  0
VERTEX
  8
0
 10
5.25884023
 20
6.16524167
  0
SEQEND
  0
POLYLINE
  8
Default_Layer
 66
   1
 39
0.000000
 70
    1
  0
VERTEX
  8
0
 10
6.44476460
 20
5.94428434
  0
VERTEX
  8
0
 10
6.50294045
 20
5.87264076
  0
VERTEX
  8
0
 10
6.55914488
 20
5.79936520
  0
VERTEX
  8
0
 10
6.58636818
 20
5.76207867
  0
VERTEX
  8
0
 10
6.61293108
 20
5.72434002
  0
VERTEX
  8
0
 10
6.63877773
 20
5.68613457
  0
VERTEX
  8
0
 10
6.66385228
 20
5.64744760
  0
VERTEX
  8
0
 10
6.68809888
 20
5.60826440
  0
VERTEX
  8
0
 10
6.71146169
 20
5.56857029
  0
VERTEX
  8
0
 10
6.73388486
 20
5.52835055
  0
VERTEX
  8
0
 10
6.75531253
 20
5.48759047
  0
VERTEX
  8
0
 10
6.77568886
 20
5.44627536
  0
VERTEX
  8
0
 10
6.79495801
 20
5.40439051
  0
VERTEX
  8
0
 10
6.81306412
 20
5.36192122
  0
VERTEX
  8
0
 10
6.82995134
 20
5.31885278
  0
VERTEX
  8
0
 10
6.84687381
 20
5.26429955
  0
VERTEX
  8
0
 10
6.86311757
 20
5.20948429
  0
VERTEX
  8
0
 10
6.87845964
 20
5.15439233
  0
VERTEX
  8
0
 10
6.89267704
 20
5.09900903
  0
VERTEX
  8
0
 10
6.90554677
 20
5.04331974
  0
VERTEX
  8
0
 10
6.91684587
 20
4.98730981
  0
VERTEX
  8
0
 10
6.92635135
 20
4.93096459
  0
VERTEX
  8
0
 10
6.93384023
 20
4.87426944
  0
VERTEX
  8
0
 10
6.90689579
 20
4.88204722
  0
VERTEX
  8
0
 10
6.89706017
 20
4.94012068
  0
VERTEX
  8
0
 10
6.88597131
 20
4.99796302
  0
VERTEX
  8
0
 10
6.87359989
 20
5.05553843
  0
VERTEX
  8
0
 10
6.85991662
 20
5.11281111
  0
VERTEX
  8
0
 10
6.84489221
 20
5.16974525
  0
VERTEX
  8
0
 10
6.82849735
 20
5.22630503
  0
VERTEX
  8
0
 10
6.81070275
 20
5.28245466
  0
VERTEX
  8
0
 10
6.79147912
 20
5.33815833
  0
VERTEX
  8
0
 10
6.77482950
 20
5.37800590
  0
VERTEX
  8
0
 10
6.75721376
 20
5.41737275
  0
VERTEX
  8
0
 10
6.73866748
 20
5.45626514
  0
VERTEX
  8
0
 10
6.71922626
 20
5.49468928
  0
VERTEX
  8
0
 10
6.69892570
 20
5.53265144
  0
VERTEX
  8
0
 10
6.67780138
 20
5.57015783
  0
VERTEX
  8
0
 10
6.65588891
 20
5.60721471
  0
VERTEX
  8
0
 10
6.63322387
 20
5.64382830
  0
VERTEX
  8
0
 10
6.60984186
 20
5.68000486
  0
VERTEX
  8
0
 10
6.58577848
 20
5.71575060
  0
VERTEX
  8
0
 10
6.56106932
 20
5.75107178
  0
VERTEX
  8
0
 10
6.53574998
 20
5.78597463
  0
VERTEX
  8
0
 10
6.48342310
 20
5.85455030
  0
VERTEX
  8
0
 10
6.42908261
 20
5.92152751
  0
VERTEX
  8
0
 10
6.42448305
 20
5.92882413
  0
VERTEX
  8
0
 10
6.42305962
 20
5.93523822
  0
VERTEX
  8
0
 10
6.42416137
 20
5.94057504
  0
VERTEX
  8
0
 10
6.42713734
 20
5.94463985
  0
VERTEX
  8
0
 10
6.43133660
 20
5.94723792
  0
VERTEX
  8
0
 10
6.43610819
 20
5.94817452
  0
VERTEX
  8
0
 10
6.44080117
 20
5.94725491
  0
VERTEX
  8
0
 10
6.44476460
 20
5.94428434
  0
SEQEND
  0
POLYLINE
  8
Default_Layer
 66
   1
 39
0.000000
 70
    1
  0
VERTEX
  8
0
 10
5.32453467
 20
5.22343611
  0
VERTEX
  8
0
 10
5.29242069
 20
5.18741614
  0
VERTEX
  8
0
 10
5.25913320
 20
5.15248993
  0
VERTEX
  8
0
 10
5.22472266
 20
5.11867048
  0
VERTEX
  8
0
 10
5.18923954
 20
5.08597083
  0
VERTEX
  8
0
 10
5.15273427
 20
5.05440399
  0
VERTEX
  8
0
 10
5.11525733
 20
5.02398298
  0
VERTEX
  8
0
 10
5.07685916
 20
4.99472083
  0
VERTEX
  8
0
 10
5.03759023
 20
4.96663055
  0
VERTEX
  8
0
 10
5.00310455
 20
4.94230927
  0
VERTEX
  8
0
 10
4.96751211
 20
4.91982066
  0
VERTEX
  8
0
 10
4.93104726
 20
4.89878387
  0
VERTEX
  8
0
 10
4.89394440
 20
4.87881805
  0
VERTEX
  8
0
 10
4.81876211
 20
4.84057587
  0
VERTEX
  8
0
 10
4.74384023
 20
4.80204722
  0
VERTEX
  8
0
 10
4.73390198
 20
4.77788083
  0
VERTEX
  8
0
 10
4.72484853
 20
4.75337101
  0
VERTEX
  8
0
 10
4.71664998
 20
4.72854869
  0
VERTEX
  8
0
 10
4.70927643
 20
4.70344479
  0
VERTEX
  8
0
 10
4.70269796
 20
4.67809024
  0
VERTEX
  8
0
 10
4.69688466
 20
4.65251597
  0
VERTEX
  8
0
 10
4.68743398
 20
4.60083194
  0
VERTEX
  8
0
 10
4.68068512
 20
4.54864010
  0
VERTEX
  8
0
 10
4.67639882
 20
4.49618785
  0
VERTEX
  8
0
 10
4.67433584
 20
4.44372257
  0
VERTEX
  8
0
 10
4.67425690
 20
4.39149167
  0
VERTEX
  8
0
 10
4.67535508
 20
4.36872606
  0
VERTEX
  8
0
 10
4.67720737
 20
4.34608721
  0
VERTEX
  8
0
 10
4.68311459
 20
4.30123125
  0
VERTEX
  8
0
 10
4.69185913
 20
4.25700680
  0
VERTEX
  8
0
 10
4.70332157
 20
4.21349687
  0
VERTEX
  8
0
 10
4.71738247
 20
4.17078447
  0
VERTEX
  8
0
 10
4.73392242
 20
4.12895260
  0
VERTEX
  8
0
 10
4.75282199
 20
4.08808428
  0
VERTEX
  8
0
 10
4.77396176
 20
4.04826250
  0
VERTEX
  8
0
 10
4.79722229
 20
4.00957028
  0
VERTEX
  8
0
 10
4.82248416
 20
3.97209062
  0
VERTEX
  8
0
 10
4.84962796
 20
3.93590654
  0
VERTEX
  8
0
 10
4.87853424
 20
3.90110104
  0
VERTEX
  8
0
 10
4.90908359
 20
3.86775713
  0
VERTEX
  8
0
 10
4.94115658
 20
3.83595781
  0
VERTEX
  8
0
 10
4.97463379
 20
3.80578610
  0
VERTEX
  8
0
 10
5.00939579
 20
3.77732500
  0
VERTEX
  8
0
 10
5.02371616
 20
3.76676453
  0
VERTEX
  8
0
 10
5.03866581
 20
3.75694278
  0
VERTEX
  8
0
 10
5.05418064
 20
3.74791490
  0
VERTEX
  8
0
 10
5.07019657
 20
3.73973602
  0
VERTEX
  8
0
 10
5.08664951
 20
3.73246128
  0
VERTEX
  8
0
 10
5.10347538
 20
3.72614580
  0
VERTEX
  8
0
 10
5.12061008
 20
3.72084473
  0
VERTEX
  8
0
 10
5.13798954
 20
3.71661319
  0
VERTEX
  8
0
 10
5.15554966
 20
3.71350633
  0
VERTEX
  8
0
 10
5.17322635
 20
3.71157928
  0
VERTEX
  8
0
 10
5.19095554
 20
3.71088718
  0
VERTEX
  8
0
 10
5.20867313
 20
3.71148515
  0
VERTEX
  8
0
 10
5.22631504
 20
3.71342834
  0
VERTEX
  8
0
 10
5.24381717
 20
3.71677188
  0
VERTEX
  8
0
 10
5.26111545
 20
3.72157091
  0
VERTEX
  8
0
 10
5.27814579
 20
3.72788055
  0
VERTEX
  8
0
 10
5.33383453
 20
3.75844099
  0
VERTEX
  8
0
 10
5.38930681
 20
3.78991614
  0
VERTEX
  8
0
 10
5.44404666
 20
3.82277802
  0
VERTEX
  8
0
 10
5.49753815
 20
3.85749861
  0
VERTEX
  8
0
 10
5.52365451
 20
3.87570343
  0
VERTEX
  8
0
 10
5.54926531
 20
3.89454993
  0
VERTEX
  8
0
 10
5.57430603
 20
3.91409712
  0
VERTEX
  8
0
 10
5.59871219
 20
3.93440399
  0
VERTEX
  8
0
 10
5.62241930
 20
3.95552955
  0
VERTEX
  8
0
 10
5.64536285
 20
3.97753279
  0
VERTEX
  8
0
 10
5.66747837
 20
4.00047272
  0
VERTEX
  8
0
 10
5.68870134
 20
4.02440833
  0
VERTEX
  8
0
 10
5.71629113
 20
4.06027286
  0
VERTEX
  8
0
 10
5.74329987
 20
4.09666311
  0
VERTEX
  8
0
 10
5.76952410
 20
4.13364905
  0
VERTEX
  8
0
 10
5.79476037
 20
4.17130069
  0
VERTEX
  8
0
 10
5.81880524
 20
4.20968801
  0
VERTEX
  8
0
 10
5.84145525
 20
4.24888099
  0
VERTEX
  8
0
 10
5.86250695
 20
4.28894962
  0
VERTEX
  8
0
 10
5.88175690
 20
4.32996389
  0
VERTEX
  8
0
 10
5.89967601
 20
4.37680145
  0
VERTEX
  8
0
 10
5.91625559
 20
4.42416962
  0
VERTEX
  8
0
 10
5.93135406
 20
4.47203908
  0
VERTEX
  8
0
 10
5.94482981
 20
4.52038055
  0
VERTEX
  8
0
 10
5.95654124
 20
4.56916473
  0
VERTEX
  8
0
 10
5.96634674
 20
4.61836233
  0
VERTEX
  8
0
 10
5.97410472
 20
4.66794403
  0
VERTEX
  8
0
 10
5.97967356
 20
4.71788055
  0
VERTEX
  8
0
 10
5.95115122
 20
4.74173930
  0
VERTEX
  8
0
 10
5.92327871
 20
4.76643280
  0
VERTEX
  8
0
 10
5.89611338
 20
4.79194946
  0
VERTEX
  8
0
 10
5.86971263
 20
4.81827769
  0
VERTEX
  8
0
 10
5.84413381
 20
4.84540588
  0
VERTEX
  8
0
 10
5.81943431
 20
4.87332245
  0
VERTEX
  8
0
 10
5.79567149
 20
4.90201579
  0
VERTEX
  8
0
 10
5.77290273
 20
4.93147430
  0
VERTEX
  8
0
 10
5.75118540
 20
4.96168640
  0
VERTEX
  8
0
 10
5.73057688
 20
4.99264048
  0
VERTEX
  8
0
 10
5.71113454
 20
5.02432495
  0
VERTEX
  8
0
 10
5.69291575
 20
5.05672821
  0
VERTEX
  8
0
 10
5.67597788
 20
5.08983866
  0
VERTEX
  8
0
 10
5.66037832
 20
5.12364471
  0
VERTEX
  8
0
 10
5.64617442
 20
5.15813477
  0
VERTEX
  8
0
 10
5.63342356
 20
5.19329722
  0
VERTEX
  8
0
 10
5.62443675
 20
5.22280158
  0
VERTEX
  8
0
 10
5.61632721
 20
5.25254825
  0
VERTEX
  8
0
 10
5.60909007
 20
5.28251261
  0
VERTEX
  8
0
 10
5.60272044
 20
5.31267005
  0
VERTEX
  8
0
 10
5.59721344
 20
5.34299594
  0
VERTEX
  8
0
 10
5.59256419
 20
5.37346568
  0
VERTEX
  8
0
 10
5.58876780
 20
5.40405463
  0
VERTEX
  8
0
 10
5.58581940
 20
5.43473819
  0
VERTEX
  8
0
 10
5.58371409
 20
5.46549174
  0
VERTEX
  8
0
 10
5.58244700
 20
5.49629066
  0
VERTEX
  8
0
 10
5.58201324
 20
5.52711032
  0
VERTEX
  8
0
 10
5.58240794
 20
5.55792613
  0
VERTEX
  8
0
 10
5.58362620
 20
5.58871345
  0
VERTEX
  8
0
 10
5.58566315
 20
5.61944767
  0
VERTEX
  8
0
 10
5.58851390
 20
5.65010417
  0
VERTEX
  8
0
 10
5.59217356
 20
5.68065833
  0
VERTEX
  8
0
 10
5.58086555
 20
5.64919295
  0
VERTEX
  8
0
 10
5.56840864
 20
5.61831024
  0
VERTEX
  8
0
 10
5.55489421
 20
5.58796790
  0
VERTEX
  8
0
 10
5.54041358
 20
5.55812361
  0
VERTEX
  8
0
 10
5.52505812
 20
5.52873505
  0
VERTEX
  8
0
 10
5.50891917
 20
5.49975989
  0
VERTEX
  8
0
 10
5.47465620
 20
5.44288055
  0
VERTEX
  8
0
 10
5.43835548
 20
5.38714705
  0
VERTEX
  8
0
 10
5.40074778
 20
5.33222083
  0
VERTEX
  8
0
 10
5.32453467
 20
5.22343611
  0
SEQEND
  0
POLYLINE
  8
Default_Layer
 66
   1
 39
0.000000
 70
    1
  0
VERTEX
  8
0
 10
7.37009023
 20
5.16676944
  0
VERTEX
  8
0
 10
7.41372331
 20
5.12701114
  0
VERTEX
  8
0
 10
7.45561323
 20
5.08549991
  0
VERTEX
  8
0
 10
7.49630849
 20
5.04278751
  0
VERTEX
  8
0
 10
7.53635759
 20
4.99942569
  0
VERTEX
  8
0
 10
7.57630903
 20
4.95596622
  0
VERTEX
  8
0
 10
7.61671132
 20
4.91296085
  0
VERTEX
  8
0
 10
7.65811296
 20
4.87096134
  0
VERTEX
  8
0
 10
7.70106245
 20
4.83051944
  0
VERTEX
  8
0
 10
7.73699290
 20
4.78912025
  0
VERTEX
  8
0
 10
7.77202165
 20
4.74695608
  0
VERTEX
  8
0
 10
7.80622359
 20
4.70410831
  0
VERTEX
  8
0
 10
7.83967356
 20
4.66065833
  0
VERTEX
  8
0
 10
7.87244646
 20
4.61668752
  0
VERTEX
  8
0
 10
7.90461714
 20
4.57227726
  0
VERTEX
  8
0
 10
7.96745134
 20
4.48246389
  0
VERTEX
  8
0
 10
7.97554162
 20
4.46831241
  0
VERTEX
  8
0
 10
7.97909197
 20
4.46013234
  0
VERTEX
  8
0
 10
7.98134023
 20
4.45216875
  0
VERTEX
  8
0
 10
7.98155724
 20
4.44513614
  0
VERTEX
  8
0
 10
7.98067617
 20
4.44219225
  0
VERTEX
  8
0
 10
7.97901384
 20
4.43974904
  0
VERTEX
  8
0
 10
7.97647912
 20
4.43789585
  0
VERTEX
  8
0
 10
7.97298086
 20
4.43672197
  0
VERTEX
  8
0
 10
7.96842790
 20
4.43631673
  0
VERTEX
  8
0
 10
7.96272912
 20
4.43676944
  0
VERTEX
  8
0
 10
7.84720829
 20
4.59918264
  0
VERTEX
  8
0
 10
7.78819787
 20
4.67948429
  0
VERTEX
  8
0
 10
7.75776493
 20
4.71893606
  0
VERTEX
  8
0
 10
7.72647912
 20
4.75774167
  0
VERTEX
  8
0
 10
7.71187219
 20
4.77601695
  0
VERTEX
  8
0
 10
7.69602990
 20
4.79308455
  0
VERTEX
  8
0
 10
7.67935754
 20
4.80933834
  0
VERTEX
  8
0
 10
7.66226037
 20
4.82517222
  0
VERTEX
  8
0
 10
7.62841271
 20
4.85715573
  0
VERTEX
  8
0
 10
7.61247277
 20
4.87409312
  0
VERTEX
  8
0
 10
7.59772912
 20
4.89218611
  0
VERTEX
  8
0
 10
7.53979619
 20
4.95511836
  0
VERTEX
  8
0
 10
7.48148565
 20
5.01772596
  0
VERTEX
  8
0
 10
7.42212362
 20
5.07928923
  0
VERTEX
  8
0
 10
7.39183772
 20
5.10945435
  0
VERTEX
  8
0
 10
7.36103625
 20
5.13908851
  0
VERTEX
  8
0
 10
7.35496027
 20
5.14634942
  0
VERTEX
  8
0
 10
7.35219880
 20
5.15298668
  0
VERTEX
  8
0
 10
7.35212427
 20
5.15876915
  0
VERTEX
  8
0
 10
7.35410909
 20
5.16346569
  0
VERTEX
  8
0
 10
7.35752568
 20
5.16684513
  0
VERTEX
  8
0
 10
7.36174645
 20
5.16867634
  0
VERTEX
  8
0
 10
7.36614383
 20
5.16872816
  0
VERTEX
  8
0
 10
7.37009023
 20
5.16676944
  0
SEQEND
  0
POLYLINE
  8
Default_Layer
 66
   1
 39
0.000000
 70
    1
  0
VERTEX
  8
0
 10
4.27052790
 20
4.56896613
  0
VERTEX
  8
0
 10
4.25205419
 20
4.54851395
  0
VERTEX
  8
0
 10
4.23444416
 20
4.52724907
  0
VERTEX
  8
0
 10
4.21766949
 20
4.50523460
  0
VERTEX
  8
0
 10
4.20170186
 20
4.48253364
  0
VERTEX
  8
0
 10
4.18651294
 20
4.45920931
  0
VERTEX
  8
0
 10
4.17207440
 20
4.43532470
  0
VERTEX
  8
0
 10
4.15835793
 20
4.41094292
  0
VERTEX
  8
0
 10
4.14533519
 20
4.38612709
  0
VERTEX
  8
0
 10
4.12125765
 20
4.33544568
  0
VERTEX
  8
0
 10
4.09961519
 20
4.28378533
  0
VERTEX
  8
0
 10
4.08018120
 20
4.23165089
  0
VERTEX
  8
0
 10
4.06272912
 20
4.17954722
  0
VERTEX
  8
0
 10
4.05718441
 20
4.16361081
  0
VERTEX
  8
0
 10
4.05290273
 20
4.14671736
  0
VERTEX
  8
0
 10
4.04903771
 20
4.12945933
  0
VERTEX
  8
0
 10
4.04474301
 20
4.11242917
  0
VERTEX
  8
0
 10
4.03917226
 20
4.09621931
  0
VERTEX
  8
0
 10
4.03564389
 20
4.08860714
  0
VERTEX
  8
0
 10
4.03147912
 20
4.08142222
  0
VERTEX
  8
0
 10
4.02657216
 20
4.07473860
  0
VERTEX
  8
0
 10
4.02081723
 20
4.06863034
  0
VERTEX
  8
0
 10
4.01410851
 20
4.06317149
  0
VERTEX
  8
0
 10
4.00634023
 20
4.05843611
  0
VERTEX
  8
0
 10
4.00862973
 20
4.08374698
  0
VERTEX
  8
0
 10
4.01252079
 20
4.10876163
  0
VERTEX
  8
0
 10
4.01776601
 20
4.13350935
  0
VERTEX
  8
0
 10
4.02411801
 20
4.15801944
  0
VERTEX
  8
0
 10
4.03915273
 20
4.20644392
  0
VERTEX
  8
0
 10
4.05564579
 20
4.25426944
  0
VERTEX
  8
0
 10
4.07222239
 20
4.29870900
  0
VERTEX
  8
0
 10
4.09044613
 20
4.34254635
  0
VERTEX
  8
0
 10
4.11040165
 20
4.38562198
  0
VERTEX
  8
0
 10
4.13217356
 20
4.42777639
  0
VERTEX
  8
0
 10
4.15584652
 20
4.46885006
  0
VERTEX
  8
0
 10
4.18150516
 20
4.50868351
  0
VERTEX
  8
0
 10
4.20923411
 20
4.54711721
  0
VERTEX
  8
0
 10
4.23911801
 20
4.58399167
  0
VERTEX
  8
0
 10
4.24334592
 20
4.58831581
  0
VERTEX
  8
0
 10
4.24748668
 20
4.59145698
  0
VERTEX
  8
0
 10
4.25149425
 20
4.59351829
  0
VERTEX
  8
0
 10
4.25532260
 20
4.59460285
  0
VERTEX
  8
0
 10
4.25892570
 20
4.59481379
  0
VERTEX
  8
0
 10
4.26225751
 20
4.59425422
  0
VERTEX
  8
0
 10
4.26792316
 20
4.59123601
  0
VERTEX
  8
0
 10
4.27195128
 20
4.58637316
  0
VERTEX
  8
0
 10
4.27397361
 20
4.58049061
  0
VERTEX
  8
0
 10
4.27362191
 20
4.57441329
  0
VERTEX
  8
0
 10
4.27244071
 20
4.57155938
  0
VERTEX
  8
0
 10
4.27052790
 20
4.56896613
  0
SEQEND
  0
POLYLINE
  8
Default_Layer
 66
   1
 39
0.000000
 70
    1
  0
VERTEX
  8
0
 10
7.25036801
 20
4.51885278
  0
VERTEX
  8
0
 10
7.25809669
 20
4.47927351
  0
VERTEX
  8
0
 10
7.26477556
 20
4.43951033
  0
VERTEX
  8
0
 10
7.27033139
 20
4.39958764
  0
VERTEX
  8
0
 10
7.27469092
 20
4.35952986
  0
VERTEX
  8
0
 10
7.27778093
 20
4.31936140
  0
VERTEX
  8
0
 10
7.27952816
 20
4.27910668
  0
VERTEX
  8
0
 10
7.27985938
 20
4.23879011
  0
VERTEX
  8
0
 10
7.27870134
 20
4.19843611
  0
VERTEX
  8
0
 10
7.31896528
 20
4.21921465
  0
VERTEX
  8
0
 10
7.36029205
 20
4.23773733
  0
VERTEX
  8
0
 10
7.40254656
 20
4.25406599
  0
VERTEX
  8
0
 10
7.44559370
 20
4.26826250
  0
VERTEX
  8
0
 10
7.48929840
 20
4.28038869
  0
VERTEX
  8
0
 10
7.53352556
 20
4.29050642
  0
VERTEX
  8
0
 10
7.57814009
 20
4.29867754
  0
VERTEX
  8
0
 10
7.62300690
 20
4.30496389
  0
VERTEX
  8
0
 10
7.57355594
 20
4.32637936
  0
VERTEX
  8
0
 10
7.52489926
 20
4.34943871
  0
VERTEX
  8
0
 10
7.47704987
 20
4.37408010
  0
VERTEX
  8
0
 10
7.43002079
 20
4.40024167
  0
VERTEX
  8
0
 10
7.38382504
 20
4.42786157
  0
VERTEX
  8
0
 10
7.33847565
 20
4.45687795
  0
VERTEX
  8
0
 10
7.29398563
 20
4.48722897
  0
VERTEX
  8
0
 10
7.25036801
 20
4.51885278
  0
SEQEND
  0
POLYLINE
  8
Default_Layer
 66
   1
 39
0.000000
 70
    1
  0
VERTEX
  8
0
 10
5.89050690
 20
4.25621389
  0
VERTEX
  8
0
 10
5.92067400
 20
4.20040877
  0
VERTEX
  8
0
 10
5.95215620
 20
4.14529375
  0
VERTEX
  8
0
 10
5.96865495
 20
4.11819441
  0
VERTEX
  8
0
 10
5.98579987
 20
4.09150686
  0
VERTEX
  8
0
 10
6.00369673
 20
4.06531084
  0
VERTEX
  8
0
 10
6.02245134
 20
4.03968611
  0
VERTEX
  8
0
 10
6.04845964
 20
3.99139699
  0
VERTEX
  8
0
 10
6.07369483
 20
3.94269609
  0
VERTEX
  8
0
 10
6.09819109
 20
3.89361433
  0
VERTEX
  8
0
 10
6.12198259
 20
3.84418264
  0
VERTEX
  8
0
 10
6.16758806
 20
3.74439314
  0
VERTEX
  8
0
 10
6.21078467
 20
3.64357500
  0
VERTEX
  8
0
 10
6.27507070
 20
3.46668264
  0
VERTEX
  8
0
 10
6.30607032
 20
3.37780351
  0
VERTEX
  8
0
 10
6.33590620
 20
3.28854028
  0
VERTEX
  8
0
 10
6.36427724
 20
3.19882131
  0
VERTEX
  8
0
 10
6.39088233
 20
3.10857500
  0
VERTEX
  8
0
 10
6.41542036
 20
3.01772973
  0
VERTEX
  8
0
 10
6.43759023
 20
2.92621389
  0
VERTEX
  8
0
 10
6.45876373
 20
2.82977915
  0
VERTEX
  8
0
 10
6.47854075
 20
2.73299123
  0
VERTEX
  8
0
 10
6.49677480
 20
2.63587453
  0
VERTEX
  8
0
 10
6.51331940
 20
2.53845347
  0
VERTEX
  8
0
 10
6.52802806
 20
2.44075246
  0
VERTEX
  8
0
 10
6.54075429
 20
2.34279592
  0
VERTEX
  8
0
 10
6.55135162
 20
2.24460826
  0
VERTEX
  8
0
 10
6.55967356
 20
2.14621389
  0
VERTEX
  8
0
 10
6.63838884
 20
2.17446042
  0
VERTEX
  8
0
 10
6.71772912
 20
2.20093611
  0
VERTEX
  8
0
 10
6.67226688
 20
2.59139835
  0
VERTEX
  8
0
 10
6.62642704
 20
2.98182153
  0
VERTEX
  8
0
 10
6.58134240
 20
3.37232283
  0
VERTEX
  8
0
 10
6.53814579
 20
3.76301944
  0
VERTEX
  8
0
 10
6.52913781
 20
3.77168969
  0
VERTEX
  8
0
 10
6.51941532
 20
3.77941267
  0
VERTEX
  8
0
 10
6.49851037
 20
3.79291528
  0
VERTEX
  8
0
 10
6.47679813
 20
3.80532413
  0
VERTEX
  8
0
 10
6.45564579
 20
3.81843611
  0
VERTEX
  8
0
 10
6.42782535
 20
3.83699677
  0
VERTEX
  8
0
 10
6.40051069
 20
3.85625729
  0
VERTEX
  8
0
 10
6.37370304
 20
3.87619490
  0
VERTEX
  8
0
 10
6.34740360
 20
3.89678680
  0
VERTEX
  8
0
 10
6.32161360
 20
3.91801022
  0
VERTEX
  8
0
 10
6.29633426
 20
3.93984236
  0
VERTEX
  8
0
 10
6.27156681
 20
3.96226044
  0
VERTEX
  8
0
 10
6.24731245
 20
3.98524167
  0
VERTEX
  8
0
 10
6.20034793
 20
4.03280243
  0
VERTEX
  8
0
 10
6.15545047
 20
4.08234236
  0
VERTEX
  8
0
 10
6.11262984
 20
4.13367917
  0
VERTEX
  8
0
 10
6.07189579
 20
4.18663055
  0
VERTEX
  8
0
 10
6.05468686
 20
4.21001733
  0
VERTEX
  8
0
 10
6.03656809
 20
4.23268307
  0
VERTEX
  8
0
 10
5.99927426
 20
4.27713403
  0
VERTEX
  8
0
 10
5.98093577
 20
4.29956051
  0
VERTEX
  8
0
 10
5.96336063
 20
4.32254852
  0
VERTEX
  8
0
 10
5.94696713
 20
4.34641869
  0
VERTEX
  8
0
 10
5.93217356
 20
4.37149167
  0
VERTEX
  8
0
 10
5.92610504
 20
4.35746931
  0
VERTEX
  8
0
 10
5.91935455
 20
4.34347951
  0
VERTEX
  8
0
 10
5.90566315
 20
4.31531111
  0
VERTEX
  8
0
 10
5.89964996
 20
4.30098928
  0
VERTEX
  8
0
 10
5.89481028
 20
4.28641354
  0
VERTEX
  8
0
 10
5.89160797
 20
4.27151228
  0
VERTEX
  8
0
 10
5.89050690
 20
4.25621389
  0
SEQEND
  0
POLYLINE
  8
Default_Layer
 66
   1
 39
0.000000
 70
    1
  0
VERTEX
  8
0
 10
7.88117876
 20
4.13244148
  0
VERTEX
  8
0
 10
7.87702737
 20
4.11549621
  0
VERTEX
  8
0
 10
7.87449205
 20
4.09842402
  0
VERTEX
  8
0
 10
7.87343836
 20
4.08126084
  0
VERTEX
  8
0
 10
7.87373184
 20
4.06404262
  0
VERTEX
  8
0
 10
7.87523805
 20
4.04680528
  0
VERTEX
  8
0
 10
7.87782253
 20
4.02958474
  0
VERTEX
  8
0
 10
7.88135084
 20
4.01241694
  0
VERTEX
  8
0
 10
7.88568852
 20
3.99533782
  0
VERTEX
  8
0
 10
7.85846630
 20
4.00394893
  0
VERTEX
  8
0
 10
7.85184073
 20
4.02079320
  0
VERTEX
  8
0
 10
7.84761633
 20
4.03792734
  0
VERTEX
  8
0
 10
7.84543849
 20
4.05528896
  0
VERTEX
  8
0
 10
7.84495255
 20
4.07281570
  0
VERTEX
  8
0
 10
7.84580388
 20
4.09044517
  0
VERTEX
  8
0
 10
7.84763786
 20
4.10811499
  0
VERTEX
  8
0
 10
7.85283520
 20
4.14332618
  0
VERTEX
  8
0
 10
7.85371380
 20
4.14652337
  0
VERTEX
  8
0
 10
7.85519020
 20
4.14918428
  0
VERTEX
  8
0
 10
7.85952603
 20
4.15291379
  0
VERTEX
  8
0
 10
7.86502197
 20
4.15454775
  0
VERTEX
  8
0
 10
7.87085733
 20
4.15411923
  0
VERTEX
  8
0
 10
7.87621139
 20
4.15166128
  0
VERTEX
  8
0
 10
7.88026345
 20
4.14720697
  0
VERTEX
  8
0
 10
7.88154476
 20
4.14424151
  0
VERTEX
  8
0
 10
7.88219281
 20
4.14078935
  0
VERTEX
  8
0
 10
7.88210500
 20
4.13685463
  0
VERTEX
  8
0
 10
7.88117876
 20
4.13244148
  0
SEQEND
  0
POLYLINE
  8
Default_Layer
 66
   1
 39
0.000000
 70
    1
  0
VERTEX
  8
0
 10
6.56925690
 20
3.75426944
  0
VERTEX
  8
0
 10
6.57234690
 20
3.71067705
  0
VERTEX
  8
0
 10
6.57639882
 20
3.66717092
  0
VERTEX
  8
0
 10
6.58607981
 20
3.58029375
  0
VERTEX
  8
0
 10
6.59568268
 20
3.49339054
  0
VERTEX
  8
0
 10
6.59963694
 20
3.44985185
  0
VERTEX
  8
0
 10
6.60259023
 20
3.40621389
  0
VERTEX
  8
0
 10
6.66324344
 20
3.44181068
  0
VERTEX
  8
0
 10
6.72302426
 20
3.47880069
  0
VERTEX
  8
0
 10
6.78272695
 20
3.51592092
  0
VERTEX
  8
0
 10
6.84314579
 20
3.55190833
  0
VERTEX
  8
0
 10
6.85472565
 20
3.61735972
  0
VERTEX
  8
0
 10
6.86495134
 20
3.68301944
  0
VERTEX
  8
0
 10
6.84548370
 20
3.68168033
  0
VERTEX
  8
0
 10
6.82614383
 20
3.68142114
  0
VERTEX
  8
0
 10
6.80693254
 20
3.68217594
  0
VERTEX
  8
0
 10
6.78785065
 20
3.68387882
  0
VERTEX
  8
0
 10
6.76889896
 20
3.68646386
  0
VERTEX
  8
0
 10
6.75007829
 20
3.68986515
  0
VERTEX
  8
0
 10
6.71283329
 20
3.69885278
  0
VERTEX
  8
0
 10
6.67612213
 20
3.71031436
  0
VERTEX
  8
0
 10
6.63995134
 20
3.72372257
  0
VERTEX
  8
0
 10
6.60432743
 20
3.73855004
  0
VERTEX
  8
0
 10
6.56925690
 20
3.75426944
  0
SEQEND
  0
POLYLINE
  8
Default_Layer
 66
   1
 39
0.000000
 70
    1
  0
VERTEX
  8
0
 10
5.86870134
 20
7.45357500
  0
VERTEX
  8
0
 10
5.90019775
 20
7.45560194
  0
VERTEX
  8
0
 10
5.93183150
 20
7.45665253
  0
VERTEX
  8
0
 10
5.96353807
 20
7.45668138
  0
VERTEX
  8
0
 10
5.99525299
 20
7.45564314
  0
VERTEX
  8
0
 10
6.02691176
 20
7.45349243
  0
VERTEX
  8
0
 10
6.05844988
 20
7.45018389
  0
VERTEX
  8
0
 10
6.08980286
 20
7.44567213
  0
VERTEX
  8
0
 10
6.12090620
 20
7.43991180
  0
VERTEX
  8
0
 10
6.15169542
 20
7.43285753
  0
VERTEX
  8
0
 10
6.18210602
 20
7.42446394
  0
VERTEX
  8
0
 10
6.21207350
 20
7.41468567
  0
VERTEX
  8
0
 10
6.24153337
 20
7.40347734
  0
VERTEX
  8
0
 10
6.27042114
 20
7.39079359
  0
VERTEX
  8
0
 10
6.29867232
 20
7.37658905
  0
VERTEX
  8
0
 10
6.32622240
 20
7.36081835
  0
VERTEX
  8
0
 10
6.35300690
 20
7.34343611
  0
VERTEX
  8
0
 10
6.37235229
 20
7.32954651
  0
VERTEX
  8
0
 10
6.39129873
 20
7.31502112
  0
VERTEX
  8
0
 10
6.40980530
 20
7.29987196
  0
VERTEX
  8
0
 10
6.42783112
 20
7.28411102
  0
VERTEX
  8
0
 10
6.44533529
 20
7.26775031
  0
VERTEX
  8
0
 10
6.46227692
 20
7.25080183
  0
VERTEX
  8
0
 10
6.47861511
 20
7.23327759
  0
VERTEX
  8
0
 10
6.49430898
 20
7.21518958
  0
VERTEX
  8
0
 10
6.50931763
 20
7.19654982
  0
VERTEX
  8
0
 10
6.52360016
 20
7.17737030
  0
VERTEX
  8
0
 10
6.53711568
 20
7.15766303
  0
VERTEX
  8
0
 10
6.54982330
 20
7.13744002
  0
VERTEX
  8
0
 10
6.56168213
 20
7.11671326
  0
VERTEX
  8
0
 10
6.57265127
 20
7.09549476
  0
VERTEX
  8
0
 10
6.58268982
 20
7.07379652
  0
VERTEX
  8
0
 10
6.59175690
 20
7.05163055
  0
VERTEX
  8
0
 10
6.59952871
 20
7.02702016
  0
VERTEX
  8
0
 10
6.60626862
 20
7.00207815
  0
VERTEX
  8
0
 10
6.61195709
 20
6.97685699
  0
VERTEX
  8
0
 10
6.61657461
 20
6.95140920
  0
VERTEX
  8
0
 10
6.62010162
 20
6.92578725
  0
VERTEX
  8
0
 10
6.62251862
 20
6.90004364
  0
VERTEX
  8
0
 10
6.62380605
 20
6.87423086
  0
VERTEX
  8
0
 10
6.62394440
 20
6.84840139
  0
VERTEX
  8
0
 10
6.62291412
 20
6.82260773
  0
VERTEX
  8
0
 10
6.62069570
 20
6.79690236
  0
VERTEX
  8
0
 10
6.61726959
 20
6.77133779
  0
VERTEX
  8
0
 10
6.61261627
 20
6.74596649
  0
VERTEX
  8
0
 10
6.60671621
 20
6.72084096
  0
VERTEX
  8
0
 10
6.59954987
 20
6.69601369
  0
VERTEX
  8
0
 10
6.59109772
 20
6.67153717
  0
VERTEX
  8
0
 10
6.58134023
 20
6.64746389
  0
VERTEX
  8
0
 10
6.56588477
 20
6.61517344
  0
VERTEX
  8
0
 10
6.54844527
 20
6.58405568
  0
VERTEX
  8
0
 10
6.52913076
 20
6.55414724
  0
VERTEX
  8
0
 10
6.50805030
 20
6.52548472
  0
VERTEX
  8
0
 10
6.48531294
 20
6.49810476
  0
VERTEX
  8
0
 10
6.46102773
 20
6.47204397
  0
VERTEX
  8
0
 10
6.43530372
 20
6.44733897
  0
VERTEX
  8
0
 10
6.40824995
 20
6.42402639
  0
VERTEX
  8
0
 10
6.37997548
 20
6.40214284
  0
VERTEX
  8
0
 10
6.35058936
 20
6.38172496
  0
VERTEX
  8
0
 10
6.32020064
 20
6.36280935
  0
VERTEX
  8
0
 10
6.28891836
 20
6.34543264
  0
VERTEX
  8
0
 10
6.25685157
 20
6.32963145
  0
VERTEX
  8
0
 10
6.22410933
 20
6.31544240
  0
VERTEX
  8
0
 10
6.19080068
 20
6.30290212
  0
VERTEX
  8
0
 10
6.15703467
 20
6.29204722
  0
VERTEX
  8
0
 10
6.13848033
 20
6.28649031
  0
VERTEX
  8
0
 10
6.11980431
 20
6.28175859
  0
VERTEX
  8
0
 10
6.08213450
 20
6.27452986
  0
VERTEX
  8
0
 10
6.04411964
 20
6.26987925
  0
VERTEX
  8
0
 10
6.00585412
 20
6.26732500
  0
VERTEX
  8
0
 10
5.96743235
 20
6.26638533
  0
VERTEX
  8
0
 10
5.92894874
 20
6.26657847
  0
VERTEX
  8
0
 10
5.85217356
 20
6.26843611
  0
VERTEX
  8
0
 10
5.81339634
 20
6.27384661
  0
VERTEX
  8
0
 10
5.77491147
 20
6.28145315
  0
VERTEX
  8
0
 10
5.73684855
 20
6.29120894
  0
VERTEX
  8
0
 10
5.69933719
 20
6.30306719
  0
VERTEX
  8
0
 10
5.66250699
 20
6.31698110
  0
VERTEX
  8
0
 10
5.62648753
 20
6.33290388
  0
VERTEX
  8
0
 10
5.59140842
 20
6.35078874
  0
VERTEX
  8
0
 10
5.55739926
 20
6.37058889
  0
VERTEX
  8
0
 10
5.52458964
 20
6.39225752
  0
VERTEX
  8
0
 10
5.49310916
 20
6.41574785
  0
VERTEX
  8
0
 10
5.46308743
 20
6.44101308
  0
VERTEX
  8
0
 10
5.43465403
 20
6.46800642
  0
VERTEX
  8
0
 10
5.40793857
 20
6.49668108
  0
VERTEX
  8
0
 10
5.38307064
 20
6.52699025
  0
VERTEX
  8
0
 10
5.36017985
 20
6.55888716
  0
VERTEX
  8
0
 10
5.33939579
 20
6.59232500
  0
VERTEX
  8
0
 10
5.32672835
 20
6.61518012
  0
VERTEX
  8
0
 10
5.31551721
 20
6.63860348
  0
VERTEX
  8
0
 10
5.30571476
 20
6.66253832
  0
VERTEX
  8
0
 10
5.29727339
 20
6.68692786
  0
VERTEX
  8
0
 10
5.29014550
 20
6.71171536
  0
VERTEX
  8
0
 10
5.28428348
 20
6.73684404
  0
VERTEX
  8
0
 10
5.27963972
 20
6.76225715
  0
VERTEX
  8
0
 10
5.27616662
 20
6.78789792
  0
VERTEX
  8
0
 10
5.27381656
 20
6.81370958
  0
VERTEX
  8
0
 10
5.27254194
 20
6.83963538
  0
VERTEX
  8
0
 10
5.27229516
 20
6.86561856
  0
VERTEX
  8
0
 10
5.27302860
 20
6.89160234
  0
VERTEX
  8
0
 10
5.27469465
 20
6.91752998
  0
VERTEX
  8
0
 10
5.27724572
 20
6.94334469
  0
VERTEX
  8
0
 10
5.28063419
 20
6.96898973
  0
VERTEX
  8
0
 10
5.28481245
 20
6.99440833
  0
VERTEX
  8
0
 10
5.29139701
 20
7.01858039
  0
VERTEX
  8
0
 10
5.29907091
 20
7.04230791
  0
VERTEX
  8
0
 10
5.30780047
 20
7.06557197
  0
VERTEX
  8
0
 10
5.31755198
 20
7.08835364
  0
VERTEX
  8
0
 10
5.32829176
 20
7.11063402
  0
VERTEX
  8
0
 10
5.33998610
 20
7.13239417
  0
VERTEX
  8
0
 10
5.35260131
 20
7.15361518
  0
VERTEX
  8
0
 10
5.36610369
 20
7.17427812
  0
VERTEX
  8
0
 10
5.38045954
 20
7.19436408
  0
VERTEX
  8
0
 10
5.39563517
 20
7.21385413
  0
VERTEX
  8
0
 10
5.41159689
 20
7.23272936
  0
VERTEX
  8
0
 10
5.42831099
 20
7.25097083
  0
VERTEX
  8
0
 10
5.44574378
 20
7.26855964
  0
VERTEX
  8
0
 10
5.46386156
 20
7.28547685
  0
VERTEX
  8
0
 10
5.48263064
 20
7.30170356
  0
VERTEX
  8
0
 10
5.50201731
 20
7.31722083
  0
VERTEX
  8
0
 10
5.52198789
 20
7.33200975
  0
VERTEX
  8
0
 10
5.54250868
 20
7.34605140
  0
VERTEX
  8
0
 10
5.56354598
 20
7.35932685
  0
VERTEX
  8
0
 10
5.58506609
 20
7.37181719
  0
VERTEX
  8
0
 10
5.60703531
 20
7.38350349
  0
VERTEX
  8
0
 10
5.62941996
 20
7.39436683
  0
VERTEX
  8
0
 10
5.65218633
 20
7.40438829
  0
VERTEX
  8
0
 10
5.67530073
 20
7.41354896
  0
VERTEX
  8
0
 10
5.69872946
 20
7.42182990
  0
VERTEX
  8
0
 10
5.72243883
 20
7.42921221
  0
VERTEX
  8
0
 10
5.74639513
 20
7.43567695
  0
VERTEX
  8
0
 10
5.77056468
 20
7.44120521
  0
VERTEX
  8
0
 10
5.79491377
 20
7.44577806
  0
VERTEX
  8
0
 10
5.81940870
 20
7.44937659
  0
VERTEX
  8
0
 10
5.84401580
 20
7.45198188
  0
VERTEX
  8
0
 10
5.86870134
 20
7.45357500
  0
SEQEND
  0
POLYLINE
  8
Default_Layer
 66
   1
 39
0.000000
 70
    1
  0
VERTEX
  8
0
 10
5.75689579
 20
7.40954722
  0
VERTEX
  8
0
 10
5.71998966
 20
7.39985257
  0
VERTEX
  8
0
 10
5.68373661
 20
7.38780379
  0
VERTEX
  8
0
 10
5.64827213
 20
7.37348490
  0
VERTEX
  8
0
 10
5.61373172
 20
7.35697995
  0
VERTEX
  8
0
 10
5.58025089
 20
7.33837294
  0
VERTEX
  8
0
 10
5.54796512
 20
7.31774790
  0
VERTEX
  8
0
 10
5.51700992
 20
7.29518887
  0
VERTEX
  8
0
 10
5.48752079
 20
7.27077986
  0
VERTEX
  8
0
 10
5.45963321
 20
7.24460490
  0
VERTEX
  8
0
 10
5.43348270
 20
7.21674801
  0
VERTEX
  8
0
 10
5.40920475
 20
7.18729323
  0
VERTEX
  8
0
 10
5.38693485
 20
7.15632456
  0
VERTEX
  8
0
 10
5.36680851
 20
7.12392605
  0
VERTEX
  8
0
 10
5.34896122
 20
7.09018172
  0
VERTEX
  8
0
 10
5.33352848
 20
7.05517558
  0
VERTEX
  8
0
 10
5.32064579
 20
7.01899167
  0
VERTEX
  8
0
 10
5.31394328
 20
6.99061167
  0
VERTEX
  8
0
 10
5.30849708
 20
6.96183455
  0
VERTEX
  8
0
 10
5.30434604
 20
6.93275143
  0
VERTEX
  8
0
 10
5.30152903
 20
6.90345347
  0
VERTEX
  8
0
 10
5.30008491
 20
6.87403181
  0
VERTEX
  8
0
 10
5.30005252
 20
6.84457760
  0
VERTEX
  8
0
 10
5.30147074
 20
6.81518199
  0
VERTEX
  8
0
 10
5.30437842
 20
6.78593611
  0
VERTEX
  8
0
 10
5.30881443
 20
6.75693112
  0
VERTEX
  8
0
 10
5.31481761
 20
6.72825816
  0
VERTEX
  8
0
 10
5.32242683
 20
6.70000838
  0
VERTEX
  8
0
 10
5.33168094
 20
6.67227292
  0
VERTEX
  8
0
 10
5.34261882
 20
6.64514292
  0
VERTEX
  8
0
 10
5.35527930
 20
6.61870955
  0
VERTEX
  8
0
 10
5.36970127
 20
6.59306393
  0
VERTEX
  8
0
 10
5.38592356
 20
6.56829722
  0
VERTEX
  8
0
 10
5.40716075
 20
6.54012105
  0
VERTEX
  8
0
 10
5.42992910
 20
6.51318085
  0
VERTEX
  8
0
 10
5.45414195
 20
6.48753092
  0
VERTEX
  8
0
 10
5.47971263
 20
6.46322561
  0
VERTEX
  8
0
 10
5.50655446
 20
6.44031921
  0
VERTEX
  8
0
 10
5.53458079
 20
6.41886607
  0
VERTEX
  8
0
 10
5.56370494
 20
6.39892049
  0
VERTEX
  8
0
 10
5.59384023
 20
6.38053680
  0
VERTEX
  8
0
 10
5.62490000
 20
6.36376933
  0
VERTEX
  8
0
 10
5.65679759
 20
6.34867238
  0
VERTEX
  8
0
 10
5.68944631
 20
6.33530029
  0
VERTEX
  8
0
 10
5.72275950
 20
6.32370738
  0
VERTEX
  8
0
 10
5.75665049
 20
6.31394796
  0
VERTEX
  8
0
 10
5.79103261
 20
6.30607635
  0
VERTEX
  8
0
 10
5.82581919
 20
6.30014689
  0
VERTEX
  8
0
 10
5.86092356
 20
6.29621389
  0
VERTEX
  8
0
 10
5.95231245
 20
6.29538055
  0
VERTEX
  8
0
 10
5.99803294
 20
6.29570608
  0
VERTEX
  8
0
 10
6.04370134
 20
6.29704722
  0
VERTEX
  8
0
 10
6.07723724
 20
6.30176978
  0
VERTEX
  8
0
 10
6.11045210
 20
6.30825219
  0
VERTEX
  8
0
 10
6.14327226
 20
6.31645091
  0
VERTEX
  8
0
 10
6.17562408
 20
6.32632239
  0
VERTEX
  8
0
 10
6.20743391
 20
6.33782311
  0
VERTEX
  8
0
 10
6.23862810
 20
6.35090953
  0
VERTEX
  8
0
 10
6.26913300
 20
6.36553809
  0
VERTEX
  8
0
 10
6.29887495
 20
6.38166528
  0
VERTEX
  8
0
 10
6.32778032
 20
6.39924754
  0
VERTEX
  8
0
 10
6.35577545
 20
6.41824134
  0
VERTEX
  8
0
 10
6.38278670
 20
6.43860314
  0
VERTEX
  8
0
 10
6.40874040
 20
6.46028941
  0
VERTEX
  8
0
 10
6.43356293
 20
6.48325660
  0
VERTEX
  8
0
 10
6.45718062
 20
6.50746117
  0
VERTEX
  8
0
 10
6.47951982
 20
6.53285960
  0
VERTEX
  8
0
 10
6.50050690
 20
6.55940833
  0
VERTEX
  8
0
 10
6.51530429
 20
6.58122430
  0
VERTEX
  8
0
 10
6.52895118
 20
6.60381236
  0
VERTEX
  8
0
 10
6.54142334
 20
6.62710151
  0
VERTEX
  8
0
 10
6.55269657
 20
6.65102075
  0
VERTEX
  8
0
 10
6.56274665
 20
6.67549906
  0
VERTEX
  8
0
 10
6.57154938
 20
6.70046546
  0
VERTEX
  8
0
 10
6.57908054
 20
6.72584893
  0
VERTEX
  8
0
 10
6.58531592
 20
6.75157847
  0
VERTEX
  8
0
 10
6.59023132
 20
6.77758308
  0
VERTEX
  8
0
 10
6.59380252
 20
6.80379174
  0
VERTEX
  8
0
 10
6.59600532
 20
6.83013346
  0
VERTEX
  8
0
 10
6.59681549
 20
6.85653724
  0
VERTEX
  8
0
 10
6.59620884
 20
6.88293206
  0
VERTEX
  8
0
 10
6.59416114
 20
6.90924693
  0
VERTEX
  8
0
 10
6.59064819
 20
6.93541083
  0
VERTEX
  8
0
 10
6.58564579
 20
6.96135278
  0
VERTEX
  8
0
 10
6.58064128
 20
6.98885383
  0
VERTEX
  8
0
 10
6.57386492
 20
7.01576874
  0
VERTEX
  8
0
 10
6.56540683
 20
7.04207452
  0
VERTEX
  8
0
 10
6.55535716
 20
7.06774818
  0
VERTEX
  8
0
 10
6.54380602
 20
7.09276672
  0
VERTEX
  8
0
 10
6.53084354
 20
7.11710717
  0
VERTEX
  8
0
 10
6.51655986
 20
7.14074653
  0
VERTEX
  8
0
 10
6.50104509
 20
7.16366180
  0
VERTEX
  8
0
 10
6.48438938
 20
7.18583001
  0
VERTEX
  8
0
 10
6.46668284
 20
7.20722816
  0
VERTEX
  8
0
 10
6.44801561
 20
7.22783325
  0
VERTEX
  8
0
 10
6.42847782
 20
7.24762231
  0
VERTEX
  8
0
 10
6.40815959
 20
7.26657233
  0
VERTEX
  8
0
 10
6.38715105
 20
7.28466034
  0
VERTEX
  8
0
 10
6.36554233
 20
7.30186334
  0
VERTEX
  8
0
 10
6.34342356
 20
7.31815833
  0
VERTEX
  8
0
 10
6.31100803
 20
7.33881053
  0
VERTEX
  8
0
 10
6.27753028
 20
7.35711938
  0
VERTEX
  8
0
 10
6.24309672
 20
7.37316016
  0
VERTEX
  8
0
 10
6.20781375
 20
7.38700816
  0
VERTEX
  8
0
 10
6.17178779
 20
7.39873864
  0
VERTEX
  8
0
 10
6.13512522
 20
7.40842689
  0
VERTEX
  8
0
 10
6.09793247
 20
7.41614817
  0
VERTEX
  8
0
 10
6.06031592
 20
7.42197778
  0
VERTEX
  8
0
 10
6.02238200
 20
7.42599097
  0
VERTEX
  8
0
 10
5.98423709
 20
7.42826304
  0
VERTEX
  8
0
 10
5.94598762
 20
7.42886926
  0
VERTEX
  8
0
 10
5.90773997
 20
7.42788489
  0
VERTEX
  8
0
 10
5.86960056
 20
7.42538523
  0
VERTEX
  8
0
 10
5.83167579
 20
7.42144555
  0
VERTEX
  8
0
 10
5.79407206
 20
7.41614112
  0
VERTEX
  8
0
 10
5.75689579
 20
7.40954722
  0
SEQEND
  0
POLYLINE
  8
Default_Layer
 66
   1
 39
0.000000
 70
    1
  0
VERTEX
  8
0
 10
5.73995134
 20
7.29621389
  0
VERTEX
  8
0
 10
5.75492313
 20
7.29974687
  0
VERTEX
  8
0
 10
5.76320574
 20
7.30106740
  0
VERTEX
  8
0
 10
5.77149648
 20
7.30156111
  0
VERTEX
  8
0
 10
5.77940311
 20
7.30083086
  0
VERTEX
  8
0
 10
5.78653337
 20
7.29847951
  0
VERTEX
  8
0
 10
5.79249502
 20
7.29410994
  0
VERTEX
  8
0
 10
5.79689579
 20
7.28732500
  0
VERTEX
  8
0
 10
5.80170417
 20
7.28108744
  0
VERTEX
  8
0
 10
5.80443837
 20
7.27442325
  0
VERTEX
  8
0
 10
5.80529636
 20
7.26751451
  0
VERTEX
  8
0
 10
5.80447608
 20
7.26054331
  0
VERTEX
  8
0
 10
5.80217550
 20
7.25369175
  0
VERTEX
  8
0
 10
5.79859256
 20
7.24714189
  0
VERTEX
  8
0
 10
5.79392524
 20
7.24107585
  0
VERTEX
  8
0
 10
5.78837148
 20
7.23567569
  0
VERTEX
  8
0
 10
5.78212925
 20
7.23112352
  0
VERTEX
  8
0
 10
5.77539649
 20
7.22760142
  0
VERTEX
  8
0
 10
5.76837118
 20
7.22529148
  0
VERTEX
  8
0
 10
5.76125125
 20
7.22437578
  0
VERTEX
  8
0
 10
5.75423469
 20
7.22503642
  0
VERTEX
  8
0
 10
5.74751943
 20
7.22745548
  0
VERTEX
  8
0
 10
5.74130344
 20
7.23181505
  0
VERTEX
  8
0
 10
5.73578467
 20
7.23829722
  0
VERTEX
  8
0
 10
5.72879167
 20
7.24431203
  0
VERTEX
  8
0
 10
5.72450212
 20
7.25138967
  0
VERTEX
  8
0
 10
5.72263770
 20
7.25917369
  0
VERTEX
  8
0
 10
5.72292009
 20
7.26730764
  0
VERTEX
  8
0
 10
5.72507097
 20
7.27543508
  0
VERTEX
  8
0
 10
5.72881202
 20
7.28319956
  0
VERTEX
  8
0
 10
5.73386492
 20
7.29024465
  0
VERTEX
  8
0
 10
5.73995134
 20
7.29621389
  0
SEQEND
  0
POLYLINE
  8
Default_Layer
 66
   1
 39
0.000000
 70
    1
  0
VERTEX
  8
0
 10
6.15342356
 20
7.28121389
  0
VERTEX
  8
0
 10
6.17507504
 20
7.28231415
  0
VERTEX
  8
0
 10
6.18688792
 20
7.28246633
  0
VERTEX
  8
0
 10
6.19830204
 20
7.28147430
  0
VERTEX
  8
0
 10
6.20852475
 20
7.27867889
  0
VERTEX
  8
0
 10
6.21294162
 20
7.27639893
  0
VERTEX
  8
0
 10
6.21676341
 20
7.27342092
  0
VERTEX
  8
0
 10
6.21989102
 20
7.26966248
  0
VERTEX
  8
0
 10
6.22222538
 20
7.26504120
  0
VERTEX
  8
0
 10
6.22366740
 20
7.25947469
  0
VERTEX
  8
0
 10
6.22411801
 20
7.25288055
  0
VERTEX
  8
0
 10
6.22538022
 20
7.24714047
  0
VERTEX
  8
0
 10
6.22562842
 20
7.24152367
  0
VERTEX
  8
0
 10
6.22494564
 20
7.23609161
  0
VERTEX
  8
0
 10
6.22341488
 20
7.23090573
  0
VERTEX
  8
0
 10
6.22111915
 20
7.22602746
  0
VERTEX
  8
0
 10
6.21814145
 20
7.22151825
  0
VERTEX
  8
0
 10
6.21047217
 20
7.21385278
  0
VERTEX
  8
0
 10
6.20107113
 20
7.20840084
  0
VERTEX
  8
0
 10
6.19592872
 20
7.20665856
  0
VERTEX
  8
0
 10
6.19060238
 20
7.20565399
  0
VERTEX
  8
0
 10
6.18517514
 20
7.20544857
  0
VERTEX
  8
0
 10
6.17972999
 20
7.20610375
  0
VERTEX
  8
0
 10
6.17434994
 20
7.20768097
  0
VERTEX
  8
0
 10
6.16911801
 20
7.21024167
  0
VERTEX
  8
0
 10
6.16409251
 20
7.21248220
  0
VERTEX
  8
0
 10
6.16004683
 20
7.21530785
  0
VERTEX
  8
0
 10
6.15688656
 20
7.21865597
  0
VERTEX
  8
0
 10
6.15451731
 20
7.22246389
  0
VERTEX
  8
0
 10
6.15177426
 20
7.23120846
  0
VERTEX
  8
0
 10
6.15106245
 20
7.24104028
  0
VERTEX
  8
0
 10
6.15162669
 20
7.25145803
  0
VERTEX
  8
0
 10
6.15271176
 20
7.26196042
  0
VERTEX
  8
0
 10
6.15356245
 20
7.27204614
  0
VERTEX
  8
0
 10
6.15342356
 20
7.28121389
  0
SEQEND
  0
POLYLINE
  8
Default_Layer
 66
   1
 39
0.000000
 70
    1
  0
VERTEX
  8
0
 10
5.83689579
 20
7.12760278
  0
VERTEX
  8
0
 10
5.86477773
 20
7.12961667
  0
VERTEX
  8
0
 10
5.89286801
 20
7.13038055
  0
VERTEX
  8
0
 10
5.89302860
 20
7.10819956
  0
VERTEX
  8
0
 10
5.89278500
 20
7.09608612
  0
VERTEX
  8
0
 10
5.89144440
 20
7.08439097
  0
VERTEX
  8
0
 10
5.88834598
 20
7.07393931
  0
VERTEX
  8
0
 10
5.88593109
 20
7.06943766
  0
VERTEX
  8
0
 10
5.88282895
 20
7.06555634
  0
VERTEX
  8
0
 10
5.87895694
 20
7.06239848
  0
VERTEX
  8
0
 10
5.87423248
 20
7.06006724
  0
VERTEX
  8
0
 10
5.86857296
 20
7.05866577
  0
VERTEX
  8
0
 10
5.86189579
 20
7.05829722
  0
VERTEX
  8
0
 10
5.85438236
 20
7.05684625
  0
VERTEX
  8
0
 10
5.84744592
 20
7.05700843
  0
VERTEX
  8
0
 10
5.84113285
 20
7.05860331
  0
VERTEX
  8
0
 10
5.83548954
 20
7.06145043
  0
VERTEX
  8
0
 10
5.83056237
 20
7.06536933
  0
VERTEX
  8
0
 10
5.82639774
 20
7.07017955
  0
VERTEX
  8
0
 10
5.82304203
 20
7.07570062
  0
VERTEX
  8
0
 10
5.82054162
 20
7.08175208
  0
VERTEX
  8
0
 10
5.81894291
 20
7.08815348
  0
VERTEX
  8
0
 10
5.81829227
 20
7.09472436
  0
VERTEX
  8
0
 10
5.81863610
 20
7.10128425
  0
VERTEX
  8
0
 10
5.82002079
 20
7.10765269
  0
VERTEX
  8
0
 10
5.82249271
 20
7.11364922
  0
VERTEX
  8
0
 10
5.82609826
 20
7.11909339
  0
VERTEX
  8
0
 10
5.83088382
 20
7.12380473
  0
VERTEX
  8
0
 10
5.83689579
 20
7.12760278
  0
SEQEND
  0
POLYLINE
  8
Default_Layer
 66
   1
 39
0.000000
 70
    1
  0
VERTEX
  8
0
 10
5.49939579
 20
7.08774167
  0
VERTEX
  8
0
 10
5.53573259
 20
7.08937361
  0
VERTEX
  8
0
 10
5.57217356
 20
7.08996389
  0
VERTEX
  8
0
 10
5.57121165
 20
7.08085283
  0
VERTEX
  8
0
 10
5.57119700
 20
7.07108585
  0
VERTEX
  8
0
 10
5.57123606
 20
7.05123125
  0
VERTEX
  8
0
 10
5.56990306
 20
7.04196720
  0
VERTEX
  8
0
 10
5.56674388
 20
7.03369436
  0
VERTEX
  8
0
 10
5.56426280
 20
7.03005832
  0
VERTEX
  8
0
 10
5.56106517
 20
7.02682451
  0
VERTEX
  8
0
 10
5.55706431
 20
7.02404439
  0
VERTEX
  8
0
 10
5.55217356
 20
7.02176944
  0
VERTEX
  8
0
 10
5.51467356
 20
7.01190833
  0
VERTEX
  8
0
 10
5.50976173
 20
7.02069251
  0
VERTEX
  8
0
 10
5.50582157
 20
7.02973385
  0
VERTEX
  8
0
 10
5.50279612
 20
7.03900306
  0
VERTEX
  8
0
 10
5.50062842
 20
7.04847083
  0
VERTEX
  8
0
 10
5.49926151
 20
7.05810788
  0
VERTEX
  8
0
 10
5.49863841
 20
7.06788489
  0
VERTEX
  8
0
 10
5.49939579
 20
7.08774167
  0
SEQEND
  0
POLYLINE
  8
Default_Layer
 66
   1
 39
0.000000
 70
    1
  0
VERTEX
  8
0
 10
6.39370134
 20
6.99968611
  0
VERTEX
  8
0
 10
6.40565447
 20
7.00301944
  0
VERTEX
  8
0
 10
6.41776384
 20
7.00489444
  0
VERTEX
  8
0
 10
6.43002947
 20
7.00531111
  0
VERTEX
  8
0
 10
6.44245134
 20
7.00426944
  0
VERTEX
  8
0
 10
6.44739024
 20
7.00058824
  0
VERTEX
  8
0
 10
6.45138309
 20
6.99649953
  0
VERTEX
  8
0
 10
6.45452226
 20
6.99204502
  0
VERTEX
  8
0
 10
6.45690013
 20
6.98726640
  0
VERTEX
  8
0
 10
6.45974138
 20
6.97690372
  0
VERTEX
  8
0
 10
6.46064579
 20
6.96574514
  0
VERTEX
  8
0
 10
6.45959978
 20
6.94237491
  0
VERTEX
  8
0
 10
6.45912723
 20
6.93083059
  0
VERTEX
  8
0
 10
6.45967356
 20
6.91982500
  0
VERTEX
  8
0
 10
6.42342356
 20
6.91822778
  0
VERTEX
  8
0
 10
6.38717356
 20
6.91746389
  0
VERTEX
  8
0
 10
6.38649431
 20
6.93824080
  0
VERTEX
  8
0
 10
6.38621870
 20
6.95909583
  0
VERTEX
  8
0
 10
6.38676531
 20
6.96944685
  0
VERTEX
  8
0
 10
6.38805247
 20
6.97969045
  0
VERTEX
  8
0
 10
6.39029341
 20
6.98978431
  0
VERTEX
  8
0
 10
6.39370134
 20
6.99968611
  0
SEQEND
  0
POLYLINE
  8
Default_Layer
 66
   1
 39
0.000000
 70
    1
  0
VERTEX
  8
0
 10
6.13786801
 20
6.96413055
  0
VERTEX
  8
0
 10
6.14652822
 20
6.96487084
  0
VERTEX
  8
0
 10
6.15550907
 20
6.96638099
  0
VERTEX
  8
0
 10
6.17368398
 20
6.96932153
  0
VERTEX
  8
0
 10
6.18250370
 20
6.96955726
  0
VERTEX
  8
0
 10
6.19089535
 20
6.96817352
  0
VERTEX
  8
0
 10
6.19867177
 20
6.96457299
  0
VERTEX
  8
0
 10
6.20564579
 20
6.95815833
  0
VERTEX
  8
0
 10
6.20947608
 20
6.93419566
  0
VERTEX
  8
0
 10
6.21050663
 20
6.92117103
  0
VERTEX
  8
0
 10
6.21003815
 20
6.90854028
  0
VERTEX
  8
0
 10
6.20738868
 20
6.89712046
  0
VERTEX
  8
0
 10
6.20503296
 20
6.89211999
  0
VERTEX
  8
0
 10
6.20187625
 20
6.88772864
  0
VERTEX
  8
0
 10
6.19783332
 20
6.88404856
  0
VERTEX
  8
0
 10
6.19281891
 20
6.88118188
  0
VERTEX
  8
0
 10
6.18674778
 20
6.87923072
  0
VERTEX
  8
0
 10
6.17953467
 20
6.87829722
  0
VERTEX
  8
0
 10
6.17049435
 20
6.87725616
  0
VERTEX
  8
0
 10
6.16278500
 20
6.87778127
  0
VERTEX
  8
0
 10
6.15630530
 20
6.87971995
  0
VERTEX
  8
0
 10
6.15095395
 20
6.88291962
  0
VERTEX
  8
0
 10
6.14662960
 20
6.88722768
  0
VERTEX
  8
0
 10
6.14323096
 20
6.89249156
  0
VERTEX
  8
0
 10
6.14065670
 20
6.89855865
  0
VERTEX
  8
0
 10
6.13880551
 20
6.90527639
  0
VERTEX
  8
0
 10
6.13686703
 20
6.92005341
  0
VERTEX
  8
0
 10
6.13660499
 20
6.93560191
  0
VERTEX
  8
0
 10
6.13786801
 20
6.96413055
  0
SEQEND
  0
POLYLINE
  8
Default_Layer
 66
   1
 39
0.000000
 70
    1
  0
VERTEX
  8
0
 10
5.90384023
 20
6.96426944
  0
VERTEX
  8
0
 10
5.93184370
 20
6.96576250
  0
VERTEX
  8
0
 10
5.95995134
 20
6.96579722
  0
VERTEX
  8
0
 10
5.96580204
 20
6.93704722
  0
VERTEX
  8
0
 10
5.96840837
 20
6.92255503
  0
VERTEX
  8
0
 10
5.97009023
 20
6.90788055
  0
VERTEX
  8
0
 10
5.96795620
 20
6.90177731
  0
VERTEX
  8
0
 10
5.96495812
 20
6.89633976
  0
VERTEX
  8
0
 10
5.96120199
 20
6.89157928
  0
VERTEX
  8
0
 10
5.95679379
 20
6.88750729
  0
VERTEX
  8
0
 10
5.95183953
 20
6.88413517
  0
VERTEX
  8
0
 10
5.94644521
 20
6.88147430
  0
VERTEX
  8
0
 10
5.94071682
 20
6.87953610
  0
VERTEX
  8
0
 10
5.93476037
 20
6.87833194
  0
VERTEX
  8
0
 10
5.92868184
 20
6.87787323
  0
VERTEX
  8
0
 10
5.92258725
 20
6.87817135
  0
VERTEX
  8
0
 10
5.91658257
 20
6.87923770
  0
VERTEX
  8
0
 10
5.91077382
 20
6.88108368
  0
VERTEX
  8
0
 10
5.90526699
 20
6.88372067
  0
VERTEX
  8
0
 10
5.90016808
 20
6.88716007
  0
VERTEX
  8
0
 10
5.89558309
 20
6.89141327
  0
VERTEX
  8
0
 10
5.89161801
 20
6.89649167
  0
VERTEX
  8
0
 10
5.89022912
 20
6.90515188
  0
VERTEX
  8
0
 10
5.89040273
 20
6.91374210
  0
VERTEX
  8
0
 10
5.89177426
 20
6.92227047
  0
VERTEX
  8
0
 10
5.89397912
 20
6.93074514
  0
VERTEX
  8
0
 10
5.89943051
 20
6.94756588
  0
VERTEX
  8
0
 10
5.90384023
 20
6.96426944
  0
SEQEND
  0
POLYLINE
  8
Default_Layer
 66
   1
 39
0.000000
 70
    1
  0
VERTEX
  8
0
 10
5.58717356
 20
6.86482500
  0
VERTEX
  8
0
 10
5.59670705
 20
6.86874152
  0
VERTEX
  8
0
 10
5.60556386
 20
6.87003089
  0
VERTEX
  8
0
 10
5.61365977
 20
6.86901842
  0
VERTEX
  8
0
 10
5.62091054
 20
6.86602943
  0
VERTEX
  8
0
 10
5.62723195
 20
6.86138923
  0
VERTEX
  8
0
 10
5.63253977
 20
6.85542314
  0
VERTEX
  8
0
 10
5.63674978
 20
6.84845649
  0
VERTEX
  8
0
 10
5.63977773
 20
6.84081458
  0
VERTEX
  8
0
 10
5.64153941
 20
6.83282274
  0
VERTEX
  8
0
 10
5.64195058
 20
6.82480628
  0
VERTEX
  8
0
 10
5.64092702
 20
6.81709052
  0
VERTEX
  8
0
 10
5.63838450
 20
6.81000078
  0
VERTEX
  8
0
 10
5.63423879
 20
6.80386237
  0
VERTEX
  8
0
 10
5.62840566
 20
6.79900062
  0
VERTEX
  8
0
 10
5.62080088
 20
6.79574083
  0
VERTEX
  8
0
 10
5.61134023
 20
6.79440833
  0
VERTEX
  8
0
 10
5.60352336
 20
6.79277757
  0
VERTEX
  8
0
 10
5.59639638
 20
6.79281409
  0
VERTEX
  8
0
 10
5.58999166
 20
6.79433295
  0
VERTEX
  8
0
 10
5.58434153
 20
6.79714922
  0
VERTEX
  8
0
 10
5.57947835
 20
6.80107795
  0
VERTEX
  8
0
 10
5.57543447
 20
6.80593421
  0
VERTEX
  8
0
 10
5.57224223
 20
6.81153307
  0
VERTEX
  8
0
 10
5.56993398
 20
6.81768958
  0
VERTEX
  8
0
 10
5.56854207
 20
6.82421882
  0
VERTEX
  8
0
 10
5.56809886
 20
6.83093584
  0
VERTEX
  8
0
 10
5.56863668
 20
6.83765571
  0
VERTEX
  8
0
 10
5.57018789
 20
6.84419349
  0
VERTEX
  8
0
 10
5.57278483
 20
6.85036424
  0
VERTEX
  8
0
 10
5.57645986
 20
6.85598304
  0
VERTEX
  8
0
 10
5.58124532
 20
6.86086494
  0
VERTEX
  8
0
 10
5.58717356
 20
6.86482500
  0
SEQEND
  0
POLYLINE
  8
Default_Layer
 66
   1
 39
0.000000
 70
    1
  0
VERTEX
  8
0
 10
5.77745134
 20
6.71329722
  0
VERTEX
  8
0
 10
5.83856245
 20
6.71260278
  0
VERTEX
  8
0
 10
5.83973216
 20
6.69466224
  0
VERTEX
  8
0
 10
5.84010759
 20
6.67668264
  0
VERTEX
  8
0
 10
5.83967573
 20
6.65867700
  0
VERTEX
  8
0
 10
5.83842356
 20
6.64065833
  0
VERTEX
  8
0
 10
5.82864627
 20
6.64146562
  0
VERTEX
  8
0
 10
5.81846046
 20
6.64156979
  0
VERTEX
  8
0
 10
5.79798954
 20
6.64201250
  0
VERTEX
  8
0
 10
5.78826758
 20
6.64352292
  0
VERTEX
  8
0
 10
5.77926341
 20
6.64667396
  0
VERTEX
  8
0
 10
5.77125858
 20
6.65205156
  0
VERTEX
  8
0
 10
5.76771891
 20
6.65575843
  0
VERTEX
  8
0
 10
5.76453467
 20
6.66024167
  0
VERTEX
  8
0
 10
5.76441749
 20
6.66719262
  0
VERTEX
  8
0
 10
5.76518572
 20
6.67400035
  0
VERTEX
  8
0
 10
5.76859717
 20
6.68729028
  0
VERTEX
  8
0
 10
5.77320655
 20
6.70031979
  0
VERTEX
  8
0
 10
5.77745134
 20
6.71329722
  0
SEQEND
  0
POLYLINE
  8
Default_Layer
 66
   1
 39
0.000000
 70
    1
  0
VERTEX
  8
0
 10
6.11022912
 20
6.71329722
  0
VERTEX
  8
0
 10
6.17203467
 20
6.71246389
  0
VERTEX
  8
0
 10
6.17310672
 20
6.69460364
  0
VERTEX
  8
0
 10
6.17342356
 20
6.67666528
  0
VERTEX
  8
0
 10
6.17189579
 20
6.64065833
  0
VERTEX
  8
0
 10
6.16207265
 20
6.64147132
  0
VERTEX
  8
0
 10
6.15185238
 20
6.64158932
  0
VERTEX
  8
0
 10
6.13134023
 20
6.64206458
  0
VERTEX
  8
0
 10
6.12160824
 20
6.64358395
  0
VERTEX
  8
0
 10
6.11259891
 20
6.64673255
  0
VERTEX
  8
0
 10
6.10459218
 20
6.65209144
  0
VERTEX
  8
0
 10
6.10105228
 20
6.65578132
  0
VERTEX
  8
0
 10
6.09786801
 20
6.66024167
  0
VERTEX
  8
0
 10
6.09785227
 20
6.66715274
  0
VERTEX
  8
0
 10
6.09862756
 20
6.67394175
  0
VERTEX
  8
0
 10
6.10186106
 20
6.68723819
  0
VERTEX
  8
0
 10
6.11022912
 20
6.71329722
  0
SEQEND
  0
POLYLINE
  8
Default_Layer
 66
   1
 39
0.000000
 70
    1
  0
VERTEX
  8
0
 10
5.47884023
 20
6.66301944
  0
VERTEX
  8
0
 10
5.48355486
 20
6.67138587
  0
VERTEX
  8
0
 10
5.48986454
 20
6.67724253
  0
VERTEX
  8
0
 10
5.49742421
 20
6.68110050
  0
VERTEX
  8
0
 10
5.50588884
 20
6.68347083
  0
VERTEX
  8
0
 10
5.52415273
 20
6.68579288
  0
VERTEX
  8
0
 10
5.53326189
 20
6.68676673
  0
VERTEX
  8
0
 10
5.54189579
 20
6.68829722
  0
VERTEX
  8
0
 10
5.54343306
 20
6.68044701
  0
VERTEX
  8
0
 10
5.54604292
 20
6.67221432
  0
VERTEX
  8
0
 10
5.55184370
 20
6.65525903
  0
VERTEX
  8
0
 10
5.55371626
 20
6.64686520
  0
VERTEX
  8
0
 10
5.55402469
 20
6.63874644
  0
VERTEX
  8
0
 10
5.55210982
 20
6.63106713
  0
VERTEX
  8
0
 10
5.55011264
 20
6.62744364
  0
VERTEX
  8
0
 10
5.54731245
 20
6.62399167
  0
VERTEX
  8
0
 10
5.54231984
 20
6.61779850
  0
VERTEX
  8
0
 10
5.53630388
 20
6.61321584
  0
VERTEX
  8
0
 10
5.52950422
 20
6.61014523
  0
VERTEX
  8
0
 10
5.52216054
 20
6.60848819
  0
VERTEX
  8
0
 10
5.51451250
 20
6.60814626
  0
VERTEX
  8
0
 10
5.50679976
 20
6.60902096
  0
VERTEX
  8
0
 10
5.49926198
 20
6.61101383
  0
VERTEX
  8
0
 10
5.49213884
 20
6.61402639
  0
VERTEX
  8
0
 10
5.48567000
 20
6.61796017
  0
VERTEX
  8
0
 10
5.48009511
 20
6.62271671
  0
VERTEX
  8
0
 10
5.47565386
 20
6.62819753
  0
VERTEX
  8
0
 10
5.47258589
 20
6.63430417
  0
VERTEX
  8
0
 10
5.47113088
 20
6.64093814
  0
VERTEX
  8
0
 10
5.47152849
 20
6.64800100
  0
VERTEX
  8
0
 10
5.47401839
 20
6.65539425
  0
VERTEX
  8
0
 10
5.47884023
 20
6.66301944
  0
SEQEND
  0
POLYLINE
  8
Default_Layer
 66
   1
 39
0.000000
 70
    1
  0
VERTEX
  8
0
 10
6.34967356
 20
6.66996389
  0
VERTEX
  8
0
 10
6.35880144
 20
6.66993812
  0
VERTEX
  8
0
 10
6.36829553
 20
6.67051293
  0
VERTEX
  8
0
 10
6.37788401
 20
6.67110402
  0
VERTEX
  8
0
 10
6.38729509
 20
6.67112708
  0
VERTEX
  8
0
 10
6.39625695
 20
6.66999780
  0
VERTEX
  8
0
 10
6.40449778
 20
6.66713186
  0
VERTEX
  8
0
 10
6.41174578
 20
6.66194495
  0
VERTEX
  8
0
 10
6.41491252
 20
6.65829854
  0
VERTEX
  8
0
 10
6.41772912
 20
6.65385278
  0
VERTEX
  8
0
 10
6.41889882
 20
6.64130069
  0
VERTEX
  8
0
 10
6.41864926
 20
6.62885278
  0
VERTEX
  8
0
 10
6.41696740
 20
6.61650903
  0
VERTEX
  8
0
 10
6.41384023
 20
6.60426944
  0
VERTEX
  8
0
 10
6.40569136
 20
6.60107256
  0
VERTEX
  8
0
 10
6.39732113
 20
6.59903290
  0
VERTEX
  8
0
 10
6.38878164
 20
6.59791446
  0
VERTEX
  8
0
 10
6.38012495
 20
6.59748125
  0
VERTEX
  8
0
 10
6.34536801
 20
6.59788055
  0
VERTEX
  8
0
 10
6.34684370
 20
6.63402639
  0
VERTEX
  8
0
 10
6.34967356
 20
6.66996389
  0
SEQEND
  0
POLYLINE
  8
Default_Layer
 66
   1
 39
0.000000
 70
    1
  0
VERTEX
  8
0
 10
5.74759023
 20
6.41746389
  0
VERTEX
  8
0
 10
5.74768355
 20
6.44001380
  0
VERTEX
  8
0
 10
5.74808095
 20
6.45218313
  0
VERTEX
  8
0
 10
5.74958676
 20
6.46390486
  0
VERTEX
  8
0
 10
5.75285689
 20
6.47439612
  0
VERTEX
  8
0
 10
5.75535855
 20
6.47893568
  0
VERTEX
  8
0
 10
5.75854726
 20
6.48287404
  0
VERTEX
  8
0
 10
5.76250502
 20
6.48611335
  0
VERTEX
  8
0
 10
5.76731381
 20
6.48855574
  0
VERTEX
  8
0
 10
5.77305562
 20
6.49010335
  0
VERTEX
  8
0
 10
5.77981245
 20
6.49065833
  0
VERTEX
  8
0
 10
5.78758931
 20
6.49199758
  0
VERTEX
  8
0
 10
5.79439714
 20
6.49198429
  0
VERTEX
  8
0
 10
5.80029555
 20
6.49074378
  0
VERTEX
  8
0
 10
5.80534414
 20
6.48840139
  0
VERTEX
  8
0
 10
5.80960253
 20
6.48508243
  0
VERTEX
  8
0
 10
5.81313032
 20
6.48091224
  0
VERTEX
  8
0
 10
5.81598714
 20
6.47601613
  0
VERTEX
  8
0
 10
5.81823259
 20
6.47051944
  0
VERTEX
  8
0
 10
5.82112783
 20
6.45822561
  0
VERTEX
  8
0
 10
5.82229292
 20
6.44503333
  0
VERTEX
  8
0
 10
5.82220476
 20
6.43194522
  0
VERTEX
  8
0
 10
5.82134023
 20
6.41996389
  0
VERTEX
  8
0
 10
5.78446523
 20
6.41829722
  0
VERTEX
  8
0
 10
5.74759023
 20
6.41746389
  0
SEQEND
  0
POLYLINE
  8
Default_Layer
 66
   1
 39
0.000000
 70
    1
  0
VERTEX
  8
0
 10
6.11134023
 20
6.49079722
  0
VERTEX
  8
0
 10
6.16759023
 20
6.49079722
  0
VERTEX
  8
0
 10
6.16947852
 20
6.48328339
  0
VERTEX
  8
0
 10
6.17214969
 20
6.47550425
  0
VERTEX
  8
0
 10
6.17750342
 20
6.45959930
  0
VERTEX
  8
0
 10
6.17901737
 20
6.45169810
  0
VERTEX
  8
0
 10
6.17897695
 20
6.44398081
  0
VERTEX
  8
0
 10
6.17679786
 20
6.43655975
  0
VERTEX
  8
0
 10
6.17189579
 20
6.42954722
  0
VERTEX
  8
0
 10
6.16839542
 20
6.42506568
  0
VERTEX
  8
0
 10
6.16440067
 20
6.42139021
  0
VERTEX
  8
0
 10
6.15998355
 20
6.41848704
  0
VERTEX
  8
0
 10
6.15521610
 20
6.41632239
  0
VERTEX
  8
0
 10
6.14491825
 20
6.41407359
  0
VERTEX
  8
0
 10
6.13408329
 20
6.41437361
  0
VERTEX
  8
0
 10
6.12328739
 20
6.41695228
  0
VERTEX
  8
0
 10
6.11310672
 20
6.42153941
  0
VERTEX
  8
0
 10
6.10411747
 20
6.42786482
  0
VERTEX
  8
0
 10
6.09689579
 20
6.43565833
  0
VERTEX
  8
0
 10
6.09891836
 20
6.44980113
  0
VERTEX
  8
0
 10
6.10255551
 20
6.46359236
  0
VERTEX
  8
0
 10
6.11134023
 20
6.49079722
  0
SEQEND
  0
POLYLINE
  8
Default_Layer
 66
   1
 39
0.000000
 70
    1
  0
VERTEX
  8
0
 10
6.92745134
 20
4.38538055
  0
VERTEX
  8
0
 10
6.93754683
 20
4.37479462
  0
VERTEX
  8
0
 10
6.94727773
 20
4.36371389
  0
VERTEX
  8
0
 10
6.95549822
 20
4.35159149
  0
VERTEX
  8
0
 10
6.95868398
 20
4.34496877
  0
VERTEX
  8
0
 10
6.96106245
 20
4.33788055
  0
VERTEX
  8
0
 10
6.97561351
 20
4.29395043
  0
VERTEX
  8
0
 10
6.98830421
 20
4.24940833
  0
VERTEX
  8
0
 10
6.99909712
 20
4.20434540
  0
VERTEX
  8
0
 10
7.00795481
 20
4.15885278
  0
VERTEX
  8
0
 10
7.01483985
 20
4.11302161
  0
VERTEX
  8
0
 10
7.01971480
 20
4.06694305
  0
VERTEX
  8
0
 10
7.02254222
 20
4.02070825
  0
VERTEX
  8
0
 10
7.02328467
 20
3.97440833
  0
VERTEX
  8
0
 10
7.00370134
 20
3.98385278
  0
VERTEX
  8
0
 10
6.99819326
 20
4.01319495
  0
VERTEX
  8
0
 10
6.99385542
 20
4.04273081
  0
VERTEX
  8
0
 10
6.98680898
 20
4.10206458
  0
VERTEX
  8
0
 10
6.98315962
 20
4.13170298
  0
VERTEX
  8
0
 10
6.97879900
 20
4.16121606
  0
VERTEX
  8
0
 10
6.97325673
 20
4.19052405
  0
VERTEX
  8
0
 10
6.96606245
 20
4.21954722
  0
VERTEX
  8
0
 10
6.96085439
 20
4.24024790
  0
VERTEX
  8
0
 10
6.95465837
 20
4.26075165
  0
VERTEX
  8
0
 10
6.94149648
 20
4.30157847
  0
VERTEX
  8
0
 10
6.93562761
 20
4.32210663
  0
VERTEX
  8
0
 10
6.93096480
 20
4.34284800
  0
VERTEX
  8
0
 10
6.92805654
 20
4.36390513
  0
VERTEX
  8
0
 10
6.92745134
 20
4.38538055
  0
SEQEND
  0
POLYLINE
  8
Default_Layer
 66
   1
 39
0.000000
 70
    1
  0
VERTEX
  8
0
 10
6.52272912
 20
4.37371389
  0
VERTEX
  8
0
 10
6.53823042
 20
4.37007022
  0
VERTEX
  8
0
 10
6.54552453
 20
4.36723684
  0
VERTEX
  8
0
 10
6.55246870
 20
4.36373125
  0
VERTEX
  8
0
 10
6.55902876
 20
4.35955509
  0
VERTEX
  8
0
 10
6.56517053
 20
4.35470998
  0
VERTEX
  8
0
 10
6.57085982
 20
4.34919756
  0
VERTEX
  8
0
 10
6.57606245
 20
4.34301944
  0
VERTEX
  8
0
 10
6.60140842
 20
4.31283841
  0
VERTEX
  8
0
 10
6.62552290
 20
4.28155813
  0
VERTEX
  8
0
 10
6.64833327
 20
4.24924472
  0
VERTEX
  8
0
 10
6.66976688
 20
4.21596432
  0
VERTEX
  8
0
 10
6.68975111
 20
4.18178304
  0
VERTEX
  8
0
 10
6.70821333
 20
4.14676700
  0
VERTEX
  8
0
 10
6.72508091
 20
4.11098233
  0
VERTEX
  8
0
 10
6.74028120
 20
4.07449514
  0
VERTEX
  8
0
 10
6.75374159
 20
4.03737155
  0
VERTEX
  8
0
 10
6.76538944
 20
3.99967770
  0
VERTEX
  8
0
 10
6.77515211
 20
3.96147970
  0
VERTEX
  8
0
 10
6.78295698
 20
3.92284366
  0
VERTEX
  8
0
 10
6.78873142
 20
3.88383572
  0
VERTEX
  8
0
 10
6.79240278
 20
3.84452199
  0
VERTEX
  8
0
 10
6.79389845
 20
3.80496860
  0
VERTEX
  8
0
 10
6.79314579
 20
3.76524167
  0
VERTEX
  8
0
 10
6.76481245
 20
3.76510278
  0
VERTEX
  8
0
 10
6.76562663
 20
3.79844252
  0
VERTEX
  8
0
 10
6.76481544
 20
3.83171004
  0
VERTEX
  8
0
 10
6.76242018
 20
3.86485589
  0
VERTEX
  8
0
 10
6.75848216
 20
3.89783064
  0
VERTEX
  8
0
 10
6.75304267
 20
3.93058485
  0
VERTEX
  8
0
 10
6.74614302
 20
3.96306909
  0
VERTEX
  8
0
 10
6.73782450
 20
3.99523390
  0
VERTEX
  8
0
 10
6.72812842
 20
4.02702986
  0
VERTEX
  8
0
 10
6.71709608
 20
4.05840752
  0
VERTEX
  8
0
 10
6.70476878
 20
4.08931746
  0
VERTEX
  8
0
 10
6.69118781
 20
4.11971022
  0
VERTEX
  8
0
 10
6.67639448
 20
4.14953637
  0
VERTEX
  8
0
 10
6.66043009
 20
4.17874647
  0
VERTEX
  8
0
 10
6.64333594
 20
4.20729109
  0
VERTEX
  8
0
 10
6.62515333
 20
4.23512078
  0
VERTEX
  8
0
 10
6.60592356
 20
4.26218611
  0
VERTEX
  8
0
 10
6.58460412
 20
4.28969045
  0
VERTEX
  8
0
 10
6.56286801
 20
4.31690833
  0
VERTEX
  8
0
 10
6.54186106
 20
4.34464705
  0
VERTEX
  8
0
 10
6.53198910
 20
4.35896400
  0
VERTEX
  8
0
 10
6.52272912
 20
4.37371389
  0
SEQEND
  0
POLYLINE
  8
Default_Layer
 66
   1
 39
0.000000
 70
    1
  0
VERTEX
  8
0
 10
8.40509023
 20
4.21163055
  0
VERTEX
  8
0
 10
8.42227556
 20
4.22196693
  0
VERTEX
  8
0
 10
8.44007287
 20
4.23119653
  0
VERTEX
  8
0
 10
8.45846914
 20
4.23915009
  0
VERTEX
  8
0
 10
8.47745134
 20
4.24565833
  0
VERTEX
  8
0
 10
8.47699612
 20
4.23943990
  0
VERTEX
  8
0
 10
8.47582781
 20
4.23367781
  0
VERTEX
  8
0
 10
8.47159848
 20
4.22338186
  0
VERTEX
  8
0
 10
8.46525652
 20
4.21448890
  0
VERTEX
  8
0
 10
8.45729509
 20
4.20671736
  0
VERTEX
  8
0
 10
8.44820736
 20
4.19978566
  0
VERTEX
  8
0
 10
8.43848650
 20
4.19341224
  0
VERTEX
  8
0
 10
8.41911801
 20
4.18121389
  0
VERTEX
  8
0
 10
8.33483063
 20
4.12997582
  0
VERTEX
  8
0
 10
8.24963667
 20
4.08024167
  0
VERTEX
  8
0
 10
8.16363217
 20
4.03188772
  0
VERTEX
  8
0
 10
8.07691315
 20
3.98479028
  0
VERTEX
  8
0
 10
7.98957564
 20
3.93882565
  0
VERTEX
  8
0
 10
7.90171566
 20
3.89387014
  0
VERTEX
  8
0
 10
7.81342926
 20
3.84980004
  0
VERTEX
  8
0
 10
7.72481245
 20
3.80649167
  0
VERTEX
  8
0
 10
7.66463287
 20
3.78200436
  0
VERTEX
  8
0
 10
7.60483415
 20
3.75658281
  0
VERTEX
  8
0
 10
7.48581940
 20
3.70430417
  0
VERTEX
  8
0
 10
7.36664839
 20
3.65239010
  0
VERTEX
  8
0
 10
7.30665436
 20
3.62742428
  0
VERTEX
  8
0
 10
7.24620134
 20
3.60357500
  0
VERTEX
  8
0
 10
7.23066288
 20
3.59733205
  0
VERTEX
  8
0
 10
7.21569570
 20
3.58998559
  0
VERTEX
  8
0
 10
7.18673954
 20
3.57340139
  0
VERTEX
  8
0
 10
7.15786150
 20
3.55666094
  0
VERTEX
  8
0
 10
7.14299198
 20
3.54911916
  0
VERTEX
  8
0
 10
7.12759023
 20
3.54260278
  0
VERTEX
  8
0
 10
7.07725169
 20
3.52288923
  0
VERTEX
  8
0
 10
7.02654856
 20
3.50416528
  0
VERTEX
  8
0
 10
6.97532461
 20
3.48705590
  0
VERTEX
  8
0
 10
6.92342356
 20
3.47218611
  0
VERTEX
  8
0
 10
6.93231245
 20
3.50051944
  0
VERTEX
  8
0
 10
6.95826189
 20
3.51111460
  0
VERTEX
  8
0
 10
6.98459544
 20
3.52085364
  0
VERTEX
  8
0
 10
7.03745134
 20
3.53985972
  0
VERTEX
  8
0
 10
7.06349192
 20
3.55017493
  0
VERTEX
  8
0
 10
7.08895308
 20
3.56173038
  0
VERTEX
  8
0
 10
7.11359392
 20
3.57505015
  0
VERTEX
  8
0
 10
7.13717356
 20
3.59065833
  0
VERTEX
  8
0
 10
7.26258155
 20
3.64112925
  0
VERTEX
  8
0
 10
7.38741662
 20
3.69317569
  0
VERTEX
  8
0
 10
7.51147044
 20
3.74712318
  0
VERTEX
  8
0
 10
7.63453467
 20
3.80329722
  0
VERTEX
  8
0
 10
7.67814660
 20
3.82029158
  0
VERTEX
  8
0
 10
7.72113841
 20
3.83870521
  0
VERTEX
  8
0
 10
7.76361915
 20
3.85827769
  0
VERTEX
  8
0
 10
7.80569787
 20
3.87874861
  0
VERTEX
  8
0
 10
7.88908546
 20
3.92134410
  0
VERTEX
  8
0
 10
7.97217356
 20
3.96440833
  0
VERTEX
  8
0
 10
8.08212148
 20
4.02321259
  0
VERTEX
  8
0
 10
8.19144440
 20
4.08317569
  0
VERTEX
  8
0
 10
8.24562734
 20
4.11398651
  0
VERTEX
  8
0
 10
8.29936106
 20
4.14556068
  0
VERTEX
  8
0
 10
8.35254791
 20
4.17805606
  0
VERTEX
  8
0
 10
8.40509023
 20
4.21163055
  0
SEQEND
  0
POLYLINE
  8
Default_Layer
 66
   1
 39
0.000000
 70
    1
  0
VERTEX
  8
0
 10
7.30814579
 20
3.85149167
  0
VERTEX
  8
0
 10
7.31120795
 20
3.87662703
  0
VERTEX
  8
0
 10
7.31697255
 20
3.90044566
  0
VERTEX
  8
0
 10
7.32522861
 20
3.92298825
  0
VERTEX
  8
0
 10
7.33576514
 20
3.94429548
  0
VERTEX
  8
0
 10
7.34837118
 20
3.96440806
  0
VERTEX
  8
0
 10
7.36283573
 20
3.98336667
  0
VERTEX
  8
0
 10
7.37894782
 20
4.00121199
  0
VERTEX
  8
0
 10
7.39649648
 20
4.01798472
  0
VERTEX
  8
0
 10
7.41527072
 20
4.03372555
  0
VERTEX
  8
0
 10
7.43505958
 20
4.04847517
  0
VERTEX
  8
0
 10
7.45565206
 20
4.06227427
  0
VERTEX
  8
0
 10
7.47683719
 20
4.07516354
  0
VERTEX
  8
0
 10
7.49840400
 20
4.08718367
  0
VERTEX
  8
0
 10
7.52014150
 20
4.09837535
  0
VERTEX
  8
0
 10
7.56328467
 20
4.11843611
  0
VERTEX
  8
0
 10
7.56289754
 20
4.11207316
  0
VERTEX
  8
0
 10
7.56173058
 20
4.10623695
  0
VERTEX
  8
0
 10
7.55985358
 20
4.10088454
  0
VERTEX
  8
0
 10
7.55733632
 20
4.09597300
  0
VERTEX
  8
0
 10
7.55066016
 20
4.08730086
  0
VERTEX
  8
0
 10
7.54226037
 20
4.07987708
  0
VERTEX
  8
0
 10
7.53269521
 20
4.07335826
  0
VERTEX
  8
0
 10
7.52252296
 20
4.06740095
  0
VERTEX
  8
0
 10
7.50259023
 20
4.05579722
  0
VERTEX
  8
0
 10
7.47937734
 20
4.04207136
  0
VERTEX
  8
0
 10
7.45665273
 20
4.02708411
  0
VERTEX
  8
0
 10
7.43478750
 20
4.01074595
  0
VERTEX
  8
0
 10
7.41415273
 20
3.99296736
  0
VERTEX
  8
0
 10
7.39511953
 20
3.97365882
  0
VERTEX
  8
0
 10
7.37805898
 20
3.95273081
  0
VERTEX
  8
0
 10
7.37038442
 20
3.94163154
  0
VERTEX
  8
0
 10
7.36334218
 20
3.93009382
  0
VERTEX
  8
0
 10
7.35697866
 20
3.91810649
  0
VERTEX
  8
0
 10
7.35134023
 20
3.90565833
  0
VERTEX
  8
0
 10
7.34794810
 20
3.89697001
  0
VERTEX
  8
0
 10
7.34532949
 20
3.88820255
  0
VERTEX
  8
0
 10
7.34213450
 20
3.87046519
  0
VERTEX
  8
0
 10
7.34119863
 20
3.85251624
  0
VERTEX
  8
0
 10
7.34196523
 20
3.83442569
  0
VERTEX
  8
0
 10
7.34387767
 20
3.81626353
  0
VERTEX
  8
0
 10
7.34637929
 20
3.79809974
  0
VERTEX
  8
0
 10
7.35092356
 20
3.76204722
  0
VERTEX
  8
0
 10
7.34342716
 20
3.76345456
  0
VERTEX
  8
0
 10
7.33697445
 20
3.76589054
  0
VERTEX
  8
0
 10
7.33147959
 20
3.76925425
  0
VERTEX
  8
0
 10
7.32685672
 20
3.77344479
  0
VERTEX
  8
0
 10
7.32301999
 20
3.77836124
  0
VERTEX
  8
0
 10
7.31988352
 20
3.78390269
  0
VERTEX
  8
0
 10
7.31536801
 20
3.79645694
  0
VERTEX
  8
0
 10
7.31262332
 20
3.81030026
  0
VERTEX
  8
0
 10
7.31096263
 20
3.82462535
  0
VERTEX
  8
0
 10
7.30814579
 20
3.85149167
  0
SEQEND
  0
POLYLINE
  8
Default_Layer
 66
   1
 39
0.000000
 70
    1
  0
VERTEX
  8
0
 10
8.11203467
 20
3.82857500
  0
VERTEX
  8
0
 10
8.12716129
 20
3.82873467
  0
VERTEX
  8
0
 10
8.14208405
 20
3.82983287
  0
VERTEX
  8
0
 10
8.15682044
 20
3.83178270
  0
VERTEX
  8
0
 10
8.17138797
 20
3.83449731
  0
VERTEX
  8
0
 10
8.20008643
 20
3.84187334
  0
VERTEX
  8
0
 10
8.22831940
 20
3.85126597
  0
VERTEX
  8
0
 10
8.25622684
 20
3.86198022
  0
VERTEX
  8
0
 10
8.28394874
 20
3.87332109
  0
VERTEX
  8
0
 10
8.31162506
 20
3.88459361
  0
VERTEX
  8
0
 10
8.33939579
 20
3.89510278
  0
VERTEX
  8
0
 10
8.33245134
 20
3.86760278
  0
VERTEX
  8
0
 10
8.29788401
 20
3.84877438
  0
VERTEX
  8
0
 10
8.26169396
 20
3.83166311
  0
VERTEX
  8
0
 10
8.24309367
 20
3.82399502
  0
VERTEX
  8
0
 10
8.22421160
 20
3.81704858
  0
VERTEX
  8
0
 10
8.20508904
 20
3.81092122
  0
VERTEX
  8
0
 10
8.18576731
 20
3.80571042
  0
VERTEX
  8
0
 10
8.16628771
 20
3.80151360
  0
VERTEX
  8
0
 10
8.14669152
 20
3.79842824
  0
VERTEX
  8
0
 10
8.12702006
 20
3.79655178
  0
VERTEX
  8
0
 10
8.10731462
 20
3.79598168
  0
VERTEX
  8
0
 10
8.08761651
 20
3.79681539
  0
VERTEX
  8
0
 10
8.06796702
 20
3.79915036
  0
VERTEX
  8
0
 10
8.04840746
 20
3.80308404
  0
VERTEX
  8
0
 10
8.02897912
 20
3.80871389
  0
VERTEX
  8
0
 10
8.00601037
 20
3.81705373
  0
VERTEX
  8
0
 10
7.99446740
 20
3.82203664
  0
VERTEX
  8
0
 10
7.98356245
 20
3.82793264
  0
VERTEX
  8
0
 10
7.97380334
 20
3.83502004
  0
VERTEX
  8
0
 10
7.96569787
 20
3.84357717
  0
VERTEX
  8
0
 10
7.96242394
 20
3.84849386
  0
VERTEX
  8
0
 10
7.95975386
 20
3.85388234
  0
VERTEX
  8
0
 10
7.95775109
 20
3.85977743
  0
VERTEX
  8
0
 10
7.95647912
 20
3.86621389
  0
VERTEX
  8
0
 10
7.97562734
 20
3.86032413
  0
VERTEX
  8
0
 10
7.99469092
 20
3.85380937
  0
VERTEX
  8
0
 10
8.03290273
 20
3.84083194
  0
VERTEX
  8
0
 10
8.05222022
 20
3.83533281
  0
VERTEX
  8
0
 10
8.07179162
 20
3.83113576
  0
VERTEX
  8
0
 10
8.09170156
 20
3.82872257
  0
VERTEX
  8
0
 10
8.11203467
 20
3.82857500
  0
SEQEND
  0
POLYLINE
  8
Default_Layer
 66
   1
 39
0.000000
 70
    1
  0
VERTEX
  8
0
 10
7.64647912
 20
3.70301944
  0
VERTEX
  8
0
 10
7.65809957
 20
3.70288635
  0
VERTEX
  8
0
 10
7.66925391
 20
3.70140784
  0
VERTEX
  8
0
 10
7.68000665
 20
3.69876194
  0
VERTEX
  8
0
 10
7.69042226
 20
3.69512665
  0
VERTEX
  8
0
 10
7.71050012
 20
3.68560001
  0
VERTEX
  8
0
 10
7.73000342
 20
3.67425208
  0
VERTEX
  8
0
 10
7.74944814
 20
3.66250702
  0
VERTEX
  8
0
 10
7.76935021
 20
3.65178897
  0
VERTEX
  8
0
 10
7.77963399
 20
3.64726013
  0
VERTEX
  8
0
 10
7.79022559
 20
3.64352210
  0
VERTEX
  8
0
 10
7.80118951
 20
3.64075290
  0
VERTEX
  8
0
 10
7.81259023
 20
3.63913055
  0
VERTEX
  8
0
 10
7.82680050
 20
3.63606198
  0
VERTEX
  8
0
 10
7.84094689
 20
3.63421085
  0
VERTEX
  8
0
 10
7.85503713
 20
3.63343719
  0
VERTEX
  8
0
 10
7.86907895
 20
3.63360104
  0
VERTEX
  8
0
 10
7.89704824
 20
3.63618134
  0
VERTEX
  8
0
 10
7.92491662
 20
3.64083194
  0
VERTEX
  8
0
 10
7.98059804
 20
3.65186493
  0
VERTEX
  8
0
 10
8.00853478
 20
3.65600772
  0
VERTEX
  8
0
 10
8.02255422
 20
3.65724579
  0
VERTEX
  8
0
 10
8.03661801
 20
3.65774167
  0
VERTEX
  8
0
 10
8.03045122
 20
3.65044701
  0
VERTEX
  8
0
 10
8.02375505
 20
3.64398733
  0
VERTEX
  8
0
 10
8.01657956
 20
3.63829586
  0
VERTEX
  8
0
 10
8.00897478
 20
3.63330590
  0
VERTEX
  8
0
 10
7.99267758
 20
3.62516354
  0
VERTEX
  8
0
 10
7.97526384
 20
3.61902639
  0
VERTEX
  8
0
 10
7.95713396
 20
3.61436059
  0
VERTEX
  8
0
 10
7.93868832
 20
3.61063229
  0
VERTEX
  8
0
 10
7.90245134
 20
3.60385278
  0
VERTEX
  8
0
 10
7.88441247
 20
3.60149662
  0
VERTEX
  8
0
 10
7.86646718
 20
3.60058292
  0
VERTEX
  8
0
 10
7.84865373
 20
3.60104699
  0
VERTEX
  8
0
 10
7.83101037
 20
3.60282413
  0
VERTEX
  8
0
 10
7.81357534
 20
3.60584964
  0
VERTEX
  8
0
 10
7.79638689
 20
3.61005883
  0
VERTEX
  8
0
 10
7.77948327
 20
3.61538700
  0
VERTEX
  8
0
 10
7.76290273
 20
3.62176944
  0
VERTEX
  8
0
 10
7.74668352
 20
3.62914147
  0
VERTEX
  8
0
 10
7.73086388
 20
3.63743839
  0
VERTEX
  8
0
 10
7.71548208
 20
3.64659549
  0
VERTEX
  8
0
 10
7.70057634
 20
3.65654809
  0
VERTEX
  8
0
 10
7.68618493
 20
3.66723148
  0
VERTEX
  8
0
 10
7.67234609
 20
3.67858097
  0
VERTEX
  8
0
 10
7.65909807
 20
3.69053185
  0
VERTEX
  8
0
 10
7.64647912
 20
3.70301944
  0
SEQEND
  0
POLYLINE
  8
Default_Layer
 66
   1
 39
0.000000
 70
    1
  0
VERTEX
  8
0
 10
4.56175690
 20
3.53774167
  0
VERTEX
  8
0
 10
4.58436974
 20
3.52880856
  0
VERTEX
  8
0
 10
4.60609717
 20
3.51820390
  0
VERTEX
  8
0
 10
4.62714752
 20
3.50631344
  0
VERTEX
  8
0
 10
4.64772912
 20
3.49352292
  0
VERTEX
  8
0
 10
4.68831940
 20
3.46678463
  0
VERTEX
  8
0
 10
4.70874474
 20
3.45360836
  0
VERTEX
  8
0
 10
4.72953467
 20
3.44107500
  0
VERTEX
  8
0
 10
4.80502279
 20
3.39710602
  0
VERTEX
  8
0
 10
4.88101118
 20
3.35400414
  0
VERTEX
  8
0
 10
4.95748908
 20
3.31177385
  0
VERTEX
  8
0
 10
5.03444570
 20
3.27041962
  0
VERTEX
  8
0
 10
5.11187025
 20
3.22994592
  0
VERTEX
  8
0
 10
5.18975196
 20
3.19035723
  0
VERTEX
  8
0
 10
5.26808004
 20
3.15165802
  0
VERTEX
  8
0
 10
5.34684370
 20
3.11385278
  0
VERTEX
  8
0
 10
5.42603217
 20
3.07694597
  0
VERTEX
  8
0
 10
5.50563466
 20
3.04094208
  0
VERTEX
  8
0
 10
5.58564039
 20
3.00584557
  0
VERTEX
  8
0
 10
5.66603858
 20
2.97166094
  0
VERTEX
  8
0
 10
5.74681844
 20
2.93839264
  0
VERTEX
  8
0
 10
5.82796919
 20
2.90604516
  0
VERTEX
  8
0
 10
5.90948005
 20
2.87462297
  0
VERTEX
  8
0
 10
5.99134023
 20
2.84413055
  0
VERTEX
  8
0
 10
6.00808746
 20
2.83815860
  0
VERTEX
  8
0
 10
6.02635976
 20
2.83346432
  0
VERTEX
  8
0
 10
6.04523427
 20
2.82909882
  0
VERTEX
  8
0
 10
6.06378815
 20
2.82411319
  0
VERTEX
  8
0
 10
6.08109853
 20
2.81755856
  0
VERTEX
  8
0
 10
6.08899902
 20
2.81339634
  0
VERTEX
  8
0
 10
6.09624257
 20
2.80848602
  0
VERTEX
  8
0
 10
6.10271383
 20
2.80270901
  0
VERTEX
  8
0
 10
6.10829742
 20
2.79594669
  0
VERTEX
  8
0
 10
6.11287801
 20
2.78808044
  0
VERTEX
  8
0
 10
6.11634023
 20
2.77899167
  0
VERTEX
  8
0
 10
6.06660878
 20
2.79070906
  0
VERTEX
  8
0
 10
6.01762929
 20
2.80481415
  0
VERTEX
  8
0
 10
5.96925527
 20
2.82083004
  0
VERTEX
  8
0
 10
5.92134023
 20
2.83827986
  0
VERTEX
  8
0
 10
5.82630117
 20
2.87557370
  0
VERTEX
  8
0
 10
5.73134023
 20
2.91288055
  0
VERTEX
  8
0
 10
5.58922353
 20
2.97264021
  0
VERTEX
  8
0
 10
5.44807851
 20
3.03473385
  0
VERTEX
  8
0
 10
5.30805654
 20
3.09932098
  0
VERTEX
  8
0
 10
5.23851400
 20
3.13259945
  0
VERTEX
  8
0
 10
5.16930898
 20
3.16656111
  0
VERTEX
  8
0
 10
5.10046041
 20
3.20122589
  0
VERTEX
  8
0
 10
5.03198720
 20
3.23661374
  0
VERTEX
  8
0
 10
4.96390828
 20
3.27274458
  0
VERTEX
  8
0
 10
4.89624257
 20
3.30963837
  0
VERTEX
  8
0
 10
4.82900899
 20
3.34731503
  0
VERTEX
  8
0
 10
4.76222646
 20
3.38579451
  0
VERTEX
  8
0
 10
4.69591390
 20
3.42509674
  0
VERTEX
  8
0
 10
4.63009023
 20
3.46524167
  0
VERTEX
  8
0
 10
4.60794830
 20
3.47918698
  0
VERTEX
  8
0
 10
4.59654287
 20
3.48625241
  0
VERTEX
  8
0
 10
4.58576731
 20
3.49388750
  0
VERTEX
  8
0
 10
4.57626129
 20
3.50247311
  0
VERTEX
  8
0
 10
4.56866445
 20
3.51239010
  0
VERTEX
  8
0
 10
4.56578186
 20
3.51796689
  0
VERTEX
  8
0
 10
4.56361643
 20
3.52401933
  0
VERTEX
  8
0
 10
4.56224813
 20
3.53059506
  0
VERTEX
  8
0
 10
4.56175690
 20
3.53774167
  0
SEQEND
  0
POLYLINE
  8
Default_Layer
 66
   1
 39
0.000000
 70
    1
  0
VERTEX
  8
0
 10
4.92481245
 20
3.52343611
  0
VERTEX
  8
0
 10
4.93327087
 20
3.52230153
  0
VERTEX
  8
0
 10
4.94141863
 20
3.52044674
  0
VERTEX
  8
0
 10
4.95685455
 20
3.51480764
  0
VERTEX
  8
0
 10
4.97126509
 20
3.50698103
  0
VERTEX
  8
0
 10
4.98479509
 20
3.49742917
  0
VERTEX
  8
0
 10
4.99758942
 20
3.48661428
  0
VERTEX
  8
0
 10
5.00979292
 20
3.47499861
  0
VERTEX
  8
0
 10
5.03300690
 20
3.45121389
  0
VERTEX
  8
0
 10
5.05279449
 20
3.42778832
  0
VERTEX
  8
0
 10
5.07198476
 20
3.40323646
  0
VERTEX
  8
0
 10
5.08985016
 20
3.37755178
  0
VERTEX
  8
0
 10
5.10566315
 20
3.35072778
  0
VERTEX
  8
0
 10
5.11257263
 20
3.33688649
  0
VERTEX
  8
0
 10
5.11869619
 20
3.32275794
  0
VERTEX
  8
0
 10
5.12394287
 20
3.30834130
  0
VERTEX
  8
0
 10
5.12822174
 20
3.29363576
  0
VERTEX
  8
0
 10
5.13144185
 20
3.27864051
  0
VERTEX
  8
0
 10
5.13351227
 20
3.26335473
  0
VERTEX
  8
0
 10
5.13434204
 20
3.24777761
  0
VERTEX
  8
0
 10
5.13384023
 20
3.23190833
  0
VERTEX
  8
0
 10
5.12774245
 20
3.23642446
  0
VERTEX
  8
0
 10
5.12246029
 20
3.24149438
  0
VERTEX
  8
0
 10
5.11790120
 20
3.24705665
  0
VERTEX
  8
0
 10
5.11397261
 20
3.25304983
  0
VERTEX
  8
0
 10
5.10763662
 20
3.26608314
  0
VERTEX
  8
0
 10
5.10271176
 20
3.28010278
  0
VERTEX
  8
0
 10
5.09413320
 20
3.30913489
  0
VERTEX
  8
0
 10
5.08899838
 20
3.32316430
  0
VERTEX
  8
0
 10
5.08231245
 20
3.33621389
  0
VERTEX
  8
0
 10
5.07561506
 20
3.35039839
  0
VERTEX
  8
0
 10
5.06803674
 20
3.36388913
  0
VERTEX
  8
0
 10
5.05967634
 20
3.37676381
  0
VERTEX
  8
0
 10
5.05063277
 20
3.38910017
  0
VERTEX
  8
0
 10
5.03089155
 20
3.41246877
  0
VERTEX
  8
0
 10
5.00960412
 20
3.43461667
  0
VERTEX
  8
0
 10
4.96555464
 20
3.47773733
  0
VERTEX
  8
0
 10
4.94437463
 20
3.49995358
  0
VERTEX
  8
0
 10
4.92481245
 20
3.52343611
  0
SEQEND
  0
POLYLINE
  8
Default_Layer
 66
   1
 39
0.000000
 70
    1
  0
VERTEX
  8
0
 10
7.21967356
 20
3.52288055
  0
VERTEX
  8
0
 10
7.22806247
 20
3.52053792
  0
VERTEX
  8
0
 10
7.23597755
 20
3.51742727
  0
VERTEX
  8
0
 10
7.25062625
 20
3.50928029
  0
VERTEX
  8
0
 10
7.26409983
 20
3.49919647
  0
VERTEX
  8
0
 10
7.27687842
 20
3.48793264
  0
VERTEX
  8
0
 10
7.30227122
 20
3.46489227
  0
VERTEX
  8
0
 10
7.31584571
 20
3.45462941
  0
VERTEX
  8
0
 10
7.33064579
 20
3.44621389
  0
VERTEX
  8
0
 10
7.35163517
 20
3.43601735
  0
VERTEX
  8
0
 10
7.37301395
 20
3.42765594
  0
VERTEX
  8
0
 10
7.39474186
 20
3.42095632
  0
VERTEX
  8
0
 10
7.41677860
 20
3.41574514
  0
VERTEX
  8
0
 10
7.43908390
 20
3.41184906
  0
VERTEX
  8
0
 10
7.46161747
 20
3.40909475
  0
VERTEX
  8
0
 10
7.48433902
 20
3.40730886
  0
VERTEX
  8
0
 10
7.50720829
 20
3.40631805
  0
VERTEX
  8
0
 10
7.55322879
 20
3.40602834
  0
VERTEX
  8
0
 10
7.59935672
 20
3.40683889
  0
VERTEX
  8
0
 10
7.64526981
 20
3.40736298
  0
VERTEX
  8
0
 10
7.69064579
 20
3.40621389
  0
VERTEX
  8
0
 10
7.68769033
 20
3.40034800
  0
VERTEX
  8
0
 10
7.68424171
 20
3.39525035
  0
VERTEX
  8
0
 10
7.68030155
 20
3.39092092
  0
VERTEX
  8
0
 10
7.67587148
 20
3.38735972
  0
VERTEX
  8
0
 10
7.67095313
 20
3.38456675
  0
VERTEX
  8
0
 10
7.66554813
 20
3.38254201
  0
VERTEX
  8
0
 10
7.65965810
 20
3.38128550
  0
VERTEX
  8
0
 10
7.65328467
 20
3.38079722
  0
VERTEX
  8
0
 10
7.56845178
 20
3.37777639
  0
VERTEX
  8
0
 10
7.52574317
 20
3.37735972
  0
VERTEX
  8
0
 10
7.48316315
 20
3.37871389
  0
VERTEX
  8
0
 10
7.46199714
 20
3.38029917
  0
VERTEX
  8
0
 10
7.44095422
 20
3.38262014
  0
VERTEX
  8
0
 10
7.42006470
 20
3.38577443
  0
VERTEX
  8
0
 10
7.39935889
 20
3.38985972
  0
VERTEX
  8
0
 10
7.37886712
 20
3.39497365
  0
VERTEX
  8
0
 10
7.35861969
 20
3.40121389
  0
VERTEX
  8
0
 10
7.33864692
 20
3.40867808
  0
VERTEX
  8
0
 10
7.31897912
 20
3.41746389
  0
VERTEX
  8
0
 10
7.30184913
 20
3.42533173
  0
VERTEX
  8
0
 10
7.28615794
 20
3.43522430
  0
VERTEX
  8
0
 10
7.27185998
 20
3.44688772
  0
VERTEX
  8
0
 10
7.25890967
 20
3.46006805
  0
VERTEX
  8
0
 10
7.24726145
 20
3.47451141
  0
VERTEX
  8
0
 10
7.23686974
 20
3.48996389
  0
VERTEX
  8
0
 10
7.22768897
 20
3.50617157
  0
VERTEX
  8
0
 10
7.21967356
 20
3.52288055
  0
SEQEND
  0
POLYLINE
  8
Default_Layer
 66
   1
 39
0.000000
 70
    1
  0
VERTEX
  8
0
 10
5.23092356
 20
3.49538055
  0
VERTEX
  8
0
 10
5.26153636
 20
3.48410668
  0
VERTEX
  8
0
 10
5.29121653
 20
3.47058021
  0
VERTEX
  8
0
 10
5.31985179
 20
3.45493134
  0
VERTEX
  8
0
 10
5.34732981
 20
3.43729028
  0
VERTEX
  8
0
 10
5.37353831
 20
3.41778724
  0
VERTEX
  8
0
 10
5.39836497
 20
3.39655243
  0
VERTEX
  8
0
 10
5.42169749
 20
3.37371606
  0
VERTEX
  8
0
 10
5.44342356
 20
3.34940833
  0
VERTEX
  8
0
 10
5.45710086
 20
3.33055281
  0
VERTEX
  8
0
 10
5.46841488
 20
3.31030894
  0
VERTEX
  8
0
 10
5.47732005
 20
3.28894202
  0
VERTEX
  8
0
 10
5.48377079
 20
3.26671736
  0
VERTEX
  8
0
 10
5.48772152
 20
3.24390025
  0
VERTEX
  8
0
 10
5.48912669
 20
3.22075599
  0
VERTEX
  8
0
 10
5.48794071
 20
3.19754988
  0
VERTEX
  8
0
 10
5.48411801
 20
3.17454722
  0
VERTEX
  8
0
 10
5.48213721
 20
3.16754608
  0
VERTEX
  8
0
 10
5.47933936
 20
3.16106415
  0
VERTEX
  8
0
 10
5.47575375
 20
3.15516490
  0
VERTEX
  8
0
 10
5.47140967
 20
3.14991180
  0
VERTEX
  8
0
 10
5.46633643
 20
3.14536835
  0
VERTEX
  8
0
 10
5.46056332
 20
3.14159800
  0
VERTEX
  8
0
 10
5.45411964
 20
3.13866425
  0
VERTEX
  8
0
 10
5.44703467
 20
3.13663055
  0
VERTEX
  8
0
 10
5.45323042
 20
3.17389401
  0
VERTEX
  8
0
 10
5.45623633
 20
3.19279510
  0
VERTEX
  8
0
 10
5.45837148
 20
3.21171736
  0
VERTEX
  8
0
 10
5.45902876
 20
3.23054196
  0
VERTEX
  8
0
 10
5.45760108
 20
3.24915009
  0
VERTEX
  8
0
 10
5.45591566
 20
3.25833584
  0
VERTEX
  8
0
 10
5.45348134
 20
3.26742293
  0
VERTEX
  8
0
 10
5.45022224
 20
3.27639648
  0
VERTEX
  8
0
 10
5.44606245
 20
3.28524167
  0
VERTEX
  8
0
 10
5.43863156
 20
3.30165883
  0
VERTEX
  8
0
 10
5.43000071
 20
3.31705427
  0
VERTEX
  8
0
 10
5.42027205
 20
3.33150326
  0
VERTEX
  8
0
 10
5.40954770
 20
3.34508108
  0
VERTEX
  8
0
 10
5.39792979
 20
3.35786299
  0
VERTEX
  8
0
 10
5.38552046
 20
3.36992428
  0
VERTEX
  8
0
 10
5.37242184
 20
3.38134023
  0
VERTEX
  8
0
 10
5.35873606
 20
3.39218611
  0
VERTEX
  8
0
 10
5.33001156
 20
3.41246877
  0
VERTEX
  8
0
 10
5.30016402
 20
3.43137448
  0
VERTEX
  8
0
 10
5.24036801
 20
3.46746389
  0
VERTEX
  8
0
 10
5.23092356
 20
3.49538055
  0
SEQEND
  0
POLYLINE
  8
Default_Layer
 66
   1
 39
0.000000
 70
    1
  0
VERTEX
  8
0
 10
5.63370134
 20
3.38788055
  0
VERTEX
  8
0
 10
5.64862295
 20
3.38393877
  0
VERTEX
  8
0
 10
5.66244917
 20
3.37788272
  0
VERTEX
  8
0
 10
5.67533464
 20
3.37008514
  0
VERTEX
  8
0
 10
5.68743398
 20
3.36091875
  0
VERTEX
  8
0
 10
5.69890181
 20
3.35075626
  0
VERTEX
  8
0
 10
5.70989275
 20
3.33997040
  0
VERTEX
  8
0
 10
5.73106245
 20
3.31801944
  0
VERTEX
  8
0
 10
5.75137821
 20
3.29479733
  0
VERTEX
  8
0
 10
5.77121870
 20
3.27060191
  0
VERTEX
  8
0
 10
5.78986128
 20
3.24535831
  0
VERTEX
  8
0
 10
5.80658329
 20
3.21899167
  0
VERTEX
  8
0
 10
5.81399824
 20
3.20536380
  0
VERTEX
  8
0
 10
5.82066206
 20
3.19142710
  0
VERTEX
  8
0
 10
5.82648441
 20
3.17717221
  0
VERTEX
  8
0
 10
5.83137495
 20
3.16258976
  0
VERTEX
  8
0
 10
5.83524336
 20
3.14767039
  0
VERTEX
  8
0
 10
5.83799930
 20
3.13240475
  0
VERTEX
  8
0
 10
5.83955244
 20
3.11678348
  0
VERTEX
  8
0
 10
5.83981245
 20
3.10079722
  0
VERTEX
  8
0
 10
5.83953902
 20
3.06920217
  0
VERTEX
  8
0
 10
5.83803999
 20
3.05250376
  0
VERTEX
  8
0
 10
5.83481245
 20
3.03637014
  0
VERTEX
  8
0
 10
5.83235823
 20
3.02878825
  0
VERTEX
  8
0
 10
5.82924116
 20
3.02167531
  0
VERTEX
  8
0
 10
5.82538435
 20
3.01514058
  0
VERTEX
  8
0
 10
5.82071089
 20
3.00929331
  0
VERTEX
  8
0
 10
5.81514387
 20
3.00424276
  0
VERTEX
  8
0
 10
5.80860640
 20
3.00009816
  0
VERTEX
  8
0
 10
5.80102156
 20
2.99696879
  0
VERTEX
  8
0
 10
5.79231245
 20
2.99496389
  0
VERTEX
  8
0
 10
5.79992747
 20
3.02403073
  0
VERTEX
  8
0
 10
5.80771176
 20
3.05322778
  0
VERTEX
  8
0
 10
5.81085765
 20
3.06793209
  0
VERTEX
  8
0
 10
5.81307417
 20
3.08273733
  0
VERTEX
  8
0
 10
5.81403744
 20
3.09766625
  0
VERTEX
  8
0
 10
5.81342356
 20
3.11274167
  0
VERTEX
  8
0
 10
5.80968197
 20
3.13570526
  0
VERTEX
  8
0
 10
5.80362105
 20
3.15801293
  0
VERTEX
  8
0
 10
5.79548655
 20
3.17963376
  0
VERTEX
  8
0
 10
5.78552426
 20
3.20053680
  0
VERTEX
  8
0
 10
5.77397993
 20
3.22069116
  0
VERTEX
  8
0
 10
5.76109934
 20
3.24006588
  0
VERTEX
  8
0
 10
5.74712826
 20
3.25863007
  0
VERTEX
  8
0
 10
5.73231245
 20
3.27635278
  0
VERTEX
  8
0
 10
5.71976390
 20
3.29012855
  0
VERTEX
  8
0
 10
5.70661150
 20
3.30340790
  0
VERTEX
  8
0
 10
5.67982981
 20
3.32956458
  0
VERTEX
  8
0
 10
5.66686785
 20
3.34298553
  0
VERTEX
  8
0
 10
5.65463667
 20
3.35699731
  0
VERTEX
  8
0
 10
5.64346995
 20
3.37187171
  0
VERTEX
  8
0
 10
5.63370134
 20
3.38788055
  0
SEQEND
  0
POLYLINE
  8
Default_Layer
 66
   1
 39
0.000000
 70
    1
  0
VERTEX
  8
0
 10
4.69189579
 20
3.18496389
  0
VERTEX
  8
0
 10
4.72011817
 20
3.17687958
  0
VERTEX
  8
0
 10
4.74785716
 20
3.16698212
  0
VERTEX
  8
0
 10
4.80281592
 20
3.14538055
  0
VERTEX
  8
0
 10
4.83050120
 20
3.13549286
  0
VERTEX
  8
0
 10
4.85863407
 20
3.12742483
  0
VERTEX
  8
0
 10
4.87294108
 20
3.12435699
  0
VERTEX
  8
0
 10
4.88744727
 20
3.12208466
  0
VERTEX
  8
0
 10
4.90218174
 20
3.12072133
  0
VERTEX
  8
0
 10
4.91717356
 20
3.12038055
  0
VERTEX
  8
0
 10
4.93786448
 20
3.11998830
  0
VERTEX
  8
0
 10
4.95819570
 20
3.12187795
  0
VERTEX
  8
0
 10
4.97821116
 20
3.12564911
  0
VERTEX
  8
0
 10
4.99795481
 20
3.13090139
  0
VERTEX
  8
0
 10
5.01747060
 20
3.13723440
  0
VERTEX
  8
0
 10
5.03680247
 20
3.14424774
  0
VERTEX
  8
0
 10
5.07509023
 20
3.15871389
  0
VERTEX
  8
0
 10
5.07496009
 20
3.15222416
  0
VERTEX
  8
0
 10
5.07394494
 20
3.14632077
  0
VERTEX
  8
0
 10
5.07212331
 20
3.14096181
  0
VERTEX
  8
0
 10
5.06957374
 20
3.13610538
  0
VERTEX
  8
0
 10
5.06260488
 20
3.12773244
  0
VERTEX
  8
0
 10
5.05366662
 20
3.12086667
  0
VERTEX
  8
0
 10
5.04338721
 20
3.11517276
  0
VERTEX
  8
0
 10
5.03239492
 20
3.11031545
  0
VERTEX
  8
0
 10
5.01078467
 20
3.10176944
  0
VERTEX
  8
0
 10
4.99482890
 20
3.09672753
  0
VERTEX
  8
0
 10
4.97875044
 20
3.09291202
  0
VERTEX
  8
0
 10
4.96257636
 20
3.09025699
  0
VERTEX
  8
0
 10
4.94633372
 20
3.08869653
  0
VERTEX
  8
0
 10
4.93004957
 20
3.08816471
  0
VERTEX
  8
0
 10
4.91375098
 20
3.08859561
  0
VERTEX
  8
0
 10
4.89746501
 20
3.08992333
  0
VERTEX
  8
0
 10
4.88121870
 20
3.09208194
  0
VERTEX
  8
0
 10
4.84895335
 20
3.09862817
  0
VERTEX
  8
0
 10
4.81717139
 20
3.10770694
  0
VERTEX
  8
0
 10
4.78608931
 20
3.11879093
  0
VERTEX
  8
0
 10
4.75592356
 20
3.13135278
  0
VERTEX
  8
0
 10
4.73589969
 20
3.14035451
  0
VERTEX
  8
0
 10
4.72576487
 20
3.14514184
  0
VERTEX
  8
0
 10
4.71614926
 20
3.15055417
  0
VERTEX
  8
0
 10
4.70750370
 20
3.15691701
  0
VERTEX
  8
0
 10
4.70027903
 20
3.16455590
  0
VERTEX
  8
0
 10
4.69492611
 20
3.17379635
  0
VERTEX
  8
0
 10
4.69309245
 20
3.17911889
  0
VERTEX
  8
0
 10
4.69189579
 20
3.18496389
  0
SEQEND
  0
POLYLINE
  8
Default_Layer
 66
   1
 39
0.000000
 70
    1
  0
VERTEX
  8
0
 10
5.21939579
 20
2.92996389
  0
VERTEX
  8
0
 10
5.23010685
 20
2.93129340
  0
VERTEX
  8
0
 10
5.24044885
 20
2.93353621
  0
VERTEX
  8
0
 10
5.25046939
 20
2.93657369
  0
VERTEX
  8
0
 10
5.26021610
 20
2.94028724
  0
VERTEX
  8
0
 10
5.27907840
 20
2.94926809
  0
VERTEX
  8
0
 10
5.29741662
 20
2.95952986
  0
VERTEX
  8
0
 10
5.31561161
 20
2.97012366
  0
VERTEX
  8
0
 10
5.33404422
 20
2.98010061
  0
VERTEX
  8
0
 10
5.35309533
 20
2.98851179
  0
VERTEX
  8
0
 10
5.36297184
 20
2.99183370
  0
VERTEX
  8
0
 10
5.37314579
 20
2.99440833
  0
VERTEX
  8
0
 10
5.36346795
 20
2.97940511
  0
VERTEX
  8
0
 10
5.35248091
 20
2.96568464
  0
VERTEX
  8
0
 10
5.34030124
 20
2.95322761
  0
VERTEX
  8
0
 10
5.32704553
 20
2.94201467
  0
VERTEX
  8
0
 10
5.31283034
 20
2.93202650
  0
VERTEX
  8
0
 10
5.29777225
 20
2.92324378
  0
VERTEX
  8
0
 10
5.28198785
 20
2.91564718
  0
VERTEX
  8
0
 10
5.26559370
 20
2.90921736
  0
VERTEX
  8
0
 10
5.24870639
 20
2.90393500
  0
VERTEX
  8
0
 10
5.23144250
 20
2.89978078
  0
VERTEX
  8
0
 10
5.21391859
 20
2.89673537
  0
VERTEX
  8
0
 10
5.19625125
 20
2.89477943
  0
VERTEX
  8
0
 10
5.17855706
 20
2.89389364
  0
VERTEX
  8
0
 10
5.16095259
 20
2.89405867
  0
VERTEX
  8
0
 10
5.14355442
 20
2.89525519
  0
VERTEX
  8
0
 10
5.12647912
 20
2.89746389
  0
VERTEX
  8
0
 10
5.09129683
 20
2.90405677
  0
VERTEX
  8
0
 10
5.07347131
 20
2.90772268
  0
VERTEX
  8
0
 10
5.05595829
 20
2.91229028
  0
VERTEX
  8
0
 10
5.03910933
 20
2.91825111
  0
VERTEX
  8
0
 10
5.02327599
 20
2.92609670
  0
VERTEX
  8
0
 10
5.01585005
 20
2.93087989
  0
VERTEX
  8
0
 10
5.00880985
 20
2.93631860
  0
VERTEX
  8
0
 10
5.00219933
 20
2.94247426
  0
VERTEX
  8
0
 10
4.99606245
 20
2.94940833
  0
VERTEX
  8
0
 10
5.01011844
 20
2.94914571
  0
VERTEX
  8
0
 10
5.02411584
 20
2.94808862
  0
VERTEX
  8
0
 10
5.05197391
 20
2.94416311
  0
VERTEX
  8
0
 10
5.10741662
 20
2.93307153
  0
VERTEX
  8
0
 10
5.13515750
 20
2.92819387
  0
VERTEX
  8
0
 10
5.16301558
 20
2.92528724
  0
VERTEX
  8
0
 10
5.17701297
 20
2.92493062
  0
VERTEX
  8
0
 10
5.19106896
 20
2.92549584
  0
VERTEX
  8
0
 10
5.20519331
 20
2.92712592
  0
VERTEX
  8
0
 10
5.21939579
 20
2.92996389
  0
SEQEND
  0
POLYLINE
  8
Default_Layer
 66
   1
 39
0.000000
 70
    1
  0
VERTEX
  8
0
 10
5.65842356
 20
2.73607500
  0
VERTEX
  8
0
 10
5.66859399
 20
2.73958628
  0
VERTEX
  8
0
 10
5.67835466
 20
2.74376814
  0
VERTEX
  8
0
 10
5.69683068
 20
2.75384410
  0
VERTEX
  8
0
 10
5.71421946
 20
2.76570390
  0
VERTEX
  8
0
 10
5.73088884
 20
2.77874861
  0
VERTEX
  8
0
 10
5.76354075
 20
2.80599687
  0
VERTEX
  8
0
 10
5.78025896
 20
2.81900252
  0
VERTEX
  8
0
 10
5.79772912
 20
2.83079722
  0
VERTEX
  8
0
 10
5.79507945
 20
2.81930213
  0
VERTEX
  8
0
 10
5.79134945
 20
2.80835473
  0
VERTEX
  8
0
 10
5.78661767
 20
2.79794932
  0
VERTEX
  8
0
 10
5.78096263
 20
2.78808021
  0
VERTEX
  8
0
 10
5.77446286
 20
2.77874169
  0
VERTEX
  8
0
 10
5.76719689
 20
2.76992808
  0
VERTEX
  8
0
 10
5.75924327
 20
2.76163367
  0
VERTEX
  8
0
 10
5.75068051
 20
2.75385278
  0
VERTEX
  8
0
 10
5.73204173
 20
2.73980872
  0
VERTEX
  8
0
 10
5.71190881
 20
2.72775035
  0
VERTEX
  8
0
 10
5.69091000
 20
2.71763207
  0
VERTEX
  8
0
 10
5.66967356
 20
2.70940833
  0
VERTEX
  8
0
 10
5.65286485
 20
2.70337965
  0
VERTEX
  8
0
 10
5.63588749
 20
2.69831431
  0
VERTEX
  8
0
 10
5.61875834
 20
2.69413398
  0
VERTEX
  8
0
 10
5.60149431
 20
2.69076033
  0
VERTEX
  8
0
 10
5.56662913
 20
2.68611976
  0
VERTEX
  8
0
 10
5.53142704
 20
2.68376597
  0
VERTEX
  8
0
 10
5.49602312
 20
2.68307234
  0
VERTEX
  8
0
 10
5.46055247
 20
2.68341224
  0
VERTEX
  8
0
 10
5.38995134
 20
2.68468611
  0
VERTEX
  8
0
 10
5.38228505
 20
2.68437822
  0
VERTEX
  8
0
 10
5.37526167
 20
2.68566050
  0
VERTEX
  8
0
 10
5.36878191
 20
2.68824812
  0
VERTEX
  8
0
 10
5.36274648
 20
2.69185625
  0
VERTEX
  8
0
 10
5.35161150
 20
2.70099470
  0
VERTEX
  8
0
 10
5.34106245
 20
2.71079722
  0
VERTEX
  8
0
 10
5.38088070
 20
2.71265811
  0
VERTEX
  8
0
 10
5.42096263
 20
2.71271562
  0
VERTEX
  8
0
 10
5.50130551
 20
2.71176944
  0
VERTEX
  8
0
 10
5.54126048
 20
2.71294023
  0
VERTEX
  8
0
 10
5.56111691
 20
2.71441227
  0
VERTEX
  8
0
 10
5.58086714
 20
2.71665660
  0
VERTEX
  8
0
 10
5.60049205
 20
2.71980913
  0
VERTEX
  8
0
 10
5.61997250
 20
2.72400577
  0
VERTEX
  8
0
 10
5.63928938
 20
2.72938243
  0
VERTEX
  8
0
 10
5.65842356
 20
2.73607500
  0
SEQEND
  0
POLYLINE
  8
Default_Layer
 66
   1
 39
0.000000
 70
    1
  0
VERTEX
  8
0
 10
5.18804963
 20
6.14453654
  0
VERTEX
  8
0
 10
5.12695537
 20
6.12393392
  0
VERTEX
  8
0
 10
5.06696483
 20
6.10078979
  0
VERTEX
  8
0
 10
5.00809449
 20
6.07520914
  0
VERTEX
  8
0
 10
4.95036083
 20
6.04729695
  0
VERTEX
  8
0
 10
4.89378032
 20
6.01715820
  0
VERTEX
  8
0
 10
4.83836946
 20
5.98489787
  0
VERTEX
  8
0
 10
4.78414470
 20
5.95062093
  0
VERTEX
  8
0
 10
4.73112255
 20
5.91443237
  0
VERTEX
  8
0
 10
4.67931947
 20
5.87643717
  0
VERTEX
  8
0
 10
4.62875194
 20
5.83674031
  0
VERTEX
  8
0
 10
4.57943645
 20
5.79544677
  0
VERTEX
  8
0
 10
4.53138948
 20
5.75266154
  0
VERTEX
  8
0
 10
4.48462749
 20
5.70848958
  0
VERTEX
  8
0
 10
4.43916698
 20
5.66303589
  0
VERTEX
  8
0
 10
4.39502442
 20
5.61640543
  0
VERTEX
  8
0
 10
4.35221630
 20
5.56870320
  0
VERTEX
  8
0
 10
4.33178600
 20
5.55175154
  0
VERTEX
  8
0
 10
4.31243928
 20
5.53383857
  0
VERTEX
  8
0
 10
4.29404552
 20
5.51508046
  0
VERTEX
  8
0
 10
4.27647411
 20
5.49559339
  0
VERTEX
  8
0
 10
4.25959443
 20
5.47549353
  0
VERTEX
  8
0
 10
4.24327587
 20
5.45489705
  0
VERTEX
  8
0
 10
4.21179963
 20
5.41267890
  0
VERTEX
  8
0
 10
4.18100048
 20
5.36986830
  0
VERTEX
  8
0
 10
4.14983349
 20
5.32739461
  0
VERTEX
  8
0
 10
4.11725373
 20
5.28618720
  0
VERTEX
  8
0
 10
4.10010753
 20
5.26634877
  0
VERTEX
  8
0
 10
4.08221630
 20
5.24717543
  0
VERTEX
  8
0
 10
4.08513297
 20
5.27759209
  0
VERTEX
  8
0
 10
4.10389409
 20
5.30860718
  0
VERTEX
  8
0
 10
4.12386777
 20
5.33883775
  0
VERTEX
  8
0
 10
4.14480826
 20
5.36843682
  0
VERTEX
  8
0
 10
4.16646977
 20
5.39755737
  0
VERTEX
  8
0
 10
4.21097281
 20
5.45497491
  0
VERTEX
  8
0
 10
4.25541074
 20
5.51231431
  0
VERTEX
  8
0
 10
4.26837705
 20
5.52873521
  0
VERTEX
  8
0
 10
4.28247455
 20
5.54404609
  0
VERTEX
  8
0
 10
4.29737608
 20
5.55856920
  0
VERTEX
  8
0
 10
4.31275449
 20
5.57262681
  0
VERTEX
  8
0
 10
4.34363340
 20
5.60063463
  0
VERTEX
  8
0
 10
4.35847959
 20
5.61522935
  0
VERTEX
  8
0
 10
4.37249408
 20
5.63064765
  0
VERTEX
  8
0
 10
4.41351568
 20
5.67489156
  0
VERTEX
  8
0
 10
4.45577330
 20
5.71803316
  0
VERTEX
  8
0
 10
4.49924163
 20
5.76000501
  0
VERTEX
  8
0
 10
4.54389534
 20
5.80073967
  0
VERTEX
  8
0
 10
4.58970912
 20
5.84016970
  0
VERTEX
  8
0
 10
4.63665766
 20
5.87822764
  0
VERTEX
  8
0
 10
4.68471564
 20
5.91484606
  0
VERTEX
  8
0
 10
4.73385775
 20
5.94995750
  0
VERTEX
  8
0
 10
4.78405866
 20
5.98349454
  0
VERTEX
  8
0
 10
4.83529306
 20
6.01538971
  0
VERTEX
  8
0
 10
4.88753564
 20
6.04557558
  0
VERTEX
  8
0
 10
4.94076109
 20
6.07398471
  0
VERTEX
  8
0
 10
4.99494407
 20
6.10054964
  0
VERTEX
  8
0
 10
5.05005929
 20
6.12520294
  0
VERTEX
  8
0
 10
5.10608142
 20
6.14787716
  0
VERTEX
  8
0
 10
5.16298515
 20
6.16850485
  0
VERTEX
  8
0
 10
5.16882027
 20
6.17012826
  0
VERTEX
  8
0
 10
5.17402755
 20
6.17086298
  0
VERTEX
  8
0
 10
5.17861957
 20
6.17081024
  0
VERTEX
  8
0
 10
5.18260892
 20
6.17007132
  0
VERTEX
  8
0
 10
5.18882987
 20
6.16693989
  0
VERTEX
  8
0
 10
5.19279101
 20
6.16227870
  0
VERTEX
  8
0
 10
5.19459295
 20
6.15689777
  0
VERTEX
  8
0
 10
5.19433630
 20
6.15160709
  0
VERTEX
  8
0
 10
5.19212165
 20
6.14721667
  0
VERTEX
  8
0
 10
5.18804963
 20
6.14453654
  0
SEQEND
  0
POLYLINE
  8
Default_Layer
 66
   1
 39
0.000000
 70
    1
  0
VERTEX
  8
0
 10
4.88328467
 20
6.80051944
  0
VERTEX
  8
0
 10
4.88458686
 20
6.77597378
  0
VERTEX
  8
0
 10
4.88671648
 20
6.75151744
  0
VERTEX
  8
0
 10
4.88966437
 20
6.72717136
  0
VERTEX
  8
0
 10
4.89342139
 20
6.70295651
  0
VERTEX
  8
0
 10
4.89797838
 20
6.67889384
  0
VERTEX
  8
0
 10
4.90332618
 20
6.65500431
  0
VERTEX
  8
0
 10
4.90945563
 20
6.63130887
  0
VERTEX
  8
0
 10
4.91635759
 20
6.60782847
  0
VERTEX
  8
0
 10
4.92402289
 20
6.58458408
  0
VERTEX
  8
0
 10
4.93244239
 20
6.56159665
  0
VERTEX
  8
0
 10
4.94160692
 20
6.53888713
  0
VERTEX
  8
0
 10
4.95150733
 20
6.51647647
  0
VERTEX
  8
0
 10
4.96213447
 20
6.49438565
  0
VERTEX
  8
0
 10
4.97347917
 20
6.47263560
  0
VERTEX
  8
0
 10
4.98553229
 20
6.45124729
  0
VERTEX
  8
0
 10
4.99828467
 20
6.43024167
  0
VERTEX
  8
0
 10
4.95528781
 20
6.42071282
  0
VERTEX
  8
0
 10
4.91255198
 20
6.41021535
  0
VERTEX
  8
0
 10
4.87008430
 20
6.39877346
  0
VERTEX
  8
0
 10
4.82789188
 20
6.38641137
  0
VERTEX
  8
0
 10
4.78598185
 20
6.37315328
  0
VERTEX
  8
0
 10
4.74436133
 20
6.35902340
  0
VERTEX
  8
0
 10
4.70303745
 20
6.34404595
  0
VERTEX
  8
0
 10
4.66201731
 20
6.32824514
  0
VERTEX
  8
0
 10
4.62130805
 20
6.31164517
  0
VERTEX
  8
0
 10
4.58091678
 20
6.29427026
  0
VERTEX
  8
0
 10
4.54085063
 20
6.27614461
  0
VERTEX
  8
0
 10
4.50111671
 20
6.25729245
  0
VERTEX
  8
0
 10
4.46172214
 20
6.23773797
  0
VERTEX
  8
0
 10
4.42267405
 20
6.21750539
  0
VERTEX
  8
0
 10
4.34564579
 20
6.17510278
  0
VERTEX
  8
0
 10
4.32145369
 20
6.16034617
  0
VERTEX
  8
0
 10
4.29667280
 20
6.14704342
  0
VERTEX
  8
0
 10
4.27135562
 20
6.13508263
  0
VERTEX
  8
0
 10
4.24555464
 20
6.12435191
  0
VERTEX
  8
0
 10
4.21932234
 20
6.11473935
  0
VERTEX
  8
0
 10
4.19271122
 20
6.10613305
  0
VERTEX
  8
0
 10
4.16577376
 20
6.09842112
  0
VERTEX
  8
0
 10
4.13856245
 20
6.09149167
  0
VERTEX
  8
0
 10
4.08352827
 20
6.07953257
  0
VERTEX
  8
0
 10
4.02802860
 20
6.06936059
  0
VERTEX
  8
0
 10
3.91731245
 20
6.05079722
  0
VERTEX
  8
0
 10
3.84563358
 20
6.04378333
  0
VERTEX
  8
0
 10
3.77369917
 20
6.03919132
  0
VERTEX
  8
0
 10
3.70163130
 20
6.03716441
  0
VERTEX
  8
0
 10
3.62955204
 20
6.03784583
  0
VERTEX
  8
0
 10
3.55758345
 20
6.04137882
  0
VERTEX
  8
0
 10
3.52167881
 20
6.04425941
  0
VERTEX
  8
0
 10
3.48584761
 20
6.04790660
  0
VERTEX
  8
0
 10
3.45010512
 20
6.05233829
  0
VERTEX
  8
0
 10
3.41446659
 20
6.05757239
  0
VERTEX
  8
0
 10
3.37894728
 20
6.06362681
  0
VERTEX
  8
0
 10
3.34356245
 20
6.07051944
  0
VERTEX
  8
0
 10
3.30648454
 20
6.07536635
  0
VERTEX
  8
0
 10
3.26962799
 20
6.08133243
  0
VERTEX
  8
0
 10
3.23299605
 20
6.08836826
  0
VERTEX
  8
0
 10
3.19659197
 20
6.09642439
  0
VERTEX
  8
0
 10
3.16041901
 20
6.10545139
  0
VERTEX
  8
0
 10
3.12448042
 20
6.11539981
  0
VERTEX
  8
0
 10
3.08877947
 20
6.12622023
  0
VERTEX
  8
0
 10
3.05331940
 20
6.13786319
  0
VERTEX
  8
0
 10
3.01810347
 20
6.15027927
  0
VERTEX
  8
0
 10
2.98313494
 20
6.16341902
  0
VERTEX
  8
0
 10
2.91395308
 20
6.19167179
  0
VERTEX
  8
0
 10
2.84579987
 20
6.22222599
  0
VERTEX
  8
0
 10
2.77870134
 20
6.25468611
  0
VERTEX
  8
0
 10
2.75416005
 20
6.26652829
  0
VERTEX
  8
0
 10
2.72898563
 20
6.27715790
  0
VERTEX
  8
0
 10
2.67805898
 20
6.29727292
  0
VERTEX
  8
0
 10
2.65296756
 20
6.30800507
  0
VERTEX
  8
0
 10
2.62856462
 20
6.32001814
  0
VERTEX
  8
0
 10
2.60518056
 20
6.33393551
  0
VERTEX
  8
0
 10
2.59397386
 20
6.34180311
  0
VERTEX
  8
0
 10
2.58314579
 20
6.35038055
  0
VERTEX
  8
0
 10
2.56704634
 20
6.36352156
  0
VERTEX
  8
0
 10
2.55173954
 20
6.37759193
  0
VERTEX
  8
0
 10
2.53725956
 20
6.39253143
  0
VERTEX
  8
0
 10
2.52364058
 20
6.40827986
  0
VERTEX
  8
0
 10
2.51091678
 20
6.42477698
  0
VERTEX
  8
0
 10
2.49912235
 20
6.44196259
  0
VERTEX
  8
0
 10
2.48829146
 20
6.45977644
  0
VERTEX
  8
0
 10
2.47845829
 20
6.47815833
  0
VERTEX
  8
0
 10
2.46965702
 20
6.49704803
  0
VERTEX
  8
0
 10
2.46192183
 20
6.51638533
  0
VERTEX
  8
0
 10
2.45528690
 20
6.53610999
  0
VERTEX
  8
0
 10
2.44978641
 20
6.55616180
  0
VERTEX
  8
0
 10
2.44545454
 20
6.57648054
  0
VERTEX
  8
0
 10
2.44232547
 20
6.59700599
  0
VERTEX
  8
0
 10
2.44043338
 20
6.61767792
  0
VERTEX
  8
0
 10
2.43981245
 20
6.63843611
  0
VERTEX
  8
0
 10
2.44105469
 20
6.65293654
  0
VERTEX
  8
0
 10
2.44357846
 20
6.66691349
  0
VERTEX
  8
0
 10
2.44729811
 20
6.68037733
  0
VERTEX
  8
0
 10
2.45212799
 20
6.69333845
  0
VERTEX
  8
0
 10
2.45798245
 20
6.70580722
  0
VERTEX
  8
0
 10
2.46477583
 20
6.71779402
  0
VERTEX
  8
0
 10
2.47242249
 20
6.72930922
  0
VERTEX
  8
0
 10
2.48083676
 20
6.74036319
  0
VERTEX
  8
0
 10
2.48993300
 20
6.75096632
  0
VERTEX
  8
0
 10
2.49962555
 20
6.76112898
  0
VERTEX
  8
0
 10
2.52045698
 20
6.78017439
  0
VERTEX
  8
0
 10
2.54264584
 20
6.79758243
  0
VERTEX
  8
0
 10
2.56550690
 20
6.81343611
  0
VERTEX
  8
0
 10
2.59033247
 20
6.83164059
  0
VERTEX
  8
0
 10
2.61635108
 20
6.84779592
  0
VERTEX
  8
0
 10
2.64321930
 20
6.86249617
  0
VERTEX
  8
0
 10
2.67059370
 20
6.87633542
  0
VERTEX
  8
0
 10
2.72548737
 20
6.90380720
  0
VERTEX
  8
0
 10
2.75231978
 20
6.91862790
  0
VERTEX
  8
0
 10
2.77828467
 20
6.93496389
  0
VERTEX
  8
0
 10
2.80758155
 20
6.95533118
  0
VERTEX
  8
0
 10
2.83823259
 20
6.97331892
  0
VERTEX
  8
0
 10
2.87000342
 20
6.98925588
  0
VERTEX
  8
0
 10
2.90265967
 20
7.00347083
  0
VERTEX
  8
0
 10
2.93596697
 20
7.01629256
  0
VERTEX
  8
0
 10
2.96969092
 20
7.02804983
  0
VERTEX
  8
0
 10
3.03745134
 20
7.04968611
  0
VERTEX
  8
0
 10
3.11689958
 20
7.06714542
  0
VERTEX
  8
0
 10
3.19668311
 20
7.08303246
  0
VERTEX
  8
0
 10
3.27677263
 20
7.09729841
  0
VERTEX
  8
0
 10
3.35713884
 20
7.10989444
  0
VERTEX
  8
0
 10
3.43775245
 20
7.12077172
  0
VERTEX
  8
0
 10
3.51858415
 20
7.12988142
  0
VERTEX
  8
0
 10
3.59960466
 20
7.13717472
  0
VERTEX
  8
0
 10
3.68078467
 20
7.14260278
  0
VERTEX
  8
0
 10
3.95857981
 20
7.14433889
  0
VERTEX
  8
0
 10
4.09752296
 20
7.14439965
  0
VERTEX
  8
0
 10
4.23647912
 20
7.14232500
  0
VERTEX
  8
0
 10
4.32057064
 20
7.13475121
  0
VERTEX
  8
0
 10
4.40449778
 20
7.12558889
  0
VERTEX
  8
0
 10
4.48823937
 20
7.11486406
  0
VERTEX
  8
0
 10
4.57177426
 20
7.10260278
  0
VERTEX
  8
0
 10
4.65508128
 20
7.08883108
  0
VERTEX
  8
0
 10
4.73813928
 20
7.07357500
  0
VERTEX
  8
0
 10
4.82092709
 20
7.05686059
  0
VERTEX
  8
0
 10
4.90342356
 20
7.03871389
  0
VERTEX
  8
0
 10
4.89850739
 20
7.01235565
  0
VERTEX
  8
0
 10
4.89451080
 20
6.98589488
  0
VERTEX
  8
0
 10
4.88878815
 20
6.93272430
  0
VERTEX
  8
0
 10
4.88527903
 20
6.87931936
  0
VERTEX
  8
0
 10
4.88300690
 20
6.82579722
  0
VERTEX
  8
0
 10
4.88328467
 20
6.80051944
  0
SEQEND
  0
POLYLINE
  8
Default_Layer
 66
   1
 39
0.000000
 70
    1
  0
VERTEX
  8
0
 10
3.77247281
 20
9.53688200
  0
VERTEX
  8
0
 10
3.81667610
 20
9.46684860
  0
VERTEX
  8
0
 10
3.86311218
 20
9.39833012
  0
VERTEX
  8
0
 10
3.91164538
 20
9.33129837
  0
VERTEX
  8
0
 10
3.96214003
 20
9.26572514
  0
VERTEX
  8
0
 10
4.01446045
 20
9.20158221
  0
VERTEX
  8
0
 10
4.06847099
 20
9.13884139
  0
VERTEX
  8
0
 10
4.12403597
 20
9.07747446
  0
VERTEX
  8
0
 10
4.18101972
 20
9.01745320
  0
VERTEX
  8
0
 10
4.20590253
 20
8.99341675
  0
VERTEX
  8
0
 10
4.23091555
 20
8.96943237
  0
VERTEX
  8
0
 10
4.24286054
 20
8.95697143
  0
VERTEX
  8
0
 10
4.25410565
 20
8.94393758
  0
VERTEX
  8
0
 10
4.26440676
 20
8.93013550
  0
VERTEX
  8
0
 10
4.27351972
 20
8.91536987
  0
VERTEX
  8
0
 10
4.26013864
 20
8.91783732
  0
VERTEX
  8
0
 10
4.24772111
 20
8.92229695
  0
VERTEX
  8
0
 10
4.23629315
 20
8.92870971
  0
VERTEX
  8
0
 10
4.22588083
 20
8.93703654
  0
VERTEX
  8
0
 10
4.19186824
 20
8.96964147
  0
VERTEX
  8
0
 10
4.15840385
 20
9.00279083
  0
VERTEX
  8
0
 10
4.12548716
 20
9.03647145
  0
VERTEX
  8
0
 10
4.09311762
 20
9.07067016
  0
VERTEX
  8
0
 10
4.03001792
 20
9.14056919
  0
VERTEX
  8
0
 10
3.96910053
 20
9.21238262
  0
VERTEX
  8
0
 10
3.91036125
 20
9.28600512
  0
VERTEX
  8
0
 10
3.85379585
 20
9.36133136
  0
VERTEX
  8
0
 10
3.79940014
 20
9.43825603
  0
VERTEX
  8
0
 10
3.74716989
 20
9.51667380
  0
VERTEX
  8
0
 10
3.74512082
 20
9.52052127
  0
VERTEX
  8
0
 10
3.74396961
 20
9.52421589
  0
VERTEX
  8
0
 10
3.74362758
 20
9.52771657
  0
VERTEX
  8
0
 10
3.74400607
 20
9.53098222
  0
VERTEX
  8
0
 10
3.74656991
 20
9.53664409
  0
VERTEX
  8
0
 10
3.75095180
 20
9.54087279
  0
VERTEX
  8
0
 10
3.75644238
 20
9.54333963
  0
VERTEX
  8
0
 10
3.76233231
 20
9.54371591
  0
VERTEX
  8
0
 10
3.76791223
 20
9.54167293
  0
VERTEX
  8
0
 10
3.77036427
 20
9.53964151
  0
VERTEX
  8
0
 10
3.77247281
 20
9.53688200
  0
SEQEND
  0
POLYLINE
  8
Default_Layer
 66
   1
 39
0.000000
 70
    1
  0
VERTEX
  8
0
 10
5.07693439
 20
7.45610535
  0
VERTEX
  8
0
 10
4.99349007
 20
7.53110926
  0
VERTEX
  8
0
 10
4.90909012
 20
7.60507526
  0
VERTEX
  8
0
 10
4.82364964
 20
7.67784163
  0
VERTEX
  8
0
 10
4.73708374
 20
7.74924668
  0
VERTEX
  8
0
 10
4.64930752
 20
7.81912869
  0
VERTEX
  8
0
 10
4.56023609
 20
7.88732596
  0
VERTEX
  8
0
 10
4.46978455
 20
7.95367678
  0
VERTEX
  8
0
 10
4.37786801
 20
8.01801944
  0
VERTEX
  8
0
 10
4.34149485
 20
8.03847300
  0
VERTEX
  8
0
 10
4.30571089
 20
8.05987708
  0
VERTEX
  8
0
 10
4.23529856
 20
8.10454722
  0
VERTEX
  8
0
 10
4.16540707
 20
8.15005069
  0
VERTEX
  8
0
 10
4.09481245
 20
8.19440833
  0
VERTEX
  8
0
 10
3.99047896
 20
8.25667396
  0
VERTEX
  8
0
 10
3.93775282
 20
8.28690833
  0
VERTEX
  8
0
 10
3.88464969
 20
8.31649167
  0
VERTEX
  8
0
 10
3.83116652
 20
8.34538489
  0
VERTEX
  8
0
 10
3.77730025
 20
8.37354896
  0
VERTEX
  8
0
 10
3.72304782
 20
8.40094479
  0
VERTEX
  8
0
 10
3.66840620
 20
8.42753333
  0
VERTEX
  8
0
 10
3.61337233
 20
8.45327552
  0
VERTEX
  8
0
 10
3.55794315
 20
8.47813229
  0
VERTEX
  8
0
 10
3.50211561
 20
8.50206458
  0
VERTEX
  8
0
 10
3.44588667
 20
8.52503333
  0
VERTEX
  8
0
 10
3.38925327
 20
8.54699948
  0
VERTEX
  8
0
 10
3.33221235
 20
8.56792396
  0
VERTEX
  8
0
 10
3.27476088
 20
8.58776771
  0
VERTEX
  8
0
 10
3.21689579
 20
8.60649167
  0
VERTEX
  8
0
 10
3.19328684
 20
8.61416528
  0
VERTEX
  8
0
 10
3.18125858
 20
8.61841549
  0
VERTEX
  8
0
 10
3.17010759
 20
8.62360972
  0
VERTEX
  8
0
 10
3.16060374
 20
8.63024926
  0
VERTEX
  8
0
 10
3.15671007
 20
8.63426768
  0
VERTEX
  8
0
 10
3.15351688
 20
8.63883542
  0
VERTEX
  8
0
 10
3.15112040
 20
8.64401513
  0
VERTEX
  8
0
 10
3.14961687
 20
8.64986949
  0
VERTEX
  8
0
 10
3.14910251
 20
8.65646115
  0
VERTEX
  8
0
 10
3.14967356
 20
8.66385278
  0
VERTEX
  8
0
 10
3.18257287
 20
8.65881805
  0
VERTEX
  8
0
 10
3.19848216
 20
8.65447778
  0
VERTEX
  8
0
 10
3.20605676
 20
8.65119110
  0
VERTEX
  8
0
 10
3.21328467
 20
8.64690833
  0
VERTEX
  8
0
 10
3.23171648
 20
8.63647783
  0
VERTEX
  8
0
 10
3.25068702
 20
8.62721432
  0
VERTEX
  8
0
 10
3.27008399
 20
8.61887855
  0
VERTEX
  8
0
 10
3.28979509
 20
8.61123125
  0
VERTEX
  8
0
 10
3.32971046
 20
8.59704505
  0
VERTEX
  8
0
 10
3.36953467
 20
8.58274167
  0
VERTEX
  8
0
 10
3.42574168
 20
8.56129239
  0
VERTEX
  8
0
 10
3.48155399
 20
8.53889482
  0
VERTEX
  8
0
 10
3.53697730
 20
8.51558377
  0
VERTEX
  8
0
 10
3.59201731
 20
8.49139401
  0
VERTEX
  8
0
 10
3.64667972
 20
8.46636034
  0
VERTEX
  8
0
 10
3.70097022
 20
8.44051754
  0
VERTEX
  8
0
 10
3.75489451
 20
8.41390042
  0
VERTEX
  8
0
 10
3.80845829
 20
8.38654375
  0
VERTEX
  8
0
 10
3.86166724
 20
8.35848233
  0
VERTEX
  8
0
 10
3.91452708
 20
8.32975094
  0
VERTEX
  8
0
 10
4.01922217
 20
8.27041745
  0
VERTEX
  8
0
 10
4.12258915
 20
8.20882158
  0
VERTEX
  8
0
 10
4.22467356
 20
8.14524167
  0
VERTEX
  8
0
 10
4.24546702
 20
8.13088593
  0
VERTEX
  8
0
 10
4.26672434
 20
8.11727075
  0
VERTEX
  8
0
 10
4.31014231
 20
8.09147430
  0
VERTEX
  8
0
 10
4.35395091
 20
8.06627682
  0
VERTEX
  8
0
 10
4.39717356
 20
8.04010278
  0
VERTEX
  8
0
 10
4.48873435
 20
7.97592005
  0
VERTEX
  8
0
 10
4.57887769
 20
7.90980482
  0
VERTEX
  8
0
 10
4.66764629
 20
7.84186653
  0
VERTEX
  8
0
 10
4.75508285
 20
7.77221463
  0
VERTEX
  8
0
 10
4.84123010
 20
7.70095857
  0
VERTEX
  8
0
 10
4.92613073
 20
7.62820778
  0
VERTEX
  8
0
 10
5.00982746
 20
7.55407171
  0
VERTEX
  8
0
 10
5.09236300
 20
7.47865980
  0
VERTEX
  8
0
 10
5.09665531
 20
7.47310409
  0
VERTEX
  8
0
 10
5.09817268
 20
7.46754217
  0
VERTEX
  8
0
 10
5.09741389
 20
7.46236806
  0
VERTEX
  8
0
 10
5.09487769
 20
7.45797579
  0
VERTEX
  8
0
 10
5.09106288
 20
7.45475936
  0
VERTEX
  8
0
 10
5.08646821
 20
7.45311280
  0
VERTEX
  8
0
 10
5.08159245
 20
7.45343012
  0
VERTEX
  8
0
 10
5.07693439
 20
7.45610535
  0
SEQEND
  0
POLYLINE
  8
Default_Layer
 66
   1
 39
0.000000
 70
    1
  0
VERTEX
  8
0
 10
2.81428326
 20
5.37185776
  0
VERTEX
  8
0
 10
2.88257826
 20
5.43735237
  0
VERTEX
  8
0
 10
2.95257086
 20
5.50117899
  0
VERTEX
  8
0
 10
2.98826481
 20
5.53231268
  0
VERTEX
  8
0
 10
3.02445644
 20
5.56284442
  0
VERTEX
  8
0
 10
3.06117017
 20
5.59271257
  0
VERTEX
  8
0
 10
3.09843041
 20
5.62185547
  0
VERTEX
  8
0
 10
3.13626160
 20
5.65021147
  0
VERTEX
  8
0
 10
3.17468815
 20
5.67771892
  0
VERTEX
  8
0
 10
3.21373450
 20
5.70431617
  0
VERTEX
  8
0
 10
3.25342507
 20
5.72994157
  0
VERTEX
  8
0
 10
3.29378428
 20
5.75453347
  0
VERTEX
  8
0
 10
3.33483656
 20
5.77803022
  0
VERTEX
  8
0
 10
3.37660633
 20
5.80037017
  0
VERTEX
  8
0
 10
3.41911801
 20
5.82149167
  0
VERTEX
  8
0
 10
3.48410906
 20
5.84868459
  0
VERTEX
  8
0
 10
3.51711270
 20
5.86125851
  0
VERTEX
  8
0
 10
3.55042660
 20
5.87307153
  0
VERTEX
  8
0
 10
3.58402941
 20
5.88406423
  0
VERTEX
  8
0
 10
3.61789975
 20
5.89417721
  0
VERTEX
  8
0
 10
3.65201626
 20
5.90335107
  0
VERTEX
  8
0
 10
3.68635759
 20
5.91152639
  0
VERTEX
  8
0
 10
3.72090237
 20
5.91864376
  0
VERTEX
  8
0
 10
3.75562924
 20
5.92464379
  0
VERTEX
  8
0
 10
3.79051683
 20
5.92946706
  0
VERTEX
  8
0
 10
3.82554379
 20
5.93305417
  0
VERTEX
  8
0
 10
3.86068875
 20
5.93534570
  0
VERTEX
  8
0
 10
3.89593035
 20
5.93628225
  0
VERTEX
  8
0
 10
3.93124722
 20
5.93580441
  0
VERTEX
  8
0
 10
3.96661801
 20
5.93385278
  0
VERTEX
  8
0
 10
3.96230459
 20
5.92492537
  0
VERTEX
  8
0
 10
3.95643355
 20
5.91824080
  0
VERTEX
  8
0
 10
3.94929623
 20
5.91347680
  0
VERTEX
  8
0
 10
3.94118398
 20
5.91031111
  0
VERTEX
  8
0
 10
3.93238814
 20
5.90842146
  0
VERTEX
  8
0
 10
3.92320004
 20
5.90748559
  0
VERTEX
  8
0
 10
3.90481245
 20
5.90718611
  0
VERTEX
  8
0
 10
3.87330048
 20
5.90720093
  0
VERTEX
  8
0
 10
3.84189633
 20
5.90598304
  0
VERTEX
  8
0
 10
3.81061018
 20
5.90359205
  0
VERTEX
  8
0
 10
3.77945221
 20
5.90008759
  0
VERTEX
  8
0
 10
3.74843258
 20
5.89552924
  0
VERTEX
  8
0
 10
3.71756148
 20
5.88997664
  0
VERTEX
  8
0
 10
3.68684906
 20
5.88348938
  0
VERTEX
  8
0
 10
3.65630551
 20
5.87612708
  0
VERTEX
  8
0
 10
3.62594099
 20
5.86794935
  0
VERTEX
  8
0
 10
3.59576569
 20
5.85901581
  0
VERTEX
  8
0
 10
3.53602339
 20
5.83911970
  0
VERTEX
  8
0
 10
3.47716000
 20
5.81691566
  0
VERTEX
  8
0
 10
3.41925690
 20
5.79288055
  0
VERTEX
  8
0
 10
3.37803888
 20
5.77140835
  0
VERTEX
  8
0
 10
3.33740770
 20
5.74891881
  0
VERTEX
  8
0
 10
3.29736215
 20
5.72544670
  0
VERTEX
  8
0
 10
3.25790107
 20
5.70102675
  0
VERTEX
  8
0
 10
3.21902324
 20
5.67569373
  0
VERTEX
  8
0
 10
3.18072750
 20
5.64948238
  0
VERTEX
  8
0
 10
3.14301266
 20
5.62242746
  0
VERTEX
  8
0
 10
3.10587752
 20
5.59456372
  0
VERTEX
  8
0
 10
3.06932091
 20
5.56592591
  0
VERTEX
  8
0
 10
3.03334163
 20
5.53654879
  0
VERTEX
  8
0
 10
2.99793850
 20
5.50646710
  0
VERTEX
  8
0
 10
2.96311032
 20
5.47571560
  0
VERTEX
  8
0
 10
2.92885593
 20
5.44432904
  0
VERTEX
  8
0
 10
2.89517412
 20
5.41234217
  0
VERTEX
  8
0
 10
2.86206371
 20
5.37978975
  0
VERTEX
  8
0
 10
2.82952352
 20
5.34670653
  0
VERTEX
  8
0
 10
2.82494819
 20
5.34377821
  0
VERTEX
  8
0
 10
2.81981022
 20
5.34320562
  0
VERTEX
  8
0
 10
2.81477240
 20
5.34467836
  0
VERTEX
  8
0
 10
2.81049753
 20
5.34788603
  0
VERTEX
  8
0
 10
2.80764839
 20
5.35251821
  0
VERTEX
  8
0
 10
2.80688777
 20
5.35826450
  0
VERTEX
  8
0
 10
2.80887846
 20
5.36481448
  0
VERTEX
  8
0
 10
2.81428326
 20
5.37185776
  0
SEQEND
  0
POLYLINE
  8
Default_Layer
 66
   1
 39
0.000000
 70
    1
  0
VERTEX
  8
0
 10
4.41939579
 20
4.68065833
  0
VERTEX
  8
0
 10
4.55913537
 20
4.73104028
  0
VERTEX
  8
0
 10
4.69856245
 20
4.78246389
  0
VERTEX
  8
0
 10
4.69009457
 20
4.74375729
  0
VERTEX
  8
0
 10
4.68092356
 20
4.70520694
  0
VERTEX
  8
0
 10
4.67196089
 20
4.66660451
  0
VERTEX
  8
0
 10
4.66411801
 20
4.62774167
  0
VERTEX
  8
0
 10
4.65706262
 20
4.58693058
  0
VERTEX
  8
0
 10
4.65218007
 20
4.54588837
  0
VERTEX
  8
0
 10
4.64920834
 20
4.50467038
  0
VERTEX
  8
0
 10
4.64788537
 20
4.46333194
  0
VERTEX
  8
0
 10
4.64794912
 20
4.42192841
  0
VERTEX
  8
0
 10
4.64913754
 20
4.38051510
  0
VERTEX
  8
0
 10
4.65384023
 20
4.29788055
  0
VERTEX
  8
0
 10
4.62514801
 20
4.27173445
  0
VERTEX
  8
0
 10
4.59589101
 20
4.24613359
  0
VERTEX
  8
0
 10
4.56598623
 20
4.22127167
  0
VERTEX
  8
0
 10
4.53535065
 20
4.19734236
  0
VERTEX
  8
0
 10
4.50390127
 20
4.17453935
  0
VERTEX
  8
0
 10
4.47155507
 20
4.15305634
  0
VERTEX
  8
0
 10
4.43822906
 20
4.13308699
  0
VERTEX
  8
0
 10
4.40384023
 20
4.11482500
  0
VERTEX
  8
0
 10
4.38016249
 20
4.10438524
  0
VERTEX
  8
0
 10
4.35617611
 20
4.09468584
  0
VERTEX
  8
0
 10
4.33190450
 20
4.08573473
  0
VERTEX
  8
0
 10
4.30737105
 20
4.07753984
  0
VERTEX
  8
0
 10
4.28259915
 20
4.07010912
  0
VERTEX
  8
0
 10
4.25761220
 20
4.06345049
  0
VERTEX
  8
0
 10
4.23243361
 20
4.05757189
  0
VERTEX
  8
0
 10
4.20708676
 20
4.05248125
  0
VERTEX
  8
0
 10
4.18159505
 20
4.04818651
  0
VERTEX
  8
0
 10
4.15598189
 20
4.04469560
  0
VERTEX
  8
0
 10
4.13027066
 20
4.04201647
  0
VERTEX
  8
0
 10
4.10448476
 20
4.04015703
  0
VERTEX
  8
0
 10
4.07864760
 20
4.03912523
  0
VERTEX
  8
0
 10
4.05278256
 20
4.03892900
  0
VERTEX
  8
0
 10
4.02691305
 20
4.03957628
  0
VERTEX
  8
0
 10
4.00106245
 20
4.04107500
  0
VERTEX
  8
0
 10
3.98387709
 20
4.04291338
  0
VERTEX
  8
0
 10
3.96692590
 20
4.04584713
  0
VERTEX
  8
0
 10
3.95024122
 20
4.04983232
  0
VERTEX
  8
0
 10
3.93385542
 20
4.05482500
  0
VERTEX
  8
0
 10
3.91780084
 20
4.06078122
  0
VERTEX
  8
0
 10
3.90210982
 20
4.06765703
  0
VERTEX
  8
0
 10
3.88681471
 20
4.07540849
  0
VERTEX
  8
0
 10
3.87194787
 20
4.08399167
  0
VERTEX
  8
0
 10
3.85754164
 20
4.09336260
  0
VERTEX
  8
0
 10
3.84362837
 20
4.10347734
  0
VERTEX
  8
0
 10
3.83024041
 20
4.11429196
  0
VERTEX
  8
0
 10
3.81741011
 20
4.12576250
  0
VERTEX
  8
0
 10
3.80516981
 20
4.13784502
  0
VERTEX
  8
0
 10
3.79355187
 20
4.15049557
  0
VERTEX
  8
0
 10
3.78258864
 20
4.16367021
  0
VERTEX
  8
0
 10
3.77231245
 20
4.17732500
  0
VERTEX
  8
0
 10
3.76172763
 20
4.19571452
  0
VERTEX
  8
0
 10
3.75278364
 20
4.21464298
  0
VERTEX
  8
0
 10
3.74539931
 20
4.23404711
  0
VERTEX
  8
0
 10
3.73949344
 20
4.25386363
  0
VERTEX
  8
0
 10
3.73498488
 20
4.27402927
  0
VERTEX
  8
0
 10
3.73179243
 20
4.29448076
  0
VERTEX
  8
0
 10
3.72983493
 20
4.31515483
  0
VERTEX
  8
0
 10
3.72903120
 20
4.33598819
  0
VERTEX
  8
0
 10
3.72930006
 20
4.35691759
  0
VERTEX
  8
0
 10
3.73056034
 20
4.37787974
  0
VERTEX
  8
0
 10
3.73273085
 20
4.39881137
  0
VERTEX
  8
0
 10
3.73573042
 20
4.41964922
  0
VERTEX
  8
0
 10
3.74389204
 20
4.46079044
  0
VERTEX
  8
0
 10
3.75439579
 20
4.50079722
  0
VERTEX
  8
0
 10
3.76200212
 20
4.52412187
  0
VERTEX
  8
0
 10
3.76972565
 20
4.54770694
  0
VERTEX
  8
0
 10
3.77427019
 20
4.55914140
  0
VERTEX
  8
0
 10
3.77961063
 20
4.57009410
  0
VERTEX
  8
0
 10
3.78600250
 20
4.58038272
  0
VERTEX
  8
0
 10
3.79370134
 20
4.58982500
  0
VERTEX
  8
0
 10
3.82870497
 20
4.58715697
  0
VERTEX
  8
0
 10
3.86370433
 20
4.58572688
  0
VERTEX
  8
0
 10
3.89868212
 20
4.58547383
  0
VERTEX
  8
0
 10
3.93362105
 20
4.58633692
  0
VERTEX
  8
0
 10
3.96850382
 20
4.58825526
  0
VERTEX
  8
0
 10
4.00331316
 20
4.59116796
  0
VERTEX
  8
0
 10
4.03803175
 20
4.59501412
  0
VERTEX
  8
0
 10
4.07264231
 20
4.59973285
  0
VERTEX
  8
0
 10
4.10712755
 20
4.60526325
  0
VERTEX
  8
0
 10
4.14147017
 20
4.61154444
  0
VERTEX
  8
0
 10
4.20965837
 20
4.62611556
  0
VERTEX
  8
0
 10
4.27706858
 20
4.64295908
  0
VERTEX
  8
0
 10
4.34356245
 20
4.66158782
  0
VERTEX
  8
0
 10
4.36252443
 20
4.66644429
  0
VERTEX
  8
0
 10
4.38166176
 20
4.67061666
  0
VERTEX
  8
0
 10
4.40070777
 20
4.67504223
  0
VERTEX
  8
0
 10
4.41939579
 20
4.68065833
  0
SEQEND
  0
POLYLINE
  8
Default_Layer
 66
   1
 39
0.000000
 70
    1
  0
VERTEX
  8
0
 10
6.77538813
 20
4.42946882
  0
VERTEX
  8
0
 10
6.84395065
 20
4.42700181
  0
VERTEX
  8
0
 10
6.87820297
 20
4.42684807
  0
VERTEX
  8
0
 10
6.91224427
 20
4.42819762
  0
VERTEX
  8
0
 10
6.94593078
 20
4.43163806
  0
VERTEX
  8
0
 10
6.96259604
 20
4.43432598
  0
VERTEX
  8
0
 10
6.97911869
 20
4.43775697
  0
VERTEX
  8
0
 10
6.99548073
 20
4.44200447
  0
VERTEX
  8
0
 10
7.01166421
 20
4.44714194
  0
VERTEX
  8
0
 10
7.02765115
 20
4.45324282
  0
VERTEX
  8
0
 10
7.04342356
 20
4.46038055
  0
VERTEX
  8
0
 10
7.06454770
 20
4.47085419
  0
VERTEX
  8
0
 10
7.08473433
 20
4.48278941
  0
VERTEX
  8
0
 10
7.10404856
 20
4.49602020
  0
VERTEX
  8
0
 10
7.12255551
 20
4.51038055
  0
VERTEX
  8
0
 10
7.14032027
 20
4.52570445
  0
VERTEX
  8
0
 10
7.15740794
 20
4.54182587
  0
VERTEX
  8
0
 10
7.17388363
 20
4.55857880
  0
VERTEX
  8
0
 10
7.18981245
 20
4.57579722
  0
VERTEX
  8
0
 10
7.19820594
 20
4.56561744
  0
VERTEX
  8
0
 10
7.20539134
 20
4.55490584
  0
VERTEX
  8
0
 10
7.21148543
 20
4.54371653
  0
VERTEX
  8
0
 10
7.21660499
 20
4.53210364
  0
VERTEX
  8
0
 10
7.22086680
 20
4.52012129
  0
VERTEX
  8
0
 10
7.22438765
 20
4.50782359
  0
VERTEX
  8
0
 10
7.22967356
 20
4.48249861
  0
VERTEX
  8
0
 10
7.23339698
 20
4.45656165
  0
VERTEX
  8
0
 10
7.23649214
 20
4.43044566
  0
VERTEX
  8
0
 10
7.23989329
 20
4.40458357
  0
VERTEX
  8
0
 10
7.24453467
 20
4.37940833
  0
VERTEX
  8
0
 10
7.24861020
 20
4.32720808
  0
VERTEX
  8
0
 10
7.25130551
 20
4.27461884
  0
VERTEX
  8
0
 10
7.25207374
 20
4.22187659
  0
VERTEX
  8
0
 10
7.25036801
 20
4.16921736
  0
VERTEX
  8
0
 10
7.24841651
 20
4.14299262
  0
VERTEX
  8
0
 10
7.24564145
 20
4.11687714
  0
VERTEX
  8
0
 10
7.24197445
 20
4.09090040
  0
VERTEX
  8
0
 10
7.23734717
 20
4.06509193
  0
VERTEX
  8
0
 10
7.23169125
 20
4.03948120
  0
VERTEX
  8
0
 10
7.22493832
 20
4.01409773
  0
VERTEX
  8
0
 10
7.21702003
 20
3.98897102
  0
VERTEX
  8
0
 10
7.20786801
 20
3.96413055
  0
VERTEX
  8
0
 10
7.20103146
 20
3.94728505
  0
VERTEX
  8
0
 10
7.19344906
 20
3.93073374
  0
VERTEX
  8
0
 10
7.18513668
 20
3.91451691
  0
VERTEX
  8
0
 10
7.17611020
 20
3.89867483
  0
VERTEX
  8
0
 10
7.16638546
 20
3.88324778
  0
VERTEX
  8
0
 10
7.15597836
 20
3.86827606
  0
VERTEX
  8
0
 10
7.14490475
 20
3.85379995
  0
VERTEX
  8
0
 10
7.13318051
 20
3.83985972
  0
VERTEX
  8
0
 10
7.12082150
 20
3.82649567
  0
VERTEX
  8
0
 10
7.10784359
 20
3.81374807
  0
VERTEX
  8
0
 10
7.09426266
 20
3.80165721
  0
VERTEX
  8
0
 10
7.08009457
 20
3.79026337
  0
VERTEX
  8
0
 10
7.06535519
 20
3.77960683
  0
VERTEX
  8
0
 10
7.05006039
 20
3.76972788
  0
VERTEX
  8
0
 10
7.03422604
 20
3.76066681
  0
VERTEX
  8
0
 10
7.01786801
 20
3.75246389
  0
VERTEX
  8
0
 10
6.99565626
 20
3.74150547
  0
VERTEX
  8
0
 10
6.97287587
 20
3.73224443
  0
VERTEX
  8
0
 10
6.94960598
 20
3.72463338
  0
VERTEX
  8
0
 10
6.92592573
 20
3.71862491
  0
VERTEX
  8
0
 10
6.90191427
 20
3.71417162
  0
VERTEX
  8
0
 10
6.87765072
 20
3.71122609
  0
VERTEX
  8
0
 10
6.85321425
 20
3.70974094
  0
VERTEX
  8
0
 10
6.82868398
 20
3.70966875
  0
VERTEX
  8
0
 10
6.80413907
 20
3.71096212
  0
VERTEX
  8
0
 10
6.77965864
 20
3.71357364
  0
VERTEX
  8
0
 10
6.75532186
 20
3.71745592
  0
VERTEX
  8
0
 10
6.73120785
 20
3.72256154
  0
VERTEX
  8
0
 10
6.70739577
 20
3.72884311
  0
VERTEX
  8
0
 10
6.68396474
 20
3.73625322
  0
VERTEX
  8
0
 10
6.66099392
 20
3.74474447
  0
VERTEX
  8
0
 10
6.63856245
 20
3.75426944
  0
VERTEX
  8
0
 10
6.59282684
 20
3.77565345
  0
VERTEX
  8
0
 10
6.54822445
 20
3.79901337
  0
VERTEX
  8
0
 10
6.50475569
 20
3.82425479
  0
VERTEX
  8
0
 10
6.46242096
 20
3.85128333
  0
VERTEX
  8
0
 10
6.42122067
 20
3.88000458
  0
VERTEX
  8
0
 10
6.38115523
 20
3.91032413
  0
VERTEX
  8
0
 10
6.34222504
 20
3.94214759
  0
VERTEX
  8
0
 10
6.30443051
 20
3.97538055
  0
VERTEX
  8
0
 10
6.26777205
 20
4.00992862
  0
VERTEX
  8
0
 10
6.23225006
 20
4.04569739
  0
VERTEX
  8
0
 10
6.19786496
 20
4.08259247
  0
VERTEX
  8
0
 10
6.16461714
 20
4.12051944
  0
VERTEX
  8
0
 10
6.13250702
 20
4.15938392
  0
VERTEX
  8
0
 10
6.10153500
 20
4.19909149
  0
VERTEX
  8
0
 10
6.07170149
 20
4.23954776
  0
VERTEX
  8
0
 10
6.04300690
 20
4.28065833
  0
VERTEX
  8
0
 10
6.03156755
 20
4.29718367
  0
VERTEX
  8
0
 10
6.01894006
 20
4.31283498
  0
VERTEX
  8
0
 10
5.99213884
 20
4.34296736
  0
VERTEX
  8
0
 10
5.97897424
 20
4.35817434
  0
VERTEX
  8
0
 10
5.96663971
 20
4.37395911
  0
VERTEX
  8
0
 10
5.95563982
 20
4.39068464
  0
VERTEX
  8
0
 10
5.94647912
 20
4.40871389
  0
VERTEX
  8
0
 10
5.94908410
 20
4.42537567
  0
VERTEX
  8
0
 10
5.95257938
 20
4.44185191
  0
VERTEX
  8
0
 10
5.96132287
 20
4.47444305
  0
VERTEX
  8
0
 10
5.97087365
 20
4.50687795
  0
VERTEX
  8
0
 10
5.97939579
 20
4.53954722
  0
VERTEX
  8
0
 10
5.98456831
 20
4.55883514
  0
VERTEX
  8
0
 10
5.99082808
 20
4.57783498
  0
VERTEX
  8
0
 10
6.00418745
 20
4.61553680
  0
VERTEX
  8
0
 10
6.01007612
 20
4.63452199
  0
VERTEX
  8
0
 10
6.01463016
 20
4.65378550
  0
VERTEX
  8
0
 10
6.01724409
 20
4.67346893
  0
VERTEX
  8
0
 10
6.01731245
 20
4.69371389
  0
VERTEX
  8
0
 10
6.08441939
 20
4.65137611
  0
VERTEX
  8
0
 10
6.11857374
 20
4.63111196
  0
VERTEX
  8
0
 10
6.15312625
 20
4.61152205
  0
VERTEX
  8
0
 10
6.18807509
 20
4.59265967
  0
VERTEX
  8
0
 10
6.22341841
 20
4.57457815
  0
VERTEX
  8
0
 10
6.25915439
 20
4.55733076
  0
VERTEX
  8
0
 10
6.29528120
 20
4.54097083
  0
VERTEX
  8
0
 10
6.33179701
 20
4.52555166
  0
VERTEX
  8
0
 10
6.36869999
 20
4.51112654
  0
VERTEX
  8
0
 10
6.40598829
 20
4.49774879
  0
VERTEX
  8
0
 10
6.44366011
 20
4.48547170
  0
VERTEX
  8
0
 10
6.48171360
 20
4.47434859
  0
VERTEX
  8
0
 10
6.52014693
 20
4.46443275
  0
VERTEX
  8
0
 10
6.55895827
 20
4.45577749
  0
VERTEX
  8
0
 10
6.59814579
 20
4.44843611
  0
VERTEX
  8
0
 10
6.64222571
 20
4.44161740
  0
VERTEX
  8
0
 10
6.68647570
 20
4.43611978
  0
VERTEX
  8
0
 10
6.73087132
 20
4.43203849
  0
VERTEX
  8
0
 10
6.77538813
 20
4.42946882
  0
SEQEND
  0
POLYLINE
  8
Default_Layer
 66
   1
 39
0.000000
 70
    1
  0
VERTEX
  8
0
 10
6.37453467
 20
6.02649167
  0
VERTEX
  8
0
 10
6.41142921
 20
6.04194305
  0
VERTEX
  8
0
 10
6.44812842
 20
6.05791528
  0
VERTEX
  8
0
 10
6.48428077
 20
6.07508542
  0
VERTEX
  8
0
 10
6.51953467
 20
6.09413055
  0
VERTEX
  8
0
 10
6.53451080
 20
6.10228811
  0
VERTEX
  8
0
 10
6.54986454
 20
6.11064097
  0
VERTEX
  8
0
 10
6.55778473
 20
6.11377981
  0
VERTEX
  8
0
 10
6.56592139
 20
6.11563446
  0
VERTEX
  8
0
 10
6.57431522
 20
6.11576060
  0
VERTEX
  8
0
 10
6.58300690
 20
6.11371389
  0
VERTEX
  8
0
 10
6.63076874
 20
6.09394626
  0
VERTEX
  8
0
 10
6.67734121
 20
6.07173825
  0
VERTEX
  8
0
 10
6.72265472
 20
6.04718526
  0
VERTEX
  8
0
 10
6.76663971
 20
6.02038272
  0
VERTEX
  8
0
 10
6.80922658
 20
5.99142605
  0
VERTEX
  8
0
 10
6.85034576
 20
5.96041066
  0
VERTEX
  8
0
 10
6.88992767
 20
5.92743198
  0
VERTEX
  8
0
 10
6.92790273
 20
5.89258542
  0
VERTEX
  8
0
 10
6.96420135
 20
5.85596639
  0
VERTEX
  8
0
 10
6.99875397
 20
5.81767032
  0
VERTEX
  8
0
 10
7.03149099
 20
5.77779263
  0
VERTEX
  8
0
 10
7.06234283
 20
5.73642873
  0
VERTEX
  8
0
 10
7.09123993
 20
5.69367405
  0
VERTEX
  8
0
 10
7.11811269
 20
5.64962399
  0
VERTEX
  8
0
 10
7.14289154
 20
5.60437398
  0
VERTEX
  8
0
 10
7.16550690
 20
5.55801944
  0
VERTEX
  8
0
 10
7.18253126
 20
5.52248684
  0
VERTEX
  8
0
 10
7.19801042
 20
5.48638885
  0
VERTEX
  8
0
 10
7.21199097
 20
5.44977207
  0
VERTEX
  8
0
 10
7.22451948
 20
5.41268307
  0
VERTEX
  8
0
 10
7.23564256
 20
5.37516846
  0
VERTEX
  8
0
 10
7.24540680
 20
5.33727481
  0
VERTEX
  8
0
 10
7.25385878
 20
5.29904873
  0
VERTEX
  8
0
 10
7.26104509
 20
5.26053680
  0
VERTEX
  8
0
 10
7.26701233
 20
5.22178562
  0
VERTEX
  8
0
 10
7.27180708
 20
5.18284176
  0
VERTEX
  8
0
 10
7.27547594
 20
5.14375183
  0
VERTEX
  8
0
 10
7.27806549
 20
5.10456241
  0
VERTEX
  8
0
 10
7.27962233
 20
5.06532010
  0
VERTEX
  8
0
 10
7.28019304
 20
5.02607147
  0
VERTEX
  8
0
 10
7.27982422
 20
4.98686313
  0
VERTEX
  8
0
 10
7.27856245
 20
4.94774167
  0
VERTEX
  8
0
 10
7.27632192
 20
4.91846456
  0
VERTEX
  8
0
 10
7.27319678
 20
4.88894799
  0
VERTEX
  8
0
 10
7.26911299
 20
4.85932034
  0
VERTEX
  8
0
 10
7.26399648
 20
4.82970998
  0
VERTEX
  8
0
 10
7.25777320
 20
4.80024529
  0
VERTEX
  8
0
 10
7.25036909
 20
4.77105465
  0
VERTEX
  8
0
 10
7.24171010
 20
4.74226644
  0
VERTEX
  8
0
 10
7.23172217
 20
4.71400903
  0
VERTEX
  8
0
 10
7.22033125
 20
4.68641079
  0
VERTEX
  8
0
 10
7.20746328
 20
4.65960012
  0
VERTEX
  8
0
 10
7.19304420
 20
4.63370538
  0
VERTEX
  8
0
 10
7.17699995
 20
4.60885495
  0
VERTEX
  8
0
 10
7.15925649
 20
4.58517721
  0
VERTEX
  8
0
 10
7.13973975
 20
4.56280053
  0
VERTEX
  8
0
 10
7.11837568
 20
4.54185330
  0
VERTEX
  8
0
 10
7.09509023
 20
4.52246389
  0
VERTEX
  8
0
 10
7.07812466
 20
4.51001031
  0
VERTEX
  8
0
 10
7.06049849
 20
4.49905270
  0
VERTEX
  8
0
 10
7.04227376
 20
4.48950826
  0
VERTEX
  8
0
 10
7.02351254
 20
4.48129418
  0
VERTEX
  8
0
 10
7.00427687
 20
4.47432766
  0
VERTEX
  8
0
 10
6.98462880
 20
4.46852590
  0
VERTEX
  8
0
 10
6.96463040
 20
4.46380608
  0
VERTEX
  8
0
 10
6.94434370
 20
4.46008542
  0
VERTEX
  8
0
 10
6.92383077
 20
4.45728109
  0
VERTEX
  8
0
 10
6.90315365
 20
4.45531030
  0
VERTEX
  8
0
 10
6.86155507
 20
4.45353811
  0
VERTEX
  8
0
 10
6.82004439
 20
4.45410641
  0
VERTEX
  8
0
 10
6.77911801
 20
4.45635278
  0
VERTEX
  8
0
 10
6.72923430
 20
4.45924789
  0
VERTEX
  8
0
 10
6.70432993
 20
4.46101904
  0
VERTEX
  8
0
 10
6.67953467
 20
4.46371389
  0
VERTEX
  8
0
 10
6.63867048
 20
4.46978143
  0
VERTEX
  8
0
 10
6.59797923
 20
4.47694821
  0
VERTEX
  8
0
 10
6.55750037
 20
4.48522298
  0
VERTEX
  8
0
 10
6.51727339
 20
4.49461450
  0
VERTEX
  8
0
 10
6.47733775
 20
4.50513150
  0
VERTEX
  8
0
 10
6.43773292
 20
4.51678274
  0
VERTEX
  8
0
 10
6.39849837
 20
4.52957696
  0
VERTEX
  8
0
 10
6.35967356
 20
4.54352292
  0
VERTEX
  8
0
 10
6.32129798
 20
4.55862935
  0
VERTEX
  8
0
 10
6.28341109
 20
4.57490502
  0
VERTEX
  8
0
 10
6.24605235
 20
4.59235867
  0
VERTEX
  8
0
 10
6.20926124
 20
4.61099904
  0
VERTEX
  8
0
 10
6.17307722
 20
4.63083489
  0
VERTEX
  8
0
 10
6.13753977
 20
4.65187497
  0
VERTEX
  8
0
 10
6.10268836
 20
4.67412801
  0
VERTEX
  8
0
 10
6.06856245
 20
4.69760278
  0
VERTEX
  8
0
 10
6.03465488
 20
4.71797170
  0
VERTEX
  8
0
 10
6.00189823
 20
4.73996172
  0
VERTEX
  8
0
 10
5.97030409
 20
4.76349145
  0
VERTEX
  8
0
 10
5.93988407
 20
4.78847951
  0
VERTEX
  8
0
 10
5.91064975
 20
4.81484453
  0
VERTEX
  8
0
 10
5.88261275
 20
4.84250512
  0
VERTEX
  8
0
 10
5.85578464
 20
4.87137990
  0
VERTEX
  8
0
 10
5.83017704
 20
4.90138750
  0
VERTEX
  8
0
 10
5.80580153
 20
4.93244653
  0
VERTEX
  8
0
 10
5.78266971
 20
4.96447561
  0
VERTEX
  8
0
 10
5.76079319
 20
4.99739336
  0
VERTEX
  8
0
 10
5.74018355
 20
5.03111840
  0
VERTEX
  8
0
 10
5.72085239
 20
5.06556936
  0
VERTEX
  8
0
 10
5.70281131
 20
5.10066484
  0
VERTEX
  8
0
 10
5.68607191
 20
5.13632348
  0
VERTEX
  8
0
 10
5.67064579
 20
5.17246389
  0
VERTEX
  8
0
 10
5.65578739
 20
5.21754608
  0
VERTEX
  8
0
 10
5.64284631
 20
5.26325165
  0
VERTEX
  8
0
 10
5.63192997
 20
5.30948781
  0
VERTEX
  8
0
 10
5.62314579
 20
5.35616180
  0
VERTEX
  8
0
 10
5.61660119
 20
5.40318085
  0
VERTEX
  8
0
 10
5.61240360
 20
5.45045217
  0
VERTEX
  8
0
 10
5.61066043
 20
5.49788300
  0
VERTEX
  8
0
 10
5.61147912
 20
5.54538055
  0
VERTEX
  8
0
 10
5.61086765
 20
5.57341858
  0
VERTEX
  8
0
 10
5.61137251
 20
5.60133840
  0
VERTEX
  8
0
 10
5.61290887
 20
5.62914551
  0
VERTEX
  8
0
 10
5.61539188
 20
5.65684540
  0
VERTEX
  8
0
 10
5.61873671
 20
5.68444356
  0
VERTEX
  8
0
 10
5.62285851
 20
5.71194550
  0
VERTEX
  8
0
 10
5.63309370
 20
5.76668264
  0
VERTEX
  8
0
 10
5.64541874
 20
5.82110077
  0
VERTEX
  8
0
 10
5.65915490
 20
5.87524384
  0
VERTEX
  8
0
 10
5.68814579
 20
5.98288055
  0
VERTEX
  8
0
 10
5.70998379
 20
5.97776672
  0
VERTEX
  8
0
 10
5.73189931
 20
5.97351939
  0
VERTEX
  8
0
 10
5.77593441
 20
5.96731415
  0
VERTEX
  8
0
 10
5.82019413
 20
5.96364471
  0
VERTEX
  8
0
 10
5.86462148
 20
5.96189097
  0
VERTEX
  8
0
 10
5.90915951
 20
5.96143280
  0
VERTEX
  8
0
 10
5.95375125
 20
5.96165009
  0
VERTEX
  8
0
 10
5.99833974
 20
5.96192271
  0
VERTEX
  8
0
 10
6.04286801
 20
5.96163055
  0
VERTEX
  8
0
 10
6.06231906
 20
5.96104916
  0
VERTEX
  8
0
 10
6.08166656
 20
5.96138696
  0
VERTEX
  8
0
 10
6.10091763
 20
5.96256378
  0
VERTEX
  8
0
 10
6.12007938
 20
5.96449948
  0
VERTEX
  8
0
 10
6.15816342
 20
5.97032684
  0
VERTEX
  8
0
 10
6.19597565
 20
5.97822778
  0
VERTEX
  8
0
 10
6.23357303
 20
5.98756100
  0
VERTEX
  8
0
 10
6.27101254
 20
5.99768524
  0
VERTEX
  8
0
 10
6.34564579
 20
6.01774167
  0
VERTEX
  8
0
 10
6.36027685
 20
6.02157827
  0
VERTEX
  8
0
 10
6.37453467
 20
6.02649167
  0
SEQEND
  0
POLYLINE
  8
Default_Layer
 66
   1
 39
0.000000
 70
    1
  0
VERTEX
  8
0
 10
7.28828467
 20
5.27732500
  0
VERTEX
  8
0
 10
7.28079715
 20
5.31326114
  0
VERTEX
  8
0
 10
7.27242096
 20
5.34903290
  0
VERTEX
  8
0
 10
7.26303565
 20
5.38455400
  0
VERTEX
  8
0
 10
7.25252079
 20
5.41973819
  0
VERTEX
  8
0
 10
7.24075592
 20
5.45449921
  0
VERTEX
  8
0
 10
7.22762061
 20
5.48875078
  0
VERTEX
  8
0
 10
7.21299442
 20
5.52240665
  0
VERTEX
  8
0
 10
7.19675690
 20
5.55538055
  0
VERTEX
  8
0
 10
7.22623871
 20
5.53620958
  0
VERTEX
  8
0
 10
7.25637441
 20
5.51816511
  0
VERTEX
  8
0
 10
7.28712128
 20
5.50123108
  0
VERTEX
  8
0
 10
7.31843658
 20
5.48539140
  0
VERTEX
  8
0
 10
7.35027761
 20
5.47063002
  0
VERTEX
  8
0
 10
7.38260162
 20
5.45693085
  0
VERTEX
  8
0
 10
7.41536591
 20
5.44427782
  0
VERTEX
  8
0
 10
7.44852773
 20
5.43265486
  0
VERTEX
  8
0
 10
7.48204437
 20
5.42204590
  0
VERTEX
  8
0
 10
7.51587311
 20
5.41243486
  0
VERTEX
  8
0
 10
7.54997121
 20
5.40380568
  0
VERTEX
  8
0
 10
7.58429596
 20
5.39614227
  0
VERTEX
  8
0
 10
7.61880463
 20
5.38942858
  0
VERTEX
  8
0
 10
7.65345449
 20
5.38364851
  0
VERTEX
  8
0
 10
7.68820282
 20
5.37878601
  0
VERTEX
  8
0
 10
7.72300690
 20
5.37482500
  0
VERTEX
  8
0
 10
7.74870914
 20
5.37117974
  0
VERTEX
  8
0
 10
7.77445818
 20
5.36840383
  0
VERTEX
  8
0
 10
7.82607547
 20
5.36504418
  0
VERTEX
  8
0
 10
7.87781647
 20
5.36391435
  0
VERTEX
  8
0
 10
7.92963884
 20
5.36418264
  0
VERTEX
  8
0
 10
8.03335846
 20
5.36558672
  0
VERTEX
  8
0
 10
8.08517107
 20
5.36505910
  0
VERTEX
  8
0
 10
8.13689579
 20
5.36260278
  0
VERTEX
  8
0
 10
8.14582967
 20
5.35576538
  0
VERTEX
  8
0
 10
8.15422624
 20
5.34841142
  0
VERTEX
  8
0
 10
8.16960195
 20
5.33235321
  0
VERTEX
  8
0
 10
8.18341190
 20
5.31482690
  0
VERTEX
  8
0
 10
8.19604509
 20
5.29623125
  0
VERTEX
  8
0
 10
8.21933719
 20
5.25742700
  0
VERTEX
  8
0
 10
8.23077410
 20
5.23801592
  0
VERTEX
  8
0
 10
8.24259023
 20
5.21913055
  0
VERTEX
  8
0
 10
8.26152147
 20
5.18923014
  0
VERTEX
  8
0
 10
8.27943729
 20
5.15867076
  0
VERTEX
  8
0
 10
8.29630208
 20
5.12749329
  0
VERTEX
  8
0
 10
8.31208025
 20
5.09573863
  0
VERTEX
  8
0
 10
8.32673618
 20
5.06344767
  0
VERTEX
  8
0
 10
8.34023427
 20
5.03066132
  0
VERTEX
  8
0
 10
8.35253893
 20
4.99742045
  0
VERTEX
  8
0
 10
8.36361454
 20
4.96376597
  0
VERTEX
  8
0
 10
8.37342550
 20
4.92973877
  0
VERTEX
  8
0
 10
8.38193620
 20
4.89537974
  0
VERTEX
  8
0
 10
8.38911106
 20
4.86072978
  0
VERTEX
  8
0
 10
8.39491445
 20
4.82582977
  0
VERTEX
  8
0
 10
8.39931078
 20
4.79072062
  0
VERTEX
  8
0
 10
8.40226444
 20
4.75544322
  0
VERTEX
  8
0
 10
8.40373983
 20
4.72003845
  0
VERTEX
  8
0
 10
8.40370134
 20
4.68454722
  0
VERTEX
  8
0
 10
8.40317237
 20
4.64069550
  0
VERTEX
  8
0
 10
8.39993832
 20
4.59706675
  0
VERTEX
  8
0
 10
8.39434099
 20
4.55367564
  0
VERTEX
  8
0
 10
8.38672217
 20
4.51053680
  0
VERTEX
  8
0
 10
8.37742367
 20
4.46766490
  0
VERTEX
  8
0
 10
8.36678728
 20
4.42507456
  0
VERTEX
  8
0
 10
8.35515479
 20
4.38278046
  0
VERTEX
  8
0
 10
8.34286801
 20
4.34079722
  0
VERTEX
  8
0
 10
8.32726037
 20
4.29816484
  0
VERTEX
  8
0
 10
8.31819027
 20
4.27706919
  0
VERTEX
  8
0
 10
8.30790273
 20
4.25661319
  0
VERTEX
  8
0
 10
8.29611779
 20
4.23716631
  0
VERTEX
  8
0
 10
8.28255551
 20
4.21909800
  0
VERTEX
  8
0
 10
8.27502038
 20
4.21069628
  0
VERTEX
  8
0
 10
8.26693593
 20
4.20277774
  0
VERTEX
  8
0
 10
8.25826718
 20
4.19538859
  0
VERTEX
  8
0
 10
8.24897912
 20
4.18857500
  0
VERTEX
  8
0
 10
8.23564850
 20
4.18010440
  0
VERTEX
  8
0
 10
8.22142270
 20
4.17424774
  0
VERTEX
  8
0
 10
8.20651330
 20
4.17065019
  0
VERTEX
  8
0
 10
8.19113190
 20
4.16895694
  0
VERTEX
  8
0
 10
8.17549008
 20
4.16881317
  0
VERTEX
  8
0
 10
8.15979943
 20
4.16986406
  0
VERTEX
  8
0
 10
8.12911801
 20
4.17413055
  0
VERTEX
  8
0
 10
8.06076921
 20
4.19093123
  0
VERTEX
  8
0
 10
7.99297869
 20
4.20970781
  0
VERTEX
  8
0
 10
7.92569272
 20
4.23020966
  0
VERTEX
  8
0
 10
7.85885759
 20
4.25218611
  0
VERTEX
  8
0
 10
7.79241960
 20
4.27538652
  0
VERTEX
  8
0
 10
7.72632504
 20
4.29956024
  0
VERTEX
  8
0
 10
7.59495134
 20
4.34982500
  0
VERTEX
  8
0
 10
7.54286014
 20
4.37486840
  0
VERTEX
  8
0
 10
7.49108632
 20
4.40103160
  0
VERTEX
  8
0
 10
7.43997331
 20
4.42861406
  0
VERTEX
  8
0
 10
7.38986454
 20
4.45791528
  0
VERTEX
  8
0
 10
7.34110341
 20
4.48923472
  0
VERTEX
  8
0
 10
7.31733554
 20
4.50574487
  0
VERTEX
  8
0
 10
7.29403337
 20
4.52287187
  0
VERTEX
  8
0
 10
7.27123983
 20
4.54065318
  0
VERTEX
  8
0
 10
7.24899784
 20
4.55912621
  0
VERTEX
  8
0
 10
7.22735033
 20
4.57832842
  0
VERTEX
  8
0
 10
7.20634023
 20
4.59829722
  0
VERTEX
  8
0
 10
7.22025638
 20
4.62189969
  0
VERTEX
  8
0
 10
7.23306007
 20
4.64606225
  0
VERTEX
  8
0
 10
7.24477163
 20
4.67073954
  0
VERTEX
  8
0
 10
7.25541141
 20
4.69588620
  0
VERTEX
  8
0
 10
7.26499976
 20
4.72145684
  0
VERTEX
  8
0
 10
7.27355703
 20
4.74740611
  0
VERTEX
  8
0
 10
7.28110355
 20
4.77368863
  0
VERTEX
  8
0
 10
7.28765967
 20
4.80025903
  0
VERTEX
  8
0
 10
7.29324575
 20
4.82707194
  0
VERTEX
  8
0
 10
7.29788211
 20
4.85408200
  0
VERTEX
  8
0
 10
7.30158912
 20
4.88124383
  0
VERTEX
  8
0
 10
7.30438711
 20
4.90851206
  0
VERTEX
  8
0
 10
7.30629642
 20
4.93584134
  0
VERTEX
  8
0
 10
7.30733741
 20
4.96318627
  0
VERTEX
  8
0
 10
7.30753042
 20
4.99050151
  0
VERTEX
  8
0
 10
7.30689579
 20
5.01774167
  0
VERTEX
  8
0
 10
7.30733833
 20
5.06338970
  0
VERTEX
  8
0
 10
7.30720695
 20
5.11063429
  0
VERTEX
  8
0
 10
7.30643745
 20
5.13528912
  0
VERTEX
  8
0
 10
7.30493815
 20
5.16086366
  0
VERTEX
  8
0
 10
7.30251363
 20
5.18753145
  0
VERTEX
  8
0
 10
7.29896844
 20
5.21546602
  0
VERTEX
  8
0
 10
7.29401067
 20
5.24646095
  0
VERTEX
  8
0
 10
7.28828467
 20
5.27732500
  0
SEQEND
  0
POLYLINE
  8
Default_Layer
 66
   1
 39
0.000000
 70
    1
  0
VERTEX
  8
0
 10
6.92231245
 20
6.46301944
  0
VERTEX
  8
0
 10
6.92934533
 20
6.47555851
  0
VERTEX
  8
0
 10
6.93584110
 20
6.48872257
  0
VERTEX
  8
0
 10
6.94897912
 20
6.51520694
  0
VERTEX
  8
0
 10
6.95650028
 20
6.52766788
  0
VERTEX
  8
0
 10
6.96524214
 20
6.53903507
  0
VERTEX
  8
0
 10
6.97564416
 20
6.54887882
  0
VERTEX
  8
0
 10
6.98160506
 20
6.55309513
  0
VERTEX
  8
0
 10
6.98814579
 20
6.55676944
  0
VERTEX
  8
0
 10
7.01044776
 20
6.56886047
  0
VERTEX
  8
0
 10
7.03311757
 20
6.58015133
  0
VERTEX
  8
0
 10
7.05612918
 20
6.59066867
  0
VERTEX
  8
0
 10
7.07945655
 20
6.60043915
  0
VERTEX
  8
0
 10
7.10307363
 20
6.60948941
  0
VERTEX
  8
0
 10
7.12695438
 20
6.61784610
  0
VERTEX
  8
0
 10
7.17540273
 20
6.63258542
  0
VERTEX
  8
0
 10
7.22459327
 20
6.64487030
  0
VERTEX
  8
0
 10
7.27431766
 20
6.65491397
  0
VERTEX
  8
0
 10
7.32436757
 20
6.66292965
  0
VERTEX
  8
0
 10
7.37453467
 20
6.66913055
  0
VERTEX
  8
0
 10
7.46520308
 20
6.67110321
  0
VERTEX
  8
0
 10
7.55592356
 20
6.67137014
  0
VERTEX
  8
0
 10
7.73731245
 20
6.67038055
  0
VERTEX
  8
0
 10
7.76301124
 20
6.66999644
  0
VERTEX
  8
0
 10
7.78863190
 20
6.66824514
  0
VERTEX
  8
0
 10
7.81414839
 20
6.66516571
  0
VERTEX
  8
0
 10
7.83953467
 20
6.66079722
  0
VERTEX
  8
0
 10
7.94017487
 20
6.64310842
  0
VERTEX
  8
0
 10
7.99060157
 20
6.63449595
  0
VERTEX
  8
0
 10
8.04090620
 20
6.62532847
  0
VERTEX
  8
0
 10
8.09094391
 20
6.61507375
  0
VERTEX
  8
0
 10
8.14056983
 20
6.60319956
  0
VERTEX
  8
0
 10
8.18963911
 20
6.58917369
  0
VERTEX
  8
0
 10
8.21391975
 20
6.58118754
  0
VERTEX
  8
0
 10
8.23800690
 20
6.57246389
  0
VERTEX
  8
0
 10
8.27586178
 20
6.55833696
  0
VERTEX
  8
0
 10
8.31317020
 20
6.54296410
  0
VERTEX
  8
0
 10
8.34992279
 20
6.52638845
  0
VERTEX
  8
0
 10
8.38611020
 20
6.50865312
  0
VERTEX
  8
0
 10
8.42172306
 20
6.48980126
  0
VERTEX
  8
0
 10
8.45675201
 20
6.46987600
  0
VERTEX
  8
0
 10
8.49118771
 20
6.44892046
  0
VERTEX
  8
0
 10
8.52502079
 20
6.42697778
  0
VERTEX
  8
0
 10
8.55824188
 20
6.40409108
  0
VERTEX
  8
0
 10
8.59084164
 20
6.38030351
  0
VERTEX
  8
0
 10
8.62281070
 20
6.35565820
  0
VERTEX
  8
0
 10
8.65413971
 20
6.33019826
  0
VERTEX
  8
0
 10
8.68481930
 20
6.30396684
  0
VERTEX
  8
0
 10
8.71484012
 20
6.27700707
  0
VERTEX
  8
0
 10
8.74419281
 20
6.24936208
  0
VERTEX
  8
0
 10
8.77286801
 20
6.22107500
  0
VERTEX
  8
0
 10
8.81245243
 20
6.18072371
  0
VERTEX
  8
0
 10
8.83166317
 20
6.15969896
  0
VERTEX
  8
0
 10
8.85035065
 20
6.13810842
  0
VERTEX
  8
0
 10
8.86841312
 20
6.11595228
  0
VERTEX
  8
0
 10
8.88574887
 20
6.09323076
  0
VERTEX
  8
0
 10
8.90225616
 20
6.06994405
  0
VERTEX
  8
0
 10
8.91783329
 20
6.04609236
  0
VERTEX
  8
0
 10
8.93237851
 20
6.02167589
  0
VERTEX
  8
0
 10
8.94579010
 20
5.99669484
  0
VERTEX
  8
0
 10
8.95796634
 20
5.97114943
  0
VERTEX
  8
0
 10
8.96880551
 20
5.94503984
  0
VERTEX
  8
0
 10
8.97820587
 20
5.91836629
  0
VERTEX
  8
0
 10
8.98606571
 20
5.89112898
  0
VERTEX
  8
0
 10
8.99228329
 20
5.86332811
  0
VERTEX
  8
0
 10
8.99675690
 20
5.83496389
  0
VERTEX
  8
0
 10
8.99727882
 20
5.81809903
  0
VERTEX
  8
0
 10
8.99668745
 20
5.80132755
  0
VERTEX
  8
0
 10
8.99502838
 20
5.78468099
  0
VERTEX
  8
0
 10
8.99234717
 20
5.76819088
  0
VERTEX
  8
0
 10
8.98868941
 20
5.75188877
  0
VERTEX
  8
0
 10
8.98410065
 20
5.73580617
  0
VERTEX
  8
0
 10
8.97862647
 20
5.71997464
  0
VERTEX
  8
0
 10
8.97231245
 20
5.70442569
  0
VERTEX
  8
0
 10
8.96520416
 20
5.68919088
  0
VERTEX
  8
0
 10
8.95734717
 20
5.67430172
  0
VERTEX
  8
0
 10
8.94878706
 20
5.65978977
  0
VERTEX
  8
0
 10
8.93956940
 20
5.64568654
  0
VERTEX
  8
0
 10
8.91934370
 20
5.61883243
  0
VERTEX
  8
0
 10
8.89703467
 20
5.59399167
  0
VERTEX
  8
0
 10
8.87887170
 20
5.57734409
  0
VERTEX
  8
0
 10
8.85994049
 20
5.56180064
  0
VERTEX
  8
0
 10
8.84029639
 20
5.54731961
  0
VERTEX
  8
0
 10
8.81999474
 20
5.53385929
  0
VERTEX
  8
0
 10
8.79909088
 20
5.52137797
  0
VERTEX
  8
0
 10
8.77764014
 20
5.50983395
  0
VERTEX
  8
0
 10
8.75569787
 20
5.49918552
  0
VERTEX
  8
0
 10
8.73331940
 20
5.48939097
  0
VERTEX
  8
0
 10
8.71056007
 20
5.48040860
  0
VERTEX
  8
0
 10
8.68747521
 20
5.47219669
  0
VERTEX
  8
0
 10
8.64055030
 20
5.45791745
  0
VERTEX
  8
0
 10
8.59298737
 20
5.44621958
  0
VERTEX
  8
0
 10
8.54522912
 20
5.43676944
  0
VERTEX
  8
0
 10
8.43662235
 20
5.42143524
  0
VERTEX
  8
0
 10
8.32793745
 20
5.40628333
  0
VERTEX
  8
0
 10
8.27349247
 20
5.39995575
  0
VERTEX
  8
0
 10
8.21894006
 20
5.39508976
  0
VERTEX
  8
0
 10
8.16425093
 20
5.39215736
  0
VERTEX
  8
0
 10
8.10939579
 20
5.39163055
  0
VERTEX
  8
0
 10
8.00971371
 20
5.38972816
  0
VERTEX
  8
0
 10
7.95962650
 20
5.38967041
  0
VERTEX
  8
0
 10
7.90946523
 20
5.39039575
  0
VERTEX
  8
0
 10
7.85929745
 20
5.39204475
  0
VERTEX
  8
0
 10
7.80919071
 20
5.39475800
  0
VERTEX
  8
0
 10
7.75921254
 20
5.39867608
  0
VERTEX
  8
0
 10
7.70943051
 20
5.40393958
  0
VERTEX
  8
0
 10
7.65991214
 20
5.41068909
  0
VERTEX
  8
0
 10
7.61072500
 20
5.41906518
  0
VERTEX
  8
0
 10
7.56193661
 20
5.42920844
  0
VERTEX
  8
0
 10
7.51361454
 20
5.44125946
  0
VERTEX
  8
0
 10
7.46582631
 20
5.45535882
  0
VERTEX
  8
0
 10
7.41863949
 20
5.47164710
  0
VERTEX
  8
0
 10
7.37212162
 20
5.49026489
  0
VERTEX
  8
0
 10
7.32634023
 20
5.51135278
  0
VERTEX
  8
0
 10
7.27735803
 20
5.53656979
  0
VERTEX
  8
0
 10
7.25267568
 20
5.54975121
  0
VERTEX
  8
0
 10
7.22875342
 20
5.56402639
  0
VERTEX
  8
0
 10
7.20625695
 20
5.57992917
  0
VERTEX
  8
0
 10
7.19575141
 20
5.58865774
  0
VERTEX
  8
0
 10
7.18585195
 20
5.59799340
  0
VERTEX
  8
0
 10
7.17664178
 20
5.60800290
  0
VERTEX
  8
0
 10
7.16820411
 20
5.61875295
  0
VERTEX
  8
0
 10
7.16062215
 20
5.63031030
  0
VERTEX
  8
0
 10
7.15397912
 20
5.64274167
  0
VERTEX
  8
0
 10
7.13019996
 20
5.68393995
  0
VERTEX
  8
0
 10
7.10468333
 20
5.72405975
  0
VERTEX
  8
0
 10
7.07748864
 20
5.76304470
  0
VERTEX
  8
0
 10
7.04867530
 20
5.80083845
  0
VERTEX
  8
0
 10
7.01830271
 20
5.83738464
  0
VERTEX
  8
0
 10
6.98643029
 20
5.87262692
  0
VERTEX
  8
0
 10
6.95311744
 20
5.90650892
  0
VERTEX
  8
0
 10
6.91842356
 20
5.93897430
  0
VERTEX
  8
0
 10
6.88240807
 20
5.96996670
  0
VERTEX
  8
0
 10
6.84513038
 20
5.99942976
  0
VERTEX
  8
0
 10
6.80664988
 20
6.02730713
  0
VERTEX
  8
0
 10
6.76702599
 20
6.05354245
  0
VERTEX
  8
0
 10
6.72631812
 20
6.07807936
  0
VERTEX
  8
0
 10
6.68458567
 20
6.10086151
  0
VERTEX
  8
0
 10
6.64188805
 20
6.12183255
  0
VERTEX
  8
0
 10
6.59828467
 20
6.14093611
  0
VERTEX
  8
0
 10
6.64187544
 20
6.17187008
  0
VERTEX
  8
0
 10
6.68432851
 20
6.20437144
  0
VERTEX
  8
0
 10
6.72550880
 20
6.23845808
  0
VERTEX
  8
0
 10
6.76528120
 20
6.27414792
  0
VERTEX
  8
0
 10
6.80351064
 20
6.31145884
  0
VERTEX
  8
0
 10
6.84006202
 20
6.35040877
  0
VERTEX
  8
0
 10
6.87480025
 20
6.39101559
  0
VERTEX
  8
0
 10
6.90759023
 20
6.43329722
  0
VERTEX
  8
0
 10
6.91183766
 20
6.44036676
  0
VERTEX
  8
0
 10
6.91522305
 20
6.44794718
  0
VERTEX
  8
0
 10
6.91847259
 20
6.45563318
  0
VERTEX
  8
0
 10
6.92231245
 20
6.46301944
  0
SEQEND
  0
POLYLINE
  8
Default_Layer
 66
   1
 39
0.000000
 70
    1
  0
VERTEX
  8
0
 10
8.71970497
 20
6.42742465
  0
VERTEX
  8
0
 10
8.79015715
 20
6.40739316
  0
VERTEX
  8
0
 10
8.86011353
 20
6.38568527
  0
VERTEX
  8
0
 10
8.92946724
 20
6.36217349
  0
VERTEX
  8
0
 10
8.99811142
 20
6.33673033
  0
VERTEX
  8
0
 10
9.06593921
 20
6.30922831
  0
VERTEX
  8
0
 10
9.13284375
 20
6.27953994
  0
VERTEX
  8
0
 10
9.19871817
 20
6.24753774
  0
VERTEX
  8
0
 10
9.26345561
 20
6.21309423
  0
VERTEX
  8
0
 10
9.28831673
 20
6.19922270
  0
VERTEX
  8
0
 10
9.30107280
 20
6.19229345
  0
VERTEX
  8
0
 10
9.31338617
 20
6.18483034
  0
VERTEX
  8
0
 10
9.32476204
 20
6.17642973
  0
VERTEX
  8
0
 10
9.33470561
 20
6.16668798
  0
VERTEX
  8
0
 10
9.33898567
 20
6.16118803
  0
VERTEX
  8
0
 10
9.34272211
 20
6.15520143
  0
VERTEX
  8
0
 10
9.34585308
 20
6.14867773
  0
VERTEX
  8
0
 10
9.34831673
 20
6.14156645
  0
VERTEX
  8
0
 10
9.33379823
 20
6.14421375
  0
VERTEX
  8
0
 10
9.31977289
 20
6.14823963
  0
VERTEX
  8
0
 10
9.30616096
 20
6.15339506
  0
VERTEX
  8
0
 10
9.29288270
 20
6.15943103
  0
VERTEX
  8
0
 10
9.26700813
 20
6.17314848
  0
VERTEX
  8
0
 10
9.24151117
 20
6.18739978
  0
VERTEX
  8
0
 10
9.17953290
 20
6.22067122
  0
VERTEX
  8
0
 10
9.11648562
 20
6.25174805
  0
VERTEX
  8
0
 10
9.05246067
 20
6.28070402
  0
VERTEX
  8
0
 10
8.98754936
 20
6.30761289
  0
VERTEX
  8
0
 10
8.92184301
 20
6.33254842
  0
VERTEX
  8
0
 10
8.85543294
 20
6.35558438
  0
VERTEX
  8
0
 10
8.78841048
 20
6.37679451
  0
VERTEX
  8
0
 10
8.72086693
 20
6.39625258
  0
VERTEX
  8
0
 10
8.71157332
 20
6.40012836
  0
VERTEX
  8
0
 10
8.70832057
 20
6.40254139
  0
VERTEX
  8
0
 10
8.70591229
 20
6.40517418
  0
VERTEX
  8
0
 10
8.70337446
 20
6.41080798
  0
VERTEX
  8
0
 10
8.70345045
 20
6.41644771
  0
VERTEX
  8
0
 10
8.70563087
 20
6.42151130
  0
VERTEX
  8
0
 10
8.70940635
 20
6.42541670
  0
VERTEX
  8
0
 10
8.71426751
 20
6.42758183
  0
VERTEX
  8
0
 10
8.71970497
 20
6.42742465
  0
SEQEND
  0
POLYLINE
  8
Default_Layer
 66
   1
 39
0.000000
 70
    1
  0
VERTEX
  8
0
 10
7.03967356
 20
6.89857500
  0
VERTEX
  8
0
 10
7.03889747
 20
6.93113603
  0
VERTEX
  8
0
 10
7.03651167
 20
6.96351640
  0
VERTEX
  8
0
 10
7.03274241
 20
6.99573076
  0
VERTEX
  8
0
 10
7.02781592
 20
7.02779375
  0
VERTEX
  8
0
 10
7.02195845
 20
7.05972002
  0
VERTEX
  8
0
 10
7.01539622
 20
7.09152422
  0
VERTEX
  8
0
 10
7.00106245
 20
7.15482500
  0
VERTEX
  8
0
 10
7.03266439
 20
7.18268077
  0
VERTEX
  8
0
 10
7.06484799
 20
7.20985213
  0
VERTEX
  8
0
 10
7.09758620
 20
7.23635454
  0
VERTEX
  8
0
 10
7.13085195
 20
7.26220347
  0
VERTEX
  8
0
 10
7.16461819
 20
7.28741438
  0
VERTEX
  8
0
 10
7.19885786
 20
7.31200273
  0
VERTEX
  8
0
 10
7.26864926
 20
7.35937361
  0
VERTEX
  8
0
 10
7.34000966
 20
7.40443980
  0
VERTEX
  8
0
 10
7.41272261
 20
7.44732500
  0
VERTEX
  8
0
 10
7.48657162
 20
7.48815291
  0
VERTEX
  8
0
 10
7.56134023
 20
7.52704722
  0
VERTEX
  8
0
 10
7.59796078
 20
7.54342065
  0
VERTEX
  8
0
 10
7.63495568
 20
7.55892005
  0
VERTEX
  8
0
 10
7.70974301
 20
7.58807153
  0
VERTEX
  8
0
 10
7.78505117
 20
7.61605113
  0
VERTEX
  8
0
 10
7.86022912
 20
7.64440833
  0
VERTEX
  8
0
 10
7.90380646
 20
7.66050798
  0
VERTEX
  8
0
 10
7.94770199
 20
7.67559486
  0
VERTEX
  8
0
 10
7.99189538
 20
7.68969459
  0
VERTEX
  8
0
 10
8.03636627
 20
7.70283281
  0
VERTEX
  8
0
 10
8.08109433
 20
7.71503516
  0
VERTEX
  8
0
 10
8.12605920
 20
7.72632728
  0
VERTEX
  8
0
 10
8.17124054
 20
7.73673479
  0
VERTEX
  8
0
 10
8.21661801
 20
7.74628333
  0
VERTEX
  8
0
 10
8.26217126
 20
7.75499854
  0
VERTEX
  8
0
 10
8.30787994
 20
7.76290605
  0
VERTEX
  8
0
 10
8.35372372
 20
7.77003150
  0
VERTEX
  8
0
 10
8.39968224
 20
7.77640052
  0
VERTEX
  8
0
 10
8.49186215
 20
7.78697181
  0
VERTEX
  8
0
 10
8.58425690
 20
7.79482500
  0
VERTEX
  8
0
 10
8.68361888
 20
7.79771779
  0
VERTEX
  8
0
 10
8.73332428
 20
7.79913896
  0
VERTEX
  8
0
 10
8.78300690
 20
7.79984236
  0
VERTEX
  8
0
 10
8.83263743
 20
7.79930227
  0
VERTEX
  8
0
 10
8.88218658
 20
7.79699297
  0
VERTEX
  8
0
 10
8.93162506
 20
7.79238875
  0
VERTEX
  8
0
 10
8.95629364
 20
7.78906175
  0
VERTEX
  8
0
 10
8.98092356
 20
7.78496389
  0
VERTEX
  8
0
 10
9.00168376
 20
7.78133036
  0
VERTEX
  8
0
 10
9.02228505
 20
7.77695038
  0
VERTEX
  8
0
 10
9.06293528
 20
7.76601206
  0
VERTEX
  8
0
 10
9.10272288
 20
7.75227102
  0
VERTEX
  8
0
 10
9.14149648
 20
7.73584930
  0
VERTEX
  8
0
 10
9.17910472
 20
7.71686900
  0
VERTEX
  8
0
 10
9.21539622
 20
7.69545217
  0
VERTEX
  8
0
 10
9.25021962
 20
7.67172089
  0
VERTEX
  8
0
 10
9.28342356
 20
7.64579722
  0
VERTEX
  8
0
 10
9.31203033
 20
7.62291962
  0
VERTEX
  8
0
 10
9.34081940
 20
7.60006805
  0
VERTEX
  8
0
 10
9.35462311
 20
7.58804169
  0
VERTEX
  8
0
 10
9.36768138
 20
7.57528941
  0
VERTEX
  8
0
 10
9.37973053
 20
7.56156708
  0
VERTEX
  8
0
 10
9.39050690
 20
7.54663055
  0
VERTEX
  8
0
 10
9.40471235
 20
7.52120114
  0
VERTEX
  8
0
 10
9.41690447
 20
7.49471215
  0
VERTEX
  8
0
 10
9.42707184
 20
7.46733124
  0
VERTEX
  8
0
 10
9.43520308
 20
7.43922604
  0
VERTEX
  8
0
 10
9.44128679
 20
7.41056420
  0
VERTEX
  8
0
 10
9.44531158
 20
7.38151337
  0
VERTEX
  8
0
 10
9.44726607
 20
7.35224118
  0
VERTEX
  8
0
 10
9.44713884
 20
7.32291528
  0
VERTEX
  8
0
 10
9.44491852
 20
7.29370331
  0
VERTEX
  8
0
 10
9.44059370
 20
7.26477292
  0
VERTEX
  8
0
 10
9.43415300
 20
7.23629174
  0
VERTEX
  8
0
 10
9.42558502
 20
7.20842743
  0
VERTEX
  8
0
 10
9.41487837
 20
7.18134762
  0
VERTEX
  8
0
 10
9.40202165
 20
7.15521996
  0
VERTEX
  8
0
 10
9.38700348
 20
7.13021210
  0
VERTEX
  8
0
 10
9.36981245
 20
7.10649167
  0
VERTEX
  8
0
 10
9.33134457
 20
7.06860321
  0
VERTEX
  8
0
 10
9.29248606
 20
7.03109236
  0
VERTEX
  8
0
 10
9.25399214
 20
6.99319088
  0
VERTEX
  8
0
 10
9.21661801
 20
6.95413055
  0
VERTEX
  8
0
 10
9.19714834
 20
6.93306773
  0
VERTEX
  8
0
 10
9.17619917
 20
6.91367483
  0
VERTEX
  8
0
 10
9.15402279
 20
6.89570770
  0
VERTEX
  8
0
 10
9.13087148
 20
6.87892222
  0
VERTEX
  8
0
 10
9.10699751
 20
6.86307424
  0
VERTEX
  8
0
 10
9.08265316
 20
6.84791962
  0
VERTEX
  8
0
 10
9.03356245
 20
6.81871389
  0
VERTEX
  8
0
 10
8.99461219
 20
6.79815718
  0
VERTEX
  8
0
 10
8.95507884
 20
6.77886308
  0
VERTEX
  8
0
 10
8.91500105
 20
6.76080190
  0
VERTEX
  8
0
 10
8.87441749
 20
6.74394392
  0
VERTEX
  8
0
 10
8.83336680
 20
6.72825945
  0
VERTEX
  8
0
 10
8.79188765
 20
6.71371877
  0
VERTEX
  8
0
 10
8.75001868
 20
6.70029219
  0
VERTEX
  8
0
 10
8.70779856
 20
6.68795000
  0
VERTEX
  8
0
 10
8.66526594
 20
6.67666250
  0
VERTEX
  8
0
 10
8.62245948
 20
6.66639998
  0
VERTEX
  8
0
 10
8.57941783
 20
6.65713274
  0
VERTEX
  8
0
 10
8.53617964
 20
6.64883108
  0
VERTEX
  8
0
 10
8.49278358
 20
6.64146528
  0
VERTEX
  8
0
 10
8.44926829
 20
6.63500566
  0
VERTEX
  8
0
 10
8.40567244
 20
6.62942251
  0
VERTEX
  8
0
 10
8.36203467
 20
6.62468611
  0
VERTEX
  8
0
 10
8.32121002
 20
6.61924774
  0
VERTEX
  8
0
 10
8.28012495
 20
6.61555417
  0
VERTEX
  8
0
 10
8.25954987
 20
6.61480927
  0
VERTEX
  8
0
 10
8.23898780
 20
6.61503767
  0
VERTEX
  8
0
 10
8.21846480
 20
6.61641842
  0
VERTEX
  8
0
 10
8.19800690
 20
6.61913055
  0
VERTEX
  8
0
 10
8.09430247
 20
6.64291962
  0
VERTEX
  8
0
 10
8.04219391
 20
6.65373505
  0
VERTEX
  8
0
 10
7.98993398
 20
6.66381805
  0
VERTEX
  8
0
 10
7.93753733
 20
6.67315887
  0
VERTEX
  8
0
 10
7.88501862
 20
6.68174774
  0
VERTEX
  8
0
 10
7.83239248
 20
6.68957489
  0
VERTEX
  8
0
 10
7.77967356
 20
6.69663055
  0
VERTEX
  8
0
 10
7.68254683
 20
6.69851640
  0
VERTEX
  8
0
 10
7.58536801
 20
6.69869653
  0
VERTEX
  8
0
 10
7.48818919
 20
6.69832977
  0
VERTEX
  8
0
 10
7.39106245
 20
6.69857500
  0
VERTEX
  8
0
 10
7.33869971
 20
6.69333167
  0
VERTEX
  8
0
 10
7.28650950
 20
6.68605547
  0
VERTEX
  8
0
 10
7.23465132
 20
6.67661455
  0
VERTEX
  8
0
 10
7.18328467
 20
6.66487708
  0
VERTEX
  8
0
 10
7.13256907
 20
6.65071123
  0
VERTEX
  8
0
 10
7.08266402
 20
6.63398515
  0
VERTEX
  8
0
 10
7.03372901
 20
6.61456702
  0
VERTEX
  8
0
 10
7.00967512
 20
6.60380724
  0
VERTEX
  8
0
 10
6.98592356
 20
6.59232500
  0
VERTEX
  8
0
 10
6.99827518
 20
6.62547577
  0
VERTEX
  8
0
 10
7.00869483
 20
6.65914575
  0
VERTEX
  8
0
 10
7.01738597
 20
6.69325517
  0
VERTEX
  8
0
 10
7.02455204
 20
6.72772430
  0
VERTEX
  8
0
 10
7.03039649
 20
6.76247338
  0
VERTEX
  8
0
 10
7.03512278
 20
6.79742265
  0
VERTEX
  8
0
 10
7.03893436
 20
6.83249237
  0
VERTEX
  8
0
 10
7.04203467
 20
6.86760278
  0
VERTEX
  8
0
 10
7.04200997
 20
6.87533400
  0
VERTEX
  8
0
 10
7.04115180
 20
6.88305888
  0
VERTEX
  8
0
 10
7.04014478
 20
6.89079876
  0
VERTEX
  8
0
 10
7.03967356
 20
6.89857500
  0
SEQEND
  0
POLYLINE
  8
Default_Layer
 66
   1
 39
0.000000
 70
    1
  0
VERTEX
  8
0
 10
8.48406444
 20
8.01848935
  0
VERTEX
  8
0
 10
8.55101049
 20
8.04058207
  0
VERTEX
  8
0
 10
8.58480329
 20
8.05061618
  0
VERTEX
  8
0
 10
8.61879112
 20
8.05992633
  0
VERTEX
  8
0
 10
8.65296033
 20
8.06847569
  0
VERTEX
  8
0
 10
8.68729731
 20
8.07622742
  0
VERTEX
  8
0
 10
8.72178841
 20
8.08314466
  0
VERTEX
  8
0
 10
8.75642003
 20
8.08919059
  0
VERTEX
  8
0
 10
8.79117852
 20
8.09432835
  0
VERTEX
  8
0
 10
8.82605026
 20
8.09852111
  0
VERTEX
  8
0
 10
8.86102162
 20
8.10173202
  0
VERTEX
  8
0
 10
8.89607898
 20
8.10392425
  0
VERTEX
  8
0
 10
8.93120870
 20
8.10506095
  0
VERTEX
  8
0
 10
8.96639716
 20
8.10510527
  0
VERTEX
  8
0
 10
9.00163073
 20
8.10402039
  0
VERTEX
  8
0
 10
9.03689579
 20
8.10176944
  0
VERTEX
  8
0
 10
9.02161801
 20
8.08343611
  0
VERTEX
  8
0
 10
8.99226715
 20
8.07845239
  0
VERTEX
  8
0
 10
8.96269657
 20
8.07564965
  0
VERTEX
  8
0
 10
8.93297299
 20
8.07434431
  0
VERTEX
  8
0
 10
8.90316315
 20
8.07385278
  0
VERTEX
  8
0
 10
8.87333377
 20
8.07349145
  0
VERTEX
  8
0
 10
8.84355160
 20
8.07257673
  0
VERTEX
  8
0
 10
8.81388336
 20
8.07042504
  0
VERTEX
  8
0
 10
8.78439579
 20
8.06635278
  0
VERTEX
  8
0
 10
8.74788749
 20
8.06001321
  0
VERTEX
  8
0
 10
8.71149729
 20
8.05289401
  0
VERTEX
  8
0
 10
8.67525034
 20
8.04498999
  0
VERTEX
  8
0
 10
8.63917180
 20
8.03629601
  0
VERTEX
  8
0
 10
8.60328682
 20
8.02680690
  0
VERTEX
  8
0
 10
8.56762056
 20
8.01651750
  0
VERTEX
  8
0
 10
8.53219818
 20
8.00542265
  0
VERTEX
  8
0
 10
8.49704483
 20
7.99351719
  0
VERTEX
  8
0
 10
8.48989946
 20
7.99227363
  0
VERTEX
  8
0
 10
8.48409598
 20
7.99357901
  0
VERTEX
  8
0
 10
8.47975242
 20
7.99678246
  0
VERTEX
  8
0
 10
8.47698681
 20
8.00123308
  0
VERTEX
  8
0
 10
8.47591718
 20
8.00627997
  0
VERTEX
  8
0
 10
8.47666156
 20
8.01127224
  0
VERTEX
  8
0
 10
8.47933797
 20
8.01555900
  0
VERTEX
  8
0
 10
8.48406444
 20
8.01848935
  0
SEQEND
  0
POLYLINE
  8
Default_Layer
 66
   1
 39
0.000000
 70
    1
  0
VERTEX
  8
0
 10
6.70384023
 20
7.53635278
  0
VERTEX
  8
0
 10
6.66607981
 20
7.56413055
  0
VERTEX
  8
0
 10
6.64757070
 20
7.57850121
  0
VERTEX
  8
0
 10
6.62967356
 20
7.59357500
  0
VERTEX
  8
0
 10
6.62768300
 20
7.60034122
  0
VERTEX
  8
0
 10
6.62695221
 20
7.60718394
  0
VERTEX
  8
0
 10
6.62721751
 20
7.61407549
  0
VERTEX
  8
0
 10
6.62821523
 20
7.62098819
  0
VERTEX
  8
0
 10
6.63135325
 20
7.63476640
  0
VERTEX
  8
0
 10
6.63425690
 20
7.64829722
  0
VERTEX
  8
0
 10
6.64948307
 20
7.70804860
  0
VERTEX
  8
0
 10
6.66665219
 20
7.76726532
  0
VERTEX
  8
0
 10
6.68573456
 20
7.82589122
  0
VERTEX
  8
0
 10
6.70670047
 20
7.88387014
  0
VERTEX
  8
0
 10
6.72952023
 20
7.94114594
  0
VERTEX
  8
0
 10
6.75416412
 20
7.99766246
  0
VERTEX
  8
0
 10
6.78060245
 20
8.05336355
  0
VERTEX
  8
0
 10
6.80880551
 20
8.10819305
  0
VERTEX
  8
0
 10
6.83874359
 20
8.16209483
  0
VERTEX
  8
0
 10
6.87038700
 20
8.21501272
  0
VERTEX
  8
0
 10
6.90370602
 20
8.26689056
  0
VERTEX
  8
0
 10
6.93867096
 20
8.31767222
  0
VERTEX
  8
0
 10
6.97525211
 20
8.36730153
  0
VERTEX
  8
0
 10
7.01341977
 20
8.41572235
  0
VERTEX
  8
0
 10
7.05314423
 20
8.46287852
  0
VERTEX
  8
0
 10
7.09439579
 20
8.50871389
  0
VERTEX
  8
0
 10
7.12887061
 20
8.54663489
  0
VERTEX
  8
0
 10
7.16446523
 20
8.58354028
  0
VERTEX
  8
0
 10
7.19974735
 20
8.62070608
  0
VERTEX
  8
0
 10
7.21682363
 20
8.63978539
  0
VERTEX
  8
0
 10
7.23328467
 20
8.65940833
  0
VERTEX
  8
0
 10
7.24915402
 20
8.67594452
  0
VERTEX
  8
0
 10
7.26552589
 20
8.69189965
  0
VERTEX
  8
0
 10
7.29954770
 20
8.72233368
  0
VERTEX
  8
0
 10
7.33489112
 20
8.75124427
  0
VERTEX
  8
0
 10
7.37109717
 20
8.77916528
  0
VERTEX
  8
0
 10
7.44426124
 20
8.83417396
  0
VERTEX
  8
0
 10
7.48030128
 20
8.86232934
  0
VERTEX
  8
0
 10
7.51536801
 20
8.89163055
  0
VERTEX
  8
0
 10
7.53002279
 20
8.90411007
  0
VERTEX
  8
0
 10
7.54510624
 20
8.91591332
  0
VERTEX
  8
0
 10
7.57639882
 20
8.93774167
  0
VERTEX
  8
0
 10
7.60892514
 20
8.95761688
  0
VERTEX
  8
0
 10
7.64236454
 20
8.97604028
  0
VERTEX
  8
0
 10
7.71070004
 20
9.01053680
  0
VERTEX
  8
0
 10
7.74495487
 20
9.02761254
  0
VERTEX
  8
0
 10
7.77884023
 20
9.04524167
  0
VERTEX
  8
0
 10
7.82442356
 20
9.06697981
  0
VERTEX
  8
0
 10
7.87057716
 20
9.08749969
  0
VERTEX
  8
0
 10
7.91726583
 20
9.10679074
  0
VERTEX
  8
0
 10
7.96445438
 20
9.12484236
  0
VERTEX
  8
0
 10
8.01210761
 20
9.14164398
  0
VERTEX
  8
0
 10
8.06019033
 20
9.15718502
  0
VERTEX
  8
0
 10
8.10866733
 20
9.17145491
  0
VERTEX
  8
0
 10
8.15750342
 20
9.18444305
  0
VERTEX
  8
0
 10
8.20666341
 20
9.19613888
  0
VERTEX
  8
0
 10
8.25611209
 20
9.20653181
  0
VERTEX
  8
0
 10
8.30581428
 20
9.21561127
  0
VERTEX
  8
0
 10
8.35573476
 20
9.22336667
  0
VERTEX
  8
0
 10
8.40583835
 20
9.22978743
  0
VERTEX
  8
0
 10
8.45608985
 20
9.23486298
  0
VERTEX
  8
0
 10
8.50645406
 20
9.23858273
  0
VERTEX
  8
0
 10
8.55689579
 20
9.24093611
  0
VERTEX
  8
0
 10
8.56944811
 20
9.24177867
  0
VERTEX
  8
0
 10
8.58197581
 20
9.24181719
  0
VERTEX
  8
0
 10
8.59444126
 20
9.24106795
  0
VERTEX
  8
0
 10
8.60680681
 20
9.23954722
  0
VERTEX
  8
0
 10
8.61903483
 20
9.23727129
  0
VERTEX
  8
0
 10
8.63108768
 20
9.23425642
  0
VERTEX
  8
0
 10
8.64292772
 20
9.23051890
  0
VERTEX
  8
0
 10
8.65451731
 20
9.22607500
  0
VERTEX
  8
0
 10
8.67679460
 20
9.21513316
  0
VERTEX
  8
0
 10
8.68740702
 20
9.20866777
  0
VERTEX
  8
0
 10
8.69761844
 20
9.20156111
  0
VERTEX
  8
0
 10
8.70739122
 20
9.19382945
  0
VERTEX
  8
0
 10
8.71668772
 20
9.18548906
  0
VERTEX
  8
0
 10
8.72547031
 20
9.17655623
  0
VERTEX
  8
0
 10
8.73370134
 20
9.16704722
  0
VERTEX
  8
0
 10
8.74787387
 20
9.14428318
  0
VERTEX
  8
0
 10
8.76089020
 20
9.12082679
  0
VERTEX
  8
0
 10
8.77271715
 20
9.09674418
  0
VERTEX
  8
0
 10
8.78332157
 20
9.07210147
  0
VERTEX
  8
0
 10
8.79267029
 20
9.04696479
  0
VERTEX
  8
0
 10
8.80073015
 20
9.02140025
  0
VERTEX
  8
0
 10
8.80746799
 20
8.99547397
  0
VERTEX
  8
0
 10
8.81285065
 20
8.96925208
  0
VERTEX
  8
0
 10
8.81684496
 20
8.94280070
  0
VERTEX
  8
0
 10
8.81941776
 20
8.91618595
  0
VERTEX
  8
0
 10
8.82053589
 20
8.88947394
  0
VERTEX
  8
0
 10
8.82016619
 20
8.86273081
  0
VERTEX
  8
0
 10
8.81827549
 20
8.83602268
  0
VERTEX
  8
0
 10
8.81483063
 20
8.80941566
  0
VERTEX
  8
0
 10
8.80979845
 20
8.78297587
  0
VERTEX
  8
0
 10
8.80314579
 20
8.75676944
  0
VERTEX
  8
0
 10
8.79286275
 20
8.72304298
  0
VERTEX
  8
0
 10
8.78172787
 20
8.68962046
  0
VERTEX
  8
0
 10
8.76978122
 20
8.65649662
  0
VERTEX
  8
0
 10
8.75706289
 20
8.62366614
  0
VERTEX
  8
0
 10
8.74361294
 20
8.59112376
  0
VERTEX
  8
0
 10
8.72947147
 20
8.55886417
  0
VERTEX
  8
0
 10
8.69927426
 20
8.49517222
  0
VERTEX
  8
0
 10
8.66679189
 20
8.43254798
  0
VERTEX
  8
0
 10
8.63234500
 20
8.37094913
  0
VERTEX
  8
0
 10
8.59625424
 20
8.31033335
  0
VERTEX
  8
0
 10
8.55884023
 20
8.25065833
  0
VERTEX
  8
0
 10
8.52924096
 20
8.20672885
  0
VERTEX
  8
0
 10
8.49812680
 20
8.16383189
  0
VERTEX
  8
0
 10
8.46553884
 20
8.12202338
  0
VERTEX
  8
0
 10
8.43151818
 20
8.08135929
  0
VERTEX
  8
0
 10
8.39610592
 20
8.04189555
  0
VERTEX
  8
0
 10
8.35934316
 20
8.00368812
  0
VERTEX
  8
0
 10
8.32127099
 20
7.96679294
  0
VERTEX
  8
0
 10
8.28193051
 20
7.93126597
  0
VERTEX
  8
0
 10
8.24136281
 20
7.89716315
  0
VERTEX
  8
0
 10
8.19960900
 20
7.86454044
  0
VERTEX
  8
0
 10
8.15671017
 20
7.83345378
  0
VERTEX
  8
0
 10
8.11270742
 20
7.80395911
  0
VERTEX
  8
0
 10
8.06764184
 20
7.77611240
  0
VERTEX
  8
0
 10
8.02155453
 20
7.74996958
  0
VERTEX
  8
0
 10
7.97448659
 20
7.72558662
  0
VERTEX
  8
0
 10
7.92647912
 20
7.70301944
  0
VERTEX
  8
0
 10
7.87505361
 20
7.68139455
  0
VERTEX
  8
0
 10
7.82304379
 20
7.66119219
  0
VERTEX
  8
0
 10
7.71837148
 20
7.62246389
  0
VERTEX
  8
0
 10
7.66625912
 20
7.60264238
  0
VERTEX
  8
0
 10
7.61466271
 20
7.58165226
  0
VERTEX
  8
0
 10
7.56385732
 20
7.55884572
  0
VERTEX
  8
0
 10
7.53883721
 20
7.54655887
  0
VERTEX
  8
0
 10
7.51411801
 20
7.53357500
  0
VERTEX
  8
0
 10
7.44399567
 20
7.49660804
  0
VERTEX
  8
0
 10
7.37517053
 20
7.45737057
  0
VERTEX
  8
0
 10
7.30761166
 20
7.41601396
  0
VERTEX
  8
0
 10
7.24128815
 20
7.37268958
  0
VERTEX
  8
0
 10
7.17616906
 20
7.32754879
  0
VERTEX
  8
0
 10
7.11222348
 20
7.28074297
  0
VERTEX
  8
0
 10
7.04942047
 20
7.23242347
  0
VERTEX
  8
0
 10
6.98772912
 20
7.18274167
  0
VERTEX
  8
0
 10
6.97669006
 20
7.20743974
  0
VERTEX
  8
0
 10
6.96479428
 20
7.23164140
  0
VERTEX
  8
0
 10
6.95207696
 20
7.25535153
  0
VERTEX
  8
0
 10
6.93857330
 20
7.27857500
  0
VERTEX
  8
0
 10
6.92431851
 20
7.30131670
  0
VERTEX
  8
0
 10
6.90934777
 20
7.32358151
  0
VERTEX
  8
0
 10
6.89369629
 20
7.34537432
  0
VERTEX
  8
0
 10
6.87739926
 20
7.36670000
  0
VERTEX
  8
0
 10
6.84300934
 20
7.40796953
  0
VERTEX
  8
0
 10
6.80645959
 20
7.44742917
  0
VERTEX
  8
0
 10
6.76803158
 20
7.48511797
  0
VERTEX
  8
0
 10
6.72800690
 20
7.52107500
  0
VERTEX
  8
0
 10
6.72227047
 20
7.52528959
  0
VERTEX
  8
0
 10
6.71610857
 20
7.52892188
  0
VERTEX
  8
0
 10
6.70384023
 20
7.53635278
  0
SEQEND
  0
POLYLINE
  8
Default_Layer
 66
   1
 39
0.000000
 70
    1
  0
VERTEX
  8
0
 10
6.17189579
 20
7.76815833
  0
VERTEX
  8
0
 10
6.10146176
 20
7.76771345
  0
VERTEX
  8
0
 10
6.03102773
 20
7.76814097
  0
VERTEX
  8
0
 10
5.96064579
 20
7.77020911
  0
VERTEX
  8
0
 10
5.89036801
 20
7.77468611
  0
VERTEX
  8
0
 10
5.90244103
 20
7.83567434
  0
VERTEX
  8
0
 10
5.91247304
 20
7.89694088
  0
VERTEX
  8
0
 10
5.92071469
 20
7.95843855
  0
VERTEX
  8
0
 10
5.92741662
 20
8.02012014
  0
VERTEX
  8
0
 10
5.93282949
 20
8.08193844
  0
VERTEX
  8
0
 10
5.93720395
 20
8.14384627
  0
VERTEX
  8
0
 10
5.94384023
 20
8.26774167
  0
VERTEX
  8
0
 10
5.94350901
 20
8.29686710
  0
VERTEX
  8
0
 10
5.94165924
 20
8.32600555
  0
VERTEX
  8
0
 10
5.93639231
 20
8.38426944
  0
VERTEX
  8
0
 10
5.93446930
 20
8.41336884
  0
VERTEX
  8
0
 10
5.93401601
 20
8.44242917
  0
VERTEX
  8
0
 10
5.93577952
 20
8.47143741
  0
VERTEX
  8
0
 10
5.93772603
 20
8.48591793
  0
VERTEX
  8
0
 10
5.94050690
 20
8.50038055
  0
VERTEX
  8
0
 10
5.94764448
 20
8.54481116
  0
VERTEX
  8
0
 10
5.95393572
 20
8.58952335
  0
VERTEX
  8
0
 10
5.96013580
 20
8.63430389
  0
VERTEX
  8
0
 10
5.96699995
 20
8.67893958
  0
VERTEX
  8
0
 10
5.97528337
 20
8.72321720
  0
VERTEX
  8
0
 10
5.98574127
 20
8.76692352
  0
VERTEX
  8
0
 10
5.99202165
 20
8.78849582
  0
VERTEX
  8
0
 10
5.99912886
 20
8.80984534
  0
VERTEX
  8
0
 10
6.00715729
 20
8.83094543
  0
VERTEX
  8
0
 10
6.01620134
 20
8.85176944
  0
VERTEX
  8
0
 10
6.03220717
 20
8.91527703
  0
VERTEX
  8
0
 10
6.04962555
 20
8.97850854
  0
VERTEX
  8
0
 10
6.06849535
 20
9.04138645
  0
VERTEX
  8
0
 10
6.08885542
 20
9.10383325
  0
VERTEX
  8
0
 10
6.11074463
 20
9.16577142
  0
VERTEX
  8
0
 10
6.13420183
 20
9.22712345
  0
VERTEX
  8
0
 10
6.15926588
 20
9.28781182
  0
VERTEX
  8
0
 10
6.18597565
 20
9.34775903
  0
VERTEX
  8
0
 10
6.21436998
 20
9.40688755
  0
VERTEX
  8
0
 10
6.24448775
 20
9.46511987
  0
VERTEX
  8
0
 10
6.27636780
 20
9.52237847
  0
VERTEX
  8
0
 10
6.31004900
 20
9.57858585
  0
VERTEX
  8
0
 10
6.34557020
 20
9.63366448
  0
VERTEX
  8
0
 10
6.38297028
 20
9.68753686
  0
VERTEX
  8
0
 10
6.42228807
 20
9.74012546
  0
VERTEX
  8
0
 10
6.46356245
 20
9.79135278
  0
VERTEX
  8
0
 10
6.50753272
 20
9.84463050
  0
VERTEX
  8
0
 10
6.55339752
 20
9.89663706
  0
VERTEX
  8
0
 10
6.60130659
 20
9.94688256
  0
VERTEX
  8
0
 10
6.62607452
 20
9.97119181
  0
VERTEX
  8
0
 10
6.65140967
 20
9.99487708
  0
VERTEX
  8
0
 10
6.67733076
 20
10.01787713
  0
VERTEX
  8
0
 10
6.70385651
 20
10.04013072
  0
VERTEX
  8
0
 10
6.73100562
 20
10.06157661
  0
VERTEX
  8
0
 10
6.75879683
 20
10.08215356
  0
VERTEX
  8
0
 10
6.78724884
 20
10.10180033
  0
VERTEX
  8
0
 10
6.81638038
 20
10.12045570
  0
VERTEX
  8
0
 10
6.84621016
 20
10.13805840
  0
VERTEX
  8
0
 10
6.87675690
 20
10.15454722
  0
VERTEX
  8
0
 10
6.89743300
 20
10.16445228
  0
VERTEX
  8
0
 10
6.91868262
 20
10.17373559
  0
VERTEX
  8
0
 10
6.94043152
 20
10.18229624
  0
VERTEX
  8
0
 10
6.96260542
 20
10.19003333
  0
VERTEX
  8
0
 10
6.98513007
 20
10.19684594
  0
VERTEX
  8
0
 10
7.00793121
 20
10.20263316
  0
VERTEX
  8
0
 10
7.03093458
 20
10.20729407
  0
VERTEX
  8
0
 10
7.05406592
 20
10.21072778
  0
VERTEX
  8
0
 10
7.07725098
 20
10.21283335
  0
VERTEX
  8
0
 10
7.10041548
 20
10.21350989
  0
VERTEX
  8
0
 10
7.12348518
 20
10.21265649
  0
VERTEX
  8
0
 10
7.14638580
 20
10.21017222
  0
VERTEX
  8
0
 10
7.16904310
 20
10.20595618
  0
VERTEX
  8
0
 10
7.19138282
 20
10.19990746
  0
VERTEX
  8
0
 10
7.21333069
 20
10.19192515
  0
VERTEX
  8
0
 10
7.23481245
 20
10.18190833
  0
VERTEX
  8
0
 10
7.25221605
 20
10.17056593
  0
VERTEX
  8
0
 10
7.26900218
 20
10.15838918
  0
VERTEX
  8
0
 10
7.28515883
 20
10.14541938
  0
VERTEX
  8
0
 10
7.30067400
 20
10.13169783
  0
VERTEX
  8
0
 10
7.31553569
 20
10.11726583
  0
VERTEX
  8
0
 10
7.32973189
 20
10.10216468
  0
VERTEX
  8
0
 10
7.34325060
 20
10.08643568
  0
VERTEX
  8
0
 10
7.35607981
 20
10.07012014
  0
VERTEX
  8
0
 10
7.36820753
 20
10.05325935
  0
VERTEX
  8
0
 10
7.37962175
 20
10.03589461
  0
VERTEX
  8
0
 10
7.39031047
 20
10.01806722
  0
VERTEX
  8
0
 10
7.40026167
 20
9.99981849
  0
VERTEX
  8
0
 10
7.40946337
 20
9.98118971
  0
VERTEX
  8
0
 10
7.41790354
 20
9.96222219
  0
VERTEX
  8
0
 10
7.42557020
 20
9.94295722
  0
VERTEX
  8
0
 10
7.43245134
 20
9.92343611
  0
VERTEX
  8
0
 10
7.44161462
 20
9.89463026
  0
VERTEX
  8
0
 10
7.44946849
 20
9.86557397
  0
VERTEX
  8
0
 10
7.45609026
 20
9.83629347
  0
VERTEX
  8
0
 10
7.46155724
 20
9.80681502
  0
VERTEX
  8
0
 10
7.46594676
 20
9.77716485
  0
VERTEX
  8
0
 10
7.46933611
 20
9.74736922
  0
VERTEX
  8
0
 10
7.47180261
 20
9.71745436
  0
VERTEX
  8
0
 10
7.47342356
 20
9.68744653
  0
VERTEX
  8
0
 10
7.47443810
 20
9.62725691
  0
VERTEX
  8
0
 10
7.47299822
 20
9.56701033
  0
VERTEX
  8
0
 10
7.46972239
 20
9.50691674
  0
VERTEX
  8
0
 10
7.46522912
 20
9.44718611
  0
VERTEX
  8
0
 10
7.45552833
 20
9.36513750
  0
VERTEX
  8
0
 10
7.44376862
 20
9.28332326
  0
VERTEX
  8
0
 10
7.42987023
 20
9.20183455
  0
VERTEX
  8
0
 10
7.41375342
 20
9.12076250
  0
VERTEX
  8
0
 10
7.39533844
 20
9.04019826
  0
VERTEX
  8
0
 10
7.37454553
 20
8.96023298
  0
VERTEX
  8
0
 10
7.35129493
 20
8.88095781
  0
VERTEX
  8
0
 10
7.32550690
 20
8.80246389
  0
VERTEX
  8
0
 10
7.31967790
 20
8.78728377
  0
VERTEX
  8
0
 10
7.31173954
 20
8.77354896
  0
VERTEX
  8
0
 10
7.30210846
 20
8.76099904
  0
VERTEX
  8
0
 10
7.29120134
 20
8.74937361
  0
VERTEX
  8
0
 10
7.27943485
 20
8.73841224
  0
VERTEX
  8
0
 10
7.26722565
 20
8.72785451
  0
VERTEX
  8
0
 10
7.24314579
 20
8.70690833
  0
VERTEX
  8
0
 10
7.22536204
 20
8.69149872
  0
VERTEX
  8
0
 10
7.20876645
 20
8.67495955
  0
VERTEX
  8
0
 10
7.19302372
 20
8.65760657
  0
VERTEX
  8
0
 10
7.17779856
 20
8.63975555
  0
VERTEX
  8
0
 10
7.14755985
 20
8.60382239
  0
VERTEX
  8
0
 10
7.13187571
 20
8.58637177
  0
VERTEX
  8
0
 10
7.11536801
 20
8.56968611
  0
VERTEX
  8
0
 10
7.06902971
 20
8.52008630
  0
VERTEX
  8
0
 10
7.02418637
 20
8.46902693
  0
VERTEX
  8
0
 10
6.98092343
 20
8.41655562
  0
VERTEX
  8
0
 10
6.93932634
 20
8.36271996
  0
VERTEX
  8
0
 10
6.89948056
 20
8.30756758
  0
VERTEX
  8
0
 10
6.86147152
 20
8.25114607
  0
VERTEX
  8
0
 10
6.82538469
 20
8.19350304
  0
VERTEX
  8
0
 10
6.79130551
 20
8.13468611
  0
VERTEX
  8
0
 10
6.75931942
 20
8.07474287
  0
VERTEX
  8
0
 10
6.72951189
 20
8.01372094
  0
VERTEX
  8
0
 10
6.70196835
 20
7.95166792
  0
VERTEX
  8
0
 10
6.67677426
 20
7.88863142
  0
VERTEX
  8
0
 10
6.65401506
 20
7.82465905
  0
VERTEX
  8
0
 10
6.63377621
 20
7.75979841
  0
VERTEX
  8
0
 10
6.61614315
 20
7.69409712
  0
VERTEX
  8
0
 10
6.60120134
 20
7.62760278
  0
VERTEX
  8
0
 10
6.57727854
 20
7.63677297
  0
VERTEX
  8
0
 10
6.55375125
 20
7.64687578
  0
VERTEX
  8
0
 10
6.50732981
 20
7.66855764
  0
VERTEX
  8
0
 10
6.46083025
 20
7.69000512
  0
VERTEX
  8
0
 10
6.43720530
 20
7.69981496
  0
VERTEX
  8
0
 10
6.41314579
 20
7.70857500
  0
VERTEX
  8
0
 10
6.36181115
 20
7.72454939
  0
VERTEX
  8
0
 10
6.30976037
 20
7.73814097
  0
VERTEX
  8
0
 10
6.25711063
 20
7.74910234
  0
VERTEX
  8
0
 10
6.23059777
 20
7.75351939
  0
VERTEX
  8
0
 10
6.20397912
 20
7.75718611
  0
VERTEX
  8
0
 10
6.19571539
 20
7.75951155
  0
VERTEX
  8
0
 10
6.18789187
 20
7.76324060
  0
VERTEX
  8
0
 10
6.18009113
 20
7.76668546
  0
VERTEX
  8
0
 10
6.17606888
 20
7.76777388
  0
VERTEX
  8
0
 10
6.17189579
 20
7.76815833
  0
SEQEND
  0
POLYLINE
  8
Default_Layer
 66
   1
 39
0.000000
 70
    1
  0
VERTEX
  8
0
 10
6.87036531
 20
3.52390679
  0
VERTEX
  8
0
 10
6.88159021
 20
3.60146036
  0
VERTEX
  8
0
 10
6.88756960
 20
3.64019768
  0
VERTEX
  8
0
 10
6.89425690
 20
3.67885278
  0
VERTEX
  8
0
 10
6.93302290
 20
3.68942081
  0
VERTEX
  8
0
 10
6.97149431
 20
3.70204288
  0
VERTEX
  8
0
 10
7.00918121
 20
3.71700219
  0
VERTEX
  8
0
 10
7.02757738
 20
3.72544681
  0
VERTEX
  8
0
 10
7.04559370
 20
3.73458194
  0
VERTEX
  8
0
 10
7.06316895
 20
3.74444299
  0
VERTEX
  8
0
 10
7.08024187
 20
3.75506534
  0
VERTEX
  8
0
 10
7.09675123
 20
3.76648441
  0
VERTEX
  8
0
 10
7.11263580
 20
3.77873559
  0
VERTEX
  8
0
 10
7.12783434
 20
3.79185428
  0
VERTEX
  8
0
 10
7.14228560
 20
3.80587589
  0
VERTEX
  8
0
 10
7.15592834
 20
3.82083581
  0
VERTEX
  8
0
 10
7.16870134
 20
3.83676944
  0
VERTEX
  8
0
 10
7.18228475
 20
3.85454112
  0
VERTEX
  8
0
 10
7.19469282
 20
3.87292721
  0
VERTEX
  8
0
 10
7.20599046
 20
3.89187809
  0
VERTEX
  8
0
 10
7.21624257
 20
3.91134410
  0
VERTEX
  8
0
 10
7.22551405
 20
3.93127560
  0
VERTEX
  8
0
 10
7.23386980
 20
3.95162296
  0
VERTEX
  8
0
 10
7.24137472
 20
3.97233653
  0
VERTEX
  8
0
 10
7.24809370
 20
3.99336667
  0
VERTEX
  8
0
 10
7.25943349
 20
4.03617808
  0
VERTEX
  8
0
 10
7.26840837
 20
4.07966007
  0
VERTEX
  8
0
 10
7.27553755
 20
4.12341549
  0
VERTEX
  8
0
 10
7.28134023
 20
4.16704722
  0
VERTEX
  8
0
 10
7.31990712
 20
4.18790388
  0
VERTEX
  8
0
 10
7.35956289
 20
4.20627031
  0
VERTEX
  8
0
 10
7.40014638
 20
4.22240367
  0
VERTEX
  8
0
 10
7.44149648
 20
4.23656111
  0
VERTEX
  8
0
 10
7.48345205
 20
4.24899980
  0
VERTEX
  8
0
 10
7.52585195
 20
4.25997691
  0
VERTEX
  8
0
 10
7.56853505
 20
4.26974959
  0
VERTEX
  8
0
 10
7.61134023
 20
4.27857500
  0
VERTEX
  8
0
 10
7.63770742
 20
4.28156979
  0
VERTEX
  8
0
 10
7.66436106
 20
4.28242917
  0
VERTEX
  8
0
 10
7.67762441
 20
4.28166745
  0
VERTEX
  8
0
 10
7.69075429
 20
4.27990312
  0
VERTEX
  8
0
 10
7.70368235
 20
4.27697995
  0
VERTEX
  8
0
 10
7.71634023
 20
4.27274167
  0
VERTEX
  8
0
 10
7.77630768
 20
4.25021996
  0
VERTEX
  8
0
 10
7.83660065
 20
4.22850555
  0
VERTEX
  8
0
 10
7.89749257
 20
4.20856198
  0
VERTEX
  8
0
 10
7.92824860
 20
4.19955536
  0
VERTEX
  8
0
 10
7.95925690
 20
4.19135278
  0
VERTEX
  8
0
 10
7.96721923
 20
4.18879138
  0
VERTEX
  8
0
 10
7.97496334
 20
4.18557891
  0
VERTEX
  8
0
 10
7.98270146
 20
4.18233670
  0
VERTEX
  8
0
 10
7.99064579
 20
4.17968611
  0
VERTEX
  8
0
 10
8.05011627
 20
4.16306068
  0
VERTEX
  8
0
 10
8.08014774
 20
4.15504011
  0
VERTEX
  8
0
 10
8.11036801
 20
4.14814097
  0
VERTEX
  8
0
 10
8.14077057
 20
4.14305823
  0
VERTEX
  8
0
 10
8.17134891
 20
4.14048689
  0
VERTEX
  8
0
 10
8.18670197
 20
4.14036018
  0
VERTEX
  8
0
 10
8.20209652
 20
4.14112193
  0
VERTEX
  8
0
 10
8.21753177
 20
4.14285902
  0
VERTEX
  8
0
 10
8.23300690
 20
4.14565833
  0
VERTEX
  8
0
 10
8.24370972
 20
4.15060642
  0
VERTEX
  8
0
 10
8.25390289
 20
4.15625214
  0
VERTEX
  8
0
 10
8.26360413
 20
4.16254768
  0
VERTEX
  8
0
 10
8.27283112
 20
4.16944522
  0
VERTEX
  8
0
 10
8.28993317
 20
4.18485511
  0
VERTEX
  8
0
 10
8.30535065
 20
4.20209930
  0
VERTEX
  8
0
 10
8.31922516
 20
4.22079532
  0
VERTEX
  8
0
 10
8.33169830
 20
4.24056068
  0
VERTEX
  8
0
 10
8.34291168
 20
4.26101288
  0
VERTEX
  8
0
 10
8.35300690
 20
4.28176944
  0
VERTEX
  8
0
 10
8.39015316
 20
4.28168264
  0
VERTEX
  8
0
 10
8.42715620
 20
4.27888750
  0
VERTEX
  8
0
 10
8.46392487
 20
4.27364444
  0
VERTEX
  8
0
 10
8.50036801
 20
4.26621389
  0
VERTEX
  8
0
 10
8.47964400
 20
4.18308699
  0
VERTEX
  8
0
 10
8.45689362
 20
4.10023515
  0
VERTEX
  8
0
 10
8.44458510
 20
4.05904310
  0
VERTEX
  8
0
 10
8.43156186
 20
4.01807668
  0
VERTEX
  8
0
 10
8.41775452
 20
3.97738817
  0
VERTEX
  8
0
 10
8.40309370
 20
3.93702986
  0
VERTEX
  8
0
 10
8.38751004
 20
3.89705404
  0
VERTEX
  8
0
 10
8.37093414
 20
3.85751299
  0
VERTEX
  8
0
 10
8.35329664
 20
3.81845900
  0
VERTEX
  8
0
 10
8.33452816
 20
3.77994436
  0
VERTEX
  8
0
 10
8.31455933
 20
3.74202135
  0
VERTEX
  8
0
 10
8.29332075
 20
3.70474226
  0
VERTEX
  8
0
 10
8.27074307
 20
3.66815938
  0
VERTEX
  8
0
 10
8.24675690
 20
3.63232500
  0
VERTEX
  8
0
 10
8.23459781
 20
3.61107705
  0
VERTEX
  8
0
 10
8.22175310
 20
3.59023366
  0
VERTEX
  8
0
 10
8.20824188
 20
3.56980959
  0
VERTEX
  8
0
 10
8.19408329
 20
3.54981957
  0
VERTEX
  8
0
 10
8.17929643
 20
3.53027837
  0
VERTEX
  8
0
 10
8.16390045
 20
3.51120073
  0
VERTEX
  8
0
 10
8.14791446
 20
3.49260140
  0
VERTEX
  8
0
 10
8.13135759
 20
3.47449514
  0
VERTEX
  8
0
 10
8.09660770
 20
3.43982079
  0
VERTEX
  8
0
 10
8.05980377
 20
3.40729570
  0
VERTEX
  8
0
 10
8.02109880
 20
3.37703786
  0
VERTEX
  8
0
 10
7.98064579
 20
3.34916528
  0
VERTEX
  8
0
 10
7.93859772
 20
3.32379595
  0
VERTEX
  8
0
 10
7.91702335
 20
3.31208688
  0
VERTEX
  8
0
 10
7.89510759
 20
3.30104787
  0
VERTEX
  8
0
 10
7.87286957
 20
3.29069368
  0
VERTEX
  8
0
 10
7.85032840
 20
3.28103906
  0
VERTEX
  8
0
 10
7.82750322
 20
3.27209874
  0
VERTEX
  8
0
 10
7.80441315
 20
3.26388750
  0
VERTEX
  8
0
 10
7.78107730
 20
3.25642007
  0
VERTEX
  8
0
 10
7.75751482
 20
3.24971120
  0
VERTEX
  8
0
 10
7.73374481
 20
3.24377565
  0
VERTEX
  8
0
 10
7.70978641
 20
3.23862817
  0
VERTEX
  8
0
 10
7.68565874
 20
3.23428350
  0
VERTEX
  8
0
 10
7.66138092
 20
3.23075640
  0
VERTEX
  8
0
 10
7.63697208
 20
3.22806161
  0
VERTEX
  8
0
 10
7.61245134
 20
3.22621389
  0
VERTEX
  8
0
 10
7.53394223
 20
3.22539358
  0
VERTEX
  8
0
 10
7.45531592
 20
3.22496389
  0
VERTEX
  8
0
 10
7.41606869
 20
3.22594533
  0
VERTEX
  8
0
 10
7.37692400
 20
3.22828420
  0
VERTEX
  8
0
 10
7.33792579
 20
3.23240041
  0
VERTEX
  8
0
 10
7.29911801
 20
3.23871389
  0
VERTEX
  8
0
 10
7.24056115
 20
3.24944956
  0
VERTEX
  8
0
 10
7.18253815
 20
3.26251597
  0
VERTEX
  8
0
 10
7.12495785
 20
3.27732717
  0
VERTEX
  8
0
 10
7.06772912
 20
3.29329722
  0
VERTEX
  8
0
 10
7.03786285
 20
3.30256860
  0
VERTEX
  8
0
 10
7.00838233
 20
3.31293698
  0
VERTEX
  8
0
 10
6.95003815
 20
3.33541528
  0
VERTEX
  8
0
 10
6.89161584
 20
3.35763316
  0
VERTEX
  8
0
 10
6.86203766
 20
3.36767602
  0
VERTEX
  8
0
 10
6.83203467
 20
3.37649167
  0
VERTEX
  8
0
 10
6.81791077
 20
3.37863569
  0
VERTEX
  8
0
 10
6.80382206
 20
3.37985484
  0
VERTEX
  8
0
 10
6.78977119
 20
3.38022030
  0
VERTEX
  8
0
 10
6.77576080
 20
3.37980330
  0
VERTEX
  8
0
 10
6.74787208
 20
3.37690670
  0
VERTEX
  8
0
 10
6.72017704
 20
3.37173472
  0
VERTEX
  8
0
 10
6.69269684
 20
3.36485701
  0
VERTEX
  8
0
 10
6.66545264
 20
3.35684323
  0
VERTEX
  8
0
 10
6.61175690
 20
3.33968611
  0
VERTEX
  8
0
 10
6.61342356
 20
3.37371389
  0
VERTEX
  8
0
 10
6.72257287
 20
3.44107500
  0
VERTEX
  8
0
 10
6.77727122
 20
3.47453420
  0
VERTEX
  8
0
 10
6.83245134
 20
3.50718611
  0
VERTEX
  8
0
 10
6.83797016
 20
3.50971973
  0
VERTEX
  8
0
 10
6.84395429
 20
3.51153948
  0
VERTEX
  8
0
 10
6.85594237
 20
3.51421167
  0
VERTEX
  8
0
 10
6.86125829
 20
3.51565125
  0
VERTEX
  8
0
 10
6.86566343
 20
3.51755125
  0
VERTEX
  8
0
 10
6.86881378
 20
3.52020524
  0
VERTEX
  8
0
 10
6.87036531
 20
3.52390679
  0
SEQEND
  0
POLYLINE
  8
Default_Layer
 66
   1
 39
0.000000
 70
    1
  0
VERTEX
  8
0
 10
6.19495134
 20
2.82010278
  0
VERTEX
  8
0
 10
6.28873606
 20
2.76194305
  0
VERTEX
  8
0
 10
6.38272912
 20
2.70399167
  0
VERTEX
  8
0
 10
6.40998172
 20
2.68758976
  0
VERTEX
  8
0
 10
6.42368127
 20
2.67917233
  0
VERTEX
  8
0
 10
6.43689579
 20
2.67017222
  0
VERTEX
  8
0
 10
6.44922489
 20
2.66026065
  0
VERTEX
  8
0
 10
6.46026818
 20
2.64910885
  0
VERTEX
  8
0
 10
6.46962528
 20
2.63638804
  0
VERTEX
  8
0
 10
6.47354638
 20
2.62933651
  0
VERTEX
  8
0
 10
6.47689579
 20
2.62176944
  0
VERTEX
  8
0
 10
6.42213016
 20
2.64443003
  0
VERTEX
  8
0
 10
6.39454227
 20
2.65574894
  0
VERTEX
  8
0
 10
6.36668745
 20
2.66617917
  0
VERTEX
  8
0
 10
6.33846805
 20
2.67505992
  0
VERTEX
  8
0
 10
6.30978641
 20
2.68173038
  0
VERTEX
  8
0
 10
6.29524173
 20
2.68403025
  0
VERTEX
  8
0
 10
6.28054487
 20
2.68552975
  0
VERTEX
  8
0
 10
6.26568363
 20
2.68614627
  0
VERTEX
  8
0
 10
6.25064579
 20
2.68579722
  0
VERTEX
  8
0
 10
6.23628001
 20
2.68588511
  0
VERTEX
  8
0
 10
6.22212582
 20
2.68462535
  0
VERTEX
  8
0
 10
6.20816043
 20
2.68223277
  0
VERTEX
  8
0
 10
6.19436106
 20
2.67892222
  0
VERTEX
  8
0
 10
6.16716922
 20
2.67040660
  0
VERTEX
  8
0
 10
6.14036801
 20
2.66079722
  0
VERTEX
  8
0
 10
6.08142053
 20
2.63857744
  0
VERTEX
  8
0
 10
6.02180898
 20
2.61816918
  0
VERTEX
  8
0
 10
5.96159848
 20
2.59957408
  0
VERTEX
  8
0
 10
5.90085412
 20
2.58279375
  0
VERTEX
  8
0
 10
5.83964101
 20
2.56782983
  0
VERTEX
  8
0
 10
5.77802426
 20
2.55468394
  0
VERTEX
  8
0
 10
5.71606896
 20
2.54335771
  0
VERTEX
  8
0
 10
5.65384023
 20
2.53385278
  0
VERTEX
  8
0
 10
5.55592573
 20
2.53091007
  0
VERTEX
  8
0
 10
5.50678701
 20
2.52990746
  0
VERTEX
  8
0
 10
5.45771176
 20
2.53020694
  0
VERTEX
  8
0
 10
5.40883833
 20
2.53255069
  0
VERTEX
  8
0
 10
5.38452053
 20
2.53472110
  0
VERTEX
  8
0
 10
5.36030507
 20
2.53768090
  0
VERTEX
  8
0
 10
5.33620924
 20
2.54152286
  0
VERTEX
  8
0
 10
5.31225033
 20
2.54633976
  0
VERTEX
  8
0
 10
5.28844564
 20
2.55222436
  0
VERTEX
  8
0
 10
5.26481245
 20
2.55926944
  0
VERTEX
  8
0
 10
5.22960927
 20
2.57008169
  0
VERTEX
  8
0
 10
5.19511410
 20
2.58262936
  0
VERTEX
  8
0
 10
5.16135786
 20
2.59684452
  0
VERTEX
  8
0
 10
5.12837148
 20
2.61265920
  0
VERTEX
  8
0
 10
5.09618588
 20
2.63000546
  0
VERTEX
  8
0
 10
5.06483198
 20
2.64881534
  0
VERTEX
  8
0
 10
5.03434072
 20
2.66902089
  0
VERTEX
  8
0
 10
5.00474301
 20
2.69055417
  0
VERTEX
  8
0
 10
4.97606978
 20
2.71334720
  0
VERTEX
  8
0
 10
4.94835195
 20
2.73733205
  0
VERTEX
  8
0
 10
4.92162045
 20
2.76244076
  0
VERTEX
  8
0
 10
4.89590620
 20
2.78860538
  0
VERTEX
  8
0
 10
4.87124013
 20
2.81575795
  0
VERTEX
  8
0
 10
4.84765316
 20
2.84383053
  0
VERTEX
  8
0
 10
4.82517622
 20
2.87275516
  0
VERTEX
  8
0
 10
4.80384023
 20
2.90246389
  0
VERTEX
  8
0
 10
4.77898193
 20
2.93920610
  0
VERTEX
  8
0
 10
4.75537750
 20
2.97669457
  0
VERTEX
  8
0
 10
4.73299825
 20
3.01488454
  0
VERTEX
  8
0
 10
4.71181549
 20
3.05373125
  0
VERTEX
  8
0
 10
4.69180054
 20
3.09318993
  0
VERTEX
  8
0
 10
4.67292470
 20
3.13321584
  0
VERTEX
  8
0
 10
4.65515930
 20
3.17376421
  0
VERTEX
  8
0
 10
4.63847565
 20
3.21479028
  0
VERTEX
  8
0
 10
4.62284505
 20
3.25624929
  0
VERTEX
  8
0
 10
4.60823883
 20
3.29809648
  0
VERTEX
  8
0
 10
4.59462830
 20
3.34028710
  0
VERTEX
  8
0
 10
4.58198476
 20
3.38277639
  0
VERTEX
  8
0
 10
4.57027954
 20
3.42551958
  0
VERTEX
  8
0
 10
4.55948395
 20
3.46847192
  0
VERTEX
  8
0
 10
4.54956930
 20
3.51158864
  0
VERTEX
  8
0
 10
4.54050690
 20
3.55482500
  0
VERTEX
  8
0
 10
4.58194787
 20
3.57239444
  0
VERTEX
  8
0
 10
4.60306549
 20
3.58002031
  0
VERTEX
  8
0
 10
4.61388879
 20
3.58291690
  0
VERTEX
  8
0
 10
4.62495134
 20
3.58496389
  0
VERTEX
  8
0
 10
4.71168311
 20
3.59629201
  0
VERTEX
  8
0
 10
4.79859717
 20
3.60652639
  0
VERTEX
  8
0
 10
4.84214698
 20
3.61054983
  0
VERTEX
  8
0
 10
4.88577165
 20
3.61347951
  0
VERTEX
  8
0
 10
4.92948096
 20
3.61504201
  0
VERTEX
  8
0
 10
4.97328467
 20
3.61496389
  0
VERTEX
  8
0
 10
5.08336714
 20
3.61537404
  0
VERTEX
  8
0
 10
5.13853370
 20
3.61461965
  0
VERTEX
  8
0
 10
5.19363190
 20
3.61251597
  0
VERTEX
  8
0
 10
5.24854780
 20
3.60853078
  0
VERTEX
  8
0
 10
5.30316749
 20
3.60213186
  0
VERTEX
  8
0
 10
5.33033064
 20
3.59786092
  0
VERTEX
  8
0
 10
5.35737701
 20
3.59278697
  0
VERTEX
  8
0
 10
5.38429237
 20
3.58684347
  0
VERTEX
  8
0
 10
5.41106245
 20
3.57996389
  0
VERTEX
  8
0
 10
5.44082455
 20
3.56826494
  0
VERTEX
  8
0
 10
5.47113841
 20
3.55822127
  0
VERTEX
  8
0
 10
5.50182661
 20
3.54928762
  0
VERTEX
  8
0
 10
5.53271176
 20
3.54091875
  0
VERTEX
  8
0
 10
5.59436323
 20
3.52369436
  0
VERTEX
  8
0
 10
5.62477475
 20
3.51374834
  0
VERTEX
  8
0
 10
5.65467356
 20
3.50218611
  0
VERTEX
  8
0
 10
5.71267487
 20
3.47613576
  0
VERTEX
  8
0
 10
5.74135569
 20
3.46228377
  0
VERTEX
  8
0
 10
5.76962148
 20
3.44763750
  0
VERTEX
  8
0
 10
5.79732086
 20
3.43201467
  0
VERTEX
  8
0
 10
5.82430247
 20
3.41523298
  0
VERTEX
  8
0
 10
5.85041494
 20
3.39711015
  0
VERTEX
  8
0
 10
5.87550690
 20
3.37746389
  0
VERTEX
  8
0
 10
5.89524024
 20
3.36096866
  0
VERTEX
  8
0
 10
5.91415490
 20
3.34360104
  0
VERTEX
  8
0
 10
5.95031592
 20
3.30708194
  0
VERTEX
  8
0
 10
5.98556549
 20
3.26957326
  0
VERTEX
  8
0
 10
6.02147912
 20
3.23274167
  0
VERTEX
  8
0
 10
6.03495331
 20
3.21421316
  0
VERTEX
  8
0
 10
6.04767758
 20
3.19521020
  0
VERTEX
  8
0
 10
6.05966699
 20
3.17576291
  0
VERTEX
  8
0
 10
6.07093658
 20
3.15590139
  0
VERTEX
  8
0
 10
6.08150143
 20
3.13565575
  0
VERTEX
  8
0
 10
6.09137658
 20
3.11505612
  0
VERTEX
  8
0
 10
6.10911801
 20
3.07291528
  0
VERTEX
  8
0
 10
6.12428131
 20
3.02971975
  0
VERTEX
  8
0
 10
6.13698693
 20
2.98571042
  0
VERTEX
  8
0
 10
6.14735531
 20
2.94112817
  0
VERTEX
  8
0
 10
6.15550690
 20
2.89621389
  0
VERTEX
  8
0
 10
6.16132281
 20
2.86271584
  0
VERTEX
  8
0
 10
6.16629562
 20
2.82903224
  0
VERTEX
  8
0
 10
6.16744701
 20
2.82646684
  0
VERTEX
  8
0
 10
6.16979226
 20
2.82495843
  0
VERTEX
  8
0
 10
6.17706551
 20
2.82382675
  0
VERTEX
  8
0
 10
6.18611775
 20
2.82306545
  0
VERTEX
  8
0
 10
6.19068673
 20
2.82202002
  0
VERTEX
  8
0
 10
6.19495134
 20
2.82010278
  0
SEQEND
  0
POLYLINE
  8
Default_Layer
 66
   1
 39
0.000000
 70
    1
  0
VERTEX
  8
0
 10
6.74175690
 20
2.04617115
  0
VERTEX
  8
0
 10
6.88079553
 20
2.08668331
  0
VERTEX
  8
0
 10
6.95074860
 20
2.10568287
  0
VERTEX
  8
0
 10
7.02104509
 20
2.12328921
  0
VERTEX
  8
0
 10
7.09172570
 20
2.13908565
  0
VERTEX
  8
0
 10
7.16283112
 20
2.15265553
  0
VERTEX
  8
0
 10
7.23440203
 20
2.16358218
  0
VERTEX
  8
0
 10
7.27037476
 20
2.16792408
  0
VERTEX
  8
0
 10
7.30647912
 20
2.17144893
  0
VERTEX
  8
0
 10
7.36183285
 20
2.17134042
  0
VERTEX
  8
0
 10
7.41722565
 20
2.17183087
  0
VERTEX
  8
0
 10
7.47259240
 20
2.17164424
  0
VERTEX
  8
0
 10
7.52786801
 20
2.16950449
  0
VERTEX
  8
0
 10
7.56159495
 20
2.16229013
  0
VERTEX
  8
0
 10
7.59573042
 20
2.15439381
  0
VERTEX
  8
0
 10
7.62970639
 20
2.14518564
  0
VERTEX
  8
0
 10
7.66295481
 20
2.13403574
  0
VERTEX
  8
0
 10
7.67912869
 20
2.12753580
  0
VERTEX
  8
0
 10
7.69490767
 20
2.12031422
  0
VERTEX
  8
0
 10
7.71022074
 20
2.11229227
  0
VERTEX
  8
0
 10
7.72499691
 20
2.10339120
  0
VERTEX
  8
0
 10
7.73916517
 20
2.09353230
  0
VERTEX
  8
0
 10
7.75265452
 20
2.08263681
  0
VERTEX
  8
0
 10
7.76539395
 20
2.07062601
  0
VERTEX
  8
0
 10
7.77731245
 20
2.05742115
  0
VERTEX
  8
0
 10
7.78991933
 20
2.04159352
  0
VERTEX
  8
0
 10
7.80191749
 20
2.02496673
  0
VERTEX
  8
0
 10
7.81285444
 20
2.00757496
  0
VERTEX
  8
0
 10
7.82227773
 20
1.98945240
  0
VERTEX
  8
0
 10
7.82973487
 20
1.97063323
  0
VERTEX
  8
0
 10
7.83477339
 20
1.95115162
  0
VERTEX
  8
0
 10
7.83624427
 20
1.94117309
  0
VERTEX
  8
0
 10
7.83694082
 20
1.93104176
  0
VERTEX
  8
0
 10
7.83680647
 20
1.92076191
  0
VERTEX
  8
0
 10
7.83578467
 20
1.91033782
  0
VERTEX
  8
0
 10
7.82909546
 20
1.91720502
  0
VERTEX
  8
0
 10
7.82303267
 20
1.92448767
  0
VERTEX
  8
0
 10
7.81244049
 20
1.94007306
  0
VERTEX
  8
0
 10
7.80331641
 20
1.95664153
  0
VERTEX
  8
0
 10
7.79496870
 20
1.97374060
  0
VERTEX
  8
0
 10
7.78670563
 20
1.99091779
  0
VERTEX
  8
0
 10
7.77783546
 20
2.00772063
  0
VERTEX
  8
0
 10
7.76766646
 20
2.02369665
  0
VERTEX
  8
0
 10
7.75550690
 20
2.03839337
  0
VERTEX
  8
0
 10
7.74085141
 20
2.05444833
  0
VERTEX
  8
0
 10
7.72456506
 20
2.06831742
  0
VERTEX
  8
0
 10
7.70691803
 20
2.08027570
  0
VERTEX
  8
0
 10
7.68818051
 20
2.09059824
  0
VERTEX
  8
0
 10
7.66862267
 20
2.09956010
  0
VERTEX
  8
0
 10
7.64851471
 20
2.10743634
  0
VERTEX
  8
0
 10
7.60772912
 20
2.12103226
  0
VERTEX
  8
0
 10
7.58860284
 20
2.12714860
  0
VERTEX
  8
0
 10
7.56930871
 20
2.13217647
  0
VERTEX
  8
0
 10
7.54986443
 20
2.13621232
  0
VERTEX
  8
0
 10
7.53028771
 20
2.13935258
  0
VERTEX
  8
0
 10
7.49080773
 20
2.14333207
  0
VERTEX
  8
0
 10
7.45101037
 20
2.14488643
  0
VERTEX
  8
0
 10
7.41103722
 20
2.14478715
  0
VERTEX
  8
0
 10
7.37102990
 20
2.14380570
  0
VERTEX
  8
0
 10
7.33113000
 20
2.14271358
  0
VERTEX
  8
0
 10
7.29147912
 20
2.14228226
  0
VERTEX
  8
0
 10
7.23921102
 20
2.13594956
  0
VERTEX
  8
0
 10
7.18724057
 20
2.12816361
  0
VERTEX
  8
0
 10
7.13555291
 20
2.11902390
  0
VERTEX
  8
0
 10
7.08413320
 20
2.10862992
  0
VERTEX
  8
0
 10
7.03296658
 20
2.09708115
  0
VERTEX
  8
0
 10
6.98203820
 20
2.08447709
  0
VERTEX
  8
0
 10
6.93133321
 20
2.07091721
  0
VERTEX
  8
0
 10
6.88083676
 20
2.05650101
  0
VERTEX
  8
0
 10
6.78041005
 20
2.02549760
  0
VERTEX
  8
0
 10
6.68063928
 20
1.99226273
  0
VERTEX
  8
0
 10
6.58140561
 20
1.95759232
  0
VERTEX
  8
0
 10
6.48259023
 20
1.92228226
  0
VERTEX
  8
0
 10
6.36135542
 20
1.87606482
  0
VERTEX
  8
0
 10
6.24083676
 20
1.82795935
  0
VERTEX
  8
0
 10
6.12112539
 20
1.77784867
  0
VERTEX
  8
0
 10
6.00231245
 20
1.72561560
  0
VERTEX
  8
0
 10
5.96467845
 20
1.70455304
  0
VERTEX
  8
0
 10
5.92637061
 20
1.68487558
  0
VERTEX
  8
0
 10
5.88756148
 20
1.66622351
  0
VERTEX
  8
0
 10
5.84842356
 20
1.64823712
  0
VERTEX
  8
0
 10
5.76985152
 20
1.61282263
  0
VERTEX
  8
0
 10
5.73076243
 20
1.59467511
  0
VERTEX
  8
0
 10
5.69203467
 20
1.57575449
  0
VERTEX
  8
0
 10
5.65207374
 20
1.55676577
  0
VERTEX
  8
0
 10
5.61213884
 20
1.53738643
  0
VERTEX
  8
0
 10
5.59186378
 20
1.52856753
  0
VERTEX
  8
0
 10
5.57121436
 20
1.52087167
  0
VERTEX
  8
0
 10
5.55006365
 20
1.51470577
  0
VERTEX
  8
0
 10
5.52828467
 20
1.51047671
  0
VERTEX
  8
0
 10
5.53275455
 20
1.51837771
  0
VERTEX
  8
0
 10
5.53789134
 20
1.52551414
  0
VERTEX
  8
0
 10
5.54362952
 20
1.53195803
  0
VERTEX
  8
0
 10
5.54990360
 20
1.53778140
  0
VERTEX
  8
0
 10
5.56379737
 20
1.54785464
  0
VERTEX
  8
0
 10
5.57904856
 20
1.55631004
  0
VERTEX
  8
0
 10
5.59513309
 20
1.56372378
  0
VERTEX
  8
0
 10
5.61152686
 20
1.57067202
  0
VERTEX
  8
0
 10
5.62770579
 20
1.57773094
  0
VERTEX
  8
0
 10
5.64314579
 20
1.58547671
  0
VERTEX
  8
0
 10
5.68051124
 20
1.60336001
  0
VERTEX
  8
0
 10
5.71826731
 20
1.62054832
  0
VERTEX
  8
0
 10
5.79390967
 20
1.65469546
  0
VERTEX
  8
0
 10
5.83127513
 20
1.67258201
  0
VERTEX
  8
0
 10
5.86798954
 20
1.69162905
  0
VERTEX
  8
0
 10
5.90379249
 20
1.71230044
  0
VERTEX
  8
0
 10
5.93842356
 20
1.73506004
  0
VERTEX
  8
0
 10
6.01213369
 20
1.76404279
  0
VERTEX
  8
0
 10
6.08547434
 20
1.79408348
  0
VERTEX
  8
0
 10
6.23180898
 20
1.85526837
  0
VERTEX
  8
0
 10
6.30518382
 20
1.88537742
  0
VERTEX
  8
0
 10
6.37895091
 20
1.91447410
  0
VERTEX
  8
0
 10
6.45330068
 20
1.94204084
  0
VERTEX
  8
0
 10
6.52842356
 20
1.96756004
  0
VERTEX
  8
0
 10
6.55534132
 20
1.97672057
  0
VERTEX
  8
0
 10
6.58200279
 20
1.98659764
  0
VERTEX
  8
0
 10
6.63492595
 20
2.00744882
  0
VERTEX
  8
0
 10
6.68793125
 20
2.02800839
  0
VERTEX
  8
0
 10
6.71469539
 20
2.03752094
  0
VERTEX
  8
0
 10
6.74175690
 20
2.04617115
  0
SEQEND
  0
ENDSEC
  0
EOF
