  0
SECTION
  2
HEADER
  9
$ACADVER
  1
AC1009
  9
$DWGCODEPAGE
  3
ansi_1252
  9
$INSBASE
 10
0.0
 20
0.0
 30
0.0
  9
$EXTMIN
 10
7.918455914379456
 20
0.0
 30
0.0
  9
$EXTMAX
 10
104.8427399581657
 20
148.1989715874925
 30
0.0
  9
$LIMMIN
 10
0.0
 20
0.0
  9
$LIMMAX
 10
12.0
 20
9.0
  9
$ORTHOMODE
 70
     0
  9
$REGENMODE
 70
     1
  9
$FILLMODE
 70
     1
  9
$QTEXTMODE
 70
     0
  9
$MIRRTEXT
 70
     1
  9
$DRAGMODE
 70
     2
  9
$LTSCALE
 40
1.0
  9
$OSMODE
 70
    37
  9
$ATTMODE
 70
     1
  9
$TEXTSIZE
 40
0.2
  9
$TRACEWID
 40
0.05
  9
$TEXTSTYLE
  7
STANDARD
  9
$CLAYER
  8
0
  9
$CELTYPE
  6
BYBLOCK
  9
$CECOLOR
 62
     2
  9
$DIMSCALE
 40
1.0
  9
$DIMASZ
 40
0.18
  9
$DIMEXO
 40
0.0625
  9
$DIMDLI
 40
0.38
  9
$DIMRND
 40
0.0
  9
$DIMDLE
 40
0.0
  9
$DIMEXE
 40
0.18
  9
$DIMTP
 40
0.0
  9
$DIMTM
 40
0.0
  9
$DIMTXT
 40
0.18
  9
$DIMCEN
 40
0.09
  9
$DIMTSZ
 40
0.0
  9
$DIMTOL
 70
     0
  9
$DIMLIM
 70
     0
  9
$DIMTIH
 70
     1
  9
$DIMTOH
 70
     1
  9
$DIMSE1
 70
     0
  9
$DIMSE2
 70
     0
  9
$DIMTAD
 70
     0
  9
$DIMZIN
 70
     0
  9
$DIMBLK
  1

  9
$DIMASO
 70
     1
  9
$DIMSHO
 70
     1
  9
$DIMPOST
  1

  9
$DIMAPOST
  1

  9
$DIMALT
 70
     0
  9
$DIMALTD
 70
     2
  9
$DIMALTF
 40
25.4
  9
$DIMLFAC
 40
1.0
  9
$DIMTOFL
 70
     0
  9
$DIMTVP
 40
0.0
  9
$DIMTIX
 70
     0
  9
$DIMSOXD
 70
     0
  9
$DIMSAH
 70
     0
  9
$DIMBLK1
  1

  9
$DIMBLK2
  1

  9
$DIMSTYLE
  2
STANDARD
  9
$DIMCLRD
 70
     0
  9
$DIMCLRE
 70
     0
  9
$DIMCLRT
 70
     0
  9
$DIMTFAC
 40
1.0
  9
$DIMGAP
 40
0.09
  9
$LUNITS
 70
     2
  9
$LUPREC
 70
     4
  9
$SKETCHINC
 40
0.1
  9
$FILLETRAD
 40
0.5
  9
$AUNITS
 70
     0
  9
$AUPREC
 70
     0
  9
$MENU
  1
.
  9
$ELEVATION
 40
0.0
  9
$PELEVATION
 40
0.0
  9
$THICKNESS
 40
0.0
  9
$LIMCHECK
 70
     0
  9
$CHAMFERA
 40
0.5
  9
$CHAMFERB
 40
0.5
  9
$SKPOLY
 70
     0
  9
$TDCREATE
 40
2453353.550459155
  9
$TDUPDATE
 40
9821347.902337778
  9
$TDINDWG
 40
9791572.06217926
  9
$TDUSRTIMER
 40
9791572.06217926
  9
$USRTIMER
 70
     1
  9
$ANGBASE
 50
0.0
  9
$ANGDIR
 70
     0
  9
$PDMODE
 70
     0
  9
$PDSIZE
 40
0.0
  9
$PLINEWID
 40
0.0
  9
$COORDS
 70
     1
  9
$SPLFRAME
 70
     0
  9
$SPLINETYPE
 70
     6
  9
$SPLINESEGS
 70
     8
  9
$ATTDIA
 70
     0
  9
$ATTREQ
 70
     1
  9
$HANDLING
 70
     1
  9
$HANDSEED
  5
5FD
  9
$SURFTAB1
 70
     6
  9
$SURFTAB2
 70
     6
  9
$SURFTYPE
 70
     6
  9
$SURFU
 70
     6
  9
$SURFV
 70
     6
  9
$UCSNAME
  2

  9
$UCSORG
 10
0.0
 20
0.0
 30
0.0
  9
$UCSXDIR
 10
1.0
 20
0.0
 30
0.0
  9
$UCSYDIR
 10
0.0
 20
1.0
 30
0.0
  9
$PUCSNAME
  2

  9
$PUCSORG
 10
0.0
 20
0.0
 30
0.0
  9
$PUCSXDIR
 10
1.0
 20
0.0
 30
0.0
  9
$PUCSYDIR
 10
0.0
 20
1.0
 30
0.0
  9
$USERI1
 70
     0
  9
$USERI2
 70
     0
  9
$USERI3
 70
     0
  9
$USERI4
 70
     0
  9
$USERI5
 70
     0
  9
$USERR1
 40
0.0
  9
$USERR2
 40
0.0
  9
$USERR3
 40
0.0
  9
$USERR4
 40
0.0
  9
$USERR5
 40
0.0
  9
$WORLDVIEW
 70
     1
  9
$SHADEDGE
 70
     3
  9
$SHADEDIF
 70
    70
  9
$TILEMODE
 70
     1
  9
$MAXACTVP
 70
    64
  9
$PLIMCHECK
 70
     0
  9
$PEXTMIN
 10
0.0
 20
0.0
 30
0.0
  9
$PEXTMAX
 10
0.0
 20
0.0
 30
0.0
  9
$PLIMMIN
 10
0.0
 20
0.0
  9
$PLIMMAX
 10
0.0
 20
0.0
  9
$UNITMODE
 70
     0
  9
$VISRETAIN
 70
     1
  9
$PLINEGEN
 70
     0
  9
$PSLTSCALE
 70
     1
  0
ENDSEC
  0
SECTION
  2
TABLES
  0
TABLE
  2
VPORT
 70
     1
  0
VPORT
  2
*ACTIVE
 70
     0
 10
0.0
 20
0.0
 11
1.0
 21
1.0
 12
45.04394825645597
 22
76.80884679137924
 13
0.0
 23
0.0
 14
0.5
 24
0.5
 15
0.5
 25
0.5
 16
0.0
 26
0.0
 36
1.0
 17
0.0
 27
0.0
 37
0.0
 40
157.8887891365999
 41
1.972972972850329
 42
50.0
 43
0.0
 44
0.0
 50
0.0
 51
0.0
 71
    16
 72
   100
 73
     1
 74
     3
 75
     0
 76
     0
 77
     0
 78
     0
  0
ENDTAB
  0
TABLE
  2
LTYPE
 70
     1
  0
LTYPE
  2
CONTINUOUS
 70
     0
  3
Solid line
 72
    65
 73
     0
 40
0.0
  0
ENDTAB
  0
TABLE
  2
LAYER
 70
     2
  0
LAYER
  2
0
 70
     0
 62
     7
  6
CONTINUOUS
  0
LAYER
  2
LAYER_1
 70
     0
 62
     7
  6
CONTINUOUS
  0
ENDTAB
  0
TABLE
  2
STYLE
 70
     1
  0
STYLE
  2
STANDARD
 70
     0
 40
0.0
 41
1.0
 50
0.0
 71
     0
 42
0.2
  3
txt
  4

  0
ENDTAB
  0
TABLE
  2
VIEW
 70
     0
  0
ENDTAB
  0
TABLE
  2
UCS
 70
     0
  0
ENDTAB
  0
TABLE
  2
APPID
 70
     1
  0
APPID
  2
ACAD
 70
     0
  0
ENDTAB
  0
TABLE
  2
DIMSTYLE
 70
     1
  0
DIMSTYLE
  2
STANDARD
 70
     0
  3

  4

  5

  6

  7

 40
1.0
 41
0.18
 42
0.0625
 43
0.38
 44
0.18
 45
0.0
 46
0.0
 47
0.0
 48
0.0
140
0.18
141
0.09
142
0.0
143
25.4
144
1.0
145
0.0
146
1.0
147
0.09
 71
     0
 72
     0
 73
     1
 74
     1
 75
     0
 76
     0
 77
     0
 78
     0
170
     0
171
     2
172
     0
173
     0
174
     0
175
     0
176
     0
177
     0
178
     0
  0
ENDTAB
  0
ENDSEC
  0
SECTION
  2
BLOCKS
  0
BLOCK
  8
0
  2
$MODEL_SPACE
 70
     0
 10
0.0
 20
0.0
 30
0.0
  3
$MODEL_SPACE
  1

  0
ENDBLK
  5
21
  8
0
  0
BLOCK
 67
     1
  8
0
  2
$PAPER_SPACE
 70
     0
 10
0.0
 20
0.0
 30
0.0
  3
$PAPER_SPACE
  1

  0
ENDBLK
  5
76
 67
     1
  8
0
  0
ENDSEC
  0
SECTION
  2
ENTITIES
  0
LINE
  5
28
  8
LAYER_1
 62
     3
 10
7.918455914379456
 20
136.5401311499841
 30
0.0
 11
7.99371745356813
 21
137.7980740192805
 31
0.0
  0
LINE
  5
29
  8
LAYER_1
 62
     3
 10
7.99371745356813
 20
137.7980740192805
 30
0.0
 11
8.313181
 21
138.184458
 31
0.0
  0
LINE
  5
2A
  8
LAYER_1
 62
     3
 10
8.313181
 20
138.184458
 30
0.0
 11
8.668659
 21
138.053224
 31
0.0
  0
LINE
  5
2B
  8
LAYER_1
 62
     3
 10
8.668659
 20
138.053224
 30
0.0
 11
9.584296999999999
 21
136.915639
 31
0.0
  0
LINE
  5
2C
  8
LAYER_1
 62
     3
 10
9.584296999999999
 20
136.915639
 30
0.0
 11
10.6856
 21
134.753939
 31
0.0
  0
LINE
  5
2D
  8
LAYER_1
 62
     3
 10
10.6856
 20
134.753939
 30
0.0
 11
11.867878
 21
131.739374
 31
0.0
  0
LINE
  5
2E
  8
LAYER_1
 62
     3
 10
11.867878
 20
131.739374
 30
0.0
 11
13.612538
 21
126.10471
 31
0.0
  0
LINE
  5
2F
  8
LAYER_1
 62
     3
 10
13.612538
 20
126.10471
 30
0.0
 11
15.702194
 21
118.498717
 31
0.0
  0
LINE
  5
30
  8
LAYER_1
 62
     3
 10
15.702194
 20
118.498717
 30
0.0
 11
17.598512
 21
110.965987
 31
0.0
  0
LINE
  5
31
  8
LAYER_1
 62
     3
 10
17.598512
 20
110.965987
 30
0.0
 11
18.763157
 21
105.551111
 31
0.0
  0
LINE
  5
32
  8
LAYER_1
 62
     3
 10
18.763157
 20
105.551111
 30
0.0
 11
19.475793
 21
101.882222
 31
0.0
  0
LINE
  5
33
  8
LAYER_1
 62
     3
 10
19.475793
 20
101.882222
 30
0.0
 11
20.699674
 21
95.68598400000001
 31
0.0
  0
LINE
  5
34
  8
LAYER_1
 62
     3
 10
20.699674
 20
95.68598400000001
 30
0.0
 11
21.959125
 21
88.241939
 31
0.0
  0
LINE
  5
35
  8
LAYER_1
 62
     3
 10
21.959125
 20
88.241939
 30
0.0
 11
23.105045
 21
80.491924
 31
0.0
  0
LINE
  5
36
  8
LAYER_1
 62
     3
 10
23.105045
 20
80.491924
 30
0.0
 11
23.988332
 21
73.37777800000001
 31
0.0
  0
LINE
  5
37
  8
LAYER_1
 62
     3
 10
23.988332
 20
73.37777800000001
 30
0.0
 11
24.57092
 21
68.438889
 31
0.0
  0
LINE
  5
38
  8
LAYER_1
 62
     3
 10
24.57092
 20
68.438889
 30
0.0
 11
24.994398
 21
64.107624
 31
0.0
  0
LINE
  5
39
  8
LAYER_1
 62
     3
 10
24.994398
 20
64.107624
 30
0.0
 11
25.443252
 21
56.773795
 31
0.0
  0
LINE
  5
3A
  8
LAYER_1
 62
     3
 10
25.443252
 20
56.773795
 30
0.0
 11
26.111806
 21
38.942312
 31
0.0
  0
LINE
  5
3B
  8
LAYER_1
 62
     3
 10
26.111806
 20
38.942312
 30
0.0
 11
26.570443
 21
22.371532
 31
0.0
  0
LINE
  5
3C
  8
LAYER_1
 62
     3
 10
26.570443
 20
22.371532
 30
0.0
 11
27.251368
 21
7.761111
 31
0.0
  0
LINE
  5
3D
  8
LAYER_1
 62
     3
 10
27.251368
 20
7.761111
 30
0.0
 11
27.522344
 21
1.481667
 31
0.0
  0
LINE
  5
3E
  8
LAYER_1
 62
     3
 10
27.522344
 20
1.481667
 30
0.0
 11
27.526442
 21
0.0
 31
0.0
  0
LINE
  5
3F
  8
LAYER_1
 62
     3
 10
27.526442
 20
0.0
 30
0.0
 11
24.744744
 21
0.0
 31
0.0
  0
LINE
  5
40
  8
LAYER_1
 62
     3
 10
24.744744
 20
0.0
 30
0.0
 11
21.963049
 21
0.0
 31
0.0
  0
LINE
  5
41
  8
LAYER_1
 62
     3
 10
21.963049
 20
0.0
 30
0.0
 11
21.772803
 21
2.046111
 31
0.0
  0
LINE
  5
42
  8
LAYER_1
 62
     3
 10
21.772803
 20
2.046111
 30
0.0
 11
20.469636
 21
23.142222
 31
0.0
  0
LINE
  5
43
  8
LAYER_1
 62
     3
 10
20.469636
 20
23.142222
 30
0.0
 11
19.918306
 21
41.91
 31
0.0
  0
LINE
  5
44
  8
LAYER_1
 62
     3
 10
19.918306
 20
41.91
 30
0.0
 11
19.544646
 21
54.649372
 31
0.0
  0
LINE
  5
45
  8
LAYER_1
 62
     3
 10
19.544646
 20
54.649372
 30
0.0
 11
18.959117
 21
65.279415
 31
0.0
  0
LINE
  5
46
  8
LAYER_1
 62
     3
 10
18.959117
 20
65.279415
 30
0.0
 11
18.109312
 21
74.52586100000001
 31
0.0
  0
LINE
  5
47
  8
LAYER_1
 62
     3
 10
18.109312
 20
74.52586100000001
 30
0.0
 11
16.942823
 21
83.11444400000001
 31
0.0
  0
LINE
  5
48
  8
LAYER_1
 62
     3
 10
16.942823
 20
83.11444400000001
 30
0.0
 11
15.801234
 21
90.45222200000001
 31
0.0
  0
LINE
  5
49
  8
LAYER_1
 62
     3
 10
15.801234
 20
90.45222200000001
 30
0.0
 11
13.791318
 21
102.241422
 31
0.0
  0
LINE
  5
4A
  8
LAYER_1
 62
     3
 10
13.791318
 20
102.241422
 30
0.0
 11
11.303154
 21
115.57
 31
0.0
  0
LINE
  5
4B
  8
LAYER_1
 62
     3
 10
11.303154
 20
115.57
 30
0.0
 11
8.739374
 21
128.963721
 31
0.0
  0
LINE
  5
4C
  8
LAYER_1
 62
     3
 10
8.739374
 20
128.963721
 30
0.0
 11
7.984624
 21
133.773333
 31
0.0
  0
LINE
  5
4D
  8
LAYER_1
 62
     3
 10
7.984624
 20
133.773333
 30
0.0
 11
7.918455914379456
 21
136.5401311499841
 31
0.0
  0
LINE
  5
54
  8
LAYER_1
 62
     3
 10
29.832582
 20
7.267222
 30
0.0
 11
30.475613
 21
18.583473
 31
0.0
  0
LINE
  5
55
  8
LAYER_1
 62
     3
 10
30.475613
 20
18.583473
 30
0.0
 11
31.347723
 21
38.241111
 31
0.0
  0
LINE
  5
56
  8
LAYER_1
 62
     3
 10
31.347723
 20
38.241111
 30
0.0
 11
32.477898
 21
59.187704
 31
0.0
  0
LINE
  5
57
  8
LAYER_1
 62
     3
 10
32.477898
 20
59.187704
 30
0.0
 11
33.186013
 21
68.14812000000001
 31
0.0
  0
LINE
  5
58
  8
LAYER_1
 62
     3
 10
33.186013
 20
68.14812000000001
 30
0.0
 11
35.30636663646171
 21
83.44744605440808
 31
0.0
  0
LINE
  5
62
  8
LAYER_1
 62
     3
 10
38.445799591215
 20
82.3094637839509
 30
0.0
 11
37.96983
 21
78.540452
 31
0.0
  0
LINE
  5
63
  8
LAYER_1
 62
     3
 10
37.96983
 20
78.540452
 30
0.0
 11
36.96996
 21
68.438889
 31
0.0
  0
LINE
  5
64
  8
LAYER_1
 62
     3
 10
36.96996
 20
68.438889
 30
0.0
 11
35.967171
 21
55.736955
 31
0.0
  0
LINE
  5
65
  8
LAYER_1
 62
     3
 10
35.967171
 20
55.736955
 30
0.0
 11
35.237011
 21
43.569642
 31
0.0
  0
LINE
  5
66
  8
LAYER_1
 62
     3
 10
35.237011
 20
43.569642
 30
0.0
 11
34.70322
 21
30.408798
 31
0.0
  0
LINE
  5
67
  8
LAYER_1
 62
     3
 10
34.70322
 20
30.408798
 30
0.0
 11
34.289537
 21
14.726277
 31
0.0
  0
LINE
  5
68
  8
LAYER_1
 62
     3
 10
34.289537
 20
14.726277
 30
0.0
 11
33.840536
 21
1.109054
 31
0.0
  0
LINE
  5
69
  8
LAYER_1
 62
     3
 10
33.840536
 20
1.109054
 30
0.0
 11
33.66319
 21
0.0
 31
0.0
  0
LINE
  5
6A
  8
LAYER_1
 62
     3
 10
33.66319
 20
0.0
 30
0.0
 11
31.511099
 21
0.0
 31
0.0
  0
LINE
  5
51A
  8
LAYER_1
 62
     3
 10
31.511099
 20
0.0
 30
0.0
 11
29.359008
 21
0.0
 31
0.0
  0
LINE
  5
51B
  8
LAYER_1
 62
     3
 10
29.359008
 20
0.0
 30
0.0
 11
29.832582
 21
7.267222
 31
0.0
  0
LINE
  5
6D
  8
LAYER_1
 62
     3
 10
29.832582
 20
7.267222
 30
0.0
 11
29.832582
 21
7.267222
 31
0.0
  0
LINE
  5
6E
  8
LAYER_1
 62
     3
 10
37.121998
 20
0.162659
 30
0.0
 11
39.536322
 21
8.840992
 31
0.0
  0
LINE
  5
6F
  8
LAYER_1
 62
     3
 10
39.536322
 20
8.840992
 30
0.0
 11
44.608561
 21
26.952222
 31
0.0
  0
LINE
  5
70
  8
LAYER_1
 62
     3
 10
44.608561
 20
26.952222
 30
0.0
 11
49.213784
 21
43.603333
 31
0.0
  0
LINE
  5
71
  8
LAYER_1
 62
     3
 10
49.213784
 20
43.603333
 30
0.0
 11
51.802795
 21
53.057778
 31
0.0
  0
LINE
  5
72
  8
LAYER_1
 62
     3
 10
51.802795
 20
53.057778
 30
0.0
 11
53.36181
 21
58.702222
 31
0.0
  0
LINE
  5
51C
  8
LAYER_1
 62
     3
 10
53.36181
 20
58.702222
 30
0.0
 11
58.87398539409296
 21
80.60408100592507
 31
0.0
  0
LINE
  5
51D
  8
LAYER_1
 62
     3
 10
58.910003
 20
80.01000000000001
 30
0.0
 11
59.057157
 21
80.399191
 31
0.0
  0
LINE
  5
7C
  8
LAYER_1
 62
     3
 10
61.50458
 20
71.216194
 30
0.0
 11
61.256463
 21
70.132222
 31
0.0
  0
LINE
  5
7D
  8
LAYER_1
 62
     3
 10
61.256463
 20
70.132222
 30
0.0
 11
60.018774
 21
63.257941
 31
0.0
  0
LINE
  5
7E
  8
LAYER_1
 62
     3
 10
60.018774
 20
63.257941
 30
0.0
 11
57.903703
 21
53.408917
 31
0.0
  0
LINE
  5
7F
  8
LAYER_1
 62
     3
 10
57.903703
 20
53.408917
 30
0.0
 11
55.287517
 21
42.255434
 31
0.0
  0
LINE
  5
80
  8
LAYER_1
 62
     3
 10
55.287517
 20
42.255434
 30
0.0
 11
52.546484
 21
31.467778
 31
0.0
  0
LINE
  5
81
  8
LAYER_1
 62
     3
 10
52.546484
 20
31.467778
 30
0.0
 11
50.857003
 21
25.117778
 31
0.0
  0
LINE
  5
82
  8
LAYER_1
 62
     3
 10
50.857003
 20
25.117778
 30
0.0
 11
49.731205
 21
20.884444
 31
0.0
  0
LINE
  5
83
  8
LAYER_1
 62
     3
 10
49.731205
 20
20.884444
 30
0.0
 11
48.013053
 21
14.844426
 31
0.0
  0
LINE
  5
84
  8
LAYER_1
 62
     3
 10
48.013053
 20
14.844426
 30
0.0
 11
46.822004
 21
10.243699
 31
0.0
  0
LINE
  5
85
  8
LAYER_1
 62
     3
 10
46.822004
 20
10.243699
 30
0.0
 11
47.836717
 21
12.332606
 31
0.0
  0
LINE
  5
86
  8
LAYER_1
 62
     3
 10
47.836717
 20
12.332606
 30
0.0
 11
50.771661
 21
18.714428
 31
0.0
  0
LINE
  5
87
  8
LAYER_1
 62
     3
 10
50.771661
 20
18.714428
 30
0.0
 11
55.019812
 21
27.127864
 31
0.0
  0
LINE
  5
88
  8
LAYER_1
 62
     3
 10
55.019812
 20
27.127864
 30
0.0
 11
59.443511
 21
35.385791
 31
0.0
  0
LINE
  5
89
  8
LAYER_1
 62
     3
 10
59.443511
 20
35.385791
 30
0.0
 11
62.905092
 21
41.301089
 31
0.0
  0
LINE
  5
8A
  8
LAYER_1
 62
     3
 10
62.905092
 20
41.301089
 30
0.0
 11
69.079932
 21
50.569585
 31
0.0
  0
LINE
  5
8B
  8
LAYER_1
 62
     3
 10
69.079932
 20
50.569585
 30
0.0
 11
74.26975400000001
 21
57.6766
 31
0.0
  0
LINE
  5
8C
  8
LAYER_1
 62
     3
 10
74.26975400000001
 20
57.6766
 30
0.0
 11
79.149528
 21
63.488061
 31
0.0
  0
LINE
  5
8D
  8
LAYER_1
 62
     3
 10
79.149528
 20
63.488061
 30
0.0
 11
84.394221
 21
68.869899
 31
0.0
  0
LINE
  5
8E
  8
LAYER_1
 62
     3
 10
84.394221
 20
68.869899
 30
0.0
 11
87.169864
 21
71.44463500000001
 31
0.0
  0
LINE
  5
8F
  8
LAYER_1
 62
     3
 10
87.169864
 20
71.44463500000001
 30
0.0
 11
90.484489
 21
74.20902700000001
 31
0.0
  0
LINE
  5
90
  8
LAYER_1
 62
     3
 10
90.484489
 20
74.20902700000001
 30
0.0
 11
93.710077
 21
76.390627
 31
0.0
  0
LINE
  5
91
  8
LAYER_1
 62
     3
 10
93.710077
 20
76.390627
 30
0.0
 11
96.91475
 21
78.159666
 31
0.0
  0
LINE
  5
520
  8
LAYER_1
 62
     3
 10
96.91475
 20
78.159666
 30
0.0
 11
98.24715490953483
 21
78.77851102828856
 31
0.0
  0
LINE
  5
99
  8
LAYER_1
 62
     3
 10
98.24715490953483
 20
78.77851102828856
 30
0.0
 11
99.887907
 21
79.394521
 31
0.0
  0
LINE
  5
9A
  8
LAYER_1
 62
     3
 10
99.887907
 20
79.394521
 30
0.0
 11
100.9363727735244
 21
79.73989609568092
 31
0.0
  0
LINE
  5
9B
  8
LAYER_1
 62
     3
 10
100.9363727735244
 20
79.73989609568092
 30
0.0
 11
102.072216988832
 21
80.03226917373992
 31
0.0
  0
LINE
  5
9C
  8
LAYER_1
 62
     3
 10
102.072216988832
 20
80.03226917373992
 30
0.0
 11
104.3603174411801
 21
80.44701510313155
 31
0.0
  0
LINE
  5
9D
  8
LAYER_1
 62
     3
 10
104.3603174411801
 20
80.44701510313155
 30
0.0
 11
103.132163375608
 21
79.3677281970227
 31
0.0
  0
LINE
  5
9E
  8
LAYER_1
 62
     3
 10
103.132163375608
 20
79.3677281970227
 30
0.0
 11
102.329230614521
 21
78.74720104529472
 31
0.0
  0
LINE
  5
9F
  8
LAYER_1
 62
     3
 10
102.329230614521
 20
78.74720104529472
 30
0.0
 11
101.5461715364351
 21
78.21157034476826
 31
0.0
  0
LINE
  5
A0
  8
LAYER_1
 62
     3
 10
101.5461715364351
 20
78.21157034476826
 30
0.0
 11
100.0405835590441
 21
77.16746495330568
 31
0.0
  0
LINE
  5
A5
  8
LAYER_1
 62
     3
 10
100.0405835590441
 20
77.16746495330568
 30
0.0
 11
97.73983200000001
 21
75.759466
 31
0.0
  0
LINE
  5
A6
  8
LAYER_1
 62
     3
 10
97.73983200000001
 20
75.759466
 30
0.0
 11
95.89499499999999
 21
74.51245
 31
0.0
  0
LINE
  5
A7
  8
LAYER_1
 62
     3
 10
95.89499499999999
 20
74.51245
 30
0.0
 11
93.769413
 21
72.861514
 31
0.0
  0
LINE
  5
A8
  8
LAYER_1
 62
     3
 10
93.769413
 20
72.861514
 30
0.0
 11
89.092975
 21
68.688836
 31
0.0
  0
LINE
  5
A9
  8
LAYER_1
 62
     3
 10
89.092975
 20
68.688836
 30
0.0
 11
84.544431
 21
63.923333
 31
0.0
  0
LINE
  5
AA
  8
LAYER_1
 62
     3
 10
84.544431
 20
63.923333
 30
0.0
 11
82.13351
 21
61.016576
 31
0.0
  0
LINE
  5
AB
  8
LAYER_1
 62
     3
 10
82.13351
 20
61.016576
 30
0.0
 11
79.67016099999999
 21
57.789267
 31
0.0
  0
LINE
  5
AC
  8
LAYER_1
 62
     3
 10
79.67016099999999
 20
57.789267
 30
0.0
 11
74.757817
 21
50.639526
 31
0.0
  0
LINE
  5
AD
  8
LAYER_1
 62
     3
 10
74.757817
 20
50.639526
 30
0.0
 11
70.150682
 21
43.007172
 31
0.0
  0
LINE
  5
AE
  8
LAYER_1
 62
     3
 10
70.150682
 20
43.007172
 30
0.0
 11
66.192042
 21
35.425264
 31
0.0
  0
LINE
  5
AF
  8
LAYER_1
 62
     3
 10
66.192042
 20
35.425264
 30
0.0
 11
62.336624
 21
27.516667
 31
0.0
  0
LINE
  5
B0
  8
LAYER_1
 62
     3
 10
62.336624
 20
27.516667
 30
0.0
 11
59.013087
 21
20.602222
 31
0.0
  0
LINE
  5
B1
  8
LAYER_1
 62
     3
 10
59.013087
 20
20.602222
 30
0.0
 11
57.427043
 21
17.074444
 31
0.0
  0
LINE
  5
B2
  8
LAYER_1
 62
     3
 10
57.427043
 20
17.074444
 30
0.0
 11
52.509301
 21
5.926667
 31
0.0
  0
LINE
  5
B3
  8
LAYER_1
 62
     3
 10
52.509301
 20
5.926667
 30
0.0
 11
51.379772
 21
3.245556
 31
0.0
  0
LINE
  5
B4
  8
LAYER_1
 62
     3
 10
51.379772
 20
3.245556
 30
0.0
 11
50.520081
 21
1.199444
 31
0.0
  0
LINE
  5
B5
  8
LAYER_1
 62
     3
 10
50.520081
 20
1.199444
 30
0.0
 11
50.042933
 21
0.0
 31
0.0
  0
LINE
  5
B6
  8
LAYER_1
 62
     3
 10
50.042933
 20
0.0
 30
0.0
 11
43.582466
 21
0.0
 31
0.0
  0
LINE
  5
B7
  8
LAYER_1
 62
     3
 10
43.582466
 20
0.0
 30
0.0
 11
37.121998
 21
0.162659
 31
0.0
  0
LINE
  5
B8
  8
LAYER_1
 62
     3
 10
37.121998
 20
0.162659
 30
0.0
 11
37.121998
 21
0.162659
 31
0.0
  0
LINE
  5
208
  8
LAYER_1
 62
     3
 10
36.24698929455159
 20
92.61507885338585
 30
0.0
 11
38.60749
 21
101.596604
 31
0.0
  0
LINE
  5
209
  8
LAYER_1
 62
     3
 10
38.60749
 20
101.596604
 30
0.0
 11
40.100258
 21
105.216916
 31
0.0
  0
LINE
  5
20A
  8
LAYER_1
 62
     3
 10
40.100258
 20
105.216916
 30
0.0
 11
40.874872
 21
106.52563
 31
0.0
  0
LINE
  5
20B
  8
LAYER_1
 62
     3
 10
40.874872
 20
106.52563
 30
0.0
 11
41.662006
 21
107.481477
 31
0.0
  0
LINE
  5
20C
  8
LAYER_1
 62
     3
 10
41.662006
 20
107.481477
 30
0.0
 11
42.736143
 21
108.348382
 31
0.0
  0
LINE
  5
20D
  8
LAYER_1
 62
     3
 10
42.736143
 20
108.348382
 30
0.0
 11
43.96350661228996
 21
109.1446788691265
 31
0.0
  0
LINE
  5
20E
  8
LAYER_1
 62
     3
 10
43.96350661228996
 20
109.1446788691265
 30
0.0
 11
46.93479208386332
 21
110.2854440810979
 31
0.0
  0
LINE
  5
34E
  8
LAYER_1
 62
     3
 10
81.58850177463118
 20
135.7524848925063
 30
0.0
 11
84.31925099999999
 21
138.381949
 31
0.0
  0
LINE
  5
34F
  8
LAYER_1
 62
     3
 10
84.31925099999999
 20
138.381949
 30
0.0
 11
87.932014
 21
141.703823
 31
0.0
  0
LINE
  5
350
  8
LAYER_1
 62
     3
 10
87.932014
 20
141.703823
 30
0.0
 11
91.073686
 21
143.992018
 31
0.0
  0
LINE
  5
351
  8
LAYER_1
 62
     3
 10
91.073686
 20
143.992018
 30
0.0
 11
92.326233
 21
144.662159
 31
0.0
  0
LINE
  5
352
  8
LAYER_1
 62
     3
 10
92.326233
 20
144.662159
 30
0.0
 11
93.291051
 21
144.970287
 31
0.0
  0
LINE
  5
353
  8
LAYER_1
 62
     3
 10
93.291051
 20
144.970287
 30
0.0
 11
93.911486
 21
144.881871
 31
0.0
  0
LINE
  5
354
  8
LAYER_1
 62
     3
 10
93.911486
 20
144.881871
 30
0.0
 11
94.130887
 21
144.362381
 31
0.0
  0
LINE
  5
355
  8
LAYER_1
 62
     3
 10
94.130887
 20
144.362381
 30
0.0
 11
93.242693
 21
142.750131
 31
0.0
  0
LINE
  5
356
  8
LAYER_1
 62
     3
 10
93.242693
 20
142.750131
 30
0.0
 11
91.107246
 21
139.485191
 31
0.0
  0
LINE
  5
357
  8
LAYER_1
 62
     3
 10
91.107246
 20
139.485191
 30
0.0
 11
85.408395
 21
131.049479
 31
0.0
  0
LINE
  5
358
  8
LAYER_1
 62
     3
 10
85.408395
 20
131.049479
 30
0.0
 11
82.55108799999999
 21
126.463206
 31
0.0
  0
LINE
  5
359
  8
LAYER_1
 62
     3
 10
82.55108799999999
 20
126.463206
 30
0.0
 11
81.94711100000001
 21
125.167275
 31
0.0
  0
LINE
  5
35A
  8
LAYER_1
 62
     3
 10
81.94711100000001
 20
125.167275
 30
0.0
 11
81.764437
 21
124.298102
 31
0.0
  0
LINE
  5
35B
  8
LAYER_1
 62
     3
 10
81.764437
 20
124.298102
 30
0.0
 11
81.97814372870911
 21
123.5591991755393
 31
0.0
  0
ARC
  5
508
  8
0
  6
BYBLOCK
 62
     2
 10
83.36039815047253
 20
129.1029262543762
 30
0.0
 40
19.63807931337879
 50
131.5053444380978
 51
210.9280898380629
  0
ARC
  5
509
  8
0
  6
BYBLOCK
 62
     2
 10
64.06841014402741
 20
130.7118893863666
 30
0.0
 40
18.23997151510368
 50
335.5137401481508
 51
48.84754630770099
  0
ARC
  5
50C
  8
0
  6
BYBLOCK
 62
     2
 10
94.88607885492492
 20
102.5951212075546
 30
0.0
 40
24.58433740104076
 50
81.18463818630033
 51
120.1367050707144
  0
ARC
  5
50D
  8
0
  6
BYBLOCK
 62
     2
 10
86.87926002157718
 20
123.4470756597832
 30
0.0
 40
17.79888629843422
 50
286.2655072126346
 51
10.52472453726531
  0
ARC
  5
50F
  8
0
  6
BYBLOCK
 62
     2
 10
74.77154589215623
 20
81.61561922103535
 30
0.0
 40
30.07464820108009
 50
354.0195260330652
 51
55.36462113248516
  0
ARC
  5
510
  8
0
  6
BYBLOCK
 62
     2
 10
95.36614405778882
 20
107.173344258963
 30
0.0
 40
23.21758668716747
 50
234.3802882805483
 51
269.1503689445802
  0
ARC
  5
511
  8
0
  6
BYBLOCK
 62
     2
 10
45.16034572799815
 20
105.1211336303263
 30
0.0
 40
23.83279907108483
 50
244.2855127109966
 51
349.279331940803
  0
ARC
  5
512
  8
0
  6
BYBLOCK
 62
     2
 10
56.40163631465106
 20
84.89080372187459
 30
0.0
 40
21.61775179990326
 50
86.36746195420081
 51
183.2942626139655
  0
ARC
  5
551
  8
0
  6
BYBLOCK
 62
     2
 10
66.29251755172791
 20
149.1880853703947
 30
0.0
 40
6.735030444632875
 50
307.0072560390481
 51
351.5549354328929
  0
ARC
  5
554
  8
0
  6
BYBLOCK
 62
     2
 10
79.12408540351852
 20
150.1519656188964
 30
0.0
 40
6.471299056394364
 50
197.5653385758588
 51
241.8544990133998
  0
ARC
  5
557
  8
0
  6
BYBLOCK
 62
     2
 10
101.9975993962111
 20
141.2363818173507
 30
0.0
 40
14.7318663779108
 50
256.8802144381268
 51
279.3014806958805
  0
ARC
  5
55B
  8
0
  6
BYBLOCK
 62
     2
 10
95.62924954300392
 20
73.82805686959912
 30
0.0
 40
10.14844558160644
 50
39.48528797719575
 51
93.43119572564761
  0
ARC
  5
55E
  8
0
  6
BYBLOCK
 62
     2
 10
66.69031463577105
 20
91.07036625384176
 30
0.0
 40
15.22582003557752
 50
333.5155813202017
 51
26.40646371831028
  0
ARC
  5
55F
  8
0
  6
BYBLOCK
 62
     2
 10
111.1381978815409
 20
90.32751146979859
 30
0.0
 40
53.15683355218871
 50
185.6339466672056
 51
211.5210040200916
  0
ARC
  5
560
  8
0
  6
BYBLOCK
 62
     2
 10
163.5507667808792
 20
13.09865200638537
 30
0.0
 40
109.5193209580167
 50
139.4624364158498
 51
153.1659564289416
  0
LINE
  5
563
  8
0
  6
BYBLOCK
 62
     2
 10
64.80336060849243
 20
118.5305559768096
 30
0.0
 11
60.05829990868984
 21
131.7279024457589
 31
0.0
  0
ARC
  5
564
  8
0
  6
BYBLOCK
 62
     2
 10
47.19306992000789
 20
125.063008503596
 30
0.0
 40
14.48913226946188
 50
27.38663141053981
 51
117.3882129036125
  0
ARC
  5
565
  8
0
  6
BYBLOCK
 62
     2
 10
-10.65742930226491
 20
119.8597172890509
 30
0.0
 40
46.57947220755336
 50
2.159277804155365
 51
22.20491757710864
  0
ARC
  5
568
  8
0
  6
BYBLOCK
 62
     2
 10
35.98079905764227
 20
146.6555468653073
 30
0.0
 40
9.840961842549717
 50
249.0842263700673
 51
297.5195049788026
  0
ARC
  5
56B
  8
0
  6
BYBLOCK
 62
     2
 10
58.12817056086445
 20
132.2496374483497
 30
0.0
 40
24.65123863207975
 50
205.5574032896097
 51
280.158717136045
  0
ARC
  5
56E
  8
0
  6
BYBLOCK
 62
     3
 10
53.57767846577625
 20
96.58234576981977
 30
0.0
 40
11.96625474046837
 50
98.22613199952872
 51
155.1968940671676
  0
ARC
  5
571
  8
0
  6
BYBLOCK
 62
     2
 10
73.55459055051017
 20
111.0609659270759
 30
0.0
 40
11.50559868103987
 50
139.5176702442416
 51
244.3667316619867
  0
LINE
  5
572
  8
0
  6
BYBLOCK
 62
     2
 10
57.7712783719994
 20
106.4651234913821
 30
0.0
 11
63.02668067701116
 21
106.3627193240808
 31
0.0
  0
LINE
  5
574
  8
0
  6
BYBLOCK
 62
     2
 10
64.80336060849243
 20
118.5305559768096
 30
0.0
 11
75.56223231694992
 21
121.4422884888352
 31
0.0
  0
LINE
  5
578
  8
0
  6
BYBLOCK
 62
     2
 10
68.57716135413163
 20
100.6877311565627
 30
0.0
 11
77.18413605658972
 21
99.91054751841931
 31
0.0
  0
ARC
  5
58C
  8
0
  6
BYBLOCK
 62
     2
 10
101.3047093999641
 20
77.27075535028023
 30
0.0
 40
3.588459109855212
 50
19.72964493137064
 51
47.20111376133951
  0
ARC
  5
58F
  8
0
  6
BYBLOCK
 62
     2
 10
76.53868295377885
 20
120.8306817852198
 30
0.0
 40
1.154275511056215
 50
69.89087708219694
 51
197.8402796558465
  0
ARC
  5
590
  8
0
  6
BYBLOCK
 62
     2
 10
77.19705783206815
 20
123.008187457501
 30
0.0
 40
1.124431303786023
 50
256.5507710851176
 51
353.8370433950884
  0
ARC
  5
592
  8
0
  6
BYBLOCK
 62
     2
 10
79.44492818416872
 20
122.6026344613315
 30
0.0
 40
1.165286068759611
 50
40.6492986965719
 51
165.851493179956
  0
ARC
  5
593
  8
0
  6
BYBLOCK
 62
     2
 10
81.07707992921004
 20
124.1267390530426
 30
0.0
 40
1.069949369395366
 50
225.6425609496249
 51
328.9351473936616
  0
ARC
  5
595
  8
0
  6
BYBLOCK
 62
     2
 10
72.55001919964667
 20
116.6000011054143
 30
0.0
 40
1.124431303786022
 50
303.5257050959995
 51
40.81197740597034
  0
ARC
  5
596
  8
0
  6
BYBLOCK
 62
     2
 10
74.38026381972948
 20
117.9666023578697
 30
0.0
 40
1.165286068759625
 50
87.62423270745391
 51
212.826427190838
  0
ARC
  5
597
  8
0
  6
BYBLOCK
 62
     2
 10
74.3607861309718
 20
120.23479236052
 30
0.0
 40
1.105984594436891
 50
273.5136836389407
 51
12.6529414756789
  0
ARC
  5
598
  8
0
  6
BYBLOCK
 62
     2
 10
73.71425471477487
 20
114.6198499544417
 30
0.0
 40
1.175780992423057
 50
117.5156278109152
 51
242.4843721890843
  0
ARC
  5
59A
  8
0
  6
BYBLOCK
 62
     2
 10
73.70952044394565
 20
107.4923754654148
 30
0.0
 40
1.023834480408224
 50
134.9146619734496
 51
275.1215077220638
  0
ARC
  5
59B
  8
0
  6
BYBLOCK
 62
     2
 10
72.05181653446267
 20
108.8422750655948
 30
0.0
 40
1.124431303786023
 50
326.2401174491668
 51
63.52638975913761
  0
ARC
  5
59C
  8
0
  6
BYBLOCK
 62
     2
 10
73.21241239579111
 20
110.8096112339255
 30
0.0
 40
1.165286068759623
 50
110.3386450606217
 51
235.5408395440057
  0
ARC
  5
59D
  8
0
  6
BYBLOCK
 62
     2
 10
72.31861082619345
 20
112.8943615841274
 30
0.0
 40
1.105984594436901
 50
296.2280959921081
 51
35.36735382884632
  0
ARC
  5
59E
  8
0
  6
BYBLOCK
 62
     2
 10
85.67966874988542
 20
120.8703393251162
 30
0.0
 40
1.165286068759625
 50
336.3432970382482
 51
101.5454915216323
  0
ARC
  5
59F
  8
0
  6
BYBLOCK
 62
     2
 10
85.07052443111846
 20
123.0717792065276
 30
0.0
 40
1.124431303786035
 50
192.2447694267935
 51
289.5310417367645
  0
ARC
  5
5A0
  8
0
  6
BYBLOCK
 62
     2
 10
82.79299509228522
 20
122.6979768241878
 30
0.0
 40
1.186421096090264
 50
6.549424341644154
 51
132.3612513489624
  0
ARC
  5
5A1
  8
0
  6
BYBLOCK
 62
     2
 10
87.78148561691553
 20
120.0629422453675
 30
0.0
 40
1.088840226146702
 50
161.8145919638004
 51
266.0392726393839
  0
ARC
  5
5A4
  8
0
  6
BYBLOCK
 62
     2
 10
91.84696166949254
 20
109.6838217014044
 30
0.0
 40
1.412210958520512
 50
147.1712277907835
 51
230.0600685775447
  0
ARC
  5
5A5
  8
0
  6
BYBLOCK
 62
     2
 10
89.41381083935066
 20
114.5315057015057
 30
0.0
 40
1.075471437448913
 50
330.7578096216755
 51
95.60931527393539
  0
ARC
  5
5A6
  8
0
  6
BYBLOCK
 62
     2
 10
89.37368433030538
 20
116.705900433395
 30
0.0
 40
1.105984594436901
 50
167.4917138768211
 51
266.6309717135593
  0
ARC
  5
5A7
  8
0
  6
BYBLOCK
 62
     2
 10
87.53674199638667
 20
117.8458592283288
 30
0.0
 40
1.143480920631833
 50
313.0475051390445
 51
81.47379342259819
  0
ARC
  5
5A9
  8
0
  6
BYBLOCK
 62
     2
 10
82.92447555694062
 20
97.80216456002245
 30
0.0
 40
1.165286068759606
 50
208.3985395178466
 51
333.6007340012307
  0
ARC
  5
5AA
  8
0
  6
BYBLOCK
 62
     2
 10
84.88157145547878
 20
96.72671592375876
 30
0.0
 40
1.069949369395372
 50
45.3148853041414
 51
148.6074717481781
  0
ARC
  5
5AB
  8
0
  6
BYBLOCK
 62
     2
 10
86.19299391104892
 20
98.53389535494431
 30
0.0
 40
1.186421096090263
 50
241.888781348841
 51
7.700608356159268
  0
ARC
  5
5AC
  8
0
  6
BYBLOCK
 62
     2
 10
80.85758576752538
 20
96.86764452052522
 30
0.0
 40
1.109076646192491
 50
20.05396021401533
 51
118.5519343814693
  0
ARC
  5
5AD
  8
0
  6
BYBLOCK
 62
     2
 10
79.79560130181838
 20
99.00943164047139
 30
0.0
 40
1.283036714284945
 50
185.9472040427802
 51
294.4916044739787
  0
ARC
  5
5AE
  8
0
  6
BYBLOCK
 62
     2
 10
77.43612451070753
 20
98.85673055658988
 30
0.0
 40
1.083525897266909
 50
1.045110067462657
 51
103.4480362620962
  0
ARC
  5
5AF
  8
0
  6
BYBLOCK
 62
     2
 10
77.00719207374527
 20
100.9964107936559
 30
0.0
 40
1.100185541430311
 50
148.4760522771387
 51
279.2551359293
  0
ARC
  5
5B0
  8
0
  6
BYBLOCK
 62
     2
 10
75.39620045000586
 20
104.1314285719958
 30
0.0
 40
1.167801326815366
 50
131.5278618783748
 51
263.1643958298686
  0
ARC
  5
5B3
  8
0
  6
BYBLOCK
 62
     2
 10
73.73868362127747
 20
105.4673634833444
 30
0.0
 40
1.007189500117068
 50
336.0862451633565
 51
86.45752660946853
  0
ARC
  5
5B4
  8
0
  6
BYBLOCK
 62
     2
 10
88.54096684095151
 20
101.0158636774537
 30
0.0
 40
1.165286068759627
 50
272.7045411761711
 51
37.90673565955516
  0
ARC
  5
5B5
  8
0
  6
BYBLOCK
 62
     2
 10
90.37936852321181
 20
102.3157880758636
 30
0.0
 40
1.08884022614671
 50
108.2107600584194
 51
212.4354407340028
  0
ARC
  5
5B6
  8
0
  6
BYBLOCK
 62
     2
 10
90.81675189140943
 20
113.2087263119228
 30
0.0
 40
0.9228459581856178
 50
120.2226290397804
 51
253.0862210522327
  0
ARC
  5
5B7
  8
0
  6
BYBLOCK
 62
     2
 10
90.50533766547061
 20
107.7959852170699
 30
0.0
 40
0.9150777125186091
 50
286.9627179188526
 51
61.61609580614867
  0
ARC
  5
5B8
  8
0
  6
BYBLOCK
 62
     2
 10
90.95746647401535
 20
105.9566807255633
 30
0.0
 40
0.9816571131959598
 50
100.8719799059056
 51
210.157518984098
  0
ARC
  5
5B9
  8
0
  6
BYBLOCK
 62
     2
 10
89.59641196373585
 20
104.4044085704018
 30
0.0
 40
1.14348092063184
 50
292.7762392752046
 51
61.20252755875827
  0
ARC
  5
5BA
  8
0
  6
BYBLOCK
 62
     2
 10
88.49245831818632
 20
98.7322171908508
 30
0.0
 40
1.124431303786028
 50
84.71899096103896
 51
182.0052632710099
  0
ARC
  5
5BC
  8
0
  6
BYBLOCK
 62
     2
 10
75.12897175336057
 20
101.9618843400422
 30
0.0
 40
1.018151851800754
 50
337.4630644329304
 51
82.7644018690355
  0
ARC
  5
5C3
  8
0
  6
BYBLOCK
 62
     2
 10
90.04136481211319
 20
111.3540049204298
 30
0.0
 40
1.096053533945482
 50
304.3803447238444
 51
62.45283165969789
  0
POLYLINE
  5
5CE
  8
0
  6
BYBLOCK
 62
     2
 66
     1
 10
0.0
 20
0.0
 30
0.0
 70
     1
  0
VERTEX
  5
5DC
  8
0
  6
BYBLOCK
 62
     2
 10
81.88865574007097
 20
104.9811633202864
 30
0.0
  0
VERTEX
  5
5DD
  8
0
  6
BYBLOCK
 62
     2
 10
82.5175608300441
 20
105.240476826841
 30
0.0
  0
VERTEX
  5
5DE
  8
0
  6
BYBLOCK
 62
     2
 10
83.07535145231383
 20
105.6717408021988
 30
0.0
  0
VERTEX
  5
5DF
  8
0
  6
BYBLOCK
 62
     2
 10
83.54059202607888
 20
106.2583820136424
 30
0.0
  0
VERTEX
  5
5E0
  8
0
  6
BYBLOCK
 62
     2
 10
83.89540361699943
 20
106.9778561684083
 30
0.0
  0
VERTEX
  5
5E1
  8
0
  6
BYBLOCK
 62
     2
 10
84.12615101461701
 20
107.8025142782145
 30
0.0
  0
VERTEX
  5
5E2
  8
0
  6
BYBLOCK
 62
     2
 10
84.2239667258458
 20
108.7006651943748
 30
0.0
  0
VERTEX
  5
5E3
  8
0
  6
BYBLOCK
 62
     2
 10
84.18509174775899
 20
109.6377934808699
 30
0.0
  0
VERTEX
  5
5E4
  8
0
  6
BYBLOCK
 62
     2
 10
84.01102002396307
 20
110.5778858231976
 30
0.0
  0
VERTEX
  5
5E5
  8
0
  6
BYBLOCK
 62
     2
 10
83.70844103318301
 20
111.4848149998518
 30
0.0
  0
VERTEX
  5
5E6
  8
0
  6
BYBLOCK
 62
     2
 10
83.28898271634623
 20
112.3237282311857
 30
0.0
  0
VERTEX
  5
5E7
  8
0
  6
BYBLOCK
 62
     2
 10
82.7687646213338
 20
113.062386552187
 30
0.0
  0
VERTEX
  5
5E8
  8
0
  6
BYBLOCK
 62
     2
 10
82.16777843779542
 20
113.6724037378239
 30
0.0
  0
VERTEX
  5
5E9
  8
0
  6
BYBLOCK
 62
     2
 10
81.50911972772752
 20
114.130337169754
 30
0.0
  0
VERTEX
  5
5EA
  8
0
  6
BYBLOCK
 62
     2
 10
80.81810037597795
 20
114.4185887230004
 30
0.0
  0
VERTEX
  5
5EB
  8
0
  6
BYBLOCK
 62
     2
 10
80.12127586870632
 20
114.5260810520249
 30
0.0
  0
VERTEX
  5
5EC
  8
0
  6
BYBLOCK
 62
     2
 10
79.44542478094341
 20
114.4486832869057
 30
0.0
  0
VERTEX
  5
5ED
  8
0
  6
BYBLOCK
 62
     2
 10
78.81651969097027
 20
114.1893697803511
 30
0.0
  0
VERTEX
  5
5EE
  8
0
  6
BYBLOCK
 62
     2
 10
78.25872906870056
 20
113.7581058049933
 30
0.0
  0
VERTEX
  5
5EF
  8
0
  6
BYBLOCK
 62
     2
 10
77.79348849493549
 20
113.1714645935496
 30
0.0
  0
VERTEX
  5
5F0
  8
0
  6
BYBLOCK
 62
     2
 10
77.43867690401494
 20
112.4519904387838
 30
0.0
  0
VERTEX
  5
5F1
  8
0
  6
BYBLOCK
 62
     2
 10
77.20792950639736
 20
111.6273323289776
 30
0.0
  0
VERTEX
  5
5F2
  8
0
  6
BYBLOCK
 62
     2
 10
77.11011379516859
 20
110.7291814128173
 30
0.0
  0
VERTEX
  5
5F3
  8
0
  6
BYBLOCK
 62
     2
 10
77.14898877325541
 20
109.7920531263221
 30
0.0
  0
VERTEX
  5
5F4
  8
0
  6
BYBLOCK
 62
     2
 10
77.32306049705132
 20
108.8519607839945
 30
0.0
  0
VERTEX
  5
5F5
  8
0
  6
BYBLOCK
 62
     2
 10
77.62563948783138
 20
107.9450316073402
 30
0.0
  0
VERTEX
  5
5F6
  8
0
  6
BYBLOCK
 62
     2
 10
78.04509780466817
 20
107.1061183760064
 30
0.0
  0
VERTEX
  5
5F7
  8
0
  6
BYBLOCK
 62
     2
 10
78.56531589968058
 20
106.3674600550051
 30
0.0
  0
VERTEX
  5
5F8
  8
0
  6
BYBLOCK
 62
     2
 10
79.16630208321897
 20
105.7574428693682
 30
0.0
  0
VERTEX
  5
5F9
  8
0
  6
BYBLOCK
 62
     2
 10
79.82496079328686
 20
105.299509437438
 30
0.0
  0
VERTEX
  5
5FA
  8
0
  6
BYBLOCK
 62
     2
 10
80.51598014503645
 20
105.0112578841917
 30
0.0
  0
VERTEX
  5
5FB
  8
0
  6
BYBLOCK
 62
     2
 10
81.21280465230808
 20
104.9037655551672
 30
0.0
  0
SEQEND
  5
5FC
  8
0
  6
BYBLOCK
 62
     2
  0
LINE
  5
5CF
  8
0
  6
BYBLOCK
 62
     2
 10
66.31407780200473
 20
105.0174003598255
 30
0.0
 11
72.76463965429986
 21
104.5803166186909
 31
0.0
  0
LINE
  5
5D0
  8
0
  6
BYBLOCK
 62
     2
 10
65.13450644984469
 20
108.3791787134816
 30
0.0
 11
71.46711116692379
 21
108.5908592160351
 31
0.0
  0
LINE
  5
5D1
  8
0
  6
BYBLOCK
 62
     2
 10
64.36778507094066
 20
111.9768713375698
 30
0.0
 11
70.78126633865054
 21
112.2822752074608
 31
0.0
  0
LINE
  5
5D2
  8
0
  6
BYBLOCK
 62
     2
 10
64.97946873004344
 20
115.3144159233475
 30
0.0
 11
71.52608973453179
 21
116.3760301402915
 31
0.0
  0
ENDSEC
  0
EOF
