  0
SECTION
  2
HEADER
  9
$ACADVER
  1
AC1009
  9
$EXTMIN
 10
1.72603062
 20
1.63609171
 30
0.0
  9
$EXTMAX
 10
8.27396938
 20
8.36390829
 30
0.0
  0
ENDSEC
  0
SECTION
  2
TABLES
  0
TABLE
  2
LAYER
 70
1
 0
LAYER
 2
Default_Layer
 70
0
 62
1
 6
CONTINUOUS
 0
ENDTAB
 0
ENDSEC
  0
SECTION
  2
ENTITIES
  0
POLYLINE
  8
Default_Layer
 66
   1
 39
0.000000
 70
    1
  0
VERTEX
  8
0
 10
7.89876814
 20
5.12220282
  0
VERTEX
  8
0
 10
7.79439998
 20
4.98153241
  0
VERTEX
  8
0
 10
7.70432369
 20
4.83053615
  0
VERTEX
  8
0
 10
7.52346810
 20
4.57191662
  0
VERTEX
  8
0
 10
7.32966429
 20
4.31916830
  0
VERTEX
  8
0
 10
6.91836717
 20
3.82446835
  0
VERTEX
  8
0
 10
6.50074276
 20
3.33280229
  0
VERTEX
  8
0
 10
6.10710147
 20
2.83053615
  0
VERTEX
  8
0
 10
6.16262846
 20
2.64268033
  0
VERTEX
  8
0
 10
6.18416253
 20
2.55032202
  0
VERTEX
  8
0
 10
6.19043480
 20
2.45553615
  0
VERTEX
  8
0
 10
5.94304582
 20
2.36939890
  0
VERTEX
  8
0
 10
5.70432369
 20
2.27498060
  0
VERTEX
  8
0
 10
5.50373019
 20
1.96149230
  0
VERTEX
  8
0
 10
5.40420624
 20
1.80412134
  0
VERTEX
  8
0
 10
5.31543480
 20
1.63609171
  0
VERTEX
  8
0
 10
5.29518493
 20
1.64837319
  0
VERTEX
  8
0
 10
5.29519200
 20
1.66716748
  0
VERTEX
  8
0
 10
5.31543480
 20
1.70553615
  0
VERTEX
  8
0
 10
5.47487898
 20
1.97997095
  0
VERTEX
  8
0
 10
5.64876814
 20
2.24720282
  0
VERTEX
  8
0
 10
5.53103974
 20
2.28655064
  0
VERTEX
  8
0
 10
5.38487925
 20
2.33053615
  0
VERTEX
  8
0
 10
5.31976685
 20
2.40778617
  0
VERTEX
  8
0
 10
5.22840398
 20
2.45878310
  0
VERTEX
  8
0
 10
5.11805652
 20
2.49079545
  0
VERTEX
  8
0
 10
4.99599036
 20
2.51109171
  0
VERTEX
  8
0
 10
5.01415786
 20
2.29661077
  0
VERTEX
  8
0
 10
5.05860224
 20
2.07359734
  0
VERTEX
  8
0
 10
5.10299068
 20
1.85058109
  0
VERTEX
  8
0
 10
5.12099036
 20
1.63609171
  0
VERTEX
  8
0
 10
5.08223391
 20
1.72038538
  0
VERTEX
  8
0
 10
5.06265120
 20
1.81504213
  0
VERTEX
  8
0
 10
5.03765702
 20
2.01109171
  0
VERTEX
  8
0
 10
4.95432369
 20
2.39998060
  0
VERTEX
  8
0
 10
4.86079929
 20
2.27109508
  0
VERTEX
  8
0
 10
4.75987925
 20
2.14998060
  0
VERTEX
  8
0
 10
4.77265389
 20
2.01691898
  0
VERTEX
  8
0
 10
4.79794096
 20
1.89637303
  0
VERTEX
  8
0
 10
4.82155828
 20
1.77415865
  0
VERTEX
  8
0
 10
4.82932369
 20
1.63609171
  0
VERTEX
  8
0
 10
4.80515031
 20
1.65243048
  0
VERTEX
  8
0
 10
4.79452099
 20
1.68182581
  0
VERTEX
  8
0
 10
4.78765702
 20
1.74720282
  0
VERTEX
  8
0
 10
4.71821258
 20
2.10831393
  0
VERTEX
  8
0
 10
4.66666317
 20
2.07970546
  0
VERTEX
  8
0
 10
4.64437653
 20
2.03315257
  0
VERTEX
  8
0
 10
4.64358944
 20
1.97328186
  0
VERTEX
  8
0
 10
4.65653870
 20
1.90471991
  0
VERTEX
  8
0
 10
4.69259337
 20
1.76002870
  0
VERTEX
  8
0
 10
4.70017235
 20
1.69315263
  0
VERTEX
  8
0
 10
4.69043480
 20
1.63609171
  0
VERTEX
  8
0
 10
4.63972741
 20
1.83538171
  0
VERTEX
  8
0
 10
4.60710147
 20
2.05275837
  0
VERTEX
  8
0
 10
4.45432369
 20
2.02498060
  0
VERTEX
  8
0
 10
4.44495137
 20
1.93692564
  0
VERTEX
  8
0
 10
4.42654591
 20
1.84442504
  0
VERTEX
  8
0
 10
4.42176509
 20
1.75013588
  0
VERTEX
  8
0
 10
4.41189584
 20
1.70694528
  0
VERTEX
  8
0
 10
4.38487925
 20
1.67775837
  0
VERTEX
  8
0
 10
4.39388002
 20
1.83896418
  0
VERTEX
  8
0
 10
4.41265702
 20
2.02498060
  0
VERTEX
  8
0
 10
4.37003436
 20
1.96328996
  0
VERTEX
  8
0
 10
4.35447047
 20
1.87464092
  0
VERTEX
  8
0
 10
4.34716652
 20
1.77782837
  0
VERTEX
  8
0
 10
4.32932369
 20
1.69164726
  0
VERTEX
  8
0
 10
4.30740684
 20
1.75492952
  0
VERTEX
  8
0
 10
4.31333679
 20
1.84018033
  0
VERTEX
  8
0
 10
4.34321258
 20
2.01109171
  0
VERTEX
  8
0
 10
4.20603505
 20
2.01598831
  0
VERTEX
  8
0
 10
4.06543480
 20
2.03886948
  0
VERTEX
  8
0
 10
4.10541543
 20
1.87746383
  0
VERTEX
  8
0
 10
4.14876814
 20
1.71942504
  0
VERTEX
  8
0
 10
4.09823994
 20
1.78348115
  0
VERTEX
  8
0
 10
4.06831127
 20
1.86813744
  0
VERTEX
  8
0
 10
4.02376814
 20
2.05275837
  0
VERTEX
  8
0
 10
3.87466873
 20
2.06304960
  0
VERTEX
  8
0
 10
3.80463584
 20
2.05042959
  0
VERTEX
  8
0
 10
3.74599036
 20
2.02498060
  0
VERTEX
  8
0
 10
3.80477898
 20
1.87543588
  0
VERTEX
  8
0
 10
3.84321258
 20
1.70553615
  0
VERTEX
  8
0
 10
3.76096040
 20
1.91495324
  0
VERTEX
  8
0
 10
3.71088966
 20
2.01071616
  0
VERTEX
  8
0
 10
3.63487925
 20
2.08053615
  0
VERTEX
  8
0
 10
3.62739202
 20
2.22551622
  0
VERTEX
  8
0
 10
3.59181057
 20
2.36088605
  0
VERTEX
  8
0
 10
3.48210147
 20
2.62220282
  0
VERTEX
  8
0
 10
3.31543480
 20
2.98331393
  0
VERTEX
  8
0
 10
3.22406493
 20
3.00305762
  0
VERTEX
  8
0
 10
3.15512104
 20
3.04522636
  0
VERTEX
  8
0
 10
3.05516422
 20
3.16749248
  0
VERTEX
  8
0
 10
2.95687047
 20
3.29141932
  0
VERTEX
  8
0
 10
2.89000541
 20
3.33566397
  0
VERTEX
  8
0
 10
2.80154591
 20
3.35831393
  0
VERTEX
  8
0
 10
2.86243818
 20
3.54028692
  0
VERTEX
  8
0
 10
2.94043480
 20
3.70553615
  0
VERTEX
  8
0
 10
2.79953992
 20
3.90492132
  0
VERTEX
  8
0
 10
2.65119547
 20
4.09685498
  0
VERTEX
  8
0
 10
2.47733180
 20
4.26326811
  0
VERTEX
  8
0
 10
2.37518349
 20
4.33125791
  0
VERTEX
  8
0
 10
2.25987925
 20
4.38609171
  0
VERTEX
  8
0
 10
2.14959330
 20
4.30517124
  0
VERTEX
  8
0
 10
2.05854361
 20
4.19761538
  0
VERTEX
  8
0
 10
1.98592274
 20
4.06722052
  0
VERTEX
  8
0
 10
1.93092325
 20
3.91778310
  0
VERTEX
  8
0
 10
1.89273770
 20
3.75309954
  0
VERTEX
  8
0
 10
1.87055867
 20
3.57696624
  0
VERTEX
  8
0
 10
1.87099036
 20
3.20553615
  0
VERTEX
  8
0
 10
1.89795710
 20
3.01534074
  0
VERTEX
  8
0
 10
1.90250279
 20
2.92262123
  0
VERTEX
  8
0
 10
1.88487925
 20
2.83053615
  0
VERTEX
  8
0
 10
1.84410344
 20
2.88929417
  0
VERTEX
  8
0
 10
1.81946335
 20
2.96408779
  0
VERTEX
  8
0
 10
1.78765702
 20
3.13609171
  0
VERTEX
  8
0
 10
1.73674946
 20
3.47677321
  0
VERTEX
  8
0
 10
1.72628703
 20
3.67064339
  0
VERTEX
  8
0
 10
1.73210147
 20
3.87220282
  0
VERTEX
  8
0
 10
1.74858076
 20
3.99684667
  0
VERTEX
  8
0
 10
1.78183262
 20
4.13715984
  0
VERTEX
  8
0
 10
1.83188558
 20
4.26652228
  0
VERTEX
  8
0
 10
1.89876814
 20
4.35831393
  0
VERTEX
  8
0
 10
2.03140704
 20
4.42415314
  0
VERTEX
  8
0
 10
2.23195745
 20
4.47873276
  0
VERTEX
  8
0
 10
2.43952431
 20
4.50782518
  0
VERTEX
  8
0
 10
2.59321258
 20
4.49720282
  0
VERTEX
  8
0
 10
2.76322655
 20
4.40129942
  0
VERTEX
  8
0
 10
2.92654591
 20
4.27498060
  0
VERTEX
  8
0
 10
3.06324425
 20
4.12873050
  0
VERTEX
  8
0
 10
3.17654591
 20
3.98331393
  0
VERTEX
  8
0
 10
3.24980003
 20
4.06269226
  0
VERTEX
  8
0
 10
3.30586109
 20
4.15936140
  0
VERTEX
  8
0
 10
3.37365346
 20
4.24439569
  0
VERTEX
  8
0
 10
3.42098774
 20
4.27351050
  0
VERTEX
  8
0
 10
3.48210147
 20
4.28886948
  0
VERTEX
  8
0
 10
3.47655398
 20
4.32868701
  0
VERTEX
  8
0
 10
3.45007151
 20
4.36227633
  0
VERTEX
  8
0
 10
3.38487925
 20
4.42775837
  0
VERTEX
  8
0
 10
3.34321258
 20
4.52498060
  0
VERTEX
  8
0
 10
3.29500519
 20
4.59662633
  0
VERTEX
  8
0
 10
3.25987925
 20
4.69164726
  0
VERTEX
  8
0
 10
3.26599091
 20
4.79892442
  0
VERTEX
  8
0
 10
3.29975484
 20
4.90606036
  0
VERTEX
  8
0
 10
3.39876814
 20
5.12220282
  0
VERTEX
  8
0
 10
3.47858071
 20
5.34216539
  0
VERTEX
  8
0
 10
3.53765702
 20
5.55275837
  0
VERTEX
  8
0
 10
3.62135780
 20
5.54618137
  0
VERTEX
  8
0
 10
3.69043480
 20
5.52498060
  0
VERTEX
  8
0
 10
3.49094068
 20
6.06469248
  0
VERTEX
  8
0
 10
3.26748071
 20
6.58469647
  0
VERTEX
  8
0
 10
3.01938668
 20
7.08178697
  0
VERTEX
  8
0
 10
2.74599036
 20
7.55275837
  0
VERTEX
  8
0
 10
2.66046005
 20
7.67564178
  0
VERTEX
  8
0
 10
2.62874204
 20
7.74278096
  0
VERTEX
  8
0
 10
2.62099036
 20
7.81664726
  0
VERTEX
  8
0
 10
2.69087579
 20
7.77785231
  0
VERTEX
  8
0
 10
2.74756648
 20
7.72200845
  0
VERTEX
  8
0
 10
2.84321258
 20
7.59442504
  0
VERTEX
  8
0
 10
3.16134595
 20
7.15628018
  0
VERTEX
  8
0
 10
3.46010346
 20
6.68479838
  0
VERTEX
  8
0
 10
3.73860997
 20
6.18896325
  0
VERTEX
  8
0
 10
3.99599036
 20
5.67775837
  0
VERTEX
  8
0
 10
4.00334734
 20
6.02053840
  0
VERTEX
  8
0
 10
3.98363471
 20
6.37645272
  0
VERTEX
  8
0
 10
3.94232212
 20
6.73024209
  0
VERTEX
  8
0
 10
3.88487925
 20
7.06664726
  0
VERTEX
  8
0
 10
3.81420918
 20
7.35677060
  0
VERTEX
  8
0
 10
3.76565847
 20
7.48965461
  0
VERTEX
  8
0
 10
3.70432369
 20
7.60831393
  0
VERTEX
  8
0
 10
3.60661021
 20
7.64254424
  0
VERTEX
  8
0
 10
3.52869287
 20
7.69657199
  0
VERTEX
  8
0
 10
3.45525760
 20
7.75508182
  0
VERTEX
  8
0
 10
3.37099036
 20
7.80275837
  0
VERTEX
  8
0
 10
3.36350745
 20
7.92924094
  0
VERTEX
  8
0
 10
3.33338853
 20
8.05492928
  0
VERTEX
  8
0
 10
3.31859829
 20
8.18300439
  0
VERTEX
  8
0
 10
3.32881541
 20
8.24893105
  0
VERTEX
  8
0
 10
3.35710147
 20
8.31664726
  0
VERTEX
  8
0
 10
3.60177342
 20
8.26629265
  0
VERTEX
  8
0
 10
3.72567991
 20
8.22336965
  0
VERTEX
  8
0
 10
3.82932369
 20
8.16386948
  0
VERTEX
  8
0
 10
3.91486691
 20
8.07237317
  0
VERTEX
  8
0
 10
3.95370589
 20
7.96748744
  0
VERTEX
  8
0
 10
3.95118710
 20
7.84273719
  0
VERTEX
  8
0
 10
3.91265702
 20
7.69164726
  0
VERTEX
  8
0
 10
3.93087117
 20
7.68850973
  0
VERTEX
  8
0
 10
3.95529200
 20
7.71018241
  0
VERTEX
  8
0
 10
3.98270090
 20
7.72953196
  0
VERTEX
  8
0
 10
4.00987925
 20
7.71942504
  0
VERTEX
  8
0
 10
3.99427462
 20
7.39532903
  0
VERTEX
  8
0
 10
4.01697967
 20
7.08291626
  0
VERTEX
  8
0
 10
4.09321258
 20
6.44164726
  0
VERTEX
  8
0
 10
4.10959790
 20
6.12393414
  0
VERTEX
  8
0
 10
4.13487925
 20
5.77498060
  0
VERTEX
  8
0
 10
4.24332815
 20
6.11777655
  0
VERTEX
  8
0
 10
4.31257606
 20
6.27418668
  0
VERTEX
  8
0
 10
4.39344130
 20
6.41900342
  0
VERTEX
  8
0
 10
4.48712518
 20
6.55102563
  0
VERTEX
  8
0
 10
4.59482898
 20
6.66905220
  0
VERTEX
  8
0
 10
4.71775398
 20
6.77188201
  0
VERTEX
  8
0
 10
4.85710147
 20
6.85831393
  0
VERTEX
  8
0
 10
4.83764805
 20
6.90215292
  0
VERTEX
  8
0
 10
4.80104182
 20
6.93201956
  0
VERTEX
  8
0
 10
4.71821258
 20
6.98331393
  0
VERTEX
  8
0
 10
4.66071422
 20
7.05774960
  0
VERTEX
  8
0
 10
4.60710147
 20
7.13609171
  0
VERTEX
  8
0
 10
4.49178453
 20
7.23714404
  0
VERTEX
  8
0
 10
4.45476390
 20
7.29764613
  0
VERTEX
  8
0
 10
4.45345876
 20
7.33282058
  0
VERTEX
  8
0
 10
4.46821258
 20
7.37220282
  0
VERTEX
  8
0
 10
4.48178833
 20
7.35800144
  0
VERTEX
  8
0
 10
4.48342898
 20
7.33186366
  0
VERTEX
  8
0
 10
4.48440587
 20
7.30506212
  0
VERTEX
  8
0
 10
4.49599036
 20
7.28886948
  0
VERTEX
  8
0
 10
4.64860641
 20
7.11727286
  0
VERTEX
  8
0
 10
4.73435669
 20
7.02321609
  0
VERTEX
  8
0
 10
4.82932369
 20
6.94164726
  0
VERTEX
  8
0
 10
4.92598555
 20
6.88686852
  0
VERTEX
  8
0
 10
5.02503939
 20
6.86490168
  0
VERTEX
  8
0
 10
5.12345760
 20
6.88825207
  0
VERTEX
  8
0
 10
5.21821258
 20
6.96942504
  0
VERTEX
  8
0
 10
5.19140953
 20
6.99473649
  0
VERTEX
  8
0
 10
5.15320693
 20
6.98994578
  0
VERTEX
  8
0
 10
5.10931270
 20
6.97489469
  0
VERTEX
  8
0
 10
5.06543480
 20
6.96942504
  0
VERTEX
  8
0
 10
5.08723106
 20
7.00304031
  0
VERTEX
  8
0
 10
5.13206318
 20
7.01371487
  0
VERTEX
  8
0
 10
5.18177555
 20
7.01960563
  0
VERTEX
  8
0
 10
5.21821258
 20
7.03886948
  0
VERTEX
  8
0
 10
5.21523008
 20
7.07581868
  0
VERTEX
  8
0
 10
5.19708191
 20
7.09760123
  0
VERTEX
  8
0
 10
5.13244321
 20
7.11282234
  0
VERTEX
  8
0
 10
5.05860587
 20
7.11884480
  0
VERTEX
  8
0
 10
5.02895938
 20
7.12912903
  0
VERTEX
  8
0
 10
5.00987925
 20
7.14998060
  0
VERTEX
  8
0
 10
5.05592542
 20
7.15436546
  0
VERTEX
  8
0
 10
5.10679964
 20
7.14458033
  0
VERTEX
  8
0
 10
5.16476921
 20
7.13402310
  0
VERTEX
  8
0
 10
5.23210147
 20
7.13609171
  0
VERTEX
  8
0
 10
5.19235220
 20
7.17650166
  0
VERTEX
  8
0
 10
5.13397915
 20
7.18486921
  0
VERTEX
  8
0
 10
4.99599036
 20
7.17775837
  0
VERTEX
  8
0
 10
5.04649460
 20
7.20924057
  0
VERTEX
  8
0
 10
5.11391700
 20
7.21783675
  0
VERTEX
  8
0
 10
5.25987925
 20
7.20553615
  0
VERTEX
  8
0
 10
5.18342683
 20
7.24714092
  0
VERTEX
  8
0
 10
5.09436196
 20
7.27613258
  0
VERTEX
  8
0
 10
4.88487925
 20
7.30275837
  0
VERTEX
  8
0
 10
4.92955761
 20
7.32178812
  0
VERTEX
  8
0
 10
4.97758312
 20
7.32708870
  0
VERTEX
  8
0
 10
5.08022064
 20
7.31011036
  0
VERTEX
  8
0
 10
5.18588191
 20
7.27903936
  0
VERTEX
  8
0
 10
5.28765702
 20
7.26109171
  0
VERTEX
  8
0
 10
5.25440656
 20
7.29952308
  0
VERTEX
  8
0
 10
5.18878037
 20
7.33237078
  0
VERTEX
  8
0
 10
5.03765702
 20
7.38609171
  0
VERTEX
  8
0
 10
5.10580760
 20
7.39938152
  0
VERTEX
  8
0
 10
5.18605432
 20
7.37415289
  0
VERTEX
  8
0
 10
5.32932369
 20
7.28886948
  0
VERTEX
  8
0
 10
5.42654591
 20
7.34442504
  0
VERTEX
  8
0
 10
5.31630828
 20
7.39043643
  0
VERTEX
  8
0
 10
5.22738853
 20
7.45776505
  0
VERTEX
  8
0
 10
5.16513080
 20
7.55175700
  0
VERTEX
  8
0
 10
5.13487925
 20
7.67775837
  0
VERTEX
  8
0
 10
5.03458425
 20
7.70266633
  0
VERTEX
  8
0
 10
4.94851600
 20
7.69838308
  0
VERTEX
  8
0
 10
4.87173621
 20
7.67346580
  0
VERTEX
  8
0
 10
4.79930658
 20
7.63647164
  0
VERTEX
  8
0
 10
4.64774460
 20
7.56048135
  0
VERTEX
  8
0
 10
4.55873566
 20
7.53859953
  0
VERTEX
  8
0
 10
4.45432369
 20
7.53886948
  0
VERTEX
  8
0
 10
4.43207544
 20
7.51670693
  0
VERTEX
  8
0
 10
4.42632221
 20
7.49278870
  0
VERTEX
  8
0
 10
4.44203991
 20
7.44494821
  0
VERTEX
  8
0
 10
4.45695506
 20
7.40587390
  0
VERTEX
  8
0
 10
4.45019864
 20
7.39291342
  0
VERTEX
  8
0
 10
4.42654591
 20
7.38609171
  0
VERTEX
  8
0
 10
4.40094291
 20
7.42048742
  0
VERTEX
  8
0
 10
4.39646873
 20
7.47427928
  0
VERTEX
  8
0
 10
4.42654591
 20
7.56664726
  0
VERTEX
  8
0
 10
4.53492431
 20
7.56263464
  0
VERTEX
  8
0
 10
4.62646856
 20
7.58195973
  0
VERTEX
  8
0
 10
4.77841144
 20
7.65715324
  0
VERTEX
  8
0
 10
4.92108822
 20
7.72528821
  0
VERTEX
  8
0
 10
5.00104985
 20
7.73579011
  0
VERTEX
  8
0
 10
5.09321258
 20
7.71942504
  0
VERTEX
  8
0
 10
5.08536630
 20
7.87151279
  0
VERTEX
  8
0
 10
5.08767559
 20
7.95298376
  0
VERTEX
  8
0
 10
5.10710147
 20
8.03886948
  0
VERTEX
  8
0
 10
5.17654591
 20
8.14998060
  0
VERTEX
  8
0
 10
5.21821258
 20
8.28886948
  0
VERTEX
  8
0
 10
5.23336939
 20
8.29970993
  0
VERTEX
  8
0
 10
5.24846908
 20
8.29708779
  0
VERTEX
  8
0
 10
5.25538497
 20
8.30424539
  0
VERTEX
  8
0
 10
5.24599036
 20
8.34442504
  0
VERTEX
  8
0
 10
5.30068558
 20
8.36261098
  0
VERTEX
  8
0
 10
5.34697887
 20
8.36078821
  0
VERTEX
  8
0
 10
5.42272655
 20
8.31582928
  0
VERTEX
  8
0
 10
5.48996724
 20
8.24697380
  0
VERTEX
  8
0
 10
5.56543480
 20
8.19164726
  0
VERTEX
  8
0
 10
5.67137978
 20
8.18300988
  0
VERTEX
  8
0
 10
5.76203939
 20
8.15908779
  0
VERTEX
  8
0
 10
5.83773004
 20
8.12019543
  0
VERTEX
  8
0
 10
5.89876814
 20
8.06664726
  0
VERTEX
  8
0
 10
5.92124914
 20
8.11536387
  0
VERTEX
  8
0
 10
5.95347544
 20
8.14934222
  0
VERTEX
  8
0
 10
6.03962863
 20
8.17968293
  0
VERTEX
  8
0
 10
6.14215713
 20
8.17086692
  0
VERTEX
  8
0
 10
6.24599036
 20
8.13609171
  0
VERTEX
  8
0
 10
6.37894373
 20
8.25753901
  0
VERTEX
  8
0
 10
6.46260415
 20
8.29017406
  0
VERTEX
  8
0
 10
6.51126159
 20
8.28536279
  0
VERTEX
  8
0
 10
6.56543480
 20
8.26109171
  0
VERTEX
  8
0
 10
6.59661734
 20
8.17275185
  0
VERTEX
  8
0
 10
6.60304977
 20
8.12610687
  0
VERTEX
  8
0
 10
6.59321258
 20
8.08053615
  0
VERTEX
  8
0
 10
6.61673399
 20
8.06586182
  0
VERTEX
  8
0
 10
6.65483280
 20
8.06576748
  0
VERTEX
  8
0
 10
6.69337149
 20
8.06611303
  0
VERTEX
  8
0
 10
6.71821258
 20
8.05275837
  0
VERTEX
  8
0
 10
6.70989339
 20
7.97755133
  0
VERTEX
  8
0
 10
6.69043480
 20
7.91386948
  0
VERTEX
  8
0
 10
6.74835895
 20
7.91494087
  0
VERTEX
  8
0
 10
6.81501752
 20
7.93104161
  0
VERTEX
  8
0
 10
6.88188473
 20
7.93508406
  0
VERTEX
  8
0
 10
6.94043480
 20
7.89998060
  0
VERTEX
  8
0
 10
6.94194259
 20
7.83270259
  0
VERTEX
  8
0
 10
6.91324703
 20
7.77042842
  0
VERTEX
  8
0
 10
6.84321258
 20
7.64998060
  0
VERTEX
  8
0
 10
6.88424951
 20
7.58815502
  0
VERTEX
  8
0
 10
6.94266109
 20
7.55092494
  0
VERTEX
  8
0
 10
6.99648731
 20
7.51461158
  0
VERTEX
  8
0
 10
7.02376814
 20
7.45553615
  0
VERTEX
  8
0
 10
7.00948714
 20
7.39288634
  0
VERTEX
  8
0
 10
6.96557637
 20
7.34637512
  0
VERTEX
  8
0
 10
6.90909482
 20
7.30236108
  0
VERTEX
  8
0
 10
6.85710147
 20
7.24720282
  0
VERTEX
  8
0
 10
6.87499261
 20
7.18752920
  0
VERTEX
  8
0
 10
6.91565971
 20
7.14525342
  0
VERTEX
  8
0
 10
6.95829769
 20
7.10534122
  0
VERTEX
  8
0
 10
6.98210147
 20
7.05275837
  0
VERTEX
  8
0
 10
6.98056700
 20
7.00203279
  0
VERTEX
  8
0
 10
6.96503338
 20
6.95966553
  0
VERTEX
  8
0
 10
6.90100259
 20
6.90334682
  0
VERTEX
  8
0
 10
6.80807679
 20
6.89048389
  0
VERTEX
  8
0
 10
6.70432369
 20
6.92775837
  0
VERTEX
  8
0
 10
6.64579658
 20
6.90280455
  0
VERTEX
  8
0
 10
6.60318696
 20
6.86203293
  0
VERTEX
  8
0
 10
6.52376814
 20
6.77498060
  0
VERTEX
  8
0
 10
6.58423939
 20
6.61323171
  0
VERTEX
  8
0
 10
6.60287783
 20
6.52075709
  0
VERTEX
  8
0
 10
6.60710147
 20
6.41386948
  0
VERTEX
  8
0
 10
6.70851648
 20
6.44992095
  0
VERTEX
  8
0
 10
6.81510276
 20
6.50776557
  0
VERTEX
  8
0
 10
7.00987925
 20
6.64998060
  0
VERTEX
  8
0
 10
7.04667689
 20
6.64511158
  0
VERTEX
  8
0
 10
7.07932369
 20
6.63609171
  0
VERTEX
  8
0
 10
7.19929629
 20
6.68790943
  0
VERTEX
  8
0
 10
7.30197151
 20
6.75704823
  0
VERTEX
  8
0
 10
7.39051586
 20
6.84034186
  0
VERTEX
  8
0
 10
7.46809582
 20
6.93462408
  0
VERTEX
  8
0
 10
7.60302850
 20
7.14348929
  0
VERTEX
  8
0
 10
7.73210147
 20
7.35831393
  0
VERTEX
  8
0
 10
7.77834925
 20
7.35942412
  0
VERTEX
  8
0
 10
7.80816179
 20
7.34409647
  0
VERTEX
  8
0
 10
7.85710147
 20
7.30275837
  0
VERTEX
  8
0
 10
7.84446826
 20
7.13469129
  0
VERTEX
  8
0
 10
7.79783679
 20
7.00071956
  0
VERTEX
  8
0
 10
7.72875433
 20
6.88929502
  0
VERTEX
  8
0
 10
7.64876814
 20
6.78886948
  0
VERTEX
  8
0
 10
7.79790791
 20
6.74762987
  0
VERTEX
  8
0
 10
8.00323523
 20
6.69922546
  0
VERTEX
  8
0
 10
8.10285325
 20
6.66471081
  0
VERTEX
  8
0
 10
8.18757900
 20
6.61925418
  0
VERTEX
  8
0
 10
8.24776609
 20
6.55980530
  0
VERTEX
  8
0
 10
8.27376814
 20
6.48331393
  0
VERTEX
  8
0
 10
8.24938217
 20
6.39604539
  0
VERTEX
  8
0
 10
8.17419287
 20
6.32156765
  0
VERTEX
  8
0
 10
8.06198564
 20
6.27935194
  0
VERTEX
  8
0
 10
7.99630825
 20
6.27642711
  0
VERTEX
  8
0
 10
7.92654591
 20
6.28886948
  0
VERTEX
  8
0
 10
7.99192360
 20
6.22821594
  0
VERTEX
  8
0
 10
8.08401318
 20
6.15675984
  0
VERTEX
  8
0
 10
8.16334135
 20
6.06455301
  0
VERTEX
  8
0
 10
8.18588450
 20
6.00755926
  0
VERTEX
  8
0
 10
8.19043480
 20
5.94164726
  0
VERTEX
  8
0
 10
8.17395786
 20
5.87927154
  0
VERTEX
  8
0
 10
8.13540363
 20
5.81934039
  0
VERTEX
  8
0
 10
8.07575387
 20
5.77889602
  0
VERTEX
  8
0
 10
7.99599036
 20
5.77498060
  0
VERTEX
  8
0
 10
8.05251128
 20
5.79119830
  0
VERTEX
  8
0
 10
8.09606463
 20
5.82269242
  0
VERTEX
  8
0
 10
8.12654788
 20
5.86595633
  0
VERTEX
  8
0
 10
8.14385849
 20
5.91748345
  0
VERTEX
  8
0
 10
8.13855161
 20
6.03130084
  0
VERTEX
  8
0
 10
8.11572905
 20
6.08657789
  0
VERTEX
  8
0
 10
8.07932369
 20
6.13609171
  0
VERTEX
  8
0
 10
7.97128796
 20
6.21673363
  0
VERTEX
  8
0
 10
7.82911700
 20
6.28261453
  0
VERTEX
  8
0
 10
7.50987925
 20
6.38609171
  0
VERTEX
  8
0
 10
7.36696822
 20
6.42319738
  0
VERTEX
  8
0
 10
7.21021075
 20
6.44950376
  0
VERTEX
  8
0
 10
7.04356531
 20
6.45799300
  0
VERTEX
  8
0
 10
6.87099036
 20
6.44164726
  0
VERTEX
  8
0
 10
6.86543825
 20
6.41927484
  0
VERTEX
  8
0
 10
6.85003384
 20
6.40685324
  0
VERTEX
  8
0
 10
6.81543480
 20
6.38609171
  0
VERTEX
  8
0
 10
6.87090222
 20
6.32002985
  0
VERTEX
  8
0
 10
6.94311891
 20
6.27071973
  0
VERTEX
  8
0
 10
7.03135465
 20
6.23742894
  0
VERTEX
  8
0
 10
7.13487925
 20
6.21942504
  0
VERTEX
  8
0
 10
7.51623523
 20
5.98272807
  0
VERTEX
  8
0
 10
7.72346785
 20
5.88093063
  0
VERTEX
  8
0
 10
7.95432369
 20
5.80275837
  0
VERTEX
  8
0
 10
7.89651116
 20
5.79437944
  0
VERTEX
  8
0
 10
7.83737863
 20
5.79950394
  0
VERTEX
  8
0
 10
7.73210147
 20
5.83053615
  0
VERTEX
  8
0
 10
7.56526036
 20
5.91232668
  0
VERTEX
  8
0
 10
7.40876109
 20
6.00996036
  0
VERTEX
  8
0
 10
7.25420979
 20
6.10815971
  0
VERTEX
  8
0
 10
7.09321258
 20
6.19164726
  0
VERTEX
  8
0
 10
7.00175548
 20
6.17220038
  0
VERTEX
  8
0
 10
6.89563696
 20
6.17202425
  0
VERTEX
  8
0
 10
6.79455626
 20
6.19207629
  0
VERTEX
  8
0
 10
6.71821258
 20
6.23331393
  0
VERTEX
  8
0
 10
6.62824512
 20
6.21518501
  0
VERTEX
  8
0
 10
6.53765702
 20
6.21942504
  0
VERTEX
  8
0
 10
6.50137924
 20
6.19305580
  0
VERTEX
  8
0
 10
6.47548471
 20
6.15640237
  0
VERTEX
  8
0
 10
6.42654591
 20
6.08053615
  0
VERTEX
  8
0
 10
6.34119632
 20
6.05326837
  0
VERTEX
  8
0
 10
6.25818766
 20
6.03983345
  0
VERTEX
  8
0
 10
6.17949701
 20
6.02591655
  0
VERTEX
  8
0
 10
6.10710147
 20
5.99720282
  0
VERTEX
  8
0
 10
5.97157549
 20
5.88837202
  0
VERTEX
  8
0
 10
5.85044356
 20
5.74716991
  0
VERTEX
  8
0
 10
5.64876814
 20
5.45553615
  0
VERTEX
  8
0
 10
5.68021854
 20
5.40288584
  0
VERTEX
  8
0
 10
5.72921405
 20
5.37028987
  0
VERTEX
  8
0
 10
5.78312549
 20
5.34212260
  0
VERTEX
  8
0
 10
5.82932369
 20
5.30275837
  0
VERTEX
  8
0
 10
5.87547661
 20
5.20706266
  0
VERTEX
  8
0
 10
5.89241891
 20
5.09345619
  0
VERTEX
  8
0
 10
5.88823026
 20
4.96991748
  0
VERTEX
  8
0
 10
5.87099036
 20
4.84442504
  0
VERTEX
  8
0
 10
5.90367744
 20
4.82074446
  0
VERTEX
  8
0
 10
5.94283696
 20
4.81707303
  0
VERTEX
  8
0
 10
6.02376814
 20
4.81664726
  0
VERTEX
  8
0
 10
6.07201893
 20
4.79182883
  0
VERTEX
  8
0
 10
6.11495675
 20
4.75616644
  0
VERTEX
  8
0
 10
6.20432369
 20
4.69164726
  0
VERTEX
  8
0
 10
6.27463262
 20
4.68251105
  0
VERTEX
  8
0
 10
6.34321258
 20
4.67775837
  0
VERTEX
  8
0
 10
6.48015693
 20
4.61824942
  0
VERTEX
  8
0
 10
6.60710147
 20
4.55275837
  0
VERTEX
  8
0
 10
6.69135380
 20
4.55367737
  0
VERTEX
  8
0
 10
6.75987925
 20
4.53886948
  0
VERTEX
  8
0
 10
6.76658729
 20
4.45385952
  0
VERTEX
  8
0
 10
6.75188210
 20
4.36896783
  0
VERTEX
  8
0
 10
6.70432369
 20
4.20553615
  0
VERTEX
  8
0
 10
6.67171578
 20
4.03556019
  0
VERTEX
  8
0
 10
6.65129198
 20
3.95448139
  0
VERTEX
  8
0
 10
6.62099036
 20
3.88609171
  0
VERTEX
  8
0
 10
6.57218501
 20
3.83490016
  0
VERTEX
  8
0
 10
6.50670693
 20
3.79458536
  0
VERTEX
  8
0
 10
6.37099036
 20
3.71942504
  0
VERTEX
  8
0
 10
6.30288232
 20
3.65511676
  0
VERTEX
  8
0
 10
6.25369998
 20
3.58780776
  0
VERTEX
  8
0
 10
6.20760728
 20
3.52380739
  0
VERTEX
  8
0
 10
6.14876814
 20
3.46942504
  0
VERTEX
  8
0
 10
6.09025728
 20
3.47341418
  0
VERTEX
  8
0
 10
6.03765702
 20
3.48331393
  0
VERTEX
  8
0
 10
6.03319964
 20
3.43683174
  0
VERTEX
  8
0
 10
6.05438957
 20
3.39432824
  0
VERTEX
  8
0
 10
6.10710147
 20
3.30275837
  0
VERTEX
  8
0
 10
6.11540098
 20
3.20105943
  0
VERTEX
  8
0
 10
6.10311734
 20
3.09927928
  0
VERTEX
  8
0
 10
6.08935354
 20
2.99854424
  0
VERTEX
  8
0
 10
6.09321258
 20
2.89998060
  0
VERTEX
  8
0
 10
6.22796431
 20
3.02767816
  0
VERTEX
  8
0
 10
6.35559616
 20
3.18948918
  0
VERTEX
  8
0
 10
6.48398067
 20
3.35932369
  0
VERTEX
  8
0
 10
6.62099036
 20
3.51109171
  0
VERTEX
  8
0
 10
6.74159912
 20
3.99233816
  0
VERTEX
  8
0
 10
6.89153748
 20
4.44932269
  0
VERTEX
  8
0
 10
7.06939673
 20
4.88163617
  0
VERTEX
  8
0
 10
7.27376814
 20
5.28886948
  0
VERTEX
  8
0
 10
7.42089877
 20
5.54151123
  0
VERTEX
  8
0
 10
7.50705986
 20
5.65865886
  0
VERTEX
  8
0
 10
7.60710147
 20
5.76109171
  0
VERTEX
  8
0
 10
7.59330374
 20
5.67675834
  0
VERTEX
  8
0
 10
7.55990606
 20
5.59837060
  0
VERTEX
  8
0
 10
7.48210147
 20
5.45553615
  0
VERTEX
  8
0
 10
7.45432369
 20
5.34442504
  0
VERTEX
  8
0
 10
7.32932369
 20
5.13609171
  0
VERTEX
  8
0
 10
7.22265591
 20
4.88423634
  0
VERTEX
  8
0
 10
7.13303974
 20
4.61004352
  0
VERTEX
  8
0
 10
7.05823221
 20
4.31415257
  0
VERTEX
  8
0
 10
6.99599036
 20
3.99720282
  0
VERTEX
  8
0
 10
7.20906793
 20
4.22273797
  0
VERTEX
  8
0
 10
7.41564113
 20
4.48532668
  0
VERTEX
  8
0
 10
7.81543480
 20
5.03886948
  0
VERTEX
  8
0
 10
7.85206474
 20
5.13399369
  0
VERTEX
  8
0
 10
7.88074645
 20
5.17133211
  0
VERTEX
  8
0
 10
7.92654591
 20
5.19164726
  0
VERTEX
  8
0
 10
7.89835536
 20
4.93819246
  0
VERTEX
  8
0
 10
7.84290678
 20
4.70646184
  0
VERTEX
  8
0
 10
7.76446355
 20
4.49278328
  0
VERTEX
  8
0
 10
7.66728905
 20
4.29348467
  0
VERTEX
  8
0
 10
7.43379975
 20
3.92333879
  0
VERTEX
  8
0
 10
7.17654591
 20
3.56664726
  0
VERTEX
  8
0
 10
7.00987925
 20
3.33053615
  0
VERTEX
  8
0
 10
6.91223853
 20
3.21447130
  0
VERTEX
  8
0
 10
6.84321258
 20
3.10831393
  0
VERTEX
  8
0
 10
6.81709478
 20
2.95603796
  0
VERTEX
  8
0
 10
6.80154591
 20
2.78886948
  0
VERTEX
  8
0
 10
6.69043480
 20
2.20553615
  0
VERTEX
  8
0
 10
6.67607637
 20
2.05665289
  0
VERTEX
  8
0
 10
6.65581266
 20
1.98564194
  0
VERTEX
  8
0
 10
6.60710147
 20
1.92775837
  0
VERTEX
  8
0
 10
6.71198401
 20
2.47546123
  0
VERTEX
  8
0
 10
6.80154591
 20
3.03886948
  0
VERTEX
  8
0
 10
6.70654413
 20
2.94275567
  0
VERTEX
  8
0
 10
6.62369825
 20
2.83457980
  0
VERTEX
  8
0
 10
6.54297065
 20
2.72438211
  0
VERTEX
  8
0
 10
6.45432369
 20
2.62220282
  0
VERTEX
  8
0
 10
6.35710147
 20
1.96942504
  0
VERTEX
  8
0
 10
6.34180415
 20
1.86834404
  0
VERTEX
  8
0
 10
6.32275042
 20
1.82066891
  0
VERTEX
  8
0
 10
6.28765702
 20
1.78886948
  0
VERTEX
  8
0
 10
6.33897603
 20
2.16096869
  0
VERTEX
  8
0
 10
6.39876814
 20
2.52498060
  0
VERTEX
  8
0
 10
6.10197950
 20
2.14040515
  0
VERTEX
  8
0
 10
5.81543480
 20
1.70553615
  0
VERTEX
  8
0
 10
5.79955101
 20
1.73528762
  0
VERTEX
  8
0
 10
5.81255606
 20
1.76574578
  0
VERTEX
  8
0
 10
5.85710147
 20
1.81664726
  0
VERTEX
  8
0
 10
6.10710147
 20
2.19164726
  0
VERTEX
  8
0
 10
6.35710147
 20
2.53886948
  0
VERTEX
  8
0
 10
6.40418349
 20
2.60168154
  0
VERTEX
  8
0
 10
6.42177405
 20
2.63715320
  0
VERTEX
  8
0
 10
6.42654591
 20
2.67775837
  0
VERTEX
  8
0
 10
6.49599036
 20
2.70553615
  0
VERTEX
  8
0
 10
7.07930380
 20
3.47967217
  0
VERTEX
  8
0
 10
7.36455728
 20
3.86937924
  0
VERTEX
  8
0
 10
7.62099036
 20
4.26109171
  0
VERTEX
  8
0
 10
7.79235519
 20
4.65897842
  0
VERTEX
  8
0
 10
7.85818853
 20
4.87791331
  0
VERTEX
  8
0
 10
7.89876814
 20
5.12220282
  0
SEQEND
  0
POLYLINE
  8
Default_Layer
 66
   1
 39
0.000000
 70
    1
  0
VERTEX
  8
0
 10
6.24599036
 20
7.81664726
  0
VERTEX
  8
0
 10
6.25319478
 20
7.76155481
  0
VERTEX
  8
0
 10
6.23827984
 20
7.66408779
  0
VERTEX
  8
0
 10
6.22722017
 20
7.54915051
  0
VERTEX
  8
0
 10
6.24599036
 20
7.44164726
  0
VERTEX
  8
0
 10
6.30896196
 20
7.57292720
  0
VERTEX
  8
0
 10
6.34839419
 20
7.63076672
  0
VERTEX
  8
0
 10
6.39876814
 20
7.67775837
  0
VERTEX
  8
0
 10
6.42991468
 20
7.63861646
  0
VERTEX
  8
0
 10
6.43754714
 20
7.59069324
  0
VERTEX
  8
0
 10
6.40157932
 20
7.48958310
  0
VERTEX
  8
0
 10
6.32948369
 20
7.41658838
  0
VERTEX
  8
0
 10
6.29195638
 20
7.40380943
  0
VERTEX
  8
0
 10
6.25987925
 20
7.41386948
  0
VERTEX
  8
0
 10
6.30214625
 20
7.29205385
  0
VERTEX
  8
0
 10
6.36847776
 20
7.18593397
  0
VERTEX
  8
0
 10
6.45689890
 20
7.11044851
  0
VERTEX
  8
0
 10
6.56543480
 20
7.08053615
  0
VERTEX
  8
0
 10
6.54437944
 20
7.05375719
  0
VERTEX
  8
0
 10
6.51816602
 20
7.04389832
  0
VERTEX
  8
0
 10
6.45673974
 20
7.06235533
  0
VERTEX
  8
0
 10
6.34321258
 20
7.16386948
  0
VERTEX
  8
0
 10
6.26229048
 20
7.29274231
  0
VERTEX
  8
0
 10
6.20597325
 20
7.46226348
  0
VERTEX
  8
0
 10
6.19397012
 20
7.64578211
  0
VERTEX
  8
0
 10
6.21074549
 20
7.73446205
  0
VERTEX
  8
0
 10
6.24599036
 20
7.81664726
  0
SEQEND
  0
POLYLINE
  8
Default_Layer
 66
   1
 39
0.000000
 70
    1
  0
VERTEX
  8
0
 10
6.28765702
 20
7.42775837
  0
VERTEX
  8
0
 10
6.38234460
 20
7.51946401
  0
VERTEX
  8
0
 10
6.40880422
 20
7.57710400
  0
VERTEX
  8
0
 10
6.40484895
 20
7.60673457
  0
VERTEX
  8
0
 10
6.38487925
 20
7.63609171
  0
VERTEX
  8
0
 10
6.31874148
 20
7.53192755
  0
VERTEX
  8
0
 10
6.29388581
 20
7.47573812
  0
VERTEX
  8
0
 10
6.28765702
 20
7.42775837
  0
SEQEND
  0
POLYLINE
  8
Default_Layer
 66
   1
 39
0.000000
 70
    1
  0
VERTEX
  8
0
 10
5.57932369
 20
7.74720282
  0
VERTEX
  8
0
 10
5.60690882
 20
7.72972640
  0
VERTEX
  8
0
 10
5.61164530
 20
7.70089664
  0
VERTEX
  8
0
 10
5.60710147
 20
7.63609171
  0
VERTEX
  8
0
 10
5.64561491
 20
7.55398397
  0
VERTEX
  8
0
 10
5.65846097
 20
7.51668167
  0
VERTEX
  8
0
 10
5.64876814
 20
7.48331393
  0
VERTEX
  8
0
 10
5.59099009
 20
7.59220255
  0
VERTEX
  8
0
 10
5.57932369
 20
7.74720282
  0
SEQEND
  0
POLYLINE
  8
Default_Layer
 66
   1
 39
0.000000
 70
    1
  0
VERTEX
  8
0
 10
6.67654591
 20
7.66386948
  0
VERTEX
  8
0
 10
6.65544747
 20
7.58412653
  0
VERTEX
  8
0
 10
6.60836978
 20
7.53046123
  0
VERTEX
  8
0
 10
6.54329682
 20
7.49488894
  0
VERTEX
  8
0
 10
6.46821258
 20
7.46942504
  0
VERTEX
  8
0
 10
6.55554425
 20
7.60042529
  0
VERTEX
  8
0
 10
6.61372266
 20
7.64725680
  0
VERTEX
  8
0
 10
6.67654591
 20
7.66386948
  0
SEQEND
  0
POLYLINE
  8
Default_Layer
 66
   1
 39
0.000000
 70
    1
  0
VERTEX
  8
0
 10
6.55154591
 20
7.52498060
  0
VERTEX
  8
0
 10
6.60684252
 20
7.57009734
  0
VERTEX
  8
0
 10
6.62794701
 20
7.59527584
  0
VERTEX
  8
0
 10
6.62099036
 20
7.62220282
  0
VERTEX
  8
0
 10
6.57328314
 20
7.56911088
  0
VERTEX
  8
0
 10
6.55028130
 20
7.54592618
  0
VERTEX
  8
0
 10
6.55154591
 20
7.52498060
  0
SEQEND
  0
POLYLINE
  8
Default_Layer
 66
   1
 39
0.000000
 70
    1
  0
VERTEX
  8
0
 10
6.71821258
 20
7.44164726
  0
VERTEX
  8
0
 10
6.72516320
 20
7.45538295
  0
VERTEX
  8
0
 10
6.74439043
 20
7.45694109
  0
VERTEX
  8
0
 10
6.78765702
 20
7.45553615
  0
VERTEX
  8
0
 10
6.78056173
 20
7.44165578
  0
VERTEX
  8
0
 10
6.76128627
 20
7.44004942
  0
VERTEX
  8
0
 10
6.71821258
 20
7.44164726
  0
SEQEND
  0
POLYLINE
  8
Default_Layer
 66
   1
 39
0.000000
 70
    1
  0
VERTEX
  8
0
 10
6.67654591
 20
7.34442504
  0
VERTEX
  8
0
 10
6.66169350
 20
7.31337590
  0
VERTEX
  8
0
 10
6.63457568
 20
7.29043386
  0
VERTEX
  8
0
 10
6.55672047
 20
7.26643102
  0
VERTEX
  8
0
 10
6.46933354
 20
7.26753630
  0
VERTEX
  8
0
 10
6.39876814
 20
7.28886948
  0
VERTEX
  8
0
 10
6.44354818
 20
7.34796930
  0
VERTEX
  8
0
 10
6.51933141
 20
7.37708779
  0
VERTEX
  8
0
 10
6.60427744
 20
7.37598601
  0
VERTEX
  8
0
 10
6.67654591
 20
7.34442504
  0
SEQEND
  0
POLYLINE
  8
Default_Layer
 66
   1
 39
0.000000
 70
    1
  0
VERTEX
  8
0
 10
6.45432369
 20
7.30275837
  0
VERTEX
  8
0
 10
6.54747533
 20
7.29823258
  0
VERTEX
  8
0
 10
6.60057928
 20
7.30592959
  0
VERTEX
  8
0
 10
6.63487925
 20
7.33053615
  0
VERTEX
  8
0
 10
6.53207950
 20
7.34559821
  0
VERTEX
  8
0
 10
6.48148484
 20
7.33261518
  0
VERTEX
  8
0
 10
6.45432369
 20
7.30275837
  0
SEQEND
  0
POLYLINE
  8
Default_Layer
 66
   1
 39
0.000000
 70
    1
  0
VERTEX
  8
0
 10
4.05154591
 20
4.84442504
  0
VERTEX
  8
0
 10
4.11343245
 20
4.81603380
  0
VERTEX
  8
0
 10
4.13643061
 20
4.79389372
  0
VERTEX
  8
0
 10
4.14876814
 20
4.76109171
  0
VERTEX
  8
0
 10
4.07806005
 20
4.78065880
  0
VERTEX
  8
0
 10
4.05766865
 20
4.80540726
  0
VERTEX
  8
0
 10
4.05154591
 20
4.84442504
  0
SEQEND
  0
POLYLINE
  8
Default_Layer
 66
   1
 39
0.000000
 70
    1
  0
VERTEX
  8
0
 10
5.13487925
 20
4.20553615
  0
VERTEX
  8
0
 10
5.15339384
 20
4.31187688
  0
VERTEX
  8
0
 10
5.18709182
 20
4.40313067
  0
VERTEX
  8
0
 10
5.27376814
 20
4.56664726
  0
VERTEX
  8
0
 10
5.26508881
 20
4.48962382
  0
VERTEX
  8
0
 10
5.22900745
 20
4.41328154
  0
VERTEX
  8
0
 10
5.19100088
 20
4.33028879
  0
VERTEX
  8
0
 10
5.17654591
 20
4.23331393
  0
VERTEX
  8
0
 10
5.16055988
 20
4.21439005
  0
VERTEX
  8
0
 10
5.13487925
 20
4.20553615
  0
SEQEND
  0
POLYLINE
  8
Default_Layer
 66
   1
 39
0.000000
 70
    1
  0
VERTEX
  8
0
 10
4.34321258
 20
3.66386948
  0
VERTEX
  8
0
 10
4.32288992
 20
3.82701566
  0
VERTEX
  8
0
 10
4.34286978
 20
3.94930758
  0
VERTEX
  8
0
 10
4.40468770
 20
4.04693601
  0
VERTEX
  8
0
 10
4.50987925
 20
4.13609171
  0
VERTEX
  8
0
 10
4.64876814
 20
4.23331393
  0
VERTEX
  8
0
 10
4.74603564
 20
4.25041625
  0
VERTEX
  8
0
 10
4.84518074
 20
4.24620194
  0
VERTEX
  8
0
 10
4.94228196
 20
4.22218969
  0
VERTEX
  8
0
 10
5.03341787
 20
4.17989821
  0
VERTEX
  8
0
 10
5.11466700
 20
4.12084619
  0
VERTEX
  8
0
 10
5.18210791
 20
4.04655233
  0
VERTEX
  8
0
 10
5.23181914
 20
3.95853535
  0
VERTEX
  8
0
 10
5.25987925
 20
3.85831393
  0
VERTEX
  8
0
 10
5.26772067
 20
3.76852473
  0
VERTEX
  8
0
 10
5.25965745
 20
3.69763362
  0
VERTEX
  8
0
 10
5.23434402
 20
3.63416600
  0
VERTEX
  8
0
 10
5.19043480
 20
3.56664726
  0
VERTEX
  8
0
 10
5.14876814
 20
3.52498060
  0
VERTEX
  8
0
 10
5.10634234
 20
3.45868102
  0
VERTEX
  8
0
 10
5.05154591
 20
3.39998060
  0
VERTEX
  8
0
 10
4.89889391
 20
3.33689560
  0
VERTEX
  8
0
 10
4.79214858
 20
3.31502349
  0
VERTEX
  8
0
 10
4.69043480
 20
3.31664726
  0
VERTEX
  8
0
 10
4.62963452
 20
3.33621206
  0
VERTEX
  8
0
 10
4.57844727
 20
3.36813113
  0
VERTEX
  8
0
 10
4.49562724
 20
3.45794526
  0
VERTEX
  8
0
 10
4.42340543
 20
3.56391594
  0
VERTEX
  8
0
 10
4.34321258
 20
3.66386948
  0
SEQEND
  0
POLYLINE
  8
Default_Layer
 66
   1
 39
0.000000
 70
    1
  0
VERTEX
  8
0
 10
5.13487925
 20
3.55275837
  0
VERTEX
  8
0
 10
5.18496873
 20
3.61597546
  0
VERTEX
  8
0
 10
5.21821258
 20
3.67775837
  0
VERTEX
  8
0
 10
5.23550780
 20
3.77480165
  0
VERTEX
  8
0
 10
5.22759065
 20
3.86751205
  0
VERTEX
  8
0
 10
5.19814816
 20
3.95361729
  0
VERTEX
  8
0
 10
5.15086734
 20
4.03084508
  0
VERTEX
  8
0
 10
5.08943524
 20
4.09692315
  0
VERTEX
  8
0
 10
5.01753887
 20
4.14957920
  0
VERTEX
  8
0
 10
4.93886527
 20
4.18654096
  0
VERTEX
  8
0
 10
4.85710147
 20
4.20553615
  0
VERTEX
  8
0
 10
4.71897136
 20
4.19593751
  0
VERTEX
  8
0
 10
4.57746474
 20
4.14833137
  0
VERTEX
  8
0
 10
4.45772093
 20
4.07724428
  0
VERTEX
  8
0
 10
4.38487925
 20
3.99720282
  0
VERTEX
  8
0
 10
4.36495828
 20
3.92485633
  0
VERTEX
  8
0
 10
4.36907915
 20
3.84884230
  0
VERTEX
  8
0
 10
4.38487925
 20
3.66386948
  0
VERTEX
  8
0
 10
4.52340589
 20
3.48989612
  0
VERTEX
  8
0
 10
4.60027468
 20
3.41051492
  0
VERTEX
  8
0
 10
4.69043480
 20
3.34442504
  0
VERTEX
  8
0
 10
4.84560593
 20
3.36149697
  0
VERTEX
  8
0
 10
4.96554130
 20
3.40434630
  0
VERTEX
  8
0
 10
5.05903453
 20
3.46931833
  0
VERTEX
  8
0
 10
5.13487925
 20
3.55275837
  0
SEQEND
  0
POLYLINE
  8
Default_Layer
 66
   1
 39
0.000000
 70
    1
  0
VERTEX
  8
0
 10
4.85710147
 20
3.98331393
  0
VERTEX
  8
0
 10
4.85849337
 20
3.92220876
  0
VERTEX
  8
0
 10
4.89564599
 20
3.89686105
  0
VERTEX
  8
0
 10
4.94130413
 20
3.88001757
  0
VERTEX
  8
0
 10
4.96821258
 20
3.84442504
  0
VERTEX
  8
0
 10
4.95468608
 20
3.78533792
  0
VERTEX
  8
0
 10
4.93263175
 20
3.74387494
  0
VERTEX
  8
0
 10
4.91795118
 20
3.70060368
  0
VERTEX
  8
0
 10
4.92654591
 20
3.63609171
  0
VERTEX
  8
0
 10
4.77327359
 20
3.56839717
  0
VERTEX
  8
0
 10
4.68428822
 20
3.55706488
  0
VERTEX
  8
0
 10
4.60710147
 20
3.58053615
  0
VERTEX
  8
0
 10
4.60946214
 20
3.64048519
  0
VERTEX
  8
0
 10
4.63487925
 20
3.67775837
  0
VERTEX
  8
0
 10
4.58669738
 20
3.70597060
  0
VERTEX
  8
0
 10
4.55154591
 20
3.74720282
  0
VERTEX
  8
0
 10
4.56147637
 20
3.81360194
  0
VERTEX
  8
0
 10
4.59799894
 20
3.85446036
  0
VERTEX
  8
0
 10
4.65296166
 20
3.86946778
  0
VERTEX
  8
0
 10
4.71821258
 20
3.85831393
  0
VERTEX
  8
0
 10
4.68081995
 20
3.88342651
  0
VERTEX
  8
0
 10
4.65975040
 20
3.89360565
  0
VERTEX
  8
0
 10
4.64876814
 20
3.91386948
  0
VERTEX
  8
0
 10
4.64431231
 20
3.95698837
  0
VERTEX
  8
0
 10
4.65753362
 20
3.98679100
  0
VERTEX
  8
0
 10
4.71908054
 20
4.01340098
  0
VERTEX
  8
0
 10
4.79755459
 20
4.00760633
  0
VERTEX
  8
0
 10
4.85710147
 20
3.98331393
  0
SEQEND
  0
POLYLINE
  8
Default_Layer
 66
   1
 39
0.000000
 70
    1
  0
VERTEX
  8
0
 10
4.69043480
 20
3.91386948
  0
VERTEX
  8
0
 10
4.78206821
 20
3.91232355
  0
VERTEX
  8
0
 10
4.81808317
 20
3.92149344
  0
VERTEX
  8
0
 10
4.82932369
 20
3.95553615
  0
VERTEX
  8
0
 10
4.78321325
 20
3.97737840
  0
VERTEX
  8
0
 10
4.72582446
 20
3.98046887
  0
VERTEX
  8
0
 10
4.68546307
 20
3.96067631
  0
VERTEX
  8
0
 10
4.68051319
 20
3.94090789
  0
VERTEX
  8
0
 10
4.69043480
 20
3.91386948
  0
SEQEND
  0
POLYLINE
  8
Default_Layer
 66
   1
 39
0.000000
 70
    1
  0
VERTEX
  8
0
 10
4.73210147
 20
3.77498060
  0
VERTEX
  8
0
 10
4.75592238
 20
3.75713484
  0
VERTEX
  8
0
 10
4.76679827
 20
3.74717740
  0
VERTEX
  8
0
 10
4.78765702
 20
3.74720282
  0
VERTEX
  8
0
 10
4.81543480
 20
3.76109171
  0
VERTEX
  8
0
 10
4.81543480
 20
3.87220282
  0
VERTEX
  8
0
 10
4.75186179
 20
3.84530515
  0
VERTEX
  8
0
 10
4.73524039
 20
3.81683653
  0
VERTEX
  8
0
 10
4.73210147
 20
3.77498060
  0
SEQEND
  0
POLYLINE
  8
Default_Layer
 66
   1
 39
0.000000
 70
    1
  0
VERTEX
  8
0
 10
4.89876814
 20
3.76109171
  0
VERTEX
  8
0
 10
4.91819578
 20
3.78645802
  0
VERTEX
  8
0
 10
4.92596005
 20
3.82347321
  0
VERTEX
  8
0
 10
4.91665615
 20
3.85707542
  0
VERTEX
  8
0
 10
4.88487925
 20
3.87220282
  0
VERTEX
  8
0
 10
4.86249912
 20
3.84726937
  0
VERTEX
  8
0
 10
4.85796734
 20
3.81124039
  0
VERTEX
  8
0
 10
4.87036374
 20
3.77791485
  0
VERTEX
  8
0
 10
4.89876814
 20
3.76109171
  0
SEQEND
  0
POLYLINE
  8
Default_Layer
 66
   1
 39
0.000000
 70
    1
  0
VERTEX
  8
0
 10
4.59321258
 20
3.73331393
  0
VERTEX
  8
0
 10
4.64398471
 20
3.72592373
  0
VERTEX
  8
0
 10
4.70432369
 20
3.73331393
  0
VERTEX
  8
0
 10
4.68780587
 20
3.80358456
  0
VERTEX
  8
0
 10
4.64598106
 20
3.83242998
  0
VERTEX
  8
0
 10
4.60554979
 20
3.81171737
  0
VERTEX
  8
0
 10
4.59321258
 20
3.73331393
  0
SEQEND
  0
POLYLINE
  8
Default_Layer
 66
   1
 39
0.000000
 70
    1
  0
VERTEX
  8
0
 10
4.77376814
 20
3.62220282
  0
VERTEX
  8
0
 10
4.85921839
 20
3.63377928
  0
VERTEX
  8
0
 10
4.88217138
 20
3.65948595
  0
VERTEX
  8
0
 10
4.88487925
 20
3.70553615
  0
VERTEX
  8
0
 10
4.82316335
 20
3.72021175
  0
VERTEX
  8
0
 10
4.74599036
 20
3.71942504
  0
VERTEX
  8
0
 10
4.76235363
 20
3.67329092
  0
VERTEX
  8
0
 10
4.77376814
 20
3.62220282
  0
SEQEND
  0
POLYLINE
  8
Default_Layer
 66
   1
 39
0.000000
 70
    1
  0
VERTEX
  8
0
 10
4.66265702
 20
3.58053615
  0
VERTEX
  8
0
 10
4.69753577
 20
3.58370945
  0
VERTEX
  8
0
 10
4.72013800
 20
3.59925376
  0
VERTEX
  8
0
 10
4.73210147
 20
3.66386948
  0
VERTEX
  8
0
 10
4.68894445
 20
3.66291830
  0
VERTEX
  8
0
 10
4.65991925
 20
3.64334647
  0
VERTEX
  8
0
 10
4.64962405
 20
3.61320281
  0
VERTEX
  8
0
 10
4.66265702
 20
3.58053615
  0
SEQEND
  0
POLYLINE
  8
Default_Layer
 66
   1
 39
0.000000
 70
    1
  0
VERTEX
  8
0
 10
6.00987925
 20
7.85831393
  0
VERTEX
  8
0
 10
6.00728588
 20
7.88708219
  0
VERTEX
  8
0
 10
5.99065311
 20
7.91017460
  0
VERTEX
  8
0
 10
5.92654591
 20
7.96942504
  0
VERTEX
  8
0
 10
5.82932369
 20
8.08053615
  0
VERTEX
  8
0
 10
5.75628035
 20
8.11369304
  0
VERTEX
  8
0
 10
5.67463731
 20
8.12760480
  0
VERTEX
  8
0
 10
5.59047635
 20
8.13881557
  0
VERTEX
  8
0
 10
5.50987925
 20
8.16386948
  0
VERTEX
  8
0
 10
5.45074289
 20
8.21339094
  0
VERTEX
  8
0
 10
5.40942377
 20
8.27196088
  0
VERTEX
  8
0
 10
5.36277683
 20
8.31467957
  0
VERTEX
  8
0
 10
5.28765702
 20
8.31664726
  0
VERTEX
  8
0
 10
5.25402835
 20
8.22277738
  0
VERTEX
  8
0
 10
5.19436300
 20
8.12232043
  0
VERTEX
  8
0
 10
5.13620578
 20
8.01138801
  0
VERTEX
  8
0
 10
5.10710147
 20
7.88609171
  0
VERTEX
  8
0
 10
5.14778974
 20
7.68979005
  0
VERTEX
  8
0
 10
5.21821258
 20
7.51109171
  0
VERTEX
  8
0
 10
5.27010515
 20
7.45496081
  0
VERTEX
  8
0
 10
5.33178631
 20
7.41761917
  0
VERTEX
  8
0
 10
5.39962912
 20
7.39769086
  0
VERTEX
  8
0
 10
5.47000658
 20
7.39379994
  0
VERTEX
  8
0
 10
5.60385762
 20
7.42862659
  0
VERTEX
  8
0
 10
5.66007726
 20
7.46459231
  0
VERTEX
  8
0
 10
5.70432369
 20
7.51109171
  0
VERTEX
  8
0
 10
5.68136325
 20
7.54769118
  0
VERTEX
  8
0
 10
5.67300050
 20
7.60818848
  0
VERTEX
  8
0
 10
5.69043480
 20
7.71942504
  0
VERTEX
  8
0
 10
5.70896407
 20
7.67557525
  0
VERTEX
  8
0
 10
5.71099703
 20
7.63032043
  0
VERTEX
  8
0
 10
5.71821258
 20
7.52498060
  0
VERTEX
  8
0
 10
5.75879951
 20
7.53980324
  0
VERTEX
  8
0
 10
5.77330901
 20
7.58080237
  0
VERTEX
  8
0
 10
5.77376814
 20
7.69164726
  0
VERTEX
  8
0
 10
5.79243369
 20
7.72786249
  0
VERTEX
  8
0
 10
5.82183230
 20
7.75199765
  0
VERTEX
  8
0
 10
5.89756162
 20
7.77939821
  0
VERTEX
  8
0
 10
5.97042197
 20
7.80458996
  0
VERTEX
  8
0
 10
5.99623437
 20
7.82596411
  0
VERTEX
  8
0
 10
6.00987925
 20
7.85831393
  0
SEQEND
  0
POLYLINE
  8
Default_Layer
 66
   1
 39
0.000000
 70
    1
  0
VERTEX
  8
0
 10
3.52376814
 20
8.06664726
  0
VERTEX
  8
0
 10
3.47465335
 20
8.08350535
  0
VERTEX
  8
0
 10
3.43711856
 20
8.11194213
  0
VERTEX
  8
0
 10
3.40124189
 20
8.14203703
  0
VERTEX
  8
0
 10
3.35710147
 20
8.16386948
  0
VERTEX
  8
0
 10
3.36000726
 20
8.05913475
  0
VERTEX
  8
0
 10
3.38228106
 20
7.97376869
  0
VERTEX
  8
0
 10
3.42321507
 20
7.90706414
  0
VERTEX
  8
0
 10
3.48210147
 20
7.85831393
  0
VERTEX
  8
0
 10
3.52181997
 20
7.87400500
  0
VERTEX
  8
0
 10
3.54745675
 20
7.90387685
  0
VERTEX
  8
0
 10
3.57513812
 20
7.93180057
  0
VERTEX
  8
0
 10
3.62099036
 20
7.94164726
  0
VERTEX
  8
0
 10
3.66335535
 20
7.92151225
  0
VERTEX
  8
0
 10
3.69119564
 20
7.88685255
  0
VERTEX
  8
0
 10
3.71865552
 20
7.85181242
  0
VERTEX
  8
0
 10
3.75987925
 20
7.83053615
  0
VERTEX
  8
0
 10
3.83446578
 20
7.91547633
  0
VERTEX
  8
0
 10
3.89876814
 20
8.01109171
  0
VERTEX
  8
0
 10
3.86148596
 20
8.07450483
  0
VERTEX
  8
0
 10
3.81301841
 20
8.12673250
  0
VERTEX
  8
0
 10
3.68850363
 20
8.20360758
  0
VERTEX
  8
0
 10
3.53717666
 20
8.25366917
  0
VERTEX
  8
0
 10
3.37099036
 20
8.28886948
  0
VERTEX
  8
0
 10
3.36916285
 20
8.24050860
  0
VERTEX
  8
0
 10
3.38247275
 20
8.20265754
  0
VERTEX
  8
0
 10
3.43618696
 20
8.14922703
  0
VERTEX
  8
0
 10
3.49549732
 20
8.11006219
  0
VERTEX
  8
0
 10
3.52376814
 20
8.06664726
  0
SEQEND
  0
POLYLINE
  8
Default_Layer
 66
   1
 39
0.000000
 70
    1
  0
VERTEX
  8
0
 10
6.24599036
 20
8.09442504
  0
VERTEX
  8
0
 10
6.16143180
 20
8.12619717
  0
VERTEX
  8
0
 10
6.06240519
 20
8.14591869
  0
VERTEX
  8
0
 10
5.97878228
 20
8.12947673
  0
VERTEX
  8
0
 10
5.95208213
 20
8.10015915
  0
VERTEX
  8
0
 10
5.94043480
 20
8.05275837
  0
VERTEX
  8
0
 10
5.94729539
 20
8.01839255
  0
VERTEX
  8
0
 10
5.96688193
 20
7.99892546
  0
VERTEX
  8
0
 10
6.00987925
 20
7.96942504
  0
VERTEX
  8
0
 10
6.04705634
 20
7.89335726
  0
VERTEX
  8
0
 10
6.04299565
 20
7.84038556
  0
VERTEX
  8
0
 10
6.00928480
 20
7.80362832
  0
VERTEX
  8
0
 10
5.95751144
 20
7.77620394
  0
VERTEX
  8
0
 10
5.84612781
 20
7.72182731
  0
VERTEX
  8
0
 10
5.80969282
 20
7.68111185
  0
VERTEX
  8
0
 10
5.80154591
 20
7.62220282
  0
VERTEX
  8
0
 10
5.83181194
 20
7.57555114
  0
VERTEX
  8
0
 10
5.88916891
 20
7.54414352
  0
VERTEX
  8
0
 10
5.94785326
 20
7.51357110
  0
VERTEX
  8
0
 10
5.98210147
 20
7.46942504
  0
VERTEX
  8
0
 10
5.97597104
 20
7.41432599
  0
VERTEX
  8
0
 10
5.94539234
 20
7.37028987
  0
VERTEX
  8
0
 10
5.91927933
 20
7.32026579
  0
VERTEX
  8
0
 10
5.92654591
 20
7.24720282
  0
VERTEX
  8
0
 10
6.05896543
 20
7.20318744
  0
VERTEX
  8
0
 10
6.09917084
 20
7.17147091
  0
VERTEX
  8
0
 10
6.12099036
 20
7.10831393
  0
VERTEX
  8
0
 10
6.11349144
 20
7.05379261
  0
VERTEX
  8
0
 10
6.09249582
 20
6.99615793
  0
VERTEX
  8
0
 10
6.08227525
 20
6.93904569
  0
VERTEX
  8
0
 10
6.10710147
 20
6.88609171
  0
VERTEX
  8
0
 10
6.16372707
 20
6.89876425
  0
VERTEX
  8
0
 10
6.20093957
 20
6.93094699
  0
VERTEX
  8
0
 10
6.23637190
 20
6.96500765
  0
VERTEX
  8
0
 10
6.28765702
 20
6.98331393
  0
VERTEX
  8
0
 10
6.34049725
 20
6.94229016
  0
VERTEX
  8
0
 10
6.37326422
 20
6.88986435
  0
VERTEX
  8
0
 10
6.40489426
 20
6.84249667
  0
VERTEX
  8
0
 10
6.45432369
 20
6.81664726
  0
VERTEX
  8
0
 10
6.52199740
 20
6.82625463
  0
VERTEX
  8
0
 10
6.56598939
 20
6.86706973
  0
VERTEX
  8
0
 10
6.60970409
 20
6.91739582
  0
VERTEX
  8
0
 10
6.67654591
 20
6.95553615
  0
VERTEX
  8
0
 10
6.72119265
 20
6.95851748
  0
VERTEX
  8
0
 10
6.76518957
 20
6.94185342
  0
VERTEX
  8
0
 10
6.81694799
 20
6.92508627
  0
VERTEX
  8
0
 10
6.88487925
 20
6.92775837
  0
VERTEX
  8
0
 10
6.93875683
 20
6.96622850
  0
VERTEX
  8
0
 10
6.95807948
 20
7.00554298
  0
VERTEX
  8
0
 10
6.95143580
 20
7.04548826
  0
VERTEX
  8
0
 10
6.92741439
 20
7.08585081
  0
VERTEX
  8
0
 10
6.86159285
 20
7.16697353
  0
VERTEX
  8
0
 10
6.83696992
 20
7.20730663
  0
VERTEX
  8
0
 10
6.82932369
 20
7.24720282
  0
VERTEX
  8
0
 10
6.85810081
 20
7.30773862
  0
VERTEX
  8
0
 10
6.91222811
 20
7.35404751
  0
VERTEX
  8
0
 10
6.96309764
 20
7.39901739
  0
VERTEX
  8
0
 10
6.98210147
 20
7.45553615
  0
VERTEX
  8
0
 10
6.95554137
 20
7.49972638
  0
VERTEX
  8
0
 10
6.90276127
 20
7.53380376
  0
VERTEX
  8
0
 10
6.84798460
 20
7.57041401
  0
VERTEX
  8
0
 10
6.81543480
 20
7.62220282
  0
VERTEX
  8
0
 10
6.82298508
 20
7.69515941
  0
VERTEX
  8
0
 10
6.86272863
 20
7.74940446
  0
VERTEX
  8
0
 10
6.90313082
 20
7.80602091
  0
VERTEX
  8
0
 10
6.91265702
 20
7.88609171
  0
VERTEX
  8
0
 10
6.85660348
 20
7.90034024
  0
VERTEX
  8
0
 10
6.80415571
 20
7.89208206
  0
VERTEX
  8
0
 10
6.75040305
 20
7.87735648
  0
VERTEX
  8
0
 10
6.69043480
 20
7.87220282
  0
VERTEX
  8
0
 10
6.67041621
 20
7.88704491
  0
VERTEX
  8
0
 10
6.66294504
 20
7.90805455
  0
VERTEX
  8
0
 10
6.67000519
 20
7.95867286
  0
VERTEX
  8
0
 10
6.68033571
 20
8.00425060
  0
VERTEX
  8
0
 10
6.67695249
 20
8.01895951
  0
VERTEX
  8
0
 10
6.66265702
 20
8.02498060
  0
VERTEX
  8
0
 10
6.61648521
 20
8.04272425
  0
VERTEX
  8
0
 10
6.57240120
 20
8.02544439
  0
VERTEX
  8
0
 10
6.53177844
 20
8.00446041
  0
VERTEX
  8
0
 10
6.49599036
 20
8.01109171
  0
VERTEX
  8
0
 10
6.53203486
 20
8.06323478
  0
VERTEX
  8
0
 10
6.55379946
 20
8.12058519
  0
VERTEX
  8
0
 10
6.55360396
 20
8.18221663
  0
VERTEX
  8
0
 10
6.52376814
 20
8.24720282
  0
VERTEX
  8
0
 10
6.46587802
 20
8.25118824
  0
VERTEX
  8
0
 10
6.42127603
 20
8.24190973
  0
VERTEX
  8
0
 10
6.35859894
 20
8.19689873
  0
VERTEX
  8
0
 10
6.30906201
 20
8.13884532
  0
VERTEX
  8
0
 10
6.24599036
 20
8.09442504
  0
SEQEND
  0
POLYLINE
  8
Default_Layer
 66
   1
 39
0.000000
 70
    1
  0
VERTEX
  8
0
 10
3.71821258
 20
7.80275837
  0
VERTEX
  8
0
 10
3.68869593
 20
7.82879793
  0
VERTEX
  8
0
 10
3.66901995
 20
7.86467685
  0
VERTEX
  8
0
 10
3.64616251
 20
7.89737432
  0
VERTEX
  8
0
 10
3.60710147
 20
7.91386948
  0
VERTEX
  8
0
 10
3.54398019
 20
7.84485342
  0
VERTEX
  8
0
 10
3.50430784
 20
7.81860242
  0
VERTEX
  8
0
 10
3.45432369
 20
7.80275837
  0
VERTEX
  8
0
 10
3.53187199
 20
7.73259268
  0
VERTEX
  8
0
 10
3.62391005
 20
7.68022026
  0
VERTEX
  8
0
 10
3.71448827
 20
7.62661689
  0
VERTEX
  8
0
 10
3.78765702
 20
7.55275837
  0
VERTEX
  8
0
 10
3.82052449
 20
7.47764782
  0
VERTEX
  8
0
 10
3.83685085
 20
7.39621869
  0
VERTEX
  8
0
 10
3.85288586
 20
7.30972607
  0
VERTEX
  8
0
 10
3.88487925
 20
7.21942504
  0
VERTEX
  8
0
 10
3.87241618
 20
7.42206893
  0
VERTEX
  8
0
 10
3.88022464
 20
7.61897824
  0
VERTEX
  8
0
 10
3.90424929
 20
7.80708317
  0
VERTEX
  8
0
 10
3.94043480
 20
7.98331393
  0
VERTEX
  8
0
 10
3.89876814
 20
7.98331393
  0
VERTEX
  8
0
 10
3.84121318
 20
7.86012303
  0
VERTEX
  8
0
 10
3.79275498
 20
7.81835136
  0
VERTEX
  8
0
 10
3.71821258
 20
7.80275837
  0
SEQEND
  0
POLYLINE
  8
Default_Layer
 66
   1
 39
0.000000
 70
    1
  0
VERTEX
  8
0
 10
3.71821258
 20
5.51109171
  0
VERTEX
  8
0
 10
3.89526561
 20
5.41731140
  0
VERTEX
  8
0
 10
3.98745216
 20
5.37408128
  0
VERTEX
  8
0
 10
4.09321258
 20
5.34442504
  0
VERTEX
  8
0
 10
3.95560782
 20
5.67508634
  0
VERTEX
  8
0
 10
3.80385259
 20
5.99980914
  0
VERTEX
  8
0
 10
3.46821258
 20
6.62220282
  0
VERTEX
  8
0
 10
3.28723979
 20
6.92137809
  0
VERTEX
  8
0
 10
3.09727394
 20
7.20923310
  0
VERTEX
  8
0
 10
2.89486075
 20
7.47787853
  0
VERTEX
  8
0
 10
2.67654591
 20
7.71942504
  0
VERTEX
  8
0
 10
2.98277520
 20
7.21314808
  0
VERTEX
  8
0
 10
3.25723957
 20
6.67511661
  0
VERTEX
  8
0
 10
3.50177377
 20
6.10715602
  0
VERTEX
  8
0
 10
3.71821258
 20
5.51109171
  0
SEQEND
  0
POLYLINE
  8
Default_Layer
 66
   1
 39
0.000000
 70
    1
  0
VERTEX
  8
0
 10
3.92654591
 20
7.62220282
  0
VERTEX
  8
0
 10
3.90777755
 20
7.40739830
  0
VERTEX
  8
0
 10
3.91794790
 20
7.18588640
  0
VERTEX
  8
0
 10
3.96821258
 20
6.77498060
  0
VERTEX
  8
0
 10
3.97353453
 20
6.64012980
  0
VERTEX
  8
0
 10
3.98210147
 20
6.51109171
  0
VERTEX
  8
0
 10
4.02376814
 20
6.37220282
  0
VERTEX
  8
0
 10
4.05154591
 20
6.03886948
  0
VERTEX
  8
0
 10
4.04347828
 20
5.73156783
  0
VERTEX
  8
0
 10
4.05491147
 20
5.58727254
  0
VERTEX
  8
0
 10
4.10710147
 20
5.45553615
  0
VERTEX
  8
0
 10
4.08888141
 20
5.92778553
  0
VERTEX
  8
0
 10
4.05154591
 20
6.41386948
  0
VERTEX
  8
0
 10
3.98916300
 20
7.07228658
  0
VERTEX
  8
0
 10
3.96589076
 20
7.38307566
  0
VERTEX
  8
0
 10
3.96821258
 20
7.66386948
  0
VERTEX
  8
0
 10
3.93883696
 20
7.65138553
  0
VERTEX
  8
0
 10
3.92712540
 20
7.64231199
  0
VERTEX
  8
0
 10
3.92654591
 20
7.62220282
  0
SEQEND
  0
POLYLINE
  8
Default_Layer
 66
   1
 39
0.000000
 70
    1
  0
VERTEX
  8
0
 10
5.78765702
 20
7.53886948
  0
VERTEX
  8
0
 10
5.72582842
 20
7.47078031
  0
VERTEX
  8
0
 10
5.64553406
 20
7.41652056
  0
VERTEX
  8
0
 10
5.46411179
 20
7.32403223
  0
VERTEX
  8
0
 10
5.38026575
 20
7.27307511
  0
VERTEX
  8
0
 10
5.31251769
 20
7.21049031
  0
VERTEX
  8
0
 10
5.26950855
 20
7.12991356
  0
VERTEX
  8
0
 10
5.25987925
 20
7.02498060
  0
VERTEX
  8
0
 10
5.34723768
 20
7.12889409
  0
VERTEX
  8
0
 10
5.45427481
 20
7.22274890
  0
VERTEX
  8
0
 10
5.57522527
 20
7.29410845
  0
VERTEX
  8
0
 10
5.70432369
 20
7.33053615
  0
VERTEX
  8
0
 10
5.50842967
 20
7.21681869
  0
VERTEX
  8
0
 10
5.40212713
 20
7.14339604
  0
VERTEX
  8
0
 10
5.31543480
 20
7.06664726
  0
VERTEX
  8
0
 10
5.27669775
 20
7.01600739
  0
VERTEX
  8
0
 10
5.25399773
 20
6.96218658
  0
VERTEX
  8
0
 10
5.25159957
 20
6.90504055
  0
VERTEX
  8
0
 10
5.27376814
 20
6.84442504
  0
VERTEX
  8
0
 10
5.48273731
 20
7.02414664
  0
VERTEX
  8
0
 10
5.59506494
 20
7.10631364
  0
VERTEX
  8
0
 10
5.73210147
 20
7.16386948
  0
VERTEX
  8
0
 10
5.50455762
 20
7.00233154
  0
VERTEX
  8
0
 10
5.39978050
 20
6.91271375
  0
VERTEX
  8
0
 10
5.31543480
 20
6.80275837
  0
VERTEX
  8
0
 10
5.36529859
 20
6.76234439
  0
VERTEX
  8
0
 10
5.42654591
 20
6.73331393
  0
VERTEX
  8
0
 10
5.55679421
 20
6.80778532
  0
VERTEX
  8
0
 10
5.67160207
 20
6.89779230
  0
VERTEX
  8
0
 10
5.88487925
 20
7.09442504
  0
VERTEX
  8
0
 10
5.80317188
 20
6.97459741
  0
VERTEX
  8
0
 10
5.69898696
 20
6.87734456
  0
VERTEX
  8
0
 10
5.46821258
 20
6.70553615
  0
VERTEX
  8
0
 10
5.55949218
 20
6.67357650
  0
VERTEX
  8
0
 10
5.63920424
 20
6.67487312
  0
VERTEX
  8
0
 10
5.71050924
 20
6.70108379
  0
VERTEX
  8
0
 10
5.77656769
 20
6.74386626
  0
VERTEX
  8
0
 10
5.90558692
 20
6.84577768
  0
VERTEX
  8
0
 10
5.97486870
 20
6.88822215
  0
VERTEX
  8
0
 10
6.05154591
 20
6.91386948
  0
VERTEX
  8
0
 10
6.05136563
 20
6.97640509
  0
VERTEX
  8
0
 10
6.06312759
 20
7.02709491
  0
VERTEX
  8
0
 10
6.09321258
 20
7.12220282
  0
VERTEX
  8
0
 10
6.06627707
 20
7.16124311
  0
VERTEX
  8
0
 10
6.02279200
 20
7.18372928
  0
VERTEX
  8
0
 10
5.91265702
 20
7.20553615
  0
VERTEX
  8
0
 10
5.88950254
 20
7.24396016
  0
VERTEX
  8
0
 10
5.88334215
 20
7.28152421
  0
VERTEX
  8
0
 10
5.90323071
 20
7.35367703
  0
VERTEX
  8
0
 10
5.93477687
 20
7.42120385
  0
VERTEX
  8
0
 10
5.94043480
 20
7.48331393
  0
VERTEX
  8
0
 10
5.78765702
 20
7.53886948
  0
SEQEND
  0
POLYLINE
  8
Default_Layer
 66
   1
 39
0.000000
 70
    1
  0
VERTEX
  8
0
 10
7.56543480
 20
6.76109171
  0
VERTEX
  8
0
 10
7.61911127
 20
6.79758781
  0
VERTEX
  8
0
 10
7.67490088
 20
6.85924663
  0
VERTEX
  8
0
 10
7.77280189
 20
7.02754664
  0
VERTEX
  8
0
 10
7.80490452
 20
7.11893499
  0
VERTEX
  8
0
 10
7.81910270
 20
7.20498031
  0
VERTEX
  8
0
 10
7.81039204
 20
7.27805617
  0
VERTEX
  8
0
 10
7.77376814
 20
7.33053615
  0
VERTEX
  8
0
 10
7.73210147
 20
7.33053615
  0
VERTEX
  8
0
 10
7.64965172
 20
7.15589587
  0
VERTEX
  8
0
 10
7.55493158
 20
6.99362112
  0
VERTEX
  8
0
 10
7.44462972
 20
6.84702612
  0
VERTEX
  8
0
 10
7.31543480
 20
6.71942504
  0
VERTEX
  8
0
 10
7.37612125
 20
6.74139085
  0
VERTEX
  8
0
 10
7.43854304
 20
6.74511088
  0
VERTEX
  8
0
 10
7.50191071
 20
6.74640465
  0
VERTEX
  8
0
 10
7.56543480
 20
6.76109171
  0
SEQEND
  0
POLYLINE
  8
Default_Layer
 66
   1
 39
0.000000
 70
    1
  0
VERTEX
  8
0
 10
6.14876814
 20
6.85831393
  0
VERTEX
  8
0
 10
6.04044790
 20
6.87264890
  0
VERTEX
  8
0
 10
5.99823857
 20
6.86271796
  0
VERTEX
  8
0
 10
5.95432369
 20
6.83053615
  0
VERTEX
  8
0
 10
6.11444790
 20
6.77537998
  0
VERTEX
  8
0
 10
6.18010819
 20
6.73340170
  0
VERTEX
  8
0
 10
6.23210147
 20
6.67775837
  0
VERTEX
  8
0
 10
6.02932273
 20
6.78471071
  0
VERTEX
  8
0
 10
5.93226468
 20
6.80326006
  0
VERTEX
  8
0
 10
5.89105525
 20
6.78696298
  0
VERTEX
  8
0
 10
5.85710147
 20
6.74720282
  0
VERTEX
  8
0
 10
5.93653134
 20
6.73237323
  0
VERTEX
  8
0
 10
6.00857935
 20
6.70379825
  0
VERTEX
  8
0
 10
6.12768280
 20
6.61459126
  0
VERTEX
  8
0
 10
6.20871780
 20
6.49794005
  0
VERTEX
  8
0
 10
6.24599036
 20
6.37220282
  0
VERTEX
  8
0
 10
6.17023918
 20
6.49961555
  0
VERTEX
  8
0
 10
6.07418714
 20
6.62345255
  0
VERTEX
  8
0
 10
6.01592927
 20
6.67084639
  0
VERTEX
  8
0
 10
5.94945337
 20
6.70152579
  0
VERTEX
  8
0
 10
5.87371182
 20
6.71021725
  0
VERTEX
  8
0
 10
5.78765702
 20
6.69164726
  0
VERTEX
  8
0
 10
5.88293297
 20
6.62025914
  0
VERTEX
  8
0
 10
5.92339348
 20
6.57738664
  0
VERTEX
  8
0
 10
5.95432369
 20
6.52498060
  0
VERTEX
  8
0
 10
5.89409374
 20
6.56197058
  0
VERTEX
  8
0
 10
5.84383505
 20
6.60893380
  0
VERTEX
  8
0
 10
5.78632069
 20
6.64864263
  0
VERTEX
  8
0
 10
5.70432369
 20
6.66386948
  0
VERTEX
  8
0
 10
5.70245904
 20
6.63537605
  0
VERTEX
  8
0
 10
5.71455745
 20
6.60654283
  0
VERTEX
  8
0
 10
5.74599036
 20
6.53886948
  0
VERTEX
  8
0
 10
5.75986804
 20
6.39941991
  0
VERTEX
  8
0
 10
5.75987925
 20
6.24720282
  0
VERTEX
  8
0
 10
5.70432369
 20
6.13609171
  0
VERTEX
  8
0
 10
5.87794686
 20
6.05277043
  0
VERTEX
  8
0
 10
5.98259452
 20
6.02894652
  0
VERTEX
  8
0
 10
6.10710147
 20
6.02498060
  0
VERTEX
  8
0
 10
6.17789662
 20
6.05964979
  0
VERTEX
  8
0
 10
6.25827412
 20
6.07166227
  0
VERTEX
  8
0
 10
6.34292640
 20
6.08116724
  0
VERTEX
  8
0
 10
6.42654591
 20
6.10831393
  0
VERTEX
  8
0
 10
6.45774979
 20
6.18352566
  0
VERTEX
  8
0
 10
6.50646023
 20
6.25146609
  0
VERTEX
  8
0
 10
6.55340795
 20
6.32421932
  0
VERTEX
  8
0
 10
6.57932369
 20
6.41386948
  0
VERTEX
  8
0
 10
6.57528927
 20
6.51562469
  0
VERTEX
  8
0
 10
6.55025762
 20
6.61157251
  0
VERTEX
  8
0
 10
6.46821258
 20
6.78886948
  0
VERTEX
  8
0
 10
6.42562450
 20
6.78968304
  0
VERTEX
  8
0
 10
6.39494970
 20
6.80241086
  0
VERTEX
  8
0
 10
6.35596057
 20
6.85022859
  0
VERTEX
  8
0
 10
6.32448634
 20
6.90556121
  0
VERTEX
  8
0
 10
6.27376814
 20
6.94164726
  0
VERTEX
  8
0
 10
6.23591103
 20
6.92727792
  0
VERTEX
  8
0
 10
6.21117168
 20
6.89988414
  0
VERTEX
  8
0
 10
6.18648056
 20
6.87253860
  0
VERTEX
  8
0
 10
6.14876814
 20
6.85831393
  0
SEQEND
  0
POLYLINE
  8
Default_Layer
 66
   1
 39
0.000000
 70
    1
  0
VERTEX
  8
0
 10
5.13487925
 20
5.55275837
  0
VERTEX
  8
0
 10
4.98441075
 20
5.51380255
  0
VERTEX
  8
0
 10
4.90541960
 20
5.49720478
  0
VERTEX
  8
0
 10
4.82932369
 20
5.46942504
  0
VERTEX
  8
0
 10
4.81180346
 20
5.47637026
  0
VERTEX
  8
0
 10
4.80154591
 20
5.46942504
  0
VERTEX
  8
0
 10
4.79577907
 20
5.45190064
  0
VERTEX
  8
0
 10
4.76387672
 20
5.43505897
  0
VERTEX
  8
0
 10
4.69043480
 20
5.39998060
  0
VERTEX
  8
0
 10
4.64515715
 20
5.34473918
  0
VERTEX
  8
0
 10
4.61458019
 20
5.28317008
  0
VERTEX
  8
0
 10
4.58373610
 20
5.22792291
  0
VERTEX
  8
0
 10
4.53765702
 20
5.19164726
  0
VERTEX
  8
0
 10
4.56039333
 20
5.27591536
  0
VERTEX
  8
0
 10
4.59757310
 20
5.34454268
  0
VERTEX
  8
0
 10
4.64691108
 20
5.39975972
  0
VERTEX
  8
0
 10
4.70612203
 20
5.44379699
  0
VERTEX
  8
0
 10
4.84502180
 20
5.50725422
  0
VERTEX
  8
0
 10
4.99599036
 20
5.55275837
  0
VERTEX
  8
0
 10
5.09892206
 20
5.59157497
  0
VERTEX
  8
0
 10
5.17841474
 20
5.63655255
  0
VERTEX
  8
0
 10
5.32932369
 20
5.71942504
  0
VERTEX
  8
0
 10
5.38849484
 20
5.67443050
  0
VERTEX
  8
0
 10
5.43009807
 20
5.61186869
  0
VERTEX
  8
0
 10
5.47339745
 20
5.55100173
  0
VERTEX
  8
0
 10
5.53765702
 20
5.51109171
  0
VERTEX
  8
0
 10
5.95432369
 20
6.01109171
  0
VERTEX
  8
0
 10
5.87405543
 20
6.02109960
  0
VERTEX
  8
0
 10
5.80865155
 20
6.04597251
  0
VERTEX
  8
0
 10
5.69043480
 20
6.10831393
  0
VERTEX
  8
0
 10
5.62970476
 20
6.02895589
  0
VERTEX
  8
0
 10
5.56487880
 20
5.96383710
  0
VERTEX
  8
0
 10
5.48644196
 20
5.91540116
  0
VERTEX
  8
0
 10
5.38487925
 20
5.88609171
  0
VERTEX
  8
0
 10
5.26852255
 20
5.88757494
  0
VERTEX
  8
0
 10
5.14876814
 20
5.88609171
  0
VERTEX
  8
0
 10
5.09637577
 20
5.86493410
  0
VERTEX
  8
0
 10
5.04987290
 20
5.83581626
  0
VERTEX
  8
0
 10
5.00420654
 20
5.81447503
  0
VERTEX
  8
0
 10
4.95432369
 20
5.81664726
  0
VERTEX
  8
0
 10
5.04832655
 20
5.87470880
  0
VERTEX
  8
0
 10
5.14876814
 20
5.91386948
  0
VERTEX
  8
0
 10
5.32204721
 20
5.92028692
  0
VERTEX
  8
0
 10
5.40458779
 20
5.92292957
  0
VERTEX
  8
0
 10
5.48210147
 20
5.94164726
  0
VERTEX
  8
0
 10
5.55550841
 20
5.98659448
  0
VERTEX
  8
0
 10
5.62561422
 20
6.05378328
  0
VERTEX
  8
0
 10
5.68299144
 20
6.13087629
  0
VERTEX
  8
0
 10
5.71821258
 20
6.20553615
  0
VERTEX
  8
0
 10
5.73463080
 20
6.30261468
  0
VERTEX
  8
0
 10
5.73090832
 20
6.40864769
  0
VERTEX
  8
0
 10
5.67654591
 20
6.63609171
  0
VERTEX
  8
0
 10
5.59637677
 20
6.63972644
  0
VERTEX
  8
0
 10
5.54802603
 20
6.61164039
  0
VERTEX
  8
0
 10
5.51185190
 20
6.57147445
  0
VERTEX
  8
0
 10
5.46821258
 20
6.53886948
  0
VERTEX
  8
0
 10
5.47435671
 20
6.57077837
  0
VERTEX
  8
0
 10
5.49083123
 20
6.59245203
  0
VERTEX
  8
0
 10
5.50641309
 20
6.61511219
  0
VERTEX
  8
0
 10
5.50987925
 20
6.64998060
  0
VERTEX
  8
0
 10
5.44167766
 20
6.63318658
  0
VERTEX
  8
0
 10
5.38153627
 20
6.60416383
  0
VERTEX
  8
0
 10
5.28765702
 20
6.52498060
  0
VERTEX
  8
0
 10
5.23736596
 20
6.43597112
  0
VERTEX
  8
0
 10
5.21266769
 20
6.39256509
  0
VERTEX
  8
0
 10
5.17654591
 20
6.35831393
  0
VERTEX
  8
0
 10
5.21349350
 20
6.46705891
  0
VERTEX
  8
0
 10
5.27862759
 20
6.54771123
  0
VERTEX
  8
0
 10
5.35522084
 20
6.61699823
  0
VERTEX
  8
0
 10
5.42654591
 20
6.69164726
  0
VERTEX
  8
0
 10
5.35778554
 20
6.70478849
  0
VERTEX
  8
0
 10
5.29173182
 20
6.70181110
  0
VERTEX
  8
0
 10
5.16789252
 20
6.66528397
  0
VERTEX
  8
0
 10
5.05532436
 20
6.61763293
  0
VERTEX
  8
0
 10
4.95432369
 20
6.59442504
  0
VERTEX
  8
0
 10
5.13045068
 20
6.68199404
  0
VERTEX
  8
0
 10
5.32932369
 20
6.74720282
  0
VERTEX
  8
0
 10
5.29682788
 20
6.76867929
  0
VERTEX
  8
0
 10
5.25988781
 20
6.77516444
  0
VERTEX
  8
0
 10
5.17929912
 20
6.75987911
  0
VERTEX
  8
0
 10
5.10080604
 20
6.73478341
  0
VERTEX
  8
0
 10
5.03765702
 20
6.73331393
  0
VERTEX
  8
0
 10
5.08486335
 20
6.76235559
  0
VERTEX
  8
0
 10
5.14372325
 20
6.77983571
  0
VERTEX
  8
0
 10
5.25987925
 20
6.81664726
  0
VERTEX
  8
0
 10
5.23536673
 20
6.86026805
  0
VERTEX
  8
0
 10
5.19950947
 20
6.87634706
  0
VERTEX
  8
0
 10
5.10466370
 20
6.85901331
  0
VERTEX
  8
0
 10
4.99714792
 20
6.83091321
  0
VERTEX
  8
0
 10
4.94545316
 20
6.83353426
  0
VERTEX
  8
0
 10
4.89876814
 20
6.85831393
  0
VERTEX
  8
0
 10
4.73195189
 20
6.72588605
  0
VERTEX
  8
0
 10
4.67286494
 20
6.64837186
  0
VERTEX
  8
0
 10
4.64876814
 20
6.55275837
  0
VERTEX
  8
0
 10
4.66216709
 20
6.48365550
  0
VERTEX
  8
0
 10
4.69633471
 20
6.41515723
  0
VERTEX
  8
0
 10
4.77376814
 20
6.26109171
  0
VERTEX
  8
0
 10
4.79706466
 20
6.15616972
  0
VERTEX
  8
0
 10
4.80729547
 20
6.05427616
  0
VERTEX
  8
0
 10
4.81812373
 20
5.95509593
  0
VERTEX
  8
0
 10
4.84321258
 20
5.85831393
  0
VERTEX
  8
0
 10
4.86214037
 20
5.83904793
  0
VERTEX
  8
0
 10
4.89041821
 20
5.82913067
  0
VERTEX
  8
0
 10
4.91592657
 20
5.81644393
  0
VERTEX
  8
0
 10
4.92654591
 20
5.78886948
  0
VERTEX
  8
0
 10
4.87526752
 20
5.80009109
  0
VERTEX
  8
0
 10
4.82932369
 20
5.81664726
  0
VERTEX
  8
0
 10
4.79800103
 20
5.89144699
  0
VERTEX
  8
0
 10
4.77376814
 20
5.96942504
  0
VERTEX
  8
0
 10
4.74954925
 20
6.14079168
  0
VERTEX
  8
0
 10
4.71381908
 20
6.28484560
  0
VERTEX
  8
0
 10
4.60710147
 20
6.53886948
  0
VERTEX
  8
0
 10
4.44177106
 20
6.30127809
  0
VERTEX
  8
0
 10
4.31388106
 20
6.02634144
  0
VERTEX
  8
0
 10
4.22843460
 20
5.70905769
  0
VERTEX
  8
0
 10
4.19043480
 20
5.34442504
  0
VERTEX
  8
0
 10
4.36269430
 20
5.26969923
  0
VERTEX
  8
0
 10
4.51420866
 20
5.17620289
  0
VERTEX
  8
0
 10
4.57714211
 20
5.11767392
  0
VERTEX
  8
0
 10
4.62883610
 20
5.04876208
  0
VERTEX
  8
0
 10
4.66727290
 20
4.96757062
  0
VERTEX
  8
0
 10
4.69043480
 20
4.87220282
  0
VERTEX
  8
0
 10
4.68729990
 20
4.73382082
  0
VERTEX
  8
0
 10
4.65880137
 20
4.59561557
  0
VERTEX
  8
0
 10
4.63570289
 20
4.45681505
  0
VERTEX
  8
0
 10
4.64876814
 20
4.31664726
  0
VERTEX
  8
0
 10
4.72706596
 20
4.33188744
  0
VERTEX
  8
0
 10
4.81543480
 20
4.33053615
  0
VERTEX
  8
0
 10
4.78493783
 20
4.47960480
  0
VERTEX
  8
0
 10
4.78665680
 20
4.56176635
  0
VERTEX
  8
0
 10
4.81543480
 20
4.62220282
  0
VERTEX
  8
0
 10
4.82450866
 20
4.49266453
  0
VERTEX
  8
0
 10
4.83251696
 20
4.41797169
  0
VERTEX
  8
0
 10
4.85710147
 20
4.35831393
  0
VERTEX
  8
0
 10
4.87876005
 20
4.61572477
  0
VERTEX
  8
0
 10
4.90618636
 20
4.75100643
  0
VERTEX
  8
0
 10
4.93177126
 20
4.80967375
  0
VERTEX
  8
0
 10
4.96821258
 20
4.85831393
  0
VERTEX
  8
0
 10
4.92528609
 20
4.69332286
  0
VERTEX
  8
0
 10
4.89876814
 20
4.49720282
  0
VERTEX
  8
0
 10
4.89744998
 20
4.38373050
  0
VERTEX
  8
0
 10
4.91336787
 20
4.33302247
  0
VERTEX
  8
0
 10
4.95432369
 20
4.30275837
  0
VERTEX
  8
0
 10
4.97547620
 20
4.37021210
  0
VERTEX
  8
0
 10
4.97674478
 20
4.44704751
  0
VERTEX
  8
0
 10
4.97374725
 20
4.52812725
  0
VERTEX
  8
0
 10
4.98210147
 20
4.60831393
  0
VERTEX
  8
0
 10
5.02447186
 20
4.68980949
  0
VERTEX
  8
0
 10
5.07932369
 20
4.76109171
  0
VERTEX
  8
0
 10
5.12441717
 20
4.84369144
  0
VERTEX
  8
0
 10
5.15265760
 20
4.87237445
  0
VERTEX
  8
0
 10
5.19043480
 20
4.87220282
  0
VERTEX
  8
0
 10
5.08775693
 20
4.72926887
  0
VERTEX
  8
0
 10
5.03906969
 20
4.63946251
  0
VERTEX
  8
0
 10
5.00987925
 20
4.53886948
  0
VERTEX
  8
0
 10
5.00246873
 20
4.40030255
  0
VERTEX
  8
0
 10
5.01625749
 20
4.32952449
  0
VERTEX
  8
0
 10
5.05154591
 20
4.27498060
  0
VERTEX
  8
0
 10
5.07605532
 20
4.41699317
  0
VERTEX
  8
0
 10
5.11193366
 20
4.54773328
  0
VERTEX
  8
0
 10
5.16622924
 20
4.66015259
  0
VERTEX
  8
0
 10
5.24599036
 20
4.74720282
  0
VERTEX
  8
0
 10
5.13629200
 20
4.52337546
  0
VERTEX
  8
0
 10
5.10149751
 20
4.39155118
  0
VERTEX
  8
0
 10
5.09321258
 20
4.23331393
  0
VERTEX
  8
0
 10
5.14808853
 20
4.18402321
  0
VERTEX
  8
0
 10
5.17812403
 20
4.16197538
  0
VERTEX
  8
0
 10
5.21821258
 20
4.14998060
  0
VERTEX
  8
0
 10
5.23106427
 20
4.23073423
  0
VERTEX
  8
0
 10
5.25658853
 20
4.29891175
  0
VERTEX
  8
0
 10
5.29417481
 20
4.35512369
  0
VERTEX
  8
0
 10
5.34321258
 20
4.39998060
  0
VERTEX
  8
0
 10
5.32086900
 20
4.33190042
  0
VERTEX
  8
0
 10
5.28853366
 20
4.27391105
  0
VERTEX
  8
0
 10
5.25923223
 20
4.21298423
  0
VERTEX
  8
0
 10
5.24599036
 20
4.13609171
  0
VERTEX
  8
0
 10
5.34126495
 20
4.19872111
  0
VERTEX
  8
0
 10
5.42018360
 20
4.27772861
  0
VERTEX
  8
0
 10
5.54988106
 20
4.46395255
  0
VERTEX
  8
0
 10
5.67693872
 20
4.65291273
  0
VERTEX
  8
0
 10
5.75255763
 20
4.73534054
  0
VERTEX
  8
0
 10
5.84321258
 20
4.80275837
  0
VERTEX
  8
0
 10
5.85411248
 20
5.07839491
  0
VERTEX
  8
0
 10
5.84157598
 20
5.18282041
  0
VERTEX
  8
0
 10
5.80154591
 20
5.27498060
  0
VERTEX
  8
0
 10
5.72431500
 20
5.35119966
  0
VERTEX
  8
0
 10
5.62533401
 20
5.40768935
  0
VERTEX
  8
0
 10
5.52418119
 20
5.46032466
  0
VERTEX
  8
0
 10
5.44043480
 20
5.52498060
  0
VERTEX
  8
0
 10
5.39309373
 20
5.61157512
  0
VERTEX
  8
0
 10
5.36952360
 20
5.65041060
  0
VERTEX
  8
0
 10
5.32932369
 20
5.67775837
  0
VERTEX
  8
0
 10
5.27458328
 20
5.65935654
  0
VERTEX
  8
0
 10
5.22877533
 20
5.62456140
  0
VERTEX
  8
0
 10
5.13487925
 20
5.55275837
  0
SEQEND
  0
POLYLINE
  8
Default_Layer
 66
   1
 39
0.000000
 70
    1
  0
VERTEX
  8
0
 10
4.16265702
 20
5.46942504
  0
VERTEX
  8
0
 10
4.21501863
 20
5.81275405
  0
VERTEX
  8
0
 10
4.31030293
 20
6.11325289
  0
VERTEX
  8
0
 10
4.37445045
 20
6.24703289
  0
VERTEX
  8
0
 10
4.44981984
 20
6.36961559
  0
VERTEX
  8
0
 10
4.53657486
 20
6.48083776
  0
VERTEX
  8
0
 10
4.63487925
 20
6.58053615
  0
VERTEX
  8
0
 10
4.64272067
 20
6.62864940
  0
VERTEX
  8
0
 10
4.66612099
 20
6.67056921
  0
VERTEX
  8
0
 10
4.68778933
 20
6.70566694
  0
VERTEX
  8
0
 10
4.69043480
 20
6.73331393
  0
VERTEX
  8
0
 10
4.48051965
 20
6.49126149
  0
VERTEX
  8
0
 10
4.38877028
 20
6.35234399
  0
VERTEX
  8
0
 10
4.30917811
 20
6.20118501
  0
VERTEX
  8
0
 10
4.24425691
 20
6.03754909
  0
VERTEX
  8
0
 10
4.19652047
 20
5.86120077
  0
VERTEX
  8
0
 10
4.16848258
 20
5.67190457
  0
VERTEX
  8
0
 10
4.16265702
 20
5.46942504
  0
SEQEND
  0
POLYLINE
  8
Default_Layer
 66
   1
 39
0.000000
 70
    1
  0
VERTEX
  8
0
 10
7.17654591
 20
6.63609171
  0
VERTEX
  8
0
 10
7.03948644
 20
6.58176470
  0
VERTEX
  8
0
 10
6.98918705
 20
6.54097913
  0
VERTEX
  8
0
 10
6.96821258
 20
6.48331393
  0
VERTEX
  8
0
 10
7.09546820
 20
6.49653633
  0
VERTEX
  8
0
 10
7.22703113
 20
6.48620654
  0
VERTEX
  8
0
 10
7.49615155
 20
6.42154230
  0
VERTEX
  8
0
 10
7.76171915
 20
6.34262499
  0
VERTEX
  8
0
 10
7.88884105
 20
6.31447886
  0
VERTEX
  8
0
 10
8.00987925
 20
6.30275837
  0
VERTEX
  8
0
 10
8.09546060
 20
6.31494626
  0
VERTEX
  8
0
 10
8.15921543
 20
6.35036348
  0
VERTEX
  8
0
 10
8.20732996
 20
6.40364482
  0
VERTEX
  8
0
 10
8.24599036
 20
6.46942504
  0
VERTEX
  8
0
 10
8.16860222
 20
6.57688607
  0
VERTEX
  8
0
 10
8.05699897
 20
6.65139281
  0
VERTEX
  8
0
 10
7.92024637
 20
6.69704702
  0
VERTEX
  8
0
 10
7.76741023
 20
6.71795046
  0
VERTEX
  8
0
 10
7.60755632
 20
6.71820490
  0
VERTEX
  8
0
 10
7.44975044
 20
6.70191208
  0
VERTEX
  8
0
 10
7.17654591
 20
6.63609171
  0
SEQEND
  0
POLYLINE
  8
Default_Layer
 66
   1
 39
0.000000
 70
    1
  0
VERTEX
  8
0
 10
6.60710147
 20
6.38609171
  0
VERTEX
  8
0
 10
6.57922724
 20
6.31655081
  0
VERTEX
  8
0
 10
6.55154591
 20
6.24720282
  0
VERTEX
  8
0
 10
6.59206251
 20
6.23241273
  0
VERTEX
  8
0
 10
6.63286509
 20
6.23954456
  0
VERTEX
  8
0
 10
6.71821258
 20
6.26109171
  0
VERTEX
  8
0
 10
6.83137186
 20
6.21721505
  0
VERTEX
  8
0
 10
6.89565528
 20
6.20841937
  0
VERTEX
  8
0
 10
6.96821258
 20
6.21942504
  0
VERTEX
  8
0
 10
6.85892099
 20
6.28374456
  0
VERTEX
  8
0
 10
6.80917423
 20
6.32080465
  0
VERTEX
  8
0
 10
6.77376814
 20
6.37220282
  0
VERTEX
  8
0
 10
6.85929530
 20
6.46009387
  0
VERTEX
  8
0
 10
6.95432369
 20
6.53886948
  0
VERTEX
  8
0
 10
6.96174790
 20
6.55943640
  0
VERTEX
  8
0
 10
6.94043480
 20
6.56664726
  0
VERTEX
  8
0
 10
6.79132637
 20
6.45861366
  0
VERTEX
  8
0
 10
6.70569196
 20
6.41582571
  0
VERTEX
  8
0
 10
6.60710147
 20
6.38609171
  0
SEQEND
  0
POLYLINE
  8
Default_Layer
 66
   1
 39
0.000000
 70
    1
  0
VERTEX
  8
0
 10
5.96821258
 20
5.99720282
  0
VERTEX
  8
0
 10
5.80983349
 20
5.79084769
  0
VERTEX
  8
0
 10
5.64876814
 20
5.59442504
  0
VERTEX
  8
0
 10
5.59822064
 20
5.53386557
  0
VERTEX
  8
0
 10
5.58639580
 20
5.49997985
  0
VERTEX
  8
0
 10
5.60710147
 20
5.46942504
  0
VERTEX
  8
0
 10
5.70454760
 20
5.61489376
  0
VERTEX
  8
0
 10
5.81383089
 20
5.74861852
  0
VERTEX
  8
0
 10
6.05154591
 20
5.99720282
  0
VERTEX
  8
0
 10
5.96821258
 20
5.99720282
  0
SEQEND
  0
POLYLINE
  8
Default_Layer
 66
   1
 39
0.000000
 70
    1
  0
VERTEX
  8
0
 10
6.94043480
 20
3.89998060
  0
VERTEX
  8
0
 10
6.96458991
 20
4.00954751
  0
VERTEX
  8
0
 10
6.98210147
 20
4.13609171
  0
VERTEX
  8
0
 10
7.05589825
 20
4.47585932
  0
VERTEX
  8
0
 10
7.14876814
 20
4.80275837
  0
VERTEX
  8
0
 10
7.23555569
 20
5.01374895
  0
VERTEX
  8
0
 10
7.33017481
 20
5.20316626
  0
VERTEX
  8
0
 10
7.41742392
 20
5.38335186
  0
VERTEX
  8
0
 10
7.48210147
 20
5.56664726
  0
VERTEX
  8
0
 10
7.28687985
 20
5.23921175
  0
VERTEX
  8
0
 10
7.10823054
 20
4.88772876
  0
VERTEX
  8
0
 10
6.94985003
 20
4.51806613
  0
VERTEX
  8
0
 10
6.81543480
 20
4.13609171
  0
VERTEX
  8
0
 10
6.73677116
 20
3.86925151
  0
VERTEX
  8
0
 10
6.69043480
 20
3.59442504
  0
VERTEX
  8
0
 10
6.73776598
 20
3.67482369
  0
VERTEX
  8
0
 10
6.80996231
 20
3.74707043
  0
VERTEX
  8
0
 10
6.88489489
 20
3.81938337
  0
VERTEX
  8
0
 10
6.94043480
 20
3.89998060
  0
SEQEND
  0
POLYLINE
  8
Default_Layer
 66
   1
 39
0.000000
 70
    1
  0
VERTEX
  8
0
 10
3.38487925
 20
5.02498060
  0
VERTEX
  8
0
 10
3.33081097
 20
4.88855850
  0
VERTEX
  8
0
 10
3.30261109
 20
4.77659647
  0
VERTEX
  8
0
 10
3.30860085
 20
4.67077095
  0
VERTEX
  8
0
 10
3.35710147
 20
4.55275837
  0
VERTEX
  8
0
 10
3.45144894
 20
4.40785272
  0
VERTEX
  8
0
 10
3.51021058
 20
4.35137686
  0
VERTEX
  8
0
 10
3.57932369
 20
4.31664726
  0
VERTEX
  8
0
 10
3.66091526
 20
4.31523883
  0
VERTEX
  8
0
 10
3.74599036
 20
4.31664726
  0
VERTEX
  8
0
 10
3.82618595
 20
4.28952564
  0
VERTEX
  8
0
 10
3.89256980
 20
4.24758560
  0
VERTEX
  8
0
 10
4.00240606
 20
4.14355185
  0
VERTEX
  8
0
 10
4.11250669
 20
4.05314914
  0
VERTEX
  8
0
 10
4.17922101
 20
4.02824790
  0
VERTEX
  8
0
 10
4.25987925
 20
4.02498060
  0
VERTEX
  8
0
 10
4.28765702
 20
4.12220282
  0
VERTEX
  8
0
 10
4.23078493
 20
4.17690522
  0
VERTEX
  8
0
 10
4.15607915
 20
4.22324699
  0
VERTEX
  8
0
 10
4.09160676
 20
4.27115001
  0
VERTEX
  8
0
 10
4.06543480
 20
4.33053615
  0
VERTEX
  8
0
 10
4.14104866
 20
4.29156668
  0
VERTEX
  8
0
 10
4.20548523
 20
4.24141991
  0
VERTEX
  8
0
 10
4.27281325
 20
4.19416459
  0
VERTEX
  8
0
 10
4.35710147
 20
4.16386948
  0
VERTEX
  8
0
 10
4.32689113
 20
4.25520550
  0
VERTEX
  8
0
 10
4.28765702
 20
4.34442504
  0
VERTEX
  8
0
 10
4.19410189
 20
4.44930880
  0
VERTEX
  8
0
 10
4.15309914
 20
4.49879059
  0
VERTEX
  8
0
 10
4.13487925
 20
4.55275837
  0
VERTEX
  8
0
 10
4.22129135
 20
4.47944663
  0
VERTEX
  8
0
 10
4.28747498
 20
4.38590706
  0
VERTEX
  8
0
 10
4.35027742
 20
4.28898760
  0
VERTEX
  8
0
 10
4.42654591
 20
4.20553615
  0
VERTEX
  8
0
 10
4.39696494
 20
4.35887814
  0
VERTEX
  8
0
 10
4.33250016
 20
4.50391158
  0
VERTEX
  8
0
 10
4.24561381
 20
4.63517397
  0
VERTEX
  8
0
 10
4.14876814
 20
4.74720282
  0
VERTEX
  8
0
 10
4.21497492
 20
4.71097791
  0
VERTEX
  8
0
 10
4.27001604
 20
4.66358831
  0
VERTEX
  8
0
 10
4.35490971
 20
4.54362217
  0
VERTEX
  8
0
 10
4.48210147
 20
4.26109171
  0
VERTEX
  8
0
 10
4.48011609
 20
4.40558749
  0
VERTEX
  8
0
 10
4.44649859
 20
4.52745585
  0
VERTEX
  8
0
 10
4.40637698
 20
4.63419769
  0
VERTEX
  8
0
 10
4.38487925
 20
4.73331393
  0
VERTEX
  8
0
 10
4.44584154
 20
4.64497139
  0
VERTEX
  8
0
 10
4.48258905
 20
4.53241522
  0
VERTEX
  8
0
 10
4.51214831
 20
4.41266952
  0
VERTEX
  8
0
 10
4.55154591
 20
4.30275837
  0
VERTEX
  8
0
 10
4.57194599
 20
4.31688501
  0
VERTEX
  8
0
 10
4.60710147
 20
4.31664726
  0
VERTEX
  8
0
 10
4.59362238
 20
4.47083065
  0
VERTEX
  8
0
 10
4.62065311
 20
4.59932164
  0
VERTEX
  8
0
 10
4.65479690
 20
4.72189211
  0
VERTEX
  8
0
 10
4.66265702
 20
4.85831393
  0
VERTEX
  8
0
 10
4.64098052
 20
4.94251394
  0
VERTEX
  8
0
 10
4.59990537
 20
5.02812546
  0
VERTEX
  8
0
 10
4.49599036
 20
5.16386948
  0
VERTEX
  8
0
 10
4.40187316
 20
5.22787571
  0
VERTEX
  8
0
 10
4.29119755
 20
5.27011505
  0
VERTEX
  8
0
 10
4.03765702
 20
5.31664726
  0
VERTEX
  8
0
 10
3.90838453
 20
5.36176334
  0
VERTEX
  8
0
 10
3.79171144
 20
5.43642894
  0
VERTEX
  8
0
 10
3.67995558
 20
5.50328703
  0
VERTEX
  8
0
 10
3.62352094
 20
5.52211420
  0
VERTEX
  8
0
 10
3.56543480
 20
5.52498060
  0
VERTEX
  8
0
 10
3.53049792
 20
5.38206236
  0
VERTEX
  8
0
 10
3.48686578
 20
5.26008571
  0
VERTEX
  8
0
 10
3.38487925
 20
5.02498060
  0
SEQEND
  0
POLYLINE
  8
Default_Layer
 66
   1
 39
0.000000
 70
    1
  0
VERTEX
  8
0
 10
5.35710147
 20
3.84442504
  0
VERTEX
  8
0
 10
5.48100641
 20
3.87878501
  0
VERTEX
  8
0
 10
5.54626272
 20
3.88309313
  0
VERTEX
  8
0
 10
5.59321258
 20
3.85831393
  0
VERTEX
  8
0
 10
5.53798946
 20
3.83579105
  0
VERTEX
  8
0
 10
5.46165155
 20
3.82837460
  0
VERTEX
  8
0
 10
5.38859415
 20
3.81162225
  0
VERTEX
  8
0
 10
5.36091918
 20
3.79210690
  0
VERTEX
  8
0
 10
5.34321258
 20
3.76109171
  0
VERTEX
  8
0
 10
5.42223895
 20
3.78816279
  0
VERTEX
  8
0
 10
5.49201225
 20
3.78705715
  0
VERTEX
  8
0
 10
5.55405404
 20
3.76452362
  0
VERTEX
  8
0
 10
5.60988592
 20
3.72731105
  0
VERTEX
  8
0
 10
5.70900626
 20
3.63584417
  0
VERTEX
  8
0
 10
5.80154591
 20
3.56664726
  0
VERTEX
  8
0
 10
5.88159109
 20
3.54422445
  0
VERTEX
  8
0
 10
5.96028332
 20
3.53790324
  0
VERTEX
  8
0
 10
6.04294018
 20
3.53206516
  0
VERTEX
  8
0
 10
6.13487925
 20
3.51109171
  0
VERTEX
  8
0
 10
6.18937262
 20
3.55584315
  0
VERTEX
  8
0
 10
6.22579807
 20
3.61174074
  0
VERTEX
  8
0
 10
6.26190300
 20
3.67286937
  0
VERTEX
  8
0
 10
6.31543480
 20
3.73331393
  0
VERTEX
  8
0
 10
6.38215350
 20
3.77606216
  0
VERTEX
  8
0
 10
6.45572603
 20
3.81038102
  0
VERTEX
  8
0
 10
6.52512516
 20
3.84783300
  0
VERTEX
  8
0
 10
6.57932369
 20
3.89998060
  0
VERTEX
  8
0
 10
6.61033273
 20
3.96551147
  0
VERTEX
  8
0
 10
6.63056266
 20
4.04344526
  0
VERTEX
  8
0
 10
6.66265702
 20
4.20553615
  0
VERTEX
  8
0
 10
6.70993748
 20
4.35968727
  0
VERTEX
  8
0
 10
6.72776262
 20
4.43485873
  0
VERTEX
  8
0
 10
6.73210147
 20
4.51109171
  0
VERTEX
  8
0
 10
6.67644946
 20
4.52297859
  0
VERTEX
  8
0
 10
6.62099036
 20
4.51109171
  0
VERTEX
  8
0
 10
6.45893019
 20
4.58708241
  0
VERTEX
  8
0
 10
6.31543480
 20
4.64998060
  0
VERTEX
  8
0
 10
6.24389495
 20
4.65589786
  0
VERTEX
  8
0
 10
6.17654591
 20
4.66386948
  0
VERTEX
  8
0
 10
6.13070984
 20
4.69341043
  0
VERTEX
  8
0
 10
6.09152915
 20
4.73208137
  0
VERTEX
  8
0
 10
6.05319018
 20
4.76789636
  0
VERTEX
  8
0
 10
6.00987925
 20
4.78886948
  0
VERTEX
  8
0
 10
5.90137446
 20
4.78484126
  0
VERTEX
  8
0
 10
5.80154591
 20
4.74720282
  0
VERTEX
  8
0
 10
5.68331439
 20
4.61548571
  0
VERTEX
  8
0
 10
5.57932369
 20
4.46942504
  0
VERTEX
  8
0
 10
5.54681908
 20
4.39215116
  0
VERTEX
  8
0
 10
5.50987925
 20
4.31664726
  0
VERTEX
  8
0
 10
5.40486700
 20
4.22171401
  0
VERTEX
  8
0
 10
5.35916843
 20
4.17827883
  0
VERTEX
  8
0
 10
5.32932369
 20
4.12220282
  0
VERTEX
  8
0
 10
5.28046179
 20
4.11531105
  0
VERTEX
  8
0
 10
5.26482303
 20
4.10322091
  0
VERTEX
  8
0
 10
5.25987925
 20
4.08053615
  0
VERTEX
  8
0
 10
5.31543480
 20
4.02498060
  0
VERTEX
  8
0
 10
5.38208605
 20
4.10446681
  0
VERTEX
  8
0
 10
5.46865519
 20
4.17363901
  0
VERTEX
  8
0
 10
5.56541969
 20
4.22403755
  0
VERTEX
  8
0
 10
5.66265702
 20
4.24720282
  0
VERTEX
  8
0
 10
5.47033210
 20
4.13031869
  0
VERTEX
  8
0
 10
5.38581125
 20
4.06429942
  0
VERTEX
  8
0
 10
5.35767034
 20
4.02614221
  0
VERTEX
  8
0
 10
5.34321258
 20
3.98331393
  0
VERTEX
  8
0
 10
5.40041789
 20
4.03845259
  0
VERTEX
  8
0
 10
5.48187793
 20
4.08554821
  0
VERTEX
  8
0
 10
5.66265702
 20
4.14998060
  0
VERTEX
  8
0
 10
5.75799443
 20
4.16952564
  0
VERTEX
  8
0
 10
5.80207512
 20
4.16438306
  0
VERTEX
  8
0
 10
5.82932369
 20
4.13609171
  0
VERTEX
  8
0
 10
5.80987032
 20
4.14384320
  0
VERTEX
  8
0
 10
5.78513106
 20
4.13985046
  0
VERTEX
  8
0
 10
5.71821258
 20
4.13609171
  0
VERTEX
  8
0
 10
5.61079473
 20
4.08666431
  0
VERTEX
  8
0
 10
5.49080103
 20
4.04040064
  0
VERTEX
  8
0
 10
5.39076309
 20
3.98295472
  0
VERTEX
  8
0
 10
5.35839368
 20
3.94555531
  0
VERTEX
  8
0
 10
5.34321258
 20
3.89998060
  0
VERTEX
  8
0
 10
5.40552709
 20
3.95038944
  0
VERTEX
  8
0
 10
5.50036300
 20
3.98515029
  0
VERTEX
  8
0
 10
5.59995704
 20
3.99815962
  0
VERTEX
  8
0
 10
5.67654591
 20
3.98331393
  0
VERTEX
  8
0
 10
5.58765804
 20
3.95353903
  0
VERTEX
  8
0
 10
5.48461266
 20
3.92853866
  0
VERTEX
  8
0
 10
5.39767279
 20
3.89620370
  0
VERTEX
  8
0
 10
5.36969963
 20
3.87350165
  0
VERTEX
  8
0
 10
5.35710147
 20
3.84442504
  0
SEQEND
  0
POLYLINE
  8
Default_Layer
 66
   1
 39
0.000000
 70
    1
  0
VERTEX
  8
0
 10
2.20432369
 20
4.42775837
  0
VERTEX
  8
0
 10
2.33430817
 20
4.38545986
  0
VERTEX
  8
0
 10
2.44778614
 20
4.32179589
  0
VERTEX
  8
0
 10
2.54808251
 20
4.24109105
  0
VERTEX
  8
0
 10
2.63852221
 20
4.14766991
  0
VERTEX
  8
0
 10
2.80313124
 20
3.93997705
  0
VERTEX
  8
0
 10
2.96821258
 20
3.73331393
  0
VERTEX
  8
0
 10
3.00954465
 20
3.79600385
  0
VERTEX
  8
0
 10
3.06487533
 20
3.84479161
  0
VERTEX
  8
0
 10
3.12048575
 20
3.89339608
  0
VERTEX
  8
0
 10
3.16265702
 20
3.95553615
  0
VERTEX
  8
0
 10
2.98313788
 20
4.15351631
  0
VERTEX
  8
0
 10
2.88348469
 20
4.25645610
  0
VERTEX
  8
0
 10
2.77450380
 20
4.34926592
  0
VERTEX
  8
0
 10
2.65414623
 20
4.42237339
  0
VERTEX
  8
0
 10
2.52036301
 20
4.46620620
  0
VERTEX
  8
0
 10
2.37110515
 20
4.47119197
  0
VERTEX
  8
0
 10
2.20432369
 20
4.42775837
  0
SEQEND
  0
POLYLINE
  8
Default_Layer
 66
   1
 39
0.000000
 70
    1
  0
VERTEX
  8
0
 10
1.84321258
 20
3.08053615
  0
VERTEX
  8
0
 10
1.83398471
 20
3.30057998
  0
VERTEX
  8
0
 10
1.82932369
 20
3.55275837
  0
VERTEX
  8
0
 10
1.86372173
 20
3.79135913
  0
VERTEX
  8
0
 10
1.92808401
 20
3.99922894
  0
VERTEX
  8
0
 10
2.01598280
 20
4.17830791
  0
VERTEX
  8
0
 10
2.12099036
 20
4.33053615
  0
VERTEX
  8
0
 10
2.15293540
 20
4.36131661
  0
VERTEX
  8
0
 10
2.16259712
 20
4.38200424
  0
VERTEX
  8
0
 10
2.14876814
 20
4.39998060
  0
VERTEX
  8
0
 10
2.07892453
 20
4.39328627
  0
VERTEX
  8
0
 10
2.02254946
 20
4.37322390
  0
VERTEX
  8
0
 10
1.91265702
 20
4.33053615
  0
VERTEX
  8
0
 10
1.84769849
 20
4.19926069
  0
VERTEX
  8
0
 10
1.80203106
 20
4.05396127
  0
VERTEX
  8
0
 10
1.77404890
 20
3.89808208
  0
VERTEX
  8
0
 10
1.76214616
 20
3.73506730
  0
VERTEX
  8
0
 10
1.78015558
 20
3.40140776
  0
VERTEX
  8
0
 10
1.84321258
 20
3.08053615
  0
SEQEND
  0
POLYLINE
  8
Default_Layer
 66
   1
 39
0.000000
 70
    1
  0
VERTEX
  8
0
 10
5.27376814
 20
3.99720282
  0
VERTEX
  8
0
 10
5.21730200
 20
4.07615335
  0
VERTEX
  8
0
 10
5.14484842
 20
4.13911644
  0
VERTEX
  8
0
 10
4.99599036
 20
4.26109171
  0
VERTEX
  8
0
 10
4.79387255
 20
4.28648571
  0
VERTEX
  8
0
 10
4.69849947
 20
4.29433480
  0
VERTEX
  8
0
 10
4.57932369
 20
4.28886948
  0
VERTEX
  8
0
 10
4.52726854
 20
4.23184159
  0
VERTEX
  8
0
 10
4.45843349
 20
4.19255463
  0
VERTEX
  8
0
 10
4.38754354
 20
4.15628621
  0
VERTEX
  8
0
 10
4.32932369
 20
4.10831393
  0
VERTEX
  8
0
 10
4.27574234
 20
3.99170828
  0
VERTEX
  8
0
 10
4.24599036
 20
3.87220282
  0
VERTEX
  8
0
 10
4.26157729
 20
3.80915055
  0
VERTEX
  8
0
 10
4.29056283
 20
3.74672633
  0
VERTEX
  8
0
 10
4.31115103
 20
3.67759591
  0
VERTEX
  8
0
 10
4.30154591
 20
3.59442504
  0
VERTEX
  8
0
 10
4.41265702
 20
3.45553615
  0
VERTEX
  8
0
 10
4.50874530
 20
3.35301435
  0
VERTEX
  8
0
 10
4.56470734
 20
3.32436616
  0
VERTEX
  8
0
 10
4.64876814
 20
3.30275837
  0
VERTEX
  8
0
 10
4.76084274
 20
3.29063925
  0
VERTEX
  8
0
 10
4.86089096
 20
3.29882824
  0
VERTEX
  8
0
 10
5.06543480
 20
3.35831393
  0
VERTEX
  8
0
 10
5.16426769
 20
3.48151036
  0
VERTEX
  8
0
 10
5.28765702
 20
3.58053615
  0
VERTEX
  8
0
 10
5.29313679
 20
3.70680272
  0
VERTEX
  8
0
 10
5.30154591
 20
3.83053615
  0
VERTEX
  8
0
 10
5.28514206
 20
3.83496564
  0
VERTEX
  8
0
 10
5.27844425
 20
3.84910116
  0
VERTEX
  8
0
 10
5.25987925
 20
3.87220282
  0
VERTEX
  8
0
 10
5.26542516
 20
3.93590845
  0
VERTEX
  8
0
 10
5.27376814
 20
3.99720282
  0
SEQEND
  0
POLYLINE
  8
Default_Layer
 66
   1
 39
0.000000
 70
    1
  0
VERTEX
  8
0
 10
4.10710147
 20
3.99720282
  0
VERTEX
  8
0
 10
3.92339182
 20
4.18498814
  0
VERTEX
  8
0
 10
3.81454788
 20
4.25416310
  0
VERTEX
  8
0
 10
3.67654591
 20
4.28886948
  0
VERTEX
  8
0
 10
3.55945463
 20
4.28067557
  0
VERTEX
  8
0
 10
3.45186769
 20
4.24234421
  0
VERTEX
  8
0
 10
3.36286986
 20
4.18213660
  0
VERTEX
  8
0
 10
3.30154591
 20
4.10831393
  0
VERTEX
  8
0
 10
3.24642655
 20
4.00017529
  0
VERTEX
  8
0
 10
3.17654591
 20
3.89998060
  0
VERTEX
  8
0
 10
3.08377325
 20
3.81896696
  0
VERTEX
  8
0
 10
2.99599036
 20
3.73331393
  0
VERTEX
  8
0
 10
2.94527229
 20
3.64638792
  0
VERTEX
  8
0
 10
2.90839790
 20
3.55230272
  0
VERTEX
  8
0
 10
2.85710147
 20
3.38609171
  0
VERTEX
  8
0
 10
2.95184217
 20
3.33659908
  0
VERTEX
  8
0
 10
3.03765702
 20
3.27498060
  0
VERTEX
  8
0
 10
3.12728245
 20
3.13344039
  0
VERTEX
  8
0
 10
3.17496359
 20
3.07012584
  0
VERTEX
  8
0
 10
3.24599036
 20
3.02498060
  0
VERTEX
  8
0
 10
3.31537399
 20
3.01133914
  0
VERTEX
  8
0
 10
3.39444165
 20
3.01349786
  0
VERTEX
  8
0
 10
3.56543480
 20
3.03886948
  0
VERTEX
  8
0
 10
3.57631391
 20
3.10345178
  0
VERTEX
  8
0
 10
3.60221832
 20
3.15445111
  0
VERTEX
  8
0
 10
3.64105597
 20
3.19367697
  0
VERTEX
  8
0
 10
3.69073482
 20
3.22293881
  0
VERTEX
  8
0
 10
3.81424794
 20
3.25880836
  0
VERTEX
  8
0
 10
3.95602134
 20
3.27653553
  0
VERTEX
  8
0
 10
4.09931864
 20
3.29059612
  0
VERTEX
  8
0
 10
4.22740348
 20
3.31546590
  0
VERTEX
  8
0
 10
4.32353951
 20
3.36562065
  0
VERTEX
  8
0
 10
4.35439660
 20
3.40470357
  0
VERTEX
  8
0
 10
4.37099036
 20
3.45553615
  0
VERTEX
  8
0
 10
4.32178336
 20
3.47206965
  0
VERTEX
  8
0
 10
4.27296353
 20
3.45554473
  0
VERTEX
  8
0
 10
4.22801822
 20
3.43554330
  0
VERTEX
  8
0
 10
4.19043480
 20
3.44164726
  0
VERTEX
  8
0
 10
4.21170676
 20
3.47287136
  0
VERTEX
  8
0
 10
4.25364894
 20
3.49275567
  0
VERTEX
  8
0
 10
4.28828961
 20
3.51139133
  0
VERTEX
  8
0
 10
4.28765702
 20
3.53886948
  0
VERTEX
  8
0
 10
4.20547221
 20
3.53329237
  0
VERTEX
  8
0
 10
4.10458679
 20
3.51290255
  0
VERTEX
  8
0
 10
3.92654591
 20
3.48331393
  0
VERTEX
  8
0
 10
3.95544506
 20
3.51211892
  0
VERTEX
  8
0
 10
3.99426863
 20
3.53103182
  0
VERTEX
  8
0
 10
4.08913592
 20
3.55143414
  0
VERTEX
  8
0
 10
4.18604154
 20
3.56902636
  0
VERTEX
  8
0
 10
4.25987925
 20
3.60831393
  0
VERTEX
  8
0
 10
4.14187859
 20
3.64676566
  0
VERTEX
  8
0
 10
4.01264894
 20
3.66042668
  0
VERTEX
  8
0
 10
3.88203445
 20
3.65497577
  0
VERTEX
  8
0
 10
3.75987925
 20
3.63609171
  0
VERTEX
  8
0
 10
3.59079512
 20
3.57254074
  0
VERTEX
  8
0
 10
3.51891257
 20
3.54067679
  0
VERTEX
  8
0
 10
3.45432369
 20
3.52498060
  0
VERTEX
  8
0
 10
3.52626140
 20
3.58108048
  0
VERTEX
  8
0
 10
3.61228697
 20
3.62509307
  0
VERTEX
  8
0
 10
3.81386630
 20
3.67988658
  0
VERTEX
  8
0
 10
4.03359100
 20
3.69542154
  0
VERTEX
  8
0
 10
4.24599036
 20
3.67775837
  0
VERTEX
  8
0
 10
4.16711657
 20
3.72705418
  0
VERTEX
  8
0
 10
4.05439686
 20
3.76394352
  0
VERTEX
  8
0
 10
3.92983501
 20
3.78551807
  0
VERTEX
  8
0
 10
3.81543480
 20
3.78886948
  0
VERTEX
  8
0
 10
3.73770276
 20
3.75985619
  0
VERTEX
  8
0
 10
3.70439782
 20
3.75339304
  0
VERTEX
  8
0
 10
3.67654591
 20
3.77498060
  0
VERTEX
  8
0
 10
3.80322972
 20
3.82017952
  0
VERTEX
  8
0
 10
3.94368609
 20
3.82183866
  0
VERTEX
  8
0
 10
4.08946127
 20
3.79659654
  0
VERTEX
  8
0
 10
4.23210147
 20
3.76109171
  0
VERTEX
  8
0
 10
4.21877556
 20
3.80505747
  0
VERTEX
  8
0
 10
4.19079332
 20
3.83436689
  0
VERTEX
  8
0
 10
4.10695398
 20
3.86511088
  0
VERTEX
  8
0
 10
4.01277171
 20
3.88551195
  0
VERTEX
  8
0
 10
3.94043480
 20
3.92775837
  0
VERTEX
  8
0
 10
3.99991698
 20
3.93178988
  0
VERTEX
  8
0
 10
4.06694217
 20
3.91847078
  0
VERTEX
  8
0
 10
4.20432369
 20
3.88609171
  0
VERTEX
  8
0
 10
4.21481856
 20
3.92401505
  0
VERTEX
  8
0
 10
4.21821258
 20
3.96942504
  0
VERTEX
  8
0
 10
4.10710147
 20
3.99720282
  0
SEQEND
  0
POLYLINE
  8
Default_Layer
 66
   1
 39
0.000000
 70
    1
  0
VERTEX
  8
0
 10
5.19043480
 20
3.42775837
  0
VERTEX
  8
0
 10
5.32865244
 20
3.32594543
  0
VERTEX
  8
0
 10
5.46235710
 20
3.21009335
  0
VERTEX
  8
0
 10
5.57468395
 20
3.08154600
  0
VERTEX
  8
0
 10
5.64876814
 20
2.94164726
  0
VERTEX
  8
0
 10
5.60496453
 20
2.96902106
  0
VERTEX
  8
0
 10
5.57004130
 20
3.00783866
  0
VERTEX
  8
0
 10
5.50987925
 20
3.09442504
  0
VERTEX
  8
0
 10
5.34936196
 20
3.27235255
  0
VERTEX
  8
0
 10
5.25195222
 20
3.34079137
  0
VERTEX
  8
0
 10
5.13487925
 20
3.38609171
  0
VERTEX
  8
0
 10
5.11800263
 20
3.35812017
  0
VERTEX
  8
0
 10
5.12060901
 20
3.33236730
  0
VERTEX
  8
0
 10
5.14876814
 20
3.27498060
  0
VERTEX
  8
0
 10
5.20432369
 20
3.13609171
  0
VERTEX
  8
0
 10
5.28581978
 20
3.05636973
  0
VERTEX
  8
0
 10
5.31623397
 20
3.01623988
  0
VERTEX
  8
0
 10
5.31543480
 20
2.96942504
  0
VERTEX
  8
0
 10
5.23685854
 20
3.04362199
  0
VERTEX
  8
0
 10
5.17673609
 20
3.13627668
  0
VERTEX
  8
0
 10
5.11999078
 20
3.23231110
  0
VERTEX
  8
0
 10
5.05154591
 20
3.31664726
  0
VERTEX
  8
0
 10
5.01870503
 20
3.28193193
  0
VERTEX
  8
0
 10
5.01027423
 20
3.24413148
  0
VERTEX
  8
0
 10
5.03956509
 20
3.16345741
  0
VERTEX
  8
0
 10
5.08526303
 20
3.08298938
  0
VERTEX
  8
0
 10
5.09734107
 20
3.04544648
  0
VERTEX
  8
0
 10
5.09321258
 20
3.01109171
  0
VERTEX
  8
0
 10
5.01175328
 20
3.12407633
  0
VERTEX
  8
0
 10
4.98521134
 20
3.19475784
  0
VERTEX
  8
0
 10
4.98210147
 20
3.28886948
  0
VERTEX
  8
0
 10
4.94178829
 20
3.28390040
  0
VERTEX
  8
0
 10
4.91256057
 20
3.26793970
  0
VERTEX
  8
0
 10
4.88338108
 20
3.25202722
  0
VERTEX
  8
0
 10
4.84321258
 20
3.24720282
  0
VERTEX
  8
0
 10
4.83364894
 20
3.14099155
  0
VERTEX
  8
0
 10
4.81197637
 20
3.03430741
  0
VERTEX
  8
0
 10
4.79203302
 20
2.92990431
  0
VERTEX
  8
0
 10
4.78765702
 20
2.83053615
  0
VERTEX
  8
0
 10
4.81113660
 20
2.73723990
  0
VERTEX
  8
0
 10
4.86149877
 20
2.64583692
  0
VERTEX
  8
0
 10
4.93049562
 20
2.57039467
  0
VERTEX
  8
0
 10
5.00987925
 20
2.52498060
  0
VERTEX
  8
0
 10
5.16762151
 20
2.50665324
  0
VERTEX
  8
0
 10
5.24567156
 20
2.49750162
  0
VERTEX
  8
0
 10
5.31543480
 20
2.46942504
  0
VERTEX
  8
0
 10
5.35941596
 20
2.42198189
  0
VERTEX
  8
0
 10
5.39876814
 20
2.35831393
  0
VERTEX
  8
0
 10
5.46890517
 20
2.34826629
  0
VERTEX
  8
0
 10
5.52917481
 20
2.32336817
  0
VERTEX
  8
0
 10
5.58674111
 20
2.29858182
  0
VERTEX
  8
0
 10
5.64876814
 20
2.28886948
  0
VERTEX
  8
0
 10
5.73181353
 20
2.31881783
  0
VERTEX
  8
0
 10
5.82932369
 20
2.37220282
  0
VERTEX
  8
0
 10
5.99518019
 20
2.42558692
  0
VERTEX
  8
0
 10
6.14876814
 20
2.48331393
  0
VERTEX
  8
0
 10
6.13547941
 20
2.60404077
  0
VERTEX
  8
0
 10
6.09601040
 20
2.71881505
  0
VERTEX
  8
0
 10
6.05514248
 20
2.83389432
  0
VERTEX
  8
0
 10
6.03765702
 20
2.95553615
  0
VERTEX
  8
0
 10
6.06498557
 20
3.10172043
  0
VERTEX
  8
0
 10
6.07959953
 20
3.17228354
  0
VERTEX
  8
0
 10
6.07932369
 20
3.24720282
  0
VERTEX
  8
0
 10
6.05895684
 20
3.31577171
  0
VERTEX
  8
0
 10
6.02708991
 20
3.37667060
  0
VERTEX
  8
0
 10
5.99356210
 20
3.43880782
  0
VERTEX
  8
0
 10
5.96821258
 20
3.51109171
  0
VERTEX
  8
0
 10
5.86692429
 20
3.51679669
  0
VERTEX
  8
0
 10
5.78342753
 20
3.55022104
  0
VERTEX
  8
0
 10
5.64646960
 20
3.65541800
  0
VERTEX
  8
0
 10
5.58133898
 20
3.70478569
  0
VERTEX
  8
0
 10
5.51066095
 20
3.73706292
  0
VERTEX
  8
0
 10
5.42860076
 20
3.74104723
  0
VERTEX
  8
0
 10
5.32932369
 20
3.70553615
  0
VERTEX
  8
0
 10
5.32932369
 20
3.55275837
  0
VERTEX
  8
0
 10
5.44800866
 20
3.52217494
  0
VERTEX
  8
0
 10
5.49695702
 20
3.50047061
  0
VERTEX
  8
0
 10
5.50987925
 20
3.46942504
  0
VERTEX
  8
0
 10
5.43320081
 20
3.47994587
  0
VERTEX
  8
0
 10
5.35584859
 20
3.50145307
  0
VERTEX
  8
0
 10
5.28606726
 20
3.50694626
  0
VERTEX
  8
0
 10
5.25659213
 20
3.49524997
  0
VERTEX
  8
0
 10
5.23210147
 20
3.46942504
  0
VERTEX
  8
0
 10
5.46821258
 20
3.37220282
  0
VERTEX
  8
0
 10
5.57686040
 20
3.31454369
  0
VERTEX
  8
0
 10
5.61824083
 20
3.27800685
  0
VERTEX
  8
0
 10
5.63487925
 20
3.23331393
  0
VERTEX
  8
0
 10
5.41271318
 20
3.34794647
  0
VERTEX
  8
0
 10
5.30000242
 20
3.39971483
  0
VERTEX
  8
0
 10
5.19043480
 20
3.42775837
  0
SEQEND
  0
POLYLINE
  8
Default_Layer
 66
   1
 39
0.000000
 70
    1
  0
VERTEX
  8
0
 10
4.62099036
 20
3.23331393
  0
VERTEX
  8
0
 10
4.55362666
 20
3.17206301
  0
VERTEX
  8
0
 10
4.50363071
 20
3.09353883
  0
VERTEX
  8
0
 10
4.45675904
 20
3.01198554
  0
VERTEX
  8
0
 10
4.39876814
 20
2.94164726
  0
VERTEX
  8
0
 10
4.41857644
 20
3.01938666
  0
VERTEX
  8
0
 10
4.45739599
 20
3.08766557
  0
VERTEX
  8
0
 10
4.49467939
 20
3.14890754
  0
VERTEX
  8
0
 10
4.50987925
 20
3.20553615
  0
VERTEX
  8
0
 10
4.42490571
 20
3.12118901
  0
VERTEX
  8
0
 10
4.34321258
 20
3.02498060
  0
VERTEX
  8
0
 10
4.28289998
 20
2.91148744
  0
VERTEX
  8
0
 10
4.25413966
 20
2.86275298
  0
VERTEX
  8
0
 10
4.21821258
 20
2.83053615
  0
VERTEX
  8
0
 10
4.27326279
 20
2.96631023
  0
VERTEX
  8
0
 10
4.34925172
 20
3.08124335
  0
VERTEX
  8
0
 10
4.52376814
 20
3.28886948
  0
VERTEX
  8
0
 10
4.42888499
 20
3.25860991
  0
VERTEX
  8
0
 10
4.35775814
 20
3.20468658
  0
VERTEX
  8
0
 10
4.23210147
 20
3.08053615
  0
VERTEX
  8
0
 10
4.26747538
 20
3.16654372
  0
VERTEX
  8
0
 10
4.32793123
 20
3.22756644
  0
VERTEX
  8
0
 10
4.39602776
 20
3.28104623
  0
VERTEX
  8
0
 10
4.45432369
 20
3.34442504
  0
VERTEX
  8
0
 10
4.42950155
 20
3.37515845
  0
VERTEX
  8
0
 10
4.39876814
 20
3.39998060
  0
VERTEX
  8
0
 10
4.33570336
 20
3.32200179
  0
VERTEX
  8
0
 10
4.25190713
 20
3.27736880
  0
VERTEX
  8
0
 10
4.15336155
 20
3.25608426
  0
VERTEX
  8
0
 10
4.04604877
 20
3.24815081
  0
VERTEX
  8
0
 10
3.82905009
 20
3.23234771
  0
VERTEX
  8
0
 10
3.73132846
 20
3.20448334
  0
VERTEX
  8
0
 10
3.64876814
 20
3.14998060
  0
VERTEX
  8
0
 10
3.60436109
 20
3.07054873
  0
VERTEX
  8
0
 10
3.58429912
 20
3.02625865
  0
VERTEX
  8
0
 10
3.55154591
 20
2.98331393
  0
VERTEX
  8
0
 10
3.55154591
 20
2.83053615
  0
VERTEX
  8
0
 10
3.63039755
 20
2.71594283
  0
VERTEX
  8
0
 10
3.66680033
 20
2.65445561
  0
VERTEX
  8
0
 10
3.69043480
 20
2.58053615
  0
VERTEX
  8
0
 10
3.69189293
 20
2.44778723
  0
VERTEX
  8
0
 10
3.67186752
 20
2.31262598
  0
VERTEX
  8
0
 10
3.66112575
 20
2.18294760
  0
VERTEX
  8
0
 10
3.66885097
 20
2.12263173
  0
VERTEX
  8
0
 10
3.69043480
 20
2.06664726
  0
VERTEX
  8
0
 10
3.83019311
 20
2.07801532
  0
VERTEX
  8
0
 10
3.97693762
 20
2.07470932
  0
VERTEX
  8
0
 10
4.27592394
 20
2.05684786
  0
VERTEX
  8
0
 10
4.42043513
 20
2.05867876
  0
VERTEX
  8
0
 10
4.55647125
 20
2.07860832
  0
VERTEX
  8
0
 10
4.68016699
 20
2.12482973
  0
VERTEX
  8
0
 10
4.78765702
 20
2.20553615
  0
VERTEX
  8
0
 10
4.81531737
 20
2.27369769
  0
VERTEX
  8
0
 10
4.86658349
 20
2.34518154
  0
VERTEX
  8
0
 10
4.92005305
 20
2.42323159
  0
VERTEX
  8
0
 10
4.95432369
 20
2.51109171
  0
VERTEX
  8
0
 10
4.82664599
 20
2.64169335
  0
VERTEX
  8
0
 10
4.77461268
 20
2.72128714
  0
VERTEX
  8
0
 10
4.74599036
 20
2.81664726
  0
VERTEX
  8
0
 10
4.74732572
 20
2.91755624
  0
VERTEX
  8
0
 10
4.76673887
 20
3.02117112
  0
VERTEX
  8
0
 10
4.78966665
 20
3.12669074
  0
VERTEX
  8
0
 10
4.80154591
 20
3.23331393
  0
VERTEX
  8
0
 10
4.72658228
 20
3.23650342
  0
VERTEX
  8
0
 10
4.67654591
 20
3.23331393
  0
VERTEX
  8
0
 10
4.65379942
 20
3.18647195
  0
VERTEX
  8
0
 10
4.64459894
 20
3.12617911
  0
VERTEX
  8
0
 10
4.63053861
 20
3.07084257
  0
VERTEX
  8
0
 10
4.59321258
 20
3.03886948
  0
VERTEX
  8
0
 10
4.59239185
 20
3.10386991
  0
VERTEX
  8
0
 10
4.61021960
 20
3.16691973
  0
VERTEX
  8
0
 10
4.62648829
 20
3.21455554
  0
VERTEX
  8
0
 10
4.62099036
 20
3.23331393
  0
SEQEND
  0
POLYLINE
  8
Default_Layer
 66
   1
 39
0.000000
 70
    1
  0
VERTEX
  8
0
 10
3.35710147
 20
2.96942504
  0
VERTEX
  8
0
 10
3.49685450
 20
2.65084734
  0
VERTEX
  8
0
 10
3.56595159
 20
2.49077614
  0
VERTEX
  8
0
 10
3.64876814
 20
2.34442504
  0
VERTEX
  8
0
 10
3.66792776
 20
2.44893805
  0
VERTEX
  8
0
 10
3.66029892
 20
2.53712403
  0
VERTEX
  8
0
 10
3.59837585
 20
2.68407425
  0
VERTEX
  8
0
 10
3.53039892
 20
2.82439430
  0
VERTEX
  8
0
 10
3.51520276
 20
2.90429259
  0
VERTEX
  8
0
 10
3.52376814
 20
2.99720282
  0
VERTEX
  8
0
 10
3.43445346
 20
2.98910237
  0
VERTEX
  8
0
 10
3.35710147
 20
2.96942504
  0
SEQEND
  0
ENDSEC
  0
EOF
