0
SECTION
2
ENTITIES
0
LINE
8
1
62
3
10
3.337122
20
0.01801
30
0.0
11
3.170992
21
0.041836
31
0.0
0
LINE
8
1
62
3
10
3.170992
20
0.041836
30
0.0
11
3.13378
21
0.052839
31
0.0
0
LINE
8
1
62
3
10
3.13378
20
0.052839
30
0.0
11
3.099098
21
0.069273
31
0.0
0
LINE
8
1
62
3
10
3.099098
20
0.069273
30
0.0
11
3.069707
21
0.083109
31
0.0
0
LINE
8
1
62
3
10
3.069707
20
0.083109
30
0.0
11
3.040571
21
0.09159
31
0.0
0
LINE
8
1
62
3
10
3.040571
20
0.09159
30
0.0
11
2.9279
21
0.103517
31
0.0
0
LINE
8
1
62
3
10
2.9279
20
0.103517
30
0.0
11
2.786789
21
0.116992
31
0.0
0
LINE
8
1
62
3
10
2.786789
20
0.116992
30
0.0
11
2.462233
21
0.159957
31
0.0
0
LINE
8
1
62
3
10
2.462233
20
0.159957
30
0.0
11
2.155317
21
0.199303
31
0.0
0
LINE
8
1
62
3
10
2.155317
20
0.199303
30
0.0
11
1.876615
21
0.190971
31
0.0
0
LINE
8
1
62
3
10
1.876615
20
0.190971
30
0.0
11
1.593437
21
0.187557
31
0.0
0
LINE
8
1
62
3
10
1.593437
20
0.187557
30
0.0
11
1.477076
21
0.19157
31
0.0
0
LINE
8
1
62
3
10
1.477076
20
0.19157
30
0.0
11
1.369884
21
0.200212
31
0.0
0
LINE
8
1
62
3
10
1.369884
20
0.200212
30
0.0
11
1.266123
21
0.214096
31
0.0
0
LINE
8
1
62
3
10
1.266123
20
0.214096
30
0.0
11
1.160056
21
0.233836
31
0.0
0
LINE
8
1
62
3
10
1.160056
20
0.233836
30
0.0
11
1.045944
21
0.260043
31
0.0
0
LINE
8
1
62
3
10
1.045944
20
0.260043
30
0.0
11
0.91805
21
0.293331
31
0.0
0
LINE
8
1
62
3
10
0.91805
20
0.293331
30
0.0
11
0.859719
21
0.305994
31
0.0
0
LINE
8
1
62
3
10
0.859719
20
0.305994
30
0.0
11
0.812217
21
0.311315
31
0.0
0
LINE
8
1
62
3
10
0.812217
20
0.311315
30
0.0
11
0.767143
21
0.313825
31
0.0
0
LINE
8
1
62
3
10
0.767143
20
0.313825
30
0.0
11
0.721021
21
0.320893
31
0.0
0
LINE
8
1
62
3
10
0.721021
20
0.320893
30
0.0
11
0.674854
21
0.33214
31
0.0
0
LINE
8
1
62
3
10
0.674854
20
0.33214
30
0.0
11
0.62965
21
0.347184
31
0.0
0
LINE
8
1
62
3
10
0.62965
20
0.347184
30
0.0
11
0.586412
21
0.365645
31
0.0
0
LINE
8
1
62
3
10
0.586412
20
0.365645
30
0.0
11
0.546145
21
0.387142
31
0.0
0
LINE
8
1
62
3
10
0.546145
20
0.387142
30
0.0
11
0.509856
21
0.411295
31
0.0
0
LINE
8
1
62
3
10
0.509856
20
0.411295
30
0.0
11
0.478548
21
0.437721
31
0.0
0
LINE
8
1
62
3
10
0.478548
20
0.437721
30
0.0
11
0.432935
21
0.47569
31
0.0
0
LINE
8
1
62
3
10
0.432935
20
0.47569
30
0.0
11
0.411514
21
0.486219
31
0.0
0
LINE
8
1
62
3
10
0.411514
20
0.486219
30
0.0
11
0.384372
21
0.495166
31
0.0
0
LINE
8
1
62
3
10
0.384372
20
0.495166
30
0.0
11
0.269283
21
0.533196
31
0.0
0
LINE
8
1
62
3
10
0.269283
20
0.533196
30
0.0
11
0.237813
21
0.549729
31
0.0
0
LINE
8
1
62
3
10
0.237813
20
0.549729
30
0.0
11
0.214143
21
0.56875
31
0.0
0
LINE
8
1
62
3
10
0.214143
20
0.56875
30
0.0
11
0.189106
21
0.600482
31
0.0
0
LINE
8
1
62
3
10
0.189106
20
0.600482
30
0.0
11
0.169104
21
0.649846
31
0.0
0
LINE
8
1
62
3
10
0.169104
20
0.649846
30
0.0
11
0.14962
21
0.731863
31
0.0
0
LINE
8
1
62
3
10
0.14962
20
0.731863
30
0.0
11
0.126141
21
0.861556
31
0.0
0
LINE
8
1
62
3
10
0.126141
20
0.861556
30
0.0
11
0.104375
21
0.986391
31
0.0
0
LINE
8
1
62
3
10
0.104375
20
0.986391
30
0.0
11
0.089229
21
1.057863
31
0.0
0
LINE
8
1
62
3
10
0.089229
20
1.057863
30
0.0
11
0.0747
21
1.098689
31
0.0
0
LINE
8
1
62
3
10
0.0747
20
1.098689
30
0.0
11
0.054786
21
1.131584
31
0.0
0
LINE
8
1
62
3
10
0.054786
20
1.131584
30
0.0
11
0.031788
21
1.169433
31
0.0
0
LINE
8
1
62
3
10
0.031788
20
1.169433
30
0.0
11
0.017051
21
1.203967
31
0.0
0
LINE
8
1
62
3
10
0.017051
20
1.203967
30
0.0
11
0.00921
21
1.239419
31
0.0
0
LINE
8
1
62
3
10
0.00921
20
1.239419
30
0.0
11
0.0069
21
1.280021
31
0.0
0
LINE
8
1
62
3
10
0.0069
20
1.280021
30
0.0
11
0.010245
21
1.323044
31
0.0
0
LINE
8
1
62
3
10
0.010245
20
1.323044
30
0.0
11
0.021615
21
1.359125
31
0.0
0
LINE
8
1
62
3
10
0.021615
20
1.359125
30
0.0
11
0.043012
21
1.39251
31
0.0
0
LINE
8
1
62
3
10
0.043012
20
1.39251
30
0.0
11
0.076439
21
1.427443
31
0.0
0
LINE
8
1
62
3
10
0.076439
20
1.427443
30
0.0
11
0.115475
21
1.459456
31
0.0
0
LINE
8
1
62
3
10
0.115475
20
1.459456
30
0.0
11
0.159789
21
1.486803
31
0.0
0
LINE
8
1
62
3
10
0.159789
20
1.486803
30
0.0
11
0.214417
21
1.512167
31
0.0
0
LINE
8
1
62
3
10
0.214417
20
1.512167
30
0.0
11
0.284397
21
1.53823
31
0.0
0
LINE
8
1
62
3
10
0.284397
20
1.53823
30
0.0
11
0.405376
21
1.576653
31
0.0
0
LINE
8
1
62
3
10
0.405376
20
1.576653
30
0.0
11
0.521671
21
1.60597
31
0.0
0
LINE
8
1
62
3
10
0.521671
20
1.60597
30
0.0
11
0.645746
21
1.628889
31
0.0
0
LINE
8
1
62
3
10
0.645746
20
1.628889
30
0.0
11
0.790067
21
1.64812
31
0.0
0
LINE
8
1
62
3
10
0.790067
20
1.64812
30
0.0
11
0.877961
21
1.659298
31
0.0
0
LINE
8
1
62
3
10
0.877961
20
1.659298
30
0.0
11
0.931015
21
1.673403
31
0.0
0
LINE
8
1
62
3
10
0.931015
20
1.673403
30
0.0
11
0.951559
21
1.684647
31
0.0
0
LINE
8
1
62
3
10
0.951559
20
1.684647
30
0.0
11
0.971894
21
1.700337
31
0.0
0
LINE
8
1
62
3
10
0.971894
20
1.700337
30
0.0
11
1.023264
21
1.750004
31
0.0
0
LINE
8
1
62
3
10
1.023264
20
1.750004
30
0.0
11
1.1109
21
1.829827
31
0.0
0
LINE
8
1
62
3
10
1.1109
20
1.829827
30
0.0
11
1.155796
21
1.862793
31
0.0
0
LINE
8
1
62
3
10
1.155796
20
1.862793
30
0.0
11
1.205485
21
1.893435
31
0.0
0
LINE
8
1
62
3
10
1.205485
20
1.893435
30
0.0
11
1.26302
21
1.92348
31
0.0
0
LINE
8
1
62
3
10
1.26302
20
1.92348
30
0.0
11
1.331458
21
1.95466
31
0.0
0
LINE
8
1
62
3
10
1.331458
20
1.95466
30
0.0
11
1.513261
21
2.027336
31
0.0
0
LINE
8
1
62
3
10
1.513261
20
2.027336
30
0.0
11
1.682914
21
2.087144
31
0.0
0
LINE
8
1
62
3
10
1.682914
20
2.087144
30
0.0
11
1.831097
21
2.131171
31
0.0
0
LINE
8
1
62
3
10
1.831097
20
2.131171
30
0.0
11
1.856558
21
2.142
31
0.0
0
LINE
8
1
62
3
10
1.856558
20
2.142
30
0.0
11
1.877668
21
2.157902
31
0.0
0
LINE
8
1
62
3
10
1.877668
20
2.157902
30
0.0
11
1.906504
21
2.208991
31
0.0
0
LINE
8
1
62
3
10
1.906504
20
2.208991
30
0.0
11
1.950538
21
2.304417
31
0.0
0
LINE
8
1
62
3
10
1.950538
20
2.304417
30
0.0
11
2.018513
21
2.456171
31
0.0
0
LINE
8
1
62
3
10
2.018513
20
2.456171
30
0.0
11
2.069638
21
2.550818
31
0.0
0
LINE
8
1
62
3
10
2.069638
20
2.550818
30
0.0
11
2.093077
21
2.583219
31
0.0
0
LINE
8
1
62
3
10
2.093077
20
2.583219
30
0.0
11
2.117336
21
2.609133
31
0.0
0
LINE
8
1
62
3
10
2.117336
20
2.609133
30
0.0
11
2.144094
21
2.631156
31
0.0
0
LINE
8
1
62
3
10
2.144094
20
2.631156
30
0.0
11
2.175027
21
2.651887
31
0.0
0
LINE
8
1
62
3
10
2.175027
20
2.651887
30
0.0
11
2.232253
21
2.683937
31
0.0
0
LINE
8
1
62
3
10
2.232253
20
2.683937
30
0.0
11
2.291369
21
2.707714
31
0.0
0
LINE
8
1
62
3
10
2.291369
20
2.707714
30
0.0
11
2.363233
21
2.726769
31
0.0
0
LINE
8
1
62
3
10
2.363233
20
2.726769
30
0.0
11
2.458705
21
2.744654
31
0.0
0
LINE
8
1
62
3
10
2.458705
20
2.744654
30
0.0
11
2.601024
21
2.76634
31
0.0
0
LINE
8
1
62
3
10
2.601024
20
2.76634
30
0.0
11
2.738477
21
2.777947
31
0.0
0
LINE
8
1
62
3
10
2.738477
20
2.777947
30
0.0
11
2.937127
21
2.782689
31
0.0
0
LINE
8
1
62
3
10
2.937127
20
2.782689
30
0.0
11
3.263039
21
2.783777
31
0.0
0
LINE
8
1
62
3
10
3.263039
20
2.783777
30
0.0
11
3.585804
21
2.782962
31
0.0
0
LINE
8
1
62
3
10
3.585804
20
2.782962
30
0.0
11
3.810773
21
2.778641
31
0.0
0
LINE
8
1
62
3
10
3.810773
20
2.778641
30
0.0
11
3.992062
21
2.768945
31
0.0
0
LINE
8
1
62
3
10
3.992062
20
2.768945
30
0.0
11
4.183789
21
2.752009
31
0.0
0
LINE
8
1
62
3
10
4.183789
20
2.752009
30
0.0
11
4.304652
21
2.73725
31
0.0
0
LINE
8
1
62
3
10
4.304652
20
2.73725
30
0.0
11
4.428852
21
2.717365
31
0.0
0
LINE
8
1
62
3
10
4.428852
20
2.717365
30
0.0
11
4.539343
21
2.695394
31
0.0
0
LINE
8
1
62
3
10
4.539343
20
2.695394
30
0.0
11
4.619081
21
2.674376
31
0.0
0
LINE
8
1
62
3
10
4.619081
20
2.674376
30
0.0
11
4.655254
21
2.658995
31
0.0
0
LINE
8
1
62
3
10
4.655254
20
2.658995
30
0.0
11
4.691425
21
2.637798
31
0.0
0
LINE
8
1
62
3
10
4.691425
20
2.637798
30
0.0
11
4.723688
21
2.613387
31
0.0
0
LINE
8
1
62
3
10
4.723688
20
2.613387
30
0.0
11
4.748136
21
2.588365
31
0.0
0
LINE
8
1
62
3
10
4.748136
20
2.588365
30
0.0
11
4.77779
21
2.537986
31
0.0
0
LINE
8
1
62
3
10
4.77779
20
2.537986
30
0.0
11
4.807345
21
2.463695
31
0.0
0
LINE
8
1
62
3
10
4.807345
20
2.463695
30
0.0
11
4.835599
21
2.369008
31
0.0
0
LINE
8
1
62
3
10
4.835599
20
2.369008
30
0.0
11
4.861349
21
2.257439
31
0.0
0
LINE
8
1
62
3
10
4.861349
20
2.257439
30
0.0
11
4.883798
21
2.16254
31
0.0
0
LINE
8
1
62
3
10
4.883798
20
2.16254
30
0.0
11
4.89475
21
2.134001
31
0.0
0
LINE
8
1
62
3
10
4.89475
20
2.134001
30
0.0
11
4.908376
21
2.109057
31
0.0
0
LINE
8
1
62
3
10
4.908376
20
2.109057
30
0.0
11
4.942648
21
2.06068
31
0.0
0
LINE
8
1
62
3
10
4.942648
20
2.06068
30
0.0
11
4.964931
21
2.055479
31
0.0
0
LINE
8
1
62
3
10
4.964931
20
2.055479
30
0.0
11
5.015538
21
2.049773
31
0.0
0
LINE
8
1
62
3
10
5.015538
20
2.049773
30
0.0
11
5.173895
21
2.038442
31
0.0
0
LINE
8
1
62
3
10
5.173895
20
2.038442
30
0.0
11
5.362052
21
2.029881
31
0.0
0
LINE
8
1
62
3
10
5.362052
20
2.029881
30
0.0
11
5.524344
21
2.027287
31
0.0
0
LINE
8
1
62
3
10
5.524344
20
2.027287
30
0.0
11
5.640933
21
2.026929
31
0.0
0
LINE
8
1
62
3
10
5.640933
20
2.026929
30
0.0
11
5.698318
21
2.023591
31
0.0
0
LINE
8
1
62
3
10
5.698318
20
2.023591
30
0.0
11
5.712229
21
2.0156
31
0.0
0
LINE
8
1
62
3
10
5.712229
20
2.0156
30
0.0
11
5.716156
21
2.003908
31
0.0
0
LINE
8
1
62
3
10
5.716156
20
2.003908
30
0.0
11
5.709951
21
1.986645
31
0.0
0
LINE
8
1
62
3
10
5.709951
20
1.986645
30
0.0
11
5.693468
21
1.961941
31
0.0
0
LINE
8
1
62
3
10
5.693468
20
1.961941
30
0.0
11
5.668678
21
1.923772
31
0.0
0
LINE
8
1
62
3
10
5.668678
20
1.923772
30
0.0
11
5.653613
21
1.888198
31
0.0
0
LINE
8
1
62
3
10
5.653613
20
1.888198
30
0.0
11
5.647862
21
1.853839
31
0.0
0
LINE
8
1
62
3
10
5.647862
20
1.853839
30
0.0
11
5.651015
21
1.819315
31
0.0
0
LINE
8
1
62
3
10
5.651015
20
1.819315
30
0.0
11
5.663623
21
1.782538
31
0.0
0
LINE
8
1
62
3
10
5.663623
20
1.782538
30
0.0
11
5.682869
21
1.746087
31
0.0
0
LINE
8
1
62
3
10
5.682869
20
1.746087
30
0.0
11
5.701168
21
1.712493
31
0.0
0
LINE
8
1
62
3
10
5.701168
20
1.712493
30
0.0
11
5.711502
21
1.682587
31
0.0
0
LINE
8
1
62
3
10
5.711502
20
1.682587
30
0.0
11
5.718492
21
1.658047
31
0.0
0
LINE
8
1
62
3
10
5.718492
20
1.658047
30
0.0
11
5.728752
21
1.637356
31
0.0
0
LINE
8
1
62
3
10
5.728752
20
1.637356
30
0.0
11
5.739745
21
1.607624
31
0.0
0
LINE
8
1
62
3
10
5.739745
20
1.607624
30
0.0
11
5.746097
21
1.559257
31
0.0
0
LINE
8
1
62
3
10
5.746097
20
1.559257
30
0.0
11
5.747474
21
1.497017
31
0.0
0
LINE
8
1
62
3
10
5.747474
20
1.497017
30
0.0
11
5.743544
21
1.425668
31
0.0
0
LINE
8
1
62
3
10
5.743544
20
1.425668
30
0.0
11
5.735836
21
1.367839
31
0.0
0
LINE
8
1
62
3
10
5.735836
20
1.367839
30
0.0
11
5.722613
21
1.320933
31
0.0
0
LINE
8
1
62
3
10
5.722613
20
1.320933
30
0.0
11
5.700939
21
1.277332
31
0.0
0
LINE
8
1
62
3
10
5.700939
20
1.277332
30
0.0
11
5.667877
21
1.229419
31
0.0
0
LINE
8
1
62
3
10
5.667877
20
1.229419
30
0.0
11
5.650197
21
1.200143
31
0.0
0
LINE
8
1
62
3
10
5.650197
20
1.200143
30
0.0
11
5.640331
21
1.172974
31
0.0
0
LINE
8
1
62
3
10
5.640331
20
1.172974
30
0.0
11
5.613231
21
1.052489
31
0.0
0
LINE
8
1
62
3
10
5.613231
20
1.052489
30
0.0
11
5.597083
21
0.998459
31
0.0
0
LINE
8
1
62
3
10
5.597083
20
0.998459
30
0.0
11
5.582776
21
0.96169
31
0.0
0
LINE
8
1
62
3
10
5.582776
20
0.96169
30
0.0
11
5.561468
21
0.927174
31
0.0
0
LINE
8
1
62
3
10
5.561468
20
0.927174
30
0.0
11
5.535636
21
0.899505
31
0.0
0
LINE
8
1
62
3
10
5.535636
20
0.899505
30
0.0
11
5.505181
21
0.878598
31
0.0
0
LINE
8
1
62
3
10
5.505181
20
0.878598
30
0.0
11
5.470002
21
0.864366
31
0.0
0
LINE
8
1
62
3
10
5.470002
20
0.864366
30
0.0
11
5.419356
21
0.855685
31
0.0
0
LINE
8
1
62
3
10
5.419356
20
0.855685
30
0.0
11
5.337419
21
0.857137
31
0.0
0
LINE
8
1
62
3
10
5.337419
20
0.857137
30
0.0
11
5.203317
21
0.869135
31
0.0
0
LINE
8
1
62
3
10
5.203317
20
0.869135
30
0.0
11
5.178738
21
0.872788
31
0.0
0
LINE
8
1
62
3
10
5.178738
20
0.872788
30
0.0
11
5.161251
21
0.872408
31
0.0
0
LINE
8
1
62
3
10
5.161251
20
0.872408
30
0.0
11
5.144105
21
0.866837
31
0.0
0
LINE
8
1
62
3
10
5.144105
20
0.866837
30
0.0
11
5.120547
21
0.854915
31
0.0
0
LINE
8
1
62
3
10
5.120547
20
0.854915
30
0.0
11
5.072271
21
0.833334
31
0.0
0
LINE
8
1
62
3
10
5.072271
20
0.833334
30
0.0
11
4.957485
21
0.770592
31
0.0
0
LINE
8
1
62
3
10
4.957485
20
0.770592
30
0.0
11
4.762344
21
0.661852
31
0.0
0
LINE
8
1
62
3
10
4.762344
20
0.661852
30
0.0
11
4.667871
21
0.616685
31
0.0
0
LINE
8
1
62
3
10
4.667871
20
0.616685
30
0.0
11
4.561686
21
0.57176
31
0.0
0
LINE
8
1
62
3
10
4.561686
20
0.57176
30
0.0
11
4.466753
21
0.53626
31
0.0
0
LINE
8
1
62
3
10
4.466753
20
0.53626
30
0.0
11
4.406039
21
0.519368
31
0.0
0
LINE
8
1
62
3
10
4.406039
20
0.519368
30
0.0
11
4.363599
21
0.512903
31
0.0
0
LINE
8
1
62
3
10
4.363599
20
0.512903
30
0.0
11
4.333928
21
0.502522
31
0.0
0
LINE
8
1
62
3
10
4.333928
20
0.502522
30
0.0
11
4.304845
21
0.481769
31
0.0
0
LINE
8
1
62
3
10
4.304845
20
0.481769
30
0.0
11
4.264165
21
0.44419
31
0.0
0
LINE
8
1
62
3
10
4.264165
20
0.44419
30
0.0
11
4.216498
21
0.401312
31
0.0
0
LINE
8
1
62
3
10
4.216498
20
0.401312
30
0.0
11
4.180621
21
0.3754
31
0.0
0
LINE
8
1
62
3
10
4.180621
20
0.3754
30
0.0
11
4.153831
21
0.364882
31
0.0
0
LINE
8
1
62
3
10
4.153831
20
0.364882
30
0.0
11
4.133426
21
0.368188
31
0.0
0
LINE
8
1
62
3
10
4.133426
20
0.368188
30
0.0
11
4.12232
21
0.379242
31
0.0
0
LINE
8
1
62
3
10
4.12232
20
0.379242
30
0.0
11
4.122558
21
0.400082
31
0.0
0
LINE
8
1
62
3
10
4.122558
20
0.400082
30
0.0
11
4.121862
21
0.422893
31
0.0
0
LINE
8
1
62
3
10
4.121862
20
0.422893
30
0.0
11
4.103918
21
0.441261
31
0.0
0
LINE
8
1
62
3
10
4.103918
20
0.441261
30
0.0
11
4.07749
21
0.455057
31
0.0
0
LINE
8
1
62
3
10
4.07749
20
0.455057
30
0.0
11
4.0447
21
0.463315
31
0.0
0
LINE
8
1
62
3
10
4.0447
20
0.463315
30
0.0
11
4.0166
21
0.469403
31
0.0
0
LINE
8
1
62
3
10
4.0166
20
0.469403
30
0.0
11
3.998846
21
0.480295
31
0.0
0
LINE
8
1
62
3
10
3.998846
20
0.480295
30
0.0
11
3.989075
21
0.498485
31
0.0
0
LINE
8
1
62
3
10
3.989075
20
0.498485
30
0.0
11
3.984926
21
0.526468
31
0.0
0
LINE
8
1
62
3
10
3.984926
20
0.526468
30
0.0
11
3.981389
21
0.551347
31
0.0
0
LINE
8
1
62
3
10
3.981389
20
0.551347
30
0.0
11
3.976004
21
0.561695
31
0.0
0
LINE
8
1
62
3
10
3.976004
20
0.561695
30
0.0
11
3.966798
21
0.534751
31
0.0
0
LINE
8
1
62
3
10
3.966798
20
0.534751
30
0.0
11
3.954075
21
0.469973
31
0.0
0
LINE
8
1
62
3
10
3.954075
20
0.469973
30
0.0
11
3.9375
21
0.389166
31
0.0
0
LINE
8
1
62
3
10
3.9375
20
0.389166
30
0.0
11
3.915754
21
0.31418
31
0.0
0
LINE
8
1
62
3
10
3.915754
20
0.31418
30
0.0
11
3.889214
21
0.245674
31
0.0
0
LINE
8
1
62
3
10
3.889214
20
0.245674
30
0.0
11
3.858257
21
0.184303
31
0.0
0
LINE
8
1
62
3
10
3.858257
20
0.184303
30
0.0
11
3.823261
21
0.130727
31
0.0
0
LINE
8
1
62
3
10
3.823261
20
0.130727
30
0.0
11
3.784601
21
0.085601
31
0.0
0
LINE
8
1
62
3
10
3.784601
20
0.085601
30
0.0
11
3.742656
21
0.049583
31
0.0
0
LINE
8
1
62
3
10
3.742656
20
0.049583
30
0.0
11
3.697802
21
0.023332
31
0.0
0
LINE
8
1
62
3
10
3.697802
20
0.023332
30
0.0
11
3.673269
21
0.01468
31
0.0
0
LINE
8
1
62
3
10
3.673269
20
0.01468
30
0.0
11
3.642532
21
0.008305
31
0.0
0
LINE
8
1
62
3
10
3.642532
20
0.008305
30
0.0
11
3.563108
21
0.002396
31
0.0
0
LINE
8
1
62
3
10
3.563108
20
0.002396
30
0.0
11
3.460862
21
0.005625
31
0.0
0
LINE
8
1
62
3
10
3.460862
20
0.005625
30
0.0
11
3.337122
21
0.01801
31
0.0
0
LINE
8
1
62
3
10
3.633455
20
0.156
30
0.0
11
3.683106
21
0.170112
31
0.0
0
LINE
8
1
62
3
10
3.683106
20
0.170112
30
0.0
11
3.693538
21
0.173757
31
0.0
0
LINE
8
1
62
3
10
3.693538
20
0.173757
30
0.0
11
3.696955
21
0.184883
31
0.0
0
LINE
8
1
62
3
10
3.696955
20
0.184883
30
0.0
11
3.700927
21
0.19669
31
0.0
0
LINE
8
1
62
3
10
3.700927
20
0.19669
30
0.0
11
3.711608
21
0.203487
31
0.0
0
LINE
8
1
62
3
10
3.711608
20
0.203487
30
0.0
11
3.723895
21
0.211291
31
0.0
0
LINE
8
1
62
3
10
3.723895
20
0.211291
30
0.0
11
3.73286
21
0.224675
31
0.0
0
LINE
8
1
62
3
10
3.73286
20
0.224675
30
0.0
11
3.741607
21
0.238003
31
0.0
0
LINE
8
1
62
3
10
3.741607
20
0.238003
30
0.0
11
3.753372
21
0.245671
31
0.0
0
LINE
8
1
62
3
10
3.753372
20
0.245671
30
0.0
11
3.765288
21
0.254896
31
0.0
0
LINE
8
1
62
3
10
3.765288
20
0.254896
30
0.0
11
3.773914
21
0.273314
31
0.0
0
LINE
8
1
62
3
10
3.773914
20
0.273314
30
0.0
11
3.783917
21
0.296592
31
0.0
0
LINE
8
1
62
3
10
3.783917
20
0.296592
30
0.0
11
3.79866
21
0.318851
31
0.0
0
LINE
8
1
62
3
10
3.79866
20
0.318851
30
0.0
11
3.815874
21
0.348601
31
0.0
0
LINE
8
1
62
3
10
3.815874
20
0.348601
30
0.0
11
3.831816
21
0.38989
31
0.0
0
LINE
8
1
62
3
10
3.831816
20
0.38989
30
0.0
11
3.842578
21
0.448331
31
0.0
0
LINE
8
1
62
3
10
3.842578
20
0.448331
30
0.0
11
3.844967
21
0.515767
31
0.0
0
LINE
8
1
62
3
10
3.844967
20
0.515767
30
0.0
11
3.839311
21
0.579091
31
0.0
0
LINE
8
1
62
3
10
3.839311
20
0.579091
30
0.0
11
3.825936
21
0.625195
31
0.0
0
LINE
8
1
62
3
10
3.825936
20
0.625195
30
0.0
11
3.81191
21
0.648454
31
0.0
0
LINE
8
1
62
3
10
3.81191
20
0.648454
30
0.0
11
3.797457
21
0.665349
31
0.0
0
LINE
8
1
62
3
10
3.797457
20
0.665349
30
0.0
11
3.783397
21
0.675109
31
0.0
0
LINE
8
1
62
3
10
3.783397
20
0.675109
30
0.0
11
3.770555
21
0.676966
31
0.0
0
LINE
8
1
62
3
10
3.770555
20
0.676966
30
0.0
11
3.764101
21
0.672434
31
0.0
0
LINE
8
1
62
3
10
3.764101
20
0.672434
30
0.0
11
3.76025
21
0.657736
31
0.0
0
LINE
8
1
62
3
10
3.76025
20
0.657736
30
0.0
11
3.757063
21
0.572278
31
0.0
0
LINE
8
1
62
3
10
3.757063
20
0.572278
30
0.0
11
3.755687
21
0.469973
31
0.0
0
LINE
8
1
62
3
10
3.755687
20
0.469973
30
0.0
11
3.721771
21
0.395889
31
0.0
0
LINE
8
1
62
3
10
3.721771
20
0.395889
30
0.0
11
3.692427
21
0.334965
31
0.0
0
LINE
8
1
62
3
10
3.692427
20
0.334965
30
0.0
11
3.66759
21
0.292983
31
0.0
0
LINE
8
1
62
3
10
3.66759
20
0.292983
30
0.0
11
3.641723
21
0.261971
31
0.0
0
LINE
8
1
62
3
10
3.641723
20
0.261971
30
0.0
11
3.609287
21
0.233956
31
0.0
0
LINE
8
1
62
3
10
3.609287
20
0.233956
30
0.0
11
3.564719
21
0.193207
31
0.0
0
LINE
8
1
62
3
10
3.564719
20
0.193207
30
0.0
11
3.576959
21
0.164984
31
0.0
0
LINE
8
1
62
3
10
3.576959
20
0.164984
30
0.0
11
3.595716
21
0.141889
31
0.0
0
LINE
8
1
62
3
10
3.595716
20
0.141889
30
0.0
11
3.633455
21
0.156
31
0.0
0
LINE
8
1
62
3
10
3.234252
20
0.16623
30
0.0
11
3.27483
21
0.179665
31
0.0
0
LINE
8
1
62
3
10
3.27483
20
0.179665
30
0.0
11
3.306875
21
0.196092
31
0.0
0
LINE
8
1
62
3
10
3.306875
20
0.196092
30
0.0
11
3.332652
21
0.21697
31
0.0
0
LINE
8
1
62
3
10
3.332652
20
0.21697
30
0.0
11
3.354426
21
0.243763
31
0.0
0
LINE
8
1
62
3
10
3.354426
20
0.243763
30
0.0
11
3.371444
21
0.271914
31
0.0
0
LINE
8
1
62
3
10
3.371444
20
0.271914
30
0.0
11
3.392325
21
0.316468
31
0.0
0
LINE
8
1
62
3
10
3.392325
20
0.316468
30
0.0
11
3.47816
21
0.529904
31
0.0
0
LINE
8
1
62
3
10
3.47816
20
0.529904
30
0.0
11
3.524482
21
0.635215
31
0.0
0
LINE
8
1
62
3
10
3.524482
20
0.635215
30
0.0
11
3.580658
21
0.728482
31
0.0
0
LINE
8
1
62
3
10
3.580658
20
0.728482
30
0.0
11
3.626844
21
0.793089
31
0.0
0
LINE
8
1
62
3
10
3.626844
20
0.793089
30
0.0
11
3.670703
21
0.843431
31
0.0
0
LINE
8
1
62
3
10
3.670703
20
0.843431
30
0.0
11
3.716253
21
0.883575
31
0.0
0
LINE
8
1
62
3
10
3.716253
20
0.883575
30
0.0
11
3.767511
21
0.917586
31
0.0
0
LINE
8
1
62
3
10
3.767511
20
0.917586
30
0.0
11
3.811787
21
0.940974
31
0.0
0
LINE
8
1
62
3
10
3.811787
20
0.940974
30
0.0
11
3.854899
21
0.959039
31
0.0
0
LINE
8
1
62
3
10
3.854899
20
0.959039
30
0.0
11
3.896329
21
0.97172
31
0.0
0
LINE
8
1
62
3
10
3.896329
20
0.97172
30
0.0
11
3.935557
21
0.978955
31
0.0
0
LINE
8
1
62
3
10
3.935557
20
0.978955
30
0.0
11
3.972065
21
0.980683
31
0.0
0
LINE
8
1
62
3
10
3.972065
20
0.980683
30
0.0
11
4.005333
21
0.976842
31
0.0
0
LINE
8
1
62
3
10
4.005333
20
0.976842
30
0.0
11
4.034842
21
0.967372
31
0.0
0
LINE
8
1
62
3
10
4.034842
20
0.967372
30
0.0
11
4.060073
21
0.95221
31
0.0
0
LINE
8
1
62
3
10
4.060073
20
0.95221
30
0.0
11
4.076765
21
0.935145
31
0.0
0
LINE
8
1
62
3
10
4.076765
20
0.935145
30
0.0
11
4.09142
21
0.911164
31
0.0
0
LINE
8
1
62
3
10
4.09142
20
0.911164
30
0.0
11
4.104314
21
0.879069
31
0.0
0
LINE
8
1
62
3
10
4.104314
20
0.879069
30
0.0
11
4.115725
21
0.837664
31
0.0
0
LINE
8
1
62
3
10
4.115725
20
0.837664
30
0.0
11
4.135205
21
0.722134
31
0.0
0
LINE
8
1
62
3
10
4.135205
20
0.722134
30
0.0
11
4.152077
21
0.554999
31
0.0
0
LINE
8
1
62
3
10
4.152077
20
0.554999
30
0.0
11
4.161711
21
0.463382
31
0.0
0
LINE
8
1
62
3
10
4.161711
20
0.463382
30
0.0
11
4.170085
21
0.420944
31
0.0
0
LINE
8
1
62
3
10
4.170085
20
0.420944
30
0.0
11
4.176227
21
0.420022
31
0.0
0
LINE
8
1
62
3
10
4.176227
20
0.420022
30
0.0
11
4.185504
21
0.424812
31
0.0
0
LINE
8
1
62
3
10
4.185504
20
0.424812
30
0.0
11
4.209135
21
0.446709
31
0.0
0
LINE
8
1
62
3
10
4.209135
20
0.446709
30
0.0
11
4.23233
21
0.476997
31
0.0
0
LINE
8
1
62
3
10
4.23233
20
0.476997
30
0.0
11
4.24644
21
0.506037
31
0.0
0
LINE
8
1
62
3
10
4.24644
20
0.506037
30
0.0
11
4.256434
21
0.571642
31
0.0
0
LINE
8
1
62
3
10
4.256434
20
0.571642
30
0.0
11
4.265822
21
0.678391
31
0.0
0
LINE
8
1
62
3
10
4.265822
20
0.678391
30
0.0
11
4.272786
21
0.800831
31
0.0
0
LINE
8
1
62
3
10
4.272786
20
0.800831
30
0.0
11
4.275511
21
0.91351
31
0.0
0
LINE
8
1
62
3
10
4.275511
20
0.91351
30
0.0
11
4.269046
21
1.077728
31
0.0
0
LINE
8
1
62
3
10
4.269046
20
1.077728
30
0.0
11
4.260955
21
1.146745
31
0.0
0
LINE
8
1
62
3
10
4.260955
20
1.146745
30
0.0
11
4.249616
21
1.207073
31
0.0
0
LINE
8
1
62
3
10
4.249616
20
1.207073
30
0.0
11
4.235023
21
1.25874
31
0.0
0
LINE
8
1
62
3
10
4.235023
20
1.25874
30
0.0
11
4.217168
21
1.301776
31
0.0
0
LINE
8
1
62
3
10
4.217168
20
1.301776
30
0.0
11
4.196044
21
1.33621
31
0.0
0
LINE
8
1
62
3
10
4.196044
20
1.33621
30
0.0
11
4.171646
21
1.362071
31
0.0
0
LINE
8
1
62
3
10
4.171646
20
1.362071
30
0.0
11
4.13534
21
1.387124
31
0.0
0
LINE
8
1
62
3
10
4.13534
20
1.387124
30
0.0
11
4.091714
21
1.407789
31
0.0
0
LINE
8
1
62
3
10
4.091714
20
1.407789
30
0.0
11
4.039941
21
1.424198
31
0.0
0
LINE
8
1
62
3
10
4.039941
20
1.424198
30
0.0
11
3.979193
21
1.436477
31
0.0
0
LINE
8
1
62
3
10
3.979193
20
1.436477
30
0.0
11
3.908645
21
1.444758
31
0.0
0
LINE
8
1
62
3
10
3.908645
20
1.444758
30
0.0
11
3.82747
21
1.44917
31
0.0
0
LINE
8
1
62
3
10
3.82747
20
1.44917
30
0.0
11
3.629928
21
1.446904
31
0.0
0
LINE
8
1
62
3
10
3.629928
20
1.446904
30
0.0
11
3.344133
21
1.429897
31
0.0
0
LINE
8
1
62
3
10
3.344133
20
1.429897
30
0.0
11
3.019622
21
1.393509
31
0.0
0
LINE
8
1
62
3
10
3.019622
20
1.393509
30
0.0
11
2.68302
21
1.347689
31
0.0
0
LINE
8
1
62
3
10
2.68302
20
1.347689
30
0.0
11
2.561796
21
1.327035
31
0.0
0
LINE
8
1
62
3
10
2.561796
20
1.327035
30
0.0
11
2.466869
21
1.306623
31
0.0
0
LINE
8
1
62
3
10
2.466869
20
1.306623
30
0.0
11
2.394424
21
1.285505
31
0.0
0
LINE
8
1
62
3
10
2.394424
20
1.285505
30
0.0
11
2.340645
21
1.262735
31
0.0
0
LINE
8
1
62
3
10
2.340645
20
1.262735
30
0.0
11
2.301717
21
1.237367
31
0.0
0
LINE
8
1
62
3
10
2.301717
20
1.237367
30
0.0
11
2.273825
21
1.208453
31
0.0
0
LINE
8
1
62
3
10
2.273825
20
1.208453
30
0.0
11
2.258695
21
1.186731
31
0.0
0
LINE
8
1
62
3
10
2.258695
20
1.186731
30
0.0
11
2.251851
21
1.171479
31
0.0
0
LINE
8
1
62
3
10
2.251851
20
1.171479
30
0.0
11
2.252996
21
1.16137
31
0.0
0
LINE
8
1
62
3
10
2.252996
20
1.16137
30
0.0
11
2.261831
21
1.155077
31
0.0
0
LINE
8
1
62
3
10
2.261831
20
1.155077
30
0.0
11
2.366563
21
1.140116
31
0.0
0
LINE
8
1
62
3
10
2.366563
20
1.140116
30
0.0
11
2.535808
21
1.123506
31
0.0
0
LINE
8
1
62
3
10
2.535808
20
1.123506
30
0.0
11
2.603661
21
1.115585
31
0.0
0
LINE
8
1
62
3
10
2.603661
20
1.115585
30
0.0
11
2.618332
21
1.109117
31
0.0
0
LINE
8
1
62
3
10
2.618332
20
1.109117
30
0.0
11
2.629295
21
1.098538
31
0.0
0
LINE
8
1
62
3
10
2.629295
20
1.098538
30
0.0
11
2.640827
21
1.07938
31
0.0
0
LINE
8
1
62
3
10
2.640827
20
1.07938
30
0.0
11
2.645123
21
1.05783
31
0.0
0
LINE
8
1
62
3
10
2.645123
20
1.05783
30
0.0
11
2.64215
21
1.034966
31
0.0
0
LINE
8
1
62
3
10
2.64215
20
1.034966
30
0.0
11
2.631877
21
1.01187
31
0.0
0
LINE
8
1
62
3
10
2.631877
20
1.01187
30
0.0
11
2.61414
21
0.987815
31
0.0
0
LINE
8
1
62
3
10
2.61414
20
0.987815
30
0.0
11
2.5913
21
0.975468
31
0.0
0
LINE
8
1
62
3
10
2.5913
20
0.975468
30
0.0
11
2.552511
21
0.972056
31
0.0
0
LINE
8
1
62
3
10
2.552511
20
0.972056
30
0.0
11
2.486928
21
0.974806
31
0.0
0
LINE
8
1
62
3
10
2.486928
20
0.974806
30
0.0
11
2.354516
21
0.980754
31
0.0
0
LINE
8
1
62
3
10
2.354516
20
0.980754
30
0.0
11
2.328463
21
0.979385
31
0.0
0
LINE
8
1
62
3
10
2.328463
20
0.979385
30
0.0
11
2.321122
21
0.975138
31
0.0
0
LINE
8
1
62
3
10
2.321122
20
0.975138
30
0.0
11
2.334076
21
0.969259
31
0.0
0
LINE
8
1
62
3
10
2.334076
20
0.969259
30
0.0
11
2.365219
21
0.96406
31
0.0
0
LINE
8
1
62
3
10
2.365219
20
0.96406
30
0.0
11
2.531559
21
0.941376
31
0.0
0
LINE
8
1
62
3
10
2.531559
20
0.941376
30
0.0
11
2.585985
21
0.930047
31
0.0
0
LINE
8
1
62
3
10
2.585985
20
0.930047
30
0.0
11
2.613483
21
0.920101
31
0.0
0
LINE
8
1
62
3
10
2.613483
20
0.920101
30
0.0
11
2.630987
21
0.90443
31
0.0
0
LINE
8
1
62
3
10
2.630987
20
0.90443
30
0.0
11
2.64089
21
0.888176
31
0.0
0
LINE
8
1
62
3
10
2.64089
20
0.888176
30
0.0
11
2.643676
21
0.87003
31
0.0
0
LINE
8
1
62
3
10
2.643676
20
0.87003
30
0.0
11
2.639827
21
0.848684
31
0.0
0
LINE
8
1
62
3
10
2.639827
20
0.848684
30
0.0
11
2.630399
21
0.826091
31
0.0
0
LINE
8
1
62
3
10
2.630399
20
0.826091
30
0.0
11
2.617174
21
0.809338
31
0.0
0
LINE
8
1
62
3
10
2.617174
20
0.809338
30
0.0
11
2.599679
21
0.797994
31
0.0
0
LINE
8
1
62
3
10
2.599679
20
0.797994
30
0.0
11
2.577442
21
0.791624
31
0.0
0
LINE
8
1
62
3
10
2.577442
20
0.791624
30
0.0
11
2.558365
21
0.786206
31
0.0
0
LINE
8
1
62
3
10
2.558365
20
0.786206
30
0.0
11
2.548806
21
0.77908
31
0.0
0
LINE
8
1
62
3
10
2.548806
20
0.77908
30
0.0
11
2.554165
21
0.771562
31
0.0
0
LINE
8
1
62
3
10
2.554165
20
0.771562
30
0.0
11
2.57128
21
0.763993
31
0.0
0
LINE
8
1
62
3
10
2.57128
20
0.763993
30
0.0
11
2.594805
21
0.758138
31
0.0
0
LINE
8
1
62
3
10
2.594805
20
0.758138
30
0.0
11
2.619394
21
0.755762
31
0.0
0
LINE
8
1
62
3
10
2.619394
20
0.755762
30
0.0
11
2.63536
21
0.751038
31
0.0
0
LINE
8
1
62
3
10
2.63536
20
0.751038
30
0.0
11
2.646048
21
0.737341
31
0.0
0
LINE
8
1
62
3
10
2.646048
20
0.737341
30
0.0
11
2.65119
21
0.715276
31
0.0
0
LINE
8
1
62
3
10
2.65119
20
0.715276
30
0.0
11
2.650519
21
0.685446
31
0.0
0
LINE
8
1
62
3
10
2.650519
20
0.685446
30
0.0
11
2.644467
21
0.66048
31
0.0
0
LINE
8
1
62
3
10
2.644467
20
0.66048
30
0.0
11
2.632488
21
0.64277
31
0.0
0
LINE
8
1
62
3
10
2.632488
20
0.64277
30
0.0
11
2.614449
21
0.63219
31
0.0
0
LINE
8
1
62
3
10
2.614449
20
0.63219
30
0.0
11
2.590216
21
0.628615
31
0.0
0
LINE
8
1
62
3
10
2.590216
20
0.628615
30
0.0
11
2.558617
21
0.624093
31
0.0
0
LINE
8
1
62
3
10
2.558617
20
0.624093
30
0.0
11
2.552134
21
0.619436
31
0.0
0
LINE
8
1
62
3
10
2.552134
20
0.619436
30
0.0
11
2.551556
21
0.613942
31
0.0
0
LINE
8
1
62
3
10
2.551556
20
0.613942
30
0.0
11
2.567201
21
0.602725
31
0.0
0
LINE
8
1
62
3
10
2.567201
20
0.602725
30
0.0
11
2.603718
21
0.595003
31
0.0
0
LINE
8
1
62
3
10
2.603718
20
0.595003
30
0.0
11
2.633415
21
0.587482
31
0.0
0
LINE
8
1
62
3
10
2.633415
20
0.587482
30
0.0
11
2.656076
21
0.572727
31
0.0
0
LINE
8
1
62
3
10
2.656076
20
0.572727
30
0.0
11
2.669226
21
0.553115
31
0.0
0
LINE
8
1
62
3
10
2.669226
20
0.553115
30
0.0
11
2.670388
21
0.531022
31
0.0
0
LINE
8
1
62
3
10
2.670388
20
0.531022
30
0.0
11
2.661675
21
0.508323
31
0.0
0
LINE
8
1
62
3
10
2.661675
20
0.508323
30
0.0
11
2.648093
21
0.489873
31
0.0
0
LINE
8
1
62
3
10
2.648093
20
0.489873
30
0.0
11
2.629833
21
0.475869
31
0.0
0
LINE
8
1
62
3
10
2.629833
20
0.475869
30
0.0
11
2.607088
21
0.466505
31
0.0
0
LINE
8
1
62
3
10
2.607088
20
0.466505
30
0.0
11
2.584512
21
0.458651
31
0.0
0
LINE
8
1
62
3
10
2.584512
20
0.458651
30
0.0
11
2.575122
21
0.452335
31
0.0
0
LINE
8
1
62
3
10
2.575122
20
0.452335
30
0.0
11
2.587358
21
0.446241
31
0.0
0
LINE
8
1
62
3
10
2.587358
20
0.446241
30
0.0
11
2.616775
21
0.438919
31
0.0
0
LINE
8
1
62
3
10
2.616775
20
0.438919
30
0.0
11
2.645461
21
0.431803
31
0.0
0
LINE
8
1
62
3
10
2.645461
20
0.431803
30
0.0
11
2.66317
21
0.422474
31
0.0
0
LINE
8
1
62
3
10
2.66317
20
0.422474
30
0.0
11
2.673155
21
0.408157
31
0.0
0
LINE
8
1
62
3
10
2.673155
20
0.408157
30
0.0
11
2.67867
21
0.386072
31
0.0
0
LINE
8
1
62
3
10
2.67867
20
0.386072
30
0.0
11
2.678983
21
0.364485
31
0.0
0
LINE
8
1
62
3
10
2.678983
20
0.364485
30
0.0
11
2.672094
21
0.345344
31
0.0
0
LINE
8
1
62
3
10
2.672094
20
0.345344
30
0.0
11
2.657504
21
0.327796
31
0.0
0
LINE
8
1
62
3
10
2.657504
20
0.327796
30
0.0
11
2.634714
21
0.310988
31
0.0
0
LINE
8
1
62
3
10
2.634714
20
0.310988
30
0.0
11
2.618562
21
0.302316
31
0.0
0
LINE
8
1
62
3
10
2.618562
20
0.302316
30
0.0
11
2.601036
21
0.298096
31
0.0
0
LINE
8
1
62
3
10
2.601036
20
0.298096
30
0.0
11
2.530285
21
0.299552
31
0.0
0
LINE
8
1
62
3
10
2.530285
20
0.299552
30
0.0
11
2.370511
21
0.31426
31
0.0
0
LINE
8
1
62
3
10
2.370511
20
0.31426
30
0.0
11
2.274058
21
0.324681
31
0.0
0
LINE
8
1
62
3
10
2.274058
20
0.324681
30
0.0
11
2.17017
21
0.331012
31
0.0
0
LINE
8
1
62
3
10
2.17017
20
0.331012
30
0.0
11
1.827233
21
0.335897
31
0.0
0
LINE
8
1
62
3
10
1.827233
20
0.335897
30
0.0
11
1.547211
21
0.339525
31
0.0
0
LINE
8
1
62
3
10
1.547211
20
0.339525
30
0.0
11
1.468182
21
0.344254
31
0.0
0
LINE
8
1
62
3
10
1.468182
20
0.344254
30
0.0
11
1.396327
21
0.352194
31
0.0
0
LINE
8
1
62
3
10
1.396327
20
0.352194
30
0.0
11
1.242963
21
0.37346
31
0.0
0
LINE
8
1
62
3
10
1.242963
20
0.37346
30
0.0
11
1.12112
21
0.393946
31
0.0
0
LINE
8
1
62
3
10
1.12112
20
0.393946
30
0.0
11
1.025487
21
0.414658
31
0.0
0
LINE
8
1
62
3
10
1.025487
20
0.414658
30
0.0
11
0.950751
21
0.436604
31
0.0
0
LINE
8
1
62
3
10
0.950751
20
0.436604
30
0.0
11
0.905964
21
0.449753
31
0.0
0
LINE
8
1
62
3
10
0.905964
20
0.449753
30
0.0
11
0.894507
21
0.450257
31
0.0
0
LINE
8
1
62
3
10
0.894507
20
0.450257
30
0.0
11
0.887871
21
0.447127
31
0.0
0
LINE
8
1
62
3
10
0.887871
20
0.447127
30
0.0
11
0.885716
21
0.441246
31
0.0
0
LINE
8
1
62
3
10
0.885716
20
0.441246
30
0.0
11
0.887288
21
0.432509
31
0.0
0
LINE
8
1
62
3
10
0.887288
20
0.432509
30
0.0
11
0.899505
21
0.409542
31
0.0
0
LINE
8
1
62
3
10
0.899505
20
0.409542
30
0.0
11
0.920296
21
0.384388
31
0.0
0
LINE
8
1
62
3
10
0.920296
20
0.384388
30
0.0
11
0.945435
21
0.363205
31
0.0
0
LINE
8
1
62
3
10
0.945435
20
0.363205
30
0.0
11
0.978687
21
0.344975
31
0.0
0
LINE
8
1
62
3
10
0.978687
20
0.344975
30
0.0
11
1.02132
21
0.328068
31
0.0
0
LINE
8
1
62
3
10
1.02132
20
0.328068
30
0.0
11
1.134503
21
0.298272
31
0.0
0
LINE
8
1
62
3
10
1.134503
20
0.298272
30
0.0
11
1.284525
21
0.273911
31
0.0
0
LINE
8
1
62
3
10
1.284525
20
0.273911
30
0.0
11
1.470928
21
0.255079
31
0.0
0
LINE
8
1
62
3
10
1.470928
20
0.255079
30
0.0
11
1.656871
21
0.245038
31
0.0
0
LINE
8
1
62
3
10
1.656871
20
0.245038
30
0.0
11
1.897789
21
0.245724
31
0.0
0
LINE
8
1
62
3
10
1.897789
20
0.245724
30
0.0
11
2.075727
21
0.247392
31
0.0
0
LINE
8
1
62
3
10
2.075727
20
0.247392
30
0.0
11
2.209586
21
0.242593
31
0.0
0
LINE
8
1
62
3
10
2.209586
20
0.242593
30
0.0
11
2.363149
21
0.226745
31
0.0
0
LINE
8
1
62
3
10
2.363149
20
0.226745
30
0.0
11
2.600197
21
0.195267
31
0.0
0
LINE
8
1
62
3
10
2.600197
20
0.195267
30
0.0
11
2.906733
21
0.153591
31
0.0
0
LINE
8
1
62
3
10
2.906733
20
0.153591
30
0.0
11
2.975769
21
0.150765
31
0.0
0
LINE
8
1
62
3
10
2.975769
20
0.150765
30
0.0
11
3.075938
21
0.1528
31
0.0
0
LINE
8
1
62
3
10
3.075938
20
0.1528
30
0.0
11
3.173385
21
0.158391
31
0.0
0
LINE
8
1
62
3
10
3.173385
20
0.158391
30
0.0
11
3.234252
21
0.16623
31
0.0
0
LINE
8
1
62
3
10
2.878511
20
0.730548
30
0.0
11
2.841735
21
0.741062
31
0.0
0
LINE
8
1
62
3
10
2.841735
20
0.741062
30
0.0
11
2.808301
21
0.755458
31
0.0
0
LINE
8
1
62
3
10
2.808301
20
0.755458
30
0.0
11
2.778191
21
0.773755
31
0.0
0
LINE
8
1
62
3
10
2.778191
20
0.773755
30
0.0
11
2.751386
21
0.795968
31
0.0
0
LINE
8
1
62
3
10
2.751386
20
0.795968
30
0.0
11
2.727867
21
0.822118
31
0.0
0
LINE
8
1
62
3
10
2.727867
20
0.822118
30
0.0
11
2.707617
21
0.85222
31
0.0
0
LINE
8
1
62
3
10
2.707617
20
0.85222
30
0.0
11
2.690616
21
0.886293
31
0.0
0
LINE
8
1
62
3
10
2.690616
20
0.886293
30
0.0
11
2.676847
21
0.924354
31
0.0
0
LINE
8
1
62
3
10
2.676847
20
0.924354
30
0.0
11
2.669416
21
0.960405
31
0.0
0
LINE
8
1
62
3
10
2.669416
20
0.960405
30
0.0
11
2.668868
21
0.99593
31
0.0
0
LINE
8
1
62
3
10
2.668868
20
0.99593
30
0.0
11
2.674925
21
1.030356
31
0.0
0
LINE
8
1
62
3
10
2.674925
20
1.030356
30
0.0
11
2.687308
21
1.063114
31
0.0
0
LINE
8
1
62
3
10
2.687308
20
1.063114
30
0.0
11
2.705738
21
1.093633
31
0.0
0
LINE
8
1
62
3
10
2.705738
20
1.093633
30
0.0
11
2.729939
21
1.12134
31
0.0
0
LINE
8
1
62
3
10
2.729939
20
1.12134
30
0.0
11
2.759632
21
1.145666
31
0.0
0
LINE
8
1
62
3
10
2.759632
20
1.145666
30
0.0
11
2.794539
21
1.166039
31
0.0
0
LINE
8
1
62
3
10
2.794539
20
1.166039
30
0.0
11
2.854163
21
1.18841
31
0.0
0
LINE
8
1
62
3
10
2.854163
20
1.18841
30
0.0
11
2.909663
21
1.197638
31
0.0
0
LINE
8
1
62
3
10
2.909663
20
1.197638
30
0.0
11
2.933574
21
1.197209
31
0.0
0
LINE
8
1
62
3
10
2.933574
20
1.197209
30
0.0
11
2.953704
21
1.193357
31
0.0
0
LINE
8
1
62
3
10
2.953704
20
1.193357
30
0.0
11
2.969138
21
1.186037
31
0.0
0
LINE
8
1
62
3
10
2.969138
20
1.186037
30
0.0
11
2.978957
21
1.175204
31
0.0
0
LINE
8
1
62
3
10
2.978957
20
1.175204
30
0.0
11
3.000498
21
1.157058
31
0.0
0
LINE
8
1
62
3
10
3.000498
20
1.157058
30
0.0
11
3.040882
21
1.131657
31
0.0
0
LINE
8
1
62
3
10
3.040882
20
1.131657
30
0.0
11
3.081007
21
1.110136
31
0.0
0
LINE
8
1
62
3
10
3.081007
20
1.110136
30
0.0
11
3.101768
21
1.103628
31
0.0
0
LINE
8
1
62
3
10
3.101768
20
1.103628
30
0.0
11
3.096528
21
1.132489
31
0.0
0
LINE
8
1
62
3
10
3.096528
20
1.132489
30
0.0
11
3.092695
21
1.162759
31
0.0
0
LINE
8
1
62
3
10
3.092695
20
1.162759
30
0.0
11
3.105517
21
1.158937
31
0.0
0
LINE
8
1
62
3
10
3.105517
20
1.158937
30
0.0
11
3.129975
21
1.142767
31
0.0
0
LINE
8
1
62
3
10
3.129975
20
1.142767
30
0.0
11
3.181688
21
1.09708
31
0.0
0
LINE
8
1
62
3
10
3.181688
20
1.09708
30
0.0
11
3.202234
21
1.070089
31
0.0
0
LINE
8
1
62
3
10
3.202234
20
1.070089
30
0.0
11
3.215315
21
1.042888
31
0.0
0
LINE
8
1
62
3
10
3.215315
20
1.042888
30
0.0
11
3.222218
21
1.011714
31
0.0
0
LINE
8
1
62
3
10
3.222218
20
1.011714
30
0.0
11
3.224233
21
0.972803
31
0.0
0
LINE
8
1
62
3
10
3.224233
20
0.972803
30
0.0
11
3.221983
21
0.935647
31
0.0
0
LINE
8
1
62
3
10
3.221983
20
0.935647
30
0.0
11
3.213993
21
0.904166
31
0.0
0
LINE
8
1
62
3
10
3.213993
20
0.904166
30
0.0
11
3.198406
21
0.87346
31
0.0
0
LINE
8
1
62
3
10
3.198406
20
0.87346
30
0.0
11
3.173361
21
0.838625
31
0.0
0
LINE
8
1
62
3
10
3.173361
20
0.838625
30
0.0
11
3.15443
21
0.820401
31
0.0
0
LINE
8
1
62
3
10
3.15443
20
0.820401
30
0.0
11
3.135262
21
0.812121
31
0.0
0
LINE
8
1
62
3
10
3.135262
20
0.812121
30
0.0
11
3.11765
21
0.814093
31
0.0
0
LINE
8
1
62
3
10
3.11765
20
0.814093
30
0.0
11
3.103385
21
0.826625
31
0.0
0
LINE
8
1
62
3
10
3.103385
20
0.826625
30
0.0
11
3.097429
21
0.834716
31
0.0
0
LINE
8
1
62
3
10
3.097429
20
0.834716
30
0.0
11
3.092031
21
0.83714
31
0.0
0
LINE
8
1
62
3
10
3.092031
20
0.83714
30
0.0
11
3.070637
21
0.824007
31
0.0
0
LINE
8
1
62
3
10
3.070637
20
0.824007
30
0.0
11
3.047568
21
0.806931
31
0.0
0
LINE
8
1
62
3
10
3.047568
20
0.806931
30
0.0
11
3.068873
21
0.80267
31
0.0
0
LINE
8
1
62
3
10
3.068873
20
0.80267
30
0.0
11
3.08206
21
0.798178
31
0.0
0
LINE
8
1
62
3
10
3.08206
20
0.798178
30
0.0
11
3.088918
21
0.791605
31
0.0
0
LINE
8
1
62
3
10
3.088918
20
0.791605
30
0.0
11
3.089806
21
0.783422
31
0.0
0
LINE
8
1
62
3
10
3.089806
20
0.783422
30
0.0
11
3.085083
21
0.774102
31
0.0
0
LINE
8
1
62
3
10
3.085083
20
0.774102
30
0.0
11
3.060238
21
0.753932
31
0.0
0
LINE
8
1
62
3
10
3.060238
20
0.753932
30
0.0
11
3.017256
21
0.734867
31
0.0
0
LINE
8
1
62
3
10
3.017256
20
0.734867
30
0.0
11
2.983566
21
0.725608
31
0.0
0
LINE
8
1
62
3
10
2.983566
20
0.725608
30
0.0
11
2.95156
21
0.721875
31
0.0
0
LINE
8
1
62
3
10
2.95156
20
0.721875
30
0.0
11
2.917716
21
0.723559
31
0.0
0
LINE
8
1
62
3
10
2.917716
20
0.723559
30
0.0
11
2.878511
21
0.730548
31
0.0
0
LINE
8
1
62
3
10
3.003936
20
0.842333
30
0.0
11
3.007279
21
0.846368
31
0.0
0
LINE
8
1
62
3
10
3.007279
20
0.846368
30
0.0
11
3.006708
21
0.850602
31
0.0
0
LINE
8
1
62
3
10
3.006708
20
0.850602
30
0.0
11
2.992522
21
0.861905
31
0.0
0
LINE
8
1
62
3
10
2.992522
20
0.861905
30
0.0
11
2.976853
21
0.87564
31
0.0
0
LINE
8
1
62
3
10
2.976853
20
0.87564
30
0.0
11
2.967859
21
0.891223
31
0.0
0
LINE
8
1
62
3
10
2.967859
20
0.891223
30
0.0
11
2.958513
21
0.90567
31
0.0
0
LINE
8
1
62
3
10
2.958513
20
0.90567
30
0.0
11
2.940393
21
0.918828
31
0.0
0
LINE
8
1
62
3
10
2.940393
20
0.918828
30
0.0
11
2.917578
21
0.928428
31
0.0
0
LINE
8
1
62
3
10
2.917578
20
0.928428
30
0.0
11
2.894147
21
0.932202
31
0.0
0
LINE
8
1
62
3
10
2.894147
20
0.932202
30
0.0
11
2.825991
21
0.921059
31
0.0
0
LINE
8
1
62
3
10
2.825991
20
0.921059
30
0.0
11
2.766136
21
0.906024
31
0.0
0
LINE
8
1
62
3
10
2.766136
20
0.906024
30
0.0
11
2.769789
21
0.896932
31
0.0
0
LINE
8
1
62
3
10
2.769789
20
0.896932
30
0.0
11
2.785726
21
0.880667
31
0.0
0
LINE
8
1
62
3
10
2.785726
20
0.880667
30
0.0
11
2.828229
21
0.850195
31
0.0
0
LINE
8
1
62
3
10
2.828229
20
0.850195
30
0.0
11
2.871197
21
0.837552
31
0.0
0
LINE
8
1
62
3
10
2.871197
20
0.837552
30
0.0
11
2.924192
21
0.831607
31
0.0
0
LINE
8
1
62
3
10
2.924192
20
0.831607
30
0.0
11
2.973132
21
0.83299
31
0.0
0
LINE
8
1
62
3
10
2.973132
20
0.83299
30
0.0
11
2.991681
21
0.836627
31
0.0
0
LINE
8
1
62
3
10
2.991681
20
0.836627
30
0.0
11
3.003936
21
0.842333
31
0.0
0
LINE
8
1
62
3
10
3.002368
20
1.027362
30
0.0
11
3.013055
21
1.051329
31
0.0
0
LINE
8
1
62
3
10
3.013055
20
1.051329
30
0.0
11
3.021447
21
1.056345
31
0.0
0
LINE
8
1
62
3
10
3.021447
20
1.056345
30
0.0
11
3.034343
21
1.059174
31
0.0
0
LINE
8
1
62
3
10
3.034343
20
1.059174
30
0.0
11
3.058428
21
1.062764
31
0.0
0
LINE
8
1
62
3
10
3.058428
20
1.062764
30
0.0
11
3.030205
21
1.082291
31
0.0
0
LINE
8
1
62
3
10
3.030205
20
1.082291
30
0.0
11
2.999966
21
1.098762
31
0.0
0
LINE
8
1
62
3
10
2.999966
20
1.098762
30
0.0
11
2.961364
21
1.11404
31
0.0
0
LINE
8
1
62
3
10
2.961364
20
1.11404
30
0.0
11
2.922667
21
1.125287
31
0.0
0
LINE
8
1
62
3
10
2.922667
20
1.125287
30
0.0
11
2.892144
21
1.129667
31
0.0
0
LINE
8
1
62
3
10
2.892144
20
1.129667
30
0.0
11
2.867663
21
1.125523
31
0.0
0
LINE
8
1
62
3
10
2.867663
20
1.125523
30
0.0
11
2.835108
21
1.115664
31
0.0
0
LINE
8
1
62
3
10
2.835108
20
1.115664
30
0.0
11
2.805593
21
1.103953
31
0.0
0
LINE
8
1
62
3
10
2.805593
20
1.103953
30
0.0
11
2.790232
21
1.094253
31
0.0
0
LINE
8
1
62
3
10
2.790232
20
1.094253
30
0.0
11
2.795206
21
1.07738
31
0.0
0
LINE
8
1
62
3
10
2.795206
20
1.07738
30
0.0
11
2.81414
21
1.049814
31
0.0
0
LINE
8
1
62
3
10
2.81414
20
1.049814
30
0.0
11
2.838435
21
1.022478
31
0.0
0
LINE
8
1
62
3
10
2.838435
20
1.022478
30
0.0
11
2.85949
21
1.006295
31
0.0
0
LINE
8
1
62
3
10
2.85949
20
1.006295
30
0.0
11
2.890904
21
1.000372
31
0.0
0
LINE
8
1
62
3
10
2.890904
20
1.000372
30
0.0
11
2.937342
21
0.998362
31
0.0
0
LINE
8
1
62
3
10
2.937342
20
0.998362
30
0.0
11
2.994479
21
0.999139
31
0.0
0
LINE
8
1
62
3
10
2.994479
20
0.999139
30
0.0
11
3.002368
21
1.027362
31
0.0
0
LINE
8
1
62
3
10
3.570883
20
0.241163
30
0.0
11
3.584989
21
0.256196
31
0.0
0
LINE
8
1
62
3
10
3.584989
20
0.256196
30
0.0
11
3.599088
21
0.281733
31
0.0
0
LINE
8
1
62
3
10
3.599088
20
0.281733
30
0.0
11
3.627817
21
0.344175
31
0.0
0
LINE
8
1
62
3
10
3.627817
20
0.344175
30
0.0
11
3.637708
21
0.369318
31
0.0
0
LINE
8
1
62
3
10
3.637708
20
0.369318
30
0.0
11
3.637806
21
0.385608
31
0.0
0
LINE
8
1
62
3
10
3.637806
20
0.385608
30
0.0
11
3.628002
21
0.393318
31
0.0
0
LINE
8
1
62
3
10
3.628002
20
0.393318
30
0.0
11
3.608185
21
0.392719
31
0.0
0
LINE
8
1
62
3
10
3.608185
20
0.392719
30
0.0
11
3.572982
21
0.384137
31
0.0
0
LINE
8
1
62
3
10
3.572982
20
0.384137
30
0.0
11
3.565289
21
0.385339
31
0.0
0
LINE
8
1
62
3
10
3.565289
20
0.385339
30
0.0
11
3.5629
21
0.397798
31
0.0
0
LINE
8
1
62
3
10
3.5629
20
0.397798
30
0.0
11
3.559695
21
0.412838
31
0.0
0
LINE
8
1
62
3
10
3.559695
20
0.412838
30
0.0
11
3.551991
21
0.424382
31
0.0
0
LINE
8
1
62
3
10
3.551991
20
0.424382
30
0.0
11
3.542199
21
0.427776
31
0.0
0
LINE
8
1
62
3
10
3.542199
20
0.427776
30
0.0
11
3.530552
21
0.424907
31
0.0
0
LINE
8
1
62
3
10
3.530552
20
0.424907
30
0.0
11
3.506756
21
0.406137
31
0.0
0
LINE
8
1
62
3
10
3.506756
20
0.406137
30
0.0
11
3.490725
21
0.379593
31
0.0
0
LINE
8
1
62
3
10
3.490725
20
0.379593
30
0.0
11
3.488786
21
0.367005
31
0.0
0
LINE
8
1
62
3
10
3.488786
20
0.367005
30
0.0
11
3.492586
21
0.356793
31
0.0
0
LINE
8
1
62
3
10
3.492586
20
0.356793
30
0.0
11
3.502961
21
0.350456
31
0.0
0
LINE
8
1
62
3
10
3.502961
20
0.350456
30
0.0
11
3.520582
21
0.358215
31
0.0
0
LINE
8
1
62
3
10
3.520582
20
0.358215
30
0.0
11
3.538012
21
0.365026
31
0.0
0
LINE
8
1
62
3
10
3.538012
20
0.365026
30
0.0
11
3.55239
21
0.365087
31
0.0
0
LINE
8
1
62
3
10
3.55239
20
0.365087
30
0.0
11
3.560707
21
0.355002
31
0.0
0
LINE
8
1
62
3
10
3.560707
20
0.355002
30
0.0
11
3.559956
21
0.336822
31
0.0
0
LINE
8
1
62
3
10
3.559956
20
0.336822
30
0.0
11
3.55086
21
0.313585
31
0.0
0
LINE
8
1
62
3
10
3.55086
20
0.313585
30
0.0
11
3.534141
21
0.288333
31
0.0
0
LINE
8
1
62
3
10
3.534141
20
0.288333
30
0.0
11
3.52162
21
0.27048
31
0.0
0
LINE
8
1
62
3
10
3.52162
20
0.27048
30
0.0
11
3.517875
21
0.257747
31
0.0
0
LINE
8
1
62
3
10
3.517875
20
0.257747
30
0.0
11
3.52302
21
0.248378
31
0.0
0
LINE
8
1
62
3
10
3.52302
20
0.248378
30
0.0
11
3.537164
21
0.24062
31
0.0
0
LINE
8
1
62
3
10
3.537164
20
0.24062
30
0.0
11
3.555453
21
0.234651
31
0.0
0
LINE
8
1
62
3
10
3.555453
20
0.234651
30
0.0
11
3.570883
21
0.241163
31
0.0
0
LINE
8
1
62
3
10
2.589584
20
0.364321
30
0.0
11
2.603345
21
0.373958
31
0.0
0
LINE
8
1
62
3
10
2.603345
20
0.373958
30
0.0
11
2.609597
21
0.38387
31
0.0
0
LINE
8
1
62
3
10
2.609597
20
0.38387
30
0.0
11
2.607958
21
0.392531
31
0.0
0
LINE
8
1
62
3
10
2.607958
20
0.392531
30
0.0
11
2.598053
21
0.398418
31
0.0
0
LINE
8
1
62
3
10
2.598053
20
0.398418
30
0.0
11
2.500694
21
0.414462
31
0.0
0
LINE
8
1
62
3
10
2.500694
20
0.414462
30
0.0
11
2.339749
21
0.432082
31
0.0
0
LINE
8
1
62
3
10
2.339749
20
0.432082
30
0.0
11
2.16706
21
0.446328
31
0.0
0
LINE
8
1
62
3
10
2.16706
20
0.446328
30
0.0
11
2.034472
21
0.452247
31
0.0
0
LINE
8
1
62
3
10
2.034472
20
0.452247
30
0.0
11
1.971049
21
0.450139
31
0.0
0
LINE
8
1
62
3
10
1.971049
20
0.450139
30
0.0
11
1.955451
21
0.447038
31
0.0
0
LINE
8
1
62
3
10
1.955451
20
0.447038
30
0.0
11
1.947569
21
0.442223
31
0.0
0
LINE
8
1
62
3
10
1.947569
20
0.442223
30
0.0
11
1.943544
21
0.431505
31
0.0
0
LINE
8
1
62
3
10
1.943544
20
0.431505
30
0.0
11
1.952273
21
0.419016
31
0.0
0
LINE
8
1
62
3
10
1.952273
20
0.419016
30
0.0
11
1.963823
21
0.411988
31
0.0
0
LINE
8
1
62
3
10
1.963823
20
0.411988
30
0.0
11
1.9865
21
0.406634
31
0.0
0
LINE
8
1
62
3
10
1.9865
20
0.406634
30
0.0
11
2.092092
21
0.396659
31
0.0
0
LINE
8
1
62
3
10
2.092092
20
0.396659
30
0.0
11
2.345817
21
0.37138
31
0.0
0
LINE
8
1
62
3
10
2.345817
20
0.37138
30
0.0
11
2.446033
21
0.359922
31
0.0
0
LINE
8
1
62
3
10
2.446033
20
0.359922
30
0.0
11
2.515962
21
0.355046
31
0.0
0
LINE
8
1
62
3
10
2.515962
20
0.355046
30
0.0
11
2.56176
21
0.356571
31
0.0
0
LINE
8
1
62
3
10
2.56176
20
0.356571
30
0.0
11
2.589584
21
0.364321
31
0.0
0
LINE
8
1
62
3
10
1.900857
20
0.40277
30
0.0
11
1.914554
21
0.412041
31
0.0
0
LINE
8
1
62
3
10
1.914554
20
0.412041
30
0.0
11
1.918955
21
0.426357
31
0.0
0
LINE
8
1
62
3
10
1.918955
20
0.426357
30
0.0
11
1.918955
21
0.443064
31
0.0
0
LINE
8
1
62
3
10
1.918955
20
0.443064
30
0.0
11
1.758442
21
0.447495
31
0.0
0
LINE
8
1
62
3
10
1.758442
20
0.447495
30
0.0
11
1.607379
21
0.453861
31
0.0
0
LINE
8
1
62
3
10
1.607379
20
0.453861
30
0.0
11
1.464264
21
0.464939
31
0.0
0
LINE
8
1
62
3
10
1.464264
20
0.464939
30
0.0
11
1.317318
21
0.481866
31
0.0
0
LINE
8
1
62
3
10
1.317318
20
0.481866
30
0.0
11
1.154763
21
0.505781
31
0.0
0
LINE
8
1
62
3
10
1.154763
20
0.505781
30
0.0
11
1.026215
21
0.529457
31
0.0
0
LINE
8
1
62
3
10
1.026215
20
0.529457
30
0.0
11
0.930073
21
0.554585
31
0.0
0
LINE
8
1
62
3
10
0.930073
20
0.554585
30
0.0
11
0.864018
21
0.581915
31
0.0
0
LINE
8
1
62
3
10
0.864018
20
0.581915
30
0.0
11
0.841548
21
0.596639
31
0.0
0
LINE
8
1
62
3
10
0.841548
20
0.596639
30
0.0
11
0.82573
21
0.612196
31
0.0
0
LINE
8
1
62
3
10
0.82573
20
0.612196
30
0.0
11
0.803935
21
0.627078
31
0.0
0
LINE
8
1
62
3
10
0.803935
20
0.627078
30
0.0
11
0.755797
21
0.639586
31
0.0
0
LINE
8
1
62
3
10
0.755797
20
0.639586
30
0.0
11
0.667222
21
0.652324
31
0.0
0
LINE
8
1
62
3
10
0.667222
20
0.652324
30
0.0
11
0.524113
21
0.667893
31
0.0
0
LINE
8
1
62
3
10
0.524113
20
0.667893
30
0.0
11
0.486509
21
0.66996
31
0.0
0
LINE
8
1
62
3
10
0.486509
20
0.66996
30
0.0
11
0.459334
21
0.667481
31
0.0
0
LINE
8
1
62
3
10
0.459334
20
0.667481
30
0.0
11
0.442842
21
0.660512
31
0.0
0
LINE
8
1
62
3
10
0.442842
20
0.660512
30
0.0
11
0.437289
21
0.649107
31
0.0
0
LINE
8
1
62
3
10
0.437289
20
0.649107
30
0.0
11
0.439879
21
0.638394
31
0.0
0
LINE
8
1
62
3
10
0.439879
20
0.638394
30
0.0
11
0.446108
21
0.631977
31
0.0
0
LINE
8
1
62
3
10
0.446108
20
0.631977
30
0.0
11
0.637523
21
0.607766
31
0.0
0
LINE
8
1
62
3
10
0.637523
20
0.607766
30
0.0
11
0.82125
21
0.584887
31
0.0
0
LINE
8
1
62
3
10
0.82125
20
0.584887
30
0.0
11
0.829155
21
0.561695
31
0.0
0
LINE
8
1
62
3
10
0.829155
20
0.561695
30
0.0
11
0.837874
21
0.546899
31
0.0
0
LINE
8
1
62
3
10
0.837874
20
0.546899
30
0.0
11
0.854835
21
0.532871
31
0.0
0
LINE
8
1
62
3
10
0.854835
20
0.532871
30
0.0
11
0.880902
21
0.519333
31
0.0
0
LINE
8
1
62
3
10
0.880902
20
0.519333
30
0.0
11
0.916941
21
0.506005
31
0.0
0
LINE
8
1
62
3
10
0.916941
20
0.506005
30
0.0
11
1.022396
21
0.478865
31
0.0
0
LINE
8
1
62
3
10
1.022396
20
0.478865
30
0.0
11
1.178122
21
0.44922
31
0.0
0
LINE
8
1
62
3
10
1.178122
20
0.44922
30
0.0
11
1.365527
21
0.421512
31
0.0
0
LINE
8
1
62
3
10
1.365527
20
0.421512
30
0.0
11
1.541483
21
0.400701
31
0.0
0
LINE
8
1
62
3
10
1.541483
20
0.400701
30
0.0
11
1.740193
21
0.397192
31
0.0
0
LINE
8
1
62
3
10
1.740193
20
0.397192
30
0.0
11
1.847179
21
0.398971
31
0.0
0
LINE
8
1
62
3
10
1.847179
20
0.398971
30
0.0
11
1.900857
21
0.40277
31
0.0
0
LINE
8
1
62
3
10
3.689019
20
0.460094
30
0.0
11
3.707768
21
0.487186
31
0.0
0
LINE
8
1
62
3
10
3.707768
20
0.487186
30
0.0
11
3.707849
21
0.496256
31
0.0
0
LINE
8
1
62
3
10
3.707849
20
0.496256
30
0.0
11
3.70313
21
0.506979
31
0.0
0
LINE
8
1
62
3
10
3.70313
20
0.506979
30
0.0
11
3.690714
21
0.523064
31
0.0
0
LINE
8
1
62
3
10
3.690714
20
0.523064
30
0.0
11
3.673073
21
0.537195
31
0.0
0
LINE
8
1
62
3
10
3.673073
20
0.537195
30
0.0
11
3.653483
21
0.547244
31
0.0
0
LINE
8
1
62
3
10
3.653483
20
0.547244
30
0.0
11
3.635219
21
0.551085
31
0.0
0
LINE
8
1
62
3
10
3.635219
20
0.551085
30
0.0
11
3.624087
21
0.553262
31
0.0
0
LINE
8
1
62
3
10
3.624087
20
0.553262
30
0.0
11
3.620169
21
0.560315
31
0.0
0
LINE
8
1
62
3
10
3.620169
20
0.560315
30
0.0
11
3.623435
21
0.573099
31
0.0
0
LINE
8
1
62
3
10
3.623435
20
0.573099
30
0.0
11
3.633859
21
0.592472
31
0.0
0
LINE
8
1
62
3
10
3.633859
20
0.592472
30
0.0
11
3.644466
21
0.614682
31
0.0
0
LINE
8
1
62
3
10
3.644466
20
0.614682
30
0.0
11
3.642623
21
0.621567
31
0.0
0
LINE
8
1
62
3
10
3.642623
20
0.621567
30
0.0
11
3.636267
21
0.629514
31
0.0
0
LINE
8
1
62
3
10
3.636267
20
0.629514
30
0.0
11
3.62343
21
0.64006
31
0.0
0
LINE
8
1
62
3
10
3.62343
20
0.64006
30
0.0
11
3.611522
21
0.643383
31
0.0
0
LINE
8
1
62
3
10
3.611522
20
0.643383
30
0.0
11
3.601156
21
0.640427
31
0.0
0
LINE
8
1
62
3
10
3.601156
20
0.640427
30
0.0
11
3.592946
21
0.632134
31
0.0
0
LINE
8
1
62
3
10
3.592946
20
0.632134
30
0.0
11
3.587506
21
0.619449
31
0.0
0
LINE
8
1
62
3
10
3.587506
20
0.619449
30
0.0
11
3.585449
21
0.603314
31
0.0
0
LINE
8
1
62
3
10
3.585449
20
0.603314
30
0.0
11
3.58739
21
0.584672
31
0.0
0
LINE
8
1
62
3
10
3.58739
20
0.584672
30
0.0
11
3.593943
21
0.564467
31
0.0
0
LINE
8
1
62
3
10
3.593943
20
0.564467
30
0.0
11
3.592947
21
0.553673
31
0.0
0
LINE
8
1
62
3
10
3.592947
20
0.553673
30
0.0
11
3.577379
21
0.544208
31
0.0
0
LINE
8
1
62
3
10
3.577379
20
0.544208
30
0.0
11
3.561838
21
0.536202
31
0.0
0
LINE
8
1
62
3
10
3.561838
20
0.536202
30
0.0
11
3.557124
21
0.528903
31
0.0
0
LINE
8
1
62
3
10
3.557124
20
0.528903
30
0.0
11
3.563331
21
0.521394
31
0.0
0
LINE
8
1
62
3
10
3.563331
20
0.521394
30
0.0
11
3.58055
21
0.512756
31
0.0
0
LINE
8
1
62
3
10
3.58055
20
0.512756
30
0.0
11
3.600271
21
0.501333
31
0.0
0
LINE
8
1
62
3
10
3.600271
20
0.501333
30
0.0
11
3.600996
21
0.494759
31
0.0
0
LINE
8
1
62
3
10
3.600996
20
0.494759
30
0.0
11
3.597261
21
0.484889
31
0.0
0
LINE
8
1
62
3
10
3.597261
20
0.484889
30
0.0
11
3.592729
21
0.469587
31
0.0
0
LINE
8
1
62
3
10
3.592729
20
0.469587
30
0.0
11
3.594037
21
0.456625
31
0.0
0
LINE
8
1
62
3
10
3.594037
20
0.456625
30
0.0
11
3.601116
21
0.446198
31
0.0
0
LINE
8
1
62
3
10
3.601116
20
0.446198
30
0.0
11
3.613896
21
0.4385
31
0.0
0
LINE
8
1
62
3
10
3.613896
20
0.4385
30
0.0
11
3.63602
21
0.432127
31
0.0
0
LINE
8
1
62
3
10
3.63602
20
0.432127
30
0.0
11
3.654515
21
0.433199
31
0.0
0
LINE
8
1
62
3
10
3.654515
20
0.433199
30
0.0
11
3.671482
21
0.44232
31
0.0
0
LINE
8
1
62
3
10
3.671482
20
0.44232
30
0.0
11
3.689019
21
0.460094
31
0.0
0
LINE
8
1
62
3
10
0.787521
20
0.477044
30
0.0
11
0.787208
21
0.505096
31
0.0
0
LINE
8
1
62
3
10
0.787208
20
0.505096
30
0.0
11
0.783169
21
0.513544
31
0.0
0
LINE
8
1
62
3
10
0.783169
20
0.513544
30
0.0
11
0.77478
21
0.520975
31
0.0
0
LINE
8
1
62
3
10
0.77478
20
0.520975
30
0.0
11
0.740048
21
0.53403
31
0.0
0
LINE
8
1
62
3
10
0.740048
20
0.53403
30
0.0
11
0.673194
21
0.546753
31
0.0
0
LINE
8
1
62
3
10
0.673194
20
0.546753
30
0.0
11
0.5644
21
0.561634
31
0.0
0
LINE
8
1
62
3
10
0.5644
20
0.561634
30
0.0
11
0.456391
21
0.577564
31
0.0
0
LINE
8
1
62
3
10
0.456391
20
0.577564
30
0.0
11
0.404516
21
0.589938
31
0.0
0
LINE
8
1
62
3
10
0.404516
20
0.589938
30
0.0
11
0.39113
21
0.604741
31
0.0
0
LINE
8
1
62
3
10
0.39113
20
0.604741
30
0.0
11
0.380513
21
0.6262
31
0.0
0
LINE
8
1
62
3
10
0.380513
20
0.6262
30
0.0
11
0.376079
21
0.641701
31
0.0
0
LINE
8
1
62
3
10
0.376079
20
0.641701
30
0.0
11
0.376889
21
0.652648
31
0.0
0
LINE
8
1
62
3
10
0.376889
20
0.652648
30
0.0
11
0.384886
21
0.663951
31
0.0
0
LINE
8
1
62
3
10
0.384886
20
0.663951
30
0.0
11
0.402013
21
0.68052
31
0.0
0
LINE
8
1
62
3
10
0.402013
20
0.68052
30
0.0
11
0.425868
21
0.705966
31
0.0
0
LINE
8
1
62
3
10
0.425868
20
0.705966
30
0.0
11
0.425554
21
0.712278
31
0.0
0
LINE
8
1
62
3
10
0.425554
20
0.712278
30
0.0
11
0.41885
21
0.718288
31
0.0
0
LINE
8
1
62
3
10
0.41885
20
0.718288
30
0.0
11
0.376927
21
0.755722
31
0.0
0
LINE
8
1
62
3
10
0.376927
20
0.755722
30
0.0
11
0.366524
21
0.771353
31
0.0
0
LINE
8
1
62
3
10
0.366524
20
0.771353
30
0.0
11
0.36452
21
0.783299
31
0.0
0
LINE
8
1
62
3
10
0.36452
20
0.783299
30
0.0
11
0.373066
21
0.799795
31
0.0
0
LINE
8
1
62
3
10
0.373066
20
0.799795
30
0.0
11
0.388698
21
0.815433
31
0.0
0
LINE
8
1
62
3
10
0.388698
20
0.815433
30
0.0
11
0.409226
21
0.82848
31
0.0
0
LINE
8
1
62
3
10
0.409226
20
0.82848
30
0.0
11
0.432465
21
0.837199
31
0.0
0
LINE
8
1
62
3
10
0.432465
20
0.837199
30
0.0
11
0.453312
21
0.844221
31
0.0
0
LINE
8
1
62
3
10
0.453312
20
0.844221
30
0.0
11
0.461983
21
0.850722
31
0.0
0
LINE
8
1
62
3
10
0.461983
20
0.850722
30
0.0
11
0.453495
21
0.857881
31
0.0
0
LINE
8
1
62
3
10
0.453495
20
0.857881
30
0.0
11
0.433086
21
0.866485
31
0.0
0
LINE
8
1
62
3
10
0.433086
20
0.866485
30
0.0
11
0.397912
21
0.88354
31
0.0
0
LINE
8
1
62
3
10
0.397912
20
0.88354
30
0.0
11
0.37837
21
0.905519
31
0.0
0
LINE
8
1
62
3
10
0.37837
20
0.905519
30
0.0
11
0.374603
21
0.918059
31
0.0
0
LINE
8
1
62
3
10
0.374603
20
0.918059
30
0.0
11
0.374914
21
0.931476
31
0.0
0
LINE
8
1
62
3
10
0.374914
20
0.931476
30
0.0
11
0.387996
21
0.960469
31
0.0
0
LINE
8
1
62
3
10
0.387996
20
0.960469
30
0.0
11
0.404196
21
0.975915
31
0.0
0
LINE
8
1
62
3
10
0.404196
20
0.975915
30
0.0
11
0.423193
21
0.985032
31
0.0
0
LINE
8
1
62
3
10
0.423193
20
0.985032
30
0.0
11
0.44091
21
0.990625
31
0.0
0
LINE
8
1
62
3
10
0.44091
20
0.990625
30
0.0
11
0.446999
21
0.997652
31
0.0
0
LINE
8
1
62
3
10
0.446999
20
0.997652
30
0.0
11
0.44149
21
1.006992
31
0.0
0
LINE
8
1
62
3
10
0.44149
20
1.006992
30
0.0
11
0.424415
21
1.019525
31
0.0
0
LINE
8
1
62
3
10
0.424415
20
1.019525
30
0.0
11
0.401083
21
1.039659
31
0.0
0
LINE
8
1
62
3
10
0.401083
20
1.039659
30
0.0
11
0.385647
21
1.065038
31
0.0
0
LINE
8
1
62
3
10
0.385647
20
1.065038
30
0.0
11
0.367129
21
1.097672
31
0.0
0
LINE
8
1
62
3
10
0.367129
20
1.097672
30
0.0
11
0.352161
21
1.095069
31
0.0
0
LINE
8
1
62
3
10
0.352161
20
1.095069
30
0.0
11
0.32636
21
1.082514
31
0.0
0
LINE
8
1
62
3
10
0.32636
20
1.082514
30
0.0
11
0.306297
21
1.072047
31
0.0
0
LINE
8
1
62
3
10
0.306297
20
1.072047
30
0.0
11
0.286155
21
1.065737
31
0.0
0
LINE
8
1
62
3
10
0.286155
20
1.065737
30
0.0
11
0.219782
21
1.060168
31
0.0
0
LINE
8
1
62
3
10
0.219782
20
1.060168
30
0.0
11
0.146721
21
1.057463
31
0.0
0
LINE
8
1
62
3
10
0.146721
20
1.057463
30
0.0
11
0.150128
21
1.028301
31
0.0
0
LINE
8
1
62
3
10
0.150128
20
1.028301
30
0.0
11
0.194032
21
0.790497
31
0.0
0
LINE
8
1
62
3
10
0.194032
20
0.790497
30
0.0
11
0.207465
21
0.718913
31
0.0
0
LINE
8
1
62
3
10
0.207465
20
0.718913
30
0.0
11
0.216976
21
0.671558
31
0.0
0
LINE
8
1
62
3
10
0.216976
20
0.671558
30
0.0
11
0.23087
21
0.633822
31
0.0
0
LINE
8
1
62
3
10
0.23087
20
0.633822
30
0.0
11
0.25285
21
0.603665
31
0.0
0
LINE
8
1
62
3
10
0.25285
20
0.603665
30
0.0
11
0.28662
21
0.579046
31
0.0
0
LINE
8
1
62
3
10
0.28662
20
0.579046
30
0.0
11
0.335885
21
0.557925
31
0.0
0
LINE
8
1
62
3
10
0.335885
20
0.557925
30
0.0
11
0.404346
21
0.538262
31
0.0
0
LINE
8
1
62
3
10
0.404346
20
0.538262
30
0.0
11
0.613678
21
0.495151
31
0.0
0
LINE
8
1
62
3
10
0.613678
20
0.495151
30
0.0
11
0.762418
21
0.469014
31
0.0
0
LINE
8
1
62
3
10
0.762418
20
0.469014
30
0.0
11
0.782067
21
0.469629
31
0.0
0
LINE
8
1
62
3
10
0.782067
20
0.469629
30
0.0
11
0.787521
21
0.477044
31
0.0
0
LINE
8
1
62
3
10
2.591855
20
0.531515
30
0.0
11
2.59591
21
0.542529
31
0.0
0
LINE
8
1
62
3
10
2.59591
20
0.542529
30
0.0
11
2.592113
21
0.551054
31
0.0
0
LINE
8
1
62
3
10
2.592113
20
0.551054
30
0.0
11
2.549105
21
0.559858
31
0.0
0
LINE
8
1
62
3
10
2.549105
20
0.559858
30
0.0
11
2.444234
21
0.573199
31
0.0
0
LINE
8
1
62
3
10
2.444234
20
0.573199
30
0.0
11
2.124039
21
0.604858
31
0.0
0
LINE
8
1
62
3
10
2.124039
20
0.604858
30
0.0
11
2.00603
21
0.612935
31
0.0
0
LINE
8
1
62
3
10
2.00603
20
0.612935
30
0.0
11
1.978468
21
0.61193
31
0.0
0
LINE
8
1
62
3
10
1.978468
20
0.61193
30
0.0
11
1.961741
21
0.607743
31
0.0
0
LINE
8
1
62
3
10
1.961741
20
0.607743
30
0.0
11
1.946852
21
0.598957
31
0.0
0
LINE
8
1
62
3
10
1.946852
20
0.598957
30
0.0
11
1.94216
21
0.590715
31
0.0
0
LINE
8
1
62
3
10
1.94216
20
0.590715
30
0.0
11
1.955271
21
0.580256
31
0.0
0
LINE
8
1
62
3
10
1.955271
20
0.580256
30
0.0
11
1.992621
21
0.570692
31
0.0
0
LINE
8
1
62
3
10
1.992621
20
0.570692
30
0.0
11
2.172955
21
0.54818
31
0.0
0
LINE
8
1
62
3
10
2.172955
20
0.54818
30
0.0
11
2.405789
21
0.523442
31
0.0
0
LINE
8
1
62
3
10
2.405789
20
0.523442
30
0.0
11
2.521458
21
0.518392
31
0.0
0
LINE
8
1
62
3
10
2.521458
20
0.518392
30
0.0
11
2.573461
21
0.521543
31
0.0
0
LINE
8
1
62
3
10
2.573461
20
0.521543
30
0.0
11
2.585409
21
0.525406
31
0.0
0
LINE
8
1
62
3
10
2.585409
20
0.525406
30
0.0
11
2.591855
21
0.531515
31
0.0
0
LINE
8
1
62
3
10
1.897369
20
0.570525
30
0.0
11
1.915222
21
0.581516
31
0.0
0
LINE
8
1
62
3
10
1.915222
20
0.581516
30
0.0
11
1.92406
21
0.590617
31
0.0
0
LINE
8
1
62
3
10
1.92406
20
0.590617
30
0.0
11
1.910647
21
0.597319
31
0.0
0
LINE
8
1
62
3
10
1.910647
20
0.597319
30
0.0
11
1.86936
21
0.602661
31
0.0
0
LINE
8
1
62
3
10
1.86936
20
0.602661
30
0.0
11
1.723946
21
0.607514
31
0.0
0
LINE
8
1
62
3
10
1.723946
20
0.607514
30
0.0
11
1.606412
21
0.60985
31
0.0
0
LINE
8
1
62
3
10
1.606412
20
0.60985
30
0.0
11
1.483237
21
0.616343
31
0.0
0
LINE
8
1
62
3
10
1.483237
20
0.616343
30
0.0
11
1.23962
21
0.639385
31
0.0
0
LINE
8
1
62
3
10
1.23962
20
0.639385
30
0.0
11
1.129006
21
0.654724
31
0.0
0
LINE
8
1
62
3
10
1.129006
20
0.654724
30
0.0
11
1.032406
21
0.671803
31
0.0
0
LINE
8
1
62
3
10
1.032406
20
0.671803
30
0.0
11
0.954735
21
0.690017
31
0.0
0
LINE
8
1
62
3
10
0.954735
20
0.690017
30
0.0
11
0.900907
21
0.708761
31
0.0
0
LINE
8
1
62
3
10
0.900907
20
0.708761
30
0.0
11
0.860013
21
0.730961
31
0.0
0
LINE
8
1
62
3
10
0.860013
20
0.730961
30
0.0
11
0.833126
21
0.750972
31
0.0
0
LINE
8
1
62
3
10
0.833126
20
0.750972
30
0.0
11
0.820835
21
0.761654
31
0.0
0
LINE
8
1
62
3
10
0.820835
20
0.761654
30
0.0
11
0.804474
21
0.770744
31
0.0
0
LINE
8
1
62
3
10
0.804474
20
0.770744
30
0.0
11
0.755696
21
0.78489
31
0.0
0
LINE
8
1
62
3
10
0.755696
20
0.78489
30
0.0
11
0.679102
21
0.794892
31
0.0
0
LINE
8
1
62
3
10
0.679102
20
0.794892
30
0.0
11
0.567005
21
0.80223
31
0.0
0
LINE
8
1
62
3
10
0.567005
20
0.80223
30
0.0
11
0.459004
21
0.803044
31
0.0
0
LINE
8
1
62
3
10
0.459004
20
0.803044
30
0.0
11
0.436748
21
0.797576
31
0.0
0
LINE
8
1
62
3
10
0.436748
20
0.797576
30
0.0
11
0.430233
21
0.78761
31
0.0
0
LINE
8
1
62
3
10
0.430233
20
0.78761
30
0.0
11
0.43717
21
0.778415
31
0.0
0
LINE
8
1
62
3
10
0.43717
20
0.778415
30
0.0
11
0.459609
21
0.770439
31
0.0
0
LINE
8
1
62
3
10
0.459609
20
0.770439
30
0.0
11
0.560761
21
0.755765
31
0.0
0
LINE
8
1
62
3
10
0.560761
20
0.755765
30
0.0
11
0.717121
21
0.736458
31
0.0
0
LINE
8
1
62
3
10
0.717121
20
0.736458
30
0.0
11
0.809351
21
0.719633
31
0.0
0
LINE
8
1
62
3
10
0.809351
20
0.719633
30
0.0
11
0.829969
21
0.708176
31
0.0
0
LINE
8
1
62
3
10
0.829969
20
0.708176
30
0.0
11
0.847506
21
0.690825
31
0.0
0
LINE
8
1
62
3
10
0.847506
20
0.690825
30
0.0
11
0.865728
21
0.672256
31
0.0
0
LINE
8
1
62
3
10
0.865728
20
0.672256
30
0.0
11
0.893196
21
0.656631
31
0.0
0
LINE
8
1
62
3
10
0.893196
20
0.656631
30
0.0
11
0.932852
21
0.642654
31
0.0
0
LINE
8
1
62
3
10
0.932852
20
0.642654
30
0.0
11
0.987641
21
0.629027
31
0.0
0
LINE
8
1
62
3
10
0.987641
20
0.629027
30
0.0
11
1.148666
21
0.599256
31
0.0
0
LINE
8
1
62
3
10
1.148666
20
0.599256
30
0.0
11
1.322886
21
0.577867
31
0.0
0
LINE
8
1
62
3
10
1.322886
20
0.577867
30
0.0
11
1.512923
21
0.564611
31
0.0
0
LINE
8
1
62
3
10
1.512923
20
0.564611
30
0.0
11
1.7214
21
0.559239
31
0.0
0
LINE
8
1
62
3
10
1.7214
20
0.559239
30
0.0
11
1.850907
21
0.56052
31
0.0
0
LINE
8
1
62
3
10
1.850907
20
0.56052
30
0.0
11
1.879512
21
0.564111
31
0.0
0
LINE
8
1
62
3
10
1.879512
20
0.564111
30
0.0
11
1.897369
21
0.570525
31
0.0
0
LINE
8
1
62
3
10
3.709632
20
0.629095
30
0.0
11
3.70831
21
0.65728
31
0.0
0
LINE
8
1
62
3
10
3.70831
20
0.65728
30
0.0
11
3.697285
21
0.674285
31
0.0
0
LINE
8
1
62
3
10
3.697285
20
0.674285
30
0.0
11
3.684646
21
0.682561
31
0.0
0
LINE
8
1
62
3
10
3.684646
20
0.682561
30
0.0
11
3.682348
21
0.66333
31
0.0
0
LINE
8
1
62
3
10
3.682348
20
0.66333
30
0.0
11
3.676269
21
0.625195
31
0.0
0
LINE
8
1
62
3
10
3.676269
20
0.625195
30
0.0
11
3.673009
21
0.611617
31
0.0
0
LINE
8
1
62
3
10
3.673009
20
0.611617
30
0.0
11
3.6749
21
0.601542
31
0.0
0
LINE
8
1
62
3
10
3.6749
20
0.601542
30
0.0
11
3.681549
21
0.595703
31
0.0
0
LINE
8
1
62
3
10
3.681549
20
0.595703
30
0.0
11
3.692562
21
0.594836
31
0.0
0
LINE
8
1
62
3
10
3.692562
20
0.594836
30
0.0
11
3.70021
21
0.597199
31
0.0
0
LINE
8
1
62
3
10
3.70021
20
0.597199
30
0.0
11
3.705091
21
0.602669
31
0.0
0
LINE
8
1
62
3
10
3.705091
20
0.602669
30
0.0
11
3.709632
21
0.629095
31
0.0
0
LINE
8
1
62
3
10
4.416622
20
0.601049
30
0.0
11
4.553247
21
0.647145
31
0.0
0
LINE
8
1
62
3
10
4.553247
20
0.647145
30
0.0
11
4.646804
21
0.678839
31
0.0
0
LINE
8
1
62
3
10
4.646804
20
0.678839
30
0.0
11
4.671828
21
0.682703
31
0.0
0
LINE
8
1
62
3
10
4.671828
20
0.682703
30
0.0
11
4.694358
21
0.681502
31
0.0
0
LINE
8
1
62
3
10
4.694358
20
0.681502
30
0.0
11
4.716945
21
0.680123
31
0.0
0
LINE
8
1
62
3
10
4.716945
20
0.680123
30
0.0
11
4.740353
21
0.685101
31
0.0
0
LINE
8
1
62
3
10
4.740353
20
0.685101
30
0.0
11
4.836428
21
0.730156
31
0.0
0
LINE
8
1
62
3
10
4.836428
20
0.730156
30
0.0
11
4.963428
21
0.795964
31
0.0
0
LINE
8
1
62
3
10
4.963428
20
0.795964
30
0.0
11
4.987364
21
0.810233
31
0.0
0
LINE
8
1
62
3
10
4.987364
20
0.810233
30
0.0
11
4.981465
21
0.822271
31
0.0
0
LINE
8
1
62
3
10
4.981465
20
0.822271
30
0.0
11
4.976634
21
0.831737
31
0.0
0
LINE
8
1
62
3
10
4.976634
20
0.831737
30
0.0
11
4.977193
21
0.839829
31
0.0
0
LINE
8
1
62
3
10
4.977193
20
0.839829
30
0.0
11
5.046934
21
0.883322
31
0.0
0
LINE
8
1
62
3
10
5.046934
20
0.883322
30
0.0
11
5.185678
21
0.95784
31
0.0
0
LINE
8
1
62
3
10
5.185678
20
0.95784
30
0.0
11
5.238283
21
0.987752
31
0.0
0
LINE
8
1
62
3
10
5.238283
20
0.987752
30
0.0
11
5.249392
21
0.997775
31
0.0
0
LINE
8
1
62
3
10
5.249392
20
0.997775
30
0.0
11
5.252705
21
1.006195
31
0.0
0
LINE
8
1
62
3
10
5.252705
20
1.006195
30
0.0
11
5.24988
21
1.014169
31
0.0
0
LINE
8
1
62
3
10
5.24988
20
1.014169
30
0.0
11
5.235789
21
1.019484
31
0.0
0
LINE
8
1
62
3
10
5.235789
20
1.019484
30
0.0
11
5.140122
21
1.028945
31
0.0
0
LINE
8
1
62
3
10
5.140122
20
1.028945
30
0.0
11
5.027539
21
1.037585
31
0.0
0
LINE
8
1
62
3
10
5.027539
20
1.037585
30
0.0
11
4.914344
21
0.989126
31
0.0
0
LINE
8
1
62
3
10
4.914344
20
0.989126
30
0.0
11
4.670782
21
0.888117
31
0.0
0
LINE
8
1
62
3
10
4.670782
20
0.888117
30
0.0
11
4.488336
21
0.822255
31
0.0
0
LINE
8
1
62
3
10
4.488336
20
0.822255
30
0.0
11
4.399326
21
0.791006
31
0.0
0
LINE
8
1
62
3
10
4.399326
20
0.791006
30
0.0
11
4.357085
21
0.772788
31
0.0
0
LINE
8
1
62
3
10
4.357085
20
0.772788
30
0.0
11
4.349446
21
0.745735
31
0.0
0
LINE
8
1
62
3
10
4.349446
20
0.745735
30
0.0
11
4.344042
21
0.687468
31
0.0
0
LINE
8
1
62
3
10
4.344042
20
0.687468
30
0.0
11
4.342904
21
0.630519
31
0.0
0
LINE
8
1
62
3
10
4.342904
20
0.630519
30
0.0
11
4.34545
21
0.612911
31
0.0
0
LINE
8
1
62
3
10
4.34545
20
0.612911
30
0.0
11
4.350983
21
0.601465
31
0.0
0
LINE
8
1
62
3
10
4.350983
20
0.601465
30
0.0
11
4.360184
21
0.595368
31
0.0
0
LINE
8
1
62
3
10
4.360184
20
0.595368
30
0.0
11
4.373736
21
0.593808
31
0.0
0
LINE
8
1
62
3
10
4.373736
20
0.593808
30
0.0
11
4.416622
21
0.601049
31
0.0
0
LINE
8
1
62
3
10
2.583834
20
0.694841
30
0.0
11
2.587929
21
0.707426
31
0.0
0
LINE
8
1
62
3
10
2.587929
20
0.707426
30
0.0
11
2.580907
21
0.717062
31
0.0
0
LINE
8
1
62
3
10
2.580907
20
0.717062
30
0.0
11
2.561706
21
0.724438
31
0.0
0
LINE
8
1
62
3
10
2.561706
20
0.724438
30
0.0
11
2.529261
21
0.730244
31
0.0
0
LINE
8
1
62
3
10
2.529261
20
0.730244
30
0.0
11
2.347658
21
0.753221
31
0.0
0
LINE
8
1
62
3
10
2.347658
20
0.753221
30
0.0
11
2.208403
21
0.766067
31
0.0
0
LINE
8
1
62
3
10
2.208403
20
0.766067
30
0.0
11
2.065535
21
0.771813
31
0.0
0
LINE
8
1
62
3
10
2.065535
20
0.771813
30
0.0
11
1.873094
21
0.773486
31
0.0
0
LINE
8
1
62
3
10
1.873094
20
0.773486
30
0.0
11
1.646568
21
0.776163
31
0.0
0
LINE
8
1
62
3
10
1.646568
20
0.776163
30
0.0
11
1.468294
21
0.784379
31
0.0
0
LINE
8
1
62
3
10
1.468294
20
0.784379
30
0.0
11
1.303684
21
0.800599
31
0.0
0
LINE
8
1
62
3
10
1.303684
20
0.800599
30
0.0
11
1.11815
21
0.827289
31
0.0
0
LINE
8
1
62
3
10
1.11815
20
0.827289
30
0.0
11
1.01494
21
0.845118
31
0.0
0
LINE
8
1
62
3
10
1.01494
20
0.845118
30
0.0
11
0.937099
21
0.862324
31
0.0
0
LINE
8
1
62
3
10
0.937099
20
0.862324
30
0.0
11
0.880273
21
0.880038
31
0.0
0
LINE
8
1
62
3
10
0.880273
20
0.880038
30
0.0
11
0.840111
21
0.899387
31
0.0
0
LINE
8
1
62
3
10
0.840111
20
0.899387
30
0.0
11
0.80777
21
0.917025
31
0.0
0
LINE
8
1
62
3
10
0.80777
20
0.917025
30
0.0
11
0.773966
21
0.929321
31
0.0
0
LINE
8
1
62
3
10
0.773966
20
0.929321
30
0.0
11
0.731619
21
0.938248
31
0.0
0
LINE
8
1
62
3
10
0.731619
20
0.938248
30
0.0
11
0.67365
21
0.94578
31
0.0
0
LINE
8
1
62
3
10
0.67365
20
0.94578
30
0.0
11
0.564172
21
0.955888
31
0.0
0
LINE
8
1
62
3
10
0.564172
20
0.955888
30
0.0
11
0.491374
21
0.957476
31
0.0
0
LINE
8
1
62
3
10
0.491374
20
0.957476
30
0.0
11
0.449296
21
0.95025
31
0.0
0
LINE
8
1
62
3
10
0.449296
20
0.95025
30
0.0
11
0.437916
21
0.943241
31
0.0
0
LINE
8
1
62
3
10
0.437916
20
0.943241
30
0.0
11
0.431981
21
0.933919
31
0.0
0
LINE
8
1
62
3
10
0.431981
20
0.933919
30
0.0
11
0.431946
21
0.92872
31
0.0
0
LINE
8
1
62
3
10
0.431946
20
0.92872
30
0.0
11
0.436056
21
0.924163
31
0.0
0
LINE
8
1
62
3
10
0.436056
20
0.924163
30
0.0
11
0.459934
21
0.916313
31
0.0
0
LINE
8
1
62
3
10
0.459934
20
0.916313
30
0.0
11
0.592877
21
0.901064
31
0.0
0
LINE
8
1
62
3
10
0.592877
20
0.901064
30
0.0
11
0.716504
21
0.889271
31
0.0
0
LINE
8
1
62
3
10
0.716504
20
0.889271
30
0.0
11
0.786588
21
0.877425
31
0.0
0
LINE
8
1
62
3
10
0.786588
20
0.877425
30
0.0
11
0.807958
21
0.869726
31
0.0
0
LINE
8
1
62
3
10
0.807958
20
0.869726
30
0.0
11
0.823631
21
0.859907
31
0.0
0
LINE
8
1
62
3
10
0.823631
20
0.859907
30
0.0
11
0.848136
21
0.831099
31
0.0
0
LINE
8
1
62
3
10
0.848136
20
0.831099
30
0.0
11
0.856909
21
0.82179
31
0.0
0
LINE
8
1
62
3
10
0.856909
20
0.82179
30
0.0
11
0.870473
21
0.814075
31
0.0
0
LINE
8
1
62
3
10
0.870473
20
0.814075
30
0.0
11
0.92222
21
0.798986
31
0.0
0
LINE
8
1
62
3
10
0.92222
20
0.798986
30
0.0
11
1.1319
21
0.759924
31
0.0
0
LINE
8
1
62
3
10
1.1319
20
0.759924
30
0.0
11
1.349004
21
0.730818
31
0.0
0
LINE
8
1
62
3
10
1.349004
20
0.730818
30
0.0
11
1.486691
21
0.721298
31
0.0
0
LINE
8
1
62
3
10
1.486691
20
0.721298
30
0.0
11
1.634628
21
0.716082
31
0.0
0
LINE
8
1
62
3
10
1.634628
20
0.716082
30
0.0
11
1.766366
21
0.715702
31
0.0
0
LINE
8
1
62
3
10
1.766366
20
0.715702
30
0.0
11
1.855455
21
0.720685
31
0.0
0
LINE
8
1
62
3
10
1.855455
20
0.720685
30
0.0
11
1.910671
21
0.727236
31
0.0
0
LINE
8
1
62
3
10
1.910671
20
0.727236
30
0.0
11
1.963782
21
0.728105
31
0.0
0
LINE
8
1
62
3
10
1.963782
20
0.728105
30
0.0
11
2.19765
21
0.70772
31
0.0
0
LINE
8
1
62
3
10
2.19765
20
0.70772
30
0.0
11
2.465761
21
0.683036
31
0.0
0
LINE
8
1
62
3
10
2.465761
20
0.683036
30
0.0
11
2.543585
21
0.683932
31
0.0
0
LINE
8
1
62
3
10
2.543585
20
0.683932
30
0.0
11
2.570633
21
0.688357
31
0.0
0
LINE
8
1
62
3
10
2.570633
20
0.688357
30
0.0
11
2.583834
21
0.694841
31
0.0
0
LINE
8
1
62
3
10
3.773027
20
0.785035
30
0.0
11
3.766295
21
0.792987
31
0.0
0
LINE
8
1
62
3
10
3.766295
20
0.792987
30
0.0
11
3.754794
21
0.79876
31
0.0
0
LINE
8
1
62
3
10
3.754794
20
0.79876
30
0.0
11
3.743036
21
0.800834
31
0.0
0
LINE
8
1
62
3
10
3.743036
20
0.800834
30
0.0
11
3.735532
21
0.797686
31
0.0
0
LINE
8
1
62
3
10
3.735532
20
0.797686
30
0.0
11
3.737359
21
0.790956
31
0.0
0
LINE
8
1
62
3
10
3.737359
20
0.790956
30
0.0
11
3.747655
21
0.784332
31
0.0
0
LINE
8
1
62
3
10
3.747655
20
0.784332
30
0.0
11
3.769953
21
0.77773
31
0.0
0
LINE
8
1
62
3
10
3.769953
20
0.77773
30
0.0
11
3.773562
21
0.779635
31
0.0
0
LINE
8
1
62
3
10
3.773562
20
0.779635
30
0.0
11
3.773027
21
0.785035
31
0.0
0
LINE
8
1
62
3
10
2.578799
20
0.86432
30
0.0
11
2.587951
21
0.874304
31
0.0
0
LINE
8
1
62
3
10
2.587951
20
0.874304
30
0.0
11
2.583368
21
0.884816
31
0.0
0
LINE
8
1
62
3
10
2.583368
20
0.884816
30
0.0
11
2.567215
21
0.893938
31
0.0
0
LINE
8
1
62
3
10
2.567215
20
0.893938
30
0.0
11
2.528927
21
0.902768
31
0.0
0
LINE
8
1
62
3
10
2.528927
20
0.902768
30
0.0
11
2.349344
21
0.925994
31
0.0
0
LINE
8
1
62
3
10
2.349344
20
0.925994
30
0.0
11
2.243544
21
0.935503
31
0.0
0
LINE
8
1
62
3
10
2.243544
20
0.935503
30
0.0
11
2.119457
21
0.940669
31
0.0
0
LINE
8
1
62
3
10
2.119457
20
0.940669
30
0.0
11
1.717872
21
0.940188
31
0.0
0
LINE
8
1
62
3
10
1.717872
20
0.940188
30
0.0
11
1.606805
21
0.941152
31
0.0
0
LINE
8
1
62
3
10
1.606805
20
0.941152
30
0.0
11
1.488945
21
0.946911
31
0.0
0
LINE
8
1
62
3
10
1.488945
20
0.946911
30
0.0
11
1.358513
21
0.957853
31
0.0
0
LINE
8
1
62
3
10
1.358513
20
0.957853
30
0.0
11
1.209734
21
0.974367
31
0.0
0
LINE
8
1
62
3
10
1.209734
20
0.974367
30
0.0
11
1.071558
21
0.992501
31
0.0
0
LINE
8
1
62
3
10
1.071558
20
0.992501
30
0.0
11
0.977154
21
1.009021
31
0.0
0
LINE
8
1
62
3
10
0.977154
20
1.009021
30
0.0
11
0.91045
21
1.027407
31
0.0
0
LINE
8
1
62
3
10
0.91045
20
1.027407
30
0.0
11
0.855376
21
1.051143
31
0.0
0
LINE
8
1
62
3
10
0.855376
20
1.051143
30
0.0
11
0.819075
21
1.067624
31
0.0
0
LINE
8
1
62
3
10
0.819075
20
1.067624
30
0.0
11
0.781348
21
1.07915
31
0.0
0
LINE
8
1
62
3
10
0.781348
20
1.07915
30
0.0
11
0.657356
21
1.09776
31
0.0
0
LINE
8
1
62
3
10
0.657356
20
1.09776
30
0.0
11
0.525338
21
1.108713
31
0.0
0
LINE
8
1
62
3
10
0.525338
20
1.108713
30
0.0
11
0.479771
21
1.108848
31
0.0
0
LINE
8
1
62
3
10
0.479771
20
1.108848
30
0.0
11
0.452301
21
1.105259
31
0.0
0
LINE
8
1
62
3
10
0.452301
20
1.105259
30
0.0
11
0.44182
21
1.098123
31
0.0
0
LINE
8
1
62
3
10
0.44182
20
1.098123
30
0.0
11
0.437704
21
1.08765
31
0.0
0
LINE
8
1
62
3
10
0.437704
20
1.08765
30
0.0
11
0.44022
21
1.077312
31
0.0
0
LINE
8
1
62
3
10
0.44022
20
1.077312
30
0.0
11
0.449636
21
1.070582
31
0.0
0
LINE
8
1
62
3
10
0.449636
20
1.070582
30
0.0
11
0.557233
21
1.059312
31
0.0
0
LINE
8
1
62
3
10
0.557233
20
1.059312
30
0.0
11
0.714527
21
1.04284
31
0.0
0
LINE
8
1
62
3
10
0.714527
20
1.04284
30
0.0
11
0.819313
21
1.02682
31
0.0
0
LINE
8
1
62
3
10
0.819313
20
1.02682
30
0.0
11
0.828815
21
1.017419
31
0.0
0
LINE
8
1
62
3
10
0.828815
20
1.017419
30
0.0
11
0.83536
21
0.999683
31
0.0
0
LINE
8
1
62
3
10
0.83536
20
0.999683
30
0.0
11
0.841423
21
0.982563
31
0.0
0
LINE
8
1
62
3
10
0.841423
20
0.982563
30
0.0
11
0.855463
21
0.970479
31
0.0
0
LINE
8
1
62
3
10
0.855463
20
0.970479
30
0.0
11
0.882837
21
0.960586
31
0.0
0
LINE
8
1
62
3
10
0.882837
20
0.960586
30
0.0
11
0.928907
21
0.95004
31
0.0
0
LINE
8
1
62
3
10
0.928907
20
0.95004
30
0.0
11
1.073987
21
0.926909
31
0.0
0
LINE
8
1
62
3
10
1.073987
20
0.926909
30
0.0
11
1.261307
21
0.907122
31
0.0
0
LINE
8
1
62
3
10
1.261307
20
0.907122
30
0.0
11
1.470518
21
0.892447
31
0.0
0
LINE
8
1
62
3
10
1.470518
20
0.892447
30
0.0
11
1.681266
21
0.884654
31
0.0
0
LINE
8
1
62
3
10
1.681266
20
0.884654
30
0.0
11
1.884548
21
0.880917
31
0.0
0
LINE
8
1
62
3
10
1.884548
20
0.880917
30
0.0
11
1.905477
21
0.900968
31
0.0
0
LINE
8
1
62
3
10
1.905477
20
0.900968
30
0.0
11
1.926405
21
0.921018
31
0.0
0
LINE
8
1
62
3
10
1.926405
20
0.921018
30
0.0
11
1.956194
21
0.905525
31
0.0
0
LINE
8
1
62
3
10
1.956194
20
0.905525
30
0.0
11
1.976212
21
0.897286
31
0.0
0
LINE
8
1
62
3
10
1.976212
20
0.897286
30
0.0
11
2.003723
21
0.891461
31
0.0
0
LINE
8
1
62
3
10
2.003723
20
0.891461
30
0.0
11
2.112983
21
0.882369
31
0.0
0
LINE
8
1
62
3
10
2.112983
20
0.882369
30
0.0
11
2.335233
21
0.865562
31
0.0
0
LINE
8
1
62
3
10
2.335233
20
0.865562
30
0.0
11
2.501421
21
0.855506
31
0.0
0
LINE
8
1
62
3
10
2.501421
20
0.855506
30
0.0
11
2.552704
21
0.857546
31
0.0
0
LINE
8
1
62
3
10
2.552704
20
0.857546
30
0.0
11
2.578799
21
0.86432
31
0.0
0
LINE
8
1
62
3
10
4.507326
20
0.924156
30
0.0
11
4.718863
21
1.001373
31
0.0
0
LINE
8
1
62
3
10
4.718863
20
1.001373
30
0.0
11
4.802004
21
1.036293
31
0.0
0
LINE
8
1
62
3
10
4.802004
20
1.036293
30
0.0
11
4.85294
21
1.061928
31
0.0
0
LINE
8
1
62
3
10
4.85294
20
1.061928
30
0.0
11
4.878481
21
1.081863
31
0.0
0
LINE
8
1
62
3
10
4.878481
20
1.081863
30
0.0
11
4.900253
21
1.104772
31
0.0
0
LINE
8
1
62
3
10
4.900253
20
1.104772
30
0.0
11
4.912788
21
1.125008
31
0.0
0
LINE
8
1
62
3
10
4.912788
20
1.125008
30
0.0
11
4.92138
21
1.161577
31
0.0
0
LINE
8
1
62
3
10
4.92138
20
1.161577
30
0.0
11
4.942044
21
1.387195
31
0.0
0
LINE
8
1
62
3
10
4.942044
20
1.387195
30
0.0
11
4.950677
21
1.53911
31
0.0
0
LINE
8
1
62
3
10
4.950677
20
1.53911
30
0.0
11
4.951485
21
1.670421
31
0.0
0
LINE
8
1
62
3
10
4.951485
20
1.670421
30
0.0
11
4.944877
21
1.765135
31
0.0
0
LINE
8
1
62
3
10
4.944877
20
1.765135
30
0.0
11
4.938921
21
1.793769
31
0.0
0
LINE
8
1
62
3
10
4.938921
20
1.793769
30
0.0
11
4.931265
21
1.807256
31
0.0
0
LINE
8
1
62
3
10
4.931265
20
1.807256
30
0.0
11
4.895545
21
1.816902
31
0.0
0
LINE
8
1
62
3
10
4.895545
20
1.816902
30
0.0
11
4.873159
21
1.823932
31
0.0
0
LINE
8
1
62
3
10
4.873159
20
1.823932
30
0.0
11
4.864079
21
1.838512
31
0.0
0
LINE
8
1
62
3
10
4.864079
20
1.838512
30
0.0
11
4.8616
21
1.854915
31
0.0
0
LINE
8
1
62
3
10
4.8616
20
1.854915
30
0.0
11
4.86481
21
1.866221
31
0.0
0
LINE
8
1
62
3
10
4.86481
20
1.866221
30
0.0
11
4.874956
21
1.874235
31
0.0
0
LINE
8
1
62
3
10
4.874956
20
1.874235
30
0.0
11
4.893287
21
1.880762
31
0.0
0
LINE
8
1
62
3
10
4.893287
20
1.880762
30
0.0
11
4.915683
21
1.890517
31
0.0
0
LINE
8
1
62
3
10
4.915683
20
1.890517
30
0.0
11
4.923531
21
1.905598
31
0.0
0
LINE
8
1
62
3
10
4.923531
20
1.905598
30
0.0
11
4.92166
21
1.934454
31
0.0
0
LINE
8
1
62
3
10
4.92166
20
1.934454
30
0.0
11
4.912092
21
1.972256
31
0.0
0
LINE
8
1
62
3
10
4.912092
20
1.972256
30
0.0
11
4.897939
21
2.009199
31
0.0
0
LINE
8
1
62
3
10
4.897939
20
2.009199
30
0.0
11
4.882314
21
2.035477
31
0.0
0
LINE
8
1
62
3
10
4.882314
20
2.035477
30
0.0
11
4.867508
21
2.056516
31
0.0
0
LINE
8
1
62
3
10
4.867508
20
2.056516
30
0.0
11
4.858688
21
2.07621
31
0.0
0
LINE
8
1
62
3
10
4.858688
20
2.07621
30
0.0
11
4.854132
21
2.094947
31
0.0
0
LINE
8
1
62
3
10
4.854132
20
2.094947
30
0.0
11
4.817816
21
2.081148
31
0.0
0
LINE
8
1
62
3
10
4.817816
20
2.081148
30
0.0
11
4.760263
21
2.067353
31
0.0
0
LINE
8
1
62
3
10
4.760263
20
2.067353
30
0.0
11
4.672886
21
2.053564
31
0.0
0
LINE
8
1
62
3
10
4.672886
20
2.053564
30
0.0
11
4.534544
21
2.033342
31
0.0
0
LINE
8
1
62
3
10
4.534544
20
2.033342
30
0.0
11
4.391807
21
2.018704
31
0.0
0
LINE
8
1
62
3
10
4.391807
20
2.018704
30
0.0
11
4.263117
21
2.00646
31
0.0
0
LINE
8
1
62
3
10
4.263117
20
2.00646
30
0.0
11
4.237084
21
2.000052
31
0.0
0
LINE
8
1
62
3
10
4.237084
20
2.000052
30
0.0
11
4.227826
21
1.992027
31
0.0
0
LINE
8
1
62
3
10
4.227826
20
1.992027
30
0.0
11
4.231069
21
1.987035
31
0.0
0
LINE
8
1
62
3
10
4.231069
20
1.987035
30
0.0
11
4.244709
21
1.984197
31
0.0
0
LINE
8
1
62
3
10
4.244709
20
1.984197
30
0.0
11
4.302334
21
1.984934
31
0.0
0
LINE
8
1
62
3
10
4.302334
20
1.984934
30
0.0
11
4.399007
21
1.994129
31
0.0
0
LINE
8
1
62
3
10
4.399007
20
1.994129
30
0.0
11
4.533039
21
2.011674
31
0.0
0
LINE
8
1
62
3
10
4.533039
20
2.011674
30
0.0
11
4.746469
21
2.039831
31
0.0
0
LINE
8
1
62
3
10
4.746469
20
2.039831
30
0.0
11
4.75864
21
2.036724
31
0.0
0
LINE
8
1
62
3
10
4.75864
20
2.036724
30
0.0
11
4.761864
21
2.028959
31
0.0
0
LINE
8
1
62
3
10
4.761864
20
2.028959
30
0.0
11
4.75643
21
2.018881
31
0.0
0
LINE
8
1
62
3
10
4.75643
20
2.018881
30
0.0
11
4.742629
21
2.008834
31
0.0
0
LINE
8
1
62
3
10
4.742629
20
2.008834
30
0.0
11
4.704949
21
1.995402
31
0.0
0
LINE
8
1
62
3
10
4.704949
20
1.995402
30
0.0
11
4.645415
21
1.981063
31
0.0
0
LINE
8
1
62
3
10
4.645415
20
1.981063
30
0.0
11
4.488373
21
1.953679
31
0.0
0
LINE
8
1
62
3
10
4.488373
20
1.953679
30
0.0
11
4.326686
21
1.934708
31
0.0
0
LINE
8
1
62
3
10
4.326686
20
1.934708
30
0.0
11
4.261346
21
1.930885
31
0.0
0
LINE
8
1
62
3
10
4.261346
20
1.930885
30
0.0
11
4.215539
21
1.932175
31
0.0
0
LINE
8
1
62
3
10
4.215539
20
1.932175
30
0.0
11
4.192172
21
1.936661
31
0.0
0
LINE
8
1
62
3
10
4.192172
20
1.936661
30
0.0
11
4.178222
21
1.943828
31
0.0
0
LINE
8
1
62
3
10
4.178222
20
1.943828
30
0.0
11
4.172432
21
1.954832
31
0.0
0
LINE
8
1
62
3
10
4.172432
20
1.954832
30
0.0
11
4.173546
21
1.97083
31
0.0
0
LINE
8
1
62
3
10
4.173546
20
1.97083
30
0.0
11
4.172997
21
1.992985
31
0.0
0
LINE
8
1
62
3
10
4.172997
20
1.992985
30
0.0
11
4.159378
21
2.019504
31
0.0
0
LINE
8
1
62
3
10
4.159378
20
2.019504
30
0.0
11
4.140713
21
2.047709
31
0.0
0
LINE
8
1
62
3
10
4.140713
20
2.047709
30
0.0
11
4.162251
21
2.072239
31
0.0
0
LINE
8
1
62
3
10
4.162251
20
2.072239
30
0.0
11
4.183623
21
2.101815
31
0.0
0
LINE
8
1
62
3
10
4.183623
20
2.101815
30
0.0
11
4.169512
21
2.159301
31
0.0
0
LINE
8
1
62
3
10
4.169512
20
2.159301
30
0.0
11
4.159663
21
2.204663
31
0.0
0
LINE
8
1
62
3
10
4.159663
20
2.204663
30
0.0
11
4.155567
21
2.240087
31
0.0
0
LINE
8
1
62
3
10
4.155567
20
2.240087
30
0.0
11
4.153592
21
2.261061
31
0.0
0
LINE
8
1
62
3
10
4.153592
20
2.261061
30
0.0
11
4.15107
21
2.261735
31
0.0
0
LINE
8
1
62
3
10
4.15107
20
2.261735
30
0.0
11
4.147476
21
2.25576
31
0.0
0
LINE
8
1
62
3
10
4.147476
20
2.25576
30
0.0
11
4.121662
21
2.163732
31
0.0
0
LINE
8
1
62
3
10
4.121662
20
2.163732
30
0.0
11
4.099248
21
2.083504
31
0.0
0
LINE
8
1
62
3
10
4.099248
20
2.083504
30
0.0
11
4.088768
21
2.063632
31
0.0
0
LINE
8
1
62
3
10
4.088768
20
2.063632
30
0.0
11
4.074872
21
2.047569
31
0.0
0
LINE
8
1
62
3
10
4.074872
20
2.047569
30
0.0
11
4.050006
21
2.022702
31
0.0
0
LINE
8
1
62
3
10
4.050006
20
2.022702
30
0.0
11
3.935217
21
2.038766
31
0.0
0
LINE
8
1
62
3
10
3.935217
20
2.038766
30
0.0
11
3.517619
21
2.091897
31
0.0
0
LINE
8
1
62
3
10
3.517619
20
2.091897
30
0.0
11
3.1404
21
2.128118
31
0.0
0
LINE
8
1
62
3
10
3.1404
20
2.128118
30
0.0
11
2.787934
21
2.148643
31
0.0
0
LINE
8
1
62
3
10
2.787934
20
2.148643
30
0.0
11
2.444594
21
2.154689
31
0.0
0
LINE
8
1
62
3
10
2.444594
20
2.154689
30
0.0
11
2.281293
21
2.15267
31
0.0
0
LINE
8
1
62
3
10
2.281293
20
2.15267
30
0.0
11
2.157302
21
2.146376
31
0.0
0
LINE
8
1
62
3
10
2.157302
20
2.146376
30
0.0
11
2.052079
21
2.134146
31
0.0
0
LINE
8
1
62
3
10
2.052079
20
2.134146
30
0.0
11
1.94508
21
2.114323
31
0.0
0
LINE
8
1
62
3
10
1.94508
20
2.114323
30
0.0
11
1.795696
21
2.07843
31
0.0
0
LINE
8
1
62
3
10
1.795696
20
2.07843
30
0.0
11
1.649329
21
2.034272
31
0.0
0
LINE
8
1
62
3
10
1.649329
20
2.034272
30
0.0
11
1.505152
21
1.981572
31
0.0
0
LINE
8
1
62
3
10
1.505152
20
1.981572
30
0.0
11
1.362338
21
1.920055
31
0.0
0
LINE
8
1
62
3
10
1.362338
20
1.920055
30
0.0
11
1.239264
21
1.857914
31
0.0
0
LINE
8
1
62
3
10
1.239264
20
1.857914
30
0.0
11
1.192127
21
1.829016
31
0.0
0
LINE
8
1
62
3
10
1.192127
20
1.829016
30
0.0
11
1.152851
21
1.800147
31
0.0
0
LINE
8
1
62
3
10
1.152851
20
1.800147
30
0.0
11
1.120134
21
1.770241
31
0.0
0
LINE
8
1
62
3
10
1.120134
20
1.770241
30
0.0
11
1.09267
21
1.738236
31
0.0
0
LINE
8
1
62
3
10
1.09267
20
1.738236
30
0.0
11
1.069158
21
1.703067
31
0.0
0
LINE
8
1
62
3
10
1.069158
20
1.703067
30
0.0
11
1.048292
21
1.663668
31
0.0
0
LINE
8
1
62
3
10
1.048292
20
1.663668
30
0.0
11
1.02692
21
1.616048
31
0.0
0
LINE
8
1
62
3
10
1.02692
20
1.616048
30
0.0
11
1.011971
21
1.571948
31
0.0
0
LINE
8
1
62
3
10
1.011971
20
1.571948
30
0.0
11
0.984359
21
1.433056
31
0.0
0
LINE
8
1
62
3
10
0.984359
20
1.433056
30
0.0
11
0.970702
21
1.36102
31
0.0
0
LINE
8
1
62
3
10
0.970702
20
1.36102
30
0.0
11
0.957488
21
1.31498
31
0.0
0
LINE
8
1
62
3
10
0.957488
20
1.31498
30
0.0
11
0.941636
21
1.287097
31
0.0
0
LINE
8
1
62
3
10
0.941636
20
1.287097
30
0.0
11
0.920061
21
1.269529
31
0.0
0
LINE
8
1
62
3
10
0.920061
20
1.269529
30
0.0
11
0.90031
21
1.255291
31
0.0
0
LINE
8
1
62
3
10
0.90031
20
1.255291
30
0.0
11
0.900497
21
1.250605
31
0.0
0
LINE
8
1
62
3
10
0.900497
20
1.250605
30
0.0
11
0.906179
21
1.245434
31
0.0
0
LINE
8
1
62
3
10
0.906179
20
1.245434
30
0.0
11
0.935969
21
1.233496
31
0.0
0
LINE
8
1
62
3
10
0.935969
20
1.233496
30
0.0
11
1.037011
21
1.211291
31
0.0
0
LINE
8
1
62
3
10
1.037011
20
1.211291
30
0.0
11
1.184422
21
1.192678
31
0.0
0
LINE
8
1
62
3
10
1.184422
20
1.192678
30
0.0
11
1.502678
21
1.1648
31
0.0
0
LINE
8
1
62
3
10
1.502678
20
1.1648
30
0.0
11
1.652577
21
1.159859
31
0.0
0
LINE
8
1
62
3
10
1.652577
20
1.159859
30
0.0
11
1.88568
21
1.159139
31
0.0
0
LINE
8
1
62
3
10
1.88568
20
1.159139
30
0.0
11
2.173432
21
1.161191
31
0.0
0
LINE
8
1
62
3
10
2.173432
20
1.161191
30
0.0
11
2.190113
21
1.197626
31
0.0
0
LINE
8
1
62
3
10
2.190113
20
1.197626
30
0.0
11
2.215458
21
1.240943
31
0.0
0
LINE
8
1
62
3
10
2.215458
20
1.240943
30
0.0
11
2.251434
21
1.277669
31
0.0
0
LINE
8
1
62
3
10
2.251434
20
1.277669
30
0.0
11
2.302658
21
1.309296
31
0.0
0
LINE
8
1
62
3
10
2.302658
20
1.309296
30
0.0
11
2.373746
21
1.337319
31
0.0
0
LINE
8
1
62
3
10
2.373746
20
1.337319
30
0.0
11
2.469315
21
1.363233
31
0.0
0
LINE
8
1
62
3
10
2.469315
20
1.363233
30
0.0
11
2.59398
21
1.38853
31
0.0
0
LINE
8
1
62
3
10
2.59398
20
1.38853
30
0.0
11
2.752359
21
1.414706
31
0.0
0
LINE
8
1
62
3
10
2.752359
20
1.414706
30
0.0
11
2.949067
21
1.443254
31
0.0
0
LINE
8
1
62
3
10
2.949067
20
1.443254
30
0.0
11
3.172092
21
1.472433
31
0.0
0
LINE
8
1
62
3
10
3.172092
20
1.472433
30
0.0
11
3.363022
21
1.490677
31
0.0
0
LINE
8
1
62
3
10
3.363022
20
1.490677
30
0.0
11
3.585652
21
1.502646
31
0.0
0
LINE
8
1
62
3
10
3.585652
20
1.502646
30
0.0
11
3.903777
21
1.512999
31
0.0
0
LINE
8
1
62
3
10
3.903777
20
1.512999
30
0.0
11
3.978524
21
1.517416
31
0.0
0
LINE
8
1
62
3
10
3.978524
20
1.517416
30
0.0
11
3.996197
21
1.521418
31
0.0
0
LINE
8
1
62
3
10
3.996197
20
1.521418
30
0.0
11
4.005937
21
1.527347
31
0.0
0
LINE
8
1
62
3
10
4.005937
20
1.527347
30
0.0
11
4.011914
21
1.537334
31
0.0
0
LINE
8
1
62
3
10
4.011914
20
1.537334
30
0.0
11
4.01592
21
1.555966
31
0.0
0
LINE
8
1
62
3
10
4.01592
20
1.555966
30
0.0
11
4.020384
21
1.637101
31
0.0
0
LINE
8
1
62
3
10
4.020384
20
1.637101
30
0.0
11
4.018608
21
1.751477
31
0.0
0
LINE
8
1
62
3
10
4.018608
20
1.751477
30
0.0
11
4.006296
21
1.839998
31
0.0
0
LINE
8
1
62
3
10
4.006296
20
1.839998
30
0.0
11
3.996191
21
1.874549
31
0.0
0
LINE
8
1
62
3
10
3.996191
20
1.874549
30
0.0
11
3.983457
21
1.902619
31
0.0
0
LINE
8
1
62
3
10
3.983457
20
1.902619
30
0.0
11
3.968094
21
1.924204
31
0.0
0
LINE
8
1
62
3
10
3.968094
20
1.924204
30
0.0
11
3.950103
21
1.939297
31
0.0
0
LINE
8
1
62
3
10
3.950103
20
1.939297
30
0.0
11
3.913057
21
1.956173
31
0.0
0
LINE
8
1
62
3
10
3.913057
20
1.956173
30
0.0
11
3.857469
21
1.976205
31
0.0
0
LINE
8
1
62
3
10
3.857469
20
1.976205
30
0.0
11
3.804931
21
1.995839
31
0.0
0
LINE
8
1
62
3
10
3.804931
20
1.995839
30
0.0
11
3.792623
21
2.003271
31
0.0
0
LINE
8
1
62
3
10
3.792623
20
2.003271
30
0.0
11
3.788678
21
2.00957
31
0.0
0
LINE
8
1
62
3
10
3.788678
20
2.00957
30
0.0
11
3.790771
21
2.015169
31
0.0
0
LINE
8
1
62
3
10
3.790771
20
2.015169
30
0.0
11
3.799109
21
2.018001
31
0.0
0
LINE
8
1
62
3
10
3.799109
20
2.018001
30
0.0
11
3.846886
21
2.016926
31
0.0
0
LINE
8
1
62
3
10
3.846886
20
2.016926
30
0.0
11
3.895142
21
2.01099
31
0.0
0
LINE
8
1
62
3
10
3.895142
20
2.01099
30
0.0
11
3.940326
21
1.999971
31
0.0
0
LINE
8
1
62
3
10
3.940326
20
1.999971
30
0.0
11
3.979945
21
1.984645
31
0.0
0
LINE
8
1
62
3
10
3.979945
20
1.984645
30
0.0
11
4.011508
21
1.965786
31
0.0
0
LINE
8
1
62
3
10
4.011508
20
1.965786
30
0.0
11
4.028908
21
1.950042
31
0.0
0
LINE
8
1
62
3
10
4.028908
20
1.950042
30
0.0
11
4.044172
21
1.930786
31
0.0
0
LINE
8
1
62
3
10
4.044172
20
1.930786
30
0.0
11
4.06886
21
1.880117
31
0.0
0
LINE
8
1
62
3
10
4.06886
20
1.880117
30
0.0
11
4.086721
21
1.810538
31
0.0
0
LINE
8
1
62
3
10
4.086721
20
1.810538
30
0.0
11
4.098902
21
1.718806
31
0.0
0
LINE
8
1
62
3
10
4.098902
20
1.718806
30
0.0
11
4.105519
21
1.635206
31
0.0
0
LINE
8
1
62
3
10
4.105519
20
1.635206
30
0.0
11
4.105854
21
1.580959
31
0.0
0
LINE
8
1
62
3
10
4.105854
20
1.580959
30
0.0
11
4.09918
21
1.545838
31
0.0
0
LINE
8
1
62
3
10
4.09918
20
1.545838
30
0.0
11
4.084773
21
1.519619
31
0.0
0
LINE
8
1
62
3
10
4.084773
20
1.519619
30
0.0
11
4.063368
21
1.490513
31
0.0
0
LINE
8
1
62
3
10
4.063368
20
1.490513
30
0.0
11
4.135926
21
1.455235
31
0.0
0
LINE
8
1
62
3
10
4.135926
20
1.455235
30
0.0
11
4.189268
21
1.426704
31
0.0
0
LINE
8
1
62
3
10
4.189268
20
1.426704
30
0.0
11
4.23288
21
1.39678
31
0.0
0
LINE
8
1
62
3
10
4.23288
20
1.39678
30
0.0
11
4.267882
21
1.363521
31
0.0
0
LINE
8
1
62
3
10
4.267882
20
1.363521
30
0.0
11
4.295395
21
1.324989
31
0.0
0
LINE
8
1
62
3
10
4.295395
20
1.324989
30
0.0
11
4.316538
21
1.27924
31
0.0
0
LINE
8
1
62
3
10
4.316538
20
1.27924
30
0.0
11
4.332434
21
1.224335
31
0.0
0
LINE
8
1
62
3
10
4.332434
20
1.224335
30
0.0
11
4.344202
21
1.158333
31
0.0
0
LINE
8
1
62
3
10
4.344202
20
1.158333
30
0.0
11
4.352962
21
1.079293
31
0.0
0
LINE
8
1
62
3
10
4.352962
20
1.079293
30
0.0
11
4.360117
21
0.945635
31
0.0
0
LINE
8
1
62
3
10
4.360117
20
0.945635
30
0.0
11
4.36318
21
0.894522
31
0.0
0
LINE
8
1
62
3
10
4.36318
20
0.894522
30
0.0
11
4.368072
21
0.885182
31
0.0
0
LINE
8
1
62
3
10
4.368072
20
0.885182
30
0.0
11
4.37621
21
0.882723
31
0.0
0
LINE
8
1
62
3
10
4.37621
20
0.882723
30
0.0
11
4.507326
21
0.924156
31
0.0
0
LINE
8
1
62
3
10
4.279453
20
1.463042
30
0.0
11
4.271381
21
1.503071
31
0.0
0
LINE
8
1
62
3
10
4.271381
20
1.503071
30
0.0
11
4.265246
21
1.567112
31
0.0
0
LINE
8
1
62
3
10
4.265246
20
1.567112
30
0.0
11
4.252134
21
1.715816
31
0.0
0
LINE
8
1
62
3
10
4.252134
20
1.715816
30
0.0
11
4.243448
21
1.767253
31
0.0
0
LINE
8
1
62
3
10
4.243448
20
1.767253
30
0.0
11
4.233061
21
1.805501
31
0.0
0
LINE
8
1
62
3
10
4.233061
20
1.805501
30
0.0
11
4.224201
21
1.838291
31
0.0
0
LINE
8
1
62
3
10
4.224201
20
1.838291
30
0.0
11
4.226594
21
1.857272
31
0.0
0
LINE
8
1
62
3
10
4.226594
20
1.857272
30
0.0
11
4.23831
21
1.869188
31
0.0
0
LINE
8
1
62
3
10
4.23831
20
1.869188
30
0.0
11
4.252153
21
1.867273
31
0.0
0
LINE
8
1
62
3
10
4.252153
20
1.867273
30
0.0
11
4.267274
21
1.853145
31
0.0
0
LINE
8
1
62
3
10
4.267274
20
1.853145
30
0.0
11
4.282821
21
1.828425
31
0.0
0
LINE
8
1
62
3
10
4.282821
20
1.828425
30
0.0
11
4.297944
21
1.794734
31
0.0
0
LINE
8
1
62
3
10
4.297944
20
1.794734
30
0.0
11
4.311792
21
1.753692
31
0.0
0
LINE
8
1
62
3
10
4.311792
20
1.753692
30
0.0
11
4.323513
21
1.706919
31
0.0
0
LINE
8
1
62
3
10
4.323513
20
1.706919
30
0.0
11
4.332258
21
1.656036
31
0.0
0
LINE
8
1
62
3
10
4.332258
20
1.656036
30
0.0
11
4.33803
21
1.590074
31
0.0
0
LINE
8
1
62
3
10
4.33803
20
1.590074
30
0.0
11
4.337995
21
1.529534
31
0.0
0
LINE
8
1
62
3
10
4.337995
20
1.529534
30
0.0
11
4.332538
21
1.481973
31
0.0
0
LINE
8
1
62
3
10
4.332538
20
1.481973
30
0.0
11
4.322042
21
1.454953
31
0.0
0
LINE
8
1
62
3
10
4.322042
20
1.454953
30
0.0
11
4.308943
21
1.443663
31
0.0
0
LINE
8
1
62
3
10
4.308943
20
1.443663
30
0.0
11
4.297757
21
1.441195
31
0.0
0
LINE
8
1
62
3
10
4.297757
20
1.441195
30
0.0
11
4.288066
21
1.447628
31
0.0
0
LINE
8
1
62
3
10
4.288066
20
1.447628
30
0.0
11
4.279453
21
1.463042
31
0.0
0
LINE
8
1
62
3
10
1.495622
20
1.770153
30
0.0
11
1.503176
21
1.79277
31
0.0
0
LINE
8
1
62
3
10
1.503176
20
1.79277
30
0.0
11
1.522821
21
1.821235
31
0.0
0
LINE
8
1
62
3
10
1.522821
20
1.821235
30
0.0
11
1.550034
21
1.85002
31
0.0
0
LINE
8
1
62
3
10
1.550034
20
1.85002
30
0.0
11
1.580289
21
1.873596
31
0.0
0
LINE
8
1
62
3
10
1.580289
20
1.873596
30
0.0
11
1.621541
21
1.894774
31
0.0
0
LINE
8
1
62
3
10
1.621541
20
1.894774
30
0.0
11
1.687706
21
1.923377
31
0.0
0
LINE
8
1
62
3
10
1.687706
20
1.923377
30
0.0
11
1.854927
21
1.986478
31
0.0
0
LINE
8
1
62
3
10
1.854927
20
1.986478
30
0.0
11
2.019267
21
2.036088
31
0.0
0
LINE
8
1
62
3
10
2.019267
20
2.036088
30
0.0
11
2.201825
21
2.08121
31
0.0
0
LINE
8
1
62
3
10
2.201825
20
2.08121
30
0.0
11
2.360541
21
2.112433
31
0.0
0
LINE
8
1
62
3
10
2.360541
20
2.112433
30
0.0
11
2.417814
21
2.119892
31
0.0
0
LINE
8
1
62
3
10
2.417814
20
2.119892
30
0.0
11
2.453353
21
2.120348
31
0.0
0
LINE
8
1
62
3
10
2.453353
20
2.120348
30
0.0
11
2.473613
21
2.115563
31
0.0
0
LINE
8
1
62
3
10
2.473613
20
2.115563
30
0.0
11
2.478639
21
2.110609
31
0.0
0
LINE
8
1
62
3
10
2.478639
20
2.110609
30
0.0
11
2.45659
21
2.099004
31
0.0
0
LINE
8
1
62
3
10
2.45659
20
2.099004
30
0.0
11
2.415365
21
2.084303
31
0.0
0
LINE
8
1
62
3
10
2.415365
20
2.084303
30
0.0
11
2.2929
21
2.051211
31
0.0
0
LINE
8
1
62
3
10
2.2929
20
2.051211
30
0.0
11
1.947178
21
1.96195
31
0.0
0
LINE
8
1
62
3
10
1.947178
20
1.96195
30
0.0
11
1.855748
21
1.932679
31
0.0
0
LINE
8
1
62
3
10
1.855748
20
1.932679
30
0.0
11
1.758069
21
1.89545
31
0.0
0
LINE
8
1
62
3
10
1.758069
20
1.89545
30
0.0
11
1.6739
21
1.858342
31
0.0
0
LINE
8
1
62
3
10
1.6739
20
1.858342
30
0.0
11
1.623005
21
1.829433
31
0.0
0
LINE
8
1
62
3
10
1.623005
20
1.829433
30
0.0
11
1.54793
21
1.772904
31
0.0
0
LINE
8
1
62
3
10
1.54793
20
1.772904
30
0.0
11
1.526875
21
1.761102
31
0.0
0
LINE
8
1
62
3
10
1.526875
20
1.761102
30
0.0
11
1.512721
21
1.757612
31
0.0
0
LINE
8
1
62
3
10
1.512721
20
1.757612
30
0.0
11
1.499791
21
1.760669
31
0.0
0
LINE
8
1
62
3
10
1.499791
20
1.760669
30
0.0
11
1.495622
21
1.770153
31
0.0
0
LINE
8
1
62
3
10
5.269625
20
0.945856
30
0.0
11
5.300517
21
0.966119
31
0.0
0
LINE
8
1
62
3
10
5.300517
20
0.966119
30
0.0
11
5.302838
21
0.972216
31
0.0
0
LINE
8
1
62
3
10
5.302838
20
0.972216
30
0.0
11
5.295348
21
0.974445
31
0.0
0
LINE
8
1
62
3
10
5.295348
20
0.974445
30
0.0
11
5.275448
21
0.967791
31
0.0
0
LINE
8
1
62
3
10
5.275448
20
0.967791
30
0.0
11
5.245699
21
0.952543
31
0.0
0
LINE
8
1
62
3
10
5.245699
20
0.952543
30
0.0
11
5.218649
21
0.935775
31
0.0
0
LINE
8
1
62
3
10
5.218649
20
0.935775
30
0.0
11
5.206844
21
0.924557
31
0.0
0
LINE
8
1
62
3
10
5.206844
20
0.924557
30
0.0
11
5.210864
21
0.921963
31
0.0
0
LINE
8
1
62
3
10
5.210864
20
0.921963
30
0.0
11
5.222795
21
0.924691
31
0.0
0
LINE
8
1
62
3
10
5.222795
20
0.924691
30
0.0
11
5.269625
21
0.945856
31
0.0
0
LINE
8
1
62
3
10
5.529983
20
1.061512
30
0.0
11
5.529337
21
1.088763
31
0.0
0
LINE
8
1
62
3
10
5.529337
20
1.088763
30
0.0
11
5.525247
21
1.111618
31
0.0
0
LINE
8
1
62
3
10
5.525247
20
1.111618
30
0.0
11
5.518958
21
1.125653
31
0.0
0
LINE
8
1
62
3
10
5.518958
20
1.125653
30
0.0
11
5.515377
21
1.12798
31
0.0
0
LINE
8
1
62
3
10
5.515377
20
1.12798
30
0.0
11
5.511713
21
1.126443
31
0.0
0
LINE
8
1
62
3
10
5.511713
20
1.126443
30
0.0
11
5.509291
21
1.094164
31
0.0
0
LINE
8
1
62
3
10
5.509291
20
1.094164
30
0.0
11
5.507308
21
1.068063
31
0.0
0
LINE
8
1
62
3
10
5.507308
20
1.068063
30
0.0
11
5.496656
21
1.045751
31
0.0
0
LINE
8
1
62
3
10
5.496656
20
1.045751
30
0.0
11
5.482011
21
1.018041
31
0.0
0
LINE
8
1
62
3
10
5.482011
20
1.018041
30
0.0
11
5.484854
21
1.010976
31
0.0
0
LINE
8
1
62
3
10
5.484854
20
1.010976
30
0.0
11
5.492239
21
1.00762
31
0.0
0
LINE
8
1
62
3
10
5.492239
20
1.00762
30
0.0
11
5.502447
21
1.008241
31
0.0
0
LINE
8
1
62
3
10
5.502447
20
1.008241
30
0.0
11
5.513761
21
1.013106
31
0.0
0
LINE
8
1
62
3
10
5.513761
20
1.013106
30
0.0
11
5.525337
21
1.028437
31
0.0
0
LINE
8
1
62
3
10
5.525337
20
1.028437
30
0.0
11
5.529983
21
1.061512
31
0.0
0
LINE
8
1
62
3
10
5.372373
20
1.106626
30
0.0
11
5.38116
21
1.19854
31
0.0
0
LINE
8
1
62
3
10
5.38116
20
1.19854
30
0.0
11
5.395414
21
1.283662
31
0.0
0
LINE
8
1
62
3
10
5.395414
20
1.283662
30
0.0
11
5.413605
21
1.354634
31
0.0
0
LINE
8
1
62
3
10
5.413605
20
1.354634
30
0.0
11
5.434205
21
1.4041
31
0.0
0
LINE
8
1
62
3
10
5.434205
20
1.4041
30
0.0
11
5.463902
21
1.446843
31
0.0
0
LINE
8
1
62
3
10
5.463902
20
1.446843
30
0.0
11
5.499011
21
1.485681
31
0.0
0
LINE
8
1
62
3
10
5.499011
20
1.485681
30
0.0
11
5.53431
21
1.51552
31
0.0
0
LINE
8
1
62
3
10
5.53431
20
1.51552
30
0.0
11
5.564578
21
1.531268
31
0.0
0
LINE
8
1
62
3
10
5.564578
20
1.531268
30
0.0
11
5.590799
21
1.536125
31
0.0
0
LINE
8
1
62
3
10
5.590799
20
1.536125
30
0.0
11
5.613293
21
1.535144
31
0.0
0
LINE
8
1
62
3
10
5.613293
20
1.535144
30
0.0
11
5.632501
21
1.527805
31
0.0
0
LINE
8
1
62
3
10
5.632501
20
1.527805
30
0.0
11
5.648862
21
1.513587
31
0.0
0
LINE
8
1
62
3
10
5.648862
20
1.513587
30
0.0
11
5.662817
21
1.49197
31
0.0
0
LINE
8
1
62
3
10
5.662817
20
1.49197
30
0.0
11
5.674807
21
1.462433
31
0.0
0
LINE
8
1
62
3
10
5.674807
20
1.462433
30
0.0
11
5.694652
21
1.377518
31
0.0
0
LINE
8
1
62
3
10
5.694652
20
1.377518
30
0.0
11
5.702602
21
1.331865
31
0.0
0
LINE
8
1
62
3
10
5.702602
20
1.331865
30
0.0
11
5.713473
21
1.352474
31
0.0
0
LINE
8
1
62
3
10
5.713473
20
1.352474
30
0.0
11
5.718902
21
1.367203
31
0.0
0
LINE
8
1
62
3
10
5.718902
20
1.367203
30
0.0
11
5.721118
21
1.389718
31
0.0
0
LINE
8
1
62
3
10
5.721118
20
1.389718
30
0.0
11
5.716639
21
1.4895
31
0.0
0
LINE
8
1
62
3
10
5.716639
20
1.4895
30
0.0
11
5.706352
21
1.597585
31
0.0
0
LINE
8
1
62
3
10
5.706352
20
1.597585
30
0.0
11
5.69759
21
1.628187
31
0.0
0
LINE
8
1
62
3
10
5.69759
20
1.628187
30
0.0
11
5.682641
21
1.662362
31
0.0
0
LINE
8
1
62
3
10
5.682641
20
1.662362
30
0.0
11
5.656851
21
1.714744
31
0.0
0
LINE
8
1
62
3
10
5.656851
20
1.714744
30
0.0
11
5.634954
21
1.750535
31
0.0
0
LINE
8
1
62
3
10
5.634954
20
1.750535
30
0.0
11
5.6125
21
1.775864
31
0.0
0
LINE
8
1
62
3
10
5.6125
20
1.775864
30
0.0
11
5.58504
21
1.796864
31
0.0
0
LINE
8
1
62
3
10
5.58504
20
1.796864
30
0.0
11
5.561807
21
1.811111
31
0.0
0
LINE
8
1
62
3
10
5.561807
20
1.811111
30
0.0
11
5.539379
21
1.819589
31
0.0
0
LINE
8
1
62
3
10
5.539379
20
1.819589
30
0.0
11
5.454828
21
1.829927
31
0.0
0
LINE
8
1
62
3
10
5.454828
20
1.829927
30
0.0
11
5.372133
21
1.834263
31
0.0
0
LINE
8
1
62
3
10
5.372133
20
1.834263
30
0.0
11
5.312546
21
1.830064
31
0.0
0
LINE
8
1
62
3
10
5.312546
20
1.830064
30
0.0
11
5.276825
21
1.822397
31
0.0
0
LINE
8
1
62
3
10
5.276825
20
1.822397
30
0.0
11
5.241294
21
1.810729
31
0.0
0
LINE
8
1
62
3
10
5.241294
20
1.810729
30
0.0
11
5.17395
21
1.777333
31
0.0
0
LINE
8
1
62
3
10
5.17395
20
1.777333
30
0.0
11
5.116814
21
1.73377
31
0.0
0
LINE
8
1
62
3
10
5.116814
20
1.73377
30
0.0
11
5.094043
21
1.709392
31
0.0
0
LINE
8
1
62
3
10
5.094043
20
1.709392
30
0.0
11
5.076185
21
1.683934
31
0.0
0
LINE
8
1
62
3
10
5.076185
20
1.683934
30
0.0
11
5.058526
21
1.645498
31
0.0
0
LINE
8
1
62
3
10
5.058526
20
1.645498
30
0.0
11
5.045422
21
1.594556
31
0.0
0
LINE
8
1
62
3
10
5.045422
20
1.594556
30
0.0
11
5.035326
21
1.522937
31
0.0
0
LINE
8
1
62
3
10
5.035326
20
1.522937
30
0.0
11
5.026691
21
1.422473
31
0.0
0
LINE
8
1
62
3
10
5.026691
20
1.422473
30
0.0
11
5.014999
21
1.292091
31
0.0
0
LINE
8
1
62
3
10
5.014999
20
1.292091
30
0.0
11
5.001783
21
1.186685
31
0.0
0
LINE
8
1
62
3
10
5.001783
20
1.186685
30
0.0
11
4.992005
21
1.114215
31
0.0
0
LINE
8
1
62
3
10
4.992005
20
1.114215
30
0.0
11
4.992624
21
1.098124
31
0.0
0
LINE
8
1
62
3
10
4.992624
20
1.098124
30
0.0
11
4.996621
21
1.089949
31
0.0
0
LINE
8
1
62
3
10
4.996621
20
1.089949
30
0.0
11
5.037926
21
1.080308
31
0.0
0
LINE
8
1
62
3
10
5.037926
20
1.080308
30
0.0
11
5.139817
21
1.069676
31
0.0
0
LINE
8
1
62
3
10
5.139817
20
1.069676
30
0.0
11
5.28638
21
1.053574
31
0.0
0
LINE
8
1
62
3
10
5.28638
20
1.053574
30
0.0
11
5.320418
21
1.044233
31
0.0
0
LINE
8
1
62
3
10
5.320418
20
1.044233
30
0.0
11
5.341961
21
1.031449
31
0.0
0
LINE
8
1
62
3
10
5.341961
20
1.031449
30
0.0
11
5.362942
21
1.020847
31
0.0
0
LINE
8
1
62
3
10
5.362942
20
1.020847
30
0.0
11
5.372373
21
1.106626
31
0.0
0
LINE
8
1
62
3
10
5.138263
20
1.102057
30
0.0
11
5.081011
21
1.109595
31
0.0
0
LINE
8
1
62
3
10
5.081011
20
1.109595
30
0.0
11
5.048439
21
1.118534
31
0.0
0
LINE
8
1
62
3
10
5.048439
20
1.118534
30
0.0
11
5.04076
21
1.123838
31
0.0
0
LINE
8
1
62
3
10
5.04076
20
1.123838
30
0.0
11
5.038474
21
1.129863
31
0.0
0
LINE
8
1
62
3
10
5.038474
20
1.129863
30
0.0
11
5.049046
21
1.144568
31
0.0
0
LINE
8
1
62
3
10
5.049046
20
1.144568
30
0.0
11
5.07036
21
1.152486
31
0.0
0
LINE
8
1
62
3
10
5.07036
20
1.152486
30
0.0
11
5.109782
21
1.15964
31
0.0
0
LINE
8
1
62
3
10
5.109782
20
1.15964
30
0.0
11
5.210372
21
1.167101
31
0.0
0
LINE
8
1
62
3
10
5.210372
20
1.167101
30
0.0
11
5.248369
21
1.162947
31
0.0
0
LINE
8
1
62
3
10
5.248369
20
1.162947
30
0.0
11
5.289263
21
1.152294
31
0.0
0
LINE
8
1
62
3
10
5.289263
20
1.152294
30
0.0
11
5.322878
21
1.138482
31
0.0
0
LINE
8
1
62
3
10
5.322878
20
1.138482
30
0.0
11
5.339041
21
1.124853
31
0.0
0
LINE
8
1
62
3
10
5.339041
20
1.124853
30
0.0
11
5.337414
21
1.11648
31
0.0
0
LINE
8
1
62
3
10
5.337414
20
1.11648
30
0.0
11
5.327261
21
1.109478
31
0.0
0
LINE
8
1
62
3
10
5.327261
20
1.109478
30
0.0
11
5.285018
21
1.100003
31
0.0
0
LINE
8
1
62
3
10
5.285018
20
1.100003
30
0.0
11
5.219592
21
1.097253
31
0.0
0
LINE
8
1
62
3
10
5.219592
20
1.097253
30
0.0
11
5.138263
21
1.102057
31
0.0
0
LINE
8
1
62
3
10
2.575586
20
1.038193
30
0.0
11
2.586052
21
1.046616
31
0.0
0
LINE
8
1
62
3
10
2.586052
20
1.046616
30
0.0
11
2.588472
21
1.055679
31
0.0
0
LINE
8
1
62
3
10
2.588472
20
1.055679
30
0.0
11
2.58301
21
1.064425
31
0.0
0
LINE
8
1
62
3
10
2.58301
20
1.064425
30
0.0
11
2.56983
21
1.071894
31
0.0
0
LINE
8
1
62
3
10
2.56983
20
1.071894
30
0.0
11
2.501474
21
1.090324
31
0.0
0
LINE
8
1
62
3
10
2.501474
20
1.090324
30
0.0
11
2.393446
21
1.102417
31
0.0
0
LINE
8
1
62
3
10
2.393446
20
1.102417
30
0.0
11
2.217065
21
1.110174
31
0.0
0
LINE
8
1
62
3
10
2.217065
20
1.110174
30
0.0
11
1.94365
21
1.115596
31
0.0
0
LINE
8
1
62
3
10
1.94365
20
1.115596
30
0.0
11
1.502678
21
1.125548
31
0.0
0
LINE
8
1
62
3
10
1.502678
20
1.125548
30
0.0
11
1.37215
21
1.137108
31
0.0
0
LINE
8
1
62
3
10
1.37215
20
1.137108
30
0.0
11
1.126027
21
1.165155
31
0.0
0
LINE
8
1
62
3
10
1.126027
20
1.165155
30
0.0
11
1.005297
21
1.182884
31
0.0
0
LINE
8
1
62
3
10
1.005297
20
1.182884
30
0.0
11
0.928899
21
1.197275
31
0.0
0
LINE
8
1
62
3
10
0.928899
20
1.197275
30
0.0
11
0.849874
21
1.225313
31
0.0
0
LINE
8
1
62
3
10
0.849874
20
1.225313
30
0.0
11
0.797999
21
1.239956
31
0.0
0
LINE
8
1
62
3
10
0.797999
20
1.239956
30
0.0
11
0.713971
21
1.254528
31
0.0
0
LINE
8
1
62
3
10
0.713971
20
1.254528
30
0.0
11
0.618347
21
1.266044
31
0.0
0
LINE
8
1
62
3
10
0.618347
20
1.266044
30
0.0
11
0.531687
21
1.271518
31
0.0
0
LINE
8
1
62
3
10
0.531687
20
1.271518
30
0.0
11
0.485134
21
1.269704
31
0.0
0
LINE
8
1
62
3
10
0.485134
20
1.269704
30
0.0
11
0.472975
21
1.265323
31
0.0
0
LINE
8
1
62
3
10
0.472975
20
1.265323
30
0.0
11
0.463341
21
1.257633
31
0.0
0
LINE
8
1
62
3
10
0.463341
20
1.257633
30
0.0
11
0.45328
21
1.244044
31
0.0
0
LINE
8
1
62
3
10
0.45328
20
1.244044
30
0.0
11
0.456923
21
1.234211
31
0.0
0
LINE
8
1
62
3
10
0.456923
20
1.234211
30
0.0
11
0.509004
21
1.224013
31
0.0
0
LINE
8
1
62
3
10
0.509004
20
1.224013
30
0.0
11
0.621083
21
1.208262
31
0.0
0
LINE
8
1
62
3
10
0.621083
20
1.208262
30
0.0
11
0.82289
21
1.186484
31
0.0
0
LINE
8
1
62
3
10
0.82289
20
1.186484
30
0.0
11
0.836105
21
1.181123
31
0.0
0
LINE
8
1
62
3
10
0.836105
20
1.181123
30
0.0
11
0.845263
21
1.165492
31
0.0
0
LINE
8
1
62
3
10
0.845263
20
1.165492
30
0.0
11
0.85343
21
1.149114
31
0.0
0
LINE
8
1
62
3
10
0.85343
20
1.149114
30
0.0
11
0.868436
21
1.13767
31
0.0
0
LINE
8
1
62
3
10
0.868436
20
1.13767
30
0.0
11
0.896861
21
1.127954
31
0.0
0
LINE
8
1
62
3
10
0.896861
20
1.127954
30
0.0
11
0.945289
21
1.11676
31
0.0
0
LINE
8
1
62
3
10
0.945289
20
1.11676
30
0.0
11
1.090399
21
1.092385
31
0.0
0
LINE
8
1
62
3
10
1.090399
20
1.092385
30
0.0
11
1.275135
21
1.071537
31
0.0
0
LINE
8
1
62
3
10
1.275135
20
1.071537
30
0.0
11
1.481255
21
1.055917
31
0.0
0
LINE
8
1
62
3
10
1.481255
20
1.055917
30
0.0
11
1.69052
21
1.047228
31
0.0
0
LINE
8
1
62
3
10
1.69052
20
1.047228
30
0.0
11
1.860762
21
1.04552
31
0.0
0
LINE
8
1
62
3
10
1.860762
20
1.04552
30
0.0
11
1.892197
21
1.049662
31
0.0
0
LINE
8
1
62
3
10
1.892197
20
1.049662
30
0.0
11
1.914059
21
1.058449
31
0.0
0
LINE
8
1
62
3
10
1.914059
20
1.058449
30
0.0
11
1.945265
21
1.069851
31
0.0
0
LINE
8
1
62
3
10
1.945265
20
1.069851
30
0.0
11
1.973162
21
1.066919
31
0.0
0
LINE
8
1
62
3
10
1.973162
20
1.066919
30
0.0
11
2.033634
21
1.059579
31
0.0
0
LINE
8
1
62
3
10
2.033634
20
1.059579
30
0.0
11
2.141205
21
1.051904
31
0.0
0
LINE
8
1
62
3
10
2.141205
20
1.051904
30
0.0
11
2.338761
21
1.038428
31
0.0
0
LINE
8
1
62
3
10
2.338761
20
1.038428
30
0.0
11
2.483236
21
1.032066
31
0.0
0
LINE
8
1
62
3
10
2.483236
20
1.032066
30
0.0
11
2.544006
21
1.03356
31
0.0
0
LINE
8
1
62
3
10
2.544006
20
1.03356
30
0.0
11
2.575586
21
1.038193
31
0.0
0
LINE
8
1
62
3
10
0.257869
20
1.140151
30
0.0
11
0.274599
21
1.155431
31
0.0
0
LINE
8
1
62
3
10
0.274599
20
1.155431
30
0.0
11
0.280943
21
1.168119
31
0.0
0
LINE
8
1
62
3
10
0.280943
20
1.168119
30
0.0
11
0.276949
21
1.178683
31
0.0
0
LINE
8
1
62
3
10
0.276949
20
1.178683
30
0.0
11
0.262664
21
1.187594
31
0.0
0
LINE
8
1
62
3
10
0.262664
20
1.187594
30
0.0
11
0.224547
21
1.212797
31
0.0
0
LINE
8
1
62
3
10
0.224547
20
1.212797
30
0.0
11
0.213303
21
1.221967
31
0.0
0
LINE
8
1
62
3
10
0.213303
20
1.221967
30
0.0
11
0.203002
21
1.226121
31
0.0
0
LINE
8
1
62
3
10
0.203002
20
1.226121
30
0.0
11
0.168103
21
1.22225
31
0.0
0
LINE
8
1
62
3
10
0.168103
20
1.22225
30
0.0
11
0.103914
21
1.210687
31
0.0
0
LINE
8
1
62
3
10
0.103914
20
1.210687
30
0.0
11
0.084764
21
1.204765
31
0.0
0
LINE
8
1
62
3
10
0.084764
20
1.204765
30
0.0
11
0.077804
21
1.194563
31
0.0
0
LINE
8
1
62
3
10
0.077804
20
1.194563
30
0.0
11
0.083017
21
1.179836
31
0.0
0
LINE
8
1
62
3
10
0.083017
20
1.179836
30
0.0
11
0.100386
21
1.16034
31
0.0
0
LINE
8
1
62
3
10
0.100386
20
1.16034
30
0.0
11
0.128181
21
1.135825
31
0.0
0
LINE
8
1
62
3
10
0.128181
20
1.135825
30
0.0
11
0.149535
21
1.12232
31
0.0
0
LINE
8
1
62
3
10
0.149535
20
1.12232
30
0.0
11
0.170251
21
1.117262
31
0.0
0
LINE
8
1
62
3
10
0.170251
20
1.117262
30
0.0
11
0.196133
21
1.118091
31
0.0
0
LINE
8
1
62
3
10
0.196133
20
1.118091
30
0.0
11
0.230415
21
1.125319
31
0.0
0
LINE
8
1
62
3
10
0.230415
20
1.125319
30
0.0
11
0.257869
21
1.140151
31
0.0
0
LINE
8
1
62
3
10
0.425189
20
1.130693
30
0.0
11
0.444216
21
1.138938
31
0.0
0
LINE
8
1
62
3
10
0.444216
20
1.138938
30
0.0
11
0.46661
21
1.142949
31
0.0
0
LINE
8
1
62
3
10
0.46661
20
1.142949
30
0.0
11
0.563595
21
1.141584
31
0.0
0
LINE
8
1
62
3
10
0.563595
20
1.141584
30
0.0
11
0.63851
21
1.140327
31
0.0
0
LINE
8
1
62
3
10
0.63851
20
1.140327
30
0.0
11
0.665934
21
1.143269
31
0.0
0
LINE
8
1
62
3
10
0.665934
20
1.143269
30
0.0
11
0.62968
21
1.150804
31
0.0
0
LINE
8
1
62
3
10
0.62968
20
1.150804
30
0.0
11
0.551495
21
1.160591
31
0.0
0
LINE
8
1
62
3
10
0.551495
20
1.160591
30
0.0
11
0.471282
21
1.170727
31
0.0
0
LINE
8
1
62
3
10
0.471282
20
1.170727
30
0.0
11
0.430149
21
1.179101
31
0.0
0
LINE
8
1
62
3
10
0.430149
20
1.179101
30
0.0
11
0.416831
21
1.189111
31
0.0
0
LINE
8
1
62
3
10
0.416831
20
1.189111
30
0.0
11
0.405602
21
1.202846
31
0.0
0
LINE
8
1
62
3
10
0.405602
20
1.202846
30
0.0
11
0.397848
21
1.218184
31
0.0
0
LINE
8
1
62
3
10
0.397848
20
1.218184
30
0.0
11
0.394955
21
1.233001
31
0.0
0
LINE
8
1
62
3
10
0.394955
20
1.233001
30
0.0
11
0.400348
21
1.251024
31
0.0
0
LINE
8
1
62
3
10
0.400348
20
1.251024
30
0.0
11
0.41474
21
1.271352
31
0.0
0
LINE
8
1
62
3
10
0.41474
20
1.271352
30
0.0
11
0.435456
21
1.290942
31
0.0
0
LINE
8
1
62
3
10
0.435456
20
1.290942
30
0.0
11
0.459819
21
1.306752
31
0.0
0
LINE
8
1
62
3
10
0.459819
20
1.306752
30
0.0
11
0.477324
21
1.314583
31
0.0
0
LINE
8
1
62
3
10
0.477324
20
1.314583
30
0.0
11
0.495992
21
1.317545
31
0.0
0
LINE
8
1
62
3
10
0.495992
20
1.317545
30
0.0
11
0.577397
21
1.30997
31
0.0
0
LINE
8
1
62
3
10
0.577397
20
1.30997
30
0.0
11
0.717048
21
1.299
31
0.0
0
LINE
8
1
62
3
10
0.717048
20
1.299
30
0.0
11
0.766933
21
1.299
31
0.0
0
LINE
8
1
62
3
10
0.766933
20
1.299
30
0.0
11
0.790847
21
1.346623
31
0.0
0
LINE
8
1
62
3
10
0.790847
20
1.346623
30
0.0
11
0.818115
21
1.3905
31
0.0
0
LINE
8
1
62
3
10
0.818115
20
1.3905
30
0.0
11
0.853567
21
1.425238
31
0.0
0
LINE
8
1
62
3
10
0.853567
20
1.425238
30
0.0
11
0.879994
21
1.449223
31
0.0
0
LINE
8
1
62
3
10
0.879994
20
1.449223
30
0.0
11
0.896824
21
1.4751
31
0.0
0
LINE
8
1
62
3
10
0.896824
20
1.4751
30
0.0
11
0.908042
21
1.511753
31
0.0
0
LINE
8
1
62
3
10
0.908042
20
1.511753
30
0.0
11
0.917632
21
1.568066
31
0.0
0
LINE
8
1
62
3
10
0.917632
20
1.568066
30
0.0
11
0.922187
21
1.613046
31
0.0
0
LINE
8
1
62
3
10
0.922187
20
1.613046
30
0.0
11
0.918412
21
1.632088
31
0.0
0
LINE
8
1
62
3
10
0.918412
20
1.632088
30
0.0
11
0.899992
21
1.635763
31
0.0
0
LINE
8
1
62
3
10
0.899992
20
1.635763
30
0.0
11
0.861127
21
1.633745
31
0.0
0
LINE
8
1
62
3
10
0.861127
20
1.633745
30
0.0
11
0.739114
21
1.615711
31
0.0
0
LINE
8
1
62
3
10
0.739114
20
1.615711
30
0.0
11
0.586469
21
1.584143
31
0.0
0
LINE
8
1
62
3
10
0.586469
20
1.584143
30
0.0
11
0.437289
21
1.545201
31
0.0
0
LINE
8
1
62
3
10
0.437289
20
1.545201
30
0.0
11
0.301316
21
1.501334
31
0.0
0
LINE
8
1
62
3
10
0.301316
20
1.501334
30
0.0
11
0.268058
21
1.487056
31
0.0
0
LINE
8
1
62
3
10
0.268058
20
1.487056
30
0.0
11
0.25555
21
1.47698
31
0.0
0
LINE
8
1
62
3
10
0.25555
20
1.47698
30
0.0
11
0.260342
21
1.467834
31
0.0
0
LINE
8
1
62
3
10
0.260342
20
1.467834
30
0.0
11
0.276153
21
1.458262
31
0.0
0
LINE
8
1
62
3
10
0.276153
20
1.458262
30
0.0
11
0.321295
21
1.431797
31
0.0
0
LINE
8
1
62
3
10
0.321295
20
1.431797
30
0.0
11
0.364275
21
1.394596
31
0.0
0
LINE
8
1
62
3
10
0.364275
20
1.394596
30
0.0
11
0.396423
21
1.355468
31
0.0
0
LINE
8
1
62
3
10
0.396423
20
1.355468
30
0.0
11
0.405725
21
1.337935
31
0.0
0
LINE
8
1
62
3
10
0.405725
20
1.337935
30
0.0
11
0.409067
21
1.323225
31
0.0
0
LINE
8
1
62
3
10
0.409067
20
1.323225
30
0.0
11
0.403971
21
1.308131
31
0.0
0
LINE
8
1
62
3
10
0.403971
20
1.308131
30
0.0
11
0.39172
21
1.294297
31
0.0
0
LINE
8
1
62
3
10
0.39172
20
1.294297
30
0.0
11
0.376483
21
1.274451
31
0.0
0
LINE
8
1
62
3
10
0.376483
20
1.274451
30
0.0
11
0.367079
21
1.2355
31
0.0
0
LINE
8
1
62
3
10
0.367079
20
1.2355
30
0.0
11
0.360825
21
1.180997
31
0.0
0
LINE
8
1
62
3
10
0.360825
20
1.180997
30
0.0
11
0.365181
21
1.173281
31
0.0
0
LINE
8
1
62
3
10
0.365181
20
1.173281
30
0.0
11
0.375553
21
1.170727
31
0.0
0
LINE
8
1
62
3
10
0.375553
20
1.170727
30
0.0
11
0.383663
21
1.168582
31
0.0
0
LINE
8
1
62
3
10
0.383663
20
1.168582
30
0.0
11
0.388374
21
1.164042
31
0.0
0
LINE
8
1
62
3
10
0.388374
20
1.164042
30
0.0
11
0.390623
21
1.142014
31
0.0
0
LINE
8
1
62
3
10
0.390623
20
1.142014
30
0.0
11
0.392668
21
1.115556
31
0.0
0
LINE
8
1
62
3
10
0.392668
20
1.115556
30
0.0
11
0.425189
21
1.130693
31
0.0
0
LINE
8
1
62
3
10
5.552567
20
1.186112
30
0.0
11
5.550494
21
1.196078
31
0.0
0
LINE
8
1
62
3
10
5.550494
20
1.196078
30
0.0
11
5.545511
21
1.200223
31
0.0
0
LINE
8
1
62
3
10
5.545511
20
1.200223
30
0.0
11
5.538455
21
1.197272
31
0.0
0
LINE
8
1
62
3
10
5.538455
20
1.197272
30
0.0
11
5.534173
21
1.183161
31
0.0
0
LINE
8
1
62
3
10
5.534173
20
1.183161
30
0.0
11
5.533857
21
1.174834
31
0.0
0
LINE
8
1
62
3
10
5.533857
20
1.174834
30
0.0
11
5.541228
21
1.172
31
0.0
0
LINE
8
1
62
3
10
5.541228
20
1.172
30
0.0
11
5.549385
21
1.17596
31
0.0
0
LINE
8
1
62
3
10
5.549385
20
1.17596
30
0.0
11
5.552567
21
1.186112
31
0.0
0
LINE
8
1
62
3
10
5.482011
20
1.238273
30
0.0
11
5.478939
21
1.246364
31
0.0
0
LINE
8
1
62
3
10
5.478939
20
1.246364
30
0.0
11
5.471745
21
1.251796
31
0.0
0
LINE
8
1
62
3
10
5.471745
20
1.251796
30
0.0
11
5.463463
21
1.253224
31
0.0
0
LINE
8
1
62
3
10
5.463463
20
1.253224
30
0.0
11
5.457126
21
1.249303
31
0.0
0
LINE
8
1
62
3
10
5.457126
20
1.249303
30
0.0
11
5.457317
21
1.2355
31
0.0
0
LINE
8
1
62
3
10
5.457317
20
1.2355
30
0.0
11
5.463926
21
1.229897
31
0.0
0
LINE
8
1
62
3
10
5.463926
20
1.229897
30
0.0
11
5.472109
21
1.228701
31
0.0
0
LINE
8
1
62
3
10
5.472109
20
1.228701
30
0.0
11
5.479069
21
1.231597
31
0.0
0
LINE
8
1
62
3
10
5.479069
20
1.231597
30
0.0
11
5.482011
21
1.238273
31
0.0
0
LINE
8
1
62
3
10
0.880849
20
1.290188
30
0.0
11
0.887305
21
1.313509
31
0.0
0
LINE
8
1
62
3
10
0.887305
20
1.313509
30
0.0
11
0.889934
21
1.344674
31
0.0
0
LINE
8
1
62
3
10
0.889934
20
1.344674
30
0.0
11
0.888496
21
1.371966
31
0.0
0
LINE
8
1
62
3
10
0.888496
20
1.371966
30
0.0
11
0.882752
21
1.383667
31
0.0
0
LINE
8
1
62
3
10
0.882752
20
1.383667
30
0.0
11
0.871857
21
1.370339
31
0.0
0
LINE
8
1
62
3
10
0.871857
20
1.370339
30
0.0
11
0.857307
21
1.340153
31
0.0
0
LINE
8
1
62
3
10
0.857307
20
1.340153
30
0.0
11
0.845335
21
1.307803
31
0.0
0
LINE
8
1
62
3
10
0.845335
20
1.307803
30
0.0
11
0.842173
21
1.287986
31
0.0
0
LINE
8
1
62
3
10
0.842173
20
1.287986
30
0.0
11
0.849384
21
1.280266
31
0.0
0
LINE
8
1
62
3
10
0.849384
20
1.280266
30
0.0
11
0.860554
21
1.278192
31
0.0
0
LINE
8
1
62
3
10
0.860554
20
1.278192
30
0.0
11
0.872203
21
1.281566
31
0.0
0
LINE
8
1
62
3
10
0.872203
20
1.281566
30
0.0
11
0.880849
21
1.290188
31
0.0
0
LINE
8
1
62
3
10
0.222166
20
1.321756
30
0.0
11
0.244539
21
1.345553
31
0.0
0
LINE
8
1
62
3
10
0.244539
20
1.345553
30
0.0
11
0.253844
21
1.360906
31
0.0
0
LINE
8
1
62
3
10
0.253844
20
1.360906
30
0.0
11
0.245036
21
1.371501
31
0.0
0
LINE
8
1
62
3
10
0.245036
20
1.371501
30
0.0
11
0.223858
21
1.383857
31
0.0
0
LINE
8
1
62
3
10
0.223858
20
1.383857
30
0.0
11
0.186563
21
1.395316
31
0.0
0
LINE
8
1
62
3
10
0.186563
20
1.395316
30
0.0
11
0.149281
21
1.396991
31
0.0
0
LINE
8
1
62
3
10
0.149281
20
1.396991
30
0.0
11
0.115234
21
1.38916
31
0.0
0
LINE
8
1
62
3
10
0.115234
20
1.38916
30
0.0
11
0.087645
21
1.372101
31
0.0
0
LINE
8
1
62
3
10
0.087645
20
1.372101
30
0.0
11
0.074573
21
1.356029
31
0.0
0
LINE
8
1
62
3
10
0.074573
20
1.356029
30
0.0
11
0.071737
21
1.342942
31
0.0
0
LINE
8
1
62
3
10
0.071737
20
1.342942
30
0.0
11
0.078787
21
1.334628
31
0.0
0
LINE
8
1
62
3
10
0.078787
20
1.334628
30
0.0
11
0.095369
21
1.332879
31
0.0
0
LINE
8
1
62
3
10
0.095369
20
1.332879
30
0.0
11
0.115518
21
1.3302
31
0.0
0
LINE
8
1
62
3
10
0.115518
20
1.3302
30
0.0
11
0.132515
21
1.313476
31
0.0
0
LINE
8
1
62
3
10
0.132515
20
1.313476
30
0.0
11
0.1508
21
1.296112
31
0.0
0
LINE
8
1
62
3
10
0.1508
20
1.296112
30
0.0
11
0.171164
21
1.291642
31
0.0
0
LINE
8
1
62
3
10
0.171164
20
1.291642
30
0.0
11
0.194617
21
1.300159
31
0.0
0
LINE
8
1
62
3
10
0.194617
20
1.300159
30
0.0
11
0.222166
21
1.321756
31
0.0
0
LINE
8
1
62
3
10
5.537044
20
1.356856
30
0.0
11
5.543475
21
1.367855
31
0.0
0
LINE
8
1
62
3
10
5.543475
20
1.367855
30
0.0
11
5.545143
21
1.381346
31
0.0
0
LINE
8
1
62
3
10
5.545143
20
1.381346
30
0.0
11
5.542181
21
1.39463
31
0.0
0
LINE
8
1
62
3
10
5.542181
20
1.39463
30
0.0
11
5.534719
21
1.405007
31
0.0
0
LINE
8
1
62
3
10
5.534719
20
1.405007
30
0.0
11
5.522511
21
1.41036
31
0.0
0
LINE
8
1
62
3
10
5.522511
20
1.41036
30
0.0
11
5.506497
21
1.406022
31
0.0
0
LINE
8
1
62
3
10
5.506497
20
1.406022
30
0.0
11
5.497577
21
1.399845
31
0.0
0
LINE
8
1
62
3
10
5.497577
20
1.399845
30
0.0
11
5.491928
21
1.391579
31
0.0
0
LINE
8
1
62
3
10
5.491928
20
1.391579
30
0.0
11
5.489767
21
1.372372
31
0.0
0
LINE
8
1
62
3
10
5.489767
20
1.372372
30
0.0
11
5.498669
21
1.355582
31
0.0
0
LINE
8
1
62
3
10
5.498669
20
1.355582
30
0.0
11
5.506848
21
1.350337
31
0.0
0
LINE
8
1
62
3
10
5.506848
20
1.350337
30
0.0
11
5.517289
21
1.348389
31
0.0
0
LINE
8
1
62
3
10
5.517289
20
1.348389
30
0.0
11
5.537044
21
1.356856
31
0.0
0
LINE
8
1
62
3
10
5.125705
20
1.873279
30
0.0
11
5.175773
21
1.877545
31
0.0
0
LINE
8
1
62
3
10
5.175773
20
1.877545
30
0.0
11
5.223791
21
1.88731
31
0.0
0
LINE
8
1
62
3
10
5.223791
20
1.88731
30
0.0
11
5.266052
21
1.901585
31
0.0
0
LINE
8
1
62
3
10
5.266052
20
1.901585
30
0.0
11
5.298845
21
1.919382
31
0.0
0
LINE
8
1
62
3
10
5.298845
20
1.919382
30
0.0
11
5.318672
21
1.930013
31
0.0
0
LINE
8
1
62
3
10
5.318672
20
1.930013
30
0.0
11
5.341179
21
1.937535
31
0.0
0
LINE
8
1
62
3
10
5.341179
20
1.937535
30
0.0
11
5.4484
21
1.970172
31
0.0
0
LINE
8
1
62
3
10
5.4484
20
1.970172
30
0.0
11
5.513127
21
1.989473
31
0.0
0
LINE
8
1
62
3
10
5.513127
20
1.989473
30
0.0
11
5.552469
21
1.9975
31
0.0
0
LINE
8
1
62
3
10
5.552469
20
1.9975
30
0.0
11
5.567487
21
1.999573
31
0.0
0
LINE
8
1
62
3
10
5.567487
20
1.999573
30
0.0
11
5.573733
21
2.004556
31
0.0
0
LINE
8
1
62
3
10
5.573733
20
2.004556
30
0.0
11
5.571698
21
2.008484
31
0.0
0
LINE
8
1
62
3
10
5.571698
20
2.008484
30
0.0
11
5.565718
21
2.010747
31
0.0
0
LINE
8
1
62
3
10
5.565718
20
2.010747
30
0.0
11
5.542679
21
2.010366
31
0.0
0
LINE
8
1
62
3
10
5.542679
20
2.010366
30
0.0
11
5.45758
21
1.990614
31
0.0
0
LINE
8
1
62
3
10
5.45758
20
1.990614
30
0.0
11
5.207274
21
1.92535
31
0.0
0
LINE
8
1
62
3
10
5.207274
20
1.92535
30
0.0
11
5.073119
21
1.889938
31
0.0
0
LINE
8
1
62
3
10
5.073119
20
1.889938
30
0.0
11
5.037701
21
1.878367
31
0.0
0
LINE
8
1
62
3
10
5.037701
20
1.878367
30
0.0
11
5.024673
21
1.871266
31
0.0
0
LINE
8
1
62
3
10
5.024673
20
1.871266
30
0.0
11
5.026486
21
1.864597
31
0.0
0
LINE
8
1
62
3
10
5.026486
20
1.864597
30
0.0
11
5.041882
21
1.866606
31
0.0
0
LINE
8
1
62
3
10
5.041882
20
1.866606
30
0.0
11
5.125705
21
1.873279
31
0.0
0
LINE
8
1
62
3
10
4.466011
20
2.043856
30
0.0
11
4.603594
21
2.06023
31
0.0
0
LINE
8
1
62
3
10
4.603594
20
2.06023
30
0.0
11
4.650091
21
2.067522
31
0.0
0
LINE
8
1
62
3
10
4.650091
20
2.067522
30
0.0
11
4.682619
21
2.077438
31
0.0
0
LINE
8
1
62
3
10
4.682619
20
2.077438
30
0.0
11
4.708095
21
2.085761
31
0.0
0
LINE
8
1
62
3
10
4.708095
20
2.085761
30
0.0
11
4.737636
21
2.089223
31
0.0
0
LINE
8
1
62
3
10
4.737636
20
2.089223
30
0.0
11
4.767058
21
2.092943
31
0.0
0
LINE
8
1
62
3
10
4.767058
20
2.092943
30
0.0
11
4.787376
21
2.107892
31
0.0
0
LINE
8
1
62
3
10
4.787376
20
2.107892
30
0.0
11
4.800235
21
2.128883
31
0.0
0
LINE
8
1
62
3
10
4.800235
20
2.128883
30
0.0
11
4.803959
21
2.161703
31
0.0
0
LINE
8
1
62
3
10
4.803959
20
2.161703
30
0.0
11
4.798308
21
2.21728
31
0.0
0
LINE
8
1
62
3
10
4.798308
20
2.21728
30
0.0
11
4.783046
21
2.306538
31
0.0
0
LINE
8
1
62
3
10
4.783046
20
2.306538
30
0.0
11
4.768069
21
2.381656
31
0.0
0
LINE
8
1
62
3
10
4.768069
20
2.381656
30
0.0
11
4.75436
21
2.427582
31
0.0
0
LINE
8
1
62
3
10
4.75436
20
2.427582
30
0.0
11
4.737309
21
2.455359
31
0.0
0
LINE
8
1
62
3
10
4.737309
20
2.455359
30
0.0
11
4.712307
21
2.47603
31
0.0
0
LINE
8
1
62
3
10
4.712307
20
2.47603
30
0.0
11
4.686815
21
2.488457
31
0.0
0
LINE
8
1
62
3
10
4.686815
20
2.488457
30
0.0
11
4.656511
21
2.48769
31
0.0
0
LINE
8
1
62
3
10
4.656511
20
2.48769
30
0.0
11
4.618716
21
2.479237
31
0.0
0
LINE
8
1
62
3
10
4.618716
20
2.479237
30
0.0
11
4.616814
21
2.474337
31
0.0
0
LINE
8
1
62
3
10
4.616814
20
2.474337
30
0.0
11
4.623301
21
2.469148
31
0.0
0
LINE
8
1
62
3
10
4.623301
20
2.469148
30
0.0
11
4.650678
21
2.463275
31
0.0
0
LINE
8
1
62
3
10
4.650678
20
2.463275
30
0.0
11
4.670478
21
2.457747
31
0.0
0
LINE
8
1
62
3
10
4.670478
20
2.457747
30
0.0
11
4.691594
21
2.444609
31
0.0
0
LINE
8
1
62
3
10
4.691594
20
2.444609
30
0.0
11
4.710918
21
2.423142
31
0.0
0
LINE
8
1
62
3
10
4.710918
20
2.423142
30
0.0
11
4.729222
21
2.394462
31
0.0
0
LINE
8
1
62
3
10
4.729222
20
2.394462
30
0.0
11
4.742893
21
2.365127
31
0.0
0
LINE
8
1
62
3
10
4.742893
20
2.365127
30
0.0
11
4.748317
21
2.341693
31
0.0
0
LINE
8
1
62
3
10
4.748317
20
2.341693
30
0.0
11
4.758461
21
2.287787
31
0.0
0
LINE
8
1
62
3
10
4.758461
20
2.287787
30
0.0
11
4.766156
21
2.246646
31
0.0
0
LINE
8
1
62
3
10
4.766156
20
2.246646
30
0.0
11
4.770529
21
2.200807
31
0.0
0
LINE
8
1
62
3
10
4.770529
20
2.200807
30
0.0
11
4.769523
21
2.157232
31
0.0
0
LINE
8
1
62
3
10
4.769523
20
2.157232
30
0.0
11
4.764556
21
2.146974
31
0.0
0
LINE
8
1
62
3
10
4.764556
20
2.146974
30
0.0
11
4.755161
21
2.138515
31
0.0
0
LINE
8
1
62
3
10
4.755161
20
2.138515
30
0.0
11
4.738852
21
2.129258
31
0.0
0
LINE
8
1
62
3
10
4.738852
20
2.129258
30
0.0
11
4.714711
21
2.120582
31
0.0
0
LINE
8
1
62
3
10
4.714711
20
2.120582
30
0.0
11
4.638872
21
2.104298
31
0.0
0
LINE
8
1
62
3
10
4.638872
20
2.104298
30
0.0
11
4.519529
21
2.088323
31
0.0
0
LINE
8
1
62
3
10
4.519529
20
2.088323
30
0.0
11
4.348566
21
2.071314
31
0.0
0
LINE
8
1
62
3
10
4.348566
20
2.071314
30
0.0
11
4.302371
21
2.07026
31
0.0
0
LINE
8
1
62
3
10
4.302371
20
2.07026
30
0.0
11
4.273564
21
2.078684
31
0.0
0
LINE
8
1
62
3
10
4.273564
20
2.078684
30
0.0
11
4.264613
21
2.087148
31
0.0
0
LINE
8
1
62
3
10
4.264613
20
2.087148
30
0.0
11
4.258729
21
2.09882
31
0.0
0
LINE
8
1
62
3
10
4.258729
20
2.09882
30
0.0
11
4.254452
21
2.132903
31
0.0
0
LINE
8
1
62
3
10
4.254452
20
2.132903
30
0.0
11
4.252556
21
2.157404
31
0.0
0
LINE
8
1
62
3
10
4.252556
20
2.157404
30
0.0
11
4.248148
21
2.169831
31
0.0
0
LINE
8
1
62
3
10
4.248148
20
2.169831
30
0.0
11
4.242853
21
2.168151
31
0.0
0
LINE
8
1
62
3
10
4.242853
20
2.168151
30
0.0
11
4.238621
21
2.157682
31
0.0
0
LINE
8
1
62
3
10
4.238621
20
2.157682
30
0.0
11
4.233852
21
2.120706
31
0.0
0
LINE
8
1
62
3
10
4.233852
20
2.120706
30
0.0
11
4.234841
21
2.079564
31
0.0
0
LINE
8
1
62
3
10
4.234841
20
2.079564
30
0.0
11
4.237806
21
2.063889
31
0.0
0
LINE
8
1
62
3
10
4.237806
20
2.063889
30
0.0
11
4.242586
21
2.05492
31
0.0
0
LINE
8
1
62
3
10
4.242586
20
2.05492
30
0.0
11
4.258864
21
2.048057
31
0.0
0
LINE
8
1
62
3
10
4.258864
20
2.048057
30
0.0
11
4.287563
21
2.041433
31
0.0
0
LINE
8
1
62
3
10
4.287563
20
2.041433
30
0.0
11
4.35665
21
2.033667
31
0.0
0
LINE
8
1
62
3
10
4.35665
20
2.033667
30
0.0
11
4.466011
21
2.043856
31
0.0
0
LINE
8
1
62
3
10
4.041108
20
2.079039
30
0.0
11
4.052887
21
2.092764
31
0.0
0
LINE
8
1
62
3
10
4.052887
20
2.092764
30
0.0
11
4.056789
21
2.112023
31
0.0
0
LINE
8
1
62
3
10
4.056789
20
2.112023
30
0.0
11
4.061808
21
2.142224
31
0.0
0
LINE
8
1
62
3
10
4.061808
20
2.142224
30
0.0
11
4.073874
21
2.183942
31
0.0
0
LINE
8
1
62
3
10
4.073874
20
2.183942
30
0.0
11
4.088526
21
2.238913
31
0.0
0
LINE
8
1
62
3
10
4.088526
20
2.238913
30
0.0
11
4.098636
21
2.300303
31
0.0
0
LINE
8
1
62
3
10
4.098636
20
2.300303
30
0.0
11
4.102898
21
2.357339
31
0.0
0
LINE
8
1
62
3
10
4.102898
20
2.357339
30
0.0
11
4.100002
21
2.399245
31
0.0
0
LINE
8
1
62
3
10
4.100002
20
2.399245
30
0.0
11
4.089479
21
2.4271
31
0.0
0
LINE
8
1
62
3
10
4.089479
20
2.4271
30
0.0
11
4.071141
21
2.451701
31
0.0
0
LINE
8
1
62
3
10
4.071141
20
2.451701
30
0.0
11
4.044967
21
2.473058
31
0.0
0
LINE
8
1
62
3
10
4.044967
20
2.473058
30
0.0
11
4.010933
21
2.491182
31
0.0
0
LINE
8
1
62
3
10
4.010933
20
2.491182
30
0.0
11
3.969016
21
2.506083
31
0.0
0
LINE
8
1
62
3
10
3.969016
20
2.506083
30
0.0
11
3.919192
21
2.517771
31
0.0
0
LINE
8
1
62
3
10
3.919192
20
2.517771
30
0.0
11
3.861439
21
2.526255
31
0.0
0
LINE
8
1
62
3
10
3.861439
20
2.526255
30
0.0
11
3.795733
21
2.531546
31
0.0
0
LINE
8
1
62
3
10
3.795733
20
2.531546
30
0.0
11
3.749961
21
2.532525
31
0.0
0
LINE
8
1
62
3
10
3.749961
20
2.532525
30
0.0
11
3.735489
21
2.529866
31
0.0
0
LINE
8
1
62
3
10
3.735489
20
2.529866
30
0.0
11
3.751949
21
2.524974
31
0.0
0
LINE
8
1
62
3
10
3.751949
20
2.524974
30
0.0
11
3.798969
21
2.519253
31
0.0
0
LINE
8
1
62
3
10
3.798969
20
2.519253
30
0.0
11
3.856692
21
2.509888
31
0.0
0
LINE
8
1
62
3
10
3.856692
20
2.509888
30
0.0
11
3.919483
21
2.493203
31
0.0
0
LINE
8
1
62
3
10
3.919483
20
2.493203
30
0.0
11
3.978136
21
2.472066
31
0.0
0
LINE
8
1
62
3
10
3.978136
20
2.472066
30
0.0
11
4.023448
21
2.449344
31
0.0
0
LINE
8
1
62
3
10
4.023448
20
2.449344
30
0.0
11
4.041005
21
2.437219
31
0.0
0
LINE
8
1
62
3
10
4.041005
20
2.437219
30
0.0
11
4.051763
21
2.425855
31
0.0
0
LINE
8
1
62
3
10
4.051763
20
2.425855
30
0.0
11
4.058465
21
2.411158
31
0.0
0
LINE
8
1
62
3
10
4.058465
20
2.411158
30
0.0
11
4.063855
21
2.389033
31
0.0
0
LINE
8
1
62
3
10
4.063855
20
2.389033
30
0.0
11
4.067353
21
2.324158
31
0.0
0
LINE
8
1
62
3
10
4.067353
20
2.324158
30
0.0
11
4.059972
21
2.241982
31
0.0
0
LINE
8
1
62
3
10
4.059972
20
2.241982
30
0.0
11
4.045034
21
2.166036
31
0.0
0
LINE
8
1
62
3
10
4.045034
20
2.166036
30
0.0
11
4.035769
21
2.137751
31
0.0
0
LINE
8
1
62
3
10
4.035769
20
2.137751
30
0.0
11
4.02586
21
2.119847
31
0.0
0
LINE
8
1
62
3
10
4.02586
20
2.119847
30
0.0
11
4.015609
21
2.109969
31
0.0
0
LINE
8
1
62
3
10
4.015609
20
2.109969
30
0.0
11
4.001281
21
2.104711
31
0.0
0
LINE
8
1
62
3
10
4.001281
20
2.104711
30
0.0
11
3.928126
21
2.102248
31
0.0
0
LINE
8
1
62
3
10
3.928126
20
2.102248
30
0.0
11
3.859564
21
2.104589
31
0.0
0
LINE
8
1
62
3
10
3.859564
20
2.104589
30
0.0
11
3.841237
21
2.108011
31
0.0
0
LINE
8
1
62
3
10
3.841237
20
2.108011
30
0.0
11
3.829645
21
2.113374
31
0.0
0
LINE
8
1
62
3
10
3.829645
20
2.113374
30
0.0
11
3.801635
21
2.1245
31
0.0
0
LINE
8
1
62
3
10
3.801635
20
2.1245
30
0.0
11
3.788568
21
2.122062
31
0.0
0
LINE
8
1
62
3
10
3.788568
20
2.122062
30
0.0
11
3.787251
21
2.115147
31
0.0
0
LINE
8
1
62
3
10
3.787251
20
2.115147
30
0.0
11
3.797384
21
2.104359
31
0.0
0
LINE
8
1
62
3
10
3.797384
20
2.104359
30
0.0
11
3.818667
21
2.090299
31
0.0
0
LINE
8
1
62
3
10
3.818667
20
2.090299
30
0.0
11
3.841254
21
2.078263
31
0.0
0
LINE
8
1
62
3
10
3.841254
20
2.078263
30
0.0
11
3.862421
21
2.071806
31
0.0
0
LINE
8
1
62
3
10
3.862421
20
2.071806
30
0.0
11
3.940566
21
2.068453
31
0.0
0
LINE
8
1
62
3
10
3.940566
20
2.068453
30
0.0
11
4.010974
21
2.070433
31
0.0
0
LINE
8
1
62
3
10
4.010974
20
2.070433
30
0.0
11
4.029526
21
2.073745
31
0.0
0
LINE
8
1
62
3
10
4.029526
20
2.073745
30
0.0
11
4.041108
21
2.079039
31
0.0
0
LINE
8
1
62
3
10
3.520567
20
2.138612
30
0.0
11
3.510204
21
2.143595
31
0.0
0
LINE
8
1
62
3
10
3.510204
20
2.143595
30
0.0
11
3.485289
21
2.145667
31
0.0
0
LINE
8
1
62
3
10
3.485289
20
2.145667
30
0.0
11
3.460374
21
2.143595
31
0.0
0
LINE
8
1
62
3
10
3.460374
20
2.143595
30
0.0
11
3.450011
21
2.138612
31
0.0
0
LINE
8
1
62
3
10
3.450011
20
2.138612
30
0.0
11
3.460374
21
2.133629
31
0.0
0
LINE
8
1
62
3
10
3.460374
20
2.133629
30
0.0
11
3.485289
21
2.131556
31
0.0
0
LINE
8
1
62
3
10
3.485289
20
2.131556
30
0.0
11
3.510204
21
2.133629
31
0.0
0
LINE
8
1
62
3
10
3.510204
20
2.133629
30
0.0
11
3.520567
21
2.138612
31
0.0
0
LINE
8
1
62
3
10
3.40415
20
2.152723
30
0.0
11
3.40633
21
2.159873
31
0.0
0
LINE
8
1
62
3
10
3.40633
20
2.159873
30
0.0
11
3.263039
21
2.174134
31
0.0
0
LINE
8
1
62
3
10
3.263039
20
2.174134
30
0.0
11
3.129786
21
2.184142
31
0.0
0
LINE
8
1
62
3
10
3.129786
20
2.184142
30
0.0
11
2.973369
21
2.191827
31
0.0
0
LINE
8
1
62
3
10
2.973369
20
2.191827
30
0.0
11
2.844671
21
2.195213
31
0.0
0
LINE
8
1
62
3
10
2.844671
20
2.195213
30
0.0
11
2.806619
21
2.194676
31
0.0
0
LINE
8
1
62
3
10
2.806619
20
2.194676
30
0.0
11
2.794579
21
2.192323
31
0.0
0
LINE
8
1
62
3
10
2.794579
20
2.192323
30
0.0
11
2.956857
21
2.180741
31
0.0
0
LINE
8
1
62
3
10
2.956857
20
2.180741
30
0.0
11
3.089181
21
2.172731
31
0.0
0
LINE
8
1
62
3
10
3.089181
20
2.172731
30
0.0
11
3.185428
21
2.163255
31
0.0
0
LINE
8
1
62
3
10
3.185428
20
2.163255
30
0.0
11
3.337213
21
2.14683
31
0.0
0
LINE
8
1
62
3
10
3.337213
20
2.14683
30
0.0
11
3.383832
21
2.146864
31
0.0
0
LINE
8
1
62
3
10
3.383832
20
2.146864
30
0.0
11
3.40415
21
2.152723
31
0.0
0
LINE
8
1
62
3
10
2.121823
20
2.186237
30
0.0
11
2.121349
21
2.190211
31
0.0
0
LINE
8
1
62
3
10
2.121349
20
2.190211
30
0.0
11
2.116707
21
2.192954
31
0.0
0
LINE
8
1
62
3
10
2.116707
20
2.192954
30
0.0
11
2.093942
21
2.195056
31
0.0
0
LINE
8
1
62
3
10
2.093942
20
2.195056
30
0.0
11
2.02809
21
2.204591
31
0.0
0
LINE
8
1
62
3
10
2.02809
20
2.204591
30
0.0
11
1.982455
21
2.216938
31
0.0
0
LINE
8
1
62
3
10
1.982455
20
2.216938
30
0.0
11
1.974427
21
2.214889
31
0.0
0
LINE
8
1
62
3
10
1.974427
20
2.214889
30
0.0
11
1.971872
21
2.20243
31
0.0
0
LINE
8
1
62
3
10
1.971872
20
2.20243
30
0.0
11
1.975906
21
2.18866
31
0.0
0
LINE
8
1
62
3
10
1.975906
20
2.18866
30
0.0
11
1.990227
21
2.180339
31
0.0
0
LINE
8
1
62
3
10
1.990227
20
2.180339
30
0.0
11
2.018158
21
2.176513
31
0.0
0
LINE
8
1
62
3
10
2.018158
20
2.176513
30
0.0
11
2.063026
21
2.176225
31
0.0
0
LINE
8
1
62
3
10
2.063026
20
2.176225
30
0.0
11
2.105768
21
2.179309
31
0.0
0
LINE
8
1
62
3
10
2.105768
20
2.179309
30
0.0
11
2.121823
21
2.186237
31
0.0
0
LINE
8
1
62
3
10
2.6104
20
2.208208
30
0.0
11
2.605494
21
2.212792
31
0.0
0
LINE
8
1
62
3
10
2.605494
20
2.212792
30
0.0
11
2.5921
21
2.216648
31
0.0
0
LINE
8
1
62
3
10
2.5921
20
2.216648
30
0.0
11
2.547784
21
2.221707
31
0.0
0
LINE
8
1
62
3
10
2.547784
20
2.221707
30
0.0
11
2.493324
21
2.222452
31
0.0
0
LINE
8
1
62
3
10
2.493324
20
2.222452
30
0.0
11
2.444594
21
2.217951
31
0.0
0
LINE
8
1
62
3
10
2.444594
20
2.217951
30
0.0
11
2.416372
21
2.21278
31
0.0
0
LINE
8
1
62
3
10
2.416372
20
2.21278
30
0.0
11
2.45165
21
2.208554
31
0.0
0
LINE
8
1
62
3
10
2.45165
20
2.208554
30
0.0
11
2.552224
21
2.203349
31
0.0
0
LINE
8
1
62
3
10
2.552224
20
2.203349
30
0.0
11
2.593545
21
2.204505
31
0.0
0
LINE
8
1
62
3
10
2.593545
20
2.204505
30
0.0
11
2.6104
21
2.208208
31
0.0
0
LINE
8
1
62
3
10
4.282567
20
2.318606
30
0.0
11
4.282567
21
2.370767
31
0.0
0
LINE
8
1
62
3
10
4.282567
20
2.370767
30
0.0
11
4.314133
21
2.392485
31
0.0
0
LINE
8
1
62
3
10
4.314133
20
2.392485
30
0.0
11
4.39276
21
2.435318
31
0.0
0
LINE
8
1
62
3
10
4.39276
20
2.435318
30
0.0
11
4.424788
21
2.451438
31
0.0
0
LINE
8
1
62
3
10
4.424788
20
2.451438
30
0.0
11
4.435709
21
2.460543
31
0.0
0
LINE
8
1
62
3
10
4.435709
20
2.460543
30
0.0
11
4.419015
21
2.462556
31
0.0
0
LINE
8
1
62
3
10
4.419015
20
2.462556
30
0.0
11
4.387333
21
2.459117
31
0.0
0
LINE
8
1
62
3
10
4.387333
20
2.459117
30
0.0
11
4.352222
21
2.452043
31
0.0
0
LINE
8
1
62
3
10
4.352222
20
2.452043
30
0.0
11
4.325245
21
2.443156
31
0.0
0
LINE
8
1
62
3
10
4.325245
20
2.443156
30
0.0
11
4.301068
21
2.426527
31
0.0
0
LINE
8
1
62
3
10
4.301068
20
2.426527
30
0.0
11
4.284561
21
2.402232
31
0.0
0
LINE
8
1
62
3
10
4.284561
20
2.402232
30
0.0
11
4.274499
21
2.36755
31
0.0
0
LINE
8
1
62
3
10
4.274499
20
2.36755
30
0.0
11
4.269656
21
2.319762
31
0.0
0
LINE
8
1
62
3
10
4.269656
20
2.319762
30
0.0
11
4.269143
21
2.272141
31
0.0
0
LINE
8
1
62
3
10
4.269143
20
2.272141
30
0.0
11
4.271086
21
2.26268
31
0.0
0
LINE
8
1
62
3
10
4.271086
20
2.26268
30
0.0
11
4.274601
21
2.261521
31
0.0
0
LINE
8
1
62
3
10
4.274601
20
2.261521
30
0.0
11
4.280367
21
2.27949
31
0.0
0
LINE
8
1
62
3
10
4.280367
20
2.27949
30
0.0
11
4.282567
21
2.318606
31
0.0
0
LINE
8
1
62
3
10
4.194752
20
2.370634
30
0.0
11
4.201128
21
2.410588
31
0.0
0
LINE
8
1
62
3
10
4.201128
20
2.410588
30
0.0
11
4.208545
21
2.434564
31
0.0
0
LINE
8
1
62
3
10
4.208545
20
2.434564
30
0.0
11
4.22012
21
2.448838
31
0.0
0
LINE
8
1
62
3
10
4.22012
20
2.448838
30
0.0
11
4.238967
21
2.459683
31
0.0
0
LINE
8
1
62
3
10
4.238967
20
2.459683
30
0.0
11
4.26393
21
2.476276
31
0.0
0
LINE
8
1
62
3
10
4.26393
20
2.476276
30
0.0
11
4.282289
21
2.496292
31
0.0
0
LINE
8
1
62
3
10
4.282289
20
2.496292
30
0.0
11
4.297473
21
2.513532
31
0.0
0
LINE
8
1
62
3
10
4.297473
20
2.513532
30
0.0
11
4.320562
21
2.525612
31
0.0
0
LINE
8
1
62
3
10
4.320562
20
2.525612
30
0.0
11
4.354696
21
2.533634
31
0.0
0
LINE
8
1
62
3
10
4.354696
20
2.533634
30
0.0
11
4.403012
21
2.538701
31
0.0
0
LINE
8
1
62
3
10
4.403012
20
2.538701
30
0.0
11
4.451746
21
2.539159
31
0.0
0
LINE
8
1
62
3
10
4.451746
20
2.539159
30
0.0
11
4.464371
21
2.533857
31
0.0
0
LINE
8
1
62
3
10
4.464371
20
2.533857
30
0.0
11
4.477095
21
2.523212
31
0.0
0
LINE
8
1
62
3
10
4.477095
20
2.523212
30
0.0
11
4.489384
21
2.512876
31
0.0
0
LINE
8
1
62
3
10
4.489384
20
2.512876
30
0.0
11
4.500582
21
2.507681
31
0.0
0
LINE
8
1
62
3
10
4.500582
20
2.507681
30
0.0
11
4.536567
21
2.508551
31
0.0
0
LINE
8
1
62
3
10
4.536567
20
2.508551
30
0.0
11
4.655705
21
2.51823
31
0.0
0
LINE
8
1
62
3
10
4.655705
20
2.51823
30
0.0
11
4.691072
21
2.516262
31
0.0
0
LINE
8
1
62
3
10
4.691072
20
2.516262
30
0.0
11
4.715803
21
2.509796
31
0.0
0
LINE
8
1
62
3
10
4.715803
20
2.509796
30
0.0
11
4.746594
21
2.501509
31
0.0
0
LINE
8
1
62
3
10
4.746594
20
2.501509
30
0.0
11
4.744707
21
2.51163
31
0.0
0
LINE
8
1
62
3
10
4.744707
20
2.51163
30
0.0
11
4.733513
21
2.53055
31
0.0
0
LINE
8
1
62
3
10
4.733513
20
2.53055
30
0.0
11
4.697546
21
2.573676
31
0.0
0
LINE
8
1
62
3
10
4.697546
20
2.573676
30
0.0
11
4.67062
21
2.59596
31
0.0
0
LINE
8
1
62
3
10
4.67062
20
2.59596
30
0.0
11
4.638723
21
2.615516
31
0.0
0
LINE
8
1
62
3
10
4.638723
20
2.615516
30
0.0
11
4.600336
21
2.63278
31
0.0
0
LINE
8
1
62
3
10
4.600336
20
2.63278
30
0.0
11
4.553939
21
2.648187
31
0.0
0
LINE
8
1
62
3
10
4.553939
20
2.648187
30
0.0
11
4.43104
21
2.675182
31
0.0
0
LINE
8
1
62
3
10
4.43104
20
2.675182
30
0.0
11
4.257872
21
2.699993
31
0.0
0
LINE
8
1
62
3
10
4.257872
20
2.699993
30
0.0
11
4.024393
21
2.71967
31
0.0
0
LINE
8
1
62
3
10
4.024393
20
2.71967
30
0.0
11
3.699118
21
2.738112
31
0.0
0
LINE
8
1
62
3
10
3.699118
20
2.738112
30
0.0
11
3.392965
21
2.749993
31
0.0
0
LINE
8
1
62
3
10
3.392965
20
2.749993
30
0.0
11
3.281722
21
2.751809
31
0.0
0
LINE
8
1
62
3
10
3.281722
20
2.751809
30
0.0
11
3.216854
21
2.749986
31
0.0
0
LINE
8
1
62
3
10
3.216854
20
2.749986
30
0.0
11
3.176005
21
2.740291
31
0.0
0
LINE
8
1
62
3
10
3.176005
20
2.740291
30
0.0
11
3.130582
21
2.715662
31
0.0
0
LINE
8
1
62
3
10
3.130582
20
2.715662
30
0.0
11
3.051531
21
2.666286
31
0.0
0
LINE
8
1
62
3
10
3.051531
20
2.666286
30
0.0
11
3.022787
21
2.646075
31
0.0
0
LINE
8
1
62
3
10
3.022787
20
2.646075
30
0.0
11
3.020481
21
2.639188
31
0.0
0
LINE
8
1
62
3
10
3.020481
20
2.639188
30
0.0
11
3.027845
21
2.633836
31
0.0
0
LINE
8
1
62
3
10
3.027845
20
2.633836
30
0.0
11
3.076457
21
2.625903
31
0.0
0
LINE
8
1
62
3
10
3.076457
20
2.625903
30
0.0
11
3.178372
21
2.618613
31
0.0
0
LINE
8
1
62
3
10
3.178372
20
2.618613
30
0.0
11
3.65796
21
2.58633
31
0.0
0
LINE
8
1
62
3
10
3.65796
20
2.58633
30
0.0
11
3.889602
21
2.565178
31
0.0
0
LINE
8
1
62
3
10
3.889602
20
2.565178
30
0.0
11
3.953807
21
2.55163
31
0.0
0
LINE
8
1
62
3
10
3.953807
20
2.55163
30
0.0
11
4.011718
21
2.534077
31
0.0
0
LINE
8
1
62
3
10
4.011718
20
2.534077
30
0.0
11
4.059385
21
2.513932
31
0.0
0
LINE
8
1
62
3
10
4.059385
20
2.513932
30
0.0
11
4.092857
21
2.492604
31
0.0
0
LINE
8
1
62
3
10
4.092857
20
2.492604
30
0.0
11
4.117223
21
2.466547
31
0.0
0
LINE
8
1
62
3
10
4.117223
20
2.466547
30
0.0
11
4.137755
21
2.433951
31
0.0
0
LINE
8
1
62
3
10
4.137755
20
2.433951
30
0.0
11
4.153641
21
2.396383
31
0.0
0
LINE
8
1
62
3
10
4.153641
20
2.396383
30
0.0
11
4.164068
21
2.355409
31
0.0
0
LINE
8
1
62
3
10
4.164068
20
2.355409
30
0.0
11
4.171912
21
2.321855
31
0.0
0
LINE
8
1
62
3
10
4.171912
20
2.321855
30
0.0
11
4.175753
21
2.319895
31
0.0
0
LINE
8
1
62
3
10
4.175753
20
2.319895
30
0.0
11
4.18094
21
2.325319
31
0.0
0
LINE
8
1
62
3
10
4.18094
20
2.325319
30
0.0
11
4.188844
21
2.343891
31
0.0
0
LINE
8
1
62
3
10
4.188844
20
2.343891
30
0.0
11
4.194752
21
2.370634
31
0.0
0
LINE
8
1
62
3
10
4.606064
20
2.378545
30
0.0
11
4.625076
21
2.394504
31
0.0
0
LINE
8
1
62
3
10
4.625076
20
2.394504
30
0.0
11
4.633802
21
2.40768
31
0.0
0
LINE
8
1
62
3
10
4.633802
20
2.40768
30
0.0
11
4.632414
21
2.418645
31
0.0
0
LINE
8
1
62
3
10
4.632414
20
2.418645
30
0.0
11
4.621087
21
2.427967
31
0.0
0
LINE
8
1
62
3
10
4.621087
20
2.427967
30
0.0
11
4.609046
21
2.432294
31
0.0
0
LINE
8
1
62
3
10
4.609046
20
2.432294
30
0.0
11
4.600245
21
2.430775
31
0.0
0
LINE
8
1
62
3
10
4.600245
20
2.430775
30
0.0
11
4.594847
21
2.42351
31
0.0
0
LINE
8
1
62
3
10
4.594847
20
2.42351
30
0.0
11
4.593011
21
2.410599
31
0.0
0
LINE
8
1
62
3
10
4.593011
20
2.410599
30
0.0
11
4.588839
21
2.396917
31
0.0
0
LINE
8
1
62
3
10
4.588839
20
2.396917
30
0.0
11
4.575048
21
2.389633
31
0.0
0
LINE
8
1
62
3
10
4.575048
20
2.389633
30
0.0
11
4.551364
21
2.389246
31
0.0
0
LINE
8
1
62
3
10
4.551364
20
2.389246
30
0.0
11
4.546389
21
2.393695
31
0.0
0
LINE
8
1
62
3
10
4.546389
20
2.393695
30
0.0
11
4.547699
21
2.400556
31
0.0
0
LINE
8
1
62
3
10
4.547699
20
2.400556
30
0.0
11
4.54768
21
2.424763
31
0.0
0
LINE
8
1
62
3
10
4.54768
20
2.424763
30
0.0
11
4.540068
21
2.438298
31
0.0
0
LINE
8
1
62
3
10
4.540068
20
2.438298
30
0.0
11
4.523732
21
2.442
31
0.0
0
LINE
8
1
62
3
10
4.523732
20
2.442
30
0.0
11
4.507486
21
2.439786
31
0.0
0
LINE
8
1
62
3
10
4.507486
20
2.439786
30
0.0
11
4.496091
21
2.433029
31
0.0
0
LINE
8
1
62
3
10
4.496091
20
2.433029
30
0.0
11
4.489378
21
2.42156
31
0.0
0
LINE
8
1
62
3
10
4.489378
20
2.42156
30
0.0
11
4.487178
21
2.405208
31
0.0
0
LINE
8
1
62
3
10
4.487178
20
2.405208
30
0.0
11
4.49222
21
2.386641
31
0.0
0
LINE
8
1
62
3
10
4.49222
20
2.386641
30
0.0
11
4.510108
21
2.371368
31
0.0
0
LINE
8
1
62
3
10
4.510108
20
2.371368
30
0.0
11
4.534039
21
2.360583
31
0.0
0
LINE
8
1
62
3
10
4.534039
20
2.360583
30
0.0
11
4.557428
21
2.358141
31
0.0
0
LINE
8
1
62
3
10
4.557428
20
2.358141
30
0.0
11
4.581145
21
2.364107
31
0.0
0
LINE
8
1
62
3
10
4.581145
20
2.364107
30
0.0
11
4.606064
21
2.378545
31
0.0
0
LINE
8
1
62
3
10
2.121408
20
2.473205
30
0.0
11
2.146354
21
2.499697
31
0.0
0
LINE
8
1
62
3
10
2.146354
20
2.499697
30
0.0
11
2.178002
21
2.519584
31
0.0
0
LINE
8
1
62
3
10
2.178002
20
2.519584
30
0.0
11
2.21777
21
2.533537
31
0.0
0
LINE
8
1
62
3
10
2.21777
20
2.533537
30
0.0
11
2.267076
21
2.542229
31
0.0
0
LINE
8
1
62
3
10
2.267076
20
2.542229
30
0.0
11
2.345817
21
2.554684
31
0.0
0
LINE
8
1
62
3
10
2.345817
20
2.554684
30
0.0
11
2.355853
21
2.557843
31
0.0
0
LINE
8
1
62
3
10
2.355853
20
2.557843
30
0.0
11
2.356995
21
2.55989
31
0.0
0
LINE
8
1
62
3
10
2.356995
20
2.55989
30
0.0
11
2.328178
21
2.56264
31
0.0
0
LINE
8
1
62
3
10
2.328178
20
2.56264
30
0.0
11
2.271805
21
2.5631
31
0.0
0
LINE
8
1
62
3
10
2.271805
20
2.5631
30
0.0
11
2.220339
21
2.558475
31
0.0
0
LINE
8
1
62
3
10
2.220339
20
2.558475
30
0.0
11
2.177261
21
2.549273
31
0.0
0
LINE
8
1
62
3
10
2.177261
20
2.549273
30
0.0
11
2.146055
21
2.536004
31
0.0
0
LINE
8
1
62
3
10
2.146055
20
2.536004
30
0.0
11
2.129553
21
2.520155
31
0.0
0
LINE
8
1
62
3
10
2.129553
20
2.520155
30
0.0
11
2.110527
21
2.495017
31
0.0
0
LINE
8
1
62
3
10
2.110527
20
2.495017
30
0.0
11
2.094823
21
2.469171
31
0.0
0
LINE
8
1
62
3
10
2.094823
20
2.469171
30
0.0
11
2.088289
21
2.451202
31
0.0
0
LINE
8
1
62
3
10
2.088289
20
2.451202
30
0.0
11
2.090206
21
2.443409
31
0.0
0
LINE
8
1
62
3
10
2.090206
20
2.443409
30
0.0
11
2.096162
21
2.444344
31
0.0
0
LINE
8
1
62
3
10
2.096162
20
2.444344
30
0.0
11
2.121408
21
2.473205
31
0.0
0
LINE
8
1
62
3
10
2.9825
20
2.557397
30
0.0
11
2.99629
21
2.57337
31
0.0
0
LINE
8
1
62
3
10
2.99629
20
2.57337
30
0.0
11
3.000047
21
2.583429
31
0.0
0
LINE
8
1
62
3
10
3.000047
20
2.583429
30
0.0
11
2.993578
21
2.588664
31
0.0
0
LINE
8
1
62
3
10
2.993578
20
2.588664
30
0.0
11
2.97669
21
2.590167
31
0.0
0
LINE
8
1
62
3
10
2.97669
20
2.590167
30
0.0
11
2.952271
21
2.587661
31
0.0
0
LINE
8
1
62
3
10
2.952271
20
2.587661
30
0.0
11
2.938573
21
2.579917
31
0.0
0
LINE
8
1
62
3
10
2.938573
20
2.579917
30
0.0
11
2.935326
21
2.566599
31
0.0
0
LINE
8
1
62
3
10
2.935326
20
2.566599
30
0.0
11
2.942259
21
2.54737
31
0.0
0
LINE
8
1
62
3
10
2.942259
20
2.54737
30
0.0
11
2.948941
21
2.537352
31
0.0
0
LINE
8
1
62
3
10
2.948941
20
2.537352
30
0.0
11
2.956076
21
2.535235
31
0.0
0
LINE
8
1
62
3
10
2.956076
20
2.535235
30
0.0
11
2.9825
21
2.557397
31
0.0
0
LINE
8
1
62
3
10
2.307011
20
2.607806
30
0.0
11
2.369789
21
2.61748
31
0.0
0
LINE
8
1
62
3
10
2.369789
20
2.61748
30
0.0
11
2.432418
21
2.622734
31
0.0
0
LINE
8
1
62
3
10
2.432418
20
2.622734
30
0.0
11
2.668033
21
2.625377
31
0.0
0
LINE
8
1
62
3
10
2.668033
20
2.625377
30
0.0
11
2.926749
21
2.625445
31
0.0
0
LINE
8
1
62
3
10
2.926749
20
2.625445
30
0.0
11
2.941827
21
2.649841
31
0.0
0
LINE
8
1
62
3
10
2.941827
20
2.649841
30
0.0
11
2.958962
21
2.673033
31
0.0
0
LINE
8
1
62
3
10
2.958962
20
2.673033
30
0.0
11
2.979494
21
2.692528
31
0.0
0
LINE
8
1
62
3
10
2.979494
20
2.692528
30
0.0
11
3.003659
21
2.708512
31
0.0
0
LINE
8
1
62
3
10
3.003659
20
2.708512
30
0.0
11
3.031691
21
2.721171
31
0.0
0
LINE
8
1
62
3
10
3.031691
20
2.721171
30
0.0
11
3.064695
21
2.735115
31
0.0
0
LINE
8
1
62
3
10
3.064695
20
2.735115
30
0.0
11
3.069007
21
2.739555
31
0.0
0
LINE
8
1
62
3
10
3.069007
20
2.739555
30
0.0
11
3.064303
21
2.742522
31
0.0
0
LINE
8
1
62
3
10
3.064303
20
2.742522
30
0.0
11
3.025185
21
2.744685
31
0.0
0
LINE
8
1
62
3
10
3.025185
20
2.744685
30
0.0
11
2.942011
21
2.742893
31
0.0
0
LINE
8
1
62
3
10
2.942011
20
2.742893
30
0.0
11
2.751291
21
2.731762
31
0.0
0
LINE
8
1
62
3
10
2.751291
20
2.731762
30
0.0
11
2.558113
21
2.71257
31
0.0
0
LINE
8
1
62
3
10
2.558113
20
2.71257
30
0.0
11
2.402803
21
2.690134
31
0.0
0
LINE
8
1
62
3
10
2.402803
20
2.690134
30
0.0
11
2.351949
21
2.679205
31
0.0
0
LINE
8
1
62
3
10
2.351949
20
2.679205
30
0.0
11
2.325683
21
2.669271
31
0.0
0
LINE
8
1
62
3
10
2.325683
20
2.669271
30
0.0
11
2.289372
21
2.654968
31
0.0
0
LINE
8
1
62
3
10
2.289372
20
2.654968
30
0.0
11
2.258813
21
2.643008
31
0.0
0
LINE
8
1
62
3
10
2.258813
20
2.643008
30
0.0
11
2.225264
21
2.625802
31
0.0
0
LINE
8
1
62
3
10
2.225264
20
2.625802
30
0.0
11
2.198194
21
2.608708
31
0.0
0
LINE
8
1
62
3
10
2.198194
20
2.608708
30
0.0
11
2.187067
21
2.59708
31
0.0
0
LINE
8
1
62
3
10
2.187067
20
2.59708
30
0.0
11
2.189485
21
2.591964
31
0.0
0
LINE
8
1
62
3
10
2.189485
20
2.591964
30
0.0
11
2.203511
21
2.591441
31
0.0
0
LINE
8
1
62
3
10
2.203511
20
2.591441
30
0.0
11
2.307011
21
2.607806
31
0.0
0
LINE
8
1
62
3
10
3.474856
20
-0.002651
30
0.0
11
3.348641
21
0.009982
31
0.0
0
LINE
8
1
62
3
10
3.579147
20
-0.005944
30
0.0
11
3.474856
21
-0.002651
31
0.0
0
LINE
8
1
62
3
10
3.660159
20
0.000083
30
0.0
11
3.579147
21
-0.005944
31
0.0
0
LINE
8
1
62
3
10
3.691511
20
0.006585
30
0.0
11
3.660159
21
0.000083
31
0.0
0
LINE
8
1
62
3
10
3.716535
20
0.01541
30
0.0
11
3.691511
21
0.006585
31
0.0
0
LINE
8
1
62
3
10
3.762286
20
0.042186
30
0.0
11
3.716535
21
0.01541
31
0.0
0
LINE
8
1
62
3
10
3.80507
20
0.078925
30
0.0
11
3.762286
21
0.042186
31
0.0
0
LINE
8
1
62
3
10
3.844503
20
0.124953
30
0.0
11
3.80507
21
0.078925
31
0.0
0
LINE
8
1
62
3
10
3.880199
20
0.179601
30
0.0
11
3.844503
21
0.124953
31
0.0
0
LINE
8
1
62
3
10
3.911775
20
0.242199
30
0.0
11
3.880199
21
0.179601
31
0.0
0
LINE
8
1
62
3
10
3.938846
20
0.312075
30
0.0
11
3.911775
21
0.242199
31
0.0
0
LINE
8
1
62
3
10
3.961027
20
0.388561
30
0.0
11
3.938846
21
0.312075
31
0.0
0
LINE
8
1
62
3
10
4.245605
20
0.40095
30
0.0
11
4.20901
21
0.37452
31
0.0
0
LINE
8
1
62
3
10
4.294225
20
0.444685
30
0.0
11
4.245605
21
0.40095
31
0.0
0
LINE
8
1
62
3
10
4.335719
20
0.483016
30
0.0
11
4.294225
21
0.444685
31
0.0
0
LINE
8
1
62
3
10
4.365383
20
0.504184
30
0.0
11
4.335719
21
0.483016
31
0.0
0
LINE
8
1
62
3
10
4.395648
20
0.514773
30
0.0
11
4.365383
21
0.504184
31
0.0
0
LINE
8
1
62
3
10
4.438936
20
0.521367
30
0.0
11
4.395648
21
0.514773
31
0.0
0
LINE
8
1
62
3
10
4.500865
20
0.538597
30
0.0
11
4.438936
21
0.521367
31
0.0
0
LINE
8
1
62
3
10
4.597696
20
0.574807
30
0.0
11
4.500865
21
0.538597
31
0.0
0
LINE
8
1
62
3
10
4.706005
20
0.62063
30
0.0
11
4.597696
21
0.574807
31
0.0
0
LINE
8
1
62
3
10
4.802368
20
0.666701
30
0.0
11
4.706005
21
0.62063
31
0.0
0
LINE
8
1
62
3
10
5.001411
20
0.777615
30
0.0
11
4.802368
21
0.666701
31
0.0
0
LINE
8
1
62
3
10
5.118493
20
0.841612
30
0.0
11
5.001411
21
0.777615
31
0.0
0
LINE
8
1
62
3
10
5.591125
20
0.909107
30
0.0
11
5.560061
21
0.887782
31
0.0
0
LINE
8
1
62
3
10
5.617474
20
0.937329
30
0.0
11
5.591125
21
0.909107
31
0.0
0
LINE
8
1
62
3
10
5.639208
20
0.972535
30
0.0
11
5.617474
21
0.937329
31
0.0
0
LINE
8
1
62
3
10
5.653801
20
1.01004
30
0.0
11
5.639208
21
0.972535
31
0.0
0
LINE
8
1
62
3
10
5.670272
20
1.06515
30
0.0
11
5.653801
21
1.01004
31
0.0
0
LINE
8
1
62
3
10
5.697914
20
1.188045
30
0.0
11
5.670272
21
1.06515
31
0.0
0
LINE
8
1
62
3
10
5.707978
20
1.215758
30
0.0
11
5.697914
21
1.188045
31
0.0
0
LINE
8
1
62
3
10
5.726011
20
1.245619
30
0.0
11
5.707978
21
1.215758
31
0.0
0
LINE
8
1
62
3
10
5.759734
20
1.29449
30
0.0
11
5.726011
21
1.245619
31
0.0
0
LINE
8
1
62
3
10
5.781842
20
1.338963
30
0.0
11
5.759734
21
1.29449
31
0.0
0
LINE
8
1
62
3
10
5.795329
20
1.386807
30
0.0
11
5.781842
21
1.338963
31
0.0
0
LINE
8
1
62
3
10
5.803192
20
1.445793
30
0.0
11
5.795329
21
1.386807
31
0.0
0
LINE
8
1
62
3
10
5.8072
20
1.518569
30
0.0
11
5.803192
21
1.445793
31
0.0
0
LINE
8
1
62
3
10
5.805796
20
1.582054
30
0.0
11
5.8072
21
1.518569
31
0.0
0
LINE
8
1
62
3
10
5.799317
20
1.631388
30
0.0
11
5.805796
21
1.582054
31
0.0
0
LINE
8
1
62
3
10
5.788104
20
1.661715
30
0.0
11
5.799317
21
1.631388
31
0.0
0
LINE
8
1
62
3
10
5.777639
20
1.68282
30
0.0
11
5.788104
21
1.661715
31
0.0
0
LINE
8
1
62
3
10
5.770509
20
1.70785
30
0.0
11
5.777639
21
1.68282
31
0.0
0
LINE
8
1
62
3
10
5.759968
20
1.738355
30
0.0
11
5.770509
21
1.70785
31
0.0
0
LINE
8
1
62
3
10
5.741303
20
1.77262
30
0.0
11
5.759968
21
1.738355
31
0.0
0
LINE
8
1
62
3
10
5.721672
20
1.8098
30
0.0
11
5.741303
21
1.77262
31
0.0
0
LINE
8
1
62
3
10
5.708812
20
1.847313
30
0.0
11
5.721672
21
1.8098
31
0.0
0
LINE
8
1
62
3
10
5.705596
20
1.882527
30
0.0
11
5.708812
21
1.847313
31
0.0
0
LINE
8
1
62
3
10
5.711462
20
1.917574
30
0.0
11
5.705596
21
1.882527
31
0.0
0
LINE
8
1
62
3
10
5.726828
20
1.953859
30
0.0
11
5.711462
21
1.917574
31
0.0
0
LINE
8
1
62
3
10
5.752114
20
1.992791
30
0.0
11
5.726828
21
1.953859
31
0.0
0
LINE
8
1
62
3
10
5.768927
20
2.01799
30
0.0
11
5.752114
21
1.992791
31
0.0
0
LINE
8
1
62
3
10
5.775256
20
2.035598
30
0.0
11
5.768927
21
2.01799
31
0.0
0
LINE
8
1
62
3
10
5.77125
20
2.047524
30
0.0
11
5.775256
21
2.035598
31
0.0
0
LINE
8
1
62
3
10
5.757061
20
2.055674
30
0.0
11
5.77125
21
2.047524
31
0.0
0
LINE
8
1
62
3
10
5.698528
20
2.059079
30
0.0
11
5.757061
21
2.055674
31
0.0
0
LINE
8
1
62
3
10
5.579608
20
2.059444
30
0.0
11
5.698528
21
2.059079
31
0.0
0
LINE
8
1
62
3
10
5.41407
20
2.06209
30
0.0
11
5.579608
21
2.059444
31
0.0
0
LINE
8
1
62
3
10
5.22215
20
2.070822
30
0.0
11
5.41407
21
2.06209
31
0.0
0
LINE
8
1
62
3
10
5.060625
20
2.08238
30
0.0
11
5.22215
21
2.070822
31
0.0
0
LINE
8
1
62
3
10
5.009006
20
2.0882
30
0.0
11
5.060625
21
2.08238
31
0.0
0
LINE
8
1
62
3
10
4.986278
20
2.093505
30
0.0
11
5.009006
21
2.0882
31
0.0
0
LINE
8
1
62
3
10
4.95132
20
2.14285
30
0.0
11
4.986278
21
2.093505
31
0.0
0
LINE
8
1
62
3
10
4.937422
20
2.168293
30
0.0
11
4.95132
21
2.14285
31
0.0
0
LINE
8
1
62
3
10
4.926251
20
2.197402
30
0.0
11
4.937422
21
2.168293
31
0.0
0
LINE
8
1
62
3
10
4.903353
20
2.294199
30
0.0
11
4.926251
21
2.197402
31
0.0
0
LINE
8
1
62
3
10
4.877088
20
2.408
30
0.0
11
4.903353
21
2.294199
31
0.0
0
LINE
8
1
62
3
10
4.848269
20
2.504581
30
0.0
11
4.877088
21
2.408
31
0.0
0
LINE
8
1
62
3
10
4.818123
20
2.580357
30
0.0
11
4.848269
21
2.504581
31
0.0
0
LINE
8
1
62
3
10
4.787875
20
2.631744
30
0.0
11
4.818123
21
2.580357
31
0.0
0
LINE
8
1
62
3
10
4.762938
20
2.657266
30
0.0
11
4.787875
21
2.631744
31
0.0
0
LINE
8
1
62
3
10
4.73003
20
2.682166
30
0.0
11
4.762938
21
2.657266
31
0.0
0
LINE
8
1
62
3
10
4.693136
20
2.703787
30
0.0
11
4.73003
21
2.682166
31
0.0
0
LINE
8
1
62
3
10
4.656239
20
2.719475
30
0.0
11
4.693136
21
2.703787
31
0.0
0
LINE
8
1
62
3
10
4.574907
20
2.740914
30
0.0
11
4.656239
21
2.719475
31
0.0
0
LINE
8
1
62
3
10
4.462206
20
2.763324
30
0.0
11
4.574907
21
2.740914
31
0.0
0
LINE
8
1
62
3
10
4.335522
20
2.783607
30
0.0
11
4.462206
21
2.763324
31
0.0
0
LINE
8
1
62
3
10
4.212241
20
2.798661
30
0.0
11
4.335522
21
2.783607
31
0.0
0
LINE
8
1
62
3
10
4.01668
20
2.815936
30
0.0
11
4.212241
21
2.798661
31
0.0
0
LINE
8
1
62
3
10
3.831765
20
2.825825
30
0.0
11
4.01668
21
2.815936
31
0.0
0
LINE
8
1
62
3
10
3.602297
20
2.830233
30
0.0
11
3.831765
21
2.825825
31
0.0
0
LINE
8
1
62
3
10
3.273076
20
2.831064
30
0.0
11
3.602297
21
2.830233
31
0.0
0
LINE
8
1
62
3
10
2.940646
20
2.829954
30
0.0
11
3.273076
21
2.831064
31
0.0
0
LINE
8
1
62
3
10
2.738023
20
2.825118
30
0.0
11
2.940646
21
2.829954
31
0.0
0
LINE
8
1
62
3
10
2.597821
20
2.813278
30
0.0
11
2.738023
21
2.825118
31
0.0
0
LINE
8
1
62
3
10
2.452656
20
2.791159
30
0.0
11
2.597821
21
2.813278
31
0.0
0
LINE
8
1
62
3
10
2.355274
20
2.772916
30
0.0
11
2.452656
21
2.791159
31
0.0
0
LINE
8
1
62
3
10
2.281973
20
2.75348
30
0.0
11
2.355274
21
2.772916
31
0.0
0
LINE
8
1
62
3
10
2.221675
20
2.729227
30
0.0
11
2.281973
21
2.75348
31
0.0
0
LINE
8
1
62
3
10
2.163304
20
2.696536
30
0.0
11
2.221675
21
2.729227
31
0.0
0
LINE
8
1
62
3
10
2.131753
20
2.675391
30
0.0
11
2.163304
21
2.696536
31
0.0
0
LINE
8
1
62
3
10
2.104459
20
2.652927
30
0.0
11
2.131753
21
2.675391
31
0.0
0
LINE
8
1
62
3
10
2.079715
20
2.626495
30
0.0
11
2.104459
21
2.652927
31
0.0
0
LINE
8
1
62
3
10
2.055807
20
2.593446
30
0.0
11
2.079715
21
2.626495
31
0.0
0
LINE
8
1
62
3
10
2.00366
20
2.496906
30
0.0
11
2.055807
21
2.593446
31
0.0
0
LINE
8
1
62
3
10
1.934325
20
2.342117
30
0.0
11
2.00366
21
2.496906
31
0.0
0
LINE
8
1
62
3
10
1.889411
20
2.244782
30
0.0
11
1.934325
21
2.342117
31
0.0
0
LINE
8
1
62
3
10
1.859998
20
2.192672
30
0.0
11
1.889411
21
2.244782
31
0.0
0
LINE
8
1
62
3
10
1.838466
20
2.176452
30
0.0
11
1.859998
21
2.192672
31
0.0
0
LINE
8
1
62
3
10
1.812496
20
2.165406
30
0.0
11
1.838466
21
2.176452
31
0.0
0
LINE
8
1
62
3
10
1.661349
20
2.120499
30
0.0
11
1.812496
21
2.165406
31
0.0
0
LINE
8
1
62
3
10
1.488303
20
2.059494
30
0.0
11
1.661349
21
2.120499
31
0.0
0
LINE
8
1
62
3
10
1.302864
20
1.985365
30
0.0
11
1.488303
21
2.059494
31
0.0
0
LINE
8
1
62
3
10
1.233057
20
1.953561
30
0.0
11
1.302864
21
1.985365
31
0.0
0
LINE
8
1
62
3
10
1.174371
20
1.922915
30
0.0
11
1.233057
21
1.953561
31
0.0
0
LINE
8
1
62
3
10
1.123689
20
1.891661
30
0.0
11
1.174371
21
1.922915
31
0.0
0
LINE
8
1
62
3
10
1.077895
20
1.858035
30
0.0
11
1.123689
21
1.891661
31
0.0
0
LINE
8
1
62
3
10
0.988506
20
1.776616
30
0.0
11
1.077895
21
1.858035
31
0.0
0
LINE
8
1
62
3
10
0.936109
20
1.725955
30
0.0
11
0.988506
21
1.776616
31
0.0
0
LINE
8
1
62
3
10
0.915367
20
1.709952
30
0.0
11
0.936109
21
1.725955
31
0.0
0
LINE
8
1
62
3
10
0.894412
20
1.698483
30
0.0
11
0.915367
21
1.709952
31
0.0
0
LINE
8
1
62
3
10
0.840297
20
1.684096
30
0.0
11
0.894412
21
1.698483
31
0.0
0
LINE
8
1
62
3
10
0.750645
20
1.672694
30
0.0
11
0.840297
21
1.684096
31
0.0
0
LINE
8
1
62
3
10
0.603438
20
1.653078
30
0.0
11
0.750645
21
1.672694
31
0.0
0
LINE
8
1
62
3
10
0.476881
20
1.629701
30
0.0
11
0.603438
21
1.653078
31
0.0
0
LINE
8
1
62
3
10
0.35826
20
1.599798
30
0.0
11
0.476881
21
1.629701
31
0.0
0
LINE
8
1
62
3
10
0.234862
20
1.560606
30
0.0
11
0.35826
21
1.599798
31
0.0
0
LINE
8
1
62
3
10
0.163482
20
1.534022
30
0.0
11
0.234862
21
1.560606
31
0.0
0
LINE
8
1
62
3
10
0.107761
20
1.508151
30
0.0
11
0.163482
21
1.534022
31
0.0
0
LINE
8
1
62
3
10
0.062561
20
1.480257
30
0.0
11
0.107761
21
1.508151
31
0.0
0
LINE
8
1
62
3
10
0.022744
20
1.447604
30
0.0
11
0.062561
21
1.480257
31
0.0
0
LINE
8
1
62
3
10
-0.011351
20
1.411972
30
0.0
11
0.022744
21
1.447604
31
0.0
0
LINE
8
1
62
3
10
-0.033176
20
1.377919
30
0.0
11
-0.011351
21
1.411972
31
0.0
0
LINE
8
1
62
3
10
-0.044773
20
1.341117
30
0.0
11
-0.033176
21
1.377919
31
0.0
0
LINE
8
1
62
3
10
-0.048185
20
1.297233
30
0.0
11
-0.044773
21
1.341117
31
0.0
0
LINE
8
1
62
3
10
-0.045829
20
1.255819
30
0.0
11
-0.048185
21
1.297233
31
0.0
0
LINE
8
1
62
3
10
-0.037831
20
1.219658
30
0.0
11
-0.045829
21
1.255819
31
0.0
0
LINE
8
1
62
3
10
-0.0228
20
1.184433
30
0.0
11
-0.037831
21
1.219658
31
0.0
0
LINE
8
1
62
3
10
0.000658
20
1.145827
30
0.0
11
-0.0228
21
1.184433
31
0.0
0
LINE
8
1
62
3
10
0.020971
20
1.112274
30
0.0
11
0.000658
21
1.145827
31
0.0
0
LINE
8
1
62
3
10
0.03579
20
1.070632
30
0.0
11
0.020971
21
1.112274
31
0.0
0
LINE
8
1
62
3
10
0.051239
20
0.99773
30
0.0
11
0.03579
21
1.070632
31
0.0
0
LINE
8
1
62
3
10
0.073441
20
0.870399
30
0.0
11
0.051239
21
0.99773
31
0.0
0
LINE
8
1
62
3
10
0.097389
20
0.738112
30
0.0
11
0.073441
21
0.870399
31
0.0
0
LINE
8
1
62
3
10
0.117263
20
0.654455
30
0.0
11
0.097389
21
0.738112
31
0.0
0
LINE
8
1
62
3
10
0.137665
20
0.604103
30
0.0
11
0.117263
21
0.654455
31
0.0
0
LINE
8
1
62
3
10
0.163203
20
0.571737
30
0.0
11
0.137665
21
0.604103
31
0.0
0
LINE
8
1
62
3
10
0.187346
20
0.552335
30
0.0
11
0.163203
21
0.571737
31
0.0
0
LINE
8
1
62
3
10
0.219445
20
0.535472
30
0.0
11
0.187346
21
0.552335
31
0.0
0
LINE
8
1
62
3
10
0.336836
20
0.496681
30
0.0
11
0.219445
21
0.535472
31
0.0
0
LINE
8
1
62
3
10
0.364521
20
0.487555
30
0.0
11
0.336836
21
0.496681
31
0.0
0
LINE
8
1
62
3
10
0.38637
20
0.476815
30
0.0
11
0.364521
21
0.487555
31
0.0
0
LINE
8
1
62
3
10
0.432896
20
0.438087
30
0.0
11
0.38637
21
0.476815
31
0.0
0
LINE
8
1
62
3
10
0.46483
20
0.411133
30
0.0
11
0.432896
21
0.438087
31
0.0
0
LINE
8
1
62
3
10
0.501845
20
0.386496
30
0.0
11
0.46483
21
0.411133
31
0.0
0
LINE
8
1
62
3
10
0.542917
20
0.36457
30
0.0
11
0.501845
21
0.386496
31
0.0
0
LINE
8
1
62
3
10
0.58702
20
0.345739
30
0.0
11
0.542917
21
0.36457
31
0.0
0
LINE
8
1
62
3
10
0.633128
20
0.330394
30
0.0
11
0.58702
21
0.345739
31
0.0
0
LINE
8
1
62
3
10
0.680218
20
0.318923
30
0.0
11
0.633128
21
0.330394
31
0.0
0
LINE
8
1
62
3
10
0.727263
20
0.311713
30
0.0
11
0.680218
21
0.318923
31
0.0
0
LINE
8
1
62
3
10
0.773238
20
0.309153
30
0.0
11
0.727263
21
0.311713
31
0.0
0
LINE
8
1
62
3
10
0.82169
20
0.303726
30
0.0
11
0.773238
21
0.309153
31
0.0
0
LINE
8
1
62
3
10
0.881188
20
0.290809
30
0.0
11
0.82169
21
0.303726
31
0.0
0
LINE
8
1
62
3
10
1.01164
20
0.256856
30
0.0
11
0.881188
21
0.290809
31
0.0
0
LINE
8
1
62
3
10
1.128034
20
0.230124
30
0.0
11
1.01164
21
0.256856
31
0.0
0
LINE
8
1
62
3
10
1.236222
20
0.20999
30
0.0
11
1.128034
21
0.230124
31
0.0
0
LINE
8
1
62
3
10
1.342058
20
0.195828
30
0.0
11
1.236222
21
0.20999
31
0.0
0
LINE
8
1
62
3
10
1.451394
20
0.187013
30
0.0
11
1.342058
21
0.195828
31
0.0
0
LINE
8
1
62
3
10
1.570082
20
0.18292
30
0.0
11
1.451394
21
0.187013
31
0.0
0
LINE
8
1
62
3
10
1.858924
20
0.186402
30
0.0
11
1.570082
21
0.18292
31
0.0
0
LINE
8
1
62
3
10
2.1432
20
0.194901
30
0.0
11
1.858924
21
0.186402
31
0.0
0
LINE
8
1
62
3
10
2.456254
20
0.154768
30
0.0
11
2.1432
21
0.194901
31
0.0
0
LINE
8
1
62
3
10
2.787301
20
0.110943
30
0.0
11
2.456254
21
0.154768
31
0.0
0
LINE
8
1
62
3
10
2.931235
20
0.097199
30
0.0
11
2.787301
21
0.110943
31
0.0
0
LINE
8
1
62
3
10
3.046159
20
0.085033
30
0.0
11
2.931235
21
0.097199
31
0.0
0
LINE
8
1
62
3
10
3.075878
20
0.076383
30
0.0
11
3.046159
21
0.085033
31
0.0
0
LINE
8
1
62
3
10
3.105857
20
0.06227
30
0.0
11
3.075878
21
0.076383
31
0.0
0
LINE
8
1
62
3
10
3.141232
20
0.045507
30
0.0
11
3.105857
21
0.06227
31
0.0
0
LINE
8
1
62
3
10
3.179189
20
0.034284
30
0.0
11
3.141232
21
0.045507
31
0.0
0
LINE
8
1
62
3
10
3.348641
20
0.009982
30
0.0
11
3.179189
21
0.034284
31
0.0
0
LINE
8
1
62
3
10
3.961027
20
0.388561
30
0.0
11
3.974487
21
0.456034
31
0.0
0
LINE
8
1
62
3
10
3.974487
20
0.456034
30
0.0
11
4.021802
21
0.44322
31
0.0
0
LINE
8
1
62
3
10
4.021802
20
0.44322
30
0.0
11
4.08686
21
0.42252
31
0.0
0
LINE
8
1
62
3
10
4.08686
20
0.42252
30
0.0
11
4.102632
21
0.409705
31
0.0
0
LINE
8
1
62
3
10
4.102632
20
0.409705
30
0.0
11
4.103617
21
0.383091
31
0.0
0
LINE
8
1
62
3
10
4.103617
20
0.383091
30
0.0
11
4.10756
21
0.364362
31
0.0
0
LINE
8
1
62
3
10
4.10756
20
0.364362
30
0.0
11
4.124318
21
0.352533
31
0.0
0
LINE
8
1
62
3
10
4.124318
20
0.352533
30
0.0
11
4.153889
21
0.350562
31
0.0
0
LINE
8
1
62
3
10
4.153889
20
0.350562
30
0.0
11
4.183461
21
0.359433
31
0.0
0
LINE
8
1
62
3
10
4.183461
20
0.359433
30
0.0
11
4.20901
21
0.37452
31
0.0
0
LINE
8
1
62
3
10
5.118493
20
0.841612
30
0.0
11
5.163703
21
0.859689
31
0.0
0
LINE
8
1
62
3
10
5.163702
20
0.859689
30
0.0
11
5.390419
21
0.84096
31
0.0
0
LINE
8
1
62
3
10
5.390419
20
0.84096
30
0.0
11
5.460406
21
0.845889
31
0.0
0
LINE
8
1
62
3
10
5.460406
20
0.845888
30
0.0
11
5.50082
21
0.85476
31
0.0
0
LINE
8
1
62
3
10
5.50082
20
0.85476
30
0.0
11
5.560061
21
0.887782
31
0.0
0
ENDSEC
0
EOF
