  0
SECTION
  2
HEADER
  9
$ACADVER
  1
AC1009
  9
$EXTMIN
 10
0.04993218
 20
2.80498131
 30
0.0
  9
$EXTMAX
 10
11.84435343
 20
9.19491675
 30
0.0
  0
ENDSEC
  0
SECTION
  2
TABLES
  0
TABLE
  2
LAYER
 70
1
 0
LAYER
 2
Default_Layer
 70
0
 62
1
 6
CONTINUOUS
 0
ENDTAB
 0
ENDSEC
  0
SECTION
  2
ENTITIES
  0
POLYLINE
  8
Default_Layer
 66
   1
 39
0.000000
 70
    1
  0
VERTEX
  8
0
 10
5.77390800
 20
5.88524321
  0
VERTEX
  8
0
 10
5.17593390
 20
5.88597266
  0
VERTEX
  8
0
 10
4.75254437
 20
5.88686959
  0
VERTEX
  8
0
 10
4.67529155
 20
5.42253947
  0
VERTEX
  8
0
 10
4.88102801
 20
5.42253947
  0
VERTEX
  8
0
 10
4.63707173
 20
4.23447239
  0
VERTEX
  8
0
 10
5.17377555
 20
4.23447239
  0
VERTEX
  8
0
 10
5.21687449
 20
4.23447239
  0
VERTEX
  8
0
 10
5.35999551
 20
3.59530693
  0
VERTEX
  8
0
 10
5.91946858
 20
3.59774650
  0
VERTEX
  8
0
 10
5.74788600
 20
4.39792310
  0
VERTEX
  8
0
 10
5.76912870
 20
4.39878147
  0
VERTEX
  8
0
 10
5.78938458
 20
4.40134086
  0
VERTEX
  8
0
 10
5.80867412
 20
4.40548793
  0
VERTEX
  8
0
 10
5.82701782
 20
4.41110933
  0
VERTEX
  8
0
 10
5.84443617
 20
4.41809173
  0
VERTEX
  8
0
 10
5.86094965
 20
4.42632179
  0
VERTEX
  8
0
 10
5.87657877
 20
4.43568617
  0
VERTEX
  8
0
 10
5.89134400
 20
4.44607153
  0
VERTEX
  8
0
 10
5.90526584
 20
4.45736453
  0
VERTEX
  8
0
 10
5.91836477
 20
4.46945183
  0
VERTEX
  8
0
 10
5.93066130
 20
4.48222011
  0
VERTEX
  8
0
 10
5.94217591
 20
4.49555601
  0
VERTEX
  8
0
 10
5.95292909
 20
4.50934620
  0
VERTEX
  8
0
 10
5.96294133
 20
4.52347733
  0
VERTEX
  8
0
 10
5.98082496
 20
4.55230911
  0
VERTEX
  8
0
 10
5.99599071
 20
4.58114462
  0
VERTEX
  8
0
 10
6.00860253
 20
4.60907717
  0
VERTEX
  8
0
 10
6.01882432
 20
4.63520003
  0
VERTEX
  8
0
 10
6.02682002
 20
4.65860651
  0
VERTEX
  8
0
 10
6.03678883
 20
4.69364347
  0
VERTEX
  8
0
 10
6.03982034
 20
4.70693438
  0
VERTEX
  8
0
 10
6.09266589
 20
4.95731828
  0
VERTEX
  8
0
 10
6.18944686
 20
5.42253947
  0
VERTEX
  8
0
 10
6.19412778
 20
5.44901264
  0
VERTEX
  8
0
 10
6.19710477
 20
5.47483395
  0
VERTEX
  8
0
 10
6.19843423
 20
5.49999110
  0
VERTEX
  8
0
 10
6.19817258
 20
5.52447175
  0
VERTEX
  8
0
 10
6.19637625
 20
5.54826358
  0
VERTEX
  8
0
 10
6.19310164
 20
5.57135428
  0
VERTEX
  8
0
 10
6.18840517
 20
5.59373151
  0
VERTEX
  8
0
 10
6.18234327
 20
5.61538296
  0
VERTEX
  8
0
 10
6.17497233
 20
5.63629629
  0
VERTEX
  8
0
 10
6.16634880
 20
5.65645920
  0
VERTEX
  8
0
 10
6.15652906
 20
5.67585936
  0
VERTEX
  8
0
 10
6.14556956
 20
5.69448444
  0
VERTEX
  8
0
 10
6.13352670
 20
5.71232212
  0
VERTEX
  8
0
 10
6.12045689
 20
5.72936008
  0
VERTEX
  8
0
 10
6.10641656
 20
5.74558599
  0
VERTEX
  8
0
 10
6.09146212
 20
5.76098754
  0
VERTEX
  8
0
 10
6.07564998
 20
5.77555240
  0
VERTEX
  8
0
 10
6.05903657
 20
5.78926825
  0
VERTEX
  8
0
 10
6.04167830
 20
5.80212276
  0
VERTEX
  8
0
 10
6.02363159
 20
5.81410362
  0
VERTEX
  8
0
 10
6.00495285
 20
5.82519850
  0
VERTEX
  8
0
 10
5.98569849
 20
5.83539507
  0
VERTEX
  8
0
 10
5.96592495
 20
5.84468102
  0
VERTEX
  8
0
 10
5.94568862
 20
5.85304403
  0
VERTEX
  8
0
 10
5.92504594
 20
5.86047176
  0
VERTEX
  8
0
 10
5.90405331
 20
5.86695190
  0
VERTEX
  8
0
 10
5.88276715
 20
5.87247212
  0
VERTEX
  8
0
 10
5.86124388
 20
5.87702011
  0
VERTEX
  8
0
 10
5.83953991
 20
5.88058353
  0
VERTEX
  8
0
 10
5.81771166
 20
5.88315007
  0
VERTEX
  8
0
 10
5.79581555
 20
5.88470741
  0
VERTEX
  8
0
 10
5.77390800
 20
5.88524321
  0
SEQEND
  0
POLYLINE
  8
Default_Layer
 66
   1
 39
0.000000
 70
    1
  0
VERTEX
  8
0
 10
9.91221969
 20
3.37330672
  0
VERTEX
  8
0
 10
9.77967011
 20
3.37330672
  0
VERTEX
  8
0
 10
9.74766434
 20
3.36733622
  0
VERTEX
  8
0
 10
9.73351109
 20
3.36348717
  0
VERTEX
  8
0
 10
9.72045249
 20
3.35876746
  0
VERTEX
  8
0
 10
9.70838473
 20
3.35295602
  0
VERTEX
  8
0
 10
9.69720397
 20
3.34583176
  0
VERTEX
  8
0
 10
9.68680639
 20
3.33717361
  0
VERTEX
  8
0
 10
9.67708818
 20
3.32676047
  0
VERTEX
  8
0
 10
9.66794549
 20
3.31437127
  0
VERTEX
  8
0
 10
9.65927451
 20
3.29978492
  0
VERTEX
  8
0
 10
9.65097141
 20
3.28278034
  0
VERTEX
  8
0
 10
9.64293237
 20
3.26313644
  0
VERTEX
  8
0
 10
9.63505356
 20
3.24063215
  0
VERTEX
  8
0
 10
9.62723116
 20
3.21504638
  0
VERTEX
  8
0
 10
9.61936134
 20
3.18615805
  0
VERTEX
  8
0
 10
9.61134028
 20
3.15374607
  0
VERTEX
  8
0
 10
9.59281535
 20
3.07172834
  0
VERTEX
  8
0
 10
9.58546396
 20
3.03556664
  0
VERTEX
  8
0
 10
9.57950675
 20
3.00253991
  0
VERTEX
  8
0
 10
9.57503380
 20
2.97257577
  0
VERTEX
  8
0
 10
9.57213522
 20
2.94560185
  0
VERTEX
  8
0
 10
9.57090109
 20
2.92154581
  0
VERTEX
  8
0
 10
9.57142152
 20
2.90033526
  0
VERTEX
  8
0
 10
9.57378660
 20
2.88189785
  0
VERTEX
  8
0
 10
9.57808641
 20
2.86616121
  0
VERTEX
  8
0
 10
9.58441106
 20
2.85305297
  0
VERTEX
  8
0
 10
9.58836085
 20
2.84746189
  0
VERTEX
  8
0
 10
9.59285063
 20
2.84250078
  0
VERTEX
  8
0
 10
9.59789167
 20
2.83816058
  0
VERTEX
  8
0
 10
9.60349523
 20
2.83443225
  0
VERTEX
  8
0
 10
9.60967257
 20
2.83130676
  0
VERTEX
  8
0
 10
9.61643494
 20
2.82877504
  0
VERTEX
  8
0
 10
9.63175987
 20
2.82545678
  0
VERTEX
  8
0
 10
9.64956010
 20
2.82440509
  0
VERTEX
  8
0
 10
9.78210968
 20
2.82440509
  0
VERTEX
  8
0
 10
9.79478480
 20
2.82492707
  0
VERTEX
  8
0
 10
9.80694366
 20
2.82652105
  0
VERTEX
  8
0
 10
9.81859906
 20
2.82914285
  0
VERTEX
  8
0
 10
9.82976382
 20
2.83274832
  0
VERTEX
  8
0
 10
9.84045073
 20
2.83729328
  0
VERTEX
  8
0
 10
9.85067260
 20
2.84273357
  0
VERTEX
  8
0
 10
9.86044224
 20
2.84902502
  0
VERTEX
  8
0
 10
9.86977246
 20
2.85612345
  0
VERTEX
  8
0
 10
9.87867605
 20
2.86398471
  0
VERTEX
  8
0
 10
9.88716583
 20
2.87256462
  0
VERTEX
  8
0
 10
9.90295517
 20
2.89170372
  0
VERTEX
  8
0
 10
9.91724292
 20
2.91318743
  0
VERTEX
  8
0
 10
9.93013153
 20
2.93666240
  0
VERTEX
  8
0
 10
9.94172344
 20
2.96177527
  0
VERTEX
  8
0
 10
9.95212111
 20
2.98817271
  0
VERTEX
  8
0
 10
9.96142696
 20
3.01550138
  0
VERTEX
  8
0
 10
9.96974347
 20
3.04340793
  0
VERTEX
  8
0
 10
9.97717306
 20
3.07153902
  0
VERTEX
  8
0
 10
9.98381818
 20
3.09954130
  0
VERTEX
  8
0
 10
9.99516483
 20
3.15374607
  0
VERTEX
  8
0
 10
10.00324445
 20
3.18944655
  0
VERTEX
  8
0
 10
10.00773449
 20
3.22107587
  0
VERTEX
  8
0
 10
10.00902517
 20
3.24887847
  0
VERTEX
  8
0
 10
10.00750674
 20
3.27309880
  0
VERTEX
  8
0
 10
10.00356942
 20
3.29398133
  0
VERTEX
  8
0
 10
9.99760346
 20
3.31177049
  0
VERTEX
  8
0
 10
9.98999908
 20
3.32671074
  0
VERTEX
  8
0
 10
9.98114652
 20
3.33904654
  0
VERTEX
  8
0
 10
9.97143602
 20
3.34902233
  0
VERTEX
  8
0
 10
9.96125780
 20
3.35688257
  0
VERTEX
  8
0
 10
9.95100211
 20
3.36287171
  0
VERTEX
  8
0
 10
9.94105917
 20
3.36723420
  0
VERTEX
  8
0
 10
9.93181923
 20
3.37021449
  0
VERTEX
  8
0
 10
9.92367251
 20
3.37205704
  0
VERTEX
  8
0
 10
9.91221969
 20
3.37330672
  0
SEQEND
  0
POLYLINE
  8
Default_Layer
 66
   1
 39
0.000000
 70
    1
  0
VERTEX
  8
0
 10
9.86586800
 20
3.13341638
  0
VERTEX
  8
0
 10
9.85931653
 20
3.09766769
  0
VERTEX
  8
0
 10
9.85060627
 20
3.06069208
  0
VERTEX
  8
0
 10
9.84008260
 20
3.02436183
  0
VERTEX
  8
0
 10
9.82809090
 20
2.99054926
  0
VERTEX
  8
0
 10
9.82165247
 20
2.97517219
  0
VERTEX
  8
0
 10
9.81497655
 20
2.96112665
  0
VERTEX
  8
0
 10
9.80810632
 20
2.94864669
  0
VERTEX
  8
0
 10
9.80108494
 20
2.93796632
  0
VERTEX
  8
0
 10
9.79395559
 20
2.92931960
  0
VERTEX
  8
0
 10
9.78676143
 20
2.92294056
  0
VERTEX
  8
0
 10
9.77954566
 20
2.91906323
  0
VERTEX
  8
0
 10
9.77235143
 20
2.91792166
  0
VERTEX
  8
0
 10
9.71949423
 20
2.91954804
  0
VERTEX
  8
0
 10
9.71234965
 20
2.92053184
  0
VERTEX
  8
0
 10
9.70625578
 20
2.92298272
  0
VERTEX
  8
0
 10
9.70117852
 20
2.92695029
  0
VERTEX
  8
0
 10
9.69708379
 20
2.93248412
  0
VERTEX
  8
0
 10
9.69393750
 20
2.93963380
  0
VERTEX
  8
0
 10
9.69170556
 20
2.94844892
  0
VERTEX
  8
0
 10
9.69035387
 20
2.95897908
  0
VERTEX
  8
0
 10
9.68984836
 20
2.97127384
  0
VERTEX
  8
0
 10
9.69123948
 20
3.00135558
  0
VERTEX
  8
0
 10
9.69560619
 20
3.03909083
  0
VERTEX
  8
0
 10
9.70267579
 20
3.08487630
  0
VERTEX
  8
0
 10
9.71217554
 20
3.13910869
  0
VERTEX
  8
0
 10
9.71817194
 20
3.17019605
  0
VERTEX
  8
0
 10
9.72471248
 20
3.19750515
  0
VERTEX
  8
0
 10
9.73196084
 20
3.22103980
  0
VERTEX
  8
0
 10
9.74008072
 20
3.24080381
  0
VERTEX
  8
0
 10
9.74923580
 20
3.25680099
  0
VERTEX
  8
0
 10
9.75425270
 20
3.26338821
  0
VERTEX
  8
0
 10
9.75958979
 20
3.26903516
  0
VERTEX
  8
0
 10
9.76526753
 20
3.27374230
  0
VERTEX
  8
0
 10
9.77130637
 20
3.27751013
  0
VERTEX
  8
0
 10
9.77772679
 20
3.28033910
  0
VERTEX
  8
0
 10
9.78454924
 20
3.28222971
  0
VERTEX
  8
0
 10
9.83740643
 20
3.28060333
  0
VERTEX
  8
0
 10
9.84207186
 20
3.27967267
  0
VERTEX
  8
0
 10
9.84901173
 20
3.27626308
  0
VERTEX
  8
0
 10
9.85292975
 20
3.27323620
  0
VERTEX
  8
0
 10
9.85693058
 20
3.26911863
  0
VERTEX
  8
0
 10
9.86085228
 20
3.26375336
  0
VERTEX
  8
0
 10
9.86453293
 20
3.25698341
  0
VERTEX
  8
0
 10
9.86781058
 20
3.24865179
  0
VERTEX
  8
0
 10
9.87052331
 20
3.23860150
  0
VERTEX
  8
0
 10
9.87250919
 20
3.22667556
  0
VERTEX
  8
0
 10
9.87360627
 20
3.21271697
  0
VERTEX
  8
0
 10
9.87365262
 20
3.19656875
  0
VERTEX
  8
0
 10
9.87248632
 20
3.17807391
  0
VERTEX
  8
0
 10
9.86994542
 20
3.15707545
  0
VERTEX
  8
0
 10
9.86586800
 20
3.13341638
  0
SEQEND
  0
POLYLINE
  8
Default_Layer
 66
   1
 39
0.000000
 70
    1
  0
VERTEX
  8
0
 10
8.62738329
 20
3.26352639
  0
VERTEX
  8
0
 10
8.60148564
 20
3.13677840
  0
VERTEX
  8
0
 10
8.58086655
 20
3.03745611
  0
VERTEX
  8
0
 10
8.56558103
 20
2.96671292
  0
VERTEX
  8
0
 10
8.56356807
 20
2.95562669
  0
VERTEX
  8
0
 10
8.56271595
 20
2.94406115
  0
VERTEX
  8
0
 10
8.56296846
 20
2.93218162
  0
VERTEX
  8
0
 10
8.56426943
 20
2.92015344
  0
VERTEX
  8
0
 10
8.56656266
 20
2.90814197
  0
VERTEX
  8
0
 10
8.56979197
 20
2.89631253
  0
VERTEX
  8
0
 10
8.57390116
 20
2.88483048
  0
VERTEX
  8
0
 10
8.57883404
 20
2.87386114
  0
VERTEX
  8
0
 10
8.58453444
 20
2.86356986
  0
VERTEX
  8
0
 10
8.59094615
 20
2.85412197
  0
VERTEX
  8
0
 10
8.59801298
 20
2.84568283
  0
VERTEX
  8
0
 10
8.60567876
 20
2.83841776
  0
VERTEX
  8
0
 10
8.61388729
 20
2.83249212
  0
VERTEX
  8
0
 10
8.62258237
 20
2.82807123
  0
VERTEX
  8
0
 10
8.63170783
 20
2.82532044
  0
VERTEX
  8
0
 10
8.64120747
 20
2.82440509
  0
VERTEX
  8
0
 10
8.81441643
 20
2.82440509
  0
VERTEX
  8
0
 10
8.82476730
 20
2.82497716
  0
VERTEX
  8
0
 10
8.83467701
 20
2.82736664
  0
VERTEX
  8
0
 10
8.84415078
 20
2.83223851
  0
VERTEX
  8
0
 10
8.85319386
 20
2.84025777
  0
VERTEX
  8
0
 10
8.86181147
 20
2.85208940
  0
VERTEX
  8
0
 10
8.87000884
 20
2.86839840
  0
VERTEX
  8
0
 10
8.87779119
 20
2.88984976
  0
VERTEX
  8
0
 10
8.88516375
 20
2.91710848
  0
VERTEX
  8
0
 10
8.89145899
 20
2.94739400
  0
VERTEX
  8
0
 10
8.89600397
 20
2.97645033
  0
VERTEX
  8
0
 10
8.89907945
 20
3.00341171
  0
VERTEX
  8
0
 10
8.90096618
 20
3.02741240
  0
VERTEX
  8
0
 10
8.90229640
 20
3.06306870
  0
VERTEX
  8
0
 10
8.90224069
 20
3.07649325
  0
VERTEX
  8
0
 10
8.93883414
 20
3.07649325
  0
VERTEX
  8
0
 10
8.95672426
 20
3.15374607
  0
VERTEX
  8
0
 10
8.78270212
 20
3.15374607
  0
VERTEX
  8
0
 10
8.78270212
 20
3.07649325
  0
VERTEX
  8
0
 10
8.82254831
 20
3.07649325
  0
VERTEX
  8
0
 10
8.81799822
 20
3.03299380
  0
VERTEX
  8
0
 10
8.81331270
 20
2.99668065
  0
VERTEX
  8
0
 10
8.80791093
 20
2.96671292
  0
VERTEX
  8
0
 10
8.80488561
 20
2.95593034
  0
VERTEX
  8
0
 10
8.80091374
 20
2.94627472
  0
VERTEX
  8
0
 10
8.79586978
 20
2.93783716
  0
VERTEX
  8
0
 10
8.78962819
 20
2.93070874
  0
VERTEX
  8
0
 10
8.78206342
 20
2.92498058
  0
VERTEX
  8
0
 10
8.77304993
 20
2.92074375
  0
VERTEX
  8
0
 10
8.76246217
 20
2.91808935
  0
VERTEX
  8
0
 10
8.75017461
 20
2.91710848
  0
VERTEX
  8
0
 10
8.72152269
 20
2.91764135
  0
VERTEX
  8
0
 10
8.70728254
 20
2.91916359
  0
VERTEX
  8
0
 10
8.69435321
 20
2.92243570
  0
VERTEX
  8
0
 10
8.68867391
 20
2.92494186
  0
VERTEX
  8
0
 10
8.68367490
 20
2.92814218
  0
VERTEX
  8
0
 10
8.67947369
 20
2.93212222
  0
VERTEX
  8
0
 10
8.67618782
 20
2.93696754
  0
VERTEX
  8
0
 10
8.67393480
 20
2.94276371
  0
VERTEX
  8
0
 10
8.67283217
 20
2.94959629
  0
VERTEX
  8
0
 10
8.67299745
 20
2.95755084
  0
VERTEX
  8
0
 10
8.67454817
 20
2.96671292
  0
VERTEX
  8
0
 10
8.71927348
 20
3.15374607
  0
VERTEX
  8
0
 10
8.72877507
 20
3.19106427
  0
VERTEX
  8
0
 10
8.73854212
 20
3.22132773
  0
VERTEX
  8
0
 10
8.74372206
 20
3.23400807
  0
VERTEX
  8
0
 10
8.74920463
 20
3.24515769
  0
VERTEX
  8
0
 10
8.75506855
 20
3.25485425
  0
VERTEX
  8
0
 10
8.76139259
 20
3.26317539
  0
VERTEX
  8
0
 10
8.76825549
 20
3.27019878
  0
VERTEX
  8
0
 10
8.77573600
 20
3.27600207
  0
VERTEX
  8
0
 10
8.78391287
 20
3.28066291
  0
VERTEX
  8
0
 10
8.79286485
 20
3.28425897
  0
VERTEX
  8
0
 10
8.80267069
 20
3.28686789
  0
VERTEX
  8
0
 10
8.81340915
 20
3.28856733
  0
VERTEX
  8
0
 10
8.82515896
 20
3.28943495
  0
VERTEX
  8
0
 10
8.83799887
 20
3.28954840
  0
VERTEX
  8
0
 10
8.92206441
 20
3.28927629
  0
VERTEX
  8
0
 10
8.95265833
 20
3.28954840
  0
VERTEX
  8
0
 10
8.96160339
 20
3.33671328
  0
VERTEX
  8
0
 10
8.99982321
 20
3.33671328
  0
VERTEX
  8
0
 10
9.00876827
 20
3.37330672
  0
VERTEX
  8
0
 10
8.77050430
 20
3.37330672
  0
VERTEX
  8
0
 10
8.77578706
 20
3.37299171
  0
VERTEX
  8
0
 10
8.76643758
 20
3.37141896
  0
VERTEX
  8
0
 10
8.74646156
 20
3.36730196
  0
VERTEX
  8
0
 10
8.73374039
 20
3.36388735
  0
VERTEX
  8
0
 10
8.71986472
 20
3.35935425
  0
VERTEX
  8
0
 10
8.70533528
 20
3.35354184
  0
VERTEX
  8
0
 10
8.69065277
 20
3.34628932
  0
VERTEX
  8
0
 10
8.67631791
 20
3.33743588
  0
VERTEX
  8
0
 10
8.66283140
 20
3.32682070
  0
VERTEX
  8
0
 10
8.65069398
 20
3.31428297
  0
VERTEX
  8
0
 10
8.64528764
 20
3.30724290
  0
VERTEX
  8
0
 10
8.64040634
 20
3.29966188
  0
VERTEX
  8
0
 10
8.63611267
 20
3.29151983
  0
VERTEX
  8
0
 10
8.63246921
 20
3.28279663
  0
VERTEX
  8
0
 10
8.62953855
 20
3.27347218
  0
VERTEX
  8
0
 10
8.62738329
 20
3.26352639
  0
SEQEND
  0
POLYLINE
  8
Default_Layer
 66
   1
 39
0.000000
 70
    1
  0
VERTEX
  8
0
 10
7.62716254
 20
2.82440509
  0
VERTEX
  8
0
 10
7.89388807
 20
2.82440509
  0
VERTEX
  8
0
 10
7.91584414
 20
2.91710848
  0
VERTEX
  8
0
 10
7.76459124
 20
2.91710848
  0
VERTEX
  8
0
 10
7.80281106
 20
3.07649325
  0
VERTEX
  8
0
 10
7.93210789
 20
3.07649325
  0
VERTEX
  8
0
 10
7.95081120
 20
3.15374607
  0
VERTEX
  8
0
 10
7.82070119
 20
3.15374607
  0
VERTEX
  8
0
 10
7.84672319
 20
3.26352639
  0
VERTEX
  8
0
 10
7.97683321
 20
3.26352639
  0
VERTEX
  8
0
 10
7.99391015
 20
3.33671328
  0
VERTEX
  8
0
 10
8.01505302
 20
3.33671328
  0
VERTEX
  8
0
 10
8.02399809
 20
3.37330672
  0
VERTEX
  8
0
 10
7.70848130
 20
3.37330672
  0
VERTEX
  8
0
 10
7.68245929
 20
3.26352639
  0
VERTEX
  8
0
 10
7.73125055
 20
3.26352639
  0
VERTEX
  8
0
 10
7.62716254
 20
2.82440509
  0
SEQEND
  0
POLYLINE
  8
Default_Layer
 66
   1
 39
0.000000
 70
    1
  0
VERTEX
  8
0
 10
6.87496401
 20
3.37330672
  0
VERTEX
  8
0
 10
7.03922790
 20
3.37330672
  0
VERTEX
  8
0
 10
6.90911789
 20
2.82440509
  0
VERTEX
  8
0
 10
6.74566718
 20
2.82440509
  0
VERTEX
  8
0
 10
6.87496401
 20
3.37330672
  0
SEQEND
  0
POLYLINE
  8
Default_Layer
 66
   1
 39
0.000000
 70
    1
  0
VERTEX
  8
0
 10
6.11463360
 20
3.37330672
  0
VERTEX
  8
0
 10
5.84302894
 20
3.37330672
  0
VERTEX
  8
0
 10
5.81375419
 20
3.26352639
  0
VERTEX
  8
0
 10
5.87149051
 20
3.26352639
  0
VERTEX
  8
0
 10
5.76740250
 20
2.82440509
  0
VERTEX
  8
0
 10
5.98452359
 20
2.82440509
  0
VERTEX
  8
0
 10
5.99527206
 20
2.82460450
  0
VERTEX
  8
0
 10
6.01143227
 20
2.82653185
  0
VERTEX
  8
0
 10
6.02109670
 20
2.82865873
  0
VERTEX
  8
0
 10
6.03157997
 20
2.83183588
  0
VERTEX
  8
0
 10
6.04270404
 20
2.83626939
  0
VERTEX
  8
0
 10
6.05429089
 20
2.84216536
  0
VERTEX
  8
0
 10
6.06616249
 20
2.84972988
  0
VERTEX
  8
0
 10
6.07814081
 20
2.85916905
  0
VERTEX
  8
0
 10
6.09004781
 20
2.87068895
  0
VERTEX
  8
0
 10
6.10170546
 20
2.88449570
  0
VERTEX
  8
0
 10
6.11293574
 20
2.90079537
  0
VERTEX
  8
0
 10
6.12356060
 20
2.91979407
  0
VERTEX
  8
0
 10
6.13340203
 20
2.94169789
  0
VERTEX
  8
0
 10
6.14228198
 20
2.96671292
  0
VERTEX
  8
0
 10
6.16919423
 20
3.05580819
  0
VERTEX
  8
0
 10
6.18679142
 20
3.11751437
  0
VERTEX
  8
0
 10
6.19880423
 20
3.16358911
  0
VERTEX
  8
0
 10
6.20896336
 20
3.20579007
  0
VERTEX
  8
0
 10
6.21129914
 20
3.21877192
  0
VERTEX
  8
0
 10
6.21237493
 20
3.23232098
  0
VERTEX
  8
0
 10
6.21222557
 20
3.24624394
  0
VERTEX
  8
0
 10
6.21088585
 20
3.26034748
  0
VERTEX
  8
0
 10
6.20839059
 20
3.27443827
  0
VERTEX
  8
0
 10
6.20477461
 20
3.28832301
  0
VERTEX
  8
0
 10
6.20007271
 20
3.30180836
  0
VERTEX
  8
0
 10
6.19431972
 20
3.31470102
  0
VERTEX
  8
0
 10
6.18755043
 20
3.32680766
  0
VERTEX
  8
0
 10
6.17979967
 20
3.33793496
  0
VERTEX
  8
0
 10
6.17110224
 20
3.34788959
  0
VERTEX
  8
0
 10
6.16149297
 20
3.35647825
  0
VERTEX
  8
0
 10
6.15100665
 20
3.36350762
  0
VERTEX
  8
0
 10
6.13967811
 20
3.36878436
  0
VERTEX
  8
0
 10
6.12754216
 20
3.37211517
  0
VERTEX
  8
0
 10
6.11463360
 20
3.37330672
  0
SEQEND
  0
POLYLINE
  8
Default_Layer
 66
   1
 39
0.000000
 70
    1
  0
VERTEX
  8
0
 10
6.06340278
 20
3.15862519
  0
VERTEX
  8
0
 10
6.01786428
 20
2.96671292
  0
VERTEX
  8
0
 10
6.01548806
 20
2.95819742
  0
VERTEX
  8
0
 10
6.01254795
 20
2.95072278
  0
VERTEX
  8
0
 10
6.00910635
 20
2.94422067
  0
VERTEX
  8
0
 10
6.00522564
 20
2.93862279
  0
VERTEX
  8
0
 10
6.00096821
 20
2.93386080
  0
VERTEX
  8
0
 10
5.99639646
 20
2.92986640
  0
VERTEX
  8
0
 10
5.98655953
 20
2.92390703
  0
VERTEX
  8
0
 10
5.97621400
 20
2.92019812
  0
VERTEX
  8
0
 10
5.96585897
 20
2.91819310
  0
VERTEX
  8
0
 10
5.94711696
 20
2.91710848
  0
VERTEX
  8
0
 10
5.90645758
 20
2.91710848
  0
VERTEX
  8
0
 10
5.98858952
 20
3.26352639
  0
VERTEX
  8
0
 10
6.03494122
 20
3.26352639
  0
VERTEX
  8
0
 10
6.04300969
 20
3.26278473
  0
VERTEX
  8
0
 10
6.04989811
 20
3.26074884
  0
VERTEX
  8
0
 10
6.05567964
 20
3.25752992
  0
VERTEX
  8
0
 10
6.06042744
 20
3.25323917
  0
VERTEX
  8
0
 10
6.06421468
 20
3.24798780
  0
VERTEX
  8
0
 10
6.06711453
 20
3.24188701
  0
VERTEX
  8
0
 10
6.06920015
 20
3.23504800
  0
VERTEX
  8
0
 10
6.07054471
 20
3.22758197
  0
VERTEX
  8
0
 10
6.07130329
 20
3.21121365
  0
VERTEX
  8
0
 10
6.06997562
 20
3.19367167
  0
VERTEX
  8
0
 10
6.06714701
 20
3.17584565
  0
VERTEX
  8
0
 10
6.06340278
 20
3.15862519
  0
SEQEND
  0
POLYLINE
  8
Default_Layer
 66
   1
 39
0.000000
 70
    1
  0
VERTEX
  8
0
 10
3.95399415
 20
2.81464684
  0
VERTEX
  8
0
 10
4.06784041
 20
2.82440509
  0
VERTEX
  8
0
 10
4.14753280
 20
3.10414162
  0
VERTEX
  8
0
 10
4.20608231
 20
2.82440509
  0
VERTEX
  8
0
 10
4.34839014
 20
2.82440509
  0
VERTEX
  8
0
 10
4.45979684
 20
3.33752647
  0
VERTEX
  8
0
 10
4.48419247
 20
3.33752647
  0
VERTEX
  8
0
 10
4.49557709
 20
3.37330672
  0
VERTEX
  8
0
 10
4.36302751
 20
3.37493309
  0
VERTEX
  8
0
 10
4.28740107
 20
3.10902075
  0
VERTEX
  8
0
 10
4.22478562
 20
3.37330672
  0
VERTEX
  8
0
 10
4.11419211
 20
3.37493309
  0
VERTEX
  8
0
 10
3.95399415
 20
2.81464684
  0
SEQEND
  0
POLYLINE
  8
Default_Layer
 66
   1
 39
0.000000
 70
    1
  0
VERTEX
  8
0
 10
3.34247708
 20
2.86831722
  0
VERTEX
  8
0
 10
3.37093864
 20
3.37493309
  0
VERTEX
  8
0
 10
3.08876254
 20
3.37493309
  0
VERTEX
  8
0
 10
3.06274054
 20
3.26515277
  0
VERTEX
  8
0
 10
3.11153180
 20
3.26515277
  0
VERTEX
  8
0
 10
3.04403723
 20
3.09600975
  0
VERTEX
  8
0
 10
2.99036684
 20
3.09600975
  0
VERTEX
  8
0
 10
2.96434484
 20
2.98460305
  0
VERTEX
  8
0
 10
2.99931191
 20
2.98460305
  0
VERTEX
  8
0
 10
2.93913603
 20
2.83335015
  0
VERTEX
  8
0
 10
3.07412517
 20
2.83416334
  0
VERTEX
  8
0
 10
3.13104830
 20
2.98460305
  0
VERTEX
  8
0
 10
3.15056480
 20
2.98460305
  0
VERTEX
  8
0
 10
3.21805937
 20
2.98460305
  0
VERTEX
  8
0
 10
3.20179562
 20
2.83335015
  0
VERTEX
  8
0
 10
3.30994957
 20
2.83335015
  0
VERTEX
  8
0
 10
3.34003751
 20
2.83335015
  0
VERTEX
  8
0
 10
3.38394964
 20
2.83335015
  0
VERTEX
  8
0
 10
3.38394964
 20
2.86831722
  0
VERTEX
  8
0
 10
3.34247708
 20
2.86831722
  0
SEQEND
  0
POLYLINE
  8
Default_Layer
 66
   1
 39
0.000000
 70
    1
  0
VERTEX
  8
0
 10
3.22944400
 20
3.09600975
  0
VERTEX
  8
0
 10
3.17252087
 20
3.09600975
  0
VERTEX
  8
0
 10
3.23757587
 20
3.26515277
  0
VERTEX
  8
0
 10
3.24814731
 20
3.26515277
  0
VERTEX
  8
0
 10
3.22944400
 20
3.09600975
  0
SEQEND
  0
POLYLINE
  8
Default_Layer
 66
   1
 39
0.000000
 70
    1
  0
VERTEX
  8
0
 10
2.38372890
 20
3.37493309
  0
VERTEX
  8
0
 10
2.38967201
 20
3.37436090
  0
VERTEX
  8
0
 10
2.39574896
 20
3.37300257
  0
VERTEX
  8
0
 10
2.40269443
 20
3.37035779
  0
VERTEX
  8
0
 10
2.40960713
 20
3.36599783
  0
VERTEX
  8
0
 10
2.41558574
 20
3.35949397
  0
VERTEX
  8
0
 10
2.41794311
 20
3.35530410
  0
VERTEX
  8
0
 10
2.41972897
 20
3.35041748
  0
VERTEX
  8
0
 10
2.42083067
 20
3.34478053
  0
VERTEX
  8
0
 10
2.42113552
 20
3.33833965
  0
VERTEX
  8
0
 10
2.42163799
 20
3.32562353
  0
VERTEX
  8
0
 10
2.42007050
 20
3.31266408
  0
VERTEX
  8
0
 10
2.41688801
 20
3.30006359
  0
VERTEX
  8
0
 10
2.41254547
 20
3.28842438
  0
VERTEX
  8
0
 10
2.40749784
 20
3.27834875
  0
VERTEX
  8
0
 10
2.40220008
 20
3.27043900
  0
VERTEX
  8
0
 10
2.39710713
 20
3.26529745
  0
VERTEX
  8
0
 10
2.39477964
 20
3.26395296
  0
VERTEX
  8
0
 10
2.39267396
 20
3.26352639
  0
VERTEX
  8
0
 10
2.38338323
 20
3.26430242
  0
VERTEX
  8
0
 10
2.37708034
 20
3.26659184
  0
VERTEX
  8
0
 10
2.37319202
 20
3.26999178
  0
VERTEX
  8
0
 10
2.37114502
 20
3.27409936
  0
VERTEX
  8
0
 10
2.37036605
 20
3.27851169
  0
VERTEX
  8
0
 10
2.37028186
 20
3.28282589
  0
VERTEX
  8
0
 10
2.36990471
 20
3.28954840
  0
VERTEX
  8
0
 10
2.36809913
 20
3.29081365
  0
VERTEX
  8
0
 10
2.36363599
 20
3.29207746
  0
VERTEX
  8
0
 10
2.34813510
 20
3.29427152
  0
VERTEX
  8
0
 10
2.32619819
 20
3.29547210
  0
VERTEX
  8
0
 10
2.30062142
 20
3.29502074
  0
VERTEX
  8
0
 10
2.27420092
 20
3.29225896
  0
VERTEX
  8
0
 10
2.26154808
 20
3.28980589
  0
VERTEX
  8
0
 10
2.24973286
 20
3.28652829
  0
VERTEX
  8
0
 10
2.23910479
 20
3.28234385
  0
VERTEX
  8
0
 10
2.23001338
 20
3.27717026
  0
VERTEX
  8
0
 10
2.22280815
 20
3.27092521
  0
VERTEX
  8
0
 10
2.21783862
 20
3.26352639
  0
VERTEX
  8
0
 10
2.21438023
 20
3.24789627
  0
VERTEX
  8
0
 10
2.21228932
 20
3.23350412
  0
VERTEX
  8
0
 10
2.21148279
 20
3.22027927
  0
VERTEX
  8
0
 10
2.21187751
 20
3.20815106
  0
VERTEX
  8
0
 10
2.21339035
 20
3.19704882
  0
VERTEX
  8
0
 10
2.21593819
 20
3.18690188
  0
VERTEX
  8
0
 10
2.21943792
 20
3.17763958
  0
VERTEX
  8
0
 10
2.22380640
 20
3.16919125
  0
VERTEX
  8
0
 10
2.22896052
 20
3.16148622
  0
VERTEX
  8
0
 10
2.23481714
 20
3.15445383
  0
VERTEX
  8
0
 10
2.24129316
 20
3.14802341
  0
VERTEX
  8
0
 10
2.24830544
 20
3.14212429
  0
VERTEX
  8
0
 10
2.26360630
 20
3.13163729
  0
VERTEX
  8
0
 10
2.28005475
 20
3.12242751
  0
VERTEX
  8
0
 10
2.31373448
 20
3.10557824
  0
VERTEX
  8
0
 10
2.32963579
 20
3.09680809
  0
VERTEX
  8
0
 10
2.34402475
 20
3.08705381
  0
VERTEX
  8
0
 10
2.35044429
 20
3.08163096
  0
VERTEX
  8
0
 10
2.35623638
 20
3.07575008
  0
VERTEX
  8
0
 10
2.36131789
 20
3.06934050
  0
VERTEX
  8
0
 10
2.36560570
 20
3.06233155
  0
VERTEX
  8
0
 10
2.36901668
 20
3.05465258
  0
VERTEX
  8
0
 10
2.37146772
 20
3.04623291
  0
VERTEX
  8
0
 10
2.37287568
 20
3.03700187
  0
VERTEX
  8
0
 10
2.37315746
 20
3.02688880
  0
VERTEX
  8
0
 10
2.37295501
 20
3.00636448
  0
VERTEX
  8
0
 10
2.37002193
 20
2.98595639
  0
VERTEX
  8
0
 10
2.36465290
 20
2.96583107
  0
VERTEX
  8
0
 10
2.35714261
 20
2.94615503
  0
VERTEX
  8
0
 10
2.34778575
 20
2.92709481
  0
VERTEX
  8
0
 10
2.33687701
 20
2.90881692
  0
VERTEX
  8
0
 10
2.32471107
 20
2.89148790
  0
VERTEX
  8
0
 10
2.31158262
 20
2.87527425
  0
VERTEX
  8
0
 10
2.29778634
 20
2.86034252
  0
VERTEX
  8
0
 10
2.28361694
 20
2.84685921
  0
VERTEX
  8
0
 10
2.26936908
 20
2.83499086
  0
VERTEX
  8
0
 10
2.25533747
 20
2.82490399
  0
VERTEX
  8
0
 10
2.24181679
 20
2.81676512
  0
VERTEX
  8
0
 10
2.22910172
 20
2.81074078
  0
VERTEX
  8
0
 10
2.21748696
 20
2.80699749
  0
VERTEX
  8
0
 10
2.20726719
 20
2.80570177
  0
VERTEX
  8
0
 10
2.17110108
 20
2.80498131
  0
VERTEX
  8
0
 10
2.14181698
 20
2.80508325
  0
VERTEX
  8
0
 10
2.06821211
 20
2.80570177
  0
VERTEX
  8
0
 10
2.05618868
 20
2.80697069
  0
VERTEX
  8
0
 10
2.04555707
 20
2.81052637
  0
VERTEX
  8
0
 10
2.03636255
 20
2.81604147
  0
VERTEX
  8
0
 10
2.02865040
 20
2.82318867
  0
VERTEX
  8
0
 10
2.02246591
 20
2.83164063
  0
VERTEX
  8
0
 10
2.01785435
 20
2.84107002
  0
VERTEX
  8
0
 10
2.01486101
 20
2.85114949
  0
VERTEX
  8
0
 10
2.01353117
 20
2.86155171
  0
VERTEX
  8
0
 10
2.01391010
 20
2.87194936
  0
VERTEX
  8
0
 10
2.01604310
 20
2.88201509
  0
VERTEX
  8
0
 10
2.01997544
 20
2.89142156
  0
VERTEX
  8
0
 10
2.02575240
 20
2.89984146
  0
VERTEX
  8
0
 10
2.03341927
 20
2.90694743
  0
VERTEX
  8
0
 10
2.04302132
 20
2.91241215
  0
VERTEX
  8
0
 10
2.05460384
 20
2.91590827
  0
VERTEX
  8
0
 10
2.06821211
 20
2.91710848
  0
VERTEX
  8
0
 10
2.17230012
 20
2.91710848
  0
VERTEX
  8
0
 10
2.17615447
 20
2.91883572
  0
VERTEX
  8
0
 10
2.18578368
 20
2.92401065
  0
VERTEX
  8
0
 10
2.19828699
 20
2.93262303
  0
VERTEX
  8
0
 10
2.20470994
 20
2.93821507
  0
VERTEX
  8
0
 10
2.21076362
 20
2.94466264
  0
VERTEX
  8
0
 10
2.21608544
 20
2.95196445
  0
VERTEX
  8
0
 10
2.22031281
 20
2.96011924
  0
VERTEX
  8
0
 10
2.22308312
 20
2.96912573
  0
VERTEX
  8
0
 10
2.22403379
 20
2.97898262
  0
VERTEX
  8
0
 10
2.22280221
 20
2.98968866
  0
VERTEX
  8
0
 10
2.21902580
 20
3.00124255
  0
VERTEX
  8
0
 10
2.21234194
 20
3.01364303
  0
VERTEX
  8
0
 10
2.20238806
 20
3.02688880
  0
VERTEX
  8
0
 10
2.17696230
 20
3.04516940
  0
VERTEX
  8
0
 10
2.15969640
 20
3.05788694
  0
VERTEX
  8
0
 10
2.14144576
 20
3.07281840
  0
VERTEX
  8
0
 10
2.12374834
 20
3.08983559
  0
VERTEX
  8
0
 10
2.11558770
 20
3.09908627
  0
VERTEX
  8
0
 10
2.10814210
 20
3.10881032
  0
VERTEX
  8
0
 10
2.10160378
 20
3.11899171
  0
VERTEX
  8
0
 10
2.09616499
 20
3.12961442
  0
VERTEX
  8
0
 10
2.09201798
 20
3.14066242
  0
VERTEX
  8
0
 10
2.08935498
 20
3.15211969
  0
VERTEX
  8
0
 10
2.08682637
 20
3.17864115
  0
VERTEX
  8
0
 10
2.08545335
 20
3.20020740
  0
VERTEX
  8
0
 10
2.08512102
 20
3.21775806
  0
VERTEX
  8
0
 10
2.08571443
 20
3.23223273
  0
VERTEX
  8
0
 10
2.08711869
 20
3.24457103
  0
VERTEX
  8
0
 10
2.08921887
 20
3.25571256
  0
VERTEX
  8
0
 10
2.09504730
 20
3.27816377
  0
VERTEX
  8
0
 10
2.09961658
 20
3.29179384
  0
VERTEX
  8
0
 10
2.10675276
 20
3.30702597
  0
VERTEX
  8
0
 10
2.11149974
 20
3.31491493
  0
VERTEX
  8
0
 10
2.11714799
 20
3.32281095
  0
VERTEX
  8
0
 10
2.12378403
 20
3.33058289
  0
VERTEX
  8
0
 10
2.13149438
 20
3.33809959
  0
VERTEX
  8
0
 10
2.14036555
 20
3.34522991
  0
VERTEX
  8
0
 10
2.15048407
 20
3.35184269
  0
VERTEX
  8
0
 10
2.16193644
 20
3.35780678
  0
VERTEX
  8
0
 10
2.17480919
 20
3.36299104
  0
VERTEX
  8
0
 10
2.18918883
 20
3.36726431
  0
VERTEX
  8
0
 10
2.20516187
 20
3.37049545
  0
VERTEX
  8
0
 10
2.22281484
 20
3.37255330
  0
VERTEX
  8
0
 10
2.24223425
 20
3.37330672
  0
VERTEX
  8
0
 10
2.33201169
 20
3.37400494
  0
VERTEX
  8
0
 10
2.38372890
 20
3.37493309
  0
SEQEND
  0
POLYLINE
  8
Default_Layer
 66
   1
 39
0.000000
 70
    1
  0
VERTEX
  8
0
 10
1.63234355
 20
5.87873771
  0
VERTEX
  8
0
 10
1.55765040
 20
5.58945546
  0
VERTEX
  8
0
 10
1.50629948
 20
5.39570428
  0
VERTEX
  8
0
 10
1.31243048
 20
5.40186301
  0
VERTEX
  8
0
 10
1.16640522
 20
5.40535361
  0
VERTEX
  8
0
 10
1.10908265
 20
5.40582738
  0
VERTEX
  8
0
 10
1.06101938
 20
5.40530891
  0
VERTEX
  8
0
 10
1.02131488
 20
5.40368983
  0
VERTEX
  8
0
 10
0.98906862
 20
5.40086172
  0
VERTEX
  8
0
 10
0.96338003
 20
5.39671619
  0
VERTEX
  8
0
 10
0.94334859
 20
5.39114484
  0
VERTEX
  8
0
 10
0.93517288
 20
5.38779061
  0
VERTEX
  8
0
 10
0.92807376
 20
5.38403927
  0
VERTEX
  8
0
 10
0.92193865
 20
5.37987728
  0
VERTEX
  8
0
 10
0.91665498
 20
5.37529109
  0
VERTEX
  8
0
 10
0.91211020
 20
5.37026714
  0
VERTEX
  8
0
 10
0.90819172
 20
5.36479189
  0
VERTEX
  8
0
 10
0.90178344
 20
5.35243327
  0
VERTEX
  8
0
 10
0.89652960
 20
5.33810685
  0
VERTEX
  8
0
 10
0.89152965
 20
5.32170421
  0
VERTEX
  8
0
 10
0.87857147
 20
5.27437228
  0
VERTEX
  8
0
 10
0.86533506
 20
5.22227887
  0
VERTEX
  8
0
 10
0.83802184
 20
5.10551485
  0
VERTEX
  8
0
 10
0.80957859
 20
4.97482671
  0
VERTEX
  8
0
 10
0.77999391
 20
4.83362897
  0
VERTEX
  8
0
 10
0.71735467
 20
4.53336286
  0
VERTEX
  8
0
 10
0.68427731
 20
4.38112356
  0
VERTEX
  8
0
 10
0.65001293
 20
4.23203282
  0
VERTEX
  8
0
 10
0.10111130
 20
4.23203282
  0
VERTEX
  8
0
 10
0.12461649
 20
4.32158456
  0
VERTEX
  8
0
 10
0.14800163
 20
4.41679025
  0
VERTEX
  8
0
 10
0.17123222
 20
4.51633669
  0
VERTEX
  8
0
 10
0.19427374
 20
4.61891070
  0
VERTEX
  8
0
 10
0.23965156
 20
4.82788863
  0
VERTEX
  8
0
 10
0.28385899
 20
5.03321849
  0
VERTEX
  8
0
 10
0.30543754
 20
5.13123241
  0
VERTEX
  8
0
 10
0.32661996
 20
5.22439473
  0
VERTEX
  8
0
 10
0.34737175
 20
5.31139225
  0
VERTEX
  8
0
 10
0.36765839
 20
5.39091180
  0
VERTEX
  8
0
 10
0.38744538
 20
5.46164016
  0
VERTEX
  8
0
 10
0.40669819
 20
5.52226415
  0
VERTEX
  8
0
 10
0.41611350
 20
5.54837664
  0
VERTEX
  8
0
 10
0.42538233
 20
5.57147058
  0
VERTEX
  8
0
 10
0.43450036
 20
5.59138183
  0
VERTEX
  8
0
 10
0.44346328
 20
5.60794624
  0
VERTEX
  8
0
 10
0.46309249
 20
5.63931185
  0
VERTEX
  8
0
 10
0.48327370
 20
5.66828191
  0
VERTEX
  8
0
 10
0.50406474
 20
5.69494822
  0
VERTEX
  8
0
 10
0.52552349
 20
5.71940258
  0
VERTEX
  8
0
 10
0.54770780
 20
5.74173677
  0
VERTEX
  8
0
 10
0.57067551
 20
5.76204258
  0
VERTEX
  8
0
 10
0.59448448
 20
5.78041180
  0
VERTEX
  8
0
 10
0.61919258
 20
5.79693622
  0
VERTEX
  8
0
 10
0.64485764
 20
5.81170763
  0
VERTEX
  8
0
 10
0.67153754
 20
5.82481783
  0
VERTEX
  8
0
 10
0.69929011
 20
5.83635860
  0
VERTEX
  8
0
 10
0.72817322
 20
5.84642174
  0
VERTEX
  8
0
 10
0.75824472
 20
5.85509903
  0
VERTEX
  8
0
 10
0.78956246
 20
5.86248226
  0
VERTEX
  8
0
 10
0.82218430
 20
5.86866322
  0
VERTEX
  8
0
 10
0.85616810
 20
5.87373371
  0
VERTEX
  8
0
 10
0.89157170
 20
5.87778552
  0
VERTEX
  8
0
 10
0.92845296
 20
5.88091043
  0
VERTEX
  8
0
 10
0.96686974
 20
5.88320023
  0
VERTEX
  8
0
 10
1.00687989
 20
5.88474672
  0
VERTEX
  8
0
 10
1.09191171
 20
5.88597692
  0
VERTEX
  8
0
 10
1.18401127
 20
5.88533534
  0
VERTEX
  8
0
 10
1.39126494
 20
5.88137415
  0
VERTEX
  8
0
 10
1.50734471
 20
5.87952317
  0
VERTEX
  8
0
 10
1.63234355
 20
5.87873771
  0
SEQEND
  0
POLYLINE
  8
Default_Layer
 66
   1
 39
0.000000
 70
    1
  0
VERTEX
  8
0
 10
0.05313323
 20
3.98807654
  0
VERTEX
  8
0
 10
1.22656294
 20
3.98807654
  0
VERTEX
  8
0
 10
1.13873868
 20
3.59530693
  0
VERTEX
  8
0
 10
0.37596871
 20
3.59530693
  0
VERTEX
  8
0
 10
0.35113267
 20
3.59657497
  0
VERTEX
  8
0
 10
0.32442188
 20
3.60033750
  0
VERTEX
  8
0
 10
0.29637118
 20
3.60672514
  0
VERTEX
  8
0
 10
0.26751541
 20
3.61586849
  0
VERTEX
  8
0
 10
0.23838942
 20
3.62789816
  0
VERTEX
  8
0
 10
0.22389223
 20
3.63503619
  0
VERTEX
  8
0
 10
0.20952804
 20
3.64294477
  0
VERTEX
  8
0
 10
0.19536372
 20
3.65164024
  0
VERTEX
  8
0
 10
0.18146612
 20
3.66113892
  0
VERTEX
  8
0
 10
0.16790210
 20
3.67145715
  0
VERTEX
  8
0
 10
0.15473850
 20
3.68261123
  0
VERTEX
  8
0
 10
0.14204219
 20
3.69461751
  0
VERTEX
  8
0
 10
0.12988002
 20
3.70749231
  0
VERTEX
  8
0
 10
0.11831885
 20
3.72125195
  0
VERTEX
  8
0
 10
0.10742552
 20
3.73591276
  0
VERTEX
  8
0
 10
0.09726690
 20
3.75149107
  0
VERTEX
  8
0
 10
0.08790985
 20
3.76800320
  0
VERTEX
  8
0
 10
0.07942120
 20
3.78546548
  0
VERTEX
  8
0
 10
0.07186783
 20
3.80389423
  0
VERTEX
  8
0
 10
0.06531659
 20
3.82330579
  0
VERTEX
  8
0
 10
0.05983432
 20
3.84371647
  0
VERTEX
  8
0
 10
0.05548789
 20
3.86514261
  0
VERTEX
  8
0
 10
0.05234416
 20
3.88760053
  0
VERTEX
  8
0
 10
0.05046997
 20
3.91110656
  0
VERTEX
  8
0
 10
0.04993218
 20
3.93567702
  0
VERTEX
  8
0
 10
0.05079765
 20
3.96132824
  0
VERTEX
  8
0
 10
0.05313323
 20
3.98807654
  0
SEQEND
  0
POLYLINE
  8
Default_Layer
 66
   1
 39
0.000000
 70
    1
  0
VERTEX
  8
0
 10
0.08810030
 20
4.14176900
  0
VERTEX
  8
0
 10
1.26803551
 20
4.14176900
  0
VERTEX
  8
0
 10
1.22656294
 20
3.98807654
  0
VERTEX
  8
0
 10
0.05313323
 20
3.98807654
  0
VERTEX
  8
0
 10
0.08810030
 20
4.14176900
  0
SEQEND
  0
POLYLINE
  8
Default_Layer
 66
   1
 39
0.000000
 70
    1
  0
VERTEX
  8
0
 10
1.85353058
 20
5.88524321
  0
VERTEX
  8
0
 10
2.40731134
 20
5.87873771
  0
VERTEX
  8
0
 10
2.13489349
 20
4.71506626
  0
VERTEX
  8
0
 10
2.30810245
 20
4.70693438
  0
VERTEX
  8
0
 10
2.55449829
 20
5.88686959
  0
VERTEX
  8
0
 10
3.06518010
 20
5.88686959
  0
VERTEX
  8
0
 10
2.60410273
 20
3.59530693
  0
VERTEX
  8
0
 10
2.04950879
 20
3.59530693
  0
VERTEX
  8
0
 10
2.20889356
 20
4.23447239
  0
VERTEX
  8
0
 10
1.28104651
 20
4.23447239
  0
VERTEX
  8
0
 10
1.37212352
 20
4.70693438
  0
VERTEX
  8
0
 10
1.60550836
 20
4.71506626
  0
VERTEX
  8
0
 10
1.85353058
 20
5.88524321
  0
SEQEND
  0
POLYLINE
  8
Default_Layer
 66
   1
 39
0.000000
 70
    1
  0
VERTEX
  8
0
 10
1.45669503
 20
3.98807654
  0
VERTEX
  8
0
 10
1.99502522
 20
3.98807654
  0
VERTEX
  8
0
 10
1.92427790
 20
3.59530693
  0
VERTEX
  8
0
 10
1.37537627
 20
3.59530693
  0
VERTEX
  8
0
 10
1.45669503
 20
3.98807654
  0
SEQEND
  0
POLYLINE
  8
Default_Layer
 66
   1
 39
0.000000
 70
    1
  0
VERTEX
  8
0
 10
1.45669503
 20
3.98807654
  0
VERTEX
  8
0
 10
1.99502522
 20
3.98807654
  0
VERTEX
  8
0
 10
2.02755273
 20
4.14176900
  0
VERTEX
  8
0
 10
1.48759616
 20
4.14176900
  0
VERTEX
  8
0
 10
1.45669503
 20
3.98807654
  0
SEQEND
  0
POLYLINE
  8
Default_Layer
 66
   1
 39
0.000000
 70
    1
  0
VERTEX
  8
0
 10
5.65274305
 20
5.29486902
  0
VERTEX
  8
0
 10
5.55678691
 20
4.82972571
  0
VERTEX
  8
0
 10
5.55324884
 20
4.81622011
  0
VERTEX
  8
0
 10
5.54832117
 20
4.80332004
  0
VERTEX
  8
0
 10
5.54215444
 20
4.79106234
  0
VERTEX
  8
0
 10
5.53489921
 20
4.77948387
  0
VERTEX
  8
0
 10
5.52670601
 20
4.76862146
  0
VERTEX
  8
0
 10
5.51772540
 20
4.75851198
  0
VERTEX
  8
0
 10
5.50810792
 20
4.74919226
  0
VERTEX
  8
0
 10
5.49800412
 20
4.74069916
  0
VERTEX
  8
0
 10
5.48756455
 20
4.73306953
  0
VERTEX
  8
0
 10
5.47693975
 20
4.72634021
  0
VERTEX
  8
0
 10
5.46628027
 20
4.72054805
  0
VERTEX
  8
0
 10
5.45573666
 20
4.71572990
  0
VERTEX
  8
0
 10
5.44545946
 20
4.71192261
  0
VERTEX
  8
0
 10
5.43559923
 20
4.70916303
  0
VERTEX
  8
0
 10
5.42630650
 20
4.70748800
  0
VERTEX
  8
0
 10
5.41773183
 20
4.70693438
  0
VERTEX
  8
0
 10
5.27054487
 20
4.70693438
  0
VERTEX
  8
0
 10
5.41773183
 20
5.42253947
  0
VERTEX
  8
0
 10
5.60639135
 20
5.42253947
  0
VERTEX
  8
0
 10
5.61114191
 20
5.42214561
  0
VERTEX
  8
0
 10
5.61556087
 20
5.42105394
  0
VERTEX
  8
0
 10
5.62345145
 20
5.41696351
  0
VERTEX
  8
0
 10
5.63015793
 20
5.41064082
  0
VERTEX
  8
0
 10
5.63577516
 20
5.40245854
  0
VERTEX
  8
0
 10
5.64039798
 20
5.39278931
  0
VERTEX
  8
0
 10
5.64412123
 20
5.38200580
  0
VERTEX
  8
0
 10
5.64703976
 20
5.37048066
  0
VERTEX
  8
0
 10
5.64924840
 20
5.35858654
  0
VERTEX
  8
0
 10
5.65191543
 20
5.33518198
  0
VERTEX
  8
0
 10
5.65288105
 20
5.31477339
  0
VERTEX
  8
0
 10
5.65274305
 20
5.29486902
  0
SEQEND
  0
POLYLINE
  8
Default_Layer
 66
   1
 39
0.000000
 70
    1
  0
VERTEX
  8
0
 10
5.04203916
 20
3.59530693
  0
VERTEX
  8
0
 10
4.49557709
 20
3.59530693
  0
VERTEX
  8
0
 10
4.58584092
 20
3.98807654
  0
VERTEX
  8
0
 10
5.12254473
 20
3.98807654
  0
VERTEX
  8
0
 10
5.04203916
 20
3.59530693
  0
SEQEND
  0
POLYLINE
  8
Default_Layer
 66
   1
 39
0.000000
 70
    1
  0
VERTEX
  8
0
 10
4.58584092
 20
3.98807654
  0
VERTEX
  8
0
 10
5.12254473
 20
3.98807654
  0
VERTEX
  8
0
 10
5.15425905
 20
4.14176900
  0
VERTEX
  8
0
 10
4.61755523
 20
4.14176900
  0
VERTEX
  8
0
 10
4.58584092
 20
3.98807654
  0
SEQEND
  0
POLYLINE
  8
Default_Layer
 66
   1
 39
0.000000
 70
    1
  0
VERTEX
  8
0
 10
10.03907696
 20
5.88524321
  0
VERTEX
  8
0
 10
9.44103074
 20
5.88597266
  0
VERTEX
  8
0
 10
9.01771333
 20
5.88686959
  0
VERTEX
  8
0
 10
8.93964732
 20
5.42253947
  0
VERTEX
  8
0
 10
9.14619697
 20
5.42253947
  0
VERTEX
  8
0
 10
8.90142751
 20
4.23447239
  0
VERTEX
  8
0
 10
9.43894451
 20
4.23447239
  0
VERTEX
  8
0
 10
9.48204345
 20
4.23447239
  0
VERTEX
  8
0
 10
9.62516447
 20
3.59530693
  0
VERTEX
  8
0
 10
10.18382435
 20
3.59774650
  0
VERTEX
  8
0
 10
10.01305496
 20
4.39792310
  0
VERTEX
  8
0
 10
10.03427977
 20
4.39878147
  0
VERTEX
  8
0
 10
10.05452004
 20
4.40134086
  0
VERTEX
  8
0
 10
10.07379612
 20
4.40548793
  0
VERTEX
  8
0
 10
10.09212841
 20
4.41110933
  0
VERTEX
  8
0
 10
10.10953729
 20
4.41809173
  0
VERTEX
  8
0
 10
10.12604312
 20
4.42632179
  0
VERTEX
  8
0
 10
10.14166630
 20
4.43568617
  0
VERTEX
  8
0
 10
10.15642719
 20
4.44607153
  0
VERTEX
  8
0
 10
10.17034618
 20
4.45736453
  0
VERTEX
  8
0
 10
10.18344365
 20
4.46945183
  0
VERTEX
  8
0
 10
10.19573997
 20
4.48222011
  0
VERTEX
  8
0
 10
10.20725553
 20
4.49555601
  0
VERTEX
  8
0
 10
10.21801070
 20
4.50934620
  0
VERTEX
  8
0
 10
10.22802586
 20
4.52347733
  0
VERTEX
  8
0
 10
10.24591768
 20
4.55230911
  0
VERTEX
  8
0
 10
10.26109401
 20
4.58114462
  0
VERTEX
  8
0
 10
10.27371788
 20
4.60907717
  0
VERTEX
  8
0
 10
10.28395234
 20
4.63520003
  0
VERTEX
  8
0
 10
10.29196039
 20
4.65860651
  0
VERTEX
  8
0
 10
10.30194945
 20
4.69364347
  0
VERTEX
  8
0
 10
10.30498930
 20
4.70693438
  0
VERTEX
  8
0
 10
10.35775861
 20
4.95731828
  0
VERTEX
  8
0
 10
10.45461582
 20
5.42253947
  0
VERTEX
  8
0
 10
10.45927828
 20
5.44901264
  0
VERTEX
  8
0
 10
10.46223799
 20
5.47483395
  0
VERTEX
  8
0
 10
10.46355137
 20
5.49999110
  0
VERTEX
  8
0
 10
10.46327484
 20
5.52447175
  0
VERTEX
  8
0
 10
10.46146480
 20
5.54826358
  0
VERTEX
  8
0
 10
10.45817769
 20
5.57135428
  0
VERTEX
  8
0
 10
10.45346990
 20
5.59373151
  0
VERTEX
  8
0
 10
10.44739787
 20
5.61538296
  0
VERTEX
  8
0
 10
10.44001801
 20
5.63629629
  0
VERTEX
  8
0
 10
10.43138672
 20
5.65645920
  0
VERTEX
  8
0
 10
10.42156044
 20
5.67585936
  0
VERTEX
  8
0
 10
10.41059558
 20
5.69448444
  0
VERTEX
  8
0
 10
10.39854854
 20
5.71232212
  0
VERTEX
  8
0
 10
10.38547576
 20
5.72936008
  0
VERTEX
  8
0
 10
10.37143364
 20
5.74558599
  0
VERTEX
  8
0
 10
10.35647860
 20
5.76098754
  0
VERTEX
  8
0
 10
10.34066707
 20
5.77555240
  0
VERTEX
  8
0
 10
10.32405544
 20
5.78926825
  0
VERTEX
  8
0
 10
10.30670015
 20
5.80212276
  0
VERTEX
  8
0
 10
10.28865761
 20
5.81410362
  0
VERTEX
  8
0
 10
10.26998422
 20
5.82519850
  0
VERTEX
  8
0
 10
10.25073642
 20
5.83539507
  0
VERTEX
  8
0
 10
10.23097062
 20
5.84468102
  0
VERTEX
  8
0
 10
10.21074323
 20
5.85304403
  0
VERTEX
  8
0
 10
10.19011067
 20
5.86047176
  0
VERTEX
  8
0
 10
10.16912936
 20
5.86695190
  0
VERTEX
  8
0
 10
10.14785570
 20
5.87247212
  0
VERTEX
  8
0
 10
10.12634613
 20
5.87702011
  0
VERTEX
  8
0
 10
10.10465705
 20
5.88058353
  0
VERTEX
  8
0
 10
10.08284489
 20
5.88315007
  0
VERTEX
  8
0
 10
10.06096605
 20
5.88470741
  0
VERTEX
  8
0
 10
10.03907696
 20
5.88524321
  0
SEQEND
  0
POLYLINE
  8
Default_Layer
 66
   1
 39
0.000000
 70
    1
  0
VERTEX
  8
0
 10
9.91791201
 20
5.29486902
  0
VERTEX
  8
0
 10
9.82195587
 20
4.82972571
  0
VERTEX
  8
0
 10
9.81838218
 20
4.81622011
  0
VERTEX
  8
0
 10
9.81342387
 20
4.80332004
  0
VERTEX
  8
0
 10
9.80723143
 20
4.79106234
  0
VERTEX
  8
0
 10
9.79995535
 20
4.77948387
  0
VERTEX
  8
0
 10
9.79174615
 20
4.76862146
  0
VERTEX
  8
0
 10
9.78275431
 20
4.75851198
  0
VERTEX
  8
0
 10
9.77313033
 20
4.74919226
  0
VERTEX
  8
0
 10
9.76302472
 20
4.74069916
  0
VERTEX
  8
0
 10
9.75258798
 20
4.73306953
  0
VERTEX
  8
0
 10
9.74197059
 20
4.72634021
  0
VERTEX
  8
0
 10
9.73132306
 20
4.72054805
  0
VERTEX
  8
0
 10
9.72079589
 20
4.71572990
  0
VERTEX
  8
0
 10
9.71053959
 20
4.71192261
  0
VERTEX
  8
0
 10
9.70070463
 20
4.70916303
  0
VERTEX
  8
0
 10
9.69144153
 20
4.70748800
  0
VERTEX
  8
0
 10
9.68290079
 20
4.70693438
  0
VERTEX
  8
0
 10
9.53571383
 20
4.70693438
  0
VERTEX
  8
0
 10
9.68290079
 20
5.42253947
  0
VERTEX
  8
0
 10
9.87156031
 20
5.42253947
  0
VERTEX
  8
0
 10
9.87629298
 20
5.42214561
  0
VERTEX
  8
0
 10
9.88069633
 20
5.42105394
  0
VERTEX
  8
0
 10
9.88856204
 20
5.41696351
  0
VERTEX
  8
0
 10
9.89525140
 20
5.41064082
  0
VERTEX
  8
0
 10
9.90085835
 20
5.40245854
  0
VERTEX
  8
0
 10
9.90547685
 20
5.39278931
  0
VERTEX
  8
0
 10
9.90920085
 20
5.38200580
  0
VERTEX
  8
0
 10
9.91212429
 20
5.37048066
  0
VERTEX
  8
0
 10
9.91434113
 20
5.35858654
  0
VERTEX
  8
0
 10
9.91703078
 20
5.33518198
  0
VERTEX
  8
0
 10
9.91802142
 20
5.31477339
  0
VERTEX
  8
0
 10
9.91791201
 20
5.29486902
  0
SEQEND
  0
POLYLINE
  8
Default_Layer
 66
   1
 39
0.000000
 70
    1
  0
VERTEX
  8
0
 10
9.30720812
 20
3.59530693
  0
VERTEX
  8
0
 10
8.76074605
 20
3.59530693
  0
VERTEX
  8
0
 10
8.85100988
 20
3.98807654
  0
VERTEX
  8
0
 10
9.38771369
 20
3.98807654
  0
VERTEX
  8
0
 10
9.30720812
 20
3.59530693
  0
SEQEND
  0
POLYLINE
  8
Default_Layer
 66
   1
 39
0.000000
 70
    1
  0
VERTEX
  8
0
 10
8.85100988
 20
3.98807654
  0
VERTEX
  8
0
 10
9.38771369
 20
3.98807654
  0
VERTEX
  8
0
 10
9.41942801
 20
4.14176900
  0
VERTEX
  8
0
 10
8.88272419
 20
4.14176900
  0
VERTEX
  8
0
 10
8.85100988
 20
3.98807654
  0
SEQEND
  0
POLYLINE
  8
Default_Layer
 66
   1
 39
0.000000
 70
    1
  0
VERTEX
  8
0
 10
7.61252516
 20
5.88280365
  0
VERTEX
  8
0
 10
7.51738221
 20
5.42253947
  0
VERTEX
  8
0
 10
7.02946965
 20
5.42253947
  0
VERTEX
  8
0
 10
7.01259063
 20
5.42177231
  0
VERTEX
  8
0
 10
6.99635591
 20
5.41967335
  0
VERTEX
  8
0
 10
6.98081344
 20
5.41636984
  0
VERTEX
  8
0
 10
6.96601120
 20
5.41198901
  0
VERTEX
  8
0
 10
6.95199713
 20
5.40665812
  0
VERTEX
  8
0
 10
6.93881921
 20
5.40050439
  0
VERTEX
  8
0
 10
6.92652539
 20
5.39365507
  0
VERTEX
  8
0
 10
6.91516363
 20
5.38623739
  0
VERTEX
  8
0
 10
6.90478191
 20
5.37837861
  0
VERTEX
  8
0
 10
6.89542817
 20
5.37020596
  0
VERTEX
  8
0
 10
6.88715038
 20
5.36184667
  0
VERTEX
  8
0
 10
6.87999651
 20
5.35342800
  0
VERTEX
  8
0
 10
6.87401451
 20
5.34507717
  0
VERTEX
  8
0
 10
6.86925235
 20
5.33692144
  0
VERTEX
  8
0
 10
6.86575799
 20
5.32908804
  0
VERTEX
  8
0
 10
6.86357938
 20
5.32170421
  0
VERTEX
  8
0
 10
6.63913960
 20
4.23203282
  0
VERTEX
  8
0
 10
6.11544679
 20
4.23203282
  0
VERTEX
  8
0
 10
6.36021626
 20
5.42253947
  0
VERTEX
  8
0
 10
6.36617447
 20
5.44528766
  0
VERTEX
  8
0
 10
6.37582749
 20
5.47288486
  0
VERTEX
  8
0
 10
6.38931839
 20
5.50446393
  0
VERTEX
  8
0
 10
6.40679027
 20
5.53915777
  0
VERTEX
  8
0
 10
6.42838621
 20
5.57609925
  0
VERTEX
  8
0
 10
6.44077541
 20
5.59514189
  0
VERTEX
  8
0
 10
6.45424929
 20
5.61442126
  0
VERTEX
  8
0
 10
6.46882572
 20
5.63382898
  0
VERTEX
  8
0
 10
6.48452260
 20
5.65325666
  0
VERTEX
  8
0
 10
6.50135781
 20
5.67259592
  0
VERTEX
  8
0
 10
6.51934923
 20
5.69173835
  0
VERTEX
  8
0
 10
6.53851476
 20
5.71057558
  0
VERTEX
  8
0
 10
6.55887227
 20
5.72899921
  0
VERTEX
  8
0
 10
6.58043965
 20
5.74690084
  0
VERTEX
  8
0
 10
6.60323479
 20
5.76417210
  0
VERTEX
  8
0
 10
6.62727558
 20
5.78070459
  0
VERTEX
  8
0
 10
6.65257989
 20
5.79638992
  0
VERTEX
  8
0
 10
6.67916562
 20
5.81111970
  0
VERTEX
  8
0
 10
6.70705065
 20
5.82478554
  0
VERTEX
  8
0
 10
6.73625287
 20
5.83727905
  0
VERTEX
  8
0
 10
6.76679016
 20
5.84849184
  0
VERTEX
  8
0
 10
6.79868041
 20
5.85831553
  0
VERTEX
  8
0
 10
6.83194150
 20
5.86664171
  0
VERTEX
  8
0
 10
6.86659132
 20
5.87336200
  0
VERTEX
  8
0
 10
6.90264776
 20
5.87836802
  0
VERTEX
  8
0
 10
6.94012870
 20
5.88155137
  0
VERTEX
  8
0
 10
6.97905202
 20
5.88280365
  0
VERTEX
  8
0
 10
7.25664472
 20
5.88373864
  0
VERTEX
  8
0
 10
7.45455528
 20
5.88363475
  0
VERTEX
  8
0
 10
7.61252516
 20
5.88280365
  0
SEQEND
  0
POLYLINE
  8
Default_Layer
 66
   1
 39
0.000000
 70
    1
  0
VERTEX
  8
0
 10
6.87984313
 20
4.69554976
  0
VERTEX
  8
0
 10
7.44256895
 20
4.69554976
  0
VERTEX
  8
0
 10
7.21650280
 20
3.59530693
  0
VERTEX
  8
0
 10
6.50821640
 20
3.59530693
  0
VERTEX
  8
0
 10
6.48231697
 20
3.59583934
  0
VERTEX
  8
0
 10
6.45685314
 20
3.59735704
  0
VERTEX
  8
0
 10
6.43185907
 20
3.59983727
  0
VERTEX
  8
0
 10
6.40736896
 20
3.60325724
  0
VERTEX
  8
0
 10
6.38341699
 20
3.60759418
  0
VERTEX
  8
0
 10
6.36003734
 20
3.61282530
  0
VERTEX
  8
0
 10
6.33726419
 20
3.61892784
  0
VERTEX
  8
0
 10
6.31513172
 20
3.62587901
  0
VERTEX
  8
0
 10
6.29367411
 20
3.63365604
  0
VERTEX
  8
0
 10
6.27292554
 20
3.64223615
  0
VERTEX
  8
0
 10
6.25292021
 20
3.65159657
  0
VERTEX
  8
0
 10
6.23369228
 20
3.66171450
  0
VERTEX
  8
0
 10
6.21527594
 20
3.67256719
  0
VERTEX
  8
0
 10
6.19770537
 20
3.68413185
  0
VERTEX
  8
0
 10
6.18101476
 20
3.69638570
  0
VERTEX
  8
0
 10
6.16523828
 20
3.70930597
  0
VERTEX
  8
0
 10
6.15041011
 20
3.72286987
  0
VERTEX
  8
0
 10
6.13656445
 20
3.73705464
  0
VERTEX
  8
0
 10
6.12373546
 20
3.75183749
  0
VERTEX
  8
0
 10
6.11195734
 20
3.76719565
  0
VERTEX
  8
0
 10
6.10126426
 20
3.78310634
  0
VERTEX
  8
0
 10
6.09169040
 20
3.79954678
  0
VERTEX
  8
0
 10
6.08326995
 20
3.81649419
  0
VERTEX
  8
0
 10
6.07603709
 20
3.83392581
  0
VERTEX
  8
0
 10
6.07002600
 20
3.85181884
  0
VERTEX
  8
0
 10
6.06527086
 20
3.87015051
  0
VERTEX
  8
0
 10
6.06180585
 20
3.88889806
  0
VERTEX
  8
0
 10
6.05966515
 20
3.90803869
  0
VERTEX
  8
0
 10
6.05888296
 20
3.92754963
  0
VERTEX
  8
0
 10
6.05949344
 20
3.94740810
  0
VERTEX
  8
0
 10
6.06153078
 20
3.96759133
  0
VERTEX
  8
0
 10
6.06502916
 20
3.98807654
  0
VERTEX
  8
0
 10
6.89935964
 20
3.98807654
  0
VERTEX
  8
0
 10
6.93513989
 20
4.23203282
  0
VERTEX
  8
0
 10
6.78470018
 20
4.23447239
  0
VERTEX
  8
0
 10
6.87984313
 20
4.69554976
  0
SEQEND
  0
POLYLINE
  8
Default_Layer
 66
   1
 39
0.000000
 70
    0
  0
VERTEX
  8
0
 10
6.89935964
 20
3.98807654
  0
VERTEX
  8
0
 10
6.92212889
 20
4.14176900
  0
VERTEX
  8
0
 10
6.09755666
 20
4.14583494
  0
VERTEX
  8
0
 10
6.06502916
 20
3.98807654
  0
SEQEND
  0
POLYLINE
  8
Default_Layer
 66
   1
 39
0.000000
 70
    1
  0
VERTEX
  8
0
 10
7.62797573
 20
5.42253947
  0
VERTEX
  8
0
 10
7.72393186
 20
5.88686959
  0
VERTEX
  8
0
 10
8.94208689
 20
5.88280365
  0
VERTEX
  8
0
 10
8.85100988
 20
5.42253947
  0
VERTEX
  8
0
 10
8.35171269
 20
5.42253947
  0
VERTEX
  8
0
 10
8.26632799
 20
5.00700061
  0
VERTEX
  8
0
 10
8.73960317
 20
5.00700061
  0
VERTEX
  8
0
 10
8.65340529
 20
4.54673643
  0
VERTEX
  8
0
 10
8.17118504
 20
4.54673643
  0
VERTEX
  8
0
 10
8.10694322
 20
4.23447239
  0
VERTEX
  8
0
 10
7.58162403
 20
4.23447239
  0
VERTEX
  8
0
 10
7.82639350
 20
5.42253947
  0
VERTEX
  8
0
 10
7.62797573
 20
5.42253947
  0
SEQEND
  0
POLYLINE
  8
Default_Layer
 66
   1
 39
0.000000
 70
    1
  0
VERTEX
  8
0
 10
7.56292072
 20
4.14176900
  0
VERTEX
  8
0
 10
8.61843822
 20
4.14176900
  0
VERTEX
  8
0
 10
8.58997666
 20
3.98807654
  0
VERTEX
  8
0
 10
7.53120640
 20
3.98807654
  0
VERTEX
  8
0
 10
7.56292072
 20
4.14176900
  0
SEQEND
  0
POLYLINE
  8
Default_Layer
 66
   1
 39
0.000000
 70
    1
  0
VERTEX
  8
0
 10
7.44744808
 20
3.59530693
  0
VERTEX
  8
0
 10
7.53120640
 20
3.98807654
  0
VERTEX
  8
0
 10
8.58997666
 20
3.98807654
  0
VERTEX
  8
0
 10
8.51678977
 20
3.59530693
  0
VERTEX
  8
0
 10
7.44744808
 20
3.59530693
  0
SEQEND
  0
POLYLINE
  8
Default_Layer
 66
   1
 39
0.000000
 70
    0
  0
VERTEX
  8
0
 10
11.84435343
 20
5.88361684
  0
VERTEX
  8
0
 10
11.74921048
 20
5.42253947
  0
VERTEX
  8
0
 10
11.20356160
 20
5.42253947
  0
VERTEX
  8
0
 10
11.19519357
 20
5.42162143
  0
VERTEX
  8
0
 10
11.18673416
 20
5.41899155
  0
VERTEX
  8
0
 10
11.17823027
 20
5.41474791
  0
VERTEX
  8
0
 10
11.16972877
 20
5.40898861
  0
VERTEX
  8
0
 10
11.16127658
 20
5.40181171
  0
VERTEX
  8
0
 10
11.15292058
 20
5.39331531
  0
VERTEX
  8
0
 10
11.14470768
 20
5.38359748
  0
VERTEX
  8
0
 10
11.13668475
 20
5.37275632
  0
VERTEX
  8
0
 10
11.12139644
 20
5.34809630
  0
VERTEX
  8
0
 10
11.10743080
 20
5.32011993
  0
VERTEX
  8
0
 10
11.09516299
 20
5.28961187
  0
VERTEX
  8
0
 10
11.08496817
 20
5.25735678
  0
VERTEX
  8
0
 10
11.07722150
 20
5.22413933
  0
VERTEX
  8
0
 10
11.07229812
 20
5.19074418
  0
VERTEX
  8
0
 10
11.07101241
 20
5.17422518
  0
VERTEX
  8
0
 10
11.07057321
 20
5.15795601
  0
VERTEX
  8
0
 10
11.07102741
 20
5.14203475
  0
VERTEX
  8
0
 10
11.07242191
 20
5.12655948
  0
VERTEX
  8
0
 10
11.07480361
 20
5.11162828
  0
VERTEX
  8
0
 10
11.07821939
 20
5.09733925
  0
VERTEX
  8
0
 10
11.08271615
 20
5.08379045
  0
VERTEX
  8
0
 10
11.08834079
 20
5.07107999
  0
VERTEX
  8
0
 10
11.09514021
 20
5.05930593
  0
VERTEX
  8
0
 10
11.10316129
 20
5.04856637
  0
VERTEX
  8
0
 10
11.11245093
 20
5.03895938
  0
VERTEX
  8
0
 10
11.12305603
 20
5.03058305
  0
VERTEX
  8
0
 10
11.14850970
 20
5.01412503
  0
VERTEX
  8
0
 10
11.17887640
 20
4.99564037
  0
VERTEX
  8
0
 10
11.25044084
 20
4.95289833
  0
VERTEX
  8
0
 10
11.28968453
 20
4.92879456
  0
VERTEX
  8
0
 10
11.32993319
 20
4.90297135
  0
VERTEX
  8
0
 10
11.37020979
 20
4.87550550
  0
VERTEX
  8
0
 10
11.40953731
 20
4.84647382
  0
VERTEX
  8
0
 10
11.44693875
 20
4.81595309
  0
VERTEX
  8
0
 10
11.46461187
 20
4.80015834
  0
VERTEX
  8
0
 10
11.48143708
 20
4.78402013
  0
VERTEX
  8
0
 10
11.49729226
 20
4.76754806
  0
VERTEX
  8
0
 10
11.51205528
 20
4.75075173
  0
VERTEX
  8
0
 10
11.52560401
 20
4.73364073
  0
VERTEX
  8
0
 10
11.53781634
 20
4.71622468
  0
VERTEX
  8
0
 10
11.54857012
 20
4.69851317
  0
VERTEX
  8
0
 10
11.55774323
 20
4.68051580
  0
VERTEX
  8
0
 10
11.56521355
 20
4.66224217
  0
VERTEX
  8
0
 10
11.57085895
 20
4.64370188
  0
VERTEX
  8
0
 10
11.57455729
 20
4.62490453
  0
VERTEX
  8
0
 10
11.57618647
 20
4.60585972
  0
VERTEX
  8
0
 10
11.57562433
 20
4.58657705
  0
VERTEX
  8
0
 10
11.57274877
 20
4.56706612
  0
VERTEX
  8
0
 10
11.50444101
 20
4.23203282
  0
VERTEX
  8
0
 10
10.95960532
 20
4.23447239
  0
VERTEX
  8
0
 10
10.99294601
 20
4.39792310
  0
VERTEX
  8
0
 10
10.99912817
 20
4.42035385
  0
VERTEX
  8
0
 10
11.00243707
 20
4.43195706
  0
VERTEX
  8
0
 10
11.00505830
 20
4.44406393
  0
VERTEX
  8
0
 10
11.00636718
 20
4.45685832
  0
VERTEX
  8
0
 10
11.00573905
 20
4.47052406
  0
VERTEX
  8
0
 10
11.00254924
 20
4.48524497
  0
VERTEX
  8
0
 10
10.99617309
 20
4.50120491
  0
VERTEX
  8
0
 10
10.98598592
 20
4.51858771
  0
VERTEX
  8
0
 10
10.97136306
 20
4.53757721
  0
VERTEX
  8
0
 10
10.95167986
 20
4.55835724
  0
VERTEX
  8
0
 10
10.92631164
 20
4.58111165
  0
VERTEX
  8
0
 10
10.89463374
 20
4.60602427
  0
VERTEX
  8
0
 10
10.85602148
 20
4.63327893
  0
VERTEX
  8
0
 10
10.80985020
 20
4.66305948
  0
VERTEX
  8
0
 10
10.75549523
 20
4.69554976
  0
VERTEX
  8
0
 10
10.72730593
 20
4.71247441
  0
VERTEX
  8
0
 10
10.70135208
 20
4.72921287
  0
VERTEX
  8
0
 10
10.67754579
 20
4.74574210
  0
VERTEX
  8
0
 10
10.65579913
 20
4.76203909
  0
VERTEX
  8
0
 10
10.63602420
 20
4.77808080
  0
VERTEX
  8
0
 10
10.61813307
 20
4.79384422
  0
VERTEX
  8
0
 10
10.60203785
 20
4.80930632
  0
VERTEX
  8
0
 10
10.58765060
 20
4.82444407
  0
VERTEX
  8
0
 10
10.57488343
 20
4.83923445
  0
VERTEX
  8
0
 10
10.56364841
 20
4.85365444
  0
VERTEX
  8
0
 10
10.55385763
 20
4.86768101
  0
VERTEX
  8
0
 10
10.54542318
 20
4.88129114
  0
VERTEX
  8
0
 10
10.53825715
 20
4.89446179
  0
VERTEX
  8
0
 10
10.53227162
 20
4.90716996
  0
VERTEX
  8
0
 10
10.52737867
 20
4.91939261
  0
VERTEX
  8
0
 10
10.52349040
 20
4.93110672
  0
VERTEX
  8
0
 10
10.51837623
 20
4.95291723
  0
VERTEX
  8
0
 10
10.51622579
 20
4.97241727
  0
VERTEX
  8
0
 10
10.51633578
 20
4.98942267
  0
VERTEX
  8
0
 10
10.51800289
 20
5.00374922
  0
VERTEX
  8
0
 10
10.52052381
 20
5.01521272
  0
VERTEX
  8
0
 10
10.52319523
 20
5.02362900
  0
VERTEX
  8
0
 10
10.52617633
 20
5.03058305
  0
VERTEX
  8
0
 10
10.62213247
 20
5.42253947
  0
VERTEX
  8
0
 10
10.62712867
 20
5.44334289
  0
VERTEX
  8
0
 10
10.63426995
 20
5.46716159
  0
VERTEX
  8
0
 10
10.64530314
 20
5.49798224
  0
VERTEX
  8
0
 10
10.66082559
 20
5.53434777
  0
VERTEX
  8
0
 10
10.67045696
 20
5.55415455
  0
VERTEX
  8
0
 10
10.68143464
 20
5.57480116
  0
VERTEX
  8
0
 10
10.69383331
 20
5.59610547
  0
VERTEX
  8
0
 10
10.70772764
 20
5.61788535
  0
VERTEX
  8
0
 10
10.72319230
 20
5.63995867
  0
VERTEX
  8
0
 10
10.74030194
 20
5.66214330
  0
VERTEX
  8
0
 10
10.75913125
 20
5.68425710
  0
VERTEX
  8
0
 10
10.77975488
 20
5.70611796
  0
VERTEX
  8
0
 10
10.80224751
 20
5.72754373
  0
VERTEX
  8
0
 10
10.82668381
 20
5.74835229
  0
VERTEX
  8
0
 10
10.85313844
 20
5.76836151
  0
VERTEX
  8
0
 10
10.88168608
 20
5.78738925
  0
VERTEX
  8
0
 10
10.91240138
 20
5.80525338
  0
VERTEX
  8
0
 10
10.94535902
 20
5.82177178
  0
VERTEX
  8
0
 10
10.98063367
 20
5.83676232
  0
VERTEX
  8
0
 10
11.01830000
 20
5.85004286
  0
VERTEX
  8
0
 10
11.05843267
 20
5.86143127
  0
VERTEX
  8
0
 10
11.10110635
 20
5.87074542
  0
VERTEX
  8
0
 10
11.14639571
 20
5.87780318
  0
VERTEX
  8
0
 10
11.19437542
 20
5.88242243
  0
VERTEX
  8
0
 10
11.24512014
 20
5.88442102
  0
VERTEX
  8
0
 10
11.29870455
 20
5.88361684
  0
SEQEND
  0
POLYLINE
  8
Default_Layer
 66
   1
 39
0.000000
 70
    1
  0
VERTEX
  8
0
 10
10.31718712
 20
3.59530693
  0
VERTEX
  8
0
 10
10.82786893
 20
3.59530693
  0
VERTEX
  8
0
 10
10.84079494
 20
3.59586442
  0
VERTEX
  8
0
 10
10.85550045
 20
3.59745411
  0
VERTEX
  8
0
 10
10.88970958
 20
3.60361962
  0
VERTEX
  8
0
 10
10.92941549
 20
3.61358241
  0
VERTEX
  8
0
 10
10.97353735
 20
3.62712145
  0
VERTEX
  8
0
 10
11.02099435
 20
3.64401569
  0
VERTEX
  8
0
 10
11.07070564
 20
3.66404408
  0
VERTEX
  8
0
 10
11.12159041
 20
3.68698557
  0
VERTEX
  8
0
 10
11.17256783
 20
3.71261914
  0
VERTEX
  8
0
 10
11.22255707
 20
3.74072372
  0
VERTEX
  8
0
 10
11.24684337
 20
3.75563356
  0
VERTEX
  8
0
 10
11.27047731
 20
3.77107827
  0
VERTEX
  8
0
 10
11.29332379
 20
3.78703021
  0
VERTEX
  8
0
 10
11.31524772
 20
3.80346175
  0
VERTEX
  8
0
 10
11.33611398
 20
3.82034527
  0
VERTEX
  8
0
 10
11.35578747
 20
3.83765312
  0
VERTEX
  8
0
 10
11.37413309
 20
3.85535769
  0
VERTEX
  8
0
 10
11.39101574
 20
3.87343133
  0
VERTEX
  8
0
 10
11.40630031
 20
3.89184642
  0
VERTEX
  8
0
 10
11.41985170
 20
3.91057533
  0
VERTEX
  8
0
 10
11.43153480
 20
3.92959043
  0
VERTEX
  8
0
 10
11.44121452
 20
3.94886409
  0
VERTEX
  8
0
 10
11.44875575
 20
3.96836867
  0
VERTEX
  8
0
 10
11.45402338
 20
3.98807654
  0
VERTEX
  8
0
 10
10.25701124
 20
3.98807654
  0
VERTEX
  8
0
 10
10.31718712
 20
3.59530693
  0
SEQEND
  0
POLYLINE
  8
Default_Layer
 66
   1
 39
0.000000
 70
    1
  0
VERTEX
  8
0
 10
11.48573770
 20
4.14176900
  0
VERTEX
  8
0
 10
11.45402338
 20
3.98807654
  0
VERTEX
  8
0
 10
10.25701124
 20
3.98807654
  0
VERTEX
  8
0
 10
10.23342879
 20
4.14176900
  0
VERTEX
  8
0
 10
11.48573770
 20
4.14176900
  0
SEQEND
  0
POLYLINE
  8
Default_Layer
 66
   1
 39
0.000000
 70
    1
  0
VERTEX
  8
0
 10
2.95621297
 20
3.98807654
  0
VERTEX
  8
0
 10
2.78300401
 20
3.59530693
  0
VERTEX
  8
0
 10
3.31726826
 20
3.59774650
  0
VERTEX
  8
0
 10
3.45551015
 20
3.98807654
  0
VERTEX
  8
0
 10
2.95621297
 20
3.98807654
  0
SEQEND
  0
POLYLINE
  8
Default_Layer
 66
   1
 39
0.000000
 70
    1
  0
VERTEX
  8
0
 10
3.37419139
 20
5.88686959
  0
VERTEX
  8
0
 10
3.27254294
 20
5.42253947
  0
VERTEX
  8
0
 10
3.46445522
 20
5.42253947
  0
VERTEX
  8
0
 10
3.19772968
 20
4.70693438
  0
VERTEX
  8
0
 10
2.98548772
 20
4.70693438
  0
VERTEX
  8
0
 10
2.88383927
 20
4.23447239
  0
VERTEX
  8
0
 10
3.06436692
 20
4.23447239
  0
VERTEX
  8
0
 10
3.54414760
 20
4.23447239
  0
VERTEX
  8
0
 10
3.61977405
 20
4.23447239
  0
VERTEX
  8
0
 10
3.88975233
 20
4.23447239
  0
VERTEX
  8
0
 10
3.82551051
 20
3.59530693
  0
VERTEX
  8
0
 10
4.37278576
 20
3.59530693
  0
VERTEX
  8
0
 10
4.49557709
 20
5.88524321
  0
VERTEX
  8
0
 10
3.37419139
 20
5.88686959
  0
SEQEND
  0
POLYLINE
  8
Default_Layer
 66
   1
 39
0.000000
 70
    1
  0
VERTEX
  8
0
 10
3.93447765
 20
4.70693438
  0
VERTEX
  8
0
 10
3.70922468
 20
4.70693438
  0
VERTEX
  8
0
 10
3.96700515
 20
5.42009991
  0
VERTEX
  8
0
 10
4.00847772
 20
5.42009991
  0
VERTEX
  8
0
 10
3.93447765
 20
4.70693438
  0
SEQEND
  0
POLYLINE
  8
Default_Layer
 66
   1
 39
0.000000
 70
    0
  0
VERTEX
  8
0
 10
2.95621297
 20
3.98807654
  0
VERTEX
  8
0
 10
3.01882841
 20
4.14176900
  0
VERTEX
  8
0
 10
3.51568603
 20
4.14176900
  0
VERTEX
  8
0
 10
3.45551015
 20
3.98807654
  0
SEQEND
  0
POLYLINE
  8
Default_Layer
 66
   1
 39
0.000000
 70
    1
  0
VERTEX
  8
0
 10
6.00322690
 20
9.19491675
  0
VERTEX
  8
0
 10
5.91019259
 20
9.19386655
  0
VERTEX
  8
0
 10
5.81538057
 20
9.19085081
  0
VERTEX
  8
0
 10
5.68771011
 20
9.18597168
  0
VERTEX
  8
0
 10
5.76740250
 20
9.08594961
  0
VERTEX
  8
0
 10
5.85766632
 20
8.97454291
  0
VERTEX
  8
0
 10
5.81432399
 20
8.97533166
  0
VERTEX
  8
0
 10
5.77065525
 20
8.97535609
  0
VERTEX
  8
0
 10
5.72045882
 20
8.97499469
  0
VERTEX
  8
0
 10
5.66466220
 20
8.97370436
  0
VERTEX
  8
0
 10
5.60357913
 20
8.97127338
  0
VERTEX
  8
0
 10
5.53752333
 20
8.96749001
  0
VERTEX
  8
0
 10
5.46680854
 20
8.96214251
  0
VERTEX
  8
0
 10
5.39174851
 20
8.95501916
  0
VERTEX
  8
0
 10
5.31265696
 20
8.94590821
  0
VERTEX
  8
0
 10
5.22984764
 20
8.93459793
  0
VERTEX
  8
0
 10
5.14363428
 20
8.92087659
  0
VERTEX
  8
0
 10
5.05433061
 20
8.90453245
  0
VERTEX
  8
0
 10
4.96225038
 20
8.88535377
  0
VERTEX
  8
0
 10
4.86770731
 20
8.86312883
  0
VERTEX
  8
0
 10
4.77101515
 20
8.83764589
  0
VERTEX
  8
0
 10
4.72196120
 20
8.82361650
  0
VERTEX
  8
0
 10
4.67248763
 20
8.80869321
  0
VERTEX
  8
0
 10
4.62263365
 20
8.79284955
  0
VERTEX
  8
0
 10
4.57243849
 20
8.77605905
  0
VERTEX
  8
0
 10
4.52194135
 20
8.75829525
  0
VERTEX
  8
0
 10
4.47118146
 20
8.73953169
  0
VERTEX
  8
0
 10
4.38031171
 20
8.70360259
  0
VERTEX
  8
0
 10
4.29148620
 20
8.66535573
  0
VERTEX
  8
0
 10
4.20478587
 20
8.62482408
  0
VERTEX
  8
0
 10
4.16225793
 20
8.60371176
  0
VERTEX
  8
0
 10
4.12029162
 20
8.58204060
  0
VERTEX
  8
0
 10
4.07889708
 20
8.55981473
  0
VERTEX
  8
0
 10
4.03808440
 20
8.53703827
  0
VERTEX
  8
0
 10
3.99786370
 20
8.51371533
  0
VERTEX
  8
0
 10
3.95824510
 20
8.48985005
  0
VERTEX
  8
0
 10
3.91923872
 20
8.46544654
  0
VERTEX
  8
0
 10
3.88085467
 20
8.44050892
  0
VERTEX
  8
0
 10
3.84310306
 20
8.41504131
  0
VERTEX
  8
0
 10
3.80599401
 20
8.38904783
  0
VERTEX
  8
0
 10
3.76475104
 20
8.35911282
  0
VERTEX
  8
0
 10
3.72428893
 20
8.32849513
  0
VERTEX
  8
0
 10
3.68461533
 20
8.29720309
  0
VERTEX
  8
0
 10
3.64573784
 20
8.26524503
  0
VERTEX
  8
0
 10
3.60766411
 20
8.23262926
  0
VERTEX
  8
0
 10
3.57040175
 20
8.19936411
  0
VERTEX
  8
0
 10
3.53395838
 20
8.16545789
  0
VERTEX
  8
0
 10
3.49834165
 20
8.13091894
  0
VERTEX
  8
0
 10
3.46355916
 20
8.09575558
  0
VERTEX
  8
0
 10
3.42961855
 20
8.05997613
  0
VERTEX
  8
0
 10
3.39652745
 20
8.02358890
  0
VERTEX
  8
0
 10
3.36429347
 20
7.98660223
  0
VERTEX
  8
0
 10
3.33292425
 20
7.94902443
  0
VERTEX
  8
0
 10
3.30242741
 20
7.91086383
  0
VERTEX
  8
0
 10
3.27281058
 20
7.87212875
  0
VERTEX
  8
0
 10
3.24408138
 20
7.83282752
  0
VERTEX
  8
0
 10
3.17414724
 20
7.73524500
  0
VERTEX
  8
0
 10
3.29368582
 20
7.73117907
  0
VERTEX
  8
0
 10
3.33840009
 20
7.72967249
  0
VERTEX
  8
0
 10
3.37988370
 20
7.72955269
  0
VERTEX
  8
0
 10
3.41647715
 20
7.72955269
  0
VERTEX
  8
0
 10
3.37103965
 20
7.66936905
  0
VERTEX
  8
0
 10
3.32211438
 20
7.60056060
  0
VERTEX
  8
0
 10
3.27060308
 20
7.52357822
  0
VERTEX
  8
0
 10
3.24415947
 20
7.48216270
  0
VERTEX
  8
0
 10
3.21740750
 20
7.43887278
  0
VERTEX
  8
0
 10
3.19045990
 20
7.39376480
  0
VERTEX
  8
0
 10
3.16342939
 20
7.34689514
  0
VERTEX
  8
0
 10
3.13642869
 20
7.29832014
  0
VERTEX
  8
0
 10
3.10957051
 20
7.24809617
  0
VERTEX
  8
0
 10
3.08296757
 20
7.19627959
  0
VERTEX
  8
0
 10
3.05673260
 20
7.14292675
  0
VERTEX
  8
0
 10
3.03097830
 20
7.08809401
  0
VERTEX
  8
0
 10
3.00581741
 20
7.03183773
  0
VERTEX
  8
0
 10
2.97153721
 20
6.94990195
  0
VERTEX
  8
0
 10
2.94002065
 20
6.86810008
  0
VERTEX
  8
0
 10
2.91128348
 20
6.78649687
  0
VERTEX
  8
0
 10
2.88534142
 20
6.70515708
  0
VERTEX
  8
0
 10
2.86221022
 20
6.62414546
  0
VERTEX
  8
0
 10
2.84190563
 20
6.54352677
  0
VERTEX
  8
0
 10
2.82444337
 20
6.46336577
  0
VERTEX
  8
0
 10
2.80983920
 20
6.38372721
  0
VERTEX
  8
0
 10
2.80259285
 20
6.33634244
  0
VERTEX
  8
0
 10
2.79638831
 20
6.28916558
  0
VERTEX
  8
0
 10
2.79122533
 20
6.24220628
  0
VERTEX
  8
0
 10
2.78710369
 20
6.19547419
  0
VERTEX
  8
0
 10
2.78402317
 20
6.14897896
  0
VERTEX
  8
0
 10
2.78198351
 20
6.10273025
  0
VERTEX
  8
0
 10
2.78098450
 20
6.05673769
  0
VERTEX
  8
0
 10
2.78102591
 20
6.01101095
  0
VERTEX
  8
0
 10
2.78210749
 20
5.96555967
  0
VERTEX
  8
0
 10
2.78422903
 20
5.92039351
  0
VERTEX
  8
0
 10
2.78739029
 20
5.87552211
  0
VERTEX
  8
0
 10
2.79159103
 20
5.83095512
  0
VERTEX
  8
0
 10
2.79683103
 20
5.78670219
  0
VERTEX
  8
0
 10
2.80311006
 20
5.74277299
  0
VERTEX
  8
0
 10
2.81042788
 20
5.69917714
  0
VERTEX
  8
0
 10
2.81878426
 20
5.65592431
  0
VERTEX
  8
0
 10
2.85456452
 20
5.48434173
  0
VERTEX
  8
0
 10
2.93832284
 20
5.63803418
  0
VERTEX
  8
0
 10
2.99843399
 20
5.74546725
  0
VERTEX
  8
0
 10
3.05968131
 20
5.84965885
  0
VERTEX
  8
0
 10
3.12209472
 20
5.95064603
  0
VERTEX
  8
0
 10
3.18570416
 20
6.04846585
  0
VERTEX
  8
0
 10
3.25053956
 20
6.14315537
  0
VERTEX
  8
0
 10
3.31663085
 20
6.23475164
  0
VERTEX
  8
0
 10
3.38400797
 20
6.32329173
  0
VERTEX
  8
0
 10
3.45270084
 20
6.40881270
  0
VERTEX
  8
0
 10
3.52273941
 20
6.49135159
  0
VERTEX
  8
0
 10
3.59415360
 20
6.57094548
  0
VERTEX
  8
0
 10
3.63038590
 20
6.60964962
  0
VERTEX
  8
0
 10
3.66697334
 20
6.64763141
  0
VERTEX
  8
0
 10
3.70391965
 20
6.68489547
  0
VERTEX
  8
0
 10
3.74122857
 20
6.72144644
  0
VERTEX
  8
0
 10
3.77890385
 20
6.75728896
  0
VERTEX
  8
0
 10
3.81694922
 20
6.79242764
  0
VERTEX
  8
0
 10
3.85536844
 20
6.82686713
  0
VERTEX
  8
0
 10
3.89416523
 20
6.86061206
  0
VERTEX
  8
0
 10
3.93334335
 20
6.89366706
  0
VERTEX
  8
0
 10
3.97290652
 20
6.92603676
  0
VERTEX
  8
0
 10
4.01285851
 20
6.95772579
  0
VERTEX
  8
0
 10
4.05320304
 20
6.98873879
  0
VERTEX
  8
0
 10
4.12284540
 20
7.03987212
  0
VERTEX
  8
0
 10
4.19209254
 20
7.08808718
  0
VERTEX
  8
0
 10
4.26090534
 20
7.13355032
  0
VERTEX
  8
0
 10
4.32924468
 20
7.17642791
  0
VERTEX
  8
0
 10
4.39707145
 20
7.21688629
  0
VERTEX
  8
0
 10
4.46434654
 20
7.25509182
  0
VERTEX
  8
0
 10
4.53103082
 20
7.29121085
  0
VERTEX
  8
0
 10
4.59708519
 20
7.32540974
  0
VERTEX
  8
0
 10
4.66247051
 20
7.35785484
  0
VERTEX
  8
0
 10
4.72714769
 20
7.38871250
  0
VERTEX
  8
0
 10
4.79107760
 20
7.41814909
  0
VERTEX
  8
0
 10
4.85422113
 20
7.44633095
  0
VERTEX
  8
0
 10
4.97799258
 20
7.49959592
  0
VERTEX
  8
0
 10
5.09814910
 20
7.54983823
  0
VERTEX
  8
0
 10
5.16401730
 20
7.57748661
  0
VERTEX
  8
0
 10
5.22907231
 20
7.60432180
  0
VERTEX
  8
0
 10
5.19573161
 20
7.66693725
  0
VERTEX
  8
0
 10
5.18621741
 20
7.68375234
  0
VERTEX
  8
0
 10
5.17501247
 20
7.70159281
  0
VERTEX
  8
0
 10
5.14868135
 20
7.73931999
  0
VERTEX
  8
0
 10
5.11904018
 20
7.77805913
  0
VERTEX
  8
0
 10
5.08839085
 20
7.81575058
  0
VERTEX
  8
0
 10
5.19171986
 20
7.81911180
  0
VERTEX
  8
0
 10
5.29412731
 20
7.81981651
  0
VERTEX
  8
0
 10
5.38245987
 20
7.81904127
  0
VERTEX
  8
0
 10
5.47068975
 20
7.81665713
  0
VERTEX
  8
0
 10
5.55881229
 20
7.81266555
  0
VERTEX
  8
0
 10
5.64682285
 20
7.80706799
  0
VERTEX
  8
0
 10
5.73471678
 20
7.79986588
  0
VERTEX
  8
0
 10
5.82248941
 20
7.79106068
  0
VERTEX
  8
0
 10
5.91013611
 20
7.78065384
  0
VERTEX
  8
0
 10
5.99765221
 20
7.76864681
  0
VERTEX
  8
0
 10
6.08503308
 20
7.75504104
  0
VERTEX
  8
0
 10
6.17227404
 20
7.73983798
  0
VERTEX
  8
0
 10
6.25937047
 20
7.72303907
  0
VERTEX
  8
0
 10
6.34631769
 20
7.70464577
  0
VERTEX
  8
0
 10
6.43311107
 20
7.68465952
  0
VERTEX
  8
0
 10
6.51974594
 20
7.66308178
  0
VERTEX
  8
0
 10
6.60621767
 20
7.63991400
  0
VERTEX
  8
0
 10
6.69252159
 20
7.61515762
  0
VERTEX
  8
0
 10
6.77865305
 20
7.58881409
  0
VERTEX
  8
0
 10
6.86460741
 20
7.56088487
  0
VERTEX
  8
0
 10
6.95038001
 20
7.53137140
  0
VERTEX
  8
0
 10
7.03596620
 20
7.50027513
  0
VERTEX
  8
0
 10
7.12136133
 20
7.46759752
  0
VERTEX
  8
0
 10
7.20656075
 20
7.43334000
  0
VERTEX
  8
0
 10
7.29155980
 20
7.39750404
  0
VERTEX
  8
0
 10
7.37635383
 20
7.36009108
  0
VERTEX
  8
0
 10
7.46093820
 20
7.32110257
  0
VERTEX
  8
0
 10
7.54530825
 20
7.28053996
  0
VERTEX
  8
0
 10
7.62945933
 20
7.23840469
  0
VERTEX
  8
0
 10
7.71338678
 20
7.19469823
  0
VERTEX
  8
0
 10
7.79708596
 20
7.14942201
  0
VERTEX
  8
0
 10
7.88055221
 20
7.10257750
  0
VERTEX
  8
0
 10
7.96378089
 20
7.05416613
  0
VERTEX
  8
0
 10
8.04676734
 20
7.00418935
  0
VERTEX
  8
0
 10
8.18744879
 20
6.91799147
  0
VERTEX
  8
0
 10
8.14191029
 20
7.07656305
  0
VERTEX
  8
0
 10
8.11607228
 20
7.16491577
  0
VERTEX
  8
0
 10
8.09149266
 20
7.24407969
  0
VERTEX
  8
0
 10
8.13631098
 20
7.20066835
  0
VERTEX
  8
0
 10
8.18064043
 20
7.15618080
  0
VERTEX
  8
0
 10
8.22445912
 20
7.11068225
  0
VERTEX
  8
0
 10
8.26774517
 20
7.06423790
  0
VERTEX
  8
0
 10
8.31047669
 20
7.01691296
  0
VERTEX
  8
0
 10
8.35263181
 20
6.96877263
  0
VERTEX
  8
0
 10
8.39418864
 20
6.91988212
  0
VERTEX
  8
0
 10
8.43512530
 20
6.87030664
  0
VERTEX
  8
0
 10
8.47541990
 20
6.82011140
  0
VERTEX
  8
0
 10
8.51505056
 20
6.76936159
  0
VERTEX
  8
0
 10
8.55399540
 20
6.71812244
  0
VERTEX
  8
0
 10
8.59223254
 20
6.66645913
  0
VERTEX
  8
0
 10
8.62974010
 20
6.61443688
  0
VERTEX
  8
0
 10
8.66649619
 20
6.56212090
  0
VERTEX
  8
0
 10
8.70247892
 20
6.50957639
  0
VERTEX
  8
0
 10
8.73766643
 20
6.45686856
  0
VERTEX
  8
0
 10
8.80556820
 20
6.35122375
  0
VERTEX
  8
0
 10
8.87002645
 20
6.24570813
  0
VERTEX
  8
0
 10
8.93086612
 20
6.14084334
  0
VERTEX
  8
0
 10
8.98791214
 20
6.03715104
  0
VERTEX
  8
0
 10
9.04098946
 20
5.93515287
  0
VERTEX
  8
0
 10
9.08992300
 20
5.83537049
  0
VERTEX
  8
0
 10
9.13453772
 20
5.73832555
  0
VERTEX
  8
0
 10
9.17465854
 20
5.64453969
  0
VERTEX
  8
0
 10
9.27793337
 20
5.39245153
  0
VERTEX
  8
0
 10
9.29826306
 20
5.66405619
  0
VERTEX
  8
0
 10
9.30280831
 20
5.73340123
  0
VERTEX
  8
0
 10
9.30614634
 20
5.80271843
  0
VERTEX
  8
0
 10
9.30828109
 20
5.87194925
  0
VERTEX
  8
0
 10
9.30921651
 20
5.94103518
  0
VERTEX
  8
0
 10
9.30895653
 20
6.00991771
  0
VERTEX
  8
0
 10
9.30750511
 20
6.07853830
  0
VERTEX
  8
0
 10
9.30486619
 20
6.14683844
  0
VERTEX
  8
0
 10
9.30104371
 20
6.21475962
  0
VERTEX
  8
0
 10
9.29604161
 20
6.28224331
  0
VERTEX
  8
0
 10
9.28986384
 20
6.34923099
  0
VERTEX
  8
0
 10
9.28251434
 20
6.41566414
  0
VERTEX
  8
0
 10
9.27399705
 20
6.48148425
  0
VERTEX
  8
0
 10
9.26431592
 20
6.54663279
  0
VERTEX
  8
0
 10
9.25347490
 20
6.61105124
  0
VERTEX
  8
0
 10
9.24147791
 20
6.67468109
  0
VERTEX
  8
0
 10
9.22832892
 20
6.73746382
  0
VERTEX
  8
0
 10
9.21100520
 20
6.81192458
  0
VERTEX
  8
0
 10
9.19207924
 20
6.88510750
  0
VERTEX
  8
0
 10
9.17155728
 20
6.95700025
  0
VERTEX
  8
0
 10
9.14944554
 20
7.02759047
  0
VERTEX
  8
0
 10
9.12575027
 20
7.09686585
  0
VERTEX
  8
0
 10
9.10047770
 20
7.16481403
  0
VERTEX
  8
0
 10
9.07363407
 20
7.23142268
  0
VERTEX
  8
0
 10
9.04522561
 20
7.29667945
  0
VERTEX
  8
0
 10
9.01525856
 20
7.36057202
  0
VERTEX
  8
0
 10
8.98373916
 20
7.42308804
  0
VERTEX
  8
0
 10
8.95067363
 20
7.48421518
  0
VERTEX
  8
0
 10
8.91606822
 20
7.54394108
  0
VERTEX
  8
0
 10
8.87992916
 20
7.60225343
  0
VERTEX
  8
0
 10
8.84226268
 20
7.65913987
  0
VERTEX
  8
0
 10
8.80307503
 20
7.71458807
  0
VERTEX
  8
0
 10
8.76237243
 20
7.76858570
  0
VERTEX
  8
0
 10
8.71515178
 20
7.83533741
  0
VERTEX
  8
0
 10
8.66633883
 20
7.90053553
  0
VERTEX
  8
0
 10
8.61583739
 20
7.96427883
  0
VERTEX
  8
0
 10
8.56355125
 20
8.02666608
  0
VERTEX
  8
0
 10
8.50938422
 20
8.08779606
  0
VERTEX
  8
0
 10
8.45324009
 20
8.14776755
  0
VERTEX
  8
0
 10
8.39502266
 20
8.20667931
  0
VERTEX
  8
0
 10
8.33463575
 20
8.26463013
  0
VERTEX
  8
0
 10
8.28728178
 20
8.30831360
  0
VERTEX
  8
0
 10
8.23887501
 20
8.35121967
  0
VERTEX
  8
0
 10
8.18942861
 20
8.39333996
  0
VERTEX
  8
0
 10
8.13895579
 20
8.43466607
  0
VERTEX
  8
0
 10
8.08746971
 20
8.47518959
  0
VERTEX
  8
0
 10
8.03498357
 20
8.51490212
  0
VERTEX
  8
0
 10
7.98151055
 20
8.55379528
  0
VERTEX
  8
0
 10
7.92706384
 20
8.59186065
  0
VERTEX
  8
0
 10
7.87165662
 20
8.62908985
  0
VERTEX
  8
0
 10
7.81530208
 20
8.66547447
  0
VERTEX
  8
0
 10
7.75801341
 20
8.70100612
  0
VERTEX
  8
0
 10
7.69980379
 20
8.73567639
  0
VERTEX
  8
0
 10
7.64068640
 20
8.76947689
  0
VERTEX
  8
0
 10
7.58067444
 20
8.80239922
  0
VERTEX
  8
0
 10
7.51978108
 20
8.83443498
  0
VERTEX
  8
0
 10
7.45801952
 20
8.86557577
  0
VERTEX
  8
0
 10
7.45557995
 20
8.86638896
  0
VERTEX
  8
0
 10
7.45314039
 20
8.86720214
  0
VERTEX
  8
0
 10
7.41443648
 20
8.88423217
  0
VERTEX
  8
0
 10
7.36775569
 20
8.90542196
  0
VERTEX
  8
0
 10
7.27894818
 20
8.94583794
  0
VERTEX
  8
0
 10
7.22662844
 20
8.96839192
  0
VERTEX
  8
0
 10
7.16888469
 20
8.99191460
  0
VERTEX
  8
0
 10
7.10560693
 20
9.01595949
  0
VERTEX
  8
0
 10
7.03668515
 20
9.04008014
  0
VERTEX
  8
0
 10
6.96200935
 20
9.06383007
  0
VERTEX
  8
0
 10
6.88146951
 20
9.08676279
  0
VERTEX
  8
0
 10
6.83141267
 20
9.09979840
  0
VERTEX
  8
0
 10
6.78065660
 20
9.11200650
  0
VERTEX
  8
0
 10
6.72921304
 20
9.12338509
  0
VERTEX
  8
0
 10
6.67709374
 20
9.13393220
  0
VERTEX
  8
0
 10
6.62431043
 20
9.14364582
  0
VERTEX
  8
0
 10
6.57087485
 20
9.15252397
  0
VERTEX
  8
0
 10
6.51679874
 20
9.16056466
  0
VERTEX
  8
0
 10
6.46209384
 20
9.16776590
  0
VERTEX
  8
0
 10
6.40677189
 20
9.17412569
  0
VERTEX
  8
0
 10
6.35084463
 20
9.17964206
  0
VERTEX
  8
0
 10
6.29432380
 20
9.18431300
  0
VERTEX
  8
0
 10
6.23722113
 20
9.18813653
  0
VERTEX
  8
0
 10
6.17954836
 20
9.19111066
  0
VERTEX
  8
0
 10
6.12131725
 20
9.19323340
  0
VERTEX
  8
0
 10
6.06253951
 20
9.19450276
  0
VERTEX
  8
0
 10
6.00322690
 20
9.19491675
  0
SEQEND
  0
POLYLINE
  8
Default_Layer
 66
   1
 39
0.000000
 70
    1
  0
VERTEX
  8
0
 10
5.81782013
 20
9.12660899
  0
VERTEX
  8
0
 10
5.91205038
 20
9.12945802
  0
VERTEX
  8
0
 10
6.00322690
 20
9.13067493
  0
VERTEX
  8
0
 10
6.08082577
 20
9.12992120
  0
VERTEX
  8
0
 10
6.15593905
 20
9.12776865
  0
VERTEX
  8
0
 10
6.22860222
 20
9.12429693
  0
VERTEX
  8
0
 10
6.29885078
 20
9.11958569
  0
VERTEX
  8
0
 10
6.36672021
 20
9.11371460
  0
VERTEX
  8
0
 10
6.43224600
 20
9.10676332
  0
VERTEX
  8
0
 10
6.49546364
 20
9.09881149
  0
VERTEX
  8
0
 10
6.55640861
 20
9.08993878
  0
VERTEX
  8
0
 10
6.61511641
 20
9.08022485
  0
VERTEX
  8
0
 10
6.67162253
 20
9.06974936
  0
VERTEX
  8
0
 10
6.72596244
 20
9.05859195
  0
VERTEX
  8
0
 10
6.77817165
 20
9.04683230
  0
VERTEX
  8
0
 10
6.82828563
 20
9.03455005
  0
VERTEX
  8
0
 10
6.87633987
 20
9.02182486
  0
VERTEX
  8
0
 10
6.92236987
 20
9.00873640
  0
VERTEX
  8
0
 10
6.96641111
 20
8.99536432
  0
VERTEX
  8
0
 10
7.00849908
 20
8.98178828
  0
VERTEX
  8
0
 10
7.04866927
 20
8.96808793
  0
VERTEX
  8
0
 10
7.12339824
 20
8.94063295
  0
VERTEX
  8
0
 10
7.19088194
 20
8.91363665
  0
VERTEX
  8
0
 10
7.25140427
 20
8.88773629
  0
VERTEX
  8
0
 10
7.35270043
 20
8.84177242
  0
VERTEX
  8
0
 10
7.39404207
 20
8.82298344
  0
VERTEX
  8
0
 10
7.42955795
 20
8.80783945
  0
VERTEX
  8
0
 10
7.49871537
 20
8.77286648
  0
VERTEX
  8
0
 10
7.56568790
 20
8.73734439
  0
VERTEX
  8
0
 10
7.63050608
 20
8.70133649
  0
VERTEX
  8
0
 10
7.69320044
 20
8.66490608
  0
VERTEX
  8
0
 10
7.75380151
 20
8.62811649
  0
VERTEX
  8
0
 10
7.81233982
 20
8.59103103
  0
VERTEX
  8
0
 10
7.86884590
 20
8.55371300
  0
VERTEX
  8
0
 10
7.92335029
 20
8.51622571
  0
VERTEX
  8
0
 10
7.97588352
 20
8.47863249
  0
VERTEX
  8
0
 10
8.02647611
 20
8.44099664
  0
VERTEX
  8
0
 10
8.07515860
 20
8.40338147
  0
VERTEX
  8
0
 10
8.12196152
 20
8.36585029
  0
VERTEX
  8
0
 10
8.16691540
 20
8.32846642
  0
VERTEX
  8
0
 10
8.21005078
 20
8.29129317
  0
VERTEX
  8
0
 10
8.25139818
 20
8.25439385
  0
VERTEX
  8
0
 10
8.29098813
 20
8.21783177
  0
VERTEX
  8
0
 10
8.32885117
 20
8.18167025
  0
VERTEX
  8
0
 10
8.36501783
 20
8.14597259
  0
VERTEX
  8
0
 10
8.39951863
 20
8.11080211
  0
VERTEX
  8
0
 10
8.43238412
 20
8.07622212
  0
VERTEX
  8
0
 10
8.49333126
 20
8.00908685
  0
VERTEX
  8
0
 10
8.54810349
 20
7.94507328
  0
VERTEX
  8
0
 10
8.59694508
 20
7.88468791
  0
VERTEX
  8
0
 10
8.64010026
 20
7.82843722
  0
VERTEX
  8
0
 10
8.67781329
 20
7.77682771
  0
VERTEX
  8
0
 10
8.71032842
 20
7.73036588
  0
VERTEX
  8
0
 10
8.74691116
 20
7.68205415
  0
VERTEX
  8
0
 10
8.78198030
 20
7.63289971
  0
VERTEX
  8
0
 10
8.81555907
 20
7.58294225
  0
VERTEX
  8
0
 10
8.84767069
 20
7.53222147
  0
VERTEX
  8
0
 10
8.87833838
 20
7.48077707
  0
VERTEX
  8
0
 10
8.90758535
 20
7.42864876
  0
VERTEX
  8
0
 10
8.93543483
 20
7.37587622
  0
VERTEX
  8
0
 10
8.96191004
 20
7.32249915
  0
VERTEX
  8
0
 10
8.98703420
 20
7.26855727
  0
VERTEX
  8
0
 10
9.01083052
 20
7.21409025
  0
VERTEX
  8
0
 10
9.03332223
 20
7.15913781
  0
VERTEX
  8
0
 10
9.05453255
 20
7.10373964
  0
VERTEX
  8
0
 10
9.07448470
 20
7.04793544
  0
VERTEX
  8
0
 10
9.09320190
 20
6.99176491
  0
VERTEX
  8
0
 10
9.11070737
 20
6.93526775
  0
VERTEX
  8
0
 10
9.12702433
 20
6.87848365
  0
VERTEX
  8
0
 10
9.14217599
 20
6.82145232
  0
VERTEX
  8
0
 10
9.15618559
 20
6.76421345
  0
VERTEX
  8
0
 10
9.16907634
 20
6.70680674
  0
VERTEX
  8
0
 10
9.18087145
 20
6.64927190
  0
VERTEX
  8
0
 10
9.19159416
 20
6.59164861
  0
VERTEX
  8
0
 10
9.20126768
 20
6.53397658
  0
VERTEX
  8
0
 10
9.20991522
 20
6.47629551
  0
VERTEX
  8
0
 10
9.21756002
 20
6.41864510
  0
VERTEX
  8
0
 10
9.22422529
 20
6.36106504
  0
VERTEX
  8
0
 10
9.22993425
 20
6.30359503
  0
VERTEX
  8
0
 10
9.23471012
 20
6.24627477
  0
VERTEX
  8
0
 10
9.23857613
 20
6.18914397
  0
VERTEX
  8
0
 10
9.24155548
 20
6.13224231
  0
VERTEX
  8
0
 10
9.24367141
 20
6.07560950
  0
VERTEX
  8
0
 10
9.24494713
 20
6.01928524
  0
VERTEX
  8
0
 10
9.24540586
 20
5.96330922
  0
VERTEX
  8
0
 10
9.24446483
 20
5.88859550
  0
VERTEX
  8
0
 10
9.24223371
 20
5.81450155
  0
VERTEX
  8
0
 10
9.23874250
 20
5.74121795
  0
VERTEX
  8
0
 10
9.23402123
 20
5.66893531
  0
VERTEX
  8
0
 10
9.21065943
 20
5.72441576
  0
VERTEX
  8
0
 10
9.18583632
 20
5.78084484
  0
VERTEX
  8
0
 10
9.15958644
 20
5.83813225
  0
VERTEX
  8
0
 10
9.13194433
 20
5.89618767
  0
VERTEX
  8
0
 10
9.10294452
 20
5.95492079
  0
VERTEX
  8
0
 10
9.07262154
 20
6.01424131
  0
VERTEX
  8
0
 10
9.04100992
 20
6.07405891
  0
VERTEX
  8
0
 10
9.00814420
 20
6.13428328
  0
VERTEX
  8
0
 10
8.97405891
 20
6.19482412
  0
VERTEX
  8
0
 10
8.93878859
 20
6.25559110
  0
VERTEX
  8
0
 10
8.90236775
 20
6.31649393
  0
VERTEX
  8
0
 10
8.86483095
 20
6.37744229
  0
VERTEX
  8
0
 10
8.82621271
 20
6.43834586
  0
VERTEX
  8
0
 10
8.78654755
 20
6.49911435
  0
VERTEX
  8
0
 10
8.74587003
 20
6.55965744
  0
VERTEX
  8
0
 10
8.70421466
 20
6.61988482
  0
VERTEX
  8
0
 10
8.66161599
 20
6.67970618
  0
VERTEX
  8
0
 10
8.61810854
 20
6.73903121
  0
VERTEX
  8
0
 10
8.57372684
 20
6.79776959
  0
VERTEX
  8
0
 10
8.52850544
 20
6.85583103
  0
VERTEX
  8
0
 10
8.48247886
 20
6.91312520
  0
VERTEX
  8
0
 10
8.43568163
 20
6.96956181
  0
VERTEX
  8
0
 10
8.38814829
 20
7.02505053
  0
VERTEX
  8
0
 10
8.33991337
 20
7.07950105
  0
VERTEX
  8
0
 10
8.29101140
 20
7.13282308
  0
VERTEX
  8
0
 10
8.24147692
 20
7.18492629
  0
VERTEX
  8
0
 10
8.19134446
 20
7.23572037
  0
VERTEX
  8
0
 10
8.14064855
 20
7.28511503
  0
VERTEX
  8
0
 10
8.08942372
 20
7.33301994
  0
VERTEX
  8
0
 10
8.03770451
 20
7.37934479
  0
VERTEX
  8
0
 10
7.98552545
 20
7.42399928
  0
VERTEX
  8
0
 10
7.93292108
 20
7.46689310
  0
VERTEX
  8
0
 10
7.94710559
 20
7.43805597
  0
VERTEX
  8
0
 10
7.96056945
 20
7.40834359
  0
VERTEX
  8
0
 10
7.99065739
 20
7.33596989
  0
VERTEX
  8
0
 10
8.01342299
 20
7.27347908
  0
VERTEX
  8
0
 10
8.03559999
 20
7.20714022
  0
VERTEX
  8
0
 10
8.05766835
 20
7.13589196
  0
VERTEX
  8
0
 10
8.08010803
 20
7.05867292
  0
VERTEX
  8
0
 10
8.00290584
 20
7.10527543
  0
VERTEX
  8
0
 10
7.92501751
 20
7.15080027
  0
VERTEX
  8
0
 10
7.84644807
 20
7.19522110
  0
VERTEX
  8
0
 10
7.76720250
 20
7.23851162
  0
VERTEX
  8
0
 10
7.68728580
 20
7.28064549
  0
VERTEX
  8
0
 10
7.60670299
 20
7.32159641
  0
VERTEX
  8
0
 10
7.52545906
 20
7.36133804
  0
VERTEX
  8
0
 10
7.44355902
 20
7.39984407
  0
VERTEX
  8
0
 10
7.36100786
 20
7.43708817
  0
VERTEX
  8
0
 10
7.27781058
 20
7.47304402
  0
VERTEX
  8
0
 10
7.19397220
 20
7.50768530
  0
VERTEX
  8
0
 10
7.10949770
 20
7.54098569
  0
VERTEX
  8
0
 10
7.02439210
 20
7.57291887
  0
VERTEX
  8
0
 10
6.93866039
 20
7.60345852
  0
VERTEX
  8
0
 10
6.85230757
 20
7.63257831
  0
VERTEX
  8
0
 10
6.76533866
 20
7.66025193
  0
VERTEX
  8
0
 10
6.67775864
 20
7.68645305
  0
VERTEX
  8
0
 10
6.58957252
 20
7.71115535
  0
VERTEX
  8
0
 10
6.50078530
 20
7.73433250
  0
VERTEX
  8
0
 10
6.41140199
 20
7.75595820
  0
VERTEX
  8
0
 10
6.32142758
 20
7.77600611
  0
VERTEX
  8
0
 10
6.23086708
 20
7.79444992
  0
VERTEX
  8
0
 10
6.13972549
 20
7.81126330
  0
VERTEX
  8
0
 10
6.04800780
 20
7.82641994
  0
VERTEX
  8
0
 10
5.95571903
 20
7.83989350
  0
VERTEX
  8
0
 10
5.86286418
 20
7.85165768
  0
VERTEX
  8
0
 10
5.76944823
 20
7.86168614
  0
VERTEX
  8
0
 10
5.67547621
 20
7.86995257
  0
VERTEX
  8
0
 10
5.58095310
 20
7.87643064
  0
VERTEX
  8
0
 10
5.48588392
 20
7.88109404
  0
VERTEX
  8
0
 10
5.39027365
 20
7.88391644
  0
VERTEX
  8
0
 10
5.29412731
 20
7.88487152
  0
VERTEX
  8
0
 10
5.20968441
 20
7.88405484
  0
VERTEX
  8
0
 10
5.12470899
 20
7.88177840
  0
VERTEX
  8
0
 10
5.03926133
 20
7.87799907
  0
VERTEX
  8
0
 10
4.95340171
 20
7.87267371
  0
VERTEX
  8
0
 10
4.96550117
 20
7.85951749
  0
VERTEX
  8
0
 10
4.99650065
 20
7.82469564
  0
VERTEX
  8
0
 10
5.00788528
 20
7.81168464
  0
VERTEX
  8
0
 10
5.04338459
 20
7.76943302
  0
VERTEX
  8
0
 10
5.08016839
 20
7.72331139
  0
VERTEX
  8
0
 10
5.09757471
 20
7.70015802
  0
VERTEX
  8
0
 10
5.11354143
 20
7.67766756
  0
VERTEX
  8
0
 10
5.12748166
 20
7.65638350
  0
VERTEX
  8
0
 10
5.13880848
 20
7.63684930
  0
VERTEX
  8
0
 10
5.01726241
 20
7.58607244
  0
VERTEX
  8
0
 10
4.89068166
 20
7.53244701
  0
VERTEX
  8
0
 10
4.82566640
 20
7.50411204
  0
VERTEX
  8
0
 10
4.75958822
 20
7.47452006
  0
VERTEX
  8
0
 10
4.69251235
 20
7.44348946
  0
VERTEX
  8
0
 10
4.62450404
 20
7.41083863
  0
VERTEX
  8
0
 10
4.55562854
 20
7.37638593
  0
VERTEX
  8
0
 10
4.48595109
 20
7.33994975
  0
VERTEX
  8
0
 10
4.41553695
 20
7.30134848
  0
VERTEX
  8
0
 10
4.34445135
 20
7.26040048
  0
VERTEX
  8
0
 10
4.27275955
 20
7.21692415
  0
VERTEX
  8
0
 10
4.20052678
 20
7.17073786
  0
VERTEX
  8
0
 10
4.12781830
 20
7.12165999
  0
VERTEX
  8
0
 10
4.05469934
 20
7.06950892
  0
VERTEX
  8
0
 10
3.98123517
 20
7.01410304
  0
VERTEX
  8
0
 10
3.90749101
 20
6.95526072
  0
VERTEX
  8
0
 10
3.83353212
 20
6.89280034
  0
VERTEX
  8
0
 10
3.75942375
 20
6.82654028
  0
VERTEX
  8
0
 10
3.68523114
 20
6.75629893
  0
VERTEX
  8
0
 10
3.64812363
 20
6.71962852
  0
VERTEX
  8
0
 10
3.61101953
 20
6.68189467
  0
VERTEX
  8
0
 10
3.57392700
 20
6.64307469
  0
VERTEX
  8
0
 10
3.53685418
 20
6.60314587
  0
VERTEX
  8
0
 10
3.49980923
 20
6.56208551
  0
VERTEX
  8
0
 10
3.46280032
 20
6.51987091
  0
VERTEX
  8
0
 10
3.42583559
 20
6.47647937
  0
VERTEX
  8
0
 10
3.38892321
 20
6.43188818
  0
VERTEX
  8
0
 10
3.35207132
 20
6.38607464
  0
VERTEX
  8
0
 10
3.31528808
 20
6.33901605
  0
VERTEX
  8
0
 10
3.27858166
 20
6.29068971
  0
VERTEX
  8
0
 10
3.24196019
 20
6.24107291
  0
VERTEX
  8
0
 10
3.20543185
 20
6.19014296
  0
VERTEX
  8
0
 10
3.16900479
 20
6.13787714
  0
VERTEX
  8
0
 10
3.13268715
 20
6.08425276
  0
VERTEX
  8
0
 10
3.09648711
 20
6.02924711
  0
VERTEX
  8
0
 10
3.06041280
 20
5.97283750
  0
VERTEX
  8
0
 10
3.02447240
 20
5.91500121
  0
VERTEX
  8
0
 10
2.98867405
 20
5.85571555
  0
VERTEX
  8
0
 10
2.95302591
 20
5.79495782
  0
VERTEX
  8
0
 10
2.91753614
 20
5.73270531
  0
VERTEX
  8
0
 10
2.88221289
 20
5.66893531
  0
VERTEX
  8
0
 10
2.87316358
 20
5.71531177
  0
VERTEX
  8
0
 10
2.86544519
 20
5.76162830
  0
VERTEX
  8
0
 10
2.85901705
 20
5.80786778
  0
VERTEX
  8
0
 10
2.85383848
 20
5.85401305
  0
VERTEX
  8
0
 10
2.84986880
 20
5.90004698
  0
VERTEX
  8
0
 10
2.84706732
 20
5.94595243
  0
VERTEX
  8
0
 10
2.84539337
 20
5.99171225
  0
VERTEX
  8
0
 10
2.84480626
 20
6.03730930
  0
VERTEX
  8
0
 10
2.84617694
 20
6.10738050
  0
VERTEX
  8
0
 10
2.84998868
 20
6.17698487
  0
VERTEX
  8
0
 10
2.85612051
 20
6.24605818
  0
VERTEX
  8
0
 10
2.86445146
 20
6.31453623
  0
VERTEX
  8
0
 10
2.87486057
 20
6.38235480
  0
VERTEX
  8
0
 10
2.88722686
 20
6.44944970
  0
VERTEX
  8
0
 10
2.90142936
 20
6.51575670
  0
VERTEX
  8
0
 10
2.91734711
 20
6.58121160
  0
VERTEX
  8
0
 10
2.93485912
 20
6.64575019
  0
VERTEX
  8
0
 10
2.95384444
 20
6.70930825
  0
VERTEX
  8
0
 10
2.97418208
 20
6.77182159
  0
VERTEX
  8
0
 10
2.99575109
 20
6.83322598
  0
VERTEX
  8
0
 10
3.01843048
 20
6.89345722
  0
VERTEX
  8
0
 10
3.04209930
 20
6.95245110
  0
VERTEX
  8
0
 10
3.06663656
 20
7.01014340
  0
VERTEX
  8
0
 10
3.09192130
 20
7.06646993
  0
VERTEX
  8
0
 10
3.11783255
 20
7.12136646
  0
VERTEX
  8
0
 10
3.14424933
 20
7.17476879
  0
VERTEX
  8
0
 10
3.17105068
 20
7.22661271
  0
VERTEX
  8
0
 10
3.19811563
 20
7.27683401
  0
VERTEX
  8
0
 10
3.22532321
 20
7.32536847
  0
VERTEX
  8
0
 10
3.25255244
 20
7.37215190
  0
VERTEX
  8
0
 10
3.27968235
 20
7.41712007
  0
VERTEX
  8
0
 10
3.30659198
 20
7.46020879
  0
VERTEX
  8
0
 10
3.35926650
 20
7.54049099
  0
VERTEX
  8
0
 10
3.40960823
 20
7.61248483
  0
VERTEX
  8
0
 10
3.45664941
 20
7.67567662
  0
VERTEX
  8
0
 10
3.49942228
 20
7.72955269
  0
VERTEX
  8
0
 10
3.51162010
 20
7.74419007
  0
VERTEX
  8
0
 10
3.53401066
 20
7.77051319
  0
VERTEX
  8
0
 10
3.55390585
 20
7.79298132
  0
VERTEX
  8
0
 10
3.51114526
 20
7.79393664
  0
VERTEX
  8
0
 10
3.47583984
 20
7.79379451
  0
VERTEX
  8
0
 10
3.42786177
 20
7.79379451
  0
VERTEX
  8
0
 10
3.37988370
 20
7.79379451
  0
VERTEX
  8
0
 10
3.29612538
 20
7.79460770
  0
VERTEX
  8
0
 10
3.32563885
 20
7.83494955
  0
VERTEX
  8
0
 10
3.35586987
 20
7.87438626
  0
VERTEX
  8
0
 10
3.38679777
 20
7.91292648
  0
VERTEX
  8
0
 10
3.41840190
 20
7.95057882
  0
VERTEX
  8
0
 10
3.45066158
 20
7.98735191
  0
VERTEX
  8
0
 10
3.48355617
 20
8.02325437
  0
VERTEX
  8
0
 10
3.51706498
 20
8.05829483
  0
VERTEX
  8
0
 10
3.55116737
 20
8.09248192
  0
VERTEX
  8
0
 10
3.58584266
 20
8.12582425
  0
VERTEX
  8
0
 10
3.62107020
 20
8.15833046
  0
VERTEX
  8
0
 10
3.65682932
 20
8.19000917
  0
VERTEX
  8
0
 10
3.69309936
 20
8.22086901
  0
VERTEX
  8
0
 10
3.72985965
 20
8.25091859
  0
VERTEX
  8
0
 10
3.76708953
 20
8.28016656
  0
VERTEX
  8
0
 10
3.80476834
 20
8.30862152
  0
VERTEX
  8
0
 10
3.84287541
 20
8.33629211
  0
VERTEX
  8
0
 10
3.88139009
 20
8.36318696
  0
VERTEX
  8
0
 10
3.92029170
 20
8.38931468
  0
VERTEX
  8
0
 10
3.95955959
 20
8.41468390
  0
VERTEX
  8
0
 10
3.99917309
 20
8.43930326
  0
VERTEX
  8
0
 10
4.03911154
 20
8.46318136
  0
VERTEX
  8
0
 10
4.07935427
 20
8.48632685
  0
VERTEX
  8
0
 10
4.11988063
 20
8.50874834
  0
VERTEX
  8
0
 10
4.16066994
 20
8.53045446
  0
VERTEX
  8
0
 10
4.24295480
 20
8.57175509
  0
VERTEX
  8
0
 10
4.32604353
 20
8.61029774
  0
VERTEX
  8
0
 10
4.40977083
 20
8.64615142
  0
VERTEX
  8
0
 10
4.49397140
 20
8.67938512
  0
VERTEX
  8
0
 10
4.57847993
 20
8.71006786
  0
VERTEX
  8
0
 10
4.66313112
 20
8.73826862
  0
VERTEX
  8
0
 10
4.74775965
 20
8.76405643
  0
VERTEX
  8
0
 10
4.83220023
 20
8.78750027
  0
VERTEX
  8
0
 10
4.91628754
 20
8.80866915
  0
VERTEX
  8
0
 10
4.99985629
 20
8.82763207
  0
VERTEX
  8
0
 10
5.08274116
 20
8.84445804
  0
VERTEX
  8
0
 10
5.16477685
 20
8.85921606
  0
VERTEX
  8
0
 10
5.24579806
 20
8.87197513
  0
VERTEX
  8
0
 10
5.32563947
 20
8.88280426
  0
VERTEX
  8
0
 10
5.40413579
 20
8.89177244
  0
VERTEX
  8
0
 10
5.48112171
 20
8.89894868
  0
VERTEX
  8
0
 10
5.55643192
 20
8.90440198
  0
VERTEX
  8
0
 10
5.62990112
 20
8.90820134
  0
VERTEX
  8
0
 10
5.70136400
 20
8.91041577
  0
VERTEX
  8
0
 10
5.77065525
 20
8.91111427
  0
VERTEX
  8
0
 10
5.84211847
 20
8.91050950
  0
VERTEX
  8
0
 10
5.91052351
 20
8.90786152
  0
VERTEX
  8
0
 10
5.93329277
 20
8.90704834
  0
VERTEX
  8
0
 10
5.99753459
 20
8.90298240
  0
VERTEX
  8
0
 10
5.81782013
 20
9.12660899
  0
SEQEND
  0
POLYLINE
  8
Default_Layer
 66
   1
 39
0.000000
 70
    1
  0
VERTEX
  8
0
 10
6.12032592
 20
9.01357591
  0
VERTEX
  8
0
 10
6.04632584
 20
9.01194954
  0
VERTEX
  8
0
 10
6.19595236
 20
8.79726801
  0
VERTEX
  8
0
 10
6.11853342
 20
8.80265520
  0
VERTEX
  8
0
 10
6.01975193
 20
8.80698158
  0
VERTEX
  8
0
 10
5.96301263
 20
8.80830568
  0
VERTEX
  8
0
 10
5.90172755
 20
8.80883503
  0
VERTEX
  8
0
 10
5.83616165
 20
8.80839312
  0
VERTEX
  8
0
 10
5.76657989
 20
8.80680343
  0
VERTEX
  8
0
 10
5.69324722
 20
8.80388944
  0
VERTEX
  8
0
 10
5.61642861
 20
8.79947465
  0
VERTEX
  8
0
 10
5.53638899
 20
8.79338253
  0
VERTEX
  8
0
 10
5.45339333
 20
8.78543656
  0
VERTEX
  8
0
 10
5.36770658
 20
8.77546025
  0
VERTEX
  8
0
 10
5.27959369
 20
8.76327706
  0
VERTEX
  8
0
 10
5.18931963
 20
8.74871048
  0
VERTEX
  8
0
 10
5.09714934
 20
8.73158400
  0
VERTEX
  8
0
 10
5.00334778
 20
8.71172110
  0
VERTEX
  8
0
 10
4.90817990
 20
8.68894528
  0
VERTEX
  8
0
 10
4.81191067
 20
8.66308000
  0
VERTEX
  8
0
 10
4.76344584
 20
8.64893366
  0
VERTEX
  8
0
 10
4.71480502
 20
8.63394876
  0
VERTEX
  8
0
 10
4.66602135
 20
8.61810324
  0
VERTEX
  8
0
 10
4.61712793
 20
8.60137504
  0
VERTEX
  8
0
 10
4.56815788
 20
8.58374209
  0
VERTEX
  8
0
 10
4.51914433
 20
8.56518232
  0
VERTEX
  8
0
 10
4.47012040
 20
8.54567368
  0
VERTEX
  8
0
 10
4.42111919
 20
8.52519410
  0
VERTEX
  8
0
 10
4.37217385
 20
8.50372151
  0
VERTEX
  8
0
 10
4.32331747
 20
8.48123385
  0
VERTEX
  8
0
 10
4.27458318
 20
8.45770905
  0
VERTEX
  8
0
 10
4.22600411
 20
8.43312506
  0
VERTEX
  8
0
 10
4.17761337
 20
8.40745980
  0
VERTEX
  8
0
 10
4.12944407
 20
8.38069121
  0
VERTEX
  8
0
 10
4.08152935
 20
8.35279723
  0
VERTEX
  8
0
 10
4.03390231
 20
8.32375579
  0
VERTEX
  8
0
 10
3.98659608
 20
8.29354483
  0
VERTEX
  8
0
 10
3.93964378
 20
8.26214229
  0
VERTEX
  8
0
 10
3.89307852
 20
8.22952609
  0
VERTEX
  8
0
 10
3.84693343
 20
8.19567418
  0
VERTEX
  8
0
 10
3.80124162
 20
8.16056449
  0
VERTEX
  8
0
 10
3.75603622
 20
8.12417496
  0
VERTEX
  8
0
 10
3.71135034
 20
8.08648352
  0
VERTEX
  8
0
 10
3.66721711
 20
8.04746810
  0
VERTEX
  8
0
 10
3.62366963
 20
8.00710665
  0
VERTEX
  8
0
 10
3.58074104
 20
7.96537709
  0
VERTEX
  8
0
 10
3.51649922
 20
7.90032209
  0
VERTEX
  8
0
 10
3.77671925
 20
7.89219021
  0
VERTEX
  8
0
 10
3.73199394
 20
7.83689345
  0
VERTEX
  8
0
 10
3.67972850
 20
7.77330791
  0
VERTEX
  8
0
 10
3.62560689
 20
7.70642451
  0
VERTEX
  8
0
 10
3.57013628
 20
7.63580145
  0
VERTEX
  8
0
 10
3.51382386
 20
7.56099691
  0
VERTEX
  8
0
 10
3.45717680
 20
7.48156907
  0
VERTEX
  8
0
 10
3.42888627
 20
7.43998334
  0
VERTEX
  8
0
 10
3.40070228
 20
7.39707610
  0
VERTEX
  8
0
 10
3.37268821
 20
7.35279213
  0
VERTEX
  8
0
 10
3.34490748
 20
7.30707619
  0
VERTEX
  8
0
 10
3.31742346
 20
7.25987307
  0
VERTEX
  8
0
 10
3.29029957
 20
7.21112752
  0
VERTEX
  8
0
 10
3.26359920
 20
7.16078433
  0
VERTEX
  8
0
 10
3.23738575
 20
7.10878827
  0
VERTEX
  8
0
 10
3.21172261
 20
7.05508411
  0
VERTEX
  8
0
 10
3.18667318
 20
6.99961662
  0
VERTEX
  8
0
 10
3.16230086
 20
6.94233057
  0
VERTEX
  8
0
 10
3.13866905
 20
6.88317074
  0
VERTEX
  8
0
 10
3.11584113
 20
6.82208190
  0
VERTEX
  8
0
 10
3.09388052
 20
6.75900883
  0
VERTEX
  8
0
 10
3.07285061
 20
6.69389629
  0
VERTEX
  8
0
 10
3.05281480
 20
6.62668905
  0
VERTEX
  8
0
 10
3.03383647
 20
6.55733190
  0
VERTEX
  8
0
 10
3.01597904
 20
6.48576960
  0
VERTEX
  8
0
 10
2.99930589
 20
6.41194692
  0
VERTEX
  8
0
 10
2.98388043
 20
6.33580865
  0
VERTEX
  8
0
 10
2.96976605
 20
6.25729954
  0
VERTEX
  8
0
 10
2.95702615
 20
6.17636438
  0
VERTEX
  8
0
 10
2.93181734
 20
6.00722135
  0
VERTEX
  8
0
 10
3.02858666
 20
6.14871600
  0
VERTEX
  8
0
 10
3.07502998
 20
6.21575952
  0
VERTEX
  8
0
 10
3.12232204
 20
6.28154360
  0
VERTEX
  8
0
 10
3.17045984
 20
6.34606576
  0
VERTEX
  8
0
 10
3.21944037
 20
6.40932354
  0
VERTEX
  8
0
 10
3.26926065
 20
6.47131446
  0
VERTEX
  8
0
 10
3.31991767
 20
6.53203606
  0
VERTEX
  8
0
 10
3.37140843
 20
6.59148587
  0
VERTEX
  8
0
 10
3.42372994
 20
6.64966142
  0
VERTEX
  8
0
 10
3.47687920
 20
6.70656024
  0
VERTEX
  8
0
 10
3.53085320
 20
6.76217987
  0
VERTEX
  8
0
 10
3.58564896
 20
6.81651783
  0
VERTEX
  8
0
 10
3.64126347
 20
6.86957166
  0
VERTEX
  8
0
 10
3.69769374
 20
6.92133889
  0
VERTEX
  8
0
 10
3.75493676
 20
6.97181705
  0
VERTEX
  8
0
 10
3.81298953
 20
7.02100367
  0
VERTEX
  8
0
 10
3.87184907
 20
7.06889629
  0
VERTEX
  8
0
 10
3.93151237
 20
7.11549243
  0
VERTEX
  8
0
 10
3.99197643
 20
7.16078962
  0
VERTEX
  8
0
 10
4.05323825
 20
7.20478541
  0
VERTEX
  8
0
 10
4.11529484
 20
7.24747731
  0
VERTEX
  8
0
 10
4.17814319
 20
7.28886287
  0
VERTEX
  8
0
 10
4.24178032
 20
7.32893960
  0
VERTEX
  8
0
 10
4.30620322
 20
7.36770506
  0
VERTEX
  8
0
 10
4.37140888
 20
7.40515676
  0
VERTEX
  8
0
 10
4.43739432
 20
7.44129223
  0
VERTEX
  8
0
 10
4.50415654
 20
7.47610902
  0
VERTEX
  8
0
 10
4.57169253
 20
7.50960465
  0
VERTEX
  8
0
 10
4.63999930
 20
7.54177664
  0
VERTEX
  8
0
 10
4.70907386
 20
7.57262255
  0
VERTEX
  8
0
 10
4.77891319
 20
7.60213989
  0
VERTEX
  8
0
 10
4.84951430
 20
7.63032619
  0
VERTEX
  8
0
 10
4.92087421
 20
7.65717899
  0
VERTEX
  8
0
 10
4.96966546
 20
7.67506912
  0
VERTEX
  8
0
 10
4.93876433
 20
7.71735488
  0
VERTEX
  8
0
 10
4.90898329
 20
7.75698489
  0
VERTEX
  8
0
 10
4.87943092
 20
7.79326863
  0
VERTEX
  8
0
 10
4.85016686
 20
7.82654512
  0
VERTEX
  8
0
 10
4.82125076
 20
7.85715339
  0
VERTEX
  8
0
 10
4.79274224
 20
7.88543247
  0
VERTEX
  8
0
 10
4.76470095
 20
7.91172138
  0
VERTEX
  8
0
 10
4.71025862
 20
7.95968478
  0
VERTEX
  8
0
 10
4.83465963
 20
7.97097133
  0
VERTEX
  8
0
 10
4.95692558
 20
7.97942359
  0
VERTEX
  8
0
 10
5.07708809
 20
7.98513018
  0
VERTEX
  8
0
 10
5.19517878
 20
7.98817974
  0
VERTEX
  8
0
 10
5.31122930
 20
7.98866091
  0
VERTEX
  8
0
 10
5.42527128
 20
7.98666232
  0
VERTEX
  8
0
 10
5.53733634
 20
7.98227261
  0
VERTEX
  8
0
 10
5.64745612
 20
7.97558042
  0
VERTEX
  8
0
 10
5.75566224
 20
7.96667437
  0
VERTEX
  8
0
 10
5.86198634
 20
7.95564311
  0
VERTEX
  8
0
 10
5.96646006
 20
7.94257526
  0
VERTEX
  8
0
 10
6.06911501
 20
7.92755947
  0
VERTEX
  8
0
 10
6.16998284
 20
7.91068437
  0
VERTEX
  8
0
 10
6.26909517
 20
7.89203859
  0
VERTEX
  8
0
 10
6.36648364
 20
7.87171077
  0
VERTEX
  8
0
 10
6.46217987
 20
7.84978955
  0
VERTEX
  8
0
 10
6.55621550
 20
7.82636356
  0
VERTEX
  8
0
 10
6.64862216
 20
7.80152143
  0
VERTEX
  8
0
 10
6.73943148
 20
7.77535181
  0
VERTEX
  8
0
 10
6.82867509
 20
7.74794331
  0
VERTEX
  8
0
 10
6.91638462
 20
7.71938459
  0
VERTEX
  8
0
 10
7.00259170
 20
7.68976428
  0
VERTEX
  8
0
 10
7.08732797
 20
7.65917101
  0
VERTEX
  8
0
 10
7.17062506
 20
7.62769341
  0
VERTEX
  8
0
 10
7.25251459
 20
7.59542012
  0
VERTEX
  8
0
 10
7.33302820
 20
7.56243979
  0
VERTEX
  8
0
 10
7.41219753
 20
7.52884103
  0
VERTEX
  8
0
 10
7.49005419
 20
7.49471249
  0
VERTEX
  8
0
 10
7.56662982
 20
7.46014280
  0
VERTEX
  8
0
 10
7.64195606
 20
7.42522060
  0
VERTEX
  8
0
 10
7.78898687
 20
7.35467321
  0
VERTEX
  8
0
 10
7.88250344
 20
7.30832151
  0
VERTEX
  8
0
 10
7.84184406
 20
7.40509084
  0
VERTEX
  8
0
 10
7.81427929
 20
7.46997013
  0
VERTEX
  8
0
 10
7.78719697
 20
7.52994975
  0
VERTEX
  8
0
 10
7.76048916
 20
7.58561689
  0
VERTEX
  8
0
 10
7.73404789
 20
7.63755873
  0
VERTEX
  8
0
 10
7.70776519
 20
7.68636243
  0
VERTEX
  8
0
 10
7.68153310
 20
7.73261518
  0
VERTEX
  8
0
 10
7.65524366
 20
7.77690415
  0
VERTEX
  8
0
 10
7.62878891
 20
7.81981651
  0
VERTEX
  8
0
 10
7.68255387
 20
7.78713442
  0
VERTEX
  8
0
 10
7.73534395
 20
7.75351430
  0
VERTEX
  8
0
 10
7.78719276
 20
7.71895947
  0
VERTEX
  8
0
 10
7.83813388
 20
7.68347326
  0
VERTEX
  8
0
 10
7.88820092
 20
7.64705897
  0
VERTEX
  8
0
 10
7.93742745
 20
7.60971992
  0
VERTEX
  8
0
 10
7.98584708
 20
7.57145943
  0
VERTEX
  8
0
 10
8.03349340
 20
7.53228081
  0
VERTEX
  8
0
 10
8.08039999
 20
7.49218738
  0
VERTEX
  8
0
 10
8.12660045
 20
7.45118246
  0
VERTEX
  8
0
 10
8.17212838
 20
7.40926936
  0
VERTEX
  8
0
 10
8.21701736
 20
7.36645139
  0
VERTEX
  8
0
 10
8.26130099
 20
7.32273188
  0
VERTEX
  8
0
 10
8.30501285
 20
7.27811414
  0
VERTEX
  8
0
 10
8.34818655
 20
7.23260149
  0
VERTEX
  8
0
 10
8.39085568
 20
7.18619723
  0
VERTEX
  8
0
 10
8.43305382
 20
7.13890470
  0
VERTEX
  8
0
 10
8.47481457
 20
7.09072720
  0
VERTEX
  8
0
 10
8.51617152
 20
7.04166805
  0
VERTEX
  8
0
 10
8.55715826
 20
6.99173056
  0
VERTEX
  8
0
 10
8.59780840
 20
6.94091806
  0
VERTEX
  8
0
 10
8.63815550
 20
6.88923385
  0
VERTEX
  8
0
 10
8.71807503
 20
6.78326360
  0
VERTEX
  8
0
 10
8.79718557
 20
6.67384633
  0
VERTEX
  8
0
 10
8.87575587
 20
6.56100857
  0
VERTEX
  8
0
 10
8.95405467
 20
6.44477685
  0
VERTEX
  8
0
 10
9.03235071
 20
6.32517771
  0
VERTEX
  8
0
 10
9.11854860
 20
6.19262813
  0
VERTEX
  8
0
 10
9.10472441
 20
6.34957333
  0
VERTEX
  8
0
 10
9.09648632
 20
6.43104057
  0
VERTEX
  8
0
 10
9.08601573
 20
6.51131060
  0
VERTEX
  8
0
 10
9.07336170
 20
6.59038014
  0
VERTEX
  8
0
 10
9.05857326
 20
6.66824592
  0
VERTEX
  8
0
 10
9.04169947
 20
6.74490468
  0
VERTEX
  8
0
 10
9.02278938
 20
6.82035314
  0
VERTEX
  8
0
 10
9.00189203
 20
6.89458802
  0
VERTEX
  8
0
 10
8.97905648
 20
6.96760606
  0
VERTEX
  8
0
 10
8.95433176
 20
7.03940398
  0
VERTEX
  8
0
 10
8.92776694
 20
7.10997852
  0
VERTEX
  8
0
 10
8.89941105
 20
7.17932640
  0
VERTEX
  8
0
 10
8.86931315
 20
7.24744434
  0
VERTEX
  8
0
 10
8.83752229
 20
7.31432908
  0
VERTEX
  8
0
 10
8.80408751
 20
7.37997735
  0
VERTEX
  8
0
 10
8.76905786
 20
7.44438587
  0
VERTEX
  8
0
 10
8.73248239
 20
7.50755136
  0
VERTEX
  8
0
 10
8.69441015
 20
7.56947057
  0
VERTEX
  8
0
 10
8.65489019
 20
7.63014022
  0
VERTEX
  8
0
 10
8.61397155
 20
7.68955703
  0
VERTEX
  8
0
 10
8.57170329
 20
7.74771773
  0
VERTEX
  8
0
 10
8.52813445
 20
7.80461906
  0
VERTEX
  8
0
 10
8.48331408
 20
7.86025773
  0
VERTEX
  8
0
 10
8.43729124
 20
7.91463049
  0
VERTEX
  8
0
 10
8.39011496
 20
7.96773405
  0
VERTEX
  8
0
 10
8.34183429
 20
8.01956514
  0
VERTEX
  8
0
 10
8.29249830
 20
8.07012049
  0
VERTEX
  8
0
 10
8.24215601
 20
8.11939684
  0
VERTEX
  8
0
 10
8.19085649
 20
8.16739090
  0
VERTEX
  8
0
 10
8.13864878
 20
8.21409941
  0
VERTEX
  8
0
 10
8.08558192
 20
8.25951909
  0
VERTEX
  8
0
 10
8.03170498
 20
8.30364668
  0
VERTEX
  8
0
 10
7.97706699
 20
8.34647890
  0
VERTEX
  8
0
 10
7.92171700
 20
8.38801247
  0
VERTEX
  8
0
 10
7.86570407
 20
8.42824414
  0
VERTEX
  8
0
 10
7.80907724
 20
8.46717061
  0
VERTEX
  8
0
 10
7.75188555
 20
8.50478863
  0
VERTEX
  8
0
 10
7.69417807
 20
8.54109493
  0
VERTEX
  8
0
 10
7.63600383
 20
8.57608622
  0
VERTEX
  8
0
 10
7.57741189
 20
8.60975924
  0
VERTEX
  8
0
 10
7.51845129
 20
8.64211071
  0
VERTEX
  8
0
 10
7.45917108
 20
8.67313737
  0
VERTEX
  8
0
 10
7.39962031
 20
8.70283594
  0
VERTEX
  8
0
 10
7.33984804
 20
8.73120315
  0
VERTEX
  8
0
 10
7.27990329
 20
8.75823573
  0
VERTEX
  8
0
 10
7.21983514
 20
8.78393041
  0
VERTEX
  8
0
 10
7.15969262
 20
8.80828391
  0
VERTEX
  8
0
 10
7.09952478
 20
8.83129296
  0
VERTEX
  8
0
 10
7.03938067
 20
8.85295429
  0
VERTEX
  8
0
 10
6.97930934
 20
8.87326463
  0
VERTEX
  8
0
 10
6.91935984
 20
8.89222071
  0
VERTEX
  8
0
 10
6.85958122
 20
8.90981925
  0
VERTEX
  8
0
 10
6.80002252
 20
8.92605699
  0
VERTEX
  8
0
 10
6.74073280
 20
8.94093065
  0
VERTEX
  8
0
 10
6.68176109
 20
8.95443695
  0
VERTEX
  8
0
 10
6.62315646
 20
8.96657264
  0
VERTEX
  8
0
 10
6.56496794
 20
8.97733443
  0
VERTEX
  8
0
 10
6.50724460
 20
8.98671905
  0
VERTEX
  8
0
 10
6.45003547
 20
8.99472323
  0
VERTEX
  8
0
 10
6.39338960
 20
9.00134371
  0
VERTEX
  8
0
 10
6.33735604
 20
9.00657720
  0
VERTEX
  8
0
 10
6.28198385
 20
9.01042044
  0
VERTEX
  8
0
 10
6.22732206
 20
9.01287015
  0
VERTEX
  8
0
 10
6.17341974
 20
9.01392307
  0
VERTEX
  8
0
 10
6.12032592
 20
9.01357591
  0
SEQEND
  0
POLYLINE
  8
Default_Layer
 66
   1
 39
0.000000
 70
    1
  0
VERTEX
  8
0
 10
6.30979863
 20
8.77287238
  0
VERTEX
  8
0
 10
6.19757874
 20
8.93307034
  0
VERTEX
  8
0
 10
6.24884378
 20
8.93139383
  0
VERTEX
  8
0
 10
6.30065815
 20
8.92840753
  0
VERTEX
  8
0
 10
6.35297964
 20
8.92412585
  0
VERTEX
  8
0
 10
6.40576604
 20
8.91856319
  0
VERTEX
  8
0
 10
6.45897516
 20
8.91173397
  0
VERTEX
  8
0
 10
6.51256480
 20
8.90365258
  0
VERTEX
  8
0
 10
6.56649275
 20
8.89433343
  0
VERTEX
  8
0
 10
6.62071682
 20
8.88379093
  0
VERTEX
  8
0
 10
6.67519481
 20
8.87203949
  0
VERTEX
  8
0
 10
6.72988450
 20
8.85909351
  0
VERTEX
  8
0
 10
6.78474371
 20
8.84496741
  0
VERTEX
  8
0
 10
6.83973023
 20
8.82967558
  0
VERTEX
  8
0
 10
6.89480187
 20
8.81323243
  0
VERTEX
  8
0
 10
6.94991641
 20
8.79565237
  0
VERTEX
  8
0
 10
7.00503166
 20
8.77694982
  0
VERTEX
  8
0
 10
7.06010542
 20
8.75713916
  0
VERTEX
  8
0
 10
7.11509548
 20
8.73623482
  0
VERTEX
  8
0
 10
7.16995966
 20
8.71425120
  0
VERTEX
  8
0
 10
7.22465573
 20
8.69120269
  0
VERTEX
  8
0
 10
7.27914152
 20
8.66710373
  0
VERTEX
  8
0
 10
7.33337480
 20
8.64196869
  0
VERTEX
  8
0
 10
7.38731339
 20
8.61581201
  0
VERTEX
  8
0
 10
7.44091508
 20
8.58864807
  0
VERTEX
  8
0
 10
7.49413768
 20
8.56049129
  0
VERTEX
  8
0
 10
7.54693897
 20
8.53135608
  0
VERTEX
  8
0
 10
7.59927676
 20
8.50125684
  0
VERTEX
  8
0
 10
7.65110885
 20
8.47020798
  0
VERTEX
  8
0
 10
7.70239304
 20
8.43822390
  0
VERTEX
  8
0
 10
7.75308713
 20
8.40531901
  0
VERTEX
  8
0
 10
7.80314891
 20
8.37150773
  0
VERTEX
  8
0
 10
7.85253619
 20
8.33680444
  0
VERTEX
  8
0
 10
7.90120676
 20
8.30122357
  0
VERTEX
  8
0
 10
7.94271007
 20
8.26975572
  0
VERTEX
  8
0
 10
7.98467989
 20
8.23684015
  0
VERTEX
  8
0
 10
8.02702479
 20
8.20246266
  0
VERTEX
  8
0
 10
8.06965330
 20
8.16660903
  0
VERTEX
  8
0
 10
8.11247400
 20
8.12926505
  0
VERTEX
  8
0
 10
8.15539543
 20
8.09041652
  0
VERTEX
  8
0
 10
8.19832616
 20
8.05004923
  0
VERTEX
  8
0
 10
8.24117474
 20
8.00814896
  0
VERTEX
  8
0
 10
8.28384972
 20
7.96470150
  0
VERTEX
  8
0
 10
8.32625967
 20
7.91969266
  0
VERTEX
  8
0
 10
8.36831313
 20
7.87310821
  0
VERTEX
  8
0
 10
8.40991867
 20
7.82493395
  0
VERTEX
  8
0
 10
8.45098484
 20
7.77515566
  0
VERTEX
  8
0
 10
8.49142020
 20
7.72375915
  0
VERTEX
  8
0
 10
8.53113330
 20
7.67073019
  0
VERTEX
  8
0
 10
8.57003270
 20
7.61605458
  0
VERTEX
  8
0
 10
8.60802696
 20
7.55971812
  0
VERTEX
  8
0
 10
8.64502463
 20
7.50170658
  0
VERTEX
  8
0
 10
8.68093427
 20
7.44200576
  0
VERTEX
  8
0
 10
8.71566444
 20
7.38060146
  0
VERTEX
  8
0
 10
8.74912368
 20
7.31747945
  0
VERTEX
  8
0
 10
8.78122057
 20
7.25262554
  0
VERTEX
  8
0
 10
8.81186365
 20
7.18602551
  0
VERTEX
  8
0
 10
8.84096148
 20
7.11766515
  0
VERTEX
  8
0
 10
8.86842262
 20
7.04753025
  0
VERTEX
  8
0
 10
8.89415562
 20
6.97560661
  0
VERTEX
  8
0
 10
8.91806904
 20
6.90188002
  0
VERTEX
  8
0
 10
8.94007143
 20
6.82633625
  0
VERTEX
  8
0
 10
8.96007136
 20
6.74896111
  0
VERTEX
  8
0
 10
8.97797737
 20
6.66974039
  0
VERTEX
  8
0
 10
8.99369803
 20
6.58865987
  0
VERTEX
  8
0
 10
9.00714189
 20
6.50570535
  0
VERTEX
  8
0
 10
8.92697791
 20
6.62419780
  0
VERTEX
  8
0
 10
8.84651165
 20
6.73928408
  0
VERTEX
  8
0
 10
8.76545107
 20
6.85092530
  0
VERTEX
  8
0
 10
8.68350412
 20
6.95908258
  0
VERTEX
  8
0
 10
8.64210700
 20
7.01184260
  0
VERTEX
  8
0
 10
8.60037878
 20
7.06371705
  0
VERTEX
  8
0
 10
8.55828294
 20
7.11470107
  0
VERTEX
  8
0
 10
8.51578298
 20
7.16478980
  0
VERTEX
  8
0
 10
8.47284240
 20
7.21397839
  0
VERTEX
  8
0
 10
8.42942469
 20
7.26226197
  0
VERTEX
  8
0
 10
8.38549335
 20
7.30963568
  0
VERTEX
  8
0
 10
8.34101187
 20
7.35609467
  0
VERTEX
  8
0
 10
8.29594375
 20
7.40163407
  0
VERTEX
  8
0
 10
8.25025247
 20
7.44624902
  0
VERTEX
  8
0
 10
8.20390154
 20
7.48993466
  0
VERTEX
  8
0
 10
8.15685445
 20
7.53268613
  0
VERTEX
  8
0
 10
8.10907470
 20
7.57449857
  0
VERTEX
  8
0
 10
8.06052577
 20
7.61536712
  0
VERTEX
  8
0
 10
8.01117117
 20
7.65528692
  0
VERTEX
  8
0
 10
7.96097438
 20
7.69425311
  0
VERTEX
  8
0
 10
7.90989891
 20
7.73226083
  0
VERTEX
  8
0
 10
7.85790824
 20
7.76930522
  0
VERTEX
  8
0
 10
7.80496588
 20
7.80538141
  0
VERTEX
  8
0
 10
7.75103531
 20
7.84048456
  0
VERTEX
  8
0
 10
7.69608004
 20
7.87460979
  0
VERTEX
  8
0
 10
7.64006355
 20
7.90775225
  0
VERTEX
  8
0
 10
7.58294934
 20
7.93990708
  0
VERTEX
  8
0
 10
7.52470090
 20
7.97106941
  0
VERTEX
  8
0
 10
7.39052495
 20
8.04181673
  0
VERTEX
  8
0
 10
7.47428327
 20
7.91414628
  0
VERTEX
  8
0
 10
7.53915198
 20
7.81416141
  0
VERTEX
  8
0
 10
7.57065910
 20
7.76365372
  0
VERTEX
  8
0
 10
7.60179636
 20
7.71163574
  0
VERTEX
  8
0
 10
7.63275000
 20
7.65723237
  0
VERTEX
  8
0
 10
7.66370624
 20
7.59956852
  0
VERTEX
  8
0
 10
7.69485130
 20
7.53776911
  0
VERTEX
  8
0
 10
7.72637143
 20
7.47095903
  0
VERTEX
  8
0
 10
7.65570903
 20
7.50428324
  0
VERTEX
  8
0
 10
7.58345423
 20
7.53755520
  0
VERTEX
  8
0
 10
7.50959358
 20
7.57067794
  0
VERTEX
  8
0
 10
7.43411361
 20
7.60355450
  0
VERTEX
  8
0
 10
7.35700088
 20
7.63608789
  0
VERTEX
  8
0
 10
7.27824193
 20
7.66818114
  0
VERTEX
  8
0
 10
7.19782331
 20
7.69973728
  0
VERTEX
  8
0
 10
7.11573156
 20
7.73065934
  0
VERTEX
  8
0
 10
7.03195323
 20
7.76085033
  0
VERTEX
  8
0
 10
6.94647486
 20
7.79021330
  0
VERTEX
  8
0
 10
6.85928300
 20
7.81865126
  0
VERTEX
  8
0
 10
6.77036419
 20
7.84606724
  0
VERTEX
  8
0
 10
6.67970499
 20
7.87236427
  0
VERTEX
  8
0
 10
6.58729193
 20
7.89744538
  0
VERTEX
  8
0
 10
6.49311157
 20
7.92121358
  0
VERTEX
  8
0
 10
6.39715045
 20
7.94357192
  0
VERTEX
  8
0
 10
6.29939510
 20
7.96442340
  0
VERTEX
  8
0
 10
6.19983209
 20
7.98367107
  0
VERTEX
  8
0
 10
6.09844796
 20
8.00121794
  0
VERTEX
  8
0
 10
5.99522924
 20
8.01696705
  0
VERTEX
  8
0
 10
5.89016249
 20
8.03082141
  0
VERTEX
  8
0
 10
5.78323426
 20
8.04268406
  0
VERTEX
  8
0
 10
5.67443108
 20
8.05245802
  0
VERTEX
  8
0
 10
5.56373951
 20
8.06004632
  0
VERTEX
  8
0
 10
5.45114609
 20
8.06535199
  0
VERTEX
  8
0
 10
5.33663736
 20
8.06827805
  0
VERTEX
  8
0
 10
5.22019987
 20
8.06872752
  0
VERTEX
  8
0
 10
5.10182017
 20
8.06660345
  0
VERTEX
  8
0
 10
4.98148481
 20
8.06180884
  0
VERTEX
  8
0
 10
4.85918032
 20
8.05424673
  0
VERTEX
  8
0
 10
4.73489326
 20
8.04382014
  0
VERTEX
  8
0
 10
4.60861017
 20
8.03043210
  0
VERTEX
  8
0
 10
4.51834634
 20
8.01904748
  0
VERTEX
  8
0
 10
4.62650030
 20
7.92797047
  0
VERTEX
  8
0
 10
4.67787033
 20
7.88385927
  0
VERTEX
  8
0
 10
4.70447241
 20
7.85990670
  0
VERTEX
  8
0
 10
4.73158480
 20
7.83434532
  0
VERTEX
  8
0
 10
4.75913169
 20
7.80691702
  0
VERTEX
  8
0
 10
4.78703729
 20
7.77736367
  0
VERTEX
  8
0
 10
4.81522579
 20
7.74542716
  0
VERTEX
  8
0
 10
4.84362138
 20
7.71084938
  0
VERTEX
  8
0
 10
4.77756063
 20
7.68496815
  0
VERTEX
  8
0
 10
4.71214869
 20
7.65794595
  0
VERTEX
  8
0
 10
4.64738784
 20
7.62978528
  0
VERTEX
  8
0
 10
4.58328034
 20
7.60048869
  0
VERTEX
  8
0
 10
4.51982846
 20
7.57005868
  0
VERTEX
  8
0
 10
4.45703447
 20
7.53849780
  0
VERTEX
  8
0
 10
4.39490064
 20
7.50580855
  0
VERTEX
  8
0
 10
4.33342923
 20
7.47199346
  0
VERTEX
  8
0
 10
4.27262252
 20
7.43705507
  0
VERTEX
  8
0
 10
4.21248277
 20
7.40099588
  0
VERTEX
  8
0
 10
4.15301225
 20
7.36381844
  0
VERTEX
  8
0
 10
4.09421323
 20
7.32552525
  0
VERTEX
  8
0
 10
4.03608798
 20
7.28611885
  0
VERTEX
  8
0
 10
3.97863876
 20
7.24560176
  0
VERTEX
  8
0
 10
3.92186784
 20
7.20397650
  0
VERTEX
  8
0
 10
3.86577750
 20
7.16124560
  0
VERTEX
  8
0
 10
3.81036999
 20
7.11741158
  0
VERTEX
  8
0
 10
3.75564759
 20
7.07247697
  0
VERTEX
  8
0
 10
3.70161257
 20
7.02644429
  0
VERTEX
  8
0
 10
3.64826720
 20
6.97931606
  0
VERTEX
  8
0
 10
3.59561373
 20
6.93109482
  0
VERTEX
  8
0
 10
3.54365445
 20
6.88178307
  0
VERTEX
  8
0
 10
3.49239161
 20
6.83138336
  0
VERTEX
  8
0
 10
3.44182749
 20
6.77989819
  0
VERTEX
  8
0
 10
3.39196436
 20
6.72733010
  0
VERTEX
  8
0
 10
3.34280448
 20
6.67368162
  0
VERTEX
  8
0
 10
3.29435012
 20
6.61895525
  0
VERTEX
  8
0
 10
3.24660355
 20
6.56315354
  0
VERTEX
  8
0
 10
3.19956704
 20
6.50627899
  0
VERTEX
  8
0
 10
3.15324286
 20
6.44833415
  0
VERTEX
  8
0
 10
3.10763327
 20
6.38932152
  0
VERTEX
  8
0
 10
3.06274054
 20
6.32924364
  0
VERTEX
  8
0
 10
3.07693103
 20
6.39838010
  0
VERTEX
  8
0
 10
3.09218131
 20
6.46556102
  0
VERTEX
  8
0
 10
3.10844108
 20
6.53082973
  0
VERTEX
  8
0
 10
3.12566002
 20
6.59422954
  0
VERTEX
  8
0
 10
3.14378785
 20
6.65580374
  0
VERTEX
  8
0
 10
3.16277425
 20
6.71559565
  0
VERTEX
  8
0
 10
3.18256892
 20
6.77364858
  0
VERTEX
  8
0
 10
3.20312155
 20
6.83000582
  0
VERTEX
  8
0
 10
3.22438184
 20
6.88471070
  0
VERTEX
  8
0
 10
3.24629949
 20
6.93780651
  0
VERTEX
  8
0
 10
3.26882419
 20
6.98933657
  0
VERTEX
  8
0
 10
3.29190563
 20
7.03934418
  0
VERTEX
  8
0
 10
3.31549353
 20
7.08787265
  0
VERTEX
  8
0
 10
3.33953756
 20
7.13496529
  0
VERTEX
  8
0
 10
3.36398742
 20
7.18066540
  0
VERTEX
  8
0
 10
3.38879282
 20
7.22501629
  0
VERTEX
  8
0
 10
3.41390344
 20
7.26806127
  0
VERTEX
  8
0
 10
3.43926898
 20
7.30984365
  0
VERTEX
  8
0
 10
3.46483914
 20
7.35040673
  0
VERTEX
  8
0
 10
3.49056362
 20
7.38979383
  0
VERTEX
  8
0
 10
3.54227429
 20
7.46521328
  0
VERTEX
  8
0
 10
3.59399856
 20
7.53644848
  0
VERTEX
  8
0
 10
3.64533401
 20
7.60384587
  0
VERTEX
  8
0
 10
3.69587818
 20
7.66775191
  0
VERTEX
  8
0
 10
3.79298301
 20
7.78647582
  0
VERTEX
  8
0
 10
3.93935677
 20
7.96619028
  0
VERTEX
  8
0
 10
3.85803801
 20
7.96862985
  0
VERTEX
  8
0
 10
3.70597193
 20
7.97350897
  0
VERTEX
  8
0
 10
3.75418613
 20
8.01672927
  0
VERTEX
  8
0
 10
3.80309893
 20
8.05831081
  0
VERTEX
  8
0
 10
3.85266405
 20
8.09828418
  0
VERTEX
  8
0
 10
3.90283521
 20
8.13667999
  0
VERTEX
  8
0
 10
3.95356611
 20
8.17352886
  0
VERTEX
  8
0
 10
4.00481046
 20
8.20886139
  0
VERTEX
  8
0
 10
4.05652199
 20
8.24270818
  0
VERTEX
  8
0
 10
4.10865440
 20
8.27509985
  0
VERTEX
  8
0
 10
4.16116141
 20
8.30606700
  0
VERTEX
  8
0
 10
4.21399674
 20
8.33564024
  0
VERTEX
  8
0
 10
4.26711408
 20
8.36385018
  0
VERTEX
  8
0
 10
4.32046717
 20
8.39072742
  0
VERTEX
  8
0
 10
4.37400970
 20
8.41630257
  0
VERTEX
  8
0
 10
4.42769540
 20
8.44060623
  0
VERTEX
  8
0
 10
4.48147798
 20
8.46366903
  0
VERTEX
  8
0
 10
4.53531115
 20
8.48552155
  0
VERTEX
  8
0
 10
4.58914862
 20
8.50619441
  0
VERTEX
  8
0
 10
4.64294412
 20
8.52571822
  0
VERTEX
  8
0
 10
4.69665134
 20
8.54412359
  0
VERTEX
  8
0
 10
4.75022400
 20
8.56144111
  0
VERTEX
  8
0
 10
4.80361583
 20
8.57770141
  0
VERTEX
  8
0
 10
4.85678052
 20
8.59293508
  0
VERTEX
  8
0
 10
4.90967180
 20
8.60717273
  0
VERTEX
  8
0
 10
4.96224338
 20
8.62044498
  0
VERTEX
  8
0
 10
5.01444897
 20
8.63278242
  0
VERTEX
  8
0
 10
5.06624228
 20
8.64421566
  0
VERTEX
  8
0
 10
5.16840692
 20
8.66449200
  0
VERTEX
  8
0
 10
5.26836702
 20
8.68151884
  0
VERTEX
  8
0
 10
5.36575229
 20
8.69554105
  0
VERTEX
  8
0
 10
5.46019242
 20
8.70680348
  0
VERTEX
  8
0
 10
5.55131713
 20
8.71555099
  0
VERTEX
  8
0
 10
5.63875611
 20
8.72202843
  0
VERTEX
  8
0
 10
5.72213908
 20
8.72648068
  0
VERTEX
  8
0
 10
5.80109575
 20
8.72915258
  0
VERTEX
  8
0
 10
5.87525581
 20
8.73028899
  0
VERTEX
  8
0
 10
5.94424899
 20
8.73013478
  0
VERTEX
  8
0
 10
6.00770497
 20
8.72893479
  0
VERTEX
  8
0
 10
6.06525347
 20
8.72693389
  0
VERTEX
  8
0
 10
6.11652419
 20
8.72437694
  0
VERTEX
  8
0
 10
6.19875114
 20
8.71857430
  0
VERTEX
  8
0
 10
6.25142346
 20
8.71348574
  0
VERTEX
  8
0
 10
6.27157881
 20
8.71107012
  0
VERTEX
  8
0
 10
6.36265582
 20
8.69724593
  0
VERTEX
  8
0
 10
6.30979863
 20
8.77287238
  0
SEQEND
  0
ENDSEC
  0
EOF
