  0
SECTION
  2
HEADER
  9
$ACADVER
  1
AC1009
  9
$DWGCODEPAGE
  3
ansi_1252
  9
$INSBASE
 10
0.0
 20
0.0
 30
0.0
  9
$EXTMIN
 10
-1.500473
 20
-0.122967
 30
0.0
  9
$EXTMAX
 10
40.630402
 20
38.699644
 30
0.0
  9
$LIMMIN
 10
0.0
 20
0.0
  9
$LIMMAX
 10
12.0
 20
9.0
  9
$ORTHOMODE
 70
     0
  9
$REGENMODE
 70
     1
  9
$FILLMODE
 70
     1
  9
$QTEXTMODE
 70
     0
  9
$MIRRTEXT
 70
     1
  9
$DRAGMODE
 70
     2
  9
$LTSCALE
 40
1.0
  9
$OSMODE
 70
    37
  9
$ATTMODE
 70
     1
  9
$TEXTSIZE
 40
0.2
  9
$TRACEWID
 40
0.05
  9
$TEXTSTYLE
  7
STANDARD
  9
$CLAYER
  8
0
  9
$CELTYPE
  6
BYBLOCK
  9
$CECOLOR
 62
   256
  9
$DIMSCALE
 40
1.0
  9
$DIMASZ
 40
0.18
  9
$DIMEXO
 40
0.0625
  9
$DIMDLI
 40
0.38
  9
$DIMRND
 40
0.0
  9
$DIMDLE
 40
0.0
  9
$DIMEXE
 40
0.18
  9
$DIMTP
 40
0.0
  9
$DIMTM
 40
0.0
  9
$DIMTXT
 40
0.18
  9
$DIMCEN
 40
0.09
  9
$DIMTSZ
 40
0.0
  9
$DIMTOL
 70
     0
  9
$DIMLIM
 70
     0
  9
$DIMTIH
 70
     1
  9
$DIMTOH
 70
     1
  9
$DIMSE1
 70
     0
  9
$DIMSE2
 70
     0
  9
$DIMTAD
 70
     0
  9
$DIMZIN
 70
     0
  9
$DIMBLK
  1

  9
$DIMASO
 70
     1
  9
$DIMSHO
 70
     1
  9
$DIMPOST
  1

  9
$DIMAPOST
  1

  9
$DIMALT
 70
     0
  9
$DIMALTD
 70
     2
  9
$DIMALTF
 40
25.4
  9
$DIMLFAC
 40
1.0
  9
$DIMTOFL
 70
     0
  9
$DIMTVP
 40
0.0
  9
$DIMTIX
 70
     0
  9
$DIMSOXD
 70
     0
  9
$DIMSAH
 70
     0
  9
$DIMBLK1
  1

  9
$DIMBLK2
  1

  9
$DIMSTYLE
  2
STANDARD
  9
$DIMCLRD
 70
     0
  9
$DIMCLRE
 70
     0
  9
$DIMCLRT
 70
     0
  9
$DIMTFAC
 40
1.0
  9
$DIMGAP
 40
0.09
  9
$LUNITS
 70
     2
  9
$LUPREC
 70
     4
  9
$SKETCHINC
 40
0.1
  9
$FILLETRAD
 40
0.5
  9
$AUNITS
 70
     0
  9
$AUPREC
 70
     0
  9
$MENU
  1
.
  9
$ELEVATION
 40
0.0
  9
$PELEVATION
 40
0.0
  9
$THICKNESS
 40
0.0
  9
$LIMCHECK
 70
     0
  9
$CHAMFERA
 40
0.5
  9
$CHAMFERB
 40
0.5
  9
$SKPOLY
 70
     0
  9
$TDCREATE
 40
2453353.508792488
  9
$TDUPDATE
 40
4910373.859588148
  9
$TDINDWG
 40
4895786.051922963
  9
$TDUSRTIMER
 40
4895786.051922963
  9
$USRTIMER
 70
     1
  9
$ANGBASE
 50
0.0
  9
$ANGDIR
 70
     0
  9
$PDMODE
 70
     0
  9
$PDSIZE
 40
0.0
  9
$PLINEWID
 40
0.0
  9
$COORDS
 70
     1
  9
$SPLFRAME
 70
     0
  9
$SPLINETYPE
 70
     6
  9
$SPLINESEGS
 70
     8
  9
$ATTDIA
 70
     0
  9
$ATTREQ
 70
     1
  9
$HANDLING
 70
     1
  9
$HANDSEED
  5
595
  9
$SURFTAB1
 70
     6
  9
$SURFTAB2
 70
     6
  9
$SURFTYPE
 70
     6
  9
$SURFU
 70
     6
  9
$SURFV
 70
     6
  9
$UCSNAME
  2

  9
$UCSORG
 10
0.0
 20
0.0
 30
0.0
  9
$UCSXDIR
 10
1.0
 20
0.0
 30
0.0
  9
$UCSYDIR
 10
0.0
 20
1.0
 30
0.0
  9
$PUCSNAME
  2

  9
$PUCSORG
 10
0.0
 20
0.0
 30
0.0
  9
$PUCSXDIR
 10
1.0
 20
0.0
 30
0.0
  9
$PUCSYDIR
 10
0.0
 20
1.0
 30
0.0
  9
$USERI1
 70
     0
  9
$USERI2
 70
     0
  9
$USERI3
 70
     0
  9
$USERI4
 70
     0
  9
$USERI5
 70
     0
  9
$USERR1
 40
0.0
  9
$USERR2
 40
0.0
  9
$USERR3
 40
0.0
  9
$USERR4
 40
0.0
  9
$USERR5
 40
0.0
  9
$WORLDVIEW
 70
     1
  9
$SHADEDGE
 70
     3
  9
$SHADEDIF
 70
    70
  9
$TILEMODE
 70
     1
  9
$MAXACTVP
 70
    64
  9
$PLIMCHECK
 70
     0
  9
$PEXTMIN
 10
0.0
 20
0.0
 30
0.0
  9
$PEXTMAX
 10
0.0
 20
0.0
 30
0.0
  9
$PLIMMIN
 10
0.0
 20
0.0
  9
$PLIMMAX
 10
0.0
 20
0.0
  9
$UNITMODE
 70
     0
  9
$VISRETAIN
 70
     1
  9
$PLINEGEN
 70
     0
  9
$PSLTSCALE
 70
     1
  0
ENDSEC
  0
SECTION
  2
TABLES
  0
TABLE
  2
VPORT
 70
     1
  0
VPORT
  2
*ACTIVE
 70
     0
 10
0.0
 20
0.0
 11
1.0
 21
1.0
 12
27.1681057597986
 22
20.20131962018326
 13
0.0
 23
0.0
 14
0.5
 24
0.5
 15
0.5
 25
0.5
 16
0.0
 26
0.0
 36
1.0
 17
0.0
 27
0.0
 37
0.0
 40
44.45479358575741
 41
1.972972972850329
 42
50.0
 43
0.0
 44
0.0
 50
0.0
 51
0.0
 71
    16
 72
   100
 73
     1
 74
     3
 75
     0
 76
     0
 77
     0
 78
     0
  0
ENDTAB
  0
TABLE
  2
LTYPE
 70
     1
  0
LTYPE
  2
CONTINUOUS
 70
     0
  3
Solid line
 72
    65
 73
     0
 40
0.0
  0
ENDTAB
  0
TABLE
  2
LAYER
 70
     2
  0
LAYER
  2
0
 70
     0
 62
     7
  6
CONTINUOUS
  0
LAYER
  2
LAYER_1
 70
     0
 62
     7
  6
CONTINUOUS
  0
ENDTAB
  0
TABLE
  2
STYLE
 70
     1
  0
STYLE
  2
STANDARD
 70
     0
 40
0.0
 41
1.0
 50
0.0
 71
     0
 42
0.2
  3
txt
  4

  0
ENDTAB
  0
TABLE
  2
VIEW
 70
     0
  0
ENDTAB
  0
TABLE
  2
UCS
 70
     0
  0
ENDTAB
  0
TABLE
  2
APPID
 70
     1
  0
APPID
  2
ACAD
 70
     0
  0
ENDTAB
  0
TABLE
  2
DIMSTYLE
 70
     1
  0
DIMSTYLE
  2
STANDARD
 70
     0
  3

  4

  5

  6

  7

 40
1.0
 41
0.18
 42
0.0625
 43
0.38
 44
0.18
 45
0.0
 46
0.0
 47
0.0
 48
0.0
140
0.18
141
0.09
142
0.0
143
25.4
144
1.0
145
0.0
146
1.0
147
0.09
 71
     0
 72
     0
 73
     1
 74
     1
 75
     0
 76
     0
 77
     0
 78
     0
170
     0
171
     2
172
     0
173
     0
174
     0
175
     0
176
     0
177
     0
178
     0
  0
ENDTAB
  0
ENDSEC
  0
SECTION
  2
BLOCKS
  0
BLOCK
  8
0
  2
$MODEL_SPACE
 70
     0
 10
0.0
 20
0.0
 30
0.0
  3
$MODEL_SPACE
  1

  0
ENDBLK
  5
21
  8
0
  0
BLOCK
 67
     1
  8
0
  2
$PAPER_SPACE
 70
     0
 10
0.0
 20
0.0
 30
0.0
  3
$PAPER_SPACE
  1

  0
ENDBLK
  5
76
 67
     1
  8
0
  0
ENDSEC
  0
SECTION
  2
ENTITIES
  0
LINE
  5
57E
  8
LAYER_1
 10
8.724767999999999
 20
0.037902
 30
0.0
 11
7.659757
 21
0.334242
 31
0.0
  0
LINE
  5
57F
  8
LAYER_1
 10
7.659757
 20
0.334242
 30
0.0
 11
6.966348
 21
0.812666
 31
0.0
  0
LINE
  5
23
  8
LAYER_1
 10
6.966348
 20
0.812666
 30
0.0
 11
6.630239
 21
1.416494
 31
0.0
  0
LINE
  5
24
  8
LAYER_1
 10
6.630239
 20
1.416494
 30
0.0
 11
6.637127
 21
2.089048
 31
0.0
  0
LINE
  5
25
  8
LAYER_1
 10
6.637127
 20
2.089048
 30
0.0
 11
6.97271
 21
2.77365
 31
0.0
  0
LINE
  5
26
  8
LAYER_1
 10
6.97271
 20
2.77365
 30
0.0
 11
7.622686
 21
3.413619
 31
0.0
  0
LINE
  5
580
  8
LAYER_1
 10
7.622686
 20
3.413619
 30
0.0
 11
8.572751
 21
3.952277
 31
0.0
  0
LINE
  5
28
  8
LAYER_1
 10
8.572751
 20
3.952277
 30
0.0
 11
9.808602000000001
 21
4.332946
 31
0.0
  0
LINE
  5
29
  8
LAYER_1
 10
9.808602000000001
 20
4.332946
 30
0.0
 11
10.635574
 21
4.503149
 31
0.0
  0
LINE
  5
2A
  8
LAYER_1
 10
10.635574
 20
4.503149
 30
0.0
 11
9.166743
 21
5.558398
 31
0.0
  0
LINE
  5
2B
  8
LAYER_1
 10
9.166743
 20
5.558398
 30
0.0
 11
7.965899
 21
6.571793
 31
0.0
  0
LINE
  5
2C
  8
LAYER_1
 10
7.965899
 20
6.571793
 30
0.0
 11
7.141381
 21
7.526412
 31
0.0
  0
LINE
  5
2D
  8
LAYER_1
 10
7.141381
 20
7.526412
 30
0.0
 11
6.72891
 21
8.521112000000001
 31
0.0
  0
LINE
  5
2E
  8
LAYER_1
 10
6.72891
 20
8.521112000000001
 30
0.0
 11
6.59349
 21
9.605014000000001
 31
0.0
  0
LINE
  5
2F
  8
LAYER_1
 10
6.59349
 20
9.605014000000001
 30
0.0
 11
6.73474
 21
10.63951
 31
0.0
  0
LINE
  5
30
  8
LAYER_1
 10
6.73474
 20
10.63951
 30
0.0
 11
7.152277
 21
11.485994
 31
0.0
  0
LINE
  5
31
  8
LAYER_1
 10
7.152277
 20
11.485994
 30
0.0
 11
7.721812
 21
12.210041
 31
0.0
  0
LINE
  5
32
  8
LAYER_1
 10
7.721812
 20
12.210041
 30
0.0
 11
7.089481
 21
12.652941
 31
0.0
  0
LINE
  5
33
  8
LAYER_1
 10
7.089481
 20
12.652941
 30
0.0
 11
6.563189
 21
12.965508
 31
0.0
  0
LINE
  5
34
  8
LAYER_1
 10
6.563189
 20
12.965508
 30
0.0
 11
6.142881
 21
13.072628
 31
0.0
  0
LINE
  5
35
  8
LAYER_1
 10
6.142881
 20
13.072628
 30
0.0
 11
5.786966
 21
12.974796
 31
0.0
  0
LINE
  5
36
  8
LAYER_1
 10
5.786966
 20
12.974796
 30
0.0
 11
5.453853
 21
12.67251
 31
0.0
  0
LINE
  5
37
  8
LAYER_1
 10
5.453853
 20
12.67251
 30
0.0
 11
5.02211
 21
12.373531
 31
0.0
  0
LINE
  5
38
  8
LAYER_1
 10
5.02211
 20
12.373531
 30
0.0
 11
4.477455
 21
12.249177
 31
0.0
  0
LINE
  5
39
  8
LAYER_1
 10
4.477455
 20
12.249177
 30
0.0
 11
3.687409
 21
11.917566
 31
0.0
  0
LINE
  5
3A
  8
LAYER_1
 10
3.687409
 20
11.917566
 30
0.0
 11
2.665683
 21
11.120288
 31
0.0
  0
LINE
  5
3B
  8
LAYER_1
 10
2.665683
 20
11.120288
 30
0.0
 11
1.568334
 21
10.26251
 31
0.0
  0
LINE
  5
3C
  8
LAYER_1
 10
1.568334
 20
10.26251
 30
0.0
 11
0.66435
 21
9.991398
 31
0.0
  0
LINE
  5
3D
  8
LAYER_1
 10
0.66435
 20
9.991398
 30
0.0
 11
0.005802
 21
10.103617
 31
0.0
  0
LINE
  5
3E
  8
LAYER_1
 10
0.005802
 20
10.103617
 30
0.0
 11
-0.535496
 21
10.408533
 31
0.0
  0
LINE
  5
3F
  8
LAYER_1
 10
-0.535496
 20
10.408533
 30
0.0
 11
-0.902273
 21
10.858535
 31
0.0
  0
LINE
  5
40
  8
LAYER_1
 10
-0.902273
 20
10.858535
 30
0.0
 11
-1.037258
 21
11.406013
 31
0.0
  0
LINE
  5
41
  8
LAYER_1
 10
-1.037258
 20
11.406013
 30
0.0
 11
-1.126011
 21
11.833504
 31
0.0
  0
LINE
  5
42
  8
LAYER_1
 10
-1.126011
 20
11.833504
 30
0.0
 11
-1.339394
 21
12.120373
 31
0.0
  0
LINE
  5
43
  8
LAYER_1
 10
-1.339394
 20
12.120373
 30
0.0
 11
-1.500473
 21
12.586752
 31
0.0
  0
LINE
  5
44
  8
LAYER_1
 10
-1.500473
 20
12.586752
 30
0.0
 11
-1.453847
 21
13.450794
 31
0.0
  0
LINE
  5
45
  8
LAYER_1
 10
-1.453847
 20
13.450794
 30
0.0
 11
-1.24006
 21
14.426131
 31
0.0
  0
LINE
  5
46
  8
LAYER_1
 10
-1.24006
 20
14.426131
 30
0.0
 11
-0.899654
 21
15.226393
 31
0.0
  0
LINE
  5
47
  8
LAYER_1
 10
-0.899654
 20
15.226393
 30
0.0
 11
-0.299461
 21
15.789056
 31
0.0
  0
LINE
  5
48
  8
LAYER_1
 10
-0.299461
 20
15.789056
 30
0.0
 11
0.630184
 21
16.329724
 31
0.0
  0
LINE
  5
49
  8
LAYER_1
 10
0.630184
 20
16.329724
 30
0.0
 11
1.543235
 21
16.86657
 31
0.0
  0
LINE
  5
4A
  8
LAYER_1
 10
1.543235
 20
16.86657
 30
0.0
 11
1.646909
 21
17.122125
 31
0.0
  0
LINE
  5
4B
  8
LAYER_1
 10
1.646909
 20
17.122125
 30
0.0
 11
1.579757
 21
17.444731
 31
0.0
  0
LINE
  5
4C
  8
LAYER_1
 10
1.579757
 20
17.444731
 30
0.0
 11
1.369292
 21
18.397532
 31
0.0
  0
LINE
  5
4D
  8
LAYER_1
 10
1.369292
 20
18.397532
 30
0.0
 11
1.390719
 21
19.349278
 31
0.0
  0
LINE
  5
4E
  8
LAYER_1
 10
1.390719
 20
19.349278
 30
0.0
 11
1.626588
 21
20.179152
 31
0.0
  0
LINE
  5
4F
  8
LAYER_1
 10
1.626588
 20
20.179152
 30
0.0
 11
2.059453
 21
20.766332
 31
0.0
  0
LINE
  5
50
  8
LAYER_1
 10
2.059453
 20
20.766332
 30
0.0
 11
2.540697
 21
21.063369
 31
0.0
  0
LINE
  5
51
  8
LAYER_1
 10
2.540697
 20
21.063369
 30
0.0
 11
3.012753
 21
21.19475
 31
0.0
  0
LINE
  5
52
  8
LAYER_1
 10
3.012753
 20
21.19475
 30
0.0
 11
3.816394
 21
21.03163
 31
0.0
  0
LINE
  5
53
  8
LAYER_1
 10
3.816394
 20
21.03163
 30
0.0
 11
4.091526
 21
20.772674
 31
0.0
  0
LINE
  5
54
  8
LAYER_1
 10
4.091526
 20
20.772674
 30
0.0
 11
4.244564
 21
20.419152
 31
0.0
  0
LINE
  5
55
  8
LAYER_1
 10
4.244564
 20
20.419152
 30
0.0
 11
4.247283
 21
19.988834
 31
0.0
  0
LINE
  5
56
  8
LAYER_1
 10
4.247283
 20
19.988834
 30
0.0
 11
4.071455
 21
19.499495
 31
0.0
  0
LINE
  5
57
  8
LAYER_1
 10
4.071455
 20
19.499495
 30
0.0
 11
3.876308
 21
18.822424
 31
0.0
  0
LINE
  5
58
  8
LAYER_1
 10
3.876308
 20
18.822424
 30
0.0
 11
4.03361
 21
18.200162
 31
0.0
  0
LINE
  5
581
  8
LAYER_1
 10
4.03361
 20
18.200162
 30
0.0
 11
4.534681
 21
17.648188
 31
0.0
  0
LINE
  5
582
  8
LAYER_1
 10
4.534681
 20
17.648188
 30
0.0
 11
5.370843
 21
17.181978
 31
0.0
  0
LINE
  5
5B
  8
LAYER_1
 10
5.370843
 20
17.181978
 30
0.0
 11
6.210095
 21
16.715203
 31
0.0
  0
LINE
  5
5C
  8
LAYER_1
 10
6.210095
 20
16.715203
 30
0.0
 11
6.787778
 21
16.194666
 31
0.0
  0
LINE
  5
5D
  8
LAYER_1
 10
6.787778
 20
16.194666
 30
0.0
 11
7.164922
 21
15.799998
 31
0.0
  0
LINE
  5
583
  8
LAYER_1
 10
7.164922
 20
15.799998
 30
0.0
 11
7.522025
 21
15.635844
 31
0.0
  0
LINE
  5
5F
  8
LAYER_1
 10
7.522025
 20
15.635844
 30
0.0
 11
9.552133
 21
14.524153
 31
0.0
  0
LINE
  5
60
  8
LAYER_1
 10
9.552133
 20
14.524153
 30
0.0
 11
10.795758
 21
13.796145
 31
0.0
  0
LINE
  5
61
  8
LAYER_1
 10
10.795758
 20
13.796145
 30
0.0
 11
11.416384
 21
13.606931
 31
0.0
  0
LINE
  5
62
  8
LAYER_1
 10
11.416384
 20
13.606931
 30
0.0
 11
12.054578
 21
15.212511
 31
0.0
  0
LINE
  5
63
  8
LAYER_1
 10
12.054578
 20
15.212511
 30
0.0
 11
13.168651
 21
17.764716
 31
0.0
  0
LINE
  5
64
  8
LAYER_1
 10
13.168651
 20
17.764716
 30
0.0
 11
13.821507
 21
18.905811
 31
0.0
  0
LINE
  5
65
  8
LAYER_1
 10
13.821507
 20
18.905811
 30
0.0
 11
13.125777
 21
19.430601
 31
0.0
  0
LINE
  5
66
  8
LAYER_1
 10
13.125777
 20
19.430601
 30
0.0
 11
12.464996
 21
19.785416
 31
0.0
  0
LINE
  5
67
  8
LAYER_1
 10
12.464996
 20
19.785416
 30
0.0
 11
11.909113
 21
19.630062
 31
0.0
  0
LINE
  5
68
  8
LAYER_1
 10
11.909113
 20
19.630062
 30
0.0
 11
11.462787
 21
19.380938
 31
0.0
  0
LINE
  5
69
  8
LAYER_1
 10
11.462787
 20
19.380938
 30
0.0
 11
11.219584
 21
19.377726
 31
0.0
  0
LINE
  5
6A
  8
LAYER_1
 10
11.219584
 20
19.377726
 30
0.0
 11
11.098297
 21
20.315528
 31
0.0
  0
LINE
  5
584
  8
LAYER_1
 10
11.098297
 20
20.315528
 30
0.0
 11
11.098297
 21
21.326324
 31
0.0
  0
LINE
  5
585
  8
LAYER_1
 10
11.098297
 20
21.326324
 30
0.0
 11
10.132866
 21
20.729655
 31
0.0
  0
LINE
  5
6D
  8
LAYER_1
 10
10.132866
 20
20.729655
 30
0.0
 11
9.392345000000001
 21
20.378526
 31
0.0
  0
LINE
  5
6E
  8
LAYER_1
 10
9.392345000000001
 20
20.378526
 30
0.0
 11
8.998666999999999
 21
20.406056
 31
0.0
  0
LINE
  5
6F
  8
LAYER_1
 10
8.998666999999999
 20
20.406056
 30
0.0
 11
8.968267000000001
 21
20.967491
 31
0.0
  0
LINE
  5
70
  8
LAYER_1
 10
8.968267000000001
 20
20.967491
 30
0.0
 11
9.122291000000001
 21
21.954938
 31
0.0
  0
LINE
  5
71
  8
LAYER_1
 10
9.122291000000001
 20
21.954938
 30
0.0
 11
9.706326000000001
 21
23.856051
 31
0.0
  0
LINE
  5
72
  8
LAYER_1
 10
9.706326000000001
 20
23.856051
 30
0.0
 11
9.835711999999999
 21
24.235014
 31
0.0
  0
LINE
  5
586
  8
LAYER_1
 10
9.835711999999999
 20
24.235014
 30
0.0
 11
9.685506
 21
24.375089
 31
0.0
  0
LINE
  5
587
  8
LAYER_1
 10
9.685506
 20
24.375089
 30
0.0
 11
8.518055
 21
23.94059
 31
0.0
  0
LINE
  5
588
  8
LAYER_1
 10
8.518055
 20
23.94059
 30
0.0
 11
7.516165
 21
23.639458
 31
0.0
  0
LINE
  5
589
  8
LAYER_1
 10
7.516165
 20
23.639458
 30
0.0
 11
7.48628
 21
24.176723
 31
0.0
  0
LINE
  5
77
  8
LAYER_1
 10
7.48628
 20
24.176723
 30
0.0
 11
7.853438
 21
25.092425
 31
0.0
  0
LINE
  5
78
  8
LAYER_1
 10
7.853438
 20
25.092425
 30
0.0
 11
8.496107
 21
26.149179
 31
0.0
  0
LINE
  5
79
  8
LAYER_1
 10
8.496107
 20
26.149179
 30
0.0
 11
9.292752999999999
 21
27.109598
 31
0.0
  0
LINE
  5
7A
  8
LAYER_1
 10
9.292752999999999
 20
27.109598
 30
0.0
 11
10.056326
 21
27.990352
 31
0.0
  0
LINE
  5
7B
  8
LAYER_1
 10
10.056326
 20
27.990352
 30
0.0
 11
10.178957
 21
28.244605
 31
0.0
  0
LINE
  5
7C
  8
LAYER_1
 10
10.178957
 20
28.244605
 30
0.0
 11
10.103092
 21
28.335844
 31
0.0
  0
LINE
  5
7D
  8
LAYER_1
 10
10.103092
 20
28.335844
 30
0.0
 11
9.802542000000001
 21
28.389182
 31
0.0
  0
LINE
  5
7E
  8
LAYER_1
 10
9.802542000000001
 20
28.389182
 30
0.0
 11
9.687666
 21
28.534447
 31
0.0
  0
LINE
  5
7F
  8
LAYER_1
 10
9.687666
 20
28.534447
 30
0.0
 11
9.932531000000001
 21
29.012275
 31
0.0
  0
LINE
  5
80
  8
LAYER_1
 10
9.932531000000001
 20
29.012275
 30
0.0
 11
10.672878
 21
29.592357
 31
0.0
  0
LINE
  5
81
  8
LAYER_1
 10
10.672878
 20
29.592357
 30
0.0
 11
11.743898
 21
30.097723
 31
0.0
  0
LINE
  5
82
  8
LAYER_1
 10
11.743898
 20
30.097723
 30
0.0
 11
12.775401
 21
30.454838
 31
0.0
  0
LINE
  5
83
  8
LAYER_1
 10
12.775401
 20
30.454838
 30
0.0
 11
11.853746
 21
31.619531
 31
0.0
  0
LINE
  5
84
  8
LAYER_1
 10
11.853746
 20
31.619531
 30
0.0
 11
11.05636
 21
32.762919
 31
0.0
  0
LINE
  5
85
  8
LAYER_1
 10
11.05636
 20
32.762919
 30
0.0
 11
10.444017
 21
33.89947
 31
0.0
  0
LINE
  5
86
  8
LAYER_1
 10
10.444017
 20
33.89947
 30
0.0
 11
10.089514
 21
34.870502
 31
0.0
  0
LINE
  5
87
  8
LAYER_1
 10
10.089514
 20
34.870502
 30
0.0
 11
10.065644
 21
35.517334
 31
0.0
  0
LINE
  5
88
  8
LAYER_1
 10
10.065644
 20
35.517334
 30
0.0
 11
10.454142
 21
35.792081
 31
0.0
  0
LINE
  5
89
  8
LAYER_1
 10
10.454142
 20
35.792081
 30
0.0
 11
11.258218
 21
35.934552
 31
0.0
  0
LINE
  5
8A
  8
LAYER_1
 10
11.258218
 20
35.934552
 30
0.0
 11
13.536884
 21
35.881517
 31
0.0
  0
LINE
  5
8B
  8
LAYER_1
 10
13.536884
 20
35.881517
 30
0.0
 11
15.749204
 21
35.475919
 31
0.0
  0
LINE
  5
8C
  8
LAYER_1
 10
15.749204
 20
35.475919
 30
0.0
 11
16.470348
 21
35.177687
 31
0.0
  0
LINE
  5
8D
  8
LAYER_1
 10
16.470348
 20
35.177687
 30
0.0
 11
16.742742
 21
34.835448
 31
0.0
  0
LINE
  5
8E
  8
LAYER_1
 10
16.742742
 20
34.835448
 30
0.0
 11
16.951837
 21
34.725382
 31
0.0
  0
LINE
  5
8F
  8
LAYER_1
 10
16.951837
 20
34.725382
 30
0.0
 11
17.454556
 21
34.759077
 31
0.0
  0
LINE
  5
90
  8
LAYER_1
 10
17.454556
 20
34.759077
 30
0.0
 11
17.951313
 21
34.944296
 31
0.0
  0
LINE
  5
91
  8
LAYER_1
 10
17.951313
 20
34.944296
 30
0.0
 11
17.860407
 21
35.263813
 31
0.0
  0
LINE
  5
58A
  8
LAYER_1
 10
17.860407
 20
35.263813
 30
0.0
 11
17.225146
 21
35.686451
 31
0.0
  0
LINE
  5
58B
  8
LAYER_1
 10
17.225146
 20
35.686451
 30
0.0
 11
16.162068
 21
36.094499
 31
0.0
  0
LINE
  5
94
  8
LAYER_1
 10
16.162068
 20
36.094499
 30
0.0
 11
14.93298
 21
36.405795
 31
0.0
  0
LINE
  5
95
  8
LAYER_1
 10
14.93298
 20
36.405795
 30
0.0
 11
13.799689
 21
36.538178
 31
0.0
  0
LINE
  5
96
  8
LAYER_1
 10
13.799689
 20
36.538178
 30
0.0
 11
12.938496
 21
36.597336
 31
0.0
  0
LINE
  5
58C
  8
LAYER_1
 10
12.938496
 20
36.597336
 30
0.0
 11
13.356075
 21
36.839753
 31
0.0
  0
LINE
  5
58D
  8
LAYER_1
 10
13.356075
 20
36.839753
 30
0.0
 11
14.192176
 21
36.998395
 31
0.0
  0
LINE
  5
99
  8
LAYER_1
 10
14.192176
 20
36.998395
 30
0.0
 11
15.235949
 21
36.933252
 31
0.0
  0
LINE
  5
9A
  8
LAYER_1
 10
15.235949
 20
36.933252
 30
0.0
 11
16.358567
 21
36.664198
 31
0.0
  0
LINE
  5
9B
  8
LAYER_1
 10
16.358567
 20
36.664198
 30
0.0
 11
17.4312
 21
36.211106
 31
0.0
  0
LINE
  5
9C
  8
LAYER_1
 10
17.4312
 20
36.211106
 30
0.0
 11
18.526541
 21
35.75462
 31
0.0
  0
LINE
  5
9D
  8
LAYER_1
 10
18.526541
 20
35.75462
 30
0.0
 11
18.624179
 21
35.837627
 31
0.0
  0
LINE
  5
9E
  8
LAYER_1
 10
18.624179
 20
35.837627
 30
0.0
 11
18.464329
 21
36.080549
 31
0.0
  0
LINE
  5
9F
  8
LAYER_1
 10
18.464329
 20
36.080549
 30
0.0
 11
17.499758
 21
36.903385
 31
0.0
  0
LINE
  5
A0
  8
LAYER_1
 10
17.499758
 20
36.903385
 30
0.0
 11
15.88802
 21
37.937616
 31
0.0
  0
LINE
  5
A1
  8
LAYER_1
 10
15.88802
 20
37.937616
 30
0.0
 11
14.734028
 21
38.645768
 31
0.0
  0
LINE
  5
A2
  8
LAYER_1
 10
14.734028
 20
38.645768
 30
0.0
 11
14.833889
 21
38.699644
 31
0.0
  0
LINE
  5
A3
  8
LAYER_1
 10
14.833889
 20
38.699644
 30
0.0
 11
15.33163
 21
38.618702
 31
0.0
  0
LINE
  5
A4
  8
LAYER_1
 10
15.33163
 20
38.618702
 30
0.0
 11
16.296141
 21
38.363917
 31
0.0
  0
LINE
  5
A5
  8
LAYER_1
 10
16.296141
 20
38.363917
 30
0.0
 11
17.130273
 21
37.991972
 31
0.0
  0
LINE
  5
A6
  8
LAYER_1
 10
17.130273
 20
37.991972
 30
0.0
 11
17.856387
 21
37.490349
 31
0.0
  0
LINE
  5
A7
  8
LAYER_1
 10
17.856387
 20
37.490349
 30
0.0
 11
18.49684
 21
36.846528
 31
0.0
  0
LINE
  5
A8
  8
LAYER_1
 10
18.49684
 20
36.846528
 30
0.0
 11
19.138707
 21
36.217474
 31
0.0
  0
LINE
  5
A9
  8
LAYER_1
 10
19.138707
 20
36.217474
 30
0.0
 11
19.322694
 21
36.279935
 31
0.0
  0
LINE
  5
AA
  8
LAYER_1
 10
19.322694
 20
36.279935
 30
0.0
 11
19.526268
 21
36.563203
 31
0.0
  0
LINE
  5
AB
  8
LAYER_1
 10
19.526268
 20
36.563203
 30
0.0
 11
20.013179
 21
37.090538
 31
0.0
  0
LINE
  5
AC
  8
LAYER_1
 10
20.013179
 20
37.090538
 30
0.0
 11
20.740068
 21
37.627167
 31
0.0
  0
LINE
  5
AD
  8
LAYER_1
 10
20.740068
 20
37.627167
 30
0.0
 11
21.504731
 21
38.043853
 31
0.0
  0
LINE
  5
AE
  8
LAYER_1
 10
21.504731
 20
38.043853
 30
0.0
 11
22.104964
 21
38.211359
 31
0.0
  0
LINE
  5
AF
  8
LAYER_1
 10
22.104964
 20
38.211359
 30
0.0
 11
22.176291
 21
38.149563
 31
0.0
  0
LINE
  5
B0
  8
LAYER_1
 10
22.176291
 20
38.149563
 30
0.0
 11
22.057555
 21
37.981422
 31
0.0
  0
LINE
  5
B1
  8
LAYER_1
 10
22.057555
 20
37.981422
 30
0.0
 11
21.349105
 21
37.42881
 31
0.0
  0
LINE
  5
B2
  8
LAYER_1
 10
21.349105
 20
37.42881
 30
0.0
 11
20.236808
 21
36.602124
 31
0.0
  0
LINE
  5
B3
  8
LAYER_1
 10
20.236808
 20
36.602124
 30
0.0
 11
19.410383
 21
35.796359
 31
0.0
  0
LINE
  5
B4
  8
LAYER_1
 10
19.410383
 20
35.796359
 30
0.0
 11
18.895617
 21
35.04152
 31
0.0
  0
LINE
  5
B5
  8
LAYER_1
 10
18.895617
 20
35.04152
 30
0.0
 11
18.718297
 21
34.367616
 31
0.0
  0
LINE
  5
B6
  8
LAYER_1
 10
18.718297
 20
34.367616
 30
0.0
 11
18.718297
 21
33.655135
 31
0.0
  0
LINE
  5
B7
  8
LAYER_1
 10
18.718297
 20
33.655135
 30
0.0
 11
19.523282
 21
34.311601
 31
0.0
  0
LINE
  5
B8
  8
LAYER_1
 10
19.523282
 20
34.311601
 30
0.0
 11
20.05063
 21
34.886928
 31
0.0
  0
LINE
  5
B9
  8
LAYER_1
 10
20.05063
 20
34.886928
 30
0.0
 11
20.188102
 21
35.348316
 31
0.0
  0
LINE
  5
BA
  8
LAYER_1
 10
20.188102
 20
35.348316
 30
0.0
 11
20.313393
 21
35.815035
 31
0.0
  0
LINE
  5
BB
  8
LAYER_1
 10
20.313393
 20
35.815035
 30
0.0
 11
20.899506
 21
36.43051
 31
0.0
  0
LINE
  5
BC
  8
LAYER_1
 10
20.899506
 20
36.43051
 30
0.0
 11
21.856077
 21
37.118394
 31
0.0
  0
LINE
  5
BD
  8
LAYER_1
 10
21.856077
 20
37.118394
 30
0.0
 11
23.092742
 21
37.802342
 31
0.0
  0
LINE
  5
BE
  8
LAYER_1
 10
23.092742
 20
37.802342
 30
0.0
 11
24.536318
 21
38.325102
 31
0.0
  0
LINE
  5
BF
  8
LAYER_1
 10
24.536318
 20
38.325102
 30
0.0
 11
26.056075
 21
38.460148
 31
0.0
  0
LINE
  5
C0
  8
LAYER_1
 10
26.056075
 20
38.460148
 30
0.0
 11
27.608297
 21
38.429966
 31
0.0
  0
LINE
  5
C1
  8
LAYER_1
 10
27.608297
 20
38.429966
 30
0.0
 11
25.719643
 21
38.053646
 31
0.0
  0
LINE
  5
C2
  8
LAYER_1
 10
25.719643
 20
38.053646
 30
0.0
 11
22.989468
 21
37.216594
 31
0.0
  0
LINE
  5
C3
  8
LAYER_1
 10
22.989468
 20
37.216594
 30
0.0
 11
21.958812
 21
36.707069
 31
0.0
  0
LINE
  5
C4
  8
LAYER_1
 10
21.958812
 20
36.707069
 30
0.0
 11
21.4019
 21
36.242099
 31
0.0
  0
LINE
  5
C5
  8
LAYER_1
 10
21.4019
 20
36.242099
 30
0.0
 11
21.345365
 21
36.021836
 31
0.0
  0
LINE
  5
C6
  8
LAYER_1
 10
21.345365
 20
36.021836
 30
0.0
 11
21.537917
 21
35.972979
 31
0.0
  0
LINE
  5
C7
  8
LAYER_1
 10
21.537917
 20
35.972979
 30
0.0
 11
22.566592
 21
36.377439
 31
0.0
  0
LINE
  5
C8
  8
LAYER_1
 10
22.566592
 20
36.377439
 30
0.0
 11
23.578583
 21
36.659158
 31
0.0
  0
LINE
  5
C9
  8
LAYER_1
 10
23.578583
 20
36.659158
 30
0.0
 11
24.969532
 21
36.785654
 31
0.0
  0
LINE
  5
CA
  8
LAYER_1
 10
24.969532
 20
36.785654
 30
0.0
 11
26.313604
 21
36.743754
 31
0.0
  0
LINE
  5
CB
  8
LAYER_1
 10
26.313604
 20
36.743754
 30
0.0
 11
27.184964
 21
36.520288
 31
0.0
  0
LINE
  5
CC
  8
LAYER_1
 10
27.184964
 20
36.520288
 30
0.0
 11
27.261436
 21
36.396397
 31
0.0
  0
LINE
  5
CD
  8
LAYER_1
 10
27.261436
 20
36.396397
 30
0.0
 11
27.037619
 21
36.309847
 31
0.0
  0
LINE
  5
CE
  8
LAYER_1
 10
27.037619
 20
36.309847
 30
0.0
 11
25.632742
 21
36.238534
 31
0.0
  0
LINE
  5
CF
  8
LAYER_1
 10
25.632742
 20
36.238534
 30
0.0
 11
23.065998
 21
36.046658
 31
0.0
  0
LINE
  5
D0
  8
LAYER_1
 10
23.065998
 20
36.046658
 30
0.0
 11
22.540317
 21
35.778089
 31
0.0
  0
LINE
  5
D1
  8
LAYER_1
 10
22.540317
 20
35.778089
 30
0.0
 11
22.387186
 21
35.358484
 31
0.0
  0
LINE
  5
D2
  8
LAYER_1
 10
22.387186
 20
35.358484
 30
0.0
 11
22.398777
 21
34.998717
 31
0.0
  0
LINE
  5
D3
  8
LAYER_1
 10
22.398777
 20
34.998717
 30
0.0
 11
22.535687
 21
34.868594
 31
0.0
  0
LINE
  5
D4
  8
LAYER_1
 10
22.535687
 20
34.868594
 30
0.0
 11
23.798297
 21
35.250288
 31
0.0
  0
LINE
  5
D5
  8
LAYER_1
 10
23.798297
 20
35.250288
 30
0.0
 11
25.244854
 21
35.57716
 31
0.0
  0
LINE
  5
D6
  8
LAYER_1
 10
25.244854
 20
35.57716
 30
0.0
 11
26.827762
 21
35.681441
 31
0.0
  0
LINE
  5
D7
  8
LAYER_1
 10
26.827762
 20
35.681441
 30
0.0
 11
28.142456
 21
35.564848
 31
0.0
  0
LINE
  5
D8
  8
LAYER_1
 10
28.142456
 20
35.564848
 30
0.0
 11
28.572796
 21
35.424262
 31
0.0
  0
LINE
  5
D9
  8
LAYER_1
 10
28.572796
 20
35.424262
 30
0.0
 11
28.784369
 21
35.229102
 31
0.0
  0
LINE
  5
DA
  8
LAYER_1
 10
28.784369
 20
35.229102
 30
0.0
 11
28.821655
 21
34.535349
 31
0.0
  0
LINE
  5
DB
  8
LAYER_1
 10
28.821655
 20
34.535349
 30
0.0
 11
28.57639
 21
33.590322
 31
0.0
  0
LINE
  5
DC
  8
LAYER_1
 10
28.57639
 20
33.590322
 30
0.0
 11
28.105939
 21
32.552909
 31
0.0
  0
LINE
  5
DD
  8
LAYER_1
 10
28.105939
 20
32.552909
 30
0.0
 11
27.467663
 21
31.582002
 31
0.0
  0
LINE
  5
DE
  8
LAYER_1
 10
27.467663
 20
31.582002
 30
0.0
 11
26.620519
 21
30.308663
 31
0.0
  0
LINE
  5
DF
  8
LAYER_1
 10
26.620519
 20
30.308663
 30
0.0
 11
26.955303
 21
30.108692
 31
0.0
  0
LINE
  5
E0
  8
LAYER_1
 10
26.955303
 20
30.108692
 30
0.0
 11
27.760209
 21
29.919074
 31
0.0
  0
LINE
  5
E1
  8
LAYER_1
 10
27.760209
 20
29.919074
 30
0.0
 11
28.524375
 21
29.693534
 31
0.0
  0
LINE
  5
E2
  8
LAYER_1
 10
28.524375
 20
29.693534
 30
0.0
 11
29.007071
 21
29.350049
 31
0.0
  0
LINE
  5
E3
  8
LAYER_1
 10
29.007071
 20
29.350049
 30
0.0
 11
29.143786
 21
28.964545
 31
0.0
  0
LINE
  5
E4
  8
LAYER_1
 10
29.143786
 20
28.964545
 30
0.0
 11
28.87001
 21
28.612943
 31
0.0
  0
LINE
  5
E5
  8
LAYER_1
 10
28.87001
 20
28.612943
 30
0.0
 11
28.741627
 21
28.464035
 31
0.0
  0
LINE
  5
E6
  8
LAYER_1
 10
28.741627
 20
28.464035
 30
0.0
 11
28.784039
 21
28.260438
 31
0.0
  0
LINE
  5
E7
  8
LAYER_1
 10
28.784039
 20
28.260438
 30
0.0
 11
29.433489
 21
27.594768
 31
0.0
  0
LINE
  5
E8
  8
LAYER_1
 10
29.433489
 20
27.594768
 30
0.0
 11
30.138217
 21
26.833446
 31
0.0
  0
LINE
  5
E9
  8
LAYER_1
 10
30.138217
 20
26.833446
 30
0.0
 11
30.771531
 21
25.861518
 31
0.0
  0
LINE
  5
EA
  8
LAYER_1
 10
30.771531
 20
25.861518
 30
0.0
 11
31.230476
 21
24.864565
 31
0.0
  0
LINE
  5
EB
  8
LAYER_1
 10
31.230476
 20
24.864565
 30
0.0
 11
31.412101
 21
24.028168
 31
0.0
  0
LINE
  5
EC
  8
LAYER_1
 10
31.412101
 20
24.028168
 30
0.0
 11
31.389374
 21
23.766192
 31
0.0
  0
LINE
  5
ED
  8
LAYER_1
 10
31.389374
 20
23.766192
 30
0.0
 11
31.262506
 21
23.670583
 31
0.0
  0
LINE
  5
EE
  8
LAYER_1
 10
31.262506
 20
23.670583
 30
0.0
 11
30.396056
 21
23.957612
 31
0.0
  0
LINE
  5
EF
  8
LAYER_1
 10
30.396056
 20
23.957612
 30
0.0
 11
29.281566
 21
24.384733
 31
0.0
  0
LINE
  5
F0
  8
LAYER_1
 10
29.281566
 20
24.384733
 30
0.0
 11
29.571482
 21
23.467511
 31
0.0
  0
LINE
  5
F1
  8
LAYER_1
 10
29.571482
 20
23.467511
 30
0.0
 11
29.962397
 21
21.901473
 31
0.0
  0
LINE
  5
F2
  8
LAYER_1
 10
29.962397
 20
21.901473
 30
0.0
 11
30.035782
 21
20.340049
 31
0.0
  0
LINE
  5
F3
  8
LAYER_1
 10
30.035782
 20
20.340049
 30
0.0
 11
29.725427
 21
20.353631
 31
0.0
  0
LINE
  5
F4
  8
LAYER_1
 10
29.725427
 20
20.353631
 30
0.0
 11
29.01941
 21
20.715844
 31
0.0
  0
LINE
  5
F5
  8
LAYER_1
 10
29.01941
 20
20.715844
 30
0.0
 11
28.03163
 21
21.326324
 31
0.0
  0
LINE
  5
F6
  8
LAYER_1
 10
28.03163
 20
21.326324
 30
0.0
 11
28.03163
 21
20.191073
 31
0.0
  0
LINE
  5
F7
  8
LAYER_1
 10
28.03163
 20
20.191073
 30
0.0
 11
27.95759
 21
19.358492
 31
0.0
  0
LINE
  5
F8
  8
LAYER_1
 10
27.95759
 20
19.358492
 30
0.0
 11
27.744751
 21
18.925814
 31
0.0
  0
LINE
  5
F9
  8
LAYER_1
 10
27.744751
 20
18.925814
 30
0.0
 11
27.407041
 21
18.904522
 31
0.0
  0
LINE
  5
FA
  8
LAYER_1
 10
27.407041
 20
18.904522
 30
0.0
 11
26.958385
 21
19.306099
 31
0.0
  0
LINE
  5
FB
  8
LAYER_1
 10
26.958385
 20
19.306099
 30
0.0
 11
26.423955
 21
19.751418
 31
0.0
  0
LINE
  5
FC
  8
LAYER_1
 10
26.423955
 20
19.751418
 30
0.0
 11
25.733834
 21
19.581664
 31
0.0
  0
LINE
  5
FD
  8
LAYER_1
 10
25.733834
 20
19.581664
 30
0.0
 11
25.002311
 21
19.24836
 31
0.0
  0
LINE
  5
FE
  8
LAYER_1
 10
25.002311
 20
19.24836
 30
0.0
 11
25.952528
 21
17.670372
 31
0.0
  0
LINE
  5
FF
  8
LAYER_1
 10
25.952528
 20
17.670372
 30
0.0
 11
26.902742
 21
15.723002
 31
0.0
  0
LINE
  5
100
  8
LAYER_1
 10
26.902742
 20
15.723002
 30
0.0
 11
26.985039
 21
15.357344
 31
0.0
  0
LINE
  5
101
  8
LAYER_1
 10
26.985039
 20
15.357344
 30
0.0
 11
27.191363
 21
15.411124
 31
0.0
  0
LINE
  5
102
  8
LAYER_1
 10
27.191363
 20
15.411124
 30
0.0
 11
27.732684
 21
16.537984
 31
0.0
  0
LINE
  5
103
  8
LAYER_1
 10
27.732684
 20
16.537984
 30
0.0
 11
28.173251
 21
17.656493
 31
0.0
  0
LINE
  5
104
  8
LAYER_1
 10
28.173251
 20
17.656493
 30
0.0
 11
28.754655
 21
18.571902
 31
0.0
  0
LINE
  5
105
  8
LAYER_1
 10
28.754655
 20
18.571902
 30
0.0
 11
29.460984
 21
19.277261
 31
0.0
  0
LINE
  5
106
  8
LAYER_1
 10
29.460984
 20
19.277261
 30
0.0
 11
30.276326
 21
19.765624
 31
0.0
  0
LINE
  5
107
  8
LAYER_1
 10
30.276326
 20
19.765624
 30
0.0
 11
31.18477
 21
20.03004
 31
0.0
  0
LINE
  5
108
  8
LAYER_1
 10
31.18477
 20
20.03004
 30
0.0
 11
32.170404
 21
20.063561
 31
0.0
  0
LINE
  5
109
  8
LAYER_1
 10
32.170404
 20
20.063561
 30
0.0
 11
33.217316
 21
19.859239
 31
0.0
  0
LINE
  5
10A
  8
LAYER_1
 10
33.217316
 20
19.859239
 30
0.0
 11
34.309595
 21
19.410125
 31
0.0
  0
LINE
  5
10B
  8
LAYER_1
 10
34.309595
 20
19.410125
 30
0.0
 11
34.976199
 21
19.147443
 31
0.0
  0
LINE
  5
10C
  8
LAYER_1
 10
34.976199
 20
19.147443
 30
0.0
 11
34.92283
 21
19.720208
 31
0.0
  0
LINE
  5
10D
  8
LAYER_1
 10
34.92283
 20
19.720208
 30
0.0
 11
34.940615
 21
20.606832
 31
0.0
  0
LINE
  5
10E
  8
LAYER_1
 10
34.940615
 20
20.606832
 30
0.0
 11
35.40812
 21
21.133916
 31
0.0
  0
LINE
  5
10F
  8
LAYER_1
 10
35.40812
 20
21.133916
 30
0.0
 11
36.163942
 21
21.220495
 31
0.0
  0
LINE
  5
110
  8
LAYER_1
 10
36.163942
 20
21.220495
 30
0.0
 11
37.046679
 21
20.785602
 31
0.0
  0
LINE
  5
111
  8
LAYER_1
 10
37.046679
 20
20.785602
 30
0.0
 11
37.450137
 21
20.245689
 31
0.0
  0
LINE
  5
112
  8
LAYER_1
 10
37.450137
 20
20.245689
 30
0.0
 11
37.672465
 21
19.476268
 31
0.0
  0
LINE
  5
113
  8
LAYER_1
 10
37.672465
 20
19.476268
 30
0.0
 11
37.700892
 21
18.563048
 31
0.0
  0
LINE
  5
114
  8
LAYER_1
 10
37.700892
 20
18.563048
 30
0.0
 11
37.522644
 21
17.591742
 31
0.0
  0
LINE
  5
115
  8
LAYER_1
 10
37.522644
 20
17.591742
 30
0.0
 11
37.442913
 21
17.186989
 31
0.0
  0
LINE
  5
116
  8
LAYER_1
 10
37.442913
 20
17.186989
 30
0.0
 11
37.534578
 21
16.898003
 31
0.0
  0
LINE
  5
117
  8
LAYER_1
 10
37.534578
 20
16.898003
 30
0.0
 11
38.486661
 21
16.335624
 31
0.0
  0
LINE
  5
118
  8
LAYER_1
 10
38.486661
 20
16.335624
 30
0.0
 11
39.425547
 21
15.790789
 31
0.0
  0
LINE
  5
119
  8
LAYER_1
 10
39.425547
 20
15.790789
 30
0.0
 11
40.029584
 21
15.226393
 31
0.0
  0
LINE
  5
11A
  8
LAYER_1
 10
40.029584
 20
15.226393
 30
0.0
 11
40.369989
 21
14.426131
 31
0.0
  0
LINE
  5
11B
  8
LAYER_1
 10
40.369989
 20
14.426131
 30
0.0
 11
40.583776
 21
13.450794
 31
0.0
  0
LINE
  5
11C
  8
LAYER_1
 10
40.583776
 20
13.450794
 30
0.0
 11
40.630402
 21
12.586752
 31
0.0
  0
LINE
  5
11D
  8
LAYER_1
 10
40.630402
 20
12.586752
 30
0.0
 11
40.469323
 21
12.120373
 31
0.0
  0
LINE
  5
11E
  8
LAYER_1
 10
40.469323
 20
12.120373
 30
0.0
 11
40.25594
 21
11.833504
 31
0.0
  0
LINE
  5
11F
  8
LAYER_1
 10
40.25594
 20
11.833504
 30
0.0
 11
40.167187
 21
11.406013
 31
0.0
  0
LINE
  5
120
  8
LAYER_1
 10
40.167187
 20
11.406013
 30
0.0
 11
40.033073
 21
10.861926
 31
0.0
  0
LINE
  5
121
  8
LAYER_1
 10
40.033073
 20
10.861926
 30
0.0
 11
39.67007
 21
10.411547
 31
0.0
  0
LINE
  5
122
  8
LAYER_1
 10
39.67007
 20
10.411547
 30
0.0
 11
39.137186
 21
10.104747
 31
0.0
  0
LINE
  5
123
  8
LAYER_1
 10
39.137186
 20
10.104747
 30
0.0
 11
38.493429
 21
9.991398
 31
0.0
  0
LINE
  5
124
  8
LAYER_1
 10
38.493429
 20
9.991398
 30
0.0
 11
37.580717
 21
10.278198
 31
0.0
  0
LINE
  5
125
  8
LAYER_1
 10
37.580717
 20
10.278198
 30
0.0
 11
36.42417
 21
11.120288
 31
0.0
  0
LINE
  5
126
  8
LAYER_1
 10
36.42417
 20
11.120288
 30
0.0
 11
35.354756
 21
11.917566
 31
0.0
  0
LINE
  5
127
  8
LAYER_1
 10
35.354756
 20
11.917566
 30
0.0
 11
34.584547
 21
12.249177
 31
0.0
  0
LINE
  5
128
  8
LAYER_1
 10
34.584547
 20
12.249177
 30
0.0
 11
34.087866
 21
12.373531
 31
0.0
  0
LINE
  5
129
  8
LAYER_1
 10
34.087866
 20
12.373531
 30
0.0
 11
33.676076
 21
12.67251
 31
0.0
  0
LINE
  5
12A
  8
LAYER_1
 10
33.676076
 20
12.67251
 30
0.0
 11
33.342963
 21
12.974796
 31
0.0
  0
LINE
  5
12B
  8
LAYER_1
 10
33.342963
 20
12.974796
 30
0.0
 11
32.987048
 21
13.072628
 31
0.0
  0
LINE
  5
12C
  8
LAYER_1
 10
32.987048
 20
13.072628
 30
0.0
 11
32.56674
 21
12.965508
 31
0.0
  0
LINE
  5
12D
  8
LAYER_1
 10
32.56674
 20
12.965508
 30
0.0
 11
32.040449
 21
12.652941
 31
0.0
  0
LINE
  5
12E
  8
LAYER_1
 10
32.040449
 20
12.652941
 30
0.0
 11
31.408116
 21
12.210041
 31
0.0
  0
LINE
  5
12F
  8
LAYER_1
 10
31.408116
 20
12.210041
 30
0.0
 11
31.977652
 21
11.485994
 31
0.0
  0
LINE
  5
130
  8
LAYER_1
 10
31.977652
 20
11.485994
 30
0.0
 11
32.39519
 21
10.63951
 31
0.0
  0
LINE
  5
131
  8
LAYER_1
 10
32.39519
 20
10.63951
 30
0.0
 11
32.536439
 21
9.605014000000001
 31
0.0
  0
LINE
  5
132
  8
LAYER_1
 10
32.536439
 20
9.605014000000001
 30
0.0
 11
32.401019
 21
8.521112000000001
 31
0.0
  0
LINE
  5
133
  8
LAYER_1
 10
32.401019
 20
8.521112000000001
 30
0.0
 11
31.988548
 21
7.526412
 31
0.0
  0
LINE
  5
134
  8
LAYER_1
 10
31.988548
 20
7.526412
 30
0.0
 11
31.164029
 21
6.571793
 31
0.0
  0
LINE
  5
135
  8
LAYER_1
 10
31.164029
 20
6.571793
 30
0.0
 11
29.963186
 21
5.558398
 31
0.0
  0
LINE
  5
136
  8
LAYER_1
 10
29.963186
 20
5.558398
 30
0.0
 11
28.494355
 21
4.503149
 31
0.0
  0
LINE
  5
137
  8
LAYER_1
 10
28.494355
 20
4.503149
 30
0.0
 11
29.321325
 21
4.332946
 31
0.0
  0
LINE
  5
138
  8
LAYER_1
 10
29.321325
 20
4.332946
 30
0.0
 11
30.613451
 21
3.926854
 31
0.0
  0
LINE
  5
139
  8
LAYER_1
 10
30.613451
 20
3.926854
 30
0.0
 11
31.634776
 21
3.326945
 31
0.0
  0
LINE
  5
13A
  8
LAYER_1
 10
31.634776
 20
3.326945
 30
0.0
 11
32.305841
 21
2.595718
 31
0.0
  0
LINE
  5
13B
  8
LAYER_1
 10
32.305841
 20
2.595718
 30
0.0
 11
32.547187
 21
1.79567
 31
0.0
  0
LINE
  5
13C
  8
LAYER_1
 10
32.547187
 20
1.79567
 30
0.0
 11
32.439965
 21
1.267311
 31
0.0
  0
LINE
  5
13D
  8
LAYER_1
 10
32.439965
 20
1.267311
 30
0.0
 11
32.13454
 21
0.8210460000000001
 31
0.0
  0
LINE
  5
13E
  8
LAYER_1
 10
32.13454
 20
0.8210460000000001
 30
0.0
 11
31.65528
 21
0.464207
 31
0.0
  0
LINE
  5
13F
  8
LAYER_1
 10
31.65528
 20
0.464207
 30
0.0
 11
31.026551
 21
0.204128
 31
0.0
  0
LINE
  5
140
  8
LAYER_1
 10
31.026551
 20
0.204128
 30
0.0
 11
29.418146
 21
0.003578
 31
0.0
  0
LINE
  5
141
  8
LAYER_1
 10
29.418146
 20
0.003578
 30
0.0
 11
27.504253
 21
0.278059
 31
0.0
  0
LINE
  5
142
  8
LAYER_1
 10
27.504253
 20
0.278059
 30
0.0
 11
24.382044
 21
0.615268
 31
0.0
  0
LINE
  5
143
  8
LAYER_1
 10
24.382044
 20
0.615268
 30
0.0
 11
19.558899
 21
0.724587
 31
0.0
  0
LINE
  5
144
  8
LAYER_1
 10
19.558899
 20
0.724587
 30
0.0
 11
14.748053
 21
0.607414
 31
0.0
  0
LINE
  5
145
  8
LAYER_1
 10
14.748053
 20
0.607414
 30
0.0
 11
11.662742
 21
0.265145
 31
0.0
  0
LINE
  5
146
  8
LAYER_1
 10
11.662742
 20
0.265145
 30
0.0
 11
9.828296999999999
 21
-0.122967
 31
0.0
  0
LINE
  5
147
  8
LAYER_1
 10
9.828296999999999
 20
-0.122967
 30
0.0
 11
8.724767999999999
 21
0.037902
 31
0.0
  0
LINE
  5
148
  8
LAYER_1
 10
8.724767999999999
 20
0.037902
 30
0.0
 11
8.724767999999999
 21
0.037902
 31
0.0
  0
LINE
  5
149
  8
LAYER_1
 10
10.727147
 20
0.438285
 30
0.0
 11
12.179931
 21
0.717291
 31
0.0
  0
LINE
  5
14A
  8
LAYER_1
 10
12.179931
 20
0.717291
 30
0.0
 11
14.557138
 21
0.932174
 31
0.0
  0
LINE
  5
14B
  8
LAYER_1
 10
14.557138
 20
0.932174
 30
0.0
 11
17.592645
 21
1.101398
 31
0.0
  0
LINE
  5
14C
  8
LAYER_1
 10
17.592645
 20
1.101398
 30
0.0
 11
16.10936
 21
2.210966
 31
0.0
  0
LINE
  5
14D
  8
LAYER_1
 10
16.10936
 20
2.210966
 30
0.0
 11
15.054012
 21
2.874939
 31
0.0
  0
LINE
  5
14E
  8
LAYER_1
 10
15.054012
 20
2.874939
 30
0.0
 11
13.901042
 21
3.382467
 31
0.0
  0
LINE
  5
14F
  8
LAYER_1
 10
13.901042
 20
3.382467
 30
0.0
 11
12.698937
 21
3.729509
 31
0.0
  0
LINE
  5
150
  8
LAYER_1
 10
12.698937
 20
3.729509
 30
0.0
 11
11.496183
 21
3.912025
 31
0.0
  0
LINE
  5
151
  8
LAYER_1
 10
11.496183
 20
3.912025
 30
0.0
 11
10.341265
 21
3.925975
 31
0.0
  0
LINE
  5
152
  8
LAYER_1
 10
10.341265
 20
3.925975
 30
0.0
 11
9.282671000000001
 21
3.767319
 31
0.0
  0
LINE
  5
153
  8
LAYER_1
 10
9.282671000000001
 20
3.767319
 30
0.0
 11
8.368885000000001
 21
3.432015
 31
0.0
  0
LINE
  5
154
  8
LAYER_1
 10
8.368885000000001
 20
3.432015
 30
0.0
 11
7.648394
 21
2.916024
 31
0.0
  0
LINE
  5
155
  8
LAYER_1
 10
7.648394
 20
2.916024
 30
0.0
 11
7.170517
 21
2.332031
 31
0.0
  0
LINE
  5
156
  8
LAYER_1
 10
7.170517
 20
2.332031
 30
0.0
 11
6.904049
 21
1.792594
 31
0.0
  0
LINE
  5
157
  8
LAYER_1
 10
6.904049
 20
1.792594
 30
0.0
 11
6.879698
 21
1.396493
 31
0.0
  0
LINE
  5
158
  8
LAYER_1
 10
6.879698
 20
1.396493
 30
0.0
 11
7.128168
 21
1.242509
 31
0.0
  0
LINE
  5
159
  8
LAYER_1
 10
7.128168
 20
1.242509
 30
0.0
 11
7.36668
 21
1.408314
 31
0.0
  0
LINE
  5
15A
  8
LAYER_1
 10
7.36668
 20
1.408314
 30
0.0
 11
7.570519
 21
1.806953
 31
0.0
  0
LINE
  5
15B
  8
LAYER_1
 10
7.570519
 20
1.806953
 30
0.0
 11
7.775061
 21
2.205592
 31
0.0
  0
LINE
  5
15C
  8
LAYER_1
 10
7.775061
 20
2.205592
 30
0.0
 11
8.015262999999999
 21
2.371398
 31
0.0
  0
LINE
  5
15D
  8
LAYER_1
 10
8.015262999999999
 20
2.371398
 30
0.0
 11
8.10615
 21
2.216574
 31
0.0
  0
LINE
  5
15E
  8
LAYER_1
 10
8.10615
 20
2.216574
 30
0.0
 11
7.951704
 21
1.844339
 31
0.0
  0
LINE
  5
15F
  8
LAYER_1
 10
7.951704
 20
1.844339
 30
0.0
 11
7.776949
 21
1.361996
 31
0.0
  0
LINE
  5
160
  8
LAYER_1
 10
7.776949
 20
1.361996
 30
0.0
 11
7.802823
 21
0.892521
 31
0.0
  0
LINE
  5
161
  8
LAYER_1
 10
7.802823
 20
0.892521
 30
0.0
 11
8.001825999999999
 21
0.536831
 31
0.0
  0
LINE
  5
162
  8
LAYER_1
 10
8.001825999999999
 20
0.536831
 30
0.0
 11
8.346455000000001
 21
0.395842
 31
0.0
  0
LINE
  5
163
  8
LAYER_1
 10
8.346455000000001
 20
0.395842
 30
0.0
 11
8.707628
 21
0.65981
 31
0.0
  0
LINE
  5
164
  8
LAYER_1
 10
8.707628
 20
0.65981
 30
0.0
 11
9.055960000000001
 21
1.294455
 31
0.0
  0
LINE
  5
165
  8
LAYER_1
 10
9.055960000000001
 20
1.294455
 30
0.0
 11
9.350218
 21
1.874391
 31
0.0
  0
LINE
  5
166
  8
LAYER_1
 10
9.350218
 20
1.874391
 30
0.0
 11
9.581384
 21
2.006829
 31
0.0
  0
LINE
  5
167
  8
LAYER_1
 10
9.581384
 20
2.006829
 30
0.0
 11
9.608922
 21
1.749998
 31
0.0
  0
LINE
  5
168
  8
LAYER_1
 10
9.608922
 20
1.749998
 30
0.0
 11
9.413607000000001
 21
1.394034
 31
0.0
  0
LINE
  5
169
  8
LAYER_1
 10
9.413607000000001
 20
1.394034
 30
0.0
 11
9.229425000000001
 21
1.003763
 31
0.0
  0
LINE
  5
16A
  8
LAYER_1
 10
9.229425000000001
 20
1.003763
 30
0.0
 11
9.223618999999999
 21
0.584755
 31
0.0
  0
LINE
  5
16B
  8
LAYER_1
 10
9.223618999999999
 20
0.584755
 30
0.0
 11
9.374393
 21
0.250283
 31
0.0
  0
LINE
  5
16C
  8
LAYER_1
 10
9.374393
 20
0.250283
 30
0.0
 11
9.659955999999999
 21
0.11362
 31
0.0
  0
LINE
  5
16D
  8
LAYER_1
 10
9.659955999999999
 20
0.11362
 30
0.0
 11
10.727147
 21
0.438285
 31
0.0
  0
LINE
  5
16E
  8
LAYER_1
 10
10.727147
 20
0.438285
 30
0.0
 11
10.727147
 21
0.438285
 31
0.0
  0
LINE
  5
16F
  8
LAYER_1
 10
29.724965
 20
0.536953
 30
0.0
 11
29.934244
 21
0.961655
 31
0.0
  0
LINE
  5
170
  8
LAYER_1
 10
29.934244
 20
0.961655
 30
0.0
 11
29.719304
 21
1.390441
 31
0.0
  0
LINE
  5
171
  8
LAYER_1
 10
29.719304
 20
1.390441
 30
0.0
 11
29.521883
 21
1.748943
 31
0.0
  0
LINE
  5
172
  8
LAYER_1
 10
29.521883
 20
1.748943
 30
0.0
 11
29.548545
 21
2.006829
 31
0.0
  0
LINE
  5
173
  8
LAYER_1
 10
29.548545
 20
2.006829
 30
0.0
 11
29.779711
 21
1.874391
 31
0.0
  0
LINE
  5
174
  8
LAYER_1
 10
29.779711
 20
1.874391
 30
0.0
 11
30.07397
 21
1.294455
 31
0.0
  0
LINE
  5
175
  8
LAYER_1
 10
30.07397
 20
1.294455
 30
0.0
 11
30.422301
 21
0.65981
 31
0.0
  0
LINE
  5
176
  8
LAYER_1
 10
30.422301
 20
0.65981
 30
0.0
 11
30.783474
 21
0.395842
 31
0.0
  0
LINE
  5
177
  8
LAYER_1
 10
30.783474
 20
0.395842
 30
0.0
 11
31.128103
 21
0.536831
 31
0.0
  0
LINE
  5
178
  8
LAYER_1
 10
31.128103
 20
0.536831
 30
0.0
 11
31.327106
 21
0.892521
 31
0.0
  0
LINE
  5
179
  8
LAYER_1
 10
31.327106
 20
0.892521
 30
0.0
 11
31.352981
 21
1.361996
 31
0.0
  0
LINE
  5
17A
  8
LAYER_1
 10
31.352981
 20
1.361996
 30
0.0
 11
31.178226
 21
1.844339
 31
0.0
  0
LINE
  5
17B
  8
LAYER_1
 10
31.178226
 20
1.844339
 30
0.0
 11
31.023778
 21
2.216574
 31
0.0
  0
LINE
  5
17C
  8
LAYER_1
 10
31.023778
 20
2.216574
 30
0.0
 11
31.114667
 21
2.371398
 31
0.0
  0
LINE
  5
17D
  8
LAYER_1
 10
31.114667
 20
2.371398
 30
0.0
 11
31.354868
 21
2.205592
 31
0.0
  0
LINE
  5
17E
  8
LAYER_1
 10
31.354868
 20
2.205592
 30
0.0
 11
31.55941
 21
1.806953
 31
0.0
  0
LINE
  5
17F
  8
LAYER_1
 10
31.55941
 20
1.806953
 30
0.0
 11
31.756765
 21
1.422948
 31
0.0
  0
LINE
  5
180
  8
LAYER_1
 10
31.756765
 20
1.422948
 30
0.0
 11
31.98962
 21
1.257806
 31
0.0
  0
LINE
  5
181
  8
LAYER_1
 10
31.98962
 20
1.257806
 30
0.0
 11
32.18376
 21
1.328025
 31
0.0
  0
LINE
  5
182
  8
LAYER_1
 10
32.18376
 20
1.328025
 30
0.0
 11
32.264965
 21
1.650105
 31
0.0
  0
LINE
  5
183
  8
LAYER_1
 10
32.264965
 20
1.650105
 30
0.0
 11
32.049149
 21
2.279159
 31
0.0
  0
LINE
  5
184
  8
LAYER_1
 10
32.049149
 20
2.279159
 30
0.0
 11
31.482802
 21
2.917725
 31
0.0
  0
LINE
  5
185
  8
LAYER_1
 10
31.482802
 20
2.917725
 30
0.0
 11
30.687579
 21
3.460273
 31
0.0
  0
LINE
  5
186
  8
LAYER_1
 10
30.687579
 20
3.460273
 30
0.0
 11
29.785132
 21
3.801274
 31
0.0
  0
LINE
  5
187
  8
LAYER_1
 10
29.785132
 20
3.801274
 30
0.0
 11
28.573684
 21
3.894228
 31
0.0
  0
LINE
  5
188
  8
LAYER_1
 10
28.573684
 20
3.894228
 30
0.0
 11
26.992067
 21
3.810241
 31
0.0
  0
LINE
  5
189
  8
LAYER_1
 10
26.992067
 20
3.810241
 30
0.0
 11
25.492261
 21
3.593431
 31
0.0
  0
LINE
  5
18A
  8
LAYER_1
 10
25.492261
 20
3.593431
 30
0.0
 11
24.526247
 21
3.28792
 31
0.0
  0
LINE
  5
18B
  8
LAYER_1
 10
24.526247
 20
3.28792
 30
0.0
 11
21.578148
 21
1.084267
 31
0.0
  0
LINE
  5
18C
  8
LAYER_1
 10
21.578148
 20
1.084267
 30
0.0
 11
23.835926
 21
0.98294
 31
0.0
  0
LINE
  5
18D
  8
LAYER_1
 10
23.835926
 20
0.98294
 30
0.0
 11
25.876629
 21
0.860343
 31
0.0
  0
LINE
  5
18E
  8
LAYER_1
 10
25.876629
 20
0.860343
 30
0.0
 11
27.467186
 21
0.573399
 31
0.0
  0
LINE
  5
18F
  8
LAYER_1
 10
27.467186
 20
0.573399
 30
0.0
 11
29.068353
 21
0.168652
 31
0.0
  0
LINE
  5
190
  8
LAYER_1
 10
29.068353
 20
0.168652
 30
0.0
 11
29.432928
 21
0.257492
 31
0.0
  0
LINE
  5
191
  8
LAYER_1
 10
29.432928
 20
0.257492
 30
0.0
 11
29.724965
 21
0.536953
 31
0.0
  0
LINE
  5
192
  8
LAYER_1
 10
29.724965
 20
0.536953
 30
0.0
 11
29.724965
 21
0.536953
 31
0.0
  0
LINE
  5
193
  8
LAYER_1
 10
21.44744
 20
1.707549
 30
0.0
 11
22.211619
 21
2.210011
 31
0.0
  0
LINE
  5
194
  8
LAYER_1
 10
22.211619
 20
2.210011
 30
0.0
 11
22.306752
 21
2.481577
 31
0.0
  0
LINE
  5
195
  8
LAYER_1
 10
22.306752
 20
2.481577
 30
0.0
 11
22.260827
 21
2.836438
 31
0.0
  0
LINE
  5
196
  8
LAYER_1
 10
22.260827
 20
2.836438
 30
0.0
 11
22.19932
 21
3.194815
 31
0.0
  0
LINE
  5
197
  8
LAYER_1
 10
22.19932
 20
3.194815
 30
0.0
 11
22.28005
 21
3.394718
 31
0.0
  0
LINE
  5
198
  8
LAYER_1
 10
22.28005
 20
3.394718
 30
0.0
 11
23.096221
 21
3.500287
 31
0.0
  0
LINE
  5
199
  8
LAYER_1
 10
23.096221
 20
3.500287
 30
0.0
 11
23.826474
 21
3.597021
 31
0.0
  0
LINE
  5
19A
  8
LAYER_1
 10
23.826474
 20
3.597021
 30
0.0
 11
24.212652
 21
3.883981
 31
0.0
  0
LINE
  5
19B
  8
LAYER_1
 10
24.212652
 20
3.883981
 30
0.0
 11
24.252028
 21
4.356305
 31
0.0
  0
LINE
  5
19C
  8
LAYER_1
 10
24.252028
 20
4.356305
 30
0.0
 11
23.941878
 21
5.009131
 31
0.0
  0
LINE
  5
19D
  8
LAYER_1
 10
23.941878
 20
5.009131
 30
0.0
 11
23.644049
 21
5.635631
 31
0.0
  0
LINE
  5
19E
  8
LAYER_1
 10
23.644049
 20
5.635631
 30
0.0
 11
24.273209
 21
5.808043
 31
0.0
  0
LINE
  5
19F
  8
LAYER_1
 10
24.273209
 20
5.808043
 30
0.0
 11
24.894741
 21
6.048894
 31
0.0
  0
LINE
  5
1A0
  8
LAYER_1
 10
24.894741
 20
6.048894
 30
0.0
 11
25.177454
 21
6.49915
 31
0.0
  0
LINE
  5
1A1
  8
LAYER_1
 10
25.177454
 20
6.49915
 30
0.0
 11
25.092817
 21
7.019061
 31
0.0
  0
LINE
  5
1A2
  8
LAYER_1
 10
25.092817
 20
7.019061
 30
0.0
 11
24.612297
 21
7.468881
 31
0.0
  0
LINE
  5
1A3
  8
LAYER_1
 10
24.612297
 20
7.468881
 30
0.0
 11
23.980932
 21
7.806777
 31
0.0
  0
LINE
  5
1A4
  8
LAYER_1
 10
23.980932
 20
7.806777
 30
0.0
 11
24.73628
 21
8.202546
 31
0.0
  0
LINE
  5
1A5
  8
LAYER_1
 10
24.73628
 20
8.202546
 30
0.0
 11
25.273388
 21
8.598319
 31
0.0
  0
LINE
  5
1A6
  8
LAYER_1
 10
25.273388
 20
8.598319
 30
0.0
 11
25.461702
 21
9.010954
 31
0.0
  0
LINE
  5
1A7
  8
LAYER_1
 10
25.461702
 20
9.010954
 30
0.0
 11
25.299754
 21
9.396043000000001
 31
0.0
  0
LINE
  5
1A8
  8
LAYER_1
 10
25.299754
 20
9.396043000000001
 30
0.0
 11
24.786075
 21
9.709175
 31
0.0
  0
LINE
  5
1A9
  8
LAYER_1
 10
24.786075
 20
9.709175
 30
0.0
 11
24.298348
 21
9.946816
 31
0.0
  0
LINE
  5
1AA
  8
LAYER_1
 10
24.298348
 20
9.946816
 30
0.0
 11
24.115332
 21
10.188099
 31
0.0
  0
LINE
  5
1AB
  8
LAYER_1
 10
24.115332
 20
10.188099
 30
0.0
 11
24.23403
 21
10.456781
 31
0.0
  0
LINE
  5
1AC
  8
LAYER_1
 10
24.23403
 20
10.456781
 30
0.0
 11
24.651446
 21
10.77662
 31
0.0
  0
LINE
  5
1AD
  8
LAYER_1
 10
24.651446
 20
10.77662
 30
0.0
 11
25.051065
 21
11.172857
 31
0.0
  0
LINE
  5
1AE
  8
LAYER_1
 10
25.051065
 20
11.172857
 30
0.0
 11
24.92374
 21
11.691173
 31
0.0
  0
LINE
  5
1AF
  8
LAYER_1
 10
24.92374
 20
11.691173
 30
0.0
 11
24.54994
 21
12.085263
 31
0.0
  0
LINE
  5
1B0
  8
LAYER_1
 10
24.54994
 20
12.085263
 30
0.0
 11
24.070591
 21
12.249177
 31
0.0
  0
LINE
  5
1B1
  8
LAYER_1
 10
24.070591
 20
12.249177
 30
0.0
 11
23.69961
 21
12.27633
 31
0.0
  0
LINE
  5
1B2
  8
LAYER_1
 10
23.69961
 20
12.27633
 30
0.0
 11
23.548802
 21
12.391143
 31
0.0
  0
LINE
  5
1B3
  8
LAYER_1
 10
23.548802
 20
12.391143
 30
0.0
 11
23.856325
 21
13.083886
 31
0.0
  0
LINE
  5
1B4
  8
LAYER_1
 10
23.856325
 20
13.083886
 30
0.0
 11
24.0373
 21
13.626207
 31
0.0
  0
LINE
  5
1B5
  8
LAYER_1
 10
24.0373
 20
13.626207
 30
0.0
 11
23.715214
 21
14.160611
 31
0.0
  0
LINE
  5
1B6
  8
LAYER_1
 10
23.715214
 20
14.160611
 30
0.0
 11
23.256227
 21
14.841784
 31
0.0
  0
LINE
  5
1B7
  8
LAYER_1
 10
23.256227
 20
14.841784
 30
0.0
 11
23.295944
 21
15.013756
 31
0.0
  0
LINE
  5
1B8
  8
LAYER_1
 10
23.295944
 20
15.013756
 30
0.0
 11
23.515556
 21
15.0714
 31
0.0
  0
LINE
  5
1B9
  8
LAYER_1
 10
23.515556
 20
15.0714
 30
0.0
 11
24.034316
 21
14.636667
 31
0.0
  0
LINE
  5
1BA
  8
LAYER_1
 10
24.034316
 20
14.636667
 30
0.0
 11
24.718472
 21
13.566395
 31
0.0
  0
LINE
  5
1BB
  8
LAYER_1
 10
24.718472
 20
13.566395
 30
0.0
 11
25.374167
 21
12.211476
 31
0.0
  0
LINE
  5
1BC
  8
LAYER_1
 10
25.374167
 20
12.211476
 30
0.0
 11
25.807542
 21
10.9228
 31
0.0
  0
LINE
  5
1BD
  8
LAYER_1
 10
25.807542
 20
10.9228
 30
0.0
 11
26.169003
 21
9.834866
 31
0.0
  0
LINE
  5
1BE
  8
LAYER_1
 10
26.169003
 20
9.834866
 30
0.0
 11
26.572539
 21
9.289154999999999
 31
0.0
  0
LINE
  5
1BF
  8
LAYER_1
 10
26.572539
 20
9.289154999999999
 30
0.0
 11
27.298185
 21
9.560421
 31
0.0
  0
LINE
  5
1C0
  8
LAYER_1
 10
27.298185
 20
9.560421
 30
0.0
 11
28.576913
 21
10.658345
 31
0.0
  0
LINE
  5
1C1
  8
LAYER_1
 10
28.576913
 20
10.658345
 30
0.0
 11
30.146703
 21
11.984405
 31
0.0
  0
LINE
  5
1C2
  8
LAYER_1
 10
30.146703
 20
11.984405
 30
0.0
 11
31.714248
 21
13.016576
 31
0.0
  0
LINE
  5
1C3
  8
LAYER_1
 10
31.714248
 20
13.016576
 30
0.0
 11
33.2802
 21
13.839462
 31
0.0
  0
LINE
  5
1C4
  8
LAYER_1
 10
33.2802
 20
13.839462
 30
0.0
 11
33.792104
 21
13.160817
 31
0.0
  0
LINE
  5
1C5
  8
LAYER_1
 10
33.792104
 20
13.160817
 30
0.0
 11
34.314232
 21
12.688956
 31
0.0
  0
LINE
  5
1C6
  8
LAYER_1
 10
34.314232
 20
12.688956
 30
0.0
 11
34.856612
 21
12.62668
 31
0.0
  0
LINE
  5
1C7
  8
LAYER_1
 10
34.856612
 20
12.62668
 30
0.0
 11
35.515085
 21
12.476674
 31
0.0
  0
LINE
  5
1C8
  8
LAYER_1
 10
35.515085
 20
12.476674
 30
0.0
 11
36.413279
 21
11.659809
 31
0.0
  0
LINE
  5
1C9
  8
LAYER_1
 10
36.413279
 20
11.659809
 30
0.0
 11
37.223988
 21
10.894794
 31
0.0
  0
LINE
  5
1CA
  8
LAYER_1
 10
37.223988
 20
10.894794
 30
0.0
 11
37.973782
 21
10.449177
 31
0.0
  0
LINE
  5
1CB
  8
LAYER_1
 10
37.973782
 20
10.449177
 30
0.0
 11
38.635774
 21
10.333645
 31
0.0
  0
LINE
  5
1CC
  8
LAYER_1
 10
38.635774
 20
10.333645
 30
0.0
 11
39.183076
 21
10.558884
 31
0.0
  0
LINE
  5
1CD
  8
LAYER_1
 10
39.183076
 20
10.558884
 30
0.0
 11
39.481169
 21
10.901533
 31
0.0
  0
LINE
  5
1CE
  8
LAYER_1
 10
39.481169
 20
10.901533
 30
0.0
 11
39.613122
 21
11.283554
 31
0.0
  0
LINE
  5
1CF
  8
LAYER_1
 10
39.613122
 20
11.283554
 30
0.0
 11
39.410079
 21
12.112358
 31
0.0
  0
LINE
  5
1D0
  8
LAYER_1
 10
39.410079
 20
12.112358
 30
0.0
 11
38.636895
 21
12.93858
 31
0.0
  0
LINE
  5
1D1
  8
LAYER_1
 10
38.636895
 20
12.93858
 30
0.0
 11
37.356517
 21
13.655504
 31
0.0
  0
LINE
  5
1D2
  8
LAYER_1
 10
37.356517
 20
13.655504
 30
0.0
 11
36.7504
 21
13.98154
 31
0.0
  0
LINE
  5
1D3
  8
LAYER_1
 10
36.7504
 20
13.98154
 30
0.0
 11
36.498299
 21
14.266219
 31
0.0
  0
LINE
  5
1D4
  8
LAYER_1
 10
36.498299
 20
14.266219
 30
0.0
 11
36.777727
 21
14.32289
 31
0.0
  0
LINE
  5
1D5
  8
LAYER_1
 10
36.777727
 20
14.32289
 30
0.0
 11
37.461142
 21
14.025838
 31
0.0
  0
LINE
  5
1D6
  8
LAYER_1
 10
37.461142
 20
14.025838
 30
0.0
 11
39.110714
 21
12.867929
 31
0.0
  0
LINE
  5
1D7
  8
LAYER_1
 10
39.110714
 20
12.867929
 30
0.0
 11
39.75551
 21
12.401189
 31
0.0
  0
LINE
  5
1D8
  8
LAYER_1
 10
39.75551
 20
12.401189
 30
0.0
 11
40.158111
 21
12.409434
 31
0.0
  0
LINE
  5
1D9
  8
LAYER_1
 10
40.158111
 20
12.409434
 30
0.0
 11
40.281078
 21
12.884
 31
0.0
  0
LINE
  5
1DA
  8
LAYER_1
 10
40.281078
 20
12.884
 30
0.0
 11
39.969517
 21
13.516605
 31
0.0
  0
LINE
  5
1DB
  8
LAYER_1
 10
39.969517
 20
13.516605
 30
0.0
 11
39.294171
 21
14.212052
 31
0.0
  0
LINE
  5
1DC
  8
LAYER_1
 10
39.294171
 20
14.212052
 30
0.0
 11
38.325786
 21
14.875142
 31
0.0
  0
LINE
  5
1DD
  8
LAYER_1
 10
38.325786
 20
14.875142
 30
0.0
 11
37.541359
 21
15.377297
 31
0.0
  0
LINE
  5
1DE
  8
LAYER_1
 10
37.541359
 20
15.377297
 30
0.0
 11
37.46403
 21
15.485808
 31
0.0
  0
LINE
  5
1DF
  8
LAYER_1
 10
37.46403
 20
15.485808
 30
0.0
 11
37.627187
 21
15.473114
 31
0.0
  0
LINE
  5
1E0
  8
LAYER_1
 10
37.627187
 20
15.473114
 30
0.0
 11
39.125104
 21
14.721364
 31
0.0
  0
LINE
  5
1E1
  8
LAYER_1
 10
39.125104
 20
14.721364
 30
0.0
 11
39.734694
 21
14.377117
 31
0.0
  0
LINE
  5
1E2
  8
LAYER_1
 10
39.734694
 20
14.377117
 30
0.0
 11
40.087632
 21
14.333326
 31
0.0
  0
LINE
  5
1E3
  8
LAYER_1
 10
40.087632
 20
14.333326
 30
0.0
 11
40.078407
 21
14.657507
 31
0.0
  0
LINE
  5
1E4
  8
LAYER_1
 10
40.078407
 20
14.657507
 30
0.0
 11
39.654418
 21
15.12632
 31
0.0
  0
LINE
  5
1E5
  8
LAYER_1
 10
39.654418
 20
15.12632
 30
0.0
 11
37.909209
 21
16.200382
 31
0.0
  0
LINE
  5
1E6
  8
LAYER_1
 10
37.909209
 20
16.200382
 30
0.0
 11
36.775981
 21
16.837131
 31
0.0
  0
LINE
  5
1E7
  8
LAYER_1
 10
36.775981
 20
16.837131
 30
0.0
 11
36.735795
 21
17.069043
 31
0.0
  0
LINE
  5
1E8
  8
LAYER_1
 10
36.735795
 20
17.069043
 30
0.0
 11
36.949798
 21
17.360299
 31
0.0
  0
LINE
  5
1E9
  8
LAYER_1
 10
36.949798
 20
17.360299
 30
0.0
 11
37.25634
 21
17.978327
 31
0.0
  0
LINE
  5
1EA
  8
LAYER_1
 10
37.25634
 20
17.978327
 30
0.0
 11
37.387292
 21
18.818829
 31
0.0
  0
LINE
  5
1EB
  8
LAYER_1
 10
37.387292
 20
18.818829
 30
0.0
 11
37.332477
 21
19.657402
 31
0.0
  0
LINE
  5
1EC
  8
LAYER_1
 10
37.332477
 20
19.657402
 30
0.0
 11
37.08172
 21
20.269645
 31
0.0
  0
LINE
  5
1ED
  8
LAYER_1
 10
37.08172
 20
20.269645
 30
0.0
 11
36.35051
 21
20.801173
 31
0.0
  0
LINE
  5
1EE
  8
LAYER_1
 10
36.35051
 20
20.801173
 30
0.0
 11
35.68647
 21
20.778539
 31
0.0
  0
LINE
  5
1EF
  8
LAYER_1
 10
35.68647
 20
20.778539
 30
0.0
 11
35.291189
 21
20.297579
 31
0.0
  0
LINE
  5
1F0
  8
LAYER_1
 10
35.291189
 20
20.297579
 30
0.0
 11
35.36626
 21
19.454128
 31
0.0
  0
LINE
  5
1F1
  8
LAYER_1
 10
35.36626
 20
19.454128
 30
0.0
 11
35.493804
 21
18.659736
 31
0.0
  0
LINE
  5
1F2
  8
LAYER_1
 10
35.493804
 20
18.659736
 30
0.0
 11
35.284297
 21
17.931197
 31
0.0
  0
LINE
  5
1F3
  8
LAYER_1
 10
35.284297
 20
17.931197
 30
0.0
 11
34.770353
 21
17.328523
 31
0.0
  0
LINE
  5
1F4
  8
LAYER_1
 10
34.770353
 20
17.328523
 30
0.0
 11
33.984588
 21
16.911726
 31
0.0
  0
LINE
  5
1F5
  8
LAYER_1
 10
33.984588
 20
16.911726
 30
0.0
 11
33.234229
 21
16.505113
 31
0.0
  0
LINE
  5
1F6
  8
LAYER_1
 10
33.234229
 20
16.505113
 30
0.0
 11
32.794239
 21
15.972294
 31
0.0
  0
LINE
  5
1F7
  8
LAYER_1
 10
32.794239
 20
15.972294
 30
0.0
 11
32.545254
 21
15.535357
 31
0.0
  0
LINE
  5
1F8
  8
LAYER_1
 10
32.545254
 20
15.535357
 30
0.0
 11
32.26801
 21
15.353622
 31
0.0
  0
LINE
  5
1F9
  8
LAYER_1
 10
32.26801
 20
15.353622
 30
0.0
 11
31.965538
 21
15.150704
 31
0.0
  0
LINE
  5
1FA
  8
LAYER_1
 10
31.965538
 20
15.150704
 30
0.0
 11
31.655899
 21
14.662837
 31
0.0
  0
LINE
  5
1FB
  8
LAYER_1
 10
31.655899
 20
14.662837
 30
0.0
 11
31.246477
 21
14.134984
 31
0.0
  0
LINE
  5
1FC
  8
LAYER_1
 10
31.246477
 20
14.134984
 30
0.0
 11
30.530834
 21
14.134116
 31
0.0
  0
LINE
  5
1FD
  8
LAYER_1
 10
30.530834
 20
14.134116
 30
0.0
 11
29.805888
 21
14.119214
 31
0.0
  0
LINE
  5
1FE
  8
LAYER_1
 10
29.805888
 20
14.119214
 30
0.0
 11
29.413403
 21
13.415217
 31
0.0
  0
LINE
  5
1FF
  8
LAYER_1
 10
29.413403
 20
13.415217
 30
0.0
 11
29.043787
 21
12.736095
 31
0.0
  0
LINE
  5
200
  8
LAYER_1
 10
29.043787
 20
12.736095
 30
0.0
 11
28.47747
 21
12.692082
 31
0.0
  0
LINE
  5
201
  8
LAYER_1
 10
28.47747
 20
12.692082
 30
0.0
 11
27.919231
 21
12.688699
 31
0.0
  0
LINE
  5
202
  8
LAYER_1
 10
27.919231
 20
12.688699
 30
0.0
 11
27.482243
 21
12.408432
 31
0.0
  0
LINE
  5
203
  8
LAYER_1
 10
27.482243
 20
12.408432
 30
0.0
 11
26.833628
 21
11.966955
 31
0.0
  0
LINE
  5
204
  8
LAYER_1
 10
26.833628
 20
11.966955
 30
0.0
 11
26.739664
 21
12.093901
 31
0.0
  0
LINE
  5
205
  8
LAYER_1
 10
26.739664
 20
12.093901
 30
0.0
 11
26.910062
 21
12.39911
 31
0.0
  0
LINE
  5
206
  8
LAYER_1
 10
26.910062
 20
12.39911
 30
0.0
 11
27.0989
 21
12.824307
 31
0.0
  0
LINE
  5
207
  8
LAYER_1
 10
27.0989
 20
12.824307
 30
0.0
 11
26.732951
 21
13.226778
 31
0.0
  0
LINE
  5
208
  8
LAYER_1
 10
26.732951
 20
13.226778
 30
0.0
 11
26.381444
 21
13.609553
 31
0.0
  0
LINE
  5
209
  8
LAYER_1
 10
26.381444
 20
13.609553
 30
0.0
 11
26.527911
 21
13.957903
 31
0.0
  0
LINE
  5
20A
  8
LAYER_1
 10
26.527911
 20
13.957903
 30
0.0
 11
26.731264
 21
14.324343
 31
0.0
  0
LINE
  5
20B
  8
LAYER_1
 10
26.731264
 20
14.324343
 30
0.0
 11
26.691187
 21
14.685723
 31
0.0
  0
LINE
  5
20C
  8
LAYER_1
 10
26.691187
 20
14.685723
 30
0.0
 11
26.443965
 21
14.961568
 31
0.0
  0
LINE
  5
20D
  8
LAYER_1
 10
26.443965
 20
14.961568
 30
0.0
 11
26.02588
 21
15.0714
 31
0.0
  0
LINE
  5
20E
  8
LAYER_1
 10
26.02588
 20
15.0714
 30
0.0
 11
25.675725
 21
15.124806
 31
0.0
  0
LINE
  5
20F
  8
LAYER_1
 10
25.675725
 20
15.124806
 30
0.0
 11
25.515509
 21
15.275735
 31
0.0
  0
LINE
  5
210
  8
LAYER_1
 10
25.515509
 20
15.275735
 30
0.0
 11
25.549784
 21
15.510254
 31
0.0
  0
LINE
  5
211
  8
LAYER_1
 10
25.549784
 20
15.510254
 30
0.0
 11
25.783104
 21
15.814429
 31
0.0
  0
LINE
  5
212
  8
LAYER_1
 10
25.783104
 20
15.814429
 30
0.0
 11
25.966238
 21
16.202537
 31
0.0
  0
LINE
  5
213
  8
LAYER_1
 10
25.966238
 20
16.202537
 30
0.0
 11
25.861328
 21
16.604493
 31
0.0
  0
LINE
  5
214
  8
LAYER_1
 10
25.861328
 20
16.604493
 30
0.0
 11
25.529712
 21
16.919548
 31
0.0
  0
LINE
  5
215
  8
LAYER_1
 10
25.529712
 20
16.919548
 30
0.0
 11
25.032726
 21
17.046955
 31
0.0
  0
LINE
  5
216
  8
LAYER_1
 10
25.032726
 20
17.046955
 30
0.0
 11
24.506871
 21
17.169894
 31
0.0
  0
LINE
  5
217
  8
LAYER_1
 10
24.506871
 20
17.169894
 30
0.0
 11
24.521345
 21
17.721722
 31
0.0
  0
LINE
  5
218
  8
LAYER_1
 10
24.521345
 20
17.721722
 30
0.0
 11
24.555992
 21
18.26741
 31
0.0
  0
LINE
  5
219
  8
LAYER_1
 10
24.555992
 20
18.26741
 30
0.0
 11
24.370861
 21
18.566958
 31
0.0
  0
LINE
  5
21A
  8
LAYER_1
 10
24.370861
 20
18.566958
 30
0.0
 11
24.026752
 21
18.583997
 31
0.0
  0
LINE
  5
21B
  8
LAYER_1
 10
24.026752
 20
18.583997
 30
0.0
 11
23.584466
 21
18.282156
 31
0.0
  0
LINE
  5
21C
  8
LAYER_1
 10
23.584466
 20
18.282156
 30
0.0
 11
23.149822
 21
17.949233
 31
0.0
  0
LINE
  5
21D
  8
LAYER_1
 10
23.149822
 20
17.949233
 30
0.0
 11
23.000396
 21
18.421771
 31
0.0
  0
LINE
  5
21E
  8
LAYER_1
 10
23.000396
 20
18.421771
 30
0.0
 11
22.785876
 21
18.898681
 31
0.0
  0
LINE
  5
21F
  8
LAYER_1
 10
22.785876
 20
18.898681
 30
0.0
 11
22.397621
 21
18.938691
 31
0.0
  0
LINE
  5
220
  8
LAYER_1
 10
22.397621
 20
18.938691
 30
0.0
 11
21.910506
 21
18.569923
 31
0.0
  0
LINE
  5
221
  8
LAYER_1
 10
21.910506
 20
18.569923
 30
0.0
 11
21.399408
 21
17.820498
 31
0.0
  0
LINE
  5
222
  8
LAYER_1
 10
21.399408
 20
17.820498
 30
0.0
 11
20.954005
 21
17.088931
 31
0.0
  0
LINE
  5
223
  8
LAYER_1
 10
20.954005
 20
17.088931
 30
0.0
 11
20.655303
 21
16.80602
 31
0.0
  0
LINE
  5
224
  8
LAYER_1
 10
20.655303
 20
16.80602
 30
0.0
 11
20.52757
 21
16.978073
 31
0.0
  0
LINE
  5
225
  8
LAYER_1
 10
20.52757
 20
16.978073
 30
0.0
 11
20.595075
 21
17.6114
 31
0.0
  0
LINE
  5
226
  8
LAYER_1
 10
20.595075
 20
17.6114
 30
0.0
 11
20.67034
 21
18.093555
 31
0.0
  0
LINE
  5
227
  8
LAYER_1
 10
20.67034
 20
18.093555
 30
0.0
 11
20.590194
 21
18.345722
 31
0.0
  0
LINE
  5
228
  8
LAYER_1
 10
20.590194
 20
18.345722
 30
0.0
 11
19.620793
 21
18.458066
 31
0.0
  0
LINE
  5
229
  8
LAYER_1
 10
19.620793
 20
18.458066
 30
0.0
 11
18.648808
 21
18.341886
 31
0.0
  0
LINE
  5
22A
  8
LAYER_1
 10
18.648808
 20
18.341886
 30
0.0
 11
18.546965
 21
18.089239
 31
0.0
  0
LINE
  5
22B
  8
LAYER_1
 10
18.546965
 20
18.089239
 30
0.0
 11
18.584329
 21
17.6114
 31
0.0
  0
LINE
  5
22C
  8
LAYER_1
 10
18.584329
 20
17.6114
 30
0.0
 11
18.60813
 21
16.979861
 31
0.0
  0
LINE
  5
22D
  8
LAYER_1
 10
18.60813
 20
16.979861
 30
0.0
 11
18.460493
 21
16.816779
 31
0.0
  0
LINE
  5
22E
  8
LAYER_1
 10
18.460493
 20
16.816779
 30
0.0
 11
17.651537
 21
17.895795
 31
0.0
  0
LINE
  5
22F
  8
LAYER_1
 10
17.651537
 20
17.895795
 30
0.0
 11
17.134158
 21
18.633386
 31
0.0
  0
LINE
  5
230
  8
LAYER_1
 10
17.134158
 20
18.633386
 30
0.0
 11
16.676211
 21
18.974678
 31
0.0
  0
LINE
  5
231
  8
LAYER_1
 10
16.676211
 20
18.974678
 30
0.0
 11
16.324885
 21
18.903899
 31
0.0
  0
LINE
  5
232
  8
LAYER_1
 10
16.324885
 20
18.903899
 30
0.0
 11
16.12737
 21
18.405273
 31
0.0
  0
LINE
  5
233
  8
LAYER_1
 10
16.12737
 20
18.405273
 30
0.0
 11
15.979801
 21
17.946862
 31
0.0
  0
LINE
  5
234
  8
LAYER_1
 10
15.979801
 20
17.946862
 30
0.0
 11
15.545462
 21
18.282156
 31
0.0
  0
LINE
  5
235
  8
LAYER_1
 10
15.545462
 20
18.282156
 30
0.0
 11
15.103175
 21
18.583997
 31
0.0
  0
LINE
  5
236
  8
LAYER_1
 10
15.103175
 20
18.583997
 30
0.0
 11
14.759066
 21
18.566958
 31
0.0
  0
LINE
  5
237
  8
LAYER_1
 10
14.759066
 20
18.566958
 30
0.0
 11
14.573936
 21
18.26741
 31
0.0
  0
LINE
  5
238
  8
LAYER_1
 10
14.573936
 20
18.26741
 30
0.0
 11
14.608584
 21
17.721722
 31
0.0
  0
LINE
  5
239
  8
LAYER_1
 10
14.608584
 20
17.721722
 30
0.0
 11
14.623057
 21
17.169894
 31
0.0
  0
LINE
  5
23A
  8
LAYER_1
 10
14.623057
 20
17.169894
 30
0.0
 11
14.097202
 21
17.046955
 31
0.0
  0
LINE
  5
23B
  8
LAYER_1
 10
14.097202
 20
17.046955
 30
0.0
 11
13.600216
 21
16.919548
 31
0.0
  0
LINE
  5
23C
  8
LAYER_1
 10
13.600216
 20
16.919548
 30
0.0
 11
13.2686
 21
16.604493
 31
0.0
  0
LINE
  5
23D
  8
LAYER_1
 10
13.2686
 20
16.604493
 30
0.0
 11
13.16369
 21
16.202537
 31
0.0
  0
LINE
  5
23E
  8
LAYER_1
 10
13.16369
 20
16.202537
 30
0.0
 11
13.346823
 21
15.814429
 31
0.0
  0
LINE
  5
23F
  8
LAYER_1
 10
13.346823
 20
15.814429
 30
0.0
 11
13.580143
 21
15.510254
 31
0.0
  0
LINE
  5
240
  8
LAYER_1
 10
13.580143
 20
15.510254
 30
0.0
 11
13.614419
 21
15.275735
 31
0.0
  0
LINE
  5
241
  8
LAYER_1
 10
13.614419
 20
15.275735
 30
0.0
 11
13.454203
 21
15.124806
 31
0.0
  0
LINE
  5
242
  8
LAYER_1
 10
13.454203
 20
15.124806
 30
0.0
 11
13.104047
 21
15.0714
 31
0.0
  0
LINE
  5
243
  8
LAYER_1
 10
13.104047
 20
15.0714
 30
0.0
 11
12.685963
 21
14.961568
 31
0.0
  0
LINE
  5
244
  8
LAYER_1
 10
12.685963
 20
14.961568
 30
0.0
 11
12.438741
 21
14.685723
 31
0.0
  0
LINE
  5
245
  8
LAYER_1
 10
12.438741
 20
14.685723
 30
0.0
 11
12.398665
 21
14.324343
 31
0.0
  0
LINE
  5
246
  8
LAYER_1
 10
12.398665
 20
14.324343
 30
0.0
 11
12.602018
 21
13.957903
 31
0.0
  0
LINE
  5
247
  8
LAYER_1
 10
12.602018
 20
13.957903
 30
0.0
 11
12.748484
 21
13.609553
 31
0.0
  0
LINE
  5
248
  8
LAYER_1
 10
12.748484
 20
13.609553
 30
0.0
 11
12.396975
 21
13.226778
 31
0.0
  0
LINE
  5
249
  8
LAYER_1
 10
12.396975
 20
13.226778
 30
0.0
 11
12.031027
 21
12.824307
 31
0.0
  0
LINE
  5
24A
  8
LAYER_1
 10
12.031027
 20
12.824307
 30
0.0
 11
12.219865
 21
12.39911
 31
0.0
  0
LINE
  5
24B
  8
LAYER_1
 10
12.219865
 20
12.39911
 30
0.0
 11
12.390263
 21
12.093901
 31
0.0
  0
LINE
  5
24C
  8
LAYER_1
 10
12.390263
 20
12.093901
 30
0.0
 11
12.296299
 21
11.966955
 31
0.0
  0
LINE
  5
24D
  8
LAYER_1
 10
12.296299
 20
11.966955
 30
0.0
 11
11.647684
 21
12.408432
 31
0.0
  0
LINE
  5
24E
  8
LAYER_1
 10
11.647684
 20
12.408432
 30
0.0
 11
11.210697
 21
12.688699
 31
0.0
  0
LINE
  5
24F
  8
LAYER_1
 10
11.210697
 20
12.688699
 30
0.0
 11
10.652461
 21
12.692082
 31
0.0
  0
LINE
  5
250
  8
LAYER_1
 10
10.652461
 20
12.692082
 30
0.0
 11
10.089341
 21
12.731491
 31
0.0
  0
LINE
  5
251
  8
LAYER_1
 10
10.089341
 20
12.731491
 30
0.0
 11
9.728978
 21
13.379494
 31
0.0
  0
LINE
  5
252
  8
LAYER_1
 10
9.728978
 20
13.379494
 30
0.0
 11
9.404491
 21
13.917844
 31
0.0
  0
LINE
  5
253
  8
LAYER_1
 10
9.404491
 20
13.917844
 30
0.0
 11
8.955821
 21
14.208404
 31
0.0
  0
LINE
  5
254
  8
LAYER_1
 10
8.955821
 20
14.208404
 30
0.0
 11
8.489712000000001
 21
14.216344
 31
0.0
  0
LINE
  5
255
  8
LAYER_1
 10
8.489712000000001
 20
14.216344
 30
0.0
 11
8.112909999999999
 21
13.906829
 31
0.0
  0
LINE
  5
256
  8
LAYER_1
 10
8.112909999999999
 20
13.906829
 30
0.0
 11
7.868587
 21
13.917983
 31
0.0
  0
LINE
  5
257
  8
LAYER_1
 10
7.868587
 20
13.917983
 30
0.0
 11
7.545434
 21
14.471273
 31
0.0
  0
LINE
  5
258
  8
LAYER_1
 10
7.545434
 20
14.471273
 30
0.0
 11
7.194459
 21
15.094432
 31
0.0
  0
LINE
  5
259
  8
LAYER_1
 10
7.194459
 20
15.094432
 30
0.0
 11
6.871603
 21
15.353622
 31
0.0
  0
LINE
  5
25A
  8
LAYER_1
 10
6.871603
 20
15.353622
 30
0.0
 11
6.578245
 21
15.562678
 31
0.0
  0
LINE
  5
25B
  8
LAYER_1
 10
6.578245
 20
15.562678
 30
0.0
 11
6.298191
 21
16.065302
 31
0.0
  0
LINE
  5
25C
  8
LAYER_1
 10
6.298191
 20
16.065302
 30
0.0
 11
5.877742
 21
16.642669
 31
0.0
  0
LINE
  5
25D
  8
LAYER_1
 10
5.877742
 20
16.642669
 30
0.0
 11
5.157174
 21
16.951069
 31
0.0
  0
LINE
  5
25E
  8
LAYER_1
 10
5.157174
 20
16.951069
 30
0.0
 11
4.346764
 21
17.277541
 31
0.0
  0
LINE
  5
25F
  8
LAYER_1
 10
4.346764
 20
17.277541
 30
0.0
 11
3.80549
 21
17.837461
 31
0.0
  0
LINE
  5
260
  8
LAYER_1
 10
3.80549
 20
17.837461
 30
0.0
 11
3.575888
 21
18.560061
 31
0.0
  0
LINE
  5
261
  8
LAYER_1
 10
3.575888
 20
18.560061
 30
0.0
 11
3.700493
 21
19.374575
 31
0.0
  0
LINE
  5
262
  8
LAYER_1
 10
3.700493
 20
19.374575
 30
0.0
 11
3.890576
 21
20.024705
 31
0.0
  0
LINE
  5
263
  8
LAYER_1
 10
3.890576
 20
20.024705
 30
0.0
 11
3.85537
 21
20.436815
 31
0.0
  0
LINE
  5
264
  8
LAYER_1
 10
3.85537
 20
20.436815
 30
0.0
 11
3.573579
 21
20.653123
 31
0.0
  0
LINE
  5
265
  8
LAYER_1
 10
3.573579
 20
20.653123
 30
0.0
 11
3.023907
 21
20.715844
 31
0.0
  0
LINE
  5
266
  8
LAYER_1
 10
3.023907
 20
20.715844
 30
0.0
 11
2.384447
 21
20.507033
 31
0.0
  0
LINE
  5
267
  8
LAYER_1
 10
2.384447
 20
20.507033
 30
0.0
 11
1.914478
 21
19.743842
 31
0.0
  0
LINE
  5
268
  8
LAYER_1
 10
1.914478
 20
19.743842
 30
0.0
 11
1.697529
 21
19.050438
 31
0.0
  0
LINE
  5
269
  8
LAYER_1
 10
1.697529
 20
19.050438
 30
0.0
 11
1.677393
 21
18.441715
 31
0.0
  0
LINE
  5
26A
  8
LAYER_1
 10
1.677393
 20
18.441715
 30
0.0
 11
1.859994
 21
17.874818
 31
0.0
  0
LINE
  5
26B
  8
LAYER_1
 10
1.859994
 20
17.874818
 30
0.0
 11
2.251253
 21
17.306891
 31
0.0
  0
LINE
  5
26C
  8
LAYER_1
 10
2.251253
 20
17.306891
 30
0.0
 11
2.404867
 21
17.050676
 31
0.0
  0
LINE
  5
26D
  8
LAYER_1
 10
2.404867
 20
17.050676
 30
0.0
 11
2.324871
 21
16.824397
 31
0.0
  0
LINE
  5
26E
  8
LAYER_1
 10
2.324871
 20
16.824397
 30
0.0
 11
1.22072
 21
16.200382
 31
0.0
  0
LINE
  5
26F
  8
LAYER_1
 10
1.22072
 20
16.200382
 30
0.0
 11
-0.510617
 21
15.13838
 31
0.0
  0
LINE
  5
270
  8
LAYER_1
 10
-0.510617
 20
15.13838
 30
0.0
 11
-0.952919
 21
14.671674
 31
0.0
  0
LINE
  5
271
  8
LAYER_1
 10
-0.952919
 20
14.671674
 30
0.0
 11
-0.981887
 21
14.357509
 31
0.0
  0
LINE
  5
272
  8
LAYER_1
 10
-0.981887
 20
14.357509
 30
0.0
 11
-0.514572
 21
14.462607
 31
0.0
  0
LINE
  5
273
  8
LAYER_1
 10
-0.514572
 20
14.462607
 30
0.0
 11
0.403975
 21
14.920286
 31
0.0
  0
LINE
  5
274
  8
LAYER_1
 10
0.403975
 20
14.920286
 30
0.0
 11
1.926075
 21
15.625852
 31
0.0
  0
LINE
  5
275
  8
LAYER_1
 10
1.926075
 20
15.625852
 30
0.0
 11
1.712924
 21
15.397551
 31
0.0
  0
LINE
  5
276
  8
LAYER_1
 10
1.712924
 20
15.397551
 30
0.0
 11
0.8041430000000001
 21
14.85314
 31
0.0
  0
LINE
  5
277
  8
LAYER_1
 10
0.8041430000000001
 20
14.85314
 30
0.0
 11
-0.146973
 21
14.213352
 31
0.0
  0
LINE
  5
278
  8
LAYER_1
 10
-0.146973
 20
14.213352
 30
0.0
 11
-0.82694
 21
13.525964
 31
0.0
  0
LINE
  5
279
  8
LAYER_1
 10
-0.82694
 20
13.525964
 30
0.0
 11
-1.154864
 21
12.896654
 31
0.0
  0
LINE
  5
27A
  8
LAYER_1
 10
-1.154864
 20
12.896654
 30
0.0
 11
-1.04985
 21
12.431103
 31
0.0
  0
LINE
  5
27B
  8
LAYER_1
 10
-1.04985
 20
12.431103
 30
0.0
 11
-0.685115
 21
12.431018
 31
0.0
  0
LINE
  5
27C
  8
LAYER_1
 10
-0.685115
 20
12.431018
 30
0.0
 11
-0.143566
 21
12.805284
 31
0.0
  0
LINE
  5
27D
  8
LAYER_1
 10
-0.143566
 20
12.805284
 30
0.0
 11
1.551214
 21
13.953679
 31
0.0
  0
LINE
  5
27E
  8
LAYER_1
 10
1.551214
 20
13.953679
 30
0.0
 11
2.313199
 21
14.290108
 31
0.0
  0
LINE
  5
27F
  8
LAYER_1
 10
2.313199
 20
14.290108
 30
0.0
 11
2.631631
 21
14.264709
 31
0.0
  0
LINE
  5
280
  8
LAYER_1
 10
2.631631
 20
14.264709
 30
0.0
 11
2.379529
 21
13.981096
 31
0.0
  0
LINE
  5
281
  8
LAYER_1
 10
2.379529
 20
13.981096
 30
0.0
 11
1.773413
 21
13.655504
 31
0.0
  0
LINE
  5
282
  8
LAYER_1
 10
1.773413
 20
13.655504
 30
0.0
 11
0.797744
 21
13.16723
 31
0.0
  0
LINE
  5
283
  8
LAYER_1
 10
0.797744
 20
13.16723
 30
0.0
 11
0.095014
 21
12.625582
 31
0.0
  0
LINE
  5
284
  8
LAYER_1
 10
0.095014
 20
12.625582
 30
0.0
 11
-0.330073
 21
12.03528
 31
0.0
  0
LINE
  5
285
  8
LAYER_1
 10
-0.330073
 20
12.03528
 30
0.0
 11
-0.472814
 21
11.401045
 31
0.0
  0
LINE
  5
286
  8
LAYER_1
 10
-0.472814
 20
11.401045
 30
0.0
 11
-0.33726
 21
10.744702
 31
0.0
  0
LINE
  5
287
  8
LAYER_1
 10
-0.33726
 20
10.744702
 30
0.0
 11
0.091631
 21
10.414731
 31
0.0
  0
LINE
  5
288
  8
LAYER_1
 10
0.091631
 20
10.414731
 30
0.0
 11
0.71395
 21
10.327464
 31
0.0
  0
LINE
  5
289
  8
LAYER_1
 10
0.71395
 20
10.327464
 30
0.0
 11
1.326208
 21
10.491767
 31
0.0
  0
LINE
  5
28A
  8
LAYER_1
 10
1.326208
 20
10.491767
 30
0.0
 11
1.980991
 21
10.93276
 31
0.0
  0
LINE
  5
28B
  8
LAYER_1
 10
1.980991
 20
10.93276
 30
0.0
 11
2.730886
 21
11.675566
 31
0.0
  0
LINE
  5
28C
  8
LAYER_1
 10
2.730886
 20
11.675566
 30
0.0
 11
3.617943
 21
12.479692
 31
0.0
  0
LINE
  5
28D
  8
LAYER_1
 10
3.617943
 20
12.479692
 30
0.0
 11
4.273318
 21
12.62668
 31
0.0
  0
LINE
  5
28E
  8
LAYER_1
 10
4.273318
 20
12.62668
 30
0.0
 11
4.815698
 21
12.688956
 31
0.0
  0
LINE
  5
28F
  8
LAYER_1
 10
4.815698
 20
12.688956
 30
0.0
 11
5.337826
 21
13.160817
 31
0.0
  0
LINE
  5
290
  8
LAYER_1
 10
5.337826
 20
13.160817
 30
0.0
 11
5.84973
 21
13.839462
 31
0.0
  0
LINE
  5
291
  8
LAYER_1
 10
5.84973
 20
13.839462
 30
0.0
 11
7.41568
 21
13.016576
 31
0.0
  0
LINE
  5
292
  8
LAYER_1
 10
7.41568
 20
13.016576
 30
0.0
 11
8.983226999999999
 21
11.984405
 31
0.0
  0
LINE
  5
293
  8
LAYER_1
 10
8.983226999999999
 20
11.984405
 30
0.0
 11
10.553015
 21
10.658345
 31
0.0
  0
LINE
  5
294
  8
LAYER_1
 10
10.553015
 20
10.658345
 30
0.0
 11
11.678889
 21
9.671398
 31
0.0
  0
LINE
  5
295
  8
LAYER_1
 10
11.678889
 20
9.671398
 30
0.0
 11
12.435839
 21
9.3226
 31
0.0
  0
LINE
  5
296
  8
LAYER_1
 10
12.435839
 20
9.3226
 30
0.0
 11
12.702051
 21
9.386153
 31
0.0
  0
LINE
  5
297
  8
LAYER_1
 10
12.702051
 20
9.386153
 30
0.0
 11
12.907332
 21
9.607619
 31
0.0
  0
LINE
  5
298
  8
LAYER_1
 10
12.907332
 20
9.607619
 30
0.0
 11
13.176837
 21
10.522122
 31
0.0
  0
LINE
  5
299
  8
LAYER_1
 10
13.176837
 20
10.522122
 30
0.0
 11
13.471433
 21
11.550984
 31
0.0
  0
LINE
  5
29A
  8
LAYER_1
 10
13.471433
 20
11.550984
 30
0.0
 11
13.9995
 21
12.794444
 31
0.0
  0
LINE
  5
29B
  8
LAYER_1
 10
13.9995
 20
12.794444
 30
0.0
 11
14.623466
 21
13.964307
 31
0.0
  0
LINE
  5
29C
  8
LAYER_1
 10
14.623466
 20
13.964307
 30
0.0
 11
15.205757
 21
14.772379
 31
0.0
  0
LINE
  5
29D
  8
LAYER_1
 10
15.205757
 20
14.772379
 30
0.0
 11
15.586486
 21
15.042151
 31
0.0
  0
LINE
  5
29E
  8
LAYER_1
 10
15.586486
 20
15.042151
 30
0.0
 11
15.784972
 21
14.973952
 31
0.0
  0
LINE
  5
29F
  8
LAYER_1
 10
15.784972
 20
14.973952
 30
0.0
 11
15.757417
 21
14.66454
 31
0.0
  0
LINE
  5
2A0
  8
LAYER_1
 10
15.757417
 20
14.66454
 30
0.0
 11
15.46002
 21
14.210675
 31
0.0
  0
LINE
  5
2A1
  8
LAYER_1
 10
15.46002
 20
14.210675
 30
0.0
 11
15.098982
 21
13.635809
 31
0.0
  0
LINE
  5
2A2
  8
LAYER_1
 10
15.098982
 20
13.635809
 30
0.0
 11
15.273602
 21
13.083886
 31
0.0
  0
LINE
  5
2A3
  8
LAYER_1
 10
15.273602
 20
13.083886
 30
0.0
 11
15.581126
 21
12.391143
 31
0.0
  0
LINE
  5
2A4
  8
LAYER_1
 10
15.581126
 20
12.391143
 30
0.0
 11
15.430318
 21
12.27633
 31
0.0
  0
LINE
  5
2A5
  8
LAYER_1
 10
15.430318
 20
12.27633
 30
0.0
 11
15.059338
 21
12.249177
 31
0.0
  0
LINE
  5
2A6
  8
LAYER_1
 10
15.059338
 20
12.249177
 30
0.0
 11
14.579988
 21
12.085263
 31
0.0
  0
LINE
  5
2A7
  8
LAYER_1
 10
14.579988
 20
12.085263
 30
0.0
 11
14.206188
 21
11.691173
 31
0.0
  0
LINE
  5
2A8
  8
LAYER_1
 10
14.206188
 20
11.691173
 30
0.0
 11
14.078862
 21
11.172857
 31
0.0
  0
LINE
  5
2A9
  8
LAYER_1
 10
14.078862
 20
11.172857
 30
0.0
 11
14.478481
 21
10.77662
 31
0.0
  0
LINE
  5
2AA
  8
LAYER_1
 10
14.478481
 20
10.77662
 30
0.0
 11
14.895898
 21
10.456781
 31
0.0
  0
LINE
  5
2AB
  8
LAYER_1
 10
14.895898
 20
10.456781
 30
0.0
 11
15.014596
 21
10.188099
 31
0.0
  0
LINE
  5
2AC
  8
LAYER_1
 10
15.014596
 20
10.188099
 30
0.0
 11
14.83158
 21
9.946816
 31
0.0
  0
LINE
  5
2AD
  8
LAYER_1
 10
14.83158
 20
9.946816
 30
0.0
 11
14.343853
 21
9.709175
 31
0.0
  0
LINE
  5
2AE
  8
LAYER_1
 10
14.343853
 20
9.709175
 30
0.0
 11
13.825757
 21
9.386912000000001
 31
0.0
  0
LINE
  5
2AF
  8
LAYER_1
 10
13.825757
 20
9.386912000000001
 30
0.0
 11
13.666351
 21
8.995644
 31
0.0
  0
LINE
  5
2B0
  8
LAYER_1
 10
13.666351
 20
8.995644
 30
0.0
 11
13.862515
 21
8.60197
 31
0.0
  0
LINE
  5
2B1
  8
LAYER_1
 10
13.862515
 20
8.60197
 30
0.0
 11
14.411131
 21
8.272486000000001
 31
0.0
  0
LINE
  5
2B2
  8
LAYER_1
 10
14.411131
 20
8.272486000000001
 30
0.0
 11
15.183964
 21
7.978654
 31
0.0
  0
LINE
  5
2B3
  8
LAYER_1
 10
15.183964
 20
7.978654
 30
0.0
 11
14.522513
 21
7.479721
 31
0.0
  0
LINE
  5
2B4
  8
LAYER_1
 10
14.522513
 20
7.479721
 30
0.0
 11
14.058127
 21
6.956763
 31
0.0
  0
LINE
  5
2B5
  8
LAYER_1
 10
14.058127
 20
6.956763
 30
0.0
 11
13.967085
 21
6.441569
 31
0.0
  0
LINE
  5
2B6
  8
LAYER_1
 10
13.967085
 20
6.441569
 30
0.0
 11
14.231809
 21
6.028121
 31
0.0
  0
LINE
  5
2B7
  8
LAYER_1
 10
14.231809
 20
6.028121
 30
0.0
 11
14.834722
 21
5.8104
 31
0.0
  0
LINE
  5
2B8
  8
LAYER_1
 10
14.834722
 20
5.8104
 30
0.0
 11
15.437173
 21
5.640379
 31
0.0
  0
LINE
  5
2B9
  8
LAYER_1
 10
15.437173
 20
5.640379
 30
0.0
 11
15.154055
 21
5.036467
 31
0.0
  0
LINE
  5
2BA
  8
LAYER_1
 10
15.154055
 20
5.036467
 30
0.0
 11
14.852596
 21
4.38413
 31
0.0
  0
LINE
  5
2BB
  8
LAYER_1
 10
14.852596
 20
4.38413
 30
0.0
 11
14.903743
 21
3.90188
 31
0.0
  0
LINE
  5
2BC
  8
LAYER_1
 10
14.903743
 20
3.90188
 30
0.0
 11
15.299958
 21
3.602879
 31
0.0
  0
LINE
  5
2BD
  8
LAYER_1
 10
15.299958
 20
3.602879
 30
0.0
 11
16.033705
 21
3.500287
 31
0.0
  0
LINE
  5
2BE
  8
LAYER_1
 10
16.033705
 20
3.500287
 30
0.0
 11
16.852669
 21
3.393687
 31
0.0
  0
LINE
  5
2BF
  8
LAYER_1
 10
16.852669
 20
3.393687
 30
0.0
 11
16.930079
 21
3.188149
 31
0.0
  0
LINE
  5
2C0
  8
LAYER_1
 10
16.930079
 20
3.188149
 30
0.0
 11
16.864189
 21
2.816863
 31
0.0
  0
LINE
  5
2C1
  8
LAYER_1
 10
16.864189
 20
2.816863
 30
0.0
 11
16.88544
 21
2.182842
 31
0.0
  0
LINE
  5
2C2
  8
LAYER_1
 10
16.88544
 20
2.182842
 30
0.0
 11
17.493813
 21
1.699274
 31
0.0
  0
LINE
  5
2C3
  8
LAYER_1
 10
17.493813
 20
1.699274
 30
0.0
 11
18.386066
 21
1.377993
 31
0.0
  0
LINE
  5
2C4
  8
LAYER_1
 10
18.386066
 20
1.377993
 30
0.0
 11
19.410624
 21
1.272422
 31
0.0
  0
LINE
  5
2C5
  8
LAYER_1
 10
19.410624
 20
1.272422
 30
0.0
 11
20.465184
 21
1.382346
 31
0.0
  0
LINE
  5
2C6
  8
LAYER_1
 10
20.465184
 20
1.382346
 30
0.0
 11
21.44744
 21
1.707549
 31
0.0
  0
LINE
  5
2C7
  8
LAYER_1
 10
21.44744
 20
1.707549
 30
0.0
 11
21.44744
 21
1.707549
 31
0.0
  0
LINE
  5
2C8
  8
LAYER_1
 10
18.577186
 20
3.191962
 30
0.0
 11
17.898394
 21
3.619583
 31
0.0
  0
LINE
  5
2C9
  8
LAYER_1
 10
17.898394
 20
3.619583
 30
0.0
 11
17.307863
 21
4.264519
 31
0.0
  0
LINE
  5
2CA
  8
LAYER_1
 10
17.307863
 20
4.264519
 30
0.0
 11
16.815718
 21
5.094241
 31
0.0
  0
LINE
  5
2CB
  8
LAYER_1
 10
16.815718
 20
5.094241
 30
0.0
 11
16.432086
 21
6.07622
 31
0.0
  0
LINE
  5
2CC
  8
LAYER_1
 10
16.432086
 20
6.07622
 30
0.0
 11
16.030863
 21
8.366834000000001
 31
0.0
  0
LINE
  5
2CD
  8
LAYER_1
 10
16.030863
 20
8.366834000000001
 30
0.0
 11
16.033523
 21
9.610410999999999
 31
0.0
  0
LINE
  5
2CE
  8
LAYER_1
 10
16.033523
 20
9.610410999999999
 30
0.0
 11
16.185199
 21
10.876129
 31
0.0
  0
LINE
  5
2CF
  8
LAYER_1
 10
16.185199
 20
10.876129
 30
0.0
 11
16.72263
 21
12.863308
 31
0.0
  0
LINE
  5
2D0
  8
LAYER_1
 10
16.72263
 20
12.863308
 30
0.0
 11
17.481411
 21
14.534715
 31
0.0
  0
LINE
  5
2D1
  8
LAYER_1
 10
17.481411
 20
14.534715
 30
0.0
 11
18.295916
 21
15.602036
 31
0.0
  0
LINE
  5
2D2
  8
LAYER_1
 10
18.295916
 20
15.602036
 30
0.0
 11
18.672307
 21
15.819066
 31
0.0
  0
LINE
  5
2D3
  8
LAYER_1
 10
18.672307
 20
15.819066
 30
0.0
 11
19.000519
 21
15.776955
 31
0.0
  0
LINE
  5
2D4
  8
LAYER_1
 10
19.000519
 20
15.776955
 30
0.0
 11
19.344342
 21
15.748411
 31
0.0
  0
LINE
  5
2D5
  8
LAYER_1
 10
19.344342
 20
15.748411
 30
0.0
 11
19.739947
 21
15.946178
 31
0.0
  0
LINE
  5
2D6
  8
LAYER_1
 10
19.739947
 20
15.946178
 30
0.0
 11
20.128493
 21
16.161312
 31
0.0
  0
LINE
  5
2D7
  8
LAYER_1
 10
20.128493
 20
16.161312
 30
0.0
 11
20.388449
 21
15.955577
 31
0.0
  0
LINE
  5
2D8
  8
LAYER_1
 10
20.388449
 20
15.955577
 30
0.0
 11
20.653061
 21
15.733825
 31
0.0
  0
LINE
  5
2D9
  8
LAYER_1
 10
20.653061
 20
15.733825
 30
0.0
 11
20.985913
 21
15.691502
 31
0.0
  0
LINE
  5
2DA
  8
LAYER_1
 10
20.985913
 20
15.691502
 30
0.0
 11
21.349994
 21
15.517877
 31
0.0
  0
LINE
  5
2DB
  8
LAYER_1
 10
21.349994
 20
15.517877
 30
0.0
 11
21.738732
 21
14.911484
 31
0.0
  0
LINE
  5
2DC
  8
LAYER_1
 10
21.738732
 20
14.911484
 30
0.0
 11
22.481308
 21
12.808505
 31
0.0
  0
LINE
  5
2DD
  8
LAYER_1
 10
22.481308
 20
12.808505
 30
0.0
 11
22.995902
 21
10.198793
 31
0.0
  0
LINE
  5
2DE
  8
LAYER_1
 10
22.995902
 20
10.198793
 30
0.0
 11
23.064776
 21
7.898576
 31
0.0
  0
LINE
  5
2DF
  8
LAYER_1
 10
23.064776
 20
7.898576
 30
0.0
 11
22.835302
 21
6.655575
 31
0.0
  0
LINE
  5
2E0
  8
LAYER_1
 10
22.835302
 20
6.655575
 30
0.0
 11
22.475931
 21
5.562717
 31
0.0
  0
LINE
  5
2E1
  8
LAYER_1
 10
22.475931
 20
5.562717
 30
0.0
 11
22.004258
 21
4.638455
 31
0.0
  0
LINE
  5
2E2
  8
LAYER_1
 10
22.004258
 20
4.638455
 30
0.0
 11
21.437878
 21
3.901243
 31
0.0
  0
LINE
  5
2E3
  8
LAYER_1
 10
21.437878
 20
3.901243
 30
0.0
 11
20.794386
 21
3.369534
 31
0.0
  0
LINE
  5
2E4
  8
LAYER_1
 10
20.794386
 20
3.369534
 30
0.0
 11
20.091377
 21
3.061782
 31
0.0
  0
LINE
  5
2E5
  8
LAYER_1
 10
20.091377
 20
3.061782
 30
0.0
 11
19.346445
 21
2.99644
 31
0.0
  0
LINE
  5
2E6
  8
LAYER_1
 10
19.346445
 20
2.99644
 30
0.0
 11
18.577186
 21
3.191962
 31
0.0
  0
LINE
  5
2E7
  8
LAYER_1
 10
18.577186
 20
3.191962
 30
0.0
 11
18.577186
 21
3.191962
 31
0.0
  0
LINE
  5
2E8
  8
LAYER_1
 10
20.935582
 20
4.215079
 30
0.0
 11
21.662886
 21
5.032393
 31
0.0
  0
LINE
  5
2E9
  8
LAYER_1
 10
21.662886
 20
5.032393
 30
0.0
 11
22.148366
 21
6.096515
 31
0.0
  0
LINE
  5
2EA
  8
LAYER_1
 10
22.148366
 20
6.096515
 30
0.0
 11
22.41663
 21
7.487611
 31
0.0
  0
LINE
  5
2EB
  8
LAYER_1
 10
22.41663
 20
7.487611
 30
0.0
 11
22.492288
 21
9.285842000000001
 31
0.0
  0
LINE
  5
2EC
  8
LAYER_1
 10
22.492288
 20
9.285842000000001
 30
0.0
 11
22.313625
 21
11.400176
 31
0.0
  0
LINE
  5
2ED
  8
LAYER_1
 10
22.313625
 20
11.400176
 30
0.0
 11
21.856008
 21
13.18689
 31
0.0
  0
LINE
  5
2EE
  8
LAYER_1
 10
21.856008
 20
13.18689
 30
0.0
 11
21.196367
 21
14.436894
 31
0.0
  0
LINE
  5
2EF
  8
LAYER_1
 10
21.196367
 20
14.436894
 30
0.0
 11
20.814828
 21
14.795289
 31
0.0
  0
LINE
  5
2F0
  8
LAYER_1
 10
20.814828
 20
14.795289
 30
0.0
 11
20.41163
 21
14.941097
 31
0.0
  0
LINE
  5
2F1
  8
LAYER_1
 10
20.41163
 20
14.941097
 30
0.0
 11
19.854429
 21
14.886601
 31
0.0
  0
LINE
  5
2F2
  8
LAYER_1
 10
19.854429
 20
14.886601
 30
0.0
 11
19.505553
 21
14.681295
 31
0.0
  0
LINE
  5
2F3
  8
LAYER_1
 10
19.505553
 20
14.681295
 30
0.0
 11
19.258759
 21
14.578403
 31
0.0
  0
LINE
  5
2F4
  8
LAYER_1
 10
19.258759
 20
14.578403
 30
0.0
 11
18.919177
 21
14.896275
 31
0.0
  0
LINE
  5
2F5
  8
LAYER_1
 10
18.919177
 20
14.896275
 30
0.0
 11
18.690695
 21
15.162281
 31
0.0
  0
LINE
  5
2F6
  8
LAYER_1
 10
18.690695
 20
15.162281
 30
0.0
 11
18.497217
 21
15.188483
 31
0.0
  0
LINE
  5
2F7
  8
LAYER_1
 10
18.497217
 20
15.188483
 30
0.0
 11
17.902633
 21
14.355006
 31
0.0
  0
LINE
  5
2F8
  8
LAYER_1
 10
17.902633
 20
14.355006
 30
0.0
 11
17.26968
 21
13.030786
 31
0.0
  0
LINE
  5
2F9
  8
LAYER_1
 10
17.26968
 20
13.030786
 30
0.0
 11
16.837965
 21
11.590381
 31
0.0
  0
LINE
  5
2FA
  8
LAYER_1
 10
16.837965
 20
11.590381
 30
0.0
 11
16.604849
 21
10.097768
 31
0.0
  0
LINE
  5
2FB
  8
LAYER_1
 10
16.604849
 20
10.097768
 30
0.0
 11
16.567694
 21
8.616925
 31
0.0
  0
LINE
  5
2FC
  8
LAYER_1
 10
16.567694
 20
8.616925
 30
0.0
 11
16.723862
 21
7.21183
 31
0.0
  0
LINE
  5
2FD
  8
LAYER_1
 10
16.723862
 20
7.21183
 30
0.0
 11
17.070714
 21
5.94646
 31
0.0
  0
LINE
  5
2FE
  8
LAYER_1
 10
17.070714
 20
5.94646
 30
0.0
 11
17.605612
 21
4.884792
 31
0.0
  0
LINE
  5
2FF
  8
LAYER_1
 10
17.605612
 20
4.884792
 30
0.0
 11
18.325918
 21
4.090805
 31
0.0
  0
LINE
  5
300
  8
LAYER_1
 10
18.325918
 20
4.090805
 30
0.0
 11
19.00312
 21
3.661768
 31
0.0
  0
LINE
  5
301
  8
LAYER_1
 10
19.00312
 20
3.661768
 30
0.0
 11
19.611991
 21
3.537001
 31
0.0
  0
LINE
  5
302
  8
LAYER_1
 10
19.611991
 20
3.537001
 30
0.0
 11
20.230241
 21
3.720204
 31
0.0
  0
LINE
  5
303
  8
LAYER_1
 10
20.230241
 20
3.720204
 30
0.0
 11
20.935582
 21
4.215079
 31
0.0
  0
LINE
  5
304
  8
LAYER_1
 10
20.935582
 20
4.215079
 30
0.0
 11
20.935582
 21
4.215079
 31
0.0
  0
LINE
  5
305
  8
LAYER_1
 10
13.920519
 20
4.312488
 30
0.0
 11
13.497186
 21
5.573423
 31
0.0
  0
LINE
  5
306
  8
LAYER_1
 10
13.497186
 20
5.573423
 30
0.0
 11
13.198207
 21
6.587389
 31
0.0
  0
LINE
  5
307
  8
LAYER_1
 10
13.198207
 20
6.587389
 30
0.0
 11
13.073853
 21
7.602463
 31
0.0
  0
LINE
  5
308
  8
LAYER_1
 10
13.073853
 20
7.602463
 30
0.0
 11
12.977639
 21
8.407187
 31
0.0
  0
LINE
  5
309
  8
LAYER_1
 10
12.977639
 20
8.407187
 30
0.0
 11
12.813399
 21
8.499679
 31
0.0
  0
LINE
  5
30A
  8
LAYER_1
 10
12.813399
 20
8.499679
 30
0.0
 11
12.53265
 21
8.446553
 31
0.0
  0
LINE
  5
30B
  8
LAYER_1
 10
12.53265
 20
8.446553
 30
0.0
 11
11.940322
 21
8.538719
 31
0.0
  0
LINE
  5
30C
  8
LAYER_1
 10
11.940322
 20
8.538719
 30
0.0
 11
11.221417
 21
9.284343
 31
0.0
  0
LINE
  5
30D
  8
LAYER_1
 10
11.221417
 20
9.284343
 30
0.0
 11
9.613500999999999
 21
10.890534
 31
0.0
  0
LINE
  5
30E
  8
LAYER_1
 10
9.613500999999999
 20
10.890534
 30
0.0
 11
8.775615999999999
 21
11.487163
 31
0.0
  0
LINE
  5
30F
  8
LAYER_1
 10
8.775615999999999
 20
11.487163
 30
0.0
 11
8.968197
 21
10.880391
 31
0.0
  0
LINE
  5
310
  8
LAYER_1
 10
8.968197
 20
10.880391
 30
0.0
 11
9.042341
 21
10.469846
 31
0.0
  0
LINE
  5
311
  8
LAYER_1
 10
9.042341
 20
10.469846
 30
0.0
 11
8.924216
 21
10.301408
 31
0.0
  0
LINE
  5
312
  8
LAYER_1
 10
8.924216
 20
10.301408
 30
0.0
 11
8.093722
 21
10.686991
 31
0.0
  0
LINE
  5
313
  8
LAYER_1
 10
8.093722
 20
10.686991
 30
0.0
 11
7.666776
 21
10.919482
 31
0.0
  0
LINE
  5
314
  8
LAYER_1
 10
7.666776
 20
10.919482
 30
0.0
 11
7.372409
 21
10.919081
 31
0.0
  0
LINE
  5
315
  8
LAYER_1
 10
7.372409
 20
10.919081
 30
0.0
 11
7.202066
 21
10.681404
 31
0.0
  0
LINE
  5
316
  8
LAYER_1
 10
7.202066
 20
10.681404
 30
0.0
 11
7.147186
 21
10.202068
 31
0.0
  0
LINE
  5
317
  8
LAYER_1
 10
7.147186
 20
10.202068
 30
0.0
 11
7.369581
 21
9.718548
 31
0.0
  0
LINE
  5
318
  8
LAYER_1
 10
7.369581
 20
9.718548
 30
0.0
 11
7.993853
 21
9.340565
 31
0.0
  0
LINE
  5
319
  8
LAYER_1
 10
7.993853
 20
9.340565
 30
0.0
 11
8.804454
 21
8.839665999999999
 31
0.0
  0
LINE
  5
31A
  8
LAYER_1
 10
8.804454
 20
8.839665999999999
 30
0.0
 11
8.803152000000001
 21
8.653179
 31
0.0
  0
LINE
  5
31B
  8
LAYER_1
 10
8.803152000000001
 20
8.653179
 30
0.0
 11
8.487742000000001
 21
8.575965999999999
 31
0.0
  0
LINE
  5
31C
  8
LAYER_1
 10
8.487742000000001
 20
8.575965999999999
 30
0.0
 11
7.722853
 21
8.310973000000001
 31
0.0
  0
LINE
  5
31D
  8
LAYER_1
 10
7.722853
 20
8.310973000000001
 30
0.0
 11
7.475137
 21
7.996234
 31
0.0
  0
LINE
  5
31E
  8
LAYER_1
 10
7.475137
 20
7.996234
 30
0.0
 11
7.821248
 21
7.486198
 31
0.0
  0
LINE
  5
31F
  8
LAYER_1
 10
7.821248
 20
7.486198
 30
0.0
 11
8.369120000000001
 21
7.088953
 31
0.0
  0
LINE
  5
320
  8
LAYER_1
 10
8.369120000000001
 20
7.088953
 30
0.0
 11
9.027843000000001
 21
7.186747
 31
0.0
  0
LINE
  5
321
  8
LAYER_1
 10
9.027843000000001
 20
7.186747
 30
0.0
 11
9.874952
 21
7.391676
 31
0.0
  0
LINE
  5
322
  8
LAYER_1
 10
9.874952
 20
7.391676
 30
0.0
 11
9.931067000000001
 21
7.156009
 31
0.0
  0
LINE
  5
323
  8
LAYER_1
 10
9.931067000000001
 20
7.156009
 30
0.0
 11
9.834198000000001
 21
6.631599
 31
0.0
  0
LINE
  5
324
  8
LAYER_1
 10
9.834198000000001
 20
6.631599
 30
0.0
 11
9.787725999999999
 21
5.99165
 31
0.0
  0
LINE
  5
325
  8
LAYER_1
 10
9.787725999999999
 20
5.99165
 30
0.0
 11
9.976398
 21
5.643428
 31
0.0
  0
LINE
  5
326
  8
LAYER_1
 10
9.976398
 20
5.643428
 30
0.0
 11
10.37782
 21
5.601731
 31
0.0
  0
LINE
  5
327
  8
LAYER_1
 10
10.37782
 20
5.601731
 30
0.0
 11
10.969597
 21
5.881356
 31
0.0
  0
LINE
  5
328
  8
LAYER_1
 10
10.969597
 20
5.881356
 30
0.0
 11
11.574886
 21
6.154419
 31
0.0
  0
LINE
  5
329
  8
LAYER_1
 10
11.574886
 20
6.154419
 30
0.0
 11
11.662742
 21
5.360865
 31
0.0
  0
LINE
  5
32A
  8
LAYER_1
 10
11.662742
 20
5.360865
 30
0.0
 11
11.788119
 21
4.554502
 31
0.0
  0
LINE
  5
32B
  8
LAYER_1
 10
11.788119
 20
4.554502
 30
0.0
 11
12.297742
 21
4.263904
 31
0.0
  0
LINE
  5
32C
  8
LAYER_1
 10
12.297742
 20
4.263904
 30
0.0
 11
13.534713
 21
4.111514
 31
0.0
  0
LINE
  5
32D
  8
LAYER_1
 10
13.534713
 20
4.111514
 30
0.0
 11
13.826554
 21
4.167607
 31
0.0
  0
LINE
  5
32E
  8
LAYER_1
 10
13.826554
 20
4.167607
 30
0.0
 11
13.920519
 21
4.312488
 31
0.0
  0
LINE
  5
32F
  8
LAYER_1
 10
13.920519
 20
4.312488
 30
0.0
 11
13.920519
 21
4.312488
 31
0.0
  0
LINE
  5
330
  8
LAYER_1
 10
26.849529
 20
4.247145
 30
0.0
 11
27.348943
 21
4.545132
 31
0.0
  0
LINE
  5
331
  8
LAYER_1
 10
27.348943
 20
4.545132
 30
0.0
 11
27.454622
 21
5.160515
 31
0.0
  0
LINE
  5
332
  8
LAYER_1
 10
27.454622
 20
5.160515
 30
0.0
 11
27.503685
 21
6.136171
 31
0.0
  0
LINE
  5
333
  8
LAYER_1
 10
27.503685
 20
6.136171
 30
0.0
 11
27.729137
 21
6.135072
 31
0.0
  0
LINE
  5
334
  8
LAYER_1
 10
27.729137
 20
6.135072
 30
0.0
 11
28.160329
 21
5.881356
 31
0.0
  0
LINE
  5
335
  8
LAYER_1
 10
28.160329
 20
5.881356
 30
0.0
 11
28.751694
 21
5.601973
 31
0.0
  0
LINE
  5
336
  8
LAYER_1
 10
28.751694
 20
5.601973
 30
0.0
 11
29.153225
 21
5.64336
 31
0.0
  0
LINE
  5
337
  8
LAYER_1
 10
29.153225
 20
5.64336
 30
0.0
 11
29.342306
 21
5.990633
 31
0.0
  0
LINE
  5
338
  8
LAYER_1
 10
29.342306
 20
5.990633
 30
0.0
 11
29.29632
 21
6.628909
 31
0.0
  0
LINE
  5
339
  8
LAYER_1
 10
29.29632
 20
6.628909
 30
0.0
 11
29.262019
 21
7.3087
 31
0.0
  0
LINE
  5
33A
  8
LAYER_1
 10
29.262019
 20
7.3087
 30
0.0
 11
29.984655
 21
7.27246
 31
0.0
  0
LINE
  5
33B
  8
LAYER_1
 10
29.984655
 20
7.27246
 30
0.0
 11
30.934104
 21
7.290565
 31
0.0
  0
LINE
  5
33C
  8
LAYER_1
 10
30.934104
 20
7.290565
 30
0.0
 11
31.535774
 21
7.633054
 31
0.0
  0
LINE
  5
33D
  8
LAYER_1
 10
31.535774
 20
7.633054
 30
0.0
 11
31.651441
 21
7.86135
 31
0.0
  0
LINE
  5
33E
  8
LAYER_1
 10
31.651441
 20
7.86135
 30
0.0
 11
31.614462
 21
8.09323
 31
0.0
  0
LINE
  5
33F
  8
LAYER_1
 10
31.614462
 20
8.09323
 30
0.0
 11
31.402937
 21
8.302858000000001
 31
0.0
  0
LINE
  5
340
  8
LAYER_1
 10
31.402937
 20
8.302858000000001
 30
0.0
 11
30.994965
 21
8.464395
 31
0.0
  0
LINE
  5
341
  8
LAYER_1
 10
30.994965
 20
8.464395
 30
0.0
 11
30.479041
 21
8.645144999999999
 31
0.0
  0
LINE
  5
342
  8
LAYER_1
 10
30.479041
 20
8.645144999999999
 30
0.0
 11
30.329407
 21
8.844104
 31
0.0
  0
LINE
  5
343
  8
LAYER_1
 10
30.329407
 20
8.844104
 30
0.0
 11
30.547829
 21
9.072251
 31
0.0
  0
LINE
  5
344
  8
LAYER_1
 10
30.547829
 20
9.072251
 30
0.0
 11
31.136076
 21
9.340565
 31
0.0
  0
LINE
  5
345
  8
LAYER_1
 10
31.136076
 20
9.340565
 30
0.0
 11
31.760348
 21
9.718548
 31
0.0
  0
LINE
  5
346
  8
LAYER_1
 10
31.760348
 20
9.718548
 30
0.0
 11
31.982743
 21
10.202068
 31
0.0
  0
LINE
  5
347
  8
LAYER_1
 10
31.982743
 20
10.202068
 30
0.0
 11
31.927863
 21
10.681404
 31
0.0
  0
LINE
  5
348
  8
LAYER_1
 10
31.927863
 20
10.681404
 30
0.0
 11
31.757519
 21
10.919081
 31
0.0
  0
LINE
  5
349
  8
LAYER_1
 10
31.757519
 20
10.919081
 30
0.0
 11
31.463153
 21
10.919482
 31
0.0
  0
LINE
  5
34A
  8
LAYER_1
 10
31.463153
 20
10.919482
 30
0.0
 11
31.036206
 21
10.686991
 31
0.0
  0
LINE
  5
34B
  8
LAYER_1
 10
31.036206
 20
10.686991
 30
0.0
 11
30.194289
 21
10.29801
 31
0.0
  0
LINE
  5
34C
  8
LAYER_1
 10
30.194289
 20
10.29801
 30
0.0
 11
30.048252
 21
10.446749
 31
0.0
  0
LINE
  5
34D
  8
LAYER_1
 10
30.048252
 20
10.446749
 30
0.0
 11
30.085369
 21
10.824324
 31
0.0
  0
LINE
  5
34E
  8
LAYER_1
 10
30.085369
 20
10.824324
 30
0.0
 11
30.088991
 21
11.207379
 31
0.0
  0
LINE
  5
34F
  8
LAYER_1
 10
30.088991
 20
11.207379
 30
0.0
 11
29.39671
 21
10.759408
 31
0.0
  0
LINE
  5
350
  8
LAYER_1
 10
29.39671
 20
10.759408
 30
0.0
 11
27.854251
 21
9.213203999999999
 31
0.0
  0
LINE
  5
351
  8
LAYER_1
 10
27.854251
 20
9.213203999999999
 30
0.0
 11
27.221989
 21
8.578974000000001
 31
0.0
  0
LINE
  5
352
  8
LAYER_1
 10
27.221989
 20
8.578974000000001
 30
0.0
 11
26.698599
 21
8.360898000000001
 31
0.0
  0
LINE
  5
353
  8
LAYER_1
 10
26.698599
 20
8.360898000000001
 30
0.0
 11
26.471473
 21
8.316426
 31
0.0
  0
LINE
  5
354
  8
LAYER_1
 10
26.471473
 20
8.316426
 30
0.0
 11
26.273759
 21
8.076065
 31
0.0
  0
LINE
  5
355
  8
LAYER_1
 10
26.273759
 20
8.076065
 30
0.0
 11
25.901265
 21
6.886953
 31
0.0
  0
LINE
  5
356
  8
LAYER_1
 10
25.901265
 20
6.886953
 30
0.0
 11
25.346681
 21
4.699731
 31
0.0
  0
LINE
  5
357
  8
LAYER_1
 10
25.346681
 20
4.699731
 30
0.0
 11
25.302888
 21
4.289625
 31
0.0
  0
LINE
  5
358
  8
LAYER_1
 10
25.302888
 20
4.289625
 30
0.0
 11
25.519796
 21
4.083204
 31
0.0
  0
LINE
  5
359
  8
LAYER_1
 10
25.519796
 20
4.083204
 30
0.0
 11
26.025858
 21
4.071901
 31
0.0
  0
LINE
  5
35A
  8
LAYER_1
 10
26.025858
 20
4.071901
 30
0.0
 11
26.849529
 21
4.247145
 31
0.0
  0
LINE
  5
35B
  8
LAYER_1
 10
26.849529
 20
4.247145
 30
0.0
 11
26.849529
 21
4.247145
 31
0.0
  0
LINE
  5
35C
  8
LAYER_1
 10
29.330574
 20
15.020678
 30
0.0
 11
29.86845
 21
16.319335
 31
0.0
  0
LINE
  5
35D
  8
LAYER_1
 10
29.86845
 20
16.319335
 30
0.0
 11
30.238153
 21
16.538982
 31
0.0
  0
LINE
  5
35E
  8
LAYER_1
 10
30.238153
 20
16.538982
 30
0.0
 11
31.13845
 21
16.63637
 31
0.0
  0
LINE
  5
35F
  8
LAYER_1
 10
31.13845
 20
16.63637
 30
0.0
 11
32.214793
 21
16.745257
 31
0.0
  0
LINE
  5
360
  8
LAYER_1
 10
32.214793
 20
16.745257
 30
0.0
 11
33.022523
 21
16.989148
 31
0.0
  0
LINE
  5
361
  8
LAYER_1
 10
33.022523
 20
16.989148
 30
0.0
 11
34.070925
 21
17.329177
 31
0.0
  0
LINE
  5
362
  8
LAYER_1
 10
34.070925
 20
17.329177
 30
0.0
 11
34.479538
 21
17.492911
 31
0.0
  0
LINE
  5
363
  8
LAYER_1
 10
34.479538
 20
17.492911
 30
0.0
 11
34.79757
 21
17.872537
 31
0.0
  0
LINE
  5
364
  8
LAYER_1
 10
34.79757
 20
17.872537
 30
0.0
 11
34.931403
 21
18.300695
 31
0.0
  0
LINE
  5
365
  8
LAYER_1
 10
34.931403
 20
18.300695
 30
0.0
 11
34.787417
 21
18.610023
 31
0.0
  0
LINE
  5
366
  8
LAYER_1
 10
34.787417
 20
18.610023
 30
0.0
 11
34.289844
 21
18.68811
 31
0.0
  0
LINE
  5
367
  8
LAYER_1
 10
34.289844
 20
18.68811
 30
0.0
 11
33.516652
 21
18.614362
 31
0.0
  0
LINE
  5
368
  8
LAYER_1
 10
33.516652
 20
18.614362
 30
0.0
 11
32.714011
 21
18.563115
 31
0.0
  0
LINE
  5
369
  8
LAYER_1
 10
32.714011
 20
18.563115
 30
0.0
 11
32.579451
 21
18.712634
 31
0.0
  0
LINE
  5
36A
  8
LAYER_1
 10
32.579451
 20
18.712634
 30
0.0
 11
32.547187
 21
19.009722
 31
0.0
  0
LINE
  5
36B
  8
LAYER_1
 10
32.547187
 20
19.009722
 30
0.0
 11
32.335703
 21
19.515787
 31
0.0
  0
LINE
  5
36C
  8
LAYER_1
 10
32.335703
 20
19.515787
 30
0.0
 11
31.830359
 21
19.620607
 31
0.0
  0
LINE
  5
36D
  8
LAYER_1
 10
31.830359
 20
19.620607
 30
0.0
 11
31.224817
 21
19.352626
 31
0.0
  0
LINE
  5
36E
  8
LAYER_1
 10
31.224817
 20
19.352626
 30
0.0
 11
30.712743
 21
18.740288
 31
0.0
  0
LINE
  5
36F
  8
LAYER_1
 10
30.712743
 20
18.740288
 30
0.0
 11
30.083671
 21
17.938213
 31
0.0
  0
LINE
  5
370
  8
LAYER_1
 10
30.083671
 20
17.938213
 30
0.0
 11
29.837071
 21
17.950464
 31
0.0
  0
LINE
  5
371
  8
LAYER_1
 10
29.837071
 20
17.950464
 30
0.0
 11
29.653267
 21
18.2464
 31
0.0
  0
LINE
  5
372
  8
LAYER_1
 10
29.653267
 20
18.2464
 30
0.0
 11
29.454544
 21
18.437595
 31
0.0
  0
LINE
  5
373
  8
LAYER_1
 10
29.454544
 20
18.437595
 30
0.0
 11
29.038338
 21
18.189463
 31
0.0
  0
LINE
  5
374
  8
LAYER_1
 10
29.038338
 20
18.189463
 30
0.0
 11
28.68346
 21
17.63957
 31
0.0
  0
LINE
  5
375
  8
LAYER_1
 10
28.68346
 20
17.63957
 30
0.0
 11
28.713557
 21
16.707797
 31
0.0
  0
LINE
  5
376
  8
LAYER_1
 10
28.713557
 20
16.707797
 30
0.0
 11
28.762452
 21
15.853234
 31
0.0
  0
LINE
  5
377
  8
LAYER_1
 10
28.762452
 20
15.853234
 30
0.0
 11
28.656863
 21
15.683867
 31
0.0
  0
LINE
  5
378
  8
LAYER_1
 10
28.656863
 20
15.683867
 30
0.0
 11
28.45225
 21
15.635844
 31
0.0
  0
LINE
  5
379
  8
LAYER_1
 10
28.45225
 20
15.635844
 30
0.0
 11
28.056192
 21
15.436952
 31
0.0
  0
LINE
  5
37A
  8
LAYER_1
 10
28.056192
 20
15.436952
 30
0.0
 11
27.721108
 21
14.953561
 31
0.0
  0
LINE
  5
37B
  8
LAYER_1
 10
27.721108
 20
14.953561
 30
0.0
 11
27.529732
 21
14.355603
 31
0.0
  0
LINE
  5
37C
  8
LAYER_1
 10
27.529732
 20
14.355603
 30
0.0
 11
27.564793
 21
13.813007
 31
0.0
  0
LINE
  5
37D
  8
LAYER_1
 10
27.564793
 20
13.813007
 30
0.0
 11
27.847408
 21
13.553832
 31
0.0
  0
LINE
  5
37E
  8
LAYER_1
 10
27.847408
 20
13.553832
 30
0.0
 11
28.282206
 21
13.700383
 31
0.0
  0
LINE
  5
37F
  8
LAYER_1
 10
28.282206
 20
13.700383
 30
0.0
 11
28.799743
 21
14.205163
 31
0.0
  0
LINE
  5
380
  8
LAYER_1
 10
28.799743
 20
14.205163
 30
0.0
 11
29.330574
 21
15.020678
 31
0.0
  0
LINE
  5
381
  8
LAYER_1
 10
29.330574
 20
15.020678
 30
0.0
 11
29.330574
 21
15.020678
 31
0.0
  0
LINE
  5
382
  8
LAYER_1
 10
31.393254
 20
15.465885
 30
0.0
 11
32.638213
 21
16.117087
 31
0.0
  0
LINE
  5
383
  8
LAYER_1
 10
32.638213
 20
16.117087
 30
0.0
 11
31.816588
 21
16.274777
 31
0.0
  0
LINE
  5
384
  8
LAYER_1
 10
31.816588
 20
16.274777
 30
0.0
 11
31.23157
 21
16.314702
 31
0.0
  0
LINE
  5
385
  8
LAYER_1
 10
31.23157
 20
16.314702
 30
0.0
 11
30.749639
 21
16.176551
 31
0.0
  0
LINE
  5
386
  8
LAYER_1
 10
30.749639
 20
16.176551
 30
0.0
 11
30.342497
 21
15.845388
 31
0.0
  0
LINE
  5
387
  8
LAYER_1
 10
30.342497
 20
15.845388
 30
0.0
 11
29.98185
 21
15.306277
 31
0.0
  0
LINE
  5
388
  8
LAYER_1
 10
29.98185
 20
15.306277
 30
0.0
 11
29.837873
 21
14.938499
 31
0.0
  0
LINE
  5
389
  8
LAYER_1
 10
29.837873
 20
14.938499
 30
0.0
 11
29.982507
 21
14.83769
 31
0.0
  0
LINE
  5
38A
  8
LAYER_1
 10
29.982507
 20
14.83769
 30
0.0
 11
31.393254
 21
15.465885
 31
0.0
  0
LINE
  5
38B
  8
LAYER_1
 10
31.393254
 20
15.465885
 30
0.0
 11
31.393254
 21
15.465885
 31
0.0
  0
LINE
  5
38C
  8
LAYER_1
 10
21.975387
 20
19.690494
 30
0.0
 11
23.088844
 21
20.345107
 31
0.0
  0
LINE
  5
38D
  8
LAYER_1
 10
23.088844
 20
20.345107
 30
0.0
 11
24.031054
 21
21.148058
 31
0.0
  0
LINE
  5
38E
  8
LAYER_1
 10
24.031054
 20
21.148058
 30
0.0
 11
24.68338
 21
21.977867
 31
0.0
  0
LINE
  5
38F
  8
LAYER_1
 10
24.68338
 20
21.977867
 30
0.0
 11
24.927186
 21
22.713053
 31
0.0
  0
LINE
  5
390
  8
LAYER_1
 10
24.927186
 20
22.713053
 30
0.0
 11
24.746575
 21
23.140056
 31
0.0
  0
LINE
  5
391
  8
LAYER_1
 10
24.746575
 20
23.140056
 30
0.0
 11
24.080519
 21
23.255844
 31
0.0
  0
LINE
  5
392
  8
LAYER_1
 10
24.080519
 20
23.255844
 30
0.0
 11
23.482561
 21
23.3221
 31
0.0
  0
LINE
  5
393
  8
LAYER_1
 10
23.482561
 20
23.3221
 30
0.0
 11
23.233853
 21
23.481396
 31
0.0
  0
LINE
  5
394
  8
LAYER_1
 10
23.233853
 20
23.481396
 30
0.0
 11
23.524012
 21
23.606817
 31
0.0
  0
LINE
  5
395
  8
LAYER_1
 10
23.524012
 20
23.606817
 30
0.0
 11
24.221631
 21
23.59163
 31
0.0
  0
LINE
  5
396
  8
LAYER_1
 10
24.221631
 20
23.59163
 30
0.0
 11
25.037626
 21
23.602122
 31
0.0
  0
LINE
  5
397
  8
LAYER_1
 10
25.037626
 20
23.602122
 30
0.0
 11
25.175858
 21
23.770235
 31
0.0
  0
LINE
  5
398
  8
LAYER_1
 10
25.175858
 20
23.770235
 30
0.0
 11
25.209408
 21
24.084422
 31
0.0
  0
LINE
  5
399
  8
LAYER_1
 10
25.209408
 20
24.084422
 30
0.0
 11
25.176361
 21
24.402942
 31
0.0
  0
LINE
  5
39A
  8
LAYER_1
 10
25.176361
 20
24.402942
 30
0.0
 11
25.033088
 21
24.566769
 31
0.0
  0
LINE
  5
39B
  8
LAYER_1
 10
25.033088
 20
24.566769
 30
0.0
 11
24.151075
 21
24.545775
 31
0.0
  0
LINE
  5
39C
  8
LAYER_1
 10
24.151075
 20
24.545775
 30
0.0
 11
23.092742
 21
24.399019
 31
0.0
  0
LINE
  5
39D
  8
LAYER_1
 10
23.092742
 20
24.399019
 30
0.0
 11
24.151075
 21
24.702134
 31
0.0
  0
LINE
  5
39E
  8
LAYER_1
 10
24.151075
 20
24.702134
 30
0.0
 11
24.898523
 21
25.032327
 31
0.0
  0
LINE
  5
39F
  8
LAYER_1
 10
24.898523
 20
25.032327
 30
0.0
 11
25.209408
 21
25.400546
 31
0.0
  0
LINE
  5
3A0
  8
LAYER_1
 10
25.209408
 20
25.400546
 30
0.0
 11
25.063234
 21
25.677984
 31
0.0
  0
LINE
  5
3A1
  8
LAYER_1
 10
25.063234
 20
25.677984
 30
0.0
 11
24.707112
 21
25.78443
 31
0.0
  0
LINE
  5
3A2
  8
LAYER_1
 10
24.707112
 20
25.78443
 30
0.0
 11
24.264649
 21
25.714268
 31
0.0
  0
LINE
  5
3A3
  8
LAYER_1
 10
24.264649
 20
25.714268
 30
0.0
 11
23.859446
 21
25.461881
 31
0.0
  0
LINE
  5
3A4
  8
LAYER_1
 10
23.859446
 20
25.461881
 30
0.0
 11
23.565492
 21
25.284112
 31
0.0
  0
LINE
  5
3A5
  8
LAYER_1
 10
23.565492
 20
25.284112
 30
0.0
 11
23.327723
 21
25.325678
 31
0.0
  0
LINE
  5
3A6
  8
LAYER_1
 10
23.327723
 20
25.325678
 30
0.0
 11
23.452021
 21
25.564982
 31
0.0
  0
LINE
  5
3A7
  8
LAYER_1
 10
23.452021
 20
25.564982
 30
0.0
 11
24.028574
 21
25.862626
 31
0.0
  0
LINE
  5
3A8
  8
LAYER_1
 10
24.028574
 20
25.862626
 30
0.0
 11
24.647324
 21
26.163045
 31
0.0
  0
LINE
  5
3A9
  8
LAYER_1
 10
24.647324
 20
26.163045
 30
0.0
 11
24.873614
 21
26.52838
 31
0.0
  0
LINE
  5
3AA
  8
LAYER_1
 10
24.873614
 20
26.52838
 30
0.0
 11
24.716697
 21
27.081102
 31
0.0
  0
LINE
  5
3AB
  8
LAYER_1
 10
24.716697
 20
27.081102
 30
0.0
 11
24.185828
 21
27.943683
 31
0.0
  0
LINE
  5
3AC
  8
LAYER_1
 10
24.185828
 20
27.943683
 30
0.0
 11
23.158452
 21
29.18693
 31
0.0
  0
LINE
  5
3AD
  8
LAYER_1
 10
23.158452
 20
29.18693
 30
0.0
 11
22.771406
 21
29.303803
 31
0.0
  0
LINE
  5
3AE
  8
LAYER_1
 10
22.771406
 20
29.303803
 30
0.0
 11
22.35039
 21
29.162819
 31
0.0
  0
LINE
  5
3AF
  8
LAYER_1
 10
22.35039
 20
29.162819
 30
0.0
 11
21.638013
 21
28.934232
 31
0.0
  0
LINE
  5
3B0
  8
LAYER_1
 10
21.638013
 20
28.934232
 30
0.0
 11
20.849284
 21
28.932963
 31
0.0
  0
LINE
  5
3B1
  8
LAYER_1
 10
20.849284
 20
28.932963
 30
0.0
 11
20.067249
 21
29.147723
 31
0.0
  0
LINE
  5
3B2
  8
LAYER_1
 10
20.067249
 20
29.147723
 30
0.0
 11
19.374952
 21
29.567227
 31
0.0
  0
LINE
  5
3B3
  8
LAYER_1
 10
19.374952
 20
29.567227
 30
0.0
 11
17.968258
 21
30.424637
 31
0.0
  0
LINE
  5
3B4
  8
LAYER_1
 10
17.968258
 20
30.424637
 30
0.0
 11
17.31798
 21
30.855145
 31
0.0
  0
LINE
  5
3B5
  8
LAYER_1
 10
17.31798
 20
30.855145
 30
0.0
 11
17.118636
 21
31.46768
 31
0.0
  0
LINE
  5
3B6
  8
LAYER_1
 10
17.118636
 20
31.46768
 30
0.0
 11
17.363006
 21
32.067808
 31
0.0
  0
LINE
  5
3B7
  8
LAYER_1
 10
17.363006
 20
32.067808
 30
0.0
 11
18.043871
 21
32.461098
 31
0.0
  0
LINE
  5
3B8
  8
LAYER_1
 10
18.043871
 20
32.461098
 30
0.0
 11
18.530883
 21
32.701158
 31
0.0
  0
LINE
  5
3B9
  8
LAYER_1
 10
18.530883
 20
32.701158
 30
0.0
 11
18.703092
 21
33.019137
 31
0.0
  0
LINE
  5
3BA
  8
LAYER_1
 10
18.703092
 20
33.019137
 30
0.0
 11
18.555547
 21
33.295702
 31
0.0
  0
LINE
  5
3BB
  8
LAYER_1
 10
18.555547
 20
33.295702
 30
0.0
 11
18.083297
 21
33.411522
 31
0.0
  0
LINE
  5
3BC
  8
LAYER_1
 10
18.083297
 20
33.411522
 30
0.0
 11
17.150486
 21
33.186176
 31
0.0
  0
LINE
  5
3BD
  8
LAYER_1
 10
17.150486
 20
33.186176
 30
0.0
 11
16.502769
 21
32.376064
 31
0.0
  0
LINE
  5
3BE
  8
LAYER_1
 10
16.502769
 20
32.376064
 30
0.0
 11
16.240824
 21
31.696558
 31
0.0
  0
LINE
  5
3BF
  8
LAYER_1
 10
16.240824
 20
31.696558
 30
0.0
 11
16.215118
 21
31.094141
 31
0.0
  0
LINE
  5
3C0
  8
LAYER_1
 10
16.215118
 20
31.094141
 30
0.0
 11
16.427155
 21
30.559633
 31
0.0
  0
LINE
  5
3C1
  8
LAYER_1
 10
16.427155
 20
30.559633
 30
0.0
 11
16.878441
 21
30.083857
 31
0.0
  0
LINE
  5
3C2
  8
LAYER_1
 10
16.878441
 20
30.083857
 30
0.0
 11
17.578585
 21
29.533124
 31
0.0
  0
LINE
  5
3C3
  8
LAYER_1
 10
17.578585
 20
29.533124
 30
0.0
 11
16.773286
 21
29.372064
 31
0.0
  0
LINE
  5
3C4
  8
LAYER_1
 10
16.773286
 20
29.372064
 30
0.0
 11
16.003627
 21
29.036048
 31
0.0
  0
LINE
  5
3C5
  8
LAYER_1
 10
16.003627
 20
29.036048
 30
0.0
 11
15.189156
 21
28.410623
 31
0.0
  0
LINE
  5
3C6
  8
LAYER_1
 10
15.189156
 20
28.410623
 30
0.0
 11
14.504235
 21
27.656245
 31
0.0
  0
LINE
  5
3C7
  8
LAYER_1
 10
14.504235
 20
27.656245
 30
0.0
 11
14.123227
 21
26.93337
 31
0.0
  0
LINE
  5
3C8
  8
LAYER_1
 10
14.123227
 20
26.93337
 30
0.0
 11
14.091862
 21
26.625822
 31
0.0
  0
LINE
  5
3C9
  8
LAYER_1
 10
14.091862
 20
26.625822
 30
0.0
 11
14.20249
 21
26.380431
 31
0.0
  0
LINE
  5
3CA
  8
LAYER_1
 10
14.20249
 20
26.380431
 30
0.0
 11
14.976342
 21
25.926713
 31
0.0
  0
LINE
  5
3CB
  8
LAYER_1
 10
14.976342
 20
25.926713
 30
0.0
 11
15.64003
 21
25.582655
 31
0.0
  0
LINE
  5
3CC
  8
LAYER_1
 10
15.64003
 20
25.582655
 30
0.0
 11
15.822468
 21
25.34594
 31
0.0
  0
LINE
  5
3CD
  8
LAYER_1
 10
15.822468
 20
25.34594
 30
0.0
 11
15.54182
 21
25.322368
 31
0.0
  0
LINE
  5
3CE
  8
LAYER_1
 10
15.54182
 20
25.322368
 30
0.0
 11
15.092133
 21
25.490756
 31
0.0
  0
LINE
  5
3CF
  8
LAYER_1
 10
15.092133
 20
25.490756
 30
0.0
 11
14.063122
 21
25.779554
 31
0.0
  0
LINE
  5
3D0
  8
LAYER_1
 10
14.063122
 20
25.779554
 30
0.0
 11
13.752174
 21
25.661141
 31
0.0
  0
LINE
  5
3D1
  8
LAYER_1
 10
13.752174
 20
25.661141
 30
0.0
 11
13.638297
 21
25.372511
 31
0.0
  0
LINE
  5
3D2
  8
LAYER_1
 10
13.638297
 20
25.372511
 30
0.0
 11
13.876258
 21
25.04947
 31
0.0
  0
LINE
  5
3D3
  8
LAYER_1
 10
13.876258
 20
25.04947
 30
0.0
 11
14.642731
 21
24.949177
 31
0.0
  0
LINE
  5
3D4
  8
LAYER_1
 10
14.642731
 20
24.949177
 30
0.0
 11
15.324775
 21
24.870926
 31
0.0
  0
LINE
  5
3D5
  8
LAYER_1
 10
15.324775
 20
24.870926
 30
0.0
 11
15.469897
 21
24.662352
 31
0.0
  0
LINE
  5
3D6
  8
LAYER_1
 10
15.469897
 20
24.662352
 30
0.0
 11
15.266785
 21
24.507936
 31
0.0
  0
LINE
  5
3D7
  8
LAYER_1
 10
15.266785
 20
24.507936
 30
0.0
 11
15.027382
 21
24.539457
 31
0.0
  0
LINE
  5
3D8
  8
LAYER_1
 10
15.027382
 20
24.539457
 30
0.0
 11
14.631898
 21
24.618772
 31
0.0
  0
LINE
  5
3D9
  8
LAYER_1
 10
14.631898
 20
24.618772
 30
0.0
 11
14.174227
 21
24.505152
 31
0.0
  0
LINE
  5
3DA
  8
LAYER_1
 10
14.174227
 20
24.505152
 30
0.0
 11
13.795862
 21
24.259415
 31
0.0
  0
LINE
  5
3DB
  8
LAYER_1
 10
13.795862
 20
24.259415
 30
0.0
 11
13.638297
 21
23.942381
 31
0.0
  0
LINE
  5
3DC
  8
LAYER_1
 10
13.638297
 20
23.942381
 30
0.0
 11
13.711993
 21
23.664959
 31
0.0
  0
LINE
  5
3DD
  8
LAYER_1
 10
13.711993
 20
23.664959
 30
0.0
 11
13.932454
 21
23.555894
 31
0.0
  0
LINE
  5
3DE
  8
LAYER_1
 10
13.932454
 20
23.555894
 30
0.0
 11
14.809911
 21
23.843154
 31
0.0
  0
LINE
  5
3DF
  8
LAYER_1
 10
14.809911
 20
23.843154
 30
0.0
 11
15.52314
 21
24.005075
 31
0.0
  0
LINE
  5
3E0
  8
LAYER_1
 10
15.52314
 20
24.005075
 30
0.0
 11
15.367028
 21
23.770948
 31
0.0
  0
LINE
  5
3E1
  8
LAYER_1
 10
15.367028
 20
23.770948
 30
0.0
 11
14.790652
 21
23.40909
 31
0.0
  0
LINE
  5
3E2
  8
LAYER_1
 10
14.790652
 20
23.40909
 30
0.0
 11
14.093858
 21
22.912189
 31
0.0
  0
LINE
  5
3E3
  8
LAYER_1
 10
14.093858
 20
22.912189
 30
0.0
 11
14.109587
 21
22.629103
 31
0.0
  0
LINE
  5
3E4
  8
LAYER_1
 10
14.109587
 20
22.629103
 30
0.0
 11
14.315896
 21
22.188835
 31
0.0
  0
LINE
  5
3E5
  8
LAYER_1
 10
14.315896
 20
22.188835
 30
0.0
 11
15.233139
 21
20.947569
 31
0.0
  0
LINE
  5
3E6
  8
LAYER_1
 10
15.233139
 20
20.947569
 30
0.0
 11
16.497932
 21
19.959438
 31
0.0
  0
LINE
  5
3E7
  8
LAYER_1
 10
16.497932
 20
19.959438
 30
0.0
 11
17.983973
 21
19.300086
 31
0.0
  0
LINE
  5
3E8
  8
LAYER_1
 10
17.983973
 20
19.300086
 30
0.0
 11
19.564964
 21
19.045154
 31
0.0
  0
LINE
  5
3E9
  8
LAYER_1
 10
19.564964
 20
19.045154
 30
0.0
 11
20.680484
 21
19.227657
 31
0.0
  0
LINE
  5
3EA
  8
LAYER_1
 10
20.680484
 20
19.227657
 30
0.0
 11
21.975387
 21
19.690494
 31
0.0
  0
LINE
  5
3EB
  8
LAYER_1
 10
21.975387
 20
19.690494
 30
0.0
 11
21.975387
 21
19.690494
 31
0.0
  0
LINE
  5
3EC
  8
LAYER_1
 10
18.669103
 20
21.369034
 30
0.0
 11
19.164728
 21
22.253373
 31
0.0
  0
LINE
  5
3ED
  8
LAYER_1
 10
19.164728
 20
22.253373
 30
0.0
 11
19.302579
 21
23.838478
 31
0.0
  0
LINE
  5
3EE
  8
LAYER_1
 10
19.302579
 20
23.838478
 30
0.0
 11
19.388922
 21
24.908459
 31
0.0
  0
LINE
  5
3EF
  8
LAYER_1
 10
19.388922
 20
24.908459
 30
0.0
 11
19.560001
 21
25.135635
 31
0.0
  0
LINE
  5
3F0
  8
LAYER_1
 10
19.560001
 20
25.135635
 30
0.0
 11
19.733561
 21
24.594852
 31
0.0
  0
LINE
  5
3F1
  8
LAYER_1
 10
19.733561
 20
24.594852
 30
0.0
 11
19.827351
 21
23.360956
 31
0.0
  0
LINE
  5
3F2
  8
LAYER_1
 10
19.827351
 20
23.360956
 30
0.0
 11
19.899122
 21
22.599027
 31
0.0
  0
LINE
  5
3F3
  8
LAYER_1
 10
19.899122
 20
22.599027
 30
0.0
 11
20.110945
 21
22.068287
 31
0.0
  0
LINE
  5
3F4
  8
LAYER_1
 10
20.110945
 20
22.068287
 30
0.0
 11
20.50343
 21
21.708923
 31
0.0
  0
LINE
  5
3F5
  8
LAYER_1
 10
20.50343
 20
21.708923
 30
0.0
 11
21.117186
 21
21.46112
 31
0.0
  0
LINE
  5
3F6
  8
LAYER_1
 10
21.117186
 20
21.46112
 30
0.0
 11
21.244306
 21
21.408412
 31
0.0
  0
LINE
  5
3F7
  8
LAYER_1
 10
21.244306
 20
21.408412
 30
0.0
 11
21.173168
 21
21.384752
 31
0.0
  0
LINE
  5
3F8
  8
LAYER_1
 10
21.173168
 20
21.384752
 30
0.0
 11
20.515138
 21
21.428816
 31
0.0
  0
LINE
  5
3F9
  8
LAYER_1
 10
20.515138
 20
21.428816
 30
0.0
 11
19.542657
 21
21.427705
 31
0.0
  0
LINE
  5
3FA
  8
LAYER_1
 10
19.542657
 20
21.427705
 30
0.0
 11
18.998914
 21
21.137243
 31
0.0
  0
LINE
  5
3FB
  8
LAYER_1
 10
18.998914
 20
21.137243
 30
0.0
 11
18.352323
 21
20.715844
 31
0.0
  0
LINE
  5
3FC
  8
LAYER_1
 10
18.352323
 20
20.715844
 30
0.0
 11
18.322921
 21
20.907718
 31
0.0
  0
LINE
  5
3FD
  8
LAYER_1
 10
18.322921
 20
20.907718
 30
0.0
 11
18.669103
 21
21.369034
 31
0.0
  0
LINE
  5
3FE
  8
LAYER_1
 10
18.669103
 20
21.369034
 30
0.0
 11
18.669103
 21
21.369034
 31
0.0
  0
LINE
  5
3FF
  8
LAYER_1
 10
20.41163
 20
23.538066
 30
0.0
 11
20.535985
 21
23.737386
 31
0.0
  0
LINE
  5
400
  8
LAYER_1
 10
20.535985
 20
23.737386
 30
0.0
 11
20.834964
 21
23.820288
 31
0.0
  0
LINE
  5
401
  8
LAYER_1
 10
20.834964
 20
23.820288
 30
0.0
 11
21.133943
 21
23.737386
 31
0.0
  0
LINE
  5
402
  8
LAYER_1
 10
21.133943
 20
23.737386
 30
0.0
 11
21.258297
 21
23.538066
 31
0.0
  0
LINE
  5
403
  8
LAYER_1
 10
21.258297
 20
23.538066
 30
0.0
 11
21.133943
 21
23.338747
 31
0.0
  0
LINE
  5
404
  8
LAYER_1
 10
21.133943
 20
23.338747
 30
0.0
 11
20.834964
 21
23.255844
 31
0.0
  0
LINE
  5
405
  8
LAYER_1
 10
20.834964
 20
23.255844
 30
0.0
 11
20.535985
 21
23.338747
 31
0.0
  0
LINE
  5
406
  8
LAYER_1
 10
20.535985
 20
23.338747
 30
0.0
 11
20.41163
 21
23.538066
 31
0.0
  0
LINE
  5
407
  8
LAYER_1
 10
20.41163
 20
23.538066
 30
0.0
 11
20.41163
 21
23.538066
 31
0.0
  0
LINE
  5
408
  8
LAYER_1
 10
16.592871
 20
23.834461
 30
0.0
 11
16.500889
 21
24.123401
 31
0.0
  0
LINE
  5
409
  8
LAYER_1
 10
16.500889
 20
24.123401
 30
0.0
 11
16.587164
 21
24.308836
 31
0.0
  0
LINE
  5
40A
  8
LAYER_1
 10
16.587164
 20
24.308836
 30
0.0
 11
16.79164
 21
24.344995
 31
0.0
  0
LINE
  5
40B
  8
LAYER_1
 10
16.79164
 20
24.344995
 30
0.0
 11
17.054258
 21
24.186105
 31
0.0
  0
LINE
  5
40C
  8
LAYER_1
 10
17.054258
 20
24.186105
 30
0.0
 11
17.209949
 21
23.914933
 31
0.0
  0
LINE
  5
40D
  8
LAYER_1
 10
17.209949
 20
23.914933
 30
0.0
 11
17.069056
 21
23.706428
 31
0.0
  0
LINE
  5
40E
  8
LAYER_1
 10
17.069056
 20
23.706428
 30
0.0
 11
16.81066
 21
23.670791
 31
0.0
  0
LINE
  5
40F
  8
LAYER_1
 10
16.81066
 20
23.670791
 30
0.0
 11
16.592871
 21
23.834461
 31
0.0
  0
LINE
  5
410
  8
LAYER_1
 10
16.592871
 20
23.834461
 30
0.0
 11
16.592871
 21
23.834461
 31
0.0
  0
LINE
  5
411
  8
LAYER_1
 10
17.87163
 20
23.820288
 30
0.0
 11
17.94964
 21
24.019608
 31
0.0
  0
LINE
  5
412
  8
LAYER_1
 10
17.94964
 20
24.019608
 30
0.0
 11
18.137196
 21
24.102511
 31
0.0
  0
LINE
  5
413
  8
LAYER_1
 10
18.137196
 20
24.102511
 30
0.0
 11
18.577186
 21
23.820288
 31
0.0
  0
LINE
  5
414
  8
LAYER_1
 10
18.577186
 20
23.820288
 30
0.0
 11
18.571126
 21
23.620969
 31
0.0
  0
LINE
  5
415
  8
LAYER_1
 10
18.571126
 20
23.620969
 30
0.0
 11
18.311621
 21
23.538066
 31
0.0
  0
LINE
  5
416
  8
LAYER_1
 10
18.311621
 20
23.538066
 30
0.0
 11
18.000878
 21
23.620969
 31
0.0
  0
LINE
  5
417
  8
LAYER_1
 10
18.000878
 20
23.620969
 30
0.0
 11
17.87163
 21
23.820288
 31
0.0
  0
LINE
  5
418
  8
LAYER_1
 10
17.87163
 20
23.820288
 30
0.0
 11
17.87163
 21
23.820288
 31
0.0
  0
LINE
  5
419
  8
LAYER_1
 10
21.540519
 20
23.644621
 30
0.0
 11
21.963853
 21
24.102511
 31
0.0
  0
LINE
  5
41A
  8
LAYER_1
 10
21.963853
 20
24.102511
 30
0.0
 11
22.305537
 21
24.297768
 31
0.0
  0
LINE
  5
41B
  8
LAYER_1
 10
22.305537
 20
24.297768
 30
0.0
 11
22.387186
 21
23.995956
 31
0.0
  0
LINE
  5
41C
  8
LAYER_1
 10
22.387186
 20
23.995956
 30
0.0
 11
22.262832
 21
23.672571
 31
0.0
  0
LINE
  5
41D
  8
LAYER_1
 10
22.262832
 20
23.672571
 30
0.0
 11
21.963853
 21
23.538066
 31
0.0
  0
LINE
  5
41E
  8
LAYER_1
 10
21.963853
 20
23.538066
 30
0.0
 11
21.540519
 21
23.644621
 31
0.0
  0
LINE
  5
41F
  8
LAYER_1
 10
21.540519
 20
23.644621
 30
0.0
 11
21.540519
 21
23.644621
 31
0.0
  0
LINE
  5
420
  8
LAYER_1
 10
20.746769
 20
24.684594
 30
0.0
 11
21.240658
 21
25.178483
 31
0.0
  0
LINE
  5
421
  8
LAYER_1
 10
21.240658
 20
25.178483
 30
0.0
 11
21.469964
 21
25.160844
 31
0.0
  0
LINE
  5
422
  8
LAYER_1
 10
21.469964
 20
25.160844
 30
0.0
 11
21.487603
 21
24.931538
 31
0.0
  0
LINE
  5
423
  8
LAYER_1
 10
21.487603
 20
24.931538
 30
0.0
 11
20.993714
 21
24.43765
 31
0.0
  0
LINE
  5
424
  8
LAYER_1
 10
20.993714
 20
24.43765
 30
0.0
 11
20.764408
 21
24.455288
 31
0.0
  0
LINE
  5
425
  8
LAYER_1
 10
20.764408
 20
24.455288
 30
0.0
 11
20.746769
 21
24.684594
 31
0.0
  0
LINE
  5
426
  8
LAYER_1
 10
20.746769
 20
24.684594
 30
0.0
 11
20.746769
 21
24.684594
 31
0.0
  0
LINE
  5
427
  8
LAYER_1
 10
16.895905
 20
24.929676
 30
0.0
 11
16.856799
 21
25.161927
 31
0.0
  0
LINE
  5
428
  8
LAYER_1
 10
16.856799
 20
25.161927
 30
0.0
 11
16.990788
 21
25.351389
 31
0.0
  0
LINE
  5
429
  8
LAYER_1
 10
16.990788
 20
25.351389
 30
0.0
 11
17.220009
 21
25.339798
 31
0.0
  0
LINE
  5
42A
  8
LAYER_1
 10
17.220009
 20
25.339798
 30
0.0
 11
17.409867
 21
25.088667
 31
0.0
  0
LINE
  5
42B
  8
LAYER_1
 10
17.409867
 20
25.088667
 30
0.0
 11
17.440902
 21
24.810543
 31
0.0
  0
LINE
  5
42C
  8
LAYER_1
 10
17.440902
 20
24.810543
 30
0.0
 11
17.318205
 21
24.676679
 31
0.0
  0
LINE
  5
42D
  8
LAYER_1
 10
17.318205
 20
24.676679
 30
0.0
 11
17.112848
 21
24.709061
 31
0.0
  0
LINE
  5
42E
  8
LAYER_1
 10
17.112848
 20
24.709061
 30
0.0
 11
16.895905
 21
24.929676
 31
0.0
  0
LINE
  5
42F
  8
LAYER_1
 10
16.895905
 20
24.929676
 30
0.0
 11
16.895905
 21
24.929676
 31
0.0
  0
LINE
  5
430
  8
LAYER_1
 10
18.078257
 20
26.511574
 30
0.0
 11
17.20192
 21
27.326392
 31
0.0
  0
LINE
  5
431
  8
LAYER_1
 10
17.20192
 20
27.326392
 30
0.0
 11
17.053369
 21
27.683996
 31
0.0
  0
LINE
  5
432
  8
LAYER_1
 10
17.053369
 20
27.683996
 30
0.0
 11
17.092461
 21
27.996534
 31
0.0
  0
LINE
  5
433
  8
LAYER_1
 10
17.092461
 20
27.996534
 30
0.0
 11
17.315116
 21
28.255108
 31
0.0
  0
LINE
  5
434
  8
LAYER_1
 10
17.315116
 20
28.255108
 30
0.0
 11
17.717257
 21
28.45082
 31
0.0
  0
LINE
  5
435
  8
LAYER_1
 10
17.717257
 20
28.45082
 30
0.0
 11
19.043685
 21
28.618066
 31
0.0
  0
LINE
  5
436
  8
LAYER_1
 10
19.043685
 20
28.618066
 30
0.0
 11
20.774291
 21
28.412718
 31
0.0
  0
LINE
  5
437
  8
LAYER_1
 10
20.774291
 20
28.412718
 30
0.0
 11
21.333269
 21
28.180711
 31
0.0
  0
LINE
  5
438
  8
LAYER_1
 10
21.333269
 20
28.180711
 30
0.0
 11
21.672692
 21
27.88442
 31
0.0
  0
LINE
  5
439
  8
LAYER_1
 10
21.672692
 20
27.88442
 30
0.0
 11
21.781055
 21
27.540297
 31
0.0
  0
LINE
  5
43A
  8
LAYER_1
 10
21.781055
 20
27.540297
 30
0.0
 11
21.646855
 21
27.164795
 31
0.0
  0
LINE
  5
43B
  8
LAYER_1
 10
21.646855
 20
27.164795
 30
0.0
 11
21.258588
 21
26.774367
 31
0.0
  0
LINE
  5
43C
  8
LAYER_1
 10
21.258588
 20
26.774367
 30
0.0
 11
20.60475
 21
26.385464
 31
0.0
  0
LINE
  5
43D
  8
LAYER_1
 10
20.60475
 20
26.385464
 30
0.0
 11
19.259151
 21
25.795844
 31
0.0
  0
LINE
  5
43E
  8
LAYER_1
 10
19.259151
 20
25.795844
 30
0.0
 11
18.078257
 21
26.511574
 31
0.0
  0
LINE
  5
43F
  8
LAYER_1
 10
18.078257
 20
26.511574
 30
0.0
 11
18.078257
 21
26.511574
 31
0.0
  0
LINE
  5
440
  8
LAYER_1
 10
19.14163
 20
27.7714
 30
0.0
 11
19.094119
 21
27.970719
 31
0.0
  0
LINE
  5
441
  8
LAYER_1
 10
19.094119
 20
27.970719
 30
0.0
 11
18.734954
 21
28.053622
 31
0.0
  0
LINE
  5
442
  8
LAYER_1
 10
18.734954
 20
28.053622
 30
0.0
 11
18.324551
 21
27.970719
 31
0.0
  0
LINE
  5
443
  8
LAYER_1
 10
18.324551
 20
27.970719
 30
0.0
 11
18.153853
 21
27.7714
 31
0.0
  0
LINE
  5
444
  8
LAYER_1
 10
18.153853
 20
27.7714
 30
0.0
 11
18.273314
 21
27.57208
 31
0.0
  0
LINE
  5
445
  8
LAYER_1
 10
18.273314
 20
27.57208
 30
0.0
 11
18.560529
 21
27.489177
 31
0.0
  0
LINE
  5
446
  8
LAYER_1
 10
18.560529
 20
27.489177
 30
0.0
 11
19.14163
 21
27.7714
 31
0.0
  0
LINE
  5
447
  8
LAYER_1
 10
19.14163
 20
27.7714
 30
0.0
 11
19.14163
 21
27.7714
 31
0.0
  0
LINE
  5
448
  8
LAYER_1
 10
15.717248
 20
19.583101
 30
0.0
 11
15.600598
 21
19.90608
 31
0.0
  0
LINE
  5
449
  8
LAYER_1
 10
15.600598
 20
19.90608
 30
0.0
 11
14.976792
 21
20.677192
 31
0.0
  0
LINE
  5
44A
  8
LAYER_1
 10
14.976792
 20
20.677192
 30
0.0
 11
13.715336
 21
22.261492
 31
0.0
  0
LINE
  5
44B
  8
LAYER_1
 10
13.715336
 20
22.261492
 30
0.0
 11
13.373272
 21
22.60137
 31
0.0
  0
LINE
  5
44C
  8
LAYER_1
 10
13.373272
 20
22.60137
 30
0.0
 11
12.808844
 21
22.41839
 31
0.0
  0
LINE
  5
44D
  8
LAYER_1
 10
12.808844
 20
22.41839
 30
0.0
 11
12.308829
 21
22.239784
 31
0.0
  0
LINE
  5
44E
  8
LAYER_1
 10
12.308829
 20
22.239784
 30
0.0
 11
11.991348
 21
22.283838
 31
0.0
  0
LINE
  5
44F
  8
LAYER_1
 10
11.991348
 20
22.283838
 30
0.0
 11
11.950801
 21
22.460026
 31
0.0
  0
LINE
  5
450
  8
LAYER_1
 10
11.950801
 20
22.460026
 30
0.0
 11
12.116609
 21
22.599104
 31
0.0
  0
LINE
  5
451
  8
LAYER_1
 10
12.116609
 20
22.599104
 30
0.0
 11
12.938575
 21
23.084099
 31
0.0
  0
LINE
  5
452
  8
LAYER_1
 10
12.938575
 20
23.084099
 30
0.0
 11
13.267527
 21
23.512666
 31
0.0
  0
LINE
  5
453
  8
LAYER_1
 10
13.267527
 20
23.512666
 30
0.0
 11
13.27044
 21
23.956039
 31
0.0
  0
LINE
  5
454
  8
LAYER_1
 10
13.27044
 20
23.956039
 30
0.0
 11
12.999272
 21
24.267932
 31
0.0
  0
LINE
  5
455
  8
LAYER_1
 10
12.999272
 20
24.267932
 30
0.0
 11
12.505979
 21
24.302062
 31
0.0
  0
LINE
  5
456
  8
LAYER_1
 10
12.505979
 20
24.302062
 30
0.0
 11
12.085119
 21
24.249022
 31
0.0
  0
LINE
  5
457
  8
LAYER_1
 10
12.085119
 20
24.249022
 30
0.0
 11
11.962067
 21
24.352766
 31
0.0
  0
LINE
  5
458
  8
LAYER_1
 10
11.962067
 20
24.352766
 30
0.0
 11
12.578315
 21
24.811699
 31
0.0
  0
LINE
  5
459
  8
LAYER_1
 10
12.578315
 20
24.811699
 30
0.0
 11
13.141796
 21
25.193187
 31
0.0
  0
LINE
  5
45A
  8
LAYER_1
 10
13.141796
 20
25.193187
 30
0.0
 11
13.305707
 21
25.618312
 31
0.0
  0
LINE
  5
45B
  8
LAYER_1
 10
13.305707
 20
25.618312
 30
0.0
 11
13.075613
 21
26.017716
 31
0.0
  0
LINE
  5
45C
  8
LAYER_1
 10
13.075613
 20
26.017716
 30
0.0
 11
12.457083
 21
26.322042
 31
0.0
  0
LINE
  5
45D
  8
LAYER_1
 10
12.457083
 20
26.322042
 30
0.0
 11
11.52163
 21
26.591604
 31
0.0
  0
LINE
  5
45E
  8
LAYER_1
 10
11.52163
 20
26.591604
 30
0.0
 11
12.560945
 21
26.617058
 31
0.0
  0
LINE
  5
45F
  8
LAYER_1
 10
12.560945
 20
26.617058
 30
0.0
 11
13.406263
 21
26.75875
 31
0.0
  0
LINE
  5
460
  8
LAYER_1
 10
13.406263
 20
26.75875
 30
0.0
 11
13.773116
 21
27.187129
 31
0.0
  0
LINE
  5
461
  8
LAYER_1
 10
13.773116
 20
27.187129
 30
0.0
 11
14.199925
 21
27.86775
 31
0.0
  0
LINE
  5
462
  8
LAYER_1
 10
14.199925
 20
27.86775
 30
0.0
 11
14.98335
 21
28.739352
 31
0.0
  0
LINE
  5
463
  8
LAYER_1
 10
14.98335
 20
28.739352
 30
0.0
 11
16.020728
 21
29.746955
 31
0.0
  0
LINE
  5
464
  8
LAYER_1
 10
16.020728
 20
29.746955
 30
0.0
 11
14.697259
 21
29.746955
 31
0.0
  0
LINE
  5
465
  8
LAYER_1
 10
14.697259
 20
29.746955
 30
0.0
 11
13.670261
 21
29.662492
 31
0.0
  0
LINE
  5
466
  8
LAYER_1
 10
13.670261
 20
29.662492
 30
0.0
 11
13.513605
 21
29.532871
 31
0.0
  0
LINE
  5
467
  8
LAYER_1
 10
13.513605
 20
29.532871
 30
0.0
 11
13.536238
 21
29.323622
 31
0.0
  0
LINE
  5
468
  8
LAYER_1
 10
13.536238
 20
29.323622
 30
0.0
 11
13.584634
 21
29.022907
 31
0.0
  0
LINE
  5
469
  8
LAYER_1
 10
13.584634
 20
29.022907
 30
0.0
 11
13.437297
 21
28.917696
 31
0.0
  0
LINE
  5
46A
  8
LAYER_1
 10
13.437297
 20
28.917696
 30
0.0
 11
12.634222
 21
29.296186
 31
0.0
  0
LINE
  5
46B
  8
LAYER_1
 10
12.634222
 20
29.296186
 30
0.0
 11
12.05039
 21
29.546777
 31
0.0
  0
LINE
  5
46C
  8
LAYER_1
 10
12.05039
 20
29.546777
 30
0.0
 11
11.407755
 21
29.338198
 31
0.0
  0
LINE
  5
46D
  8
LAYER_1
 10
11.407755
 20
29.338198
 30
0.0
 11
10.907828
 21
29.009548
 31
0.0
  0
LINE
  5
46E
  8
LAYER_1
 10
10.907828
 20
29.009548
 30
0.0
 11
11.345738
 21
28.82761
 31
0.0
  0
LINE
  5
46F
  8
LAYER_1
 10
11.345738
 20
28.82761
 30
0.0
 11
11.77409
 21
28.634211
 31
0.0
  0
LINE
  5
470
  8
LAYER_1
 10
11.77409
 20
28.634211
 30
0.0
 11
11.923823
 21
28.38389
 31
0.0
  0
LINE
  5
471
  8
LAYER_1
 10
11.923823
 20
28.38389
 30
0.0
 11
11.793069
 21
28.12661
 31
0.0
  0
LINE
  5
472
  8
LAYER_1
 10
11.793069
 20
28.12661
 30
0.0
 11
11.37996
 21
27.912333
 31
0.0
  0
LINE
  5
473
  8
LAYER_1
 10
11.37996
 20
27.912333
 30
0.0
 11
10.971386
 21
27.625602
 31
0.0
  0
LINE
  5
474
  8
LAYER_1
 10
10.971386
 20
27.625602
 30
0.0
 11
10.986975
 21
27.047634
 31
0.0
  0
LINE
  5
475
  8
LAYER_1
 10
10.986975
 20
27.047634
 30
0.0
 11
11.002622
 21
26.492018
 31
0.0
  0
LINE
  5
476
  8
LAYER_1
 10
11.002622
 20
26.492018
 30
0.0
 11
10.297407
 21
26.534578
 31
0.0
  0
LINE
  5
477
  8
LAYER_1
 10
10.297407
 20
26.534578
 30
0.0
 11
9.82447
 21
26.594355
 31
0.0
  0
LINE
  5
478
  8
LAYER_1
 10
9.82447
 20
26.594355
 30
0.0
 11
9.484028
 21
26.515661
 31
0.0
  0
LINE
  5
479
  8
LAYER_1
 10
9.484028
 20
26.515661
 30
0.0
 11
8.857003000000001
 21
25.75748
 31
0.0
  0
LINE
  5
47A
  8
LAYER_1
 10
8.857003000000001
 20
25.75748
 30
0.0
 11
8.303891999999999
 21
24.645268
 31
0.0
  0
LINE
  5
47B
  8
LAYER_1
 10
8.303891999999999
 20
24.645268
 30
0.0
 11
8.341222
 21
24.46271
 31
0.0
  0
LINE
  5
47C
  8
LAYER_1
 10
8.341222
 20
24.46271
 30
0.0
 11
8.591583999999999
 21
24.546417
 31
0.0
  0
LINE
  5
47D
  8
LAYER_1
 10
8.591583999999999
 20
24.546417
 30
0.0
 11
9.888304
 21
24.962711
 31
0.0
  0
LINE
  5
47E
  8
LAYER_1
 10
9.888304
 20
24.962711
 30
0.0
 11
10.681006
 21
25.059429
 31
0.0
  0
LINE
  5
47F
  8
LAYER_1
 10
10.681006
 20
25.059429
 30
0.0
 11
10.774401
 21
24.933561
 31
0.0
  0
LINE
  5
480
  8
LAYER_1
 10
10.774401
 20
24.933561
 30
0.0
 11
10.734471
 21
24.667602
 31
0.0
  0
LINE
  5
481
  8
LAYER_1
 10
10.734471
 20
24.667602
 30
0.0
 11
10.774632
 21
24.240931
 31
0.0
  0
LINE
  5
482
  8
LAYER_1
 10
10.774632
 20
24.240931
 30
0.0
 11
11.177496
 21
24.000026
 31
0.0
  0
LINE
  5
483
  8
LAYER_1
 10
11.177496
 20
24.000026
 30
0.0
 11
11.576075
 21
23.79828
 31
0.0
  0
LINE
  5
484
  8
LAYER_1
 10
11.576075
 20
23.79828
 30
0.0
 11
11.415355
 21
23.43893
 31
0.0
  0
LINE
  5
485
  8
LAYER_1
 10
11.415355
 20
23.43893
 30
0.0
 11
10.971225
 21
23.098253
 31
0.0
  0
LINE
  5
486
  8
LAYER_1
 10
10.971225
 20
23.098253
 30
0.0
 11
10.381165
 21
22.854823
 31
0.0
  0
LINE
  5
487
  8
LAYER_1
 10
10.381165
 20
22.854823
 30
0.0
 11
9.891043
 21
22.615816
 31
0.0
  0
LINE
  5
488
  8
LAYER_1
 10
9.891043
 20
22.615816
 30
0.0
 11
9.687186000000001
 21
22.285771
 31
0.0
  0
LINE
  5
489
  8
LAYER_1
 10
9.687186000000001
 20
22.285771
 30
0.0
 11
9.496383
 21
21.393673
 31
0.0
  0
LINE
  5
48A
  8
LAYER_1
 10
9.496383
 20
21.393673
 30
0.0
 11
9.43225
 21
21.038246
 31
0.0
  0
LINE
  5
48B
  8
LAYER_1
 10
9.43225
 20
21.038246
 30
0.0
 11
9.982513000000001
 21
21.370591
 31
0.0
  0
LINE
  5
48C
  8
LAYER_1
 10
9.982513000000001
 20
21.370591
 30
0.0
 11
11.040141
 21
21.844733
 31
0.0
  0
LINE
  5
48D
  8
LAYER_1
 10
11.040141
 20
21.844733
 30
0.0
 11
11.412042
 21
21.732281
 31
0.0
  0
LINE
  5
48E
  8
LAYER_1
 10
11.412042
 20
21.732281
 30
0.0
 11
11.799375
 21
21.454669
 31
0.0
  0
LINE
  5
48F
  8
LAYER_1
 10
11.799375
 20
21.454669
 30
0.0
 11
12.103852
 21
21.101512
 31
0.0
  0
LINE
  5
490
  8
LAYER_1
 10
12.103852
 20
21.101512
 30
0.0
 11
12.227186
 21
20.762424
 31
0.0
  0
LINE
  5
491
  8
LAYER_1
 10
12.227186
 20
20.762424
 30
0.0
 11
12.394224
 21
20.611209
 31
0.0
  0
LINE
  5
492
  8
LAYER_1
 10
12.394224
 20
20.611209
 30
0.0
 11
12.795825
 21
20.635167
 31
0.0
  0
LINE
  5
493
  8
LAYER_1
 10
12.795825
 20
20.635167
 30
0.0
 11
13.200049
 21
20.657494
 31
0.0
  0
LINE
  5
494
  8
LAYER_1
 10
13.200049
 20
20.657494
 30
0.0
 11
13.207508
 21
20.37485
 31
0.0
  0
LINE
  5
495
  8
LAYER_1
 10
13.207508
 20
20.37485
 30
0.0
 11
13.280136
 21
19.9943
 31
0.0
  0
LINE
  5
496
  8
LAYER_1
 10
13.280136
 20
19.9943
 30
0.0
 11
13.687475
 21
19.660044
 31
0.0
  0
LINE
  5
497
  8
LAYER_1
 10
13.687475
 20
19.660044
 30
0.0
 11
14.280028
 21
19.453011
 31
0.0
  0
LINE
  5
498
  8
LAYER_1
 10
14.280028
 20
19.453011
 30
0.0
 11
14.908297
 21
19.454132
 31
0.0
  0
LINE
  5
499
  8
LAYER_1
 10
14.908297
 20
19.454132
 30
0.0
 11
15.717248
 21
19.583101
 31
0.0
  0
LINE
  5
49A
  8
LAYER_1
 10
15.717248
 20
19.583101
 30
0.0
 11
15.717248
 21
19.583101
 31
0.0
  0
LINE
  5
49B
  8
LAYER_1
 10
25.146611
 20
19.744069
 30
0.0
 11
25.5896
 21
20.186853
 31
0.0
  0
LINE
  5
49C
  8
LAYER_1
 10
25.5896
 20
20.186853
 30
0.0
 11
25.773853
 21
20.634477
 31
0.0
  0
LINE
  5
49D
  8
LAYER_1
 10
25.773853
 20
20.634477
 30
0.0
 11
25.855317
 21
20.941186
 31
0.0
  0
LINE
  5
49E
  8
LAYER_1
 10
25.855317
 20
20.941186
 30
0.0
 11
26.267742
 21
20.661401
 31
0.0
  0
LINE
  5
49F
  8
LAYER_1
 10
26.267742
 20
20.661401
 30
0.0
 11
27.227044
 21
19.980133
 31
0.0
  0
LINE
  5
4A0
  8
LAYER_1
 10
27.227044
 20
19.980133
 30
0.0
 11
27.337811
 21
20.016028
 31
0.0
  0
LINE
  5
4A1
  8
LAYER_1
 10
27.337811
 20
20.016028
 30
0.0
 11
27.114408
 21
20.336776
 31
0.0
  0
LINE
  5
4A2
  8
LAYER_1
 10
27.114408
 20
20.336776
 30
0.0
 11
26.645122
 21
21.069912
 31
0.0
  0
LINE
  5
4A3
  8
LAYER_1
 10
26.645122
 20
21.069912
 30
0.0
 11
26.742778
 21
21.230882
 31
0.0
  0
LINE
  5
4A4
  8
LAYER_1
 10
26.742778
 20
21.230882
 30
0.0
 11
27.060509
 21
21.280288
 31
0.0
  0
LINE
  5
4A5
  8
LAYER_1
 10
27.060509
 20
21.280288
 30
0.0
 11
27.320015
 21
21.363191
 31
0.0
  0
LINE
  5
4A6
  8
LAYER_1
 10
27.320015
 20
21.363191
 30
0.0
 11
27.326075
 21
21.562511
 31
0.0
  0
LINE
  5
4A7
  8
LAYER_1
 10
27.326075
 20
21.562511
 30
0.0
 11
27.405259
 21
21.763397
 31
0.0
  0
LINE
  5
4A8
  8
LAYER_1
 10
27.405259
 20
21.763397
 30
0.0
 11
27.857209
 21
21.844733
 31
0.0
  0
LINE
  5
4A9
  8
LAYER_1
 10
27.857209
 20
21.844733
 30
0.0
 11
28.406745
 21
21.76183
 31
0.0
  0
LINE
  5
4AA
  8
LAYER_1
 10
28.406745
 20
21.76183
 30
0.0
 11
28.737187
 21
21.562511
 31
0.0
  0
LINE
  5
4AB
  8
LAYER_1
 10
28.737187
 20
21.562511
 30
0.0
 11
29.279153
 21
21.280288
 31
0.0
  0
LINE
  5
4AC
  8
LAYER_1
 10
29.279153
 20
21.280288
 30
0.0
 11
29.566848
 21
21.492797
 31
0.0
  0
LINE
  5
4AD
  8
LAYER_1
 10
29.566848
 20
21.492797
 30
0.0
 11
29.503472
 21
21.987262
 31
0.0
  0
LINE
  5
4AE
  8
LAYER_1
 10
29.503472
 20
21.987262
 30
0.0
 11
29.169707
 21
22.549097
 31
0.0
  0
LINE
  5
4AF
  8
LAYER_1
 10
29.169707
 20
22.549097
 30
0.0
 11
28.64623
 21
22.963714
 31
0.0
  0
LINE
  5
4B0
  8
LAYER_1
 10
28.64623
 20
22.963714
 30
0.0
 11
28.106821
 21
23.291724
 31
0.0
  0
LINE
  5
4B1
  8
LAYER_1
 10
28.106821
 20
23.291724
 30
0.0
 11
28.392428
 21
23.576428
 31
0.0
  0
LINE
  5
4B2
  8
LAYER_1
 10
28.392428
 20
23.576428
 30
0.0
 11
28.718728
 21
23.904632
 31
0.0
  0
LINE
  5
4B3
  8
LAYER_1
 10
28.718728
 20
23.904632
 30
0.0
 11
28.597942
 21
24.381247
 31
0.0
  0
LINE
  5
4B4
  8
LAYER_1
 10
28.597942
 20
24.381247
 30
0.0
 11
28.313854
 21
25.077112
 31
0.0
  0
LINE
  5
4B5
  8
LAYER_1
 10
28.313854
 20
25.077112
 30
0.0
 11
28.551426
 21
25.146565
 31
0.0
  0
LINE
  5
4B6
  8
LAYER_1
 10
28.551426
 20
25.146565
 30
0.0
 11
29.106698
 21
25.047873
 31
0.0
  0
LINE
  5
4B7
  8
LAYER_1
 10
29.106698
 20
25.047873
 30
0.0
 11
30.225675
 21
24.587823
 31
0.0
  0
LINE
  5
4B8
  8
LAYER_1
 10
30.225675
 20
24.587823
 30
0.0
 11
30.574613
 21
24.401947
 31
0.0
  0
LINE
  5
4B9
  8
LAYER_1
 10
30.574613
 20
24.401947
 30
0.0
 11
30.737768
 21
24.509482
 31
0.0
  0
LINE
  5
4BA
  8
LAYER_1
 10
30.737768
 20
24.509482
 30
0.0
 11
30.463764
 21
25.449336
 31
0.0
  0
LINE
  5
4BB
  8
LAYER_1
 10
30.463764
 20
25.449336
 30
0.0
 11
29.88367
 21
26.147765
 31
0.0
  0
LINE
  5
4BC
  8
LAYER_1
 10
29.88367
 20
26.147765
 30
0.0
 11
28.89073
 21
26.466676
 31
0.0
  0
LINE
  5
4BD
  8
LAYER_1
 10
28.89073
 20
26.466676
 30
0.0
 11
28.197077
 21
26.63436
 31
0.0
  0
LINE
  5
4BE
  8
LAYER_1
 10
28.197077
 20
26.63436
 30
0.0
 11
27.814814
 21
26.848375
 31
0.0
  0
LINE
  5
4BF
  8
LAYER_1
 10
27.814814
 20
26.848375
 30
0.0
 11
27.773373
 21
27.077913
 31
0.0
  0
LINE
  5
4C0
  8
LAYER_1
 10
27.773373
 20
27.077913
 30
0.0
 11
28.102186
 21
27.292162
 31
0.0
  0
LINE
  5
4C1
  8
LAYER_1
 10
28.102186
 20
27.292162
 30
0.0
 11
28.234169
 21
27.498073
 31
0.0
  0
LINE
  5
4C2
  8
LAYER_1
 10
28.234169
 20
27.498073
 30
0.0
 11
27.890519
 21
27.862676
 31
0.0
  0
LINE
  5
4C3
  8
LAYER_1
 10
27.890519
 20
27.862676
 30
0.0
 11
27.467186
 21
28.304139
 31
0.0
  0
LINE
  5
4C4
  8
LAYER_1
 10
27.467186
 20
28.304139
 30
0.0
 11
27.890519
 21
28.764767
 31
0.0
  0
LINE
  5
4C5
  8
LAYER_1
 10
27.890519
 20
28.764767
 30
0.0
 11
28.313854
 21
29.145556
 31
0.0
  0
LINE
  5
4C6
  8
LAYER_1
 10
28.313854
 20
29.145556
 30
0.0
 11
27.890519
 21
29.028146
 31
0.0
  0
LINE
  5
4C7
  8
LAYER_1
 10
27.890519
 20
29.028146
 30
0.0
 11
26.46029
 21
28.663777
 31
0.0
  0
LINE
  5
4C8
  8
LAYER_1
 10
26.46029
 20
28.663777
 30
0.0
 11
26.231334
 21
28.799545
 31
0.0
  0
LINE
  5
4C9
  8
LAYER_1
 10
26.231334
 20
28.799545
 30
0.0
 11
26.248858
 21
29.153195
 31
0.0
  0
LINE
  5
4CA
  8
LAYER_1
 10
26.248858
 20
29.153195
 30
0.0
 11
26.296972
 21
29.470192
 31
0.0
  0
LINE
  5
4CB
  8
LAYER_1
 10
26.296972
 20
29.470192
 30
0.0
 11
26.190432
 21
29.649383
 31
0.0
  0
LINE
  5
4CC
  8
LAYER_1
 10
26.190432
 20
29.649383
 30
0.0
 11
25.258981
 21
29.746955
 31
0.0
  0
LINE
  5
4CD
  8
LAYER_1
 10
25.258981
 20
29.746955
 30
0.0
 11
24.402505
 21
29.669753
 31
0.0
  0
LINE
  5
4CE
  8
LAYER_1
 10
24.402505
 20
29.669753
 30
0.0
 11
23.9514
 21
29.484138
 31
0.0
  0
LINE
  5
4CF
  8
LAYER_1
 10
23.9514
 20
29.484138
 30
0.0
 11
24.045312
 21
28.991094
 31
0.0
  0
LINE
  5
4D0
  8
LAYER_1
 10
24.045312
 20
28.991094
 30
0.0
 11
24.49919
 21
28.174754
 31
0.0
  0
LINE
  5
4D1
  8
LAYER_1
 10
24.49919
 20
28.174754
 30
0.0
 11
25.209408
 21
26.854755
 31
0.0
  0
LINE
  5
4D2
  8
LAYER_1
 10
25.209408
 20
26.854755
 30
0.0
 11
25.411585
 21
26.712385
 31
0.0
  0
LINE
  5
4D3
  8
LAYER_1
 10
25.411585
 20
26.712385
 30
0.0
 11
25.897669
 21
26.754062
 31
0.0
  0
LINE
  5
4D4
  8
LAYER_1
 10
25.897669
 20
26.754062
 30
0.0
 11
26.429711
 21
26.801698
 31
0.0
  0
LINE
  5
4D5
  8
LAYER_1
 10
26.429711
 20
26.801698
 30
0.0
 11
26.742383
 21
26.673652
 31
0.0
  0
LINE
  5
4D6
  8
LAYER_1
 10
26.742383
 20
26.673652
 30
0.0
 11
26.653869
 21
26.444914
 31
0.0
  0
LINE
  5
4D7
  8
LAYER_1
 10
26.653869
 20
26.444914
 30
0.0
 11
26.22135
 21
26.25046
 31
0.0
  0
LINE
  5
4D8
  8
LAYER_1
 10
26.22135
 20
26.25046
 30
0.0
 11
25.746269
 21
25.950911
 31
0.0
  0
LINE
  5
4D9
  8
LAYER_1
 10
25.746269
 20
25.950911
 30
0.0
 11
25.658903
 21
25.514287
 31
0.0
  0
LINE
  5
4DA
  8
LAYER_1
 10
25.658903
 20
25.514287
 30
0.0
 11
25.921339
 21
25.120428
 31
0.0
  0
LINE
  5
4DB
  8
LAYER_1
 10
25.921339
 20
25.120428
 30
0.0
 11
26.495667
 21
24.949177
 31
0.0
  0
LINE
  5
4DC
  8
LAYER_1
 10
26.495667
 20
24.949177
 30
0.0
 11
27.010193
 21
24.866275
 31
0.0
  0
LINE
  5
4DD
  8
LAYER_1
 10
27.010193
 20
24.866275
 30
0.0
 11
27.326075
 21
24.666955
 31
0.0
  0
LINE
  5
4DE
  8
LAYER_1
 10
27.326075
 20
24.666955
 30
0.0
 11
27.208668
 21
24.464098
 31
0.0
  0
LINE
  5
4DF
  8
LAYER_1
 10
27.208668
 20
24.464098
 30
0.0
 11
26.637176
 21
24.384733
 31
0.0
  0
LINE
  5
4E0
  8
LAYER_1
 10
26.637176
 20
24.384733
 30
0.0
 11
25.950656
 21
24.267324
 31
0.0
  0
LINE
  5
4E1
  8
LAYER_1
 10
25.950656
 20
24.267324
 30
0.0
 11
25.773853
 21
23.811431
 31
0.0
  0
LINE
  5
4E2
  8
LAYER_1
 10
25.773853
 20
23.811431
 30
0.0
 11
25.898207
 21
23.358817
 31
0.0
  0
LINE
  5
4E3
  8
LAYER_1
 10
25.898207
 20
23.358817
 30
0.0
 11
26.197186
 21
23.075681
 31
0.0
  0
LINE
  5
4E4
  8
LAYER_1
 10
26.197186
 20
23.075681
 30
0.0
 11
26.535934
 21
22.861195
 31
0.0
  0
LINE
  5
4E5
  8
LAYER_1
 10
26.535934
 20
22.861195
 30
0.0
 11
26.609659
 21
22.643784
 31
0.0
  0
LINE
  5
4E6
  8
LAYER_1
 10
26.609659
 20
22.643784
 30
0.0
 11
26.44187
 21
22.510972
 31
0.0
  0
LINE
  5
4E7
  8
LAYER_1
 10
26.44187
 20
22.510972
 30
0.0
 11
26.056075
 21
22.550288
 31
0.0
  0
LINE
  5
4E8
  8
LAYER_1
 10
26.056075
 20
22.550288
 30
0.0
 11
25.650579
 21
22.592383
 31
0.0
  0
LINE
  5
4E9
  8
LAYER_1
 10
25.650579
 20
22.592383
 30
0.0
 11
25.49163
 21
22.42189
 31
0.0
  0
LINE
  5
4EA
  8
LAYER_1
 10
25.49163
 20
22.42189
 30
0.0
 11
25.155811
 21
21.840364
 31
0.0
  0
LINE
  5
4EB
  8
LAYER_1
 10
25.155811
 20
21.840364
 30
0.0
 11
24.348416
 21
20.874102
 31
0.0
  0
LINE
  5
4EC
  8
LAYER_1
 10
24.348416
 20
20.874102
 30
0.0
 11
23.696715
 21
20.139957
 31
0.0
  0
LINE
  5
4ED
  8
LAYER_1
 10
23.696715
 20
20.139957
 30
0.0
 11
23.481834
 21
19.731566
 31
0.0
  0
LINE
  5
4EE
  8
LAYER_1
 10
23.481834
 20
19.731566
 30
0.0
 11
23.705765
 21
19.510286
 31
0.0
  0
LINE
  5
4EF
  8
LAYER_1
 10
23.705765
 20
19.510286
 30
0.0
 11
24.3705
 21
19.337471
 31
0.0
  0
LINE
  5
4F0
  8
LAYER_1
 10
24.3705
 20
19.337471
 30
0.0
 11
25.146611
 21
19.744069
 31
0.0
  0
LINE
  5
4F1
  8
LAYER_1
 10
25.146611
 20
19.744069
 30
0.0
 11
25.146611
 21
19.744069
 31
0.0
  0
LINE
  5
4F2
  8
LAYER_1
 10
22.691117
 20
30.007468
 30
0.0
 11
23.184799
 21
30.666943
 31
0.0
  0
LINE
  5
4F3
  8
LAYER_1
 10
23.184799
 20
30.666943
 30
0.0
 11
23.461955
 21
31.398967
 31
0.0
  0
LINE
  5
4F4
  8
LAYER_1
 10
23.461955
 20
31.398967
 30
0.0
 11
23.53689
 21
32.154078
 31
0.0
  0
LINE
  5
4F5
  8
LAYER_1
 10
23.53689
 20
32.154078
 30
0.0
 11
23.42391
 21
32.882813
 31
0.0
  0
LINE
  5
4F6
  8
LAYER_1
 10
23.42391
 20
32.882813
 30
0.0
 11
23.137318
 21
33.535709
 31
0.0
  0
LINE
  5
4F7
  8
LAYER_1
 10
23.137318
 20
33.535709
 30
0.0
 11
22.69142
 21
34.063303
 31
0.0
  0
LINE
  5
4F8
  8
LAYER_1
 10
22.69142
 20
34.063303
 30
0.0
 11
22.100521
 21
34.416132
 31
0.0
  0
LINE
  5
4F9
  8
LAYER_1
 10
22.100521
 20
34.416132
 30
0.0
 11
21.378925
 21
34.544733
 31
0.0
  0
LINE
  5
4FA
  8
LAYER_1
 10
21.378925
 20
34.544733
 30
0.0
 11
20.509143
 21
34.386969
 31
0.0
  0
LINE
  5
4FB
  8
LAYER_1
 10
20.509143
 20
34.386969
 30
0.0
 11
19.81383
 21
33.946932
 31
0.0
  0
LINE
  5
4FC
  8
LAYER_1
 10
19.81383
 20
33.946932
 30
0.0
 11
19.21603
 21
33.349131
 31
0.0
  0
LINE
  5
4FD
  8
LAYER_1
 10
19.21603
 20
33.349131
 30
0.0
 11
19.997794
 21
32.725773
 31
0.0
  0
LINE
  5
4FE
  8
LAYER_1
 10
19.997794
 20
32.725773
 30
0.0
 11
20.592576
 21
32.071686
 31
0.0
  0
LINE
  5
4FF
  8
LAYER_1
 10
20.592576
 20
32.071686
 30
0.0
 11
20.582745
 21
31.318236
 31
0.0
  0
LINE
  5
500
  8
LAYER_1
 10
20.582745
 20
31.318236
 30
0.0
 11
20.282072
 21
30.721386
 31
0.0
  0
LINE
  5
501
  8
LAYER_1
 10
20.282072
 20
30.721386
 30
0.0
 11
19.834334
 21
30.389813
 31
0.0
  0
LINE
  5
502
  8
LAYER_1
 10
19.834334
 20
30.389813
 30
0.0
 11
19.445684
 21
30.226456
 31
0.0
  0
LINE
  5
503
  8
LAYER_1
 10
19.445684
 20
30.226456
 30
0.0
 11
19.305974
 21
30.013102
 31
0.0
  0
LINE
  5
504
  8
LAYER_1
 10
19.305974
 20
30.013102
 30
0.0
 11
19.416018
 21
29.762485
 31
0.0
  0
LINE
  5
505
  8
LAYER_1
 10
19.416018
 20
29.762485
 30
0.0
 11
19.776631
 21
29.487339
 31
0.0
  0
LINE
  5
506
  8
LAYER_1
 10
19.776631
 20
29.487339
 30
0.0
 11
20.503222
 21
29.218974
 31
0.0
  0
LINE
  5
507
  8
LAYER_1
 10
20.503222
 20
29.218974
 30
0.0
 11
21.259609
 21
29.221283
 31
0.0
  0
LINE
  5
508
  8
LAYER_1
 10
21.259609
 20
29.221283
 30
0.0
 11
22.003129
 21
29.486652
 31
0.0
  0
LINE
  5
509
  8
LAYER_1
 10
22.003129
 20
29.486652
 30
0.0
 11
22.691117
 21
30.007468
 31
0.0
  0
LINE
  5
50A
  8
LAYER_1
 10
22.691117
 20
30.007468
 30
0.0
 11
22.691117
 21
30.007468
 31
0.0
  0
LINE
  5
50B
  8
LAYER_1
 10
24.362742
 20
30.452511
 30
0.0
 11
24.491989
 21
30.75149
 31
0.0
  0
LINE
  5
50C
  8
LAYER_1
 10
24.491989
 20
30.75149
 30
0.0
 11
24.802732
 21
30.875844
 31
0.0
  0
LINE
  5
50D
  8
LAYER_1
 10
24.802732
 20
30.875844
 30
0.0
 11
25.062237
 21
30.958747
 31
0.0
  0
LINE
  5
50E
  8
LAYER_1
 10
25.062237
 20
30.958747
 30
0.0
 11
25.068297
 21
31.158066
 31
0.0
  0
LINE
  5
50F
  8
LAYER_1
 10
25.068297
 20
31.158066
 30
0.0
 11
24.777541
 21
31.36028
 31
0.0
  0
LINE
  5
510
  8
LAYER_1
 10
24.777541
 20
31.36028
 30
0.0
 11
24.351236
 21
31.433671
 31
0.0
  0
LINE
  5
511
  8
LAYER_1
 10
24.351236
 20
31.433671
 30
0.0
 11
23.965962
 21
31.375031
 31
0.0
  0
LINE
  5
512
  8
LAYER_1
 10
23.965962
 20
31.375031
 30
0.0
 11
23.798297
 21
31.181148
 31
0.0
  0
LINE
  5
513
  8
LAYER_1
 10
23.798297
 20
31.181148
 30
0.0
 11
23.626991
 21
30.475593
 31
0.0
  0
LINE
  5
514
  8
LAYER_1
 10
23.626991
 20
30.475593
 30
0.0
 11
23.614344
 21
30.142532
 31
0.0
  0
LINE
  5
515
  8
LAYER_1
 10
23.614344
 20
30.142532
 30
0.0
 11
23.909213
 21
30.029177
 31
0.0
  0
LINE
  5
516
  8
LAYER_1
 10
23.909213
 20
30.029177
 30
0.0
 11
24.229518
 21
30.153532
 31
0.0
  0
LINE
  5
517
  8
LAYER_1
 10
24.229518
 20
30.153532
 30
0.0
 11
24.362742
 21
30.452511
 31
0.0
  0
LINE
  5
518
  8
LAYER_1
 10
24.362742
 20
30.452511
 30
0.0
 11
24.362742
 21
30.452511
 31
0.0
  0
LINE
  5
519
  8
LAYER_1
 10
15.896075
 20
30.584764
 30
0.0
 11
15.771721
 21
30.730109
 31
0.0
  0
LINE
  5
51A
  8
LAYER_1
 10
15.771721
 20
30.730109
 30
0.0
 11
15.472742
 21
30.695681
 31
0.0
  0
LINE
  5
51B
  8
LAYER_1
 10
15.472742
 20
30.695681
 30
0.0
 11
15.049408
 21
30.422316
 31
0.0
  0
LINE
  5
51C
  8
LAYER_1
 10
15.049408
 20
30.422316
 30
0.0
 11
15.472742
 21
30.3114
 31
0.0
  0
LINE
  5
51D
  8
LAYER_1
 10
15.472742
 20
30.3114
 30
0.0
 11
15.771721
 21
30.3917
 31
0.0
  0
LINE
  5
51E
  8
LAYER_1
 10
15.771721
 20
30.3917
 30
0.0
 11
15.896075
 21
30.584764
 31
0.0
  0
LINE
  5
51F
  8
LAYER_1
 10
15.896075
 20
30.584764
 30
0.0
 11
15.896075
 21
30.584764
 31
0.0
  0
LINE
  5
520
  8
LAYER_1
 10
13.54232
 20
32.833818
 30
0.0
 11
12.796102
 21
33.711033
 31
0.0
  0
LINE
  5
521
  8
LAYER_1
 10
12.796102
 20
33.711033
 30
0.0
 11
11.814068
 21
34.592551
 31
0.0
  0
LINE
  5
522
  8
LAYER_1
 10
11.814068
 20
34.592551
 30
0.0
 11
10.911505
 21
35.225078
 31
0.0
  0
LINE
  5
523
  8
LAYER_1
 10
10.911505
 20
35.225078
 30
0.0
 11
10.403699
 21
35.35532
 31
0.0
  0
LINE
  5
524
  8
LAYER_1
 10
10.403699
 20
35.35532
 30
0.0
 11
10.468175
 21
34.892235
 31
0.0
  0
LINE
  5
525
  8
LAYER_1
 10
10.468175
 20
34.892235
 30
0.0
 11
10.87704
 21
33.970662
 31
0.0
  0
LINE
  5
526
  8
LAYER_1
 10
10.87704
 20
33.970662
 30
0.0
 11
12.220163
 21
31.757723
 31
0.0
  0
LINE
  5
527
  8
LAYER_1
 10
12.220163
 20
31.757723
 30
0.0
 11
13.128598
 21
30.522935
 31
0.0
  0
LINE
  5
528
  8
LAYER_1
 10
13.128598
 20
30.522935
 30
0.0
 11
13.713214
 21
31.107551
 31
0.0
  0
LINE
  5
529
  8
LAYER_1
 10
13.713214
 20
31.107551
 30
0.0
 11
14.297829
 21
31.692166
 31
0.0
  0
LINE
  5
52A
  8
LAYER_1
 10
14.297829
 20
31.692166
 30
0.0
 11
13.54232
 21
32.833818
 31
0.0
  0
LINE
  5
52B
  8
LAYER_1
 10
13.54232
 20
32.833818
 30
0.0
 11
13.54232
 21
32.833818
 31
0.0
  0
LINE
  5
52C
  8
LAYER_1
 10
27.154131
 20
31.769382
 30
0.0
 11
28.2684
 21
33.760337
 31
0.0
  0
LINE
  5
52D
  8
LAYER_1
 10
28.2684
 20
33.760337
 30
0.0
 11
28.523217
 21
34.5793
 31
0.0
  0
LINE
  5
52E
  8
LAYER_1
 10
28.523217
 20
34.5793
 30
0.0
 11
28.478474
 21
35.038631
 31
0.0
  0
LINE
  5
52F
  8
LAYER_1
 10
28.478474
 20
35.038631
 30
0.0
 11
28.118923
 21
35.003171
 31
0.0
  0
LINE
  5
530
  8
LAYER_1
 10
28.118923
 20
35.003171
 30
0.0
 11
27.494283
 21
34.592995
 31
0.0
  0
LINE
  5
531
  8
LAYER_1
 10
27.494283
 20
34.592995
 30
0.0
 11
25.953504
 21
33.046043
 31
0.0
  0
LINE
  5
532
  8
LAYER_1
 10
25.953504
 20
33.046043
 30
0.0
 11
25.305089
 21
32.059608
 31
0.0
  0
LINE
  5
533
  8
LAYER_1
 10
25.305089
 20
32.059608
 30
0.0
 11
25.309732
 21
31.711952
 31
0.0
  0
LINE
  5
534
  8
LAYER_1
 10
25.309732
 20
31.711952
 30
0.0
 11
25.490967
 21
31.300415
 31
0.0
  0
LINE
  5
535
  8
LAYER_1
 10
25.490967
 20
31.300415
 30
0.0
 11
26.07935
 21
30.593622
 31
0.0
  0
LINE
  5
536
  8
LAYER_1
 10
26.07935
 20
30.593622
 30
0.0
 11
27.154131
 21
31.769382
 31
0.0
  0
LINE
  5
537
  8
LAYER_1
 10
27.154131
 20
31.769382
 30
0.0
 11
27.154131
 21
31.769382
 31
0.0
  0
LINE
  5
538
  8
LAYER_1
 10
15.613853
 20
31.572542
 30
0.0
 11
15.499057
 21
31.830141
 31
0.0
  0
LINE
  5
539
  8
LAYER_1
 10
15.499057
 20
31.830141
 30
0.0
 11
15.19214
 21
31.825192
 31
0.0
  0
LINE
  5
53A
  8
LAYER_1
 10
15.19214
 20
31.825192
 30
0.0
 11
14.940174
 21
31.636686
 31
0.0
  0
LINE
  5
53B
  8
LAYER_1
 10
14.940174
 20
31.636686
 30
0.0
 11
14.926574
 21
31.410716
 31
0.0
  0
LINE
  5
53C
  8
LAYER_1
 10
14.926574
 20
31.410716
 30
0.0
 11
15.137857
 21
31.203704
 31
0.0
  0
LINE
  5
53D
  8
LAYER_1
 10
15.137857
 20
31.203704
 30
0.0
 11
15.362565
 21
31.171027
 31
0.0
  0
LINE
  5
53E
  8
LAYER_1
 10
15.362565
 20
31.171027
 30
0.0
 11
15.541097
 21
31.298651
 31
0.0
  0
LINE
  5
53F
  8
LAYER_1
 10
15.541097
 20
31.298651
 30
0.0
 11
15.613853
 21
31.572542
 31
0.0
  0
LINE
  5
540
  8
LAYER_1
 10
15.613853
 20
31.572542
 30
0.0
 11
15.613853
 21
31.572542
 31
0.0
  0
LINE
  5
541
  8
LAYER_1
 10
18.436075
 20
31.440288
 30
0.0
 11
18.353172
 21
31.639608
 31
0.0
  0
LINE
  5
542
  8
LAYER_1
 10
18.353172
 20
31.639608
 30
0.0
 11
18.153853
 21
31.722511
 31
0.0
  0
LINE
  5
543
  8
LAYER_1
 10
18.153853
 20
31.722511
 30
0.0
 11
17.954533
 21
31.639608
 31
0.0
  0
LINE
  5
544
  8
LAYER_1
 10
17.954533
 20
31.639608
 30
0.0
 11
17.87163
 21
31.440288
 31
0.0
  0
LINE
  5
545
  8
LAYER_1
 10
17.87163
 20
31.440288
 30
0.0
 11
17.954533
 21
31.240969
 31
0.0
  0
LINE
  5
546
  8
LAYER_1
 10
17.954533
 20
31.240969
 30
0.0
 11
18.153853
 21
31.158066
 31
0.0
  0
LINE
  5
547
  8
LAYER_1
 10
18.153853
 20
31.158066
 30
0.0
 11
18.353172
 21
31.240969
 31
0.0
  0
LINE
  5
548
  8
LAYER_1
 10
18.353172
 20
31.240969
 30
0.0
 11
18.436075
 21
31.440288
 31
0.0
  0
LINE
  5
549
  8
LAYER_1
 10
18.436075
 20
31.440288
 30
0.0
 11
18.436075
 21
31.440288
 31
0.0
  0
LINE
  5
54A
  8
LAYER_1
 10
19.776591
 20
32.169401
 30
0.0
 11
19.53999
 21
32.251751
 31
0.0
  0
LINE
  5
54B
  8
LAYER_1
 10
19.53999
 20
32.251751
 30
0.0
 11
19.296721
 21
32.146378
 31
0.0
  0
LINE
  5
54C
  8
LAYER_1
 10
19.296721
 20
32.146378
 30
0.0
 11
19.141459
 21
31.92977
 31
0.0
  0
LINE
  5
54D
  8
LAYER_1
 10
19.141459
 20
31.92977
 30
0.0
 11
19.168882
 21
31.678419
 31
0.0
  0
LINE
  5
54E
  8
LAYER_1
 10
19.168882
 20
31.678419
 30
0.0
 11
19.377387
 21
31.537526
 31
0.0
  0
LINE
  5
54F
  8
LAYER_1
 10
19.377387
 20
31.537526
 30
0.0
 11
19.648558
 21
31.693216
 31
0.0
  0
LINE
  5
550
  8
LAYER_1
 10
19.648558
 20
31.693216
 30
0.0
 11
19.810789
 21
31.957716
 31
0.0
  0
LINE
  5
551
  8
LAYER_1
 10
19.810789
 20
31.957716
 30
0.0
 11
19.776591
 21
32.169401
 31
0.0
  0
LINE
  5
552
  8
LAYER_1
 10
19.776591
 20
32.169401
 30
0.0
 11
19.776591
 21
32.169401
 31
0.0
  0
LINE
  5
553
  8
LAYER_1
 10
24.895634
 20
32.729789
 30
0.0
 11
25.117237
 21
32.664426
 31
0.0
  0
LINE
  5
554
  8
LAYER_1
 10
25.117237
 20
32.664426
 30
0.0
 11
25.209408
 21
32.779593
 31
0.0
  0
LINE
  5
555
  8
LAYER_1
 10
25.209408
 20
32.779593
 30
0.0
 11
26.200906
 21
34.105783
 31
0.0
  0
LINE
  5
556
  8
LAYER_1
 10
26.200906
 20
34.105783
 30
0.0
 11
27.192403
 21
35.188247
 31
0.0
  0
LINE
  5
557
  8
LAYER_1
 10
27.192403
 20
35.188247
 30
0.0
 11
25.514516
 21
35.036101
 31
0.0
  0
LINE
  5
558
  8
LAYER_1
 10
25.514516
 20
35.036101
 30
0.0
 11
23.558772
 21
34.712233
 31
0.0
  0
LINE
  5
559
  8
LAYER_1
 10
23.558772
 20
34.712233
 30
0.0
 11
23.473366
 21
34.284003
 31
0.0
  0
LINE
  5
55A
  8
LAYER_1
 10
23.473366
 20
34.284003
 30
0.0
 11
23.727838
 21
33.402762
 31
0.0
  0
LINE
  5
55B
  8
LAYER_1
 10
23.727838
 20
33.402762
 30
0.0
 11
24.108624
 21
32.663689
 31
0.0
  0
LINE
  5
55C
  8
LAYER_1
 10
24.108624
 20
32.663689
 30
0.0
 11
24.262658
 21
32.538716
 31
0.0
  0
LINE
  5
55D
  8
LAYER_1
 10
24.262658
 20
32.538716
 30
0.0
 11
24.378309
 21
32.594364
 31
0.0
  0
LINE
  5
55E
  8
LAYER_1
 10
24.378309
 20
32.594364
 30
0.0
 11
24.614237
 21
32.770002
 31
0.0
  0
LINE
  5
55F
  8
LAYER_1
 10
24.614237
 20
32.770002
 30
0.0
 11
24.895634
 21
32.729789
 31
0.0
  0
LINE
  5
560
  8
LAYER_1
 10
24.895634
 20
32.729789
 30
0.0
 11
24.895634
 21
32.729789
 31
0.0
  0
LINE
  5
561
  8
LAYER_1
 10
14.947349
 20
32.992511
 30
0.0
 11
15.361825
 21
33.415844
 31
0.0
  0
LINE
  5
562
  8
LAYER_1
 10
15.361825
 20
33.415844
 30
0.0
 11
15.53982
 21
33.29149
 31
0.0
  0
LINE
  5
563
  8
LAYER_1
 10
15.53982
 20
33.29149
 30
0.0
 11
15.613853
 21
32.992511
 31
0.0
  0
LINE
  5
564
  8
LAYER_1
 10
15.613853
 20
32.992511
 30
0.0
 11
15.651199
 21
32.682249
 31
0.0
  0
LINE
  5
565
  8
LAYER_1
 10
15.651199
 20
32.682249
 30
0.0
 11
15.783997
 21
32.598887
 31
0.0
  0
LINE
  5
566
  8
LAYER_1
 10
15.783997
 20
32.598887
 30
0.0
 11
16.460519
 21
33.133622
 31
0.0
  0
LINE
  5
567
  8
LAYER_1
 10
16.460519
 20
33.133622
 30
0.0
 11
16.826066
 21
33.585816
 31
0.0
  0
LINE
  5
568
  8
LAYER_1
 10
16.826066
 20
33.585816
 30
0.0
 11
16.589259
 21
33.698066
 31
0.0
  0
LINE
  5
569
  8
LAYER_1
 10
16.589259
 20
33.698066
 30
0.0
 11
16.299456
 21
33.832679
 31
0.0
  0
LINE
  5
56A
  8
LAYER_1
 10
16.299456
 20
33.832679
 30
0.0
 11
16.236481
 21
34.17657
 31
0.0
  0
LINE
  5
56B
  8
LAYER_1
 10
16.236481
 20
34.17657
 30
0.0
 11
16.008463
 21
34.599276
 31
0.0
  0
LINE
  5
56C
  8
LAYER_1
 10
16.008463
 20
34.599276
 30
0.0
 11
15.276031
 21
34.974818
 31
0.0
  0
LINE
  5
56D
  8
LAYER_1
 10
15.276031
 20
34.974818
 30
0.0
 11
14.189344
 21
35.249521
 31
0.0
  0
LINE
  5
56E
  8
LAYER_1
 10
14.189344
 20
35.249521
 30
0.0
 11
12.898563
 21
35.36971
 31
0.0
  0
LINE
  5
56F
  8
LAYER_1
 10
12.898563
 20
35.36971
 30
0.0
 11
11.735495
 21
35.3914
 31
0.0
  0
LINE
  5
570
  8
LAYER_1
 10
11.735495
 20
35.3914
 30
0.0
 11
13.039674
 21
34.020126
 31
0.0
  0
LINE
  5
571
  8
LAYER_1
 10
13.039674
 20
34.020126
 30
0.0
 11
14.447937
 21
32.704699
 31
0.0
  0
LINE
  5
572
  8
LAYER_1
 10
14.447937
 20
32.704699
 30
0.0
 11
14.753282
 21
32.679426
 31
0.0
  0
LINE
  5
573
  8
LAYER_1
 10
14.753282
 20
32.679426
 30
0.0
 11
14.947349
 21
32.992511
 31
0.0
  0
LINE
  5
574
  8
LAYER_1
 10
14.947349
 20
32.992511
 30
0.0
 11
14.947349
 21
32.992511
 31
0.0
  0
ENDSEC
  0
EOF
