  0
SECTION
  2
ENTITIES
  0
ARC
  8
APS_GEOMETR�
 10
273.898978
 20
1118.260261
 40
11.049311
 50
66.395325
 51
89.964633
  0
ARC
  8
APS_GEOMETR�
 10
273.701203
 20
1117.830024
 40
11.522748
 50
43.435483
 51
66.350819
  0
ARC
  8
APS_GEOMETR�
 10
273.206808
 20
1117.35971
 40
12.20511
 50
21.395499
 51
43.443008
  0
ARC
  8
APS_GEOMETR�
 10
272.753147
 20
1117.17097
 40
12.696364
 50
359.970522
 51
21.441689
  0
ARC
  8
APS_GEOMETR�
 10
272.753147
 20
1117.157906
 40
12.696364
 50
338.558311
 51
0.029478
  0
ARC
  8
APS_GEOMETR�
 10
273.206808
 20
1116.969166
 40
12.20511
 50
316.556992
 51
338.604501
  0
ARC
  8
APS_GEOMETR�
 10
273.701203
 20
1116.498853
 40
11.522748
 50
293.649181
 51
316.564517
  0
ARC
  8
APS_GEOMETR�
 10
273.898978
 20
1116.068616
 40
11.049311
 50
270.035367
 51
293.604675
  0
ARC
  8
APS_GEOMETR�
 10
273.912619
 20
1116.068616
 40
11.049311
 50
246.395325
 51
269.964633
  0
ARC
  8
APS_GEOMETR�
 10
274.110395
 20
1116.498853
 40
11.522748
 50
223.435483
 51
246.350819
  0
ARC
  8
APS_GEOMETR�
 10
274.604789
 20
1116.969166
 40
12.20511
 50
201.395499
 51
223.443008
  0
ARC
  8
APS_GEOMETR�
 10
275.058451
 20
1117.157906
 40
12.696364
 50
179.970522
 51
201.441689
  0
ARC
  8
APS_GEOMETR�
 10
275.058451
 20
1117.17097
 40
12.696364
 50
158.558311
 51
180.029478
  0
ARC
  8
APS_GEOMETR�
 10
274.604789
 20
1117.35971
 40
12.20511
 50
136.556992
 51
158.604501
  0
ARC
  8
APS_GEOMETR�
 10
274.110395
 20
1117.830024
 40
11.522748
 50
113.649181
 51
136.564517
  0
ARC
  8
APS_GEOMETR�
 10
273.912619
 20
1118.260261
 40
11.049311
 50
90.035367
 51
113.604675
  0
ARC
  8
APS_GEOMETR�
 10
1457.24632
 20
1089.662094
 40
10.177831
 50
66.395325
 51
89.964633
  0
ARC
  8
APS_GEOMETR�
 10
1457.064143
 20
1089.265791
 40
10.613927
 50
43.435483
 51
66.350819
  0
ARC
  8
APS_GEOMETR�
 10
1456.608742
 20
1088.832572
 40
11.24247
 50
21.395499
 51
43.443008
  0
ARC
  8
APS_GEOMETR�
 10
1456.190862
 20
1088.658718
 40
11.694978
 50
359.970522
 51
21.441689
  0
ARC
  8
APS_GEOMETR�
 10
1456.190862
 20
1088.646684
 40
11.694978
 50
338.558311
 51
0.029478
  0
ARC
  8
APS_GEOMETR�
 10
1456.608742
 20
1088.472831
 40
11.24247
 50
316.556992
 51
338.604501
  0
ARC
  8
APS_GEOMETR�
 10
1457.064143
 20
1088.039612
 40
10.613927
 50
293.649181
 51
316.564517
  0
ARC
  8
APS_GEOMETR�
 10
1457.24632
 20
1087.643309
 40
10.177831
 50
270.035367
 51
293.604675
  0
ARC
  8
APS_GEOMETR�
 10
1457.258884
 20
1087.643309
 40
10.177831
 50
246.395325
 51
269.964633
  0
ARC
  8
APS_GEOMETR�
 10
1457.441061
 20
1088.039612
 40
10.613927
 50
223.435483
 51
246.350819
  0
ARC
  8
APS_GEOMETR�
 10
1457.896462
 20
1088.472831
 40
11.24247
 50
201.395499
 51
223.443008
  0
ARC
  8
APS_GEOMETR�
 10
1458.314342
 20
1088.646684
 40
11.694978
 50
179.970522
 51
201.441689
  0
ARC
  8
APS_GEOMETR�
 10
1458.314342
 20
1088.658718
 40
11.694978
 50
158.558311
 51
180.029478
  0
ARC
  8
APS_GEOMETR�
 10
1457.896462
 20
1088.832572
 40
11.24247
 50
136.556992
 51
158.604501
  0
ARC
  8
APS_GEOMETR�
 10
1457.441061
 20
1089.265791
 40
10.613927
 50
113.649181
 51
136.564517
  0
ARC
  8
APS_GEOMETR�
 10
1457.258884
 20
1089.662094
 40
10.177831
 50
90.035367
 51
113.604675
  0
ARC
  8
APS_GEOMETR�
 10
70.428229
 20
1396.647769
 40
546.350687
 50
299.921844
 51
304.830315
  0
ARC
  8
APS_GEOMETR�
 10
363.502507
 20
936.705907
 40
22.171188
 50
31.15829
 51
65.633522
  0
ARC
  8
APS_GEOMETR�
 10
343.314096
 20
976.300135
 40
35.168992
 50
291.040081
 51
326.525654
  0
ARC
  8
APS_GEOMETR�
 10
344.10555
 20
974.547516
 40
33.249252
 50
259.550886
 51
290.851456
  0
ARC
  8
APS_GEOMETR�
 10
357.06429
 20
1034.32533
 40
94.405129
 50
231.845031
 51
258.396214
  0
ARC
  8
APS_GEOMETR�
 10
360.938109
 20
1039.204589
 40
100.635112
 50
206.392224
 51
231.826932
  0
ARC
  8
APS_GEOMETR�
 10
277.31794
 20
994.098196
 40
6.536591
 50
149.833076
 51
176.731221
  0
ARC
  8
APS_GEOMETR�
 10
276.978801
 20
994.303391
 40
6.140273
 50
121.842367
 51
149.898203
  0
ARC
  8
APS_GEOMETR�
 10
276.774958
 20
994.62157
 40
5.762437
 50
92.508364
 51
121.789684
  0
ARC
  8
APS_GEOMETR�
 10
276.75982
 20
994.655257
 40
5.728136
 50
62.972671
 51
92.371832
  0
ARC
  8
APS_GEOMETR�
 10
288.314925
 20
1308.088422
 40
308.460531
 50
268.336927
 51
276.046229
  0
ARC
  8
APS_GEOMETR�
 10
332.274344
 20
953.307842
 40
49.386131
 50
76.032017
 51
103.428474
  0
ARC
  8
APS_GEOMETR�
 10
331.817163
 20
951.820165
 40
50.940243
 50
49.104917
 51
75.936898
  0
ARC
  8
APS_GEOMETR�
 10
329.353021
 20
949.04558
 40
54.650812
 50
19.918373
 51
49.056466
  0
ARC
  8
APS_GEOMETR�
 10
409.052877
 20
1047.943656
 40
85.127774
 50
250.569902
 51
265.81066
  0
ARC
  8
APS_GEOMETR�
 10
64.568953
 20
1404.683128
 40
556.299374
 50
307.449583
 51
311.853668
  0
ARC
  8
APS_GEOMETR�
 10
624.978239
 20
2023.364111
 40
1050.229561
 50
258.572574
 51
259.619809
  0
ARC
  8
APS_GEOMETR�
 10
896.035037
 20
2021.719832
 40
1133.963602
 50
230.983945
 51
245.005495
  0
LINE
  8
APS_GEOMETR�
 10
182.161716
 11
131.280432
 20
1140.664594
 21
1125.702186
  0
ARC
  8
APS_GEOMETR�
 10
92.496353
 20
1136.078558
 40
40.148149
 50
315.504731
 51
345.021767
  0
ARC
  8
APS_GEOMETR�
 10
96.134085
 20
1132.589322
 40
35.107945
 50
283.092078
 51
315.405826
  0
ARC
  8
APS_GEOMETR�
 10
84.58109
 20
1192.632509
 40
96.236042
 50
253.631413
 51
281.69397
  0
ARC
  8
APS_GEOMETR�
 10
87.757446
 20
1202.721302
 40
106.811265
 50
227.359636
 51
253.521749
  0
ARC
  8
APS_GEOMETR�
 10
22.851681
 20
1126.63503
 40
7.851617
 50
173.002672
 51
198.46062
  0
ARC
  8
APS_GEOMETR�
 10
22.223759
 20
1126.734545
 40
7.216282
 50
146.234307
 51
173.179559
  0
ARC
  8
APS_GEOMETR�
 10
21.447033
 20
1127.256072
 40
6.280713
 50
116.663619
 51
146.251195
  0
ARC
  8
APS_GEOMETR�
 10
21.23847
 20
1127.616375
 40
5.865185
 50
85.438214
 51
116.422356
  0
ARC
  8
APS_GEOMETR�
 10
-100.018584
 20
1432.718589
 40
323.064295
 50
292.13425
 51
300.132975
  0
ARC
  8
APS_GEOMETR�
 10
93.751952
 20
1112.637957
 40
51.500504
 50
99.315907
 51
127.834458
  0
ARC
  8
APS_GEOMETR�
 10
93.622423
 20
1112.117225
 40
51.993833
 50
70.746679
 51
99.082162
  0
ARC
  8
APS_GEOMETR�
 10
91.330445
 20
1106.008589
 40
58.516773
 50
39.745732
 51
70.600306
  0
LINE
  8
APS_GEOMETR�
 10
136.323375
 11
168.13586
 20
1143.423145
 21
1152.196807
  0
ARC
  8
APS_GEOMETR�
 10
913.949553
 20
2044.739023
 40
1163.129259
 50
225.517635
 51
230.117665
  0
ARC
  8
APS_GEOMETR�
 10
106.551534
 20
1222.591714
 40
10.819526
 50
203.293135
 51
225.417016
  0
ARC
  8
APS_GEOMETR�
 10
106.976249
 20
1222.78397
 40
11.285651
 50
181.830724
 51
203.33699
  0
ARC
  8
APS_GEOMETR�
 10
107.018555
 20
1222.796974
 40
11.328357
 50
160.437823
 51
181.889629
  0
ARC
  8
APS_GEOMETR�
 10
106.637921
 20
1222.942015
 40
10.921134
 50
138.500688
 51
160.4862
  0
ARC
  8
APS_GEOMETR�
 10
106.184259
 20
1223.346205
 40
10.313537
 50
115.665976
 51
138.512479
  0
ARC
  8
APS_GEOMETR�
 10
105.983053
 20
1223.748867
 40
9.86346
 50
92.085005
 51
115.625594
  0
ARC
  8
APS_GEOMETR�
 10
105.969504
 20
1223.788463
 40
9.823404
 50
68.40953
 51
92.014436
  0
ARC
  8
APS_GEOMETR�
 10
105.817275
 20
1223.427276
 40
10.215269
 50
45.367339
 51
68.361054
  0
ARC
  8
APS_GEOMETR�
 10
105.392314
 20
1222.995971
 40
10.820757
 50
23.248345
 51
45.370537
  0
ARC
  8
APS_GEOMETR�
 10
887.611857
 20
2039.637825
 40
1120.874019
 50
226.449336
 51
235.248361
  0
ARC
  8
APS_GEOMETR�
 10
270.169087
 20
1127.953466
 40
23.389295
 50
179.406868
 51
203.322784
  0
ARC
  8
APS_GEOMETR�
 10
270.140399
 20
1127.98682
 40
23.360286
 50
155.552059
 51
179.487942
  0
ARC
  8
APS_GEOMETR�
 10
269.148399
 20
1128.462598
 40
22.260334
 50
130.885338
 51
155.610137
  0
ARC
  8
APS_GEOMETR�
 10
268.260355
 20
1129.483992
 40
20.906873
 50
105.088251
 51
130.877584
  0
ARC
  8
APS_GEOMETR�
 10
268.064002
 20
1130.101568
 40
20.259495
 50
78.666863
 51
105.00673
  0
ARC
  8
APS_GEOMETR�
 10
267.935083
 20
1129.620422
 40
20.756618
 50
52.664359
 51
78.578936
  0
ARC
  8
APS_GEOMETR�
 10
691.151309
 20
1237.780946
 40
420.732819
 50
186.446813
 51
192.582836
  0
LINE
  8
APS_GEOMETR�
 10
273.078988
 11
233.657643
 20
1190.540707
 21
1233.471151
  0
ARC
  8
APS_GEOMETR�
 10
236.379958
 20
1312.271382
 40
78.847241
 50
247.08446
 51
268.021387
  0
ARC
  8
APS_GEOMETR�
 10
229.491057
 20
1296.843278
 40
61.95529
 50
222.775543
 51
247.396975
  0
ARC
  8
APS_GEOMETR�
 10
216.95926
 20
1285.311327
 40
44.925055
 50
192.266842
 51
222.834227
  0
ARC
  8
APS_GEOMETR�
 10
-82.950591
 20
1180.514552
 40
273.156134
 50
20.408322
 51
29.153514
  0
ARC
  8
APS_GEOMETR�
 10
158.961433
 20
1318.46754
 40
5.928655
 50
205.402205
 51
235.47731
  0
ARC
  8
APS_GEOMETR�
 10
157.78011
 20
1317.864492
 40
4.603012
 50
169.260015
 51
204.929294
  0
ARC
  8
APS_GEOMETR�
 10
158.351866
 20
1317.678951
 40
5.19988
 50
135.569778
 51
168.425397
  0
ARC
  8
APS_GEOMETR�
 10
159.892526
 20
1316.187312
 40
7.34429
 50
109.640098
 51
135.673843
  0
ARC
  8
APS_GEOMETR�
 10
146.517564
 20
1179.10752
 40
144.409252
 50
64.784851
 51
85.668629
  0
ARC
  8
APS_GEOMETR�
 10
160.889688
 20
1208.279043
 40
111.896041
 50
40.28897
 51
65.079308
  0
ARC
  8
APS_GEOMETR�
 10
224.009164
 20
1262.37122
 40
28.774079
 50
3.266139
 51
39.402119
  0
ARC
  8
APS_GEOMETR�
 10
224.620689
 20
1262.991176
 40
28.13429
 50
338.096706
 51
2.076512
  0
ARC
  8
APS_GEOMETR�
 10
225.745285
 20
1262.50697
 40
26.910261
 50
313.452143
 51
338.160012
  0
LINE
  8
APS_GEOMETR�
 10
244.252775
 11
271.102388
 20
1242.971491
 21
1213.748945
  0
ARC
  8
APS_GEOMETR�
 10
692.632606
 20
1237.979055
 40
422.226033
 50
170.001159
 51
183.289816
  0
ARC
  8
APS_GEOMETR�
 10
283.45886
 20
1310.12812
 40
6.740008
 50
145.624495
 51
170.078435
  0
ARC
  8
APS_GEOMETR�
 10
283.13678
 20
1310.353414
 40
6.346975
 50
120.199412
 51
145.661473
  0
ARC
  8
APS_GEOMETR�
 10
282.960882
 20
1310.646603
 40
6.005101
 50
93.728843
 51
120.156026
  0
ARC
  8
APS_GEOMETR�
 10
282.947451
 20
1310.694279
 40
5.956661
 50
67.05844
 51
93.629752
  0
ARC
  8
APS_GEOMETR�
 10
282.832478
 20
1310.440815
 40
6.234897
 50
41.22458
 51
66.99337
  0
ARC
  8
APS_GEOMETR�
 10
282.525241
 20
1310.168962
 40
6.645134
 50
16.553607
 51
41.241792
  0
ARC
  8
APS_GEOMETR�
 10
786.255024
 20
1268.670005
 40
499.249358
 50
175.013848
 51
203.713157
  0
ARC
  8
APS_GEOMETR�
 10
870.279947
 20
2013.073046
 40
1089.118659
 50
240.208537
 51
245.810917
  0
ARC
  8
APS_GEOMETR�
 10
324.961861
 20
1003.373267
 40
100.369804
 50
9.292797
 51
30.742355
  0
ARC
  8
APS_GEOMETR�
 10
411.127655
 20
1091.120974
 40
36.440966
 50
234.119204
 51
270.156453
  0
ARC
  8
APS_GEOMETR�
 10
411.592329
 20
1091.600846
 40
37.102244
 50
202.841511
 51
233.972122
  0
ARC
  8
APS_GEOMETR�
 10
480.708749
 20
1118.605836
 40
111.298545
 50
176.394202
 51
201.841459
  0
ARC
  8
APS_GEOMETR�
 10
487.838137
 20
1118.290451
 40
118.43373
 50
152.051955
 51
176.458843
  0
ARC
  8
APS_GEOMETR�
 10
386.921357
 20
1168.00997
 40
6.870998
 50
94.775566
 51
122.624538
  0
ARC
  8
APS_GEOMETR�
 10
386.87416
 20
1168.518486
 40
6.36032
 50
65.396991
 51
94.733252
  0
ARC
  8
APS_GEOMETR�
 10
386.904475
 20
1168.624808
 40
6.251052
 50
35.56177
 51
65.243903
  0
ARC
  8
APS_GEOMETR�
 10
386.584827
 20
1168.410436
 40
6.635766
 50
6.952221
 51
35.462374
  0
ARC
  8
APS_GEOMETR�
 10
688.543687
 20
1350.977678
 40
346.817986
 50
211.607041
 51
219.235968
  0
ARC
  8
APS_GEOMETR�
 10
381.48975
 20
1091.120399
 40
55.821364
 50
19.483996
 51
46.497147
  0
ARC
  8
APS_GEOMETR�
 10
377.367957
 20
1089.679895
 40
60.187594
 50
353.789847
 51
19.468018
  0
ARC
  8
APS_GEOMETR�
 10
373.376402
 20
1090.07672
 40
64.198664
 50
336.291946
 51
353.82313
  0
ARC
  8
APS_GEOMETR�
 10
521.348205
 20
1066.464136
 40
89.218249
 50
181.413101
 51
214.810542
  0
ARC
  8
APS_GEOMETR�
 10
604.301901
 20
2017.675851
 40
1014.244236
 50
261.140498
 51
272.533903
  0
ARC
  8
APS_GEOMETR�
 10
1058.91964
 20
1340.32359
 40
529.855236
 50
210.229332
 51
219.34195
  0
ARC
  8
APS_GEOMETR�
 10
947.86894
 20
1596.125393
 40
627.145086
 50
230.175256
 51
236.43328
  0
ARC
  8
APS_GEOMETR�
 10
517.145927
 20
1142.524268
 40
40.399253
 50
284.268963
 51
316.025581
  0
ARC
  8
APS_GEOMETR�
 10
519.373053
 20
1136.085904
 40
33.615446
 50
247.342977
 51
283.294775
  0
ARC
  8
APS_GEOMETR�
 10
524.219665
 20
1146.35558
 40
44.962533
 50
217.138175
 51
246.684707
  0
ARC
  8
APS_GEOMETR�
 10
282.810331
 20
911.866848
 40
291.973531
 50
45.246587
 51
53.339293
  0
ARC
  8
APS_GEOMETR�
 10
457.623047
 20
1150.420931
 40
4.363972
 50
227.88373
 51
263.651181
  0
ARC
  8
APS_GEOMETR�
 10
459.2923
 20
1152.280432
 40
6.862792
 50
201.602852
 51
227.957397
  0
ARC
  8
APS_GEOMETR�
 10
461.833796
 20
1153.377765
 40
9.630145
 50
181.120228
 51
202.105894
  0
ARC
  8
APS_GEOMETR�
 10
462.059959
 20
1153.458694
 40
9.858144
 50
160.906388
 51
181.564808
  0
ARC
  8
APS_GEOMETR�
 10
501.699027
 20
1103.585247
 40
72.221846
 50
100.479948
 51
132.675099
  0
ARC
  8
APS_GEOMETR�
 10
498.94297
 20
1112.255693
 40
63.204887
 50
64.225783
 51
99.452816
  0
ARC
  8
APS_GEOMETR�
 10
510.974902
 20
1139.984548
 40
33.025482
 50
30.265245
 51
62.104744
  0
ARC
  8
APS_GEOMETR�
 10
495.248226
 20
1130.219215
 40
51.532903
 50
7.23921
 51
30.830094
  0
ARC
  8
APS_GEOMETR�
 10
613.227607
 20
1188.883298
 40
84.803507
 50
217.965763
 51
248.108691
  0
ARC
  8
APS_GEOMETR�
 10
1074.313036
 20
1348.478776
 40
547.299443
 50
194.338195
 51
205.809571
  0
ARC
  8
APS_GEOMETR�
 10
552.541397
 20
1215.109428
 40
8.7523
 50
171.276708
 51
194.332263
  0
ARC
  8
APS_GEOMETR�
 10
552.383343
 20
1215.144443
 40
8.59077
 50
148.001656
 51
171.347663
  0
ARC
  8
APS_GEOMETR�
 10
551.991487
 20
1215.395632
 40
8.125349
 50
123.803307
 51
148.039606
  0
ARC
  8
APS_GEOMETR�
 10
551.739196
 20
1215.765783
 40
7.677412
 50
98.598593
 51
123.77562
  0
ARC
  8
APS_GEOMETR�
 10
551.707972
 20
1215.898896
 40
7.541135
 50
73.033746
 51
98.515231
  0
ARC
  8
APS_GEOMETR�
 10
551.62248
 20
1215.651523
 40
7.802694
 50
48.058446
 51
72.963357
  0
ARC
  8
APS_GEOMETR�
 10
551.292839
 20
1215.285508
 40
8.295269
 50
24.152934
 51
48.054567
  0
ARC
  8
APS_GEOMETR�
 10
1056.120518
 20
1354.276476
 40
515.414982
 50
195.253057
 51
222.438747
  0
ARC
  8
APS_GEOMETR�
 10
698.944022
 20
810.530302
 40
197.311905
 50
69.280161
 51
96.752281
  0
ARC
  8
APS_GEOMETR�
 10
695.59451
 20
802.46881
 40
206.037236
 50
42.51741
 51
69.202096
  0
ARC
  8
APS_GEOMETR�
 10
685.291337
 20
792.946748
 40
220.066568
 50
17.003688
 51
42.531838
  0
ARC
  8
APS_GEOMETR�
 10
283.190828
 20
828.451219
 40
613.226106
 50
2.696577
 51
26.307697
  0
ARC
  8
APS_GEOMETR�
 10
773.372884
 20
903.13089
 40
205.890955
 50
73.193811
 51
91.694647
  0
ARC
  8
APS_GEOMETR�
 10
740.525352
 20
1134.884473
 40
37.276963
 50
284.843932
 51
315.876104
  0
ARC
  8
APS_GEOMETR�
 10
741.536507
 20
1131.702974
 40
33.942983
 50
251.512309
 51
284.569882
  0
ARC
  8
APS_GEOMETR�
 10
764.827487
 20
1194.073371
 40
100.506726
 50
222.939389
 51
250.194612
  0
ARC
  8
APS_GEOMETR�
 10
775.508291
 20
1204.009506
 40
115.09461
 50
198.057483
 51
222.938378
  0
ARC
  8
APS_GEOMETR�
 10
673.649479
 20
1167.015297
 40
7.680893
 50
144.280278
 51
170.117811
  0
ARC
  8
APS_GEOMETR�
 10
672.884427
 20
1167.583862
 40
6.727837
 50
116.159739
 51
144.40764
  0
ARC
  8
APS_GEOMETR�
 10
672.518616
 20
1168.299414
 40
5.924317
 50
85.260068
 51
116.035257
  0
ARC
  8
APS_GEOMETR�
 10
672.48519
 20
1168.289549
 40
5.936999
 50
54.215193
 51
84.946454
  0
ARC
  8
APS_GEOMETR�
 10
726.289145
 20
1483.45896
 40
314.408105
 50
260.788111
 51
268.933085
  0
ARC
  8
APS_GEOMETR�
 10
726.336674
 20
1118.982208
 40
50.469421
 50
67.80639
 51
96.715469
  0
ARC
  8
APS_GEOMETR�
 10
724.606277
 20
1115.227675
 40
54.599736
 50
40.194523
 51
67.613337
  0
ARC
  8
APS_GEOMETR�
 10
718.922654
 20
1110.307557
 40
62.11665
 50
23.298897
 51
40.277674
  0
ARC
  8
APS_GEOMETR�
 10
833.185017
 20
1264.752394
 40
141.918554
 50
246.226246
 51
264.988027
  0
ARC
  8
APS_GEOMETR�
 10
303.554517
 20
838.315966
 40
590.583078
 50
28.860347
 51
38.53074
  0
ARC
  8
APS_GEOMETR�
 10
1361.01493
 20
1659.541399
 40
748.388005
 50
209.005479
 51
217.282336
  0
ARC
  8
APS_GEOMETR�
 10
658.43545
 20
1005.953802
 40
294.645171
 50
80.612599
 51
122.959277
  0
ARC
  8
APS_GEOMETR�
 10
494.505918
 20
1259.170954
 40
7.006543
 50
275.022573
 51
301.203505
  0
ARC
  8
APS_GEOMETR�
 10
494.5241
 20
1259.096654
 40
6.930946
 50
248.554288
 51
274.926623
  0
ARC
  8
APS_GEOMETR�
 10
494.643238
 20
1259.376642
 40
7.235113
 50
222.864396
 51
248.486812
  0
ARC
  8
APS_GEOMETR�
 10
494.990241
 20
1259.700876
 40
7.71002
 50
198.325693
 51
222.876274
  0
ARC
  8
APS_GEOMETR�
 10
495.274374
 20
1259.805109
 40
8.012522
 50
174.471005
 51
198.394413
  0
ARC
  8
APS_GEOMETR�
 10
495.178068
 20
1259.825627
 40
7.914694
 50
150.429819
 51
174.551674
  0
ARC
  8
APS_GEOMETR�
 10
494.812632
 20
1260.040169
 40
7.490985
 50
125.446801
 51
150.477695
  0
ARC
  8
APS_GEOMETR�
 10
660.932741
 20
1025.762101
 40
294.687949
 50
112.083376
 51
125.342131
  0
ARC
  8
APS_GEOMETR�
 10
516.5322
 20
1254.378459
 40
55.729128
 50
52.906758
 51
74.976233
  0
ARC
  8
APS_GEOMETR�
 10
516.139659
 20
1253.085167
 40
57.079984
 50
74.932191
 51
96.64988
  0
ARC
  8
APS_GEOMETR�
 10
479.686741
 20
1333.035696
 40
37.833532
 50
291.349543
 51
322.07316
  0
ARC
  8
APS_GEOMETR�
 10
481.229062
 20
1329.487698
 40
33.967825
 50
258.064008
 51
291.105284
  0
ARC
  8
APS_GEOMETR�
 10
496.988665
 20
1392.701432
 40
99.101963
 50
229.193644
 51
256.708075
  0
ARC
  8
APS_GEOMETR�
 10
506.355733
 20
1403.479745
 40
113.381743
 50
204.037121
 51
229.170162
  0
ARC
  8
APS_GEOMETR�
 10
410.548522
 20
1356.756551
 40
7.761047
 50
150.355708
 51
176.013294
  0
ARC
  8
APS_GEOMETR�
 10
409.754356
 20
1357.228426
 40
6.837452
 50
122.558604
 51
150.500735
  0
ARC
  8
APS_GEOMETR�
 10
409.278711
 20
1357.955302
 40
5.968845
 50
91.844913
 51
122.465344
  0
ARC
  8
APS_GEOMETR�
 10
409.243573
 20
1358.039691
 40
5.883458
 50
60.610039
 51
91.529354
  0
ARC
  8
APS_GEOMETR�
 10
426.770113
 20
1676.895234
 40
314.070649
 50
267.328404
 51
275.479215
  0
ARC
  8
APS_GEOMETR�
 10
468.323281
 20
1315.262439
 40
50.34336
 50
74.322116
 51
103.279844
  0
ARC
  8
APS_GEOMETR�
 10
467.195496
 20
1311.989328
 40
53.799835
 50
46.415317
 51
74.107695
  0
ARC
  8
APS_GEOMETR�
 10
461.43796
 20
1306.015149
 40
62.096685
 50
17.00634
 51
46.367565
  0
ARC
  8
APS_GEOMETR�
 10
499.689561
 20
1156.518284
 40
168.984977
 50
63.446088
 51
82.816981
  0
ARC
  8
APS_GEOMETR�
 10
657.815909
 20
1034.46748
 40
285.418733
 50
82.432636
 51
106.81851
  0
ARC
  8
APS_GEOMETR�
 10
1378.148719
 20
1668.564254
 40
767.761337
 50
195.898235
 51
207.218605
  0
ARC
  8
APS_GEOMETR�
 10
637.393227
 20
1072.046037
 40
386.212882
 50
89.649704
 51
120.658441
  0
ARC
  8
APS_GEOMETR�
 10
437.318208
 20
1409.575319
 40
6.159428
 50
275.424745
 51
300.624777
  0
ARC
  8
APS_GEOMETR�
 10
437.333823
 20
1409.507043
 40
6.089989
 50
249.946708
 51
275.339216
  0
ARC
  8
APS_GEOMETR�
 10
437.424064
 20
1409.733809
 40
6.333955
 50
225.151527
 51
249.883272
  0
ARC
  8
APS_GEOMETR�
 10
437.707079
 20
1410.019057
 40
6.73578
 50
201.425174
 51
225.155919
  0
ARC
  8
APS_GEOMETR�
 10
437.975182
 20
1410.131783
 40
7.026537
 50
178.415952
 51
201.482268
  0
ARC
  8
APS_GEOMETR�
 10
437.951848
 20
1410.14135
 40
7.002953
 50
155.370422
 51
178.488913
  0
ARC
  8
APS_GEOMETR�
 10
661.629883
 20
1066.907605
 40
415.621876
 50
109.498757
 51
123.60699
  0
ARC
  8
APS_GEOMETR�
 10
467.729675
 20
1375.683974
 40
99.67133
 50
56.390337
 51
81.382488
  0
ARC
  8
APS_GEOMETR�
 10
462.928097
 20
1504.796624
 40
36.38443
 50
271.306178
 51
302.84936
  0
ARC
  8
APS_GEOMETR�
 10
463.159675
 20
1502.69305
 40
34.276616
 50
238.159025
 51
270.999333
  0
ARC
  8
APS_GEOMETR�
 10
501.727928
 20
1560.606952
 40
103.846123
 50
210.276537
 51
236.939
  0
ARC
  8
APS_GEOMETR�
 10
513.92423
 20
1567.814675
 40
118.012846
 50
185.847813
 51
210.313215
  0
ARC
  8
APS_GEOMETR�
 10
403.441725
 20
1552.977131
 40
7.46662
 50
131.528345
 51
157.862668
  0
ARC
  8
APS_GEOMETR�
 10
402.824441
 20
1553.687953
 40
6.525232
 50
102.773338
 51
131.608706
  0
ARC
  8
APS_GEOMETR�
 10
402.667951
 20
1554.295745
 40
5.89791
 50
71.728295
 51
102.596166
  0
ARC
  8
APS_GEOMETR�
 10
402.577059
 20
1554.115535
 40
6.097604
 50
41.264643
 51
71.448198
  0
ARC
  8
APS_GEOMETR�
 10
529.700263
 20
1852.346629
 40
318.708693
 50
247.388014
 51
255.459502
  0
ARC
  8
APS_GEOMETR�
 10
443.567831
 20
1492.931138
 40
51.280929
 50
54.549627
 51
83.150257
  0
ARC
  8
APS_GEOMETR�
 10
440.466465
 20
1488.810464
 40
56.436654
 50
27.596067
 51
54.411102
  0
ARC
  8
APS_GEOMETR�
 10
433.596659
 20
1485.165319
 40
64.213497
 50
0.799588
 51
27.639004
  0
ARC
  8
APS_GEOMETR�
 10
263.631326
 20
917.879898
 40
614.546202
 50
62.956461
 51
67.601288
  0
ARC
  8
APS_GEOMETR�
 10
658.300491
 20
1076.50529
 40
405.453437
 50
93.494481
 51
106.514742
  0
ARC
  8
APS_GEOMETR�
 10
1391.0278
 20
1672.234382
 40
781.158529
 50
184.51883
 51
194.15503
  0
ARC
  8
APS_GEOMETR�
 10
622.086113
 20
1606.858367
 40
10.511617
 50
133.802861
 51
158.625484
  0
ARC
  8
APS_GEOMETR�
 10
621.635714
 20
1607.328372
 40
9.860644
 50
107.891865
 51
133.804391
  0
ARC
  8
APS_GEOMETR�
 10
621.513625
 20
1607.664637
 40
9.503142
 50
81.250933
 51
107.814231
  0
ARC
  8
APS_GEOMETR�
 10
621.470091
 20
1607.486102
 40
9.686235
 50
54.932007
 51
81.157055
  0
ARC
  8
APS_GEOMETR�
 10
621.122352
 20
1606.999216
 40
10.284531
 50
29.715053
 51
54.904848
  0
ARC
  8
APS_GEOMETR�
 10
620.616829
 20
1606.700153
 40
10.871824
 50
5.496772
 51
29.763303
  0
ARC
  8
APS_GEOMETR�
 10
1374.311534
 20
1680.086403
 40
746.387221
 50
185.562223
 51
188.628512
  0
ARC
  8
APS_GEOMETR�
 10
564.52947
 20
1632.418328
 40
96.42192
 50
318.166439
 51
346.409586
  0
ARC
  8
APS_GEOMETR�
 10
719.155861
 20
1652.295705
 40
74.286716
 50
189.797018
 51
214.92983
  0
ARC
  8
APS_GEOMETR�
 10
720.797132
 20
1652.695762
 40
75.972212
 50
165.127466
 51
189.883708
  0
ARC
  8
APS_GEOMETR�
 10
718.444741
 20
1653.428468
 40
73.510639
 50
139.897786
 51
165.208816
  0
ARC
  8
APS_GEOMETR�
 10
279.74962
 20
1951.961776
 40
457.573019
 50
326.705518
 51
333.848666
  0
ARC
  8
APS_GEOMETR�
 10
699.115365
 20
1749.847943
 40
8.64436
 50
150.165201
 51
177.07268
  0
ARC
  8
APS_GEOMETR�
 10
698.6754
 20
1750.110931
 40
8.131875
 50
122.191816
 51
150.230371
  0
ARC
  8
APS_GEOMETR�
 10
698.405788
 20
1750.526634
 40
7.636445
 50
92.891086
 51
122.141575
  0
ARC
  8
APS_GEOMETR�
 10
698.385479
 20
1750.577411
 40
7.584728
 50
63.372707
 51
92.757209
  0
ARC
  8
APS_GEOMETR�
 10
583.732143
 20
1683.772405
 40
139.108721
 50
7.23914
 51
31.936356
  0
ARC
  8
APS_GEOMETR�
 10
581.45712
 20
1683.272005
 40
141.428821
 50
342.900182
 51
7.324108
  0
ARC
  8
APS_GEOMETR�
 10
669.797601
 20
1656.908171
 40
49.247703
 50
319.980669
 51
341.996163
  0
ARC
  8
APS_GEOMETR�
 10
671.880377
 20
1655.143298
 40
46.517763
 50
297.121337
 51
319.995779
  0
ARC
  8
APS_GEOMETR�
 10
672.871076
 20
1653.273131
 40
44.401608
 50
273.483559
 51
297.083656
  0
ARC
  8
APS_GEOMETR�
 10
-301.720062
 20
2048.986098
 40
1071.784756
 50
331.622016
 51
335.759948
  0
ARC
  8
APS_GEOMETR�
 10
1359.794482
 20
1676.484201
 40
731.450754
 50
190.78743
 51
212.800614
  0
ARC
  8
APS_GEOMETR�
 10
1317.900253
 20
1145.798719
 40
588.497908
 50
158.657323
 51
166.793799
  0
ARC
  8
APS_GEOMETR�
 10
591.60547
 20
1339.447924
 40
179.335022
 50
6.574101
 51
24.732645
  0
ARC
  8
APS_GEOMETR�
 10
753.406263
 20
1450.708807
 40
36.246073
 50
240.089246
 51
271.713494
  0
ARC
  8
APS_GEOMETR�
 10
753.680635
 20
1450.907798
 40
36.555638
 50
208.427773
 51
239.872011
  0
ARC
  8
APS_GEOMETR�
 10
819.739468
 20
1484.425464
 40
110.622628
 50
181.854872
 51
207.406702
  0
ARC
  8
APS_GEOMETR�
 10
828.329469
 20
1484.843949
 40
119.221756
 50
157.624001
 51
181.922261
  0
ARC
  8
APS_GEOMETR�
 10
722.408138
 20
1524.798356
 40
6.942138
 50
100.865473
 51
128.522261
  0
ARC
  8
APS_GEOMETR�
 10
722.290764
 20
1525.391303
 40
6.337696
 50
71.427207
 51
100.833855
  0
ARC
  8
APS_GEOMETR�
 10
722.328974
 20
1525.563814
 40
6.162028
 50
41.282634
 51
71.253086
  0
ARC
  8
APS_GEOMETR�
 10
722.018871
 20
1525.31093
 40
6.561922
 50
12.429244
 51
41.155458
  0
ARC
  8
APS_GEOMETR�
 10
1000.298758
 20
1733.698183
 40
341.691185
 50
217.281876
 51
224.986984
  0
ARC
  8
APS_GEOMETR�
 10
724.993008
 20
1448.591142
 40
55.028598
 50
25.042179
 51
52.316791
  0
ARC
  8
APS_GEOMETR�
 10
720.57105
 20
1446.557861
 40
59.895542
 50
359.251443
 51
25.013859
  0
ARC
  8
APS_GEOMETR�
 10
716.288279
 20
1446.503215
 40
64.177328
 50
331.504041
 51
359.350178
  0
ARC
  8
APS_GEOMETR�
 10
825.366298
 20
1416.890867
 40
52.685339
 50
181.094589
 51
213.556408
  0
ARC
  8
APS_GEOMETR�
 10
1305.575311
 20
1151.120984
 40
575.063053
 50
146.340918
 51
155.699896
  0
ARC
  8
APS_GEOMETR�
 10
834.150793
 20
1465.058961
 40
8.672636
 50
120.79277
 51
146.467854
  0
ARC
  8
APS_GEOMETR�
 10
833.901644
 20
1465.465105
 40
8.196202
 50
94.08134
 51
120.750085
  0
ARC
  8
APS_GEOMETR�
 10
833.882069
 20
1465.536869
 40
8.12324
 50
67.150258
 51
93.979651
  0
ARC
  8
APS_GEOMETR�
 10
833.724737
 20
1465.189182
 40
8.504743
 50
41.068357
 51
67.083068
  0
ARC
  8
APS_GEOMETR�
 10
1564.650473
 20
1100.460801
 40
813.66695
 50
152.92738
 51
169.346756
  0
ARC
  8
APS_GEOMETR�
 10
1338.576856
 20
1663.720395
 40
706.696037
 50
215.745443
 51
218.344253
  0
ARC
  8
APS_GEOMETR�
 10
292.423991
 20
820.632675
 40
636.955053
 50
11.138307
 51
39.443003
  0
ARC
  8
APS_GEOMETR�
 10
1753.147409
 20
866.496359
 40
839.322492
 50
163.695243
 51
174.723768
  0
ARC
  8
APS_GEOMETR�
 10
1187.619368
 20
1386.065333
 40
371.801034
 50
219.685658
 51
229.788553
  0
ARC
  8
APS_GEOMETR�
 10
897.22988
 20
1184.459336
 40
36.070144
 50
245.06498
 51
276.793045
  0
ARC
  8
APS_GEOMETR�
 10
897.383576
 20
1184.425753
 40
36.104815
 50
213.112522
 51
244.821341
  0
ARC
  8
APS_GEOMETR�
 10
960.230797
 20
1223.025787
 40
109.850455
 50
186.396107
 51
212.068714
  0
ARC
  8
APS_GEOMETR�
 10
969.937017
 20
1224.255961
 40
119.633386
 50
162.221754
 51
186.463746
  0
ARC
  8
APS_GEOMETR�
 10
860.832824
 20
1255.686527
 40
7.012865
 50
105.905172
 51
133.374093
  0
ARC
  8
APS_GEOMETR�
 10
860.644814
 20
1256.338839
 40
6.334002
 50
76.468453
 51
105.886633
  0
ARC
  8
APS_GEOMETR�
 10
860.681488
 20
1256.576473
 40
6.094416
 50
46.086872
 51
76.28094
  0
ARC
  8
APS_GEOMETR�
 10
860.392991
 20
1256.301692
 40
6.492481
 50
17.001509
 51
45.934628
  0
ARC
  8
APS_GEOMETR�
 10
1117.160935
 20
1484.124501
 40
337.374808
 50
222.040375
 51
229.811114
  0
ARC
  8
APS_GEOMETR�
 10
870.008856
 20
1180.71064
 40
54.350578
 50
29.698321
 51
57.20157
  0
ARC
  8
APS_GEOMETR�
 10
865.48572
 20
1178.180128
 40
59.533297
 50
3.789272
 51
29.657137
  0
ARC
  8
APS_GEOMETR�
 10
860.395796
 20
1177.754888
 40
64.640257
 50
339.894231
 51
3.867213
  0
ARC
  8
APS_GEOMETR�
 10
1050.499191
 20
1260.687136
 40
166.739428
 50
219.097382
 51
234.822338
  0
ARC
  8
APS_GEOMETR�
 10
1738.35114
 20
871.15665
 40
823.802885
 50
151.836729
 51
162.096968
  0
ARC
  8
APS_GEOMETR�
 10
299.88868
 20
1671.8377
 40
822.706133
 50
329.959398
 51
330.585979
  0
ARC
  8
APS_GEOMETR�
 10
504.514021
 20
1080.026505
 40
545.37108
 50
20.138513
 51
27.891191
  0
ARC
  8
APS_GEOMETR�
 10
969.18967
 20
1276.771053
 40
60.898694
 50
73.453256
 51
96.295333
  0
ARC
  8
APS_GEOMETR�
 10
969.058246
 20
1277.419119
 40
60.240154
 50
96.238676
 51
119.248089
  0
ARC
  8
APS_GEOMETR�
 10
904.219109
 20
1346.623219
 40
39.123151
 50
304.785937
 51
334.822662
  0
ARC
  8
APS_GEOMETR�
 10
906.990215
 20
1342.808306
 40
34.409198
 50
271.865449
 51
304.620379
  0
ARC
  8
APS_GEOMETR�
 10
907.325621
 20
1405.373805
 40
96.959636
 50
242.542057
 51
270.463702
  0
ARC
  8
APS_GEOMETR�
 10
913.287337
 20
1416.540963
 40
109.617831
 50
216.758344
 51
242.468369
  0
ARC
  8
APS_GEOMETR�
 10
833.238702
 20
1352.0819
 40
7.856777
 50
162.901934
 51
188.348624
  0
ARC
  8
APS_GEOMETR�
 10
832.486175
 20
1352.335227
 40
7.06306
 50
135.733597
 51
163.071323
  0
ARC
  8
APS_GEOMETR�
 10
831.807883
 20
1352.992216
 40
6.118759
 50
105.592676
 51
135.705764
  0
ARC
  8
APS_GEOMETR�
 10
831.703459
 20
1353.257172
 40
5.83556
 50
74.214441
 51
105.30439
  0
ARC
  8
APS_GEOMETR�
 10
772.573171
 20
1670.150955
 40
317.14481
 50
281.037492
 51
289.13551
  0
ARC
  8
APS_GEOMETR�
 10
899.471776
 20
1325.343009
 40
50.675058
 50
88.082881
 51
116.913029
  0
ARC
  8
APS_GEOMETR�
 10
899.191426
 20
1323.511753
 40
52.515125
 50
59.697908
 51
87.844019
  0
ARC
  8
APS_GEOMETR�
 10
895.717864
 20
1317.578197
 40
59.390639
 50
38.619354
 51
59.692927
  0
ARC
  8
APS_GEOMETR�
 10
953.886439
 20
1280.269347
 40
75.302051
 50
71.870586
 51
98.989413
  0
ARC
  8
APS_GEOMETR�
 10
528.266531
 20
1095.635848
 40
516.995201
 50
29.706062
 51
61.524651
  0
ARC
  8
APS_GEOMETR�
 10
784.330387
 20
1554.949392
 40
10.735299
 50
183.834551
 51
206.937112
  0
ARC
  8
APS_GEOMETR�
 10
784.419446
 20
1554.968985
 40
10.825477
 50
160.933439
 51
183.906494
  0
ARC
  8
APS_GEOMETR�
 10
784.039466
 20
1555.111863
 40
10.419676
 50
137.422959
 51
160.993448
  0
ARC
  8
APS_GEOMETR�
 10
783.585249
 20
1555.531857
 40
9.801045
 50
112.874624
 51
137.434392
  0
ARC
  8
APS_GEOMETR�
 10
783.414511
 20
1555.912721
 40
9.383769
 50
87.530421
 51
112.818063
  0
ARC
  8
APS_GEOMETR�
 10
783.39817
 20
1555.863487
 40
9.433672
 50
62.246358
 51
87.444152
  0
ARC
  8
APS_GEOMETR�
 10
561.843858
 20
1133.387425
 40
486.479086
 50
60.264496
 51
62.32509
  0
ARC
  8
APS_GEOMETR�
 10
685.434958
 20
1551.04775
 40
117.79725
 50
2.316496
 51
28.751441
  0
ARC
  8
APS_GEOMETR�
 10
840.320279
 20
1658.956702
 40
72.732005
 50
199.304479
 51
224.797493
  0
ARC
  8
APS_GEOMETR�
 10
843.199515
 20
1660.069922
 40
75.817438
 50
174.588896
 51
199.379134
  0
ARC
  8
APS_GEOMETR�
 10
842.279352
 20
1660.27475
 40
74.882151
 50
149.680361
 51
174.678528
  0
ARC
  8
APS_GEOMETR�
 10
349.783212
 20
1884.925995
 40
466.876264
 50
336.408636
 51
343.456505
  0
ARC
  8
APS_GEOMETR�
 10
806.009975
 20
1752.974509
 40
8.733478
 50
159.775661
 51
186.497792
  0
ARC
  8
APS_GEOMETR�
 10
805.645574
 20
1753.122918
 40
8.34025
 50
132.302222
 51
159.866937
  0
ARC
  8
APS_GEOMETR�
 10
805.266415
 20
1753.538562
 40
7.777648
 50
103.405111
 51
132.297196
  0
ARC
  8
APS_GEOMETR�
 10
805.196148
 20
1753.766444
 40
7.5397
 50
73.784744
 51
103.287161
  0
ARC
  8
APS_GEOMETR�
 10
705.530549
 20
1670.174661
 40
136.410095
 50
16.72438
 51
41.749194
  0
ARC
  8
APS_GEOMETR�
 10
700.759458
 20
1668.546429
 40
141.448046
 50
352.378188
 51
16.79988
  0
ARC
  8
APS_GEOMETR�
 10
791.623335
 20
1657.10888
 40
49.875063
 50
322.790623
 51
351.556644
  0
ARC
  8
APS_GEOMETR�
 10
794.345685
 20
1654.994903
 40
46.42853
 50
292.647191
 51
322.836716
  0
ARC
  8
APS_GEOMETR�
 10
947.33694
 20
1588.566444
 40
137.155823
 50
170.10051
 51
176.17242
  0
ARC
  8
APS_GEOMETR�
 10
1607.333067
 20
1717.003717
 40
805.724309
 50
188.513511
 51
192.275032
  0
ARC
  8
APS_GEOMETR�
 10
554.739543
 20
1122.615992
 40
499.380738
 50
42.983699
 51
57.910941
  0
ARC
  8
APS_GEOMETR�
 10
859.28464
 20
1478.050053
 40
62.590141
 50
346.170497
 51
11.312584
  0
ARC
  8
APS_GEOMETR�
 10
990.062092
 20
1520.223221
 40
75.568231
 50
178.458673
 51
203.303894
  0
ARC
  8
APS_GEOMETR�
 10
989.802801
 20
1520.349553
 40
75.30573
 50
153.645987
 51
178.549451
  0
ARC
  8
APS_GEOMETR�
 10
986.371482
 20
1522.134079
 40
71.438895
 50
127.904294
 51
153.706812
  0
ARC
  8
APS_GEOMETR�
 10
629.336912
 20
1893.39583
 40
444.093228
 50
314.840599
 51
322.127675
  0
ARC
  8
APS_GEOMETR�
 10
988.092531
 20
1618.678287
 40
8.45849
 50
138.411569
 51
165.716071
  0
ARC
  8
APS_GEOMETR�
 10
987.667358
 20
1619.059554
 40
7.887415
 50
109.812125
 51
138.43294
  0
ARC
  8
APS_GEOMETR�
 10
987.53967
 20
1619.375399
 40
7.546998
 50
80.229606
 51
109.712833
  0
ARC
  8
APS_GEOMETR�
 10
987.492867
 20
1619.203274
 40
7.724587
 50
51.07865
 51
80.104145
  0
ARC
  8
APS_GEOMETR�
 10
860.023365
 20
1576.098235
 40
141.143581
 50
355.90656
 51
20.36368
  0
ARC
  8
APS_GEOMETR�
 10
861.307751
 20
1575.7947
 40
139.840963
 50
331.382896
 51
355.993042
  0
ARC
  8
APS_GEOMETR�
 10
942.903214
 20
1532.066022
 40
47.274267
 50
299.105778
 51
330.54213
  0
ARC
  8
APS_GEOMETR�
 10
944.410033
 20
1529.500477
 40
44.299791
 50
266.171548
 51
299.017051
  0
ARC
  8
APS_GEOMETR�
 10
790.969481
 20
1470.219003
 40
151.236438
 50
348.922152
 51
5.722759
  0
ARC
  8
APS_GEOMETR�
 10
534.400303
 20
1105.162523
 40
526.221738
 50
20.366592
 51
39.680758
  0
ARC
  8
APS_GEOMETR�
 10
284.583464
 20
1679.289829
 40
839.721396
 50
332.249826
 51
348.444264
  0
ARC
  8
APS_GEOMETR�
 10
670.157872
 20
1321.710745
 40
476.380511
 50
23.4225
 51
52.380955
  0
ARC
  8
APS_GEOMETR�
 10
970.428
 20
1703.331216
 40
10.406875
 50
180.107203
 51
204.319232
  0
ARC
  8
APS_GEOMETR�
 10
970.431486
 20
1703.346475
 40
10.4104
 50
155.984629
 51
180.191144
  0
ARC
  8
APS_GEOMETR�
 10
969.989146
 20
1703.555112
 40
9.921445
 50
131.043142
 51
156.04557
  0
ARC
  8
APS_GEOMETR�
 10
969.587744
 20
1704.014305
 40
9.311543
 50
104.943933
 51
131.035604
  0
ARC
  8
APS_GEOMETR�
 10
969.500407
 20
1704.289834
 40
9.02282
 50
78.209748
 51
104.859282
  0
ARC
  8
APS_GEOMETR�
 10
969.438666
 20
1704.065385
 40
9.255162
 50
51.921159
 51
78.119505
  0
ARC
  8
APS_GEOMETR�
 10
689.714588
 20
1345.742912
 40
463.832484
 50
41.974436
 51
52.020632
  0
ARC
  8
APS_GEOMETR�
 10
925.059829
 20
1670.336181
 40
110.428534
 50
352.516346
 51
16.096294
  0
ARC
  8
APS_GEOMETR�
 10
1055.995209
 20
1731.704767
 40
39.528605
 50
201.246447
 51
231.074923
  0
ARC
  8
APS_GEOMETR�
 10
1055.783769
 20
1731.615251
 40
39.299098
 50
171.292672
 51
201.236518
  0
ARC
  8
APS_GEOMETR�
 10
1124.550671
 20
1719.134877
 40
109.17979
 50
144.503172
 51
170.281834
  0
ARC
  8
APS_GEOMETR�
 10
1125.20287
 20
1718.668559
 40
109.981547
 50
118.849838
 51
144.502679
  0
ARC
  8
APS_GEOMETR�
 10
1071.870754
 20
1808.15882
 40
6.846284
 50
59.871134
 51
87.787642
  0
ARC
  8
APS_GEOMETR�
 10
1071.897549
 20
1808.202398
 40
6.795144
 50
31.82292
 51
59.8821
  0
ARC
  8
APS_GEOMETR�
 10
1071.940253
 20
1808.229294
 40
6.744676
 50
3.620915
 51
31.820072
  0
ARC
  8
APS_GEOMETR�
 10
1071.947029
 20
1808.231327
 40
6.737786
 50
335.389137
 51
3.607303
  0
ARC
  8
APS_GEOMETR�
 10
1443.507906
 20
1803.53916
 40
365.440039
 50
179.70427
 51
187.071567
  0
ARC
  8
APS_GEOMETR�
 10
1024.165054
 20
1744.280714
 40
58.451194
 50
347.941862
 51
14.130216
  0
ARC
  8
APS_GEOMETR�
 10
1023.987806
 20
1744.328692
 40
58.634555
 50
321.798026
 51
347.932197
  0
ARC
  8
APS_GEOMETR�
 10
1023.445605
 20
1744.803884
 40
59.354523
 50
299.448107
 51
321.761242
  0
ARC
  8
APS_GEOMETR�
 10
663.787348
 20
1653.794404
 40
390.822366
 50
356.927309
 51
5.774717
  0
ARC
  8
APS_GEOMETR�
 10
675.281701
 20
1333.800337
 40
482.588459
 50
25.07029
 51
38.29193
  0
ARC
  8
APS_GEOMETR�
 10
270.908002
 20
1682.466553
 40
853.759069
 50
350.277548
 51
357.674197
  0
ARC
  8
APS_GEOMETR�
 10
1134.097124
 20
1647.417366
 40
10.141338
 50
152.95109
 51
177.727461
  0
ARC
  8
APS_GEOMETR�
 10
1133.63208
 20
1647.665789
 40
9.614196
 50
127.327091
 51
153.009318
  0
ARC
  8
APS_GEOMETR�
 10
1133.274476
 20
1648.129223
 40
9.02884
 50
100.515757
 51
127.305821
  0
ARC
  8
APS_GEOMETR�
 10
1133.222077
 20
1648.328647
 40
8.823217
 50
73.209639
 51
100.417556
  0
ARC
  8
APS_GEOMETR�
 10
1133.116083
 20
1648.024705
 40
9.144829
 50
46.562725
 51
73.123953
  0
ARC
  8
APS_GEOMETR�
 10
1132.69216
 20
1647.576931
 40
9.761443
 50
21.142013
 51
46.563018
  0
ARC
  8
APS_GEOMETR�
 10
250.687418
 20
1671.209678
 40
891.336066
 50
355.411297
 51
358.707076
  0
ARC
  8
APS_GEOMETR�
 10
1145.821405
 20
1672.573345
 40
72.976763
 50
264.767776
 51
290.053755
  0
ARC
  8
APS_GEOMETR�
 10
1144.744804
 20
1675.280642
 40
75.889133
 50
290.116413
 51
314.746855
  0
ARC
  8
APS_GEOMETR�
 10
1256.748245
 20
1582.861363
 40
70.109951
 50
120.541149
 51
146.671609
  0
ARC
  8
APS_GEOMETR�
 10
1254.725255
 20
1586.185769
 40
66.218782
 50
93.342322
 51
120.495283
  0
ARC
  8
APS_GEOMETR�
 10
1254.573677
 20
1586.667117
 40
65.729531
 50
65.946301
 51
93.23488
  0
ARC
  8
APS_GEOMETR�
 10
1399.565472
 20
2040.857722
 40
411.509999
 50
253.307385
 51
260.97447
  0
ARC
  8
APS_GEOMETR�
 10
1337.13845
 20
1627.209586
 40
7.539883
 50
76.894898
 51
106.396833
  0
ARC
  8
APS_GEOMETR�
 10
1337.06955
 20
1626.984476
 40
7.774769
 50
47.877225
 51
76.776509
  0
ARC
  8
APS_GEOMETR�
 10
1336.691986
 20
1626.568209
 40
8.336758
 50
20.298934
 51
47.871428
  0
ARC
  8
APS_GEOMETR�
 10
1336.325613
 20
1626.417918
 40
8.732528
 50
353.665754
 51
20.389844
  0
ARC
  8
APS_GEOMETR�
 10
1240.578758
 20
1702.289239
 40
129.64716
 50
297.759735
 51
323.655055
  0
ARC
  8
APS_GEOMETR�
 10
1243.798563
 20
1696.416491
 40
122.950696
 50
270.871808
 51
297.706651
  0
ARC
  8
APS_GEOMETR�
 10
1245.910991
 20
1617.945451
 40
44.46608
 50
238.486114
 51
269.688572
  0
ARC
  8
APS_GEOMETR�
 10
1247.532484
 20
1620.488593
 40
47.481736
 50
208.569691
 51
238.422122
  0
ARC
  8
APS_GEOMETR�
 10
1212.377912
 20
1474.883524
 40
123.072192
 50
93.048717
 51
128.089211
  0
ARC
  8
APS_GEOMETR�
 10
263.792793
 20
1668.884839
 40
878.052985
 50
331.135672
 51
353.648485
  0
ARC
  8
APS_GEOMETR�
 10
1731.002966
 20
888.009256
 40
784.216504
 50
152.919623
 51
155.826423
  0
LINE
  8
APS_GEOMETR�
 10
1015.555141
 11
1059.868032
 20
1209.147754
 21
1227.566151
  0
ARC
  8
APS_GEOMETR�
 10
1129.827486
 20
1206.222103
 40
73.142967
 50
137.636927
 51
163.033488
  0
ARC
  8
APS_GEOMETR�
 10
1126.410446
 20
1209.362206
 40
68.502269
 50
111.110481
 51
137.65173
  0
ARC
  8
APS_GEOMETR�
 10
1125.276223
 20
1212.05837
 40
65.578598
 50
83.703687
 51
111.03444
  0
ARC
  8
APS_GEOMETR�
 10
1124.878883
 20
1686.170492
 40
408.999513
 50
271.063238
 51
278.761684
  0
ARC
  8
APS_GEOMETR�
 10
1191.458156
 20
1275.592915
 40
7.657613
 50
94.77117
 51
123.967234
  0
ARC
  8
APS_GEOMETR�
 10
1191.433552
 20
1275.677149
 40
7.571645
 50
65.220009
 51
94.638653
  0
ARC
  8
APS_GEOMETR�
 10
1191.250783
 20
1275.308127
 40
7.983301
 50
36.75021
 51
65.13912
  0
ARC
  8
APS_GEOMETR�
 10
1190.806334
 20
1274.968684
 40
8.542517
 50
9.667576
 51
36.79081
  0
ARC
  8
APS_GEOMETR�
 10
1071.94481
 20
1322.488669
 40
135.368972
 50
314.942027
 51
340.09613
  0
ARC
  8
APS_GEOMETR�
 10
1077.946512
 20
1316.457951
 40
126.860751
 50
288.671128
 51
314.947405
  0
ARC
  8
APS_GEOMETR�
 10
1105.288236
 20
1238.227896
 40
44.003125
 50
256.183214
 51
287.553158
  0
ARC
  8
APS_GEOMETR�
 10
1105.758647
 20
1239.676771
 40
45.522554
 50
225.383055
 51
256.043781
  0
LINE
  8
APS_GEOMETR�
 10
1073.785262
 11
1004.248726
 20
1207.272981
 21
1182.676303
  0
ARC
  8
APS_GEOMETR�
 10
1742.97508
 20
883.204643
 40
797.119754
 50
157.9329
 51
168.651113
  0
ARC
  8
APS_GEOMETR�
 10
-248.99869
 20
3357.219721
 40
2614.26381
 50
297.581749
 51
298.826561
  0
ARC
  8
APS_GEOMETR�
 10
1084.967002
 20
1055.225147
 40
74.395507
 50
145.857767
 51
170.965844
  0
ARC
  8
APS_GEOMETR�
 10
1081.328789
 20
1057.752308
 40
69.966003
 50
119.731827
 51
145.898428
  0
ARC
  8
APS_GEOMETR�
 10
1079.38493
 20
1061.042577
 40
66.144862
 50
92.509815
 51
119.683161
  0
ARC
  8
APS_GEOMETR�
 10
1006.229706
 20
1532.967435
 40
411.880066
 50
279.821572
 51
287.484061
  0
ARC
  8
APS_GEOMETR�
 10
1135.225077
 20
1134.374348
 40
7.779991
 50
103.552306
 51
132.438534
  0
ARC
  8
APS_GEOMETR�
 10
1135.153691
 20
1134.604466
 40
7.539567
 50
73.931949
 51
103.434715
  0
ARC
  8
APS_GEOMETR�
 10
1135.060657
 20
1134.336031
 40
7.823281
 50
45.042797
 51
73.821344
  0
ARC
  8
APS_GEOMETR�
 10
1134.658988
 20
1133.93239
 40
8.392722
 50
17.600929
 51
45.049415
  0
ARC
  8
APS_GEOMETR�
 10
1007.785747
 20
1165.008476
 40
137.859258
 50
323.205245
 51
348.05281
  0
ARC
  8
APS_GEOMETR�
 10
1014.432866
 20
1159.947901
 40
129.505324
 50
297.322338
 51
323.236721
  0
ARC
  8
APS_GEOMETR�
 10
1054.299948
 20
1084.601113
 40
44.273404
 50
268.830274
 51
296.24093
  0
ARC
  8
APS_GEOMETR�
 10
1054.387701
 20
1084.722554
 40
44.396693
 50
241.360758
 51
268.720248
  0
ARC
  8
APS_GEOMETR�
 10
659.808241
 20
1604.346072
 40
671.843969
 50
296.01933
 51
303.754505
  0
ARC
  8
APS_GEOMETR�
 10
1753.089396
 20
881.22515
 40
807.433094
 50
171.498224
 51
184.468867
  0
ARC
  8
APS_GEOMETR�
 10
1200.974164
 20
739.331554
 40
264.9107
 50
130.315579
 51
162.65407
  0
ARC
  8
APS_GEOMETR�
 10
1187.844002
 20
754.64934
 40
244.735848
 50
96.174683
 51
130.291913
  0
ARC
  8
APS_GEOMETR�
 10
1100.069401
 20
1500.099103
 40
505.879909
 50
276.977127
 51
278.314285
  0
ARC
  8
APS_GEOMETR�
 10
1580.255829
 20
935.313092
 40
412.070219
 50
144.545782
 51
171.033639
  0
ARC
  8
APS_GEOMETR�
 10
287.282259
 20
1193.65008
 40
957.504542
 50
358.844154
 51
3.322117
  0
ARC
  8
APS_GEOMETR�
 10
1294.788479
 20
1300.384099
 40
72.732005
 50
199.304479
 51
224.797493
  0
ARC
  8
APS_GEOMETR�
 10
1297.667715
 20
1301.49732
 40
75.817438
 50
174.588896
 51
199.379134
  0
ARC
  8
APS_GEOMETR�
 10
1296.747552
 20
1301.702148
 40
74.882151
 50
149.680361
 51
174.678528
  0
ARC
  8
APS_GEOMETR�
 10
804.251412
 20
1526.353392
 40
466.876264
 50
336.408636
 51
343.456505
  0
ARC
  8
APS_GEOMETR�
 10
1260.478175
 20
1394.401907
 40
8.733478
 50
159.775661
 51
186.497792
  0
ARC
  8
APS_GEOMETR�
 10
1260.113774
 20
1394.550315
 40
8.34025
 50
132.302222
 51
159.866937
  0
ARC
  8
APS_GEOMETR�
 10
1259.734615
 20
1394.96596
 40
7.777648
 50
103.405111
 51
132.297196
  0
ARC
  8
APS_GEOMETR�
 10
1259.664348
 20
1395.193842
 40
7.5397
 50
73.784744
 51
103.287161
  0
ARC
  8
APS_GEOMETR�
 10
1159.99875
 20
1311.602059
 40
136.410095
 50
16.72438
 51
41.749194
  0
ARC
  8
APS_GEOMETR�
 10
1155.227658
 20
1309.973826
 40
141.448046
 50
352.378188
 51
16.79988
  0
ARC
  8
APS_GEOMETR�
 10
1245.76927
 20
1298.633918
 40
50.208196
 50
329.552256
 51
351.500427
  0
ARC
  8
APS_GEOMETR�
 10
1247.915835
 20
1297.338745
 40
47.701337
 50
306.87085
 51
329.586825
  0
ARC
  8
APS_GEOMETR�
 10
1249.479018
 20
1295.274951
 40
45.112393
 50
283.272619
 51
306.85532
  0
ARC
  8
APS_GEOMETR�
 10
979.643429
 20
1207.512384
 40
283.603998
 50
358.124817
 51
8.895645
  0
ARC
  8
APS_GEOMETR�
 10
1562.679396
 20
947.638049
 40
390.573829
 50
130.487247
 51
140.088387
  0
ARC
  8
APS_GEOMETR�
 10
1302.526161
 20
1234.184225
 40
12.385997
 50
31.815109
 51
58.008952
  0
ARC
  8
APS_GEOMETR�
 10
1301.88588
 20
1233.774111
 40
13.146287
 50
6.698089
 51
31.862846
  0
ARC
  8
APS_GEOMETR�
 10
1301.682875
 20
1233.729094
 40
13.353174
 50
341.886624
 51
6.788332
  0
ARC
  8
APS_GEOMETR�
 10
1302.167863
 20
1233.552096
 40
12.837204
 50
316.393616
 51
341.964483
  0
ARC
  8
APS_GEOMETR�
 10
1625.759923
 20
924.990597
 40
434.289201
 50
136.361118
 51
158.477944
  0
ARC
  8
APS_GEOMETR�
 10
1220.44561
 20
1138.723314
 40
54.42531
 50
271.374288
 51
299.300989
  0
ARC
  8
APS_GEOMETR�
 10
1218.835027
 20
1141.482038
 40
57.619326
 50
299.355098
 51
326.231025
  0
ARC
  8
APS_GEOMETR�
 10
1339.844572
 20
1096.499821
 40
74.250302
 50
144.810829
 51
169.951933
  0
ARC
  8
APS_GEOMETR�
 10
1336.210925
 20
1099.11808
 40
69.77186
 50
118.63289
 51
144.848432
  0
ARC
  8
APS_GEOMETR�
 10
1334.3744
 20
1102.355807
 40
66.050054
 50
91.380927
 51
118.580471
  0
ARC
  8
APS_GEOMETR�
 10
1270.556653
 20
1575.017979
 40
411.364908
 50
278.700365
 51
286.369253
  0
ARC
  8
APS_GEOMETR�
 10
1391.619513
 20
1174.501402
 40
7.762353
 50
102.429702
 51
131.360088
  0
ARC
  8
APS_GEOMETR�
 10
1391.556396
 20
1174.714241
 40
7.540934
 50
72.810286
 51
102.309457
  0
ARC
  8
APS_GEOMETR�
 10
1391.453236
 20
1174.430477
 40
7.842524
 50
43.971975
 51
72.702969
  0
ARC
  8
APS_GEOMETR�
 10
1391.04356
 20
1174.032953
 40
8.413363
 50
16.580106
 51
43.983202
  0
ARC
  8
APS_GEOMETR�
 10
1265.048629
 20
1207.293841
 40
137.564607
 50
322.153072
 51
347.036424
  0
ARC
  8
APS_GEOMETR�
 10
1271.653738
 20
1202.080791
 40
129.150392
 50
296.219185
 51
322.181423
  0
ARC
  8
APS_GEOMETR�
 10
1309.946608
 20
1126.195231
 40
44.162361
 50
263.601536
 51
295.147194
  0
ARC
  8
APS_GEOMETR�
 10
1310.152392
 20
1126.907396
 40
44.893197
 50
232.243043
 51
263.441827
  0
ARC
  8
APS_GEOMETR�
 10
1189.788632
 20
1197.67677
 40
141.129447
 50
279.214079
 51
311.153926
  0
ARC
  8
APS_GEOMETR�
 10
1640.456404
 20
918.691077
 40
450.281369
 50
161.928721
 51
169.098707
  0
ARC
  8
APS_GEOMETR�
 10
1095.813676
 20
1514.544879
 40
520.879721
 50
281.347404
 51
313.247207
  0
ARC
  8
APS_GEOMETR�
 10
1729.513719
 20
818.740367
 40
420.397983
 50
126.540489
 51
131.183499
  0
ARC
  8
APS_GEOMETR�
 10
981.171124
 20
1172.852241
 40
498.309814
 50
358.119866
 51
3.886246
  0
ARC
  8
APS_GEOMETR�
 10
1190.648161
 20
893.067682
 40
425.537709
 50
47.463859
 51
57.193952
  0
ARC
  8
APS_GEOMETR�
 10
1418.159
 20
1316.429492
 40
65.763853
 50
245.374139
 51
272.65315
  0
ARC
  8
APS_GEOMETR�
 10
1419.617218
 20
1319.421706
 40
69.09159
 50
218.919996
 51
245.308824
  0
ARC
  8
APS_GEOMETR�
 10
1423.175849
 20
1322.338252
 40
73.692573
 50
193.677062
 51
218.946032
  0
ARC
  8
APS_GEOMETR�
 10
917.597381
 20
1142.615323
 40
463.330904
 50
20.504816
 51
27.588618
  0
ARC
  8
APS_GEOMETR�
 10
1333.400893
 20
1363.652731
 40
8.264647
 50
203.672505
 51
231.406844
  0
ARC
  8
APS_GEOMETR�
 10
1333.802413
 20
1363.842499
 40
8.708584
 50
176.981733
 51
203.75532
  0
ARC
  8
APS_GEOMETR�
 10
1333.739444
 20
1363.862893
 40
8.644646
 50
150.18786
 51
177.09474
  0
ARC
  8
APS_GEOMETR�
 10
1333.299562
 20
1364.125613
 40
8.13237
 50
122.215695
 51
150.253103
  0
ARC
  8
APS_GEOMETR�
 10
1327.713527
 20
1248.103087
 40
122.909257
 50
62.576086
 51
89.417005
  0
ARC
  8
APS_GEOMETR�
 10
1324.544044
 20
1242.259824
 40
129.5557
 50
36.614491
 51
62.522099
  0
ARC
  8
APS_GEOMETR�
 10
1387.762495
 20
1290.328854
 40
50.150336
 50
3.680108
 51
35.611159
  0
ARC
  8
APS_GEOMETR�
 10
1387.225657
 20
1290.130569
 40
50.699058
 50
332.168063
 51
3.864789
  0
ARC
  8
APS_GEOMETR�
 10
1145.619021
 20
870.58769
 40
488.634245
 50
47.436136
 51
54.111687
  0
ARC
  8
APS_GEOMETR�
 10
986.949891
 20
1173.770591
 40
492.462889
 50
6.612367
 51
24.326183
  0
ARC
  8
APS_GEOMETR�
 10
1444.10064
 20
1380.430656
 40
9.229437
 50
182.468735
 51
204.309414
  0
ARC
  8
APS_GEOMETR�
 10
1444.147752
 20
1380.44265
 40
9.277027
 50
160.764818
 51
182.530204
  0
ARC
  8
APS_GEOMETR�
 10
1443.835612
 20
1380.55998
 40
8.943662
 50
138.508917
 51
160.815726
  0
ARC
  8
APS_GEOMETR�
 10
1443.459138
 20
1380.895372
 40
8.439463
 50
115.328466
 51
138.521228
  0
ARC
  8
APS_GEOMETR�
 10
1443.295543
 20
1381.22688
 40
8.069838
 50
91.385393
 51
115.28553
  0
ARC
  8
APS_GEOMETR�
 10
1443.284648
 20
1381.248502
 40
8.047965
 50
67.367894
 51
91.311572
  0
ARC
  8
APS_GEOMETR�
 10
1443.147955
 20
1380.939101
 40
8.386145
 50
44.027746
 51
67.319349
  0
ARC
  8
APS_GEOMETR�
 10
887.117793
 20
1139.441367
 40
614.069605
 50
19.554189
 51
23.751189
  0
ARC
  8
APS_GEOMETR�
 10
1598.43247
 20
1321.957232
 40
134.642424
 50
147.351186
 51
170.159091
  0
ARC
  8
APS_GEOMETR�
 10
1509.900446
 20
1425.347248
 40
39.528605
 50
201.246447
 51
231.074923
  0
ARC
  8
APS_GEOMETR�
 10
1509.689006
 20
1425.257732
 40
39.299098
 50
171.292672
 51
201.236518
  0
ARC
  8
APS_GEOMETR�
 10
1578.455908
 20
1412.777358
 40
109.17979
 50
144.503172
 51
170.281834
  0
ARC
  8
APS_GEOMETR�
 10
1579.108107
 20
1412.31104
 40
109.981547
 50
118.849838
 51
144.502679
  0
ARC
  8
APS_GEOMETR�
 10
1525.775991
 20
1501.801301
 40
6.846284
 50
59.871134
 51
87.787642
  0
ARC
  8
APS_GEOMETR�
 10
1525.802786
 20
1501.844879
 40
6.795144
 50
31.82292
 51
59.8821
  0
ARC
  8
APS_GEOMETR�
 10
1525.845491
 20
1501.871775
 40
6.744676
 50
3.620915
 51
31.820072
  0
ARC
  8
APS_GEOMETR�
 10
1525.852266
 20
1501.873808
 40
6.737786
 50
335.389137
 51
3.607303
  0
ARC
  8
APS_GEOMETR�
 10
1897.413143
 20
1497.181641
 40
365.440039
 50
179.70427
 51
187.071567
  0
ARC
  8
APS_GEOMETR�
 10
1478.070291
 20
1437.923196
 40
58.451194
 50
347.941862
 51
14.130216
  0
ARC
  8
APS_GEOMETR�
 10
1477.893043
 20
1437.971173
 40
58.634555
 50
321.798026
 51
347.932197
  0
ARC
  8
APS_GEOMETR�
 10
1477.550428
 20
1438.236675
 40
59.067989
 50
295.574611
 51
321.801174
  0
ARC
  8
APS_GEOMETR�
 10
2072.39701
 20
1157.218309
 40
613.205749
 50
158.198718
 51
165.83868
  0
ARC
  8
APS_GEOMETR�
 10
877.043747
 20
1136.42168
 40
624.594799
 50
3.208205
 51
15.871928
  0
ARC
  8
APS_GEOMETR�
 10
1721.719231
 20
831.067031
 40
405.805466
 50
103.058679
 51
123.007084
  0
ARC
  8
APS_GEOMETR�
 10
1626.014051
 20
1218.445395
 40
8.890345
 50
39.424775
 51
63.160598
  0
ARC
  8
APS_GEOMETR�
 10
1625.59995
 20
1218.101079
 40
9.428885
 50
16.626216
 51
39.442943
  0
ARC
  8
APS_GEOMETR�
 10
1625.298154
 20
1218.00068
 40
9.746795
 50
354.369975
 51
16.684112
  0
ARC
  8
APS_GEOMETR�
 10
1625.4103
 20
1217.978534
 40
9.633023
 50
331.944802
 51
354.435622
  0
ARC
  8
APS_GEOMETR�
 10
1625.821306
 20
1217.751908
 40
9.163728
 50
308.728613
 51
331.986638
  0
ARC
  8
APS_GEOMETR�
 10
1626.146945
 20
1217.348741
 40
8.645479
 50
284.531697
 51
308.716669
  0
ARC
  8
APS_GEOMETR�
 10
1720.908418
 20
849.666403
 40
371.051827
 50
104.45028
 51
113.245678
  0
ARC
  8
APS_GEOMETR�
 10
249.350853
 20
-1292.464313
 40
2814.518716
 50
60.052861
 51
61.912897
  0
ARC
  8
APS_GEOMETR�
 10
1663.857204
 20
1111.610002
 40
35.944804
 50
73.516458
 51
105.318996
  0
ARC
  8
APS_GEOMETR�
 10
1663.848951
 20
1112.192177
 40
35.389321
 50
41.096053
 51
73.236204
  0
ARC
  8
APS_GEOMETR�
 10
1607.646484
 20
1065.906508
 40
108.188288
 50
14.066556
 51
40.004013
  0
ARC
  8
APS_GEOMETR�
 10
1596.421197
 20
1062.956557
 40
119.794031
 50
349.910144
 51
14.130264
  0
ARC
  8
APS_GEOMETR�
 10
1708.771562
 20
1046.426672
 40
7.150155
 50
294.32503
 51
321.438075
  0
ARC
  8
APS_GEOMETR�
 10
1709.096475
 20
1045.705199
 40
6.358896
 50
264.994409
 51
294.335085
  0
ARC
  8
APS_GEOMETR�
 10
1709.085872
 20
1045.344673
 40
5.998857
 50
234.277652
 51
264.794844
  0
ARC
  8
APS_GEOMETR�
 10
1709.317359
 20
1045.629156
 40
6.365009
 50
204.758402
 51
234.081084
  0
ARC
  8
APS_GEOMETR�
 10
1491.822884
 20
789.377825
 40
330.346414
 50
50.142052
 51
58.022706
  0
ARC
  8
APS_GEOMETR�
 10
1688.82599
 20
1118.037071
 40
53.225728
 50
217.624707
 51
245.517903
  0
ARC
  8
APS_GEOMETR�
 10
1693.21309
 20
1121.330743
 40
58.711212
 50
191.445602
 51
217.556793
  0
ARC
  8
APS_GEOMETR�
 10
1699.205066
 20
1122.633492
 40
64.842602
 50
167.409164
 51
191.523191
  0
ARC
  8
APS_GEOMETR�
 10
1471.144624
 20
924.449263
 40
268.758103
 50
52.185575
 51
72.302387
  0
ARC
  8
APS_GEOMETR�
 10
1726.410552
 20
838.77886
 40
383.262494
 50
116.927494
 51
132.351928
  0
ARC
  8
APS_GEOMETR�
 10
1384.90559
 20
838.132246
 40
295.856714
 50
34.108378
 51
73.6454
  0
ARC
  8
APS_GEOMETR�
 10
1619.856174
 20
997.193275
 40
12.127754
 50
12.542945
 51
34.353196
  0
ARC
  8
APS_GEOMETR�
 10
1619.561982
 20
997.115598
 40
12.4318
 50
351.147241
 51
12.597943
  0
ARC
  8
APS_GEOMETR�
 10
1619.775356
 20
997.070015
 40
12.213958
 50
329.497687
 51
351.204482
  0
ARC
  8
APS_GEOMETR�
 10
1620.292561
 20
996.757486
 40
11.609701
 50
307.072251
 51
329.531041
  0
ARC
  8
APS_GEOMETR�
 10
1361.446253
 20
782.263958
 40
335.846738
 50
37.667894
 51
52.796994
  0
ARC
  8
APS_GEOMETR�
 10
1819.905817
 20
1048.227335
 40
255.39752
 50
179.654976
 51
195.636201
  0
ARC
  8
APS_GEOMETR�
 10
1560.173091
 20
944.156404
 40
37.835384
 50
37.907343
 51
68.629945
  0
ARC
  8
APS_GEOMETR�
 10
1559.63382
 20
943.810622
 40
38.47336
 50
7.443567
 51
37.820229
  0
ARC
  8
APS_GEOMETR�
 10
1486.959783
 20
936.236475
 40
111.532459
 50
341.053799
 51
6.465113
  0
ARC
  8
APS_GEOMETR�
 10
1483.784463
 20
937.234836
 40
114.859934
 50
316.181972
 51
341.097043
  0
ARC
  8
APS_GEOMETR�
 10
1564.812811
 20
864.224441
 40
6.772213
 50
257.714054
 51
285.835401
  0
ARC
  8
APS_GEOMETR�
 10
1564.763309
 20
863.976466
 40
6.519386
 50
228.822631
 51
257.675397
  0
ARC
  8
APS_GEOMETR�
 10
1564.767
 20
863.967078
 40
6.514756
 50
199.877195
 51
228.743832
  0
ARC
  8
APS_GEOMETR�
 10
1565.001498
 20
864.046734
 40
6.762368
 50
171.687445
 51
199.836354
  0
ARC
  8
APS_GEOMETR�
 10
1213.125796
 20
766.107944
 40
359.077593
 50
15.990248
 51
23.444387
  0
ARC
  8
APS_GEOMETR�
 10
1592.197647
 20
938.276433
 40
57.643063
 50
184.12287
 51
210.557994
  0
ARC
  8
APS_GEOMETR�
 10
1594.643645
 20
938.453277
 40
60.095445
 50
158.418695
 51
184.123374
  0
ARC
  8
APS_GEOMETR�
 10
1595.735279
 20
938.172331
 40
61.21405
 50
126.569284
 51
158.549992
  0
ARC
  8
APS_GEOMETR�
 10
3209.074845
 20
1364.803134
 40
1692.441021
 50
190.222944
 51
192.887146
  0
ARC
  8
APS_GEOMETR�
 10
1369.334299
 20
792.945236
 40
322.550322
 50
57.318365
 51
65.882327
  0
ARC
  8
APS_GEOMETR�
 10
1432.448422
 20
1140.451397
 40
86.823576
 50
296.587488
 51
322.285923
  0
ARC
  8
APS_GEOMETR�
 10
1434.452524
 20
1136.624627
 40
82.504555
 50
269.937595
 51
296.532314
  0
ARC
  8
APS_GEOMETR�
 10
1434.598032
 20
1136.644961
 40
82.525175
 50
243.246331
 51
269.836587
  0
ARC
  8
APS_GEOMETR�
 10
1080.91619
 20
1509.440895
 40
547.305575
 50
278.482085
 51
305.33438
  0
ARC
  8
APS_GEOMETR�
 10
1189.205529
 20
758.283692
 40
211.640375
 50
97.482816
 51
123.676262
  0
ARC
  8
APS_GEOMETR�
 10
1082.567811
 20
935.368481
 40
10.759814
 50
185.124508
 51
217.205693
  0
ARC
  8
APS_GEOMETR�
 10
1081.925534
 20
934.867164
 40
9.945131
 50
217.14282
 51
250.9791
  0
ARC
  8
APS_GEOMETR�
 10
962.853994
 20
586.68093
 40
358.038168
 50
50.549632
 51
71.124441
  0
ARC
  8
APS_GEOMETR�
 10
1640.156048
 20
-243.993648
 40
1195.025641
 50
109.147129
 51
112.110533
  0
ARC
  8
APS_GEOMETR�
 10
1319.317187
 20
866.276183
 40
73.52727
 50
140.002339
 51
165.309517
  0
ARC
  8
APS_GEOMETR�
 10
1315.795103
 20
869.266869
 40
68.906829
 50
113.588602
 51
140.024984
  0
ARC
  8
APS_GEOMETR�
 10
1314.43925
 20
872.175031
 40
65.699145
 50
86.222815
 51
113.519871
  0
ARC
  8
APS_GEOMETR�
 10
1293.253647
 20
1346.488535
 40
409.552548
 50
273.571632
 51
281.263142
  0
ARC
  8
APS_GEOMETR�
 10
1377.808779
 20
938.635432
 40
7.688874
 50
97.288851
 51
126.404994
  0
ARC
  8
APS_GEOMETR�
 10
1377.775145
 20
938.763601
 40
7.557493
 50
67.703515
 51
97.159199
  0
ARC
  8
APS_GEOMETR�
 10
1377.620188
 20
938.418657
 40
7.935447
 50
39.109195
 51
67.613261
  0
ARC
  8
APS_GEOMETR�
 10
1377.183089
 20
938.057318
 40
8.502546
 50
11.93149
 51
39.140579
  0
ARC
  8
APS_GEOMETR�
 10
1255.765737
 20
981.019084
 40
136.122176
 50
317.319863
 51
342.380266
  0
ARC
  8
APS_GEOMETR�
 10
1262.022555
 20
975.209434
 40
127.584093
 50
291.157024
 51
317.333081
  0
ARC
  8
APS_GEOMETR�
 10
1292.97264
 20
897.58326
 40
44.027805
 50
256.003163
 51
290.055166
  0
ARC
  8
APS_GEOMETR�
 10
1293.507903
 20
899.149951
 40
45.677658
 50
222.61007
 51
255.827005
  0
ARC
  8
APS_GEOMETR�
 10
1890.874613
 20
-614.885034
 40
1611.756663
 50
113.04716
 51
114.993605
  0
ARC
  8
APS_GEOMETR�
 10
950.497733
 20
572.134478
 40
377.1575
 50
33.636678
 51
46.549399
  0
ARC
  8
APS_GEOMETR�
 10
1258.020091
 20
776.746677
 40
7.784858
 50
8.998718
 51
33.569557
  0
ARC
  8
APS_GEOMETR�
 10
1257.864389
 20
776.710505
 40
7.944309
 50
344.842716
 51
9.080738
  0
ARC
  8
APS_GEOMETR�
 10
1258.109639
 20
776.633497
 40
7.687462
 50
320.138992
 51
344.91877
  0
ARC
  8
APS_GEOMETR�
 10
1258.471605
 20
776.327697
 40
7.213622
 50
294.298
 51
320.160742
  0
ARC
  8
APS_GEOMETR�
 10
1258.61718
 20
776.02348
 40
6.876456
 50
267.527487
 51
294.235512
  0
ARC
  8
APS_GEOMETR�
 10
1258.63106
 20
776.061456
 40
6.915006
 50
240.818227
 51
267.426164
  0
ARC
  8
APS_GEOMETR�
 10
1258.82527
 20
776.396852
 40
7.302528
 50
215.12027
 51
240.770935
  0
ARC
  8
APS_GEOMETR�
 10
952.266596
 20
554.333585
 40
371.235267
 50
35.934315
 51
75.48029
  0
ARC
  8
APS_GEOMETR�
 10
1201.765203
 20
743.36041
 40
231.275847
 50
132.559633
 51
163.953869
  0
ARC
  8
APS_GEOMETR�
 10
1063.216321
 20
746.01209
 40
103.745451
 50
143.79801
 51
165.004635
  0
ARC
  8
APS_GEOMETR�
 10
1077.022116
 20
742.145743
 40
118.081608
 50
164.925756
 51
206.123379
  0
ARC
  8
APS_GEOMETR�
 10
1078.132811
 20
664.134714
 40
110.244427
 50
127.601588
 51
166.348699
  0
ARC
  8
APS_GEOMETR�
 10
1076.995914
 20
781.680886
 40
72.701113
 50
180.632336
 51
204.546654
  0
ARC
  8
APS_GEOMETR�
 10
1077.104521
 20
781.784812
 40
72.810934
 50
156.823111
 51
180.713168
  0
ARC
  8
APS_GEOMETR�
 10
1074.105525
 20
783.148256
 40
69.5174
 50
132.238088
 51
156.883349
  0
ARC
  8
APS_GEOMETR�
 10
870.326011
 20
1007.919503
 40
233.877094
 50
312.183124
 51
330.864888
  0
ARC
  8
APS_GEOMETR�
 10
964.546212
 20
829.976844
 40
127.357594
 50
359.451903
 51
30.205898
  0
ARC
  8
APS_GEOMETR�
 10
964.709108
 20
829.600121
 40
127.191654
 50
328.839775
 51
359.620896
  0
ARC
  8
APS_GEOMETR�
 10
1264.572805
 20
1166.76975
 40
445.965067
 50
244.63801
 51
273.872354
  0
ARC
  8
APS_GEOMETR�
 10
1618.40728
 20
496.730289
 40
394.283104
 50
107.110284
 51
145.187642
  0
ARC
  8
APS_GEOMETR�
 10
1504.508528
 20
866.625546
 40
7.249025
 50
80.321905
 51
106.872854
  0
ARC
  8
APS_GEOMETR�
 10
1504.47087
 20
866.475813
 40
7.402968
 50
54.050523
 51
80.229414
  0
ARC
  8
APS_GEOMETR�
 10
1504.196854
 20
866.103621
 40
7.865137
 50
28.891417
 51
54.026321
  0
ARC
  8
APS_GEOMETR�
 10
1503.814255
 20
865.884204
 40
8.306132
 50
4.711859
 51
28.941464
  0
ARC
  8
APS_GEOMETR�
 10
1503.726153
 20
865.864855
 40
8.395534
 50
340.738292
 51
4.794069
  0
ARC
  8
APS_GEOMETR�
 10
1504.035348
 20
865.746598
 40
8.064642
 50
316.091634
 51
340.806773
  0
ARC
  8
APS_GEOMETR�
 10
1504.39458
 20
865.399184
 40
7.5649
 50
290.29937
 51
316.100453
  0
ARC
  8
APS_GEOMETR�
 10
1660.471714
 20
478.373188
 40
409.750213
 50
111.993598
 51
120.286849
  0
ARC
  8
APS_GEOMETR�
 10
1676.285845
 20
1148.891301
 40
387.02077
 50
234.913706
 51
243.403038
  0
ARC
  8
APS_GEOMETR�
 10
1542.179509
 20
748.718099
 40
66.796204
 50
98.904916
 51
125.899931
  0
ARC
  8
APS_GEOMETR�
 10
1541.862289
 20
749.987751
 40
65.492856
 50
71.447899
 51
98.802681
  0
ARC
  8
APS_GEOMETR�
 10
1540.934785
 20
747.533345
 40
68.11489
 50
44.722503
 51
71.365132
  0
ARC
  8
APS_GEOMETR�
 10
1853.371115
 20
1132.470281
 40
428.12368
 50
231.921858
 51
239.389161
  0
ARC
  8
APS_GEOMETR�
 10
1634.629796
 20
756.376464
 40
7.6667
 50
55.29641
 51
84.469187
  0
ARC
  8
APS_GEOMETR�
 10
1634.330243
 20
755.953682
 40
8.18482
 50
27.341215
 51
55.257477
  0
ARC
  8
APS_GEOMETR�
 10
1633.901663
 20
755.719704
 40
8.672992
 50
0.566281
 51
27.413865
  0
ARC
  8
APS_GEOMETR�
 10
1633.888372
 20
755.70237
 40
8.68647
 50
333.860241
 51
0.679743
  0
ARC
  8
APS_GEOMETR�
 10
1574.677653
 20
856.001696
 40
123.824273
 50
276.055124
 51
302.762647
  0
ARC
  8
APS_GEOMETR�
 10
1575.065079
 20
854.396205
 40
122.187062
 50
249.006513
 51
275.953881
  0
ARC
  8
APS_GEOMETR�
 10
1548.79098
 20
783.298802
 40
46.405567
 50
217.081619
 51
247.844073
  0
ARC
  8
APS_GEOMETR�
 10
1551.557411
 20
785.443066
 40
49.90547
 50
187.841077
 51
217.13055
  0
ARC
  8
APS_GEOMETR�
 10
1969.779117
 20
1603.216466
 40
947.967061
 50
235.656355
 51
240.440312
  0
ARC
  8
APS_GEOMETR�
 10
1669.279918
 20
465.200155
 40
425.607733
 50
123.402008
 51
140.675821
  0
ARC
  8
APS_GEOMETR�
 10
1398.760544
 20
446.517018
 40
294.311035
 50
66.221085
 51
101.508549
  0
ARC
  8
APS_GEOMETR�
 10
1863.835595
 20
1638.983025
 40
985.993937
 50
249.431496
 51
257.025613
  0
ARC
  8
APS_GEOMETR�
 10
1843.42896
 20
495.650414
 40
271.471439
 50
122.214693
 51
137.755076
  0
ARC
  8
APS_GEOMETR�
 10
1774.238693
 20
727.031537
 40
75.548477
 50
156.440513
 51
181.290106
  0
ARC
  8
APS_GEOMETR�
 10
1770.987739
 20
728.540729
 40
71.965328
 50
130.831978
 51
156.507379
  0
ARC
  8
APS_GEOMETR�
 10
1768.022693
 20
731.955681
 40
67.442798
 50
104.002166
 51
130.822972
  0
ARC
  8
APS_GEOMETR�
 10
1599.961118
 20
1188.328827
 40
419.351443
 50
291.213985
 51
298.785133
  0
ARC
  8
APS_GEOMETR�
 10
1808.293393
 20
816.026193
 40
7.984727
 50
114.933475
 51
143.31897
  0
ARC
  8
APS_GEOMETR�
 10
1808.109789
 20
816.395861
 40
7.57212
 50
85.435467
 51
114.85287
  0
ARC
  8
APS_GEOMETR�
 10
1808.085395
 20
816.312936
 40
7.656744
 50
56.104589
 51
85.302883
  0
ARC
  8
APS_GEOMETR�
 10
1807.795193
 20
815.891865
 40
8.168098
 50
28.107324
 51
56.062068
  0
ARC
  8
APS_GEOMETR�
 10
1674.745707
 20
823.680233
 40
140.309628
 50
333.835991
 51
358.390808
  0
ARC
  8
APS_GEOMETR�
 10
1681.040512
 20
820.435425
 40
133.229115
 50
308.469667
 51
333.894773
  0
ARC
  8
APS_GEOMETR�
 10
1736.638675
 20
751.69217
 40
44.826327
 50
274.953632
 51
307.492204
  0
ARC
  8
APS_GEOMETR�
 10
1736.828006
 20
751.136776
 40
44.256883
 50
241.951253
 51
274.771524
  0
ARC
  8
APS_GEOMETR�
 10
1767.015389
 20
607.158449
 40
116.657175
 50
115.922883
 51
146.113496
  0
ARC
  8
APS_GEOMETR�
 10
1861.950014
 20
1630.838448
 40
977.632274
 50
258.687236
 51
263.061694
  0
ARC
  8
APS_GEOMETR�
 10
1742.805686
 20
651.869951
 40
8.559749
 50
56.656602
 51
82.98207
  0
ARC
  8
APS_GEOMETR�
 10
1742.517495
 20
651.441454
 40
9.076119
 50
31.314227
 51
56.623609
  0
ARC
  8
APS_GEOMETR�
 10
1742.063868
 20
651.15672
 40
9.611654
 50
7.00659
 51
31.358892
  0
ARC
  8
APS_GEOMETR�
 10
1741.913454
 20
651.124197
 40
9.764922
 50
342.99377
 51
7.088337
  0
ARC
  8
APS_GEOMETR�
 10
1742.242023
 20
651.011285
 40
9.417704
 50
318.37758
 51
343.066022
  0
ARC
  8
APS_GEOMETR�
 10
1742.67541
 20
650.622898
 40
8.835756
 50
292.623491
 51
318.393597
  0
ARC
  8
APS_GEOMETR�
 10
1742.834044
 20
650.267546
 40
8.446731
 50
265.995969
 51
292.557472
  0
ARC
  8
APS_GEOMETR�
 10
1841.540037
 20
1649.377368
 40
1012.417067
 50
250.679127
 51
264.371498
  0
ARC
  8
APS_GEOMETR�
 10
1404.031072
 20
447.167304
 40
267.265865
 50
67.43867
 51
68.96033
  0
ARC
  8
APS_GEOMETR�
 10
1128.430659
 20
488.983732
 40
425.631499
 50
359.053812
 51
29.197369
  0
ARC
  8
APS_GEOMETR�
 10
1545.557488
 20
482.076775
 40
8.447509
 50
334.700407
 51
359.174898
  0
ARC
  8
APS_GEOMETR�
 10
1545.929591
 20
481.891556
 40
8.031947
 50
309.441446
 51
334.760576
  0
ARC
  8
APS_GEOMETR�
 10
1546.244266
 20
481.511781
 40
7.538748
 50
283.007147
 51
309.428159
  0
ARC
  8
APS_GEOMETR�
 10
1546.302356
 20
481.312023
 40
7.331049
 50
255.994656
 51
282.916177
  0
ARC
  8
APS_GEOMETR�
 10
1546.367959
 20
481.526594
 40
7.555128
 50
229.52324
 51
255.905748
  0
ARC
  8
APS_GEOMETR�
 10
1546.69218
 20
481.90442
 40
8.052994
 50
204.238925
 51
229.513538
  0
ARC
  8
APS_GEOMETR�
 10
1547.057045
 20
482.078765
 40
8.457273
 50
179.845653
 51
204.301134
  0
ARC
  8
APS_GEOMETR�
 10
1262.650068
 20
500.262105
 40
276.546672
 50
356.234731
 51
26.64503
  0
ARC
  8
APS_GEOMETR�
 10
1708.712918
 20
507.354215
 40
230.710768
 50
149.54786
 51
162.746796
  0
ARC
  8
APS_GEOMETR�
 10
1421.028224
 20
542.143056
 40
75.288008
 50
1.631264
 51
26.538673
  0
ARC
  8
APS_GEOMETR�
 10
1420.737679
 20
542.015015
 40
75.582175
 50
336.879881
 51
1.722018
  0
ARC
  8
APS_GEOMETR�
 10
1423.955222
 20
540.548641
 40
72.047318
 50
311.291894
 51
336.947636
  0
ARC
  8
APS_GEOMETR�
 10
1805.418507
 20
187.746363
 40
448.001627
 50
138.189473
 51
145.434075
  0
ARC
  8
APS_GEOMETR�
 10
1428.142351
 20
443.560768
 40
8.517642
 50
321.730207
 51
348.906791
  0
ARC
  8
APS_GEOMETR�
 10
1428.58266
 20
443.207248
 40
7.952998
 50
293.303356
 51
321.765054
  0
ARC
  8
APS_GEOMETR�
 10
1428.747762
 20
442.852925
 40
7.562273
 50
263.773338
 51
293.216499
  0
ARC
  8
APS_GEOMETR�
 10
1428.777625
 20
442.964984
 40
7.676931
 50
234.495875
 51
263.642489
  0
ARC
  8
APS_GEOMETR�
 10
1553.293231
 20
493.023532
 40
140.729945
 50
179.079899
 51
203.585356
  0
ARC
  8
APS_GEOMETR�
 10
1553.013497
 20
493.241628
 40
140.446907
 50
154.62836
 51
179.167028
  0
ARC
  8
APS_GEOMETR�
 10
1468.92894
 20
532.345565
 40
47.72204
 50
123.115179
 51
153.791556
  0
ARC
  8
APS_GEOMETR�
 10
1467.147402
 20
534.989628
 40
44.53417
 50
90.912921
 51
123.053867
  0
ARC
  8
APS_GEOMETR�
 10
678.577745
 20
971.173275
 40
879.839351
 50
333.567454
 51
338.615619
  0
ARC
  8
APS_GEOMETR�
 10
1428.703221
 20
646.298312
 40
69.260966
 50
3.364962
 51
25.508909
  0
ARC
  8
APS_GEOMETR�
 10
1431.505012
 20
647.691972
 40
66.132136
 50
25.464543
 51
48.306647
  0
ARC
  8
APS_GEOMETR�
 10
1434.012001
 20
650.500002
 40
62.367829
 50
48.310564
 51
72.069133
  0
ARC
  8
APS_GEOMETR�
 10
1405.32664
 20
451.319147
 40
262.917087
 50
79.505837
 51
112.99409
  0
ARC
  8
APS_GEOMETR�
 10
1254.537123
 20
1167.560154
 40
476.645576
 50
246.535619
 51
275.789918
  0
ARC
  8
APS_GEOMETR�
 10
1397.371408
 20
841.098582
 40
350.583583
 50
198.418561
 51
223.553789
  0
ARC
  8
APS_GEOMETR�
 10
1190.907751
 20
1118.614431
 40
521.259481
 50
264.759058
 51
273.761606
  0
ARC
  8
APS_GEOMETR�
 10
1264.077116
 20
544.257626
 40
66.773179
 50
98.706231
 51
125.707501
  0
ARC
  8
APS_GEOMETR�
 10
1263.768315
 20
545.500083
 40
65.4984
 50
71.250504
 51
98.603731
  0
ARC
  8
APS_GEOMETR�
 10
1262.824991
 20
543.025415
 40
68.14503
 50
44.533542
 51
71.168249
  0
ARC
  8
APS_GEOMETR�
 10
1576.686623
 20
927.09846
 40
428.323697
 50
231.730831
 51
239.195808
  0
ARC
  8
APS_GEOMETR�
 10
1356.573924
 20
551.570817
 40
7.669132
 50
55.103493
 51
84.270045
  0
ARC
  8
APS_GEOMETR�
 10
1356.272155
 20
551.147698
 40
8.188812
 50
27.158324
 51
55.065419
  0
ARC
  8
APS_GEOMETR�
 10
1355.844643
 20
550.915925
 40
8.67499
 50
0.388097
 51
27.231514
  0
ARC
  8
APS_GEOMETR�
 10
1355.835153
 20
550.89866
 40
8.684614
 50
333.678204
 51
0.50157
  0
ARC
  8
APS_GEOMETR�
 10
1296.982985
 20
651.367752
 40
123.786329
 50
275.856153
 51
302.569174
  0
ARC
  8
APS_GEOMETR�
 10
1297.359753
 20
649.81438
 40
122.202813
 50
248.8097
 51
275.754735
  0
ARC
  8
APS_GEOMETR�
 10
1270.83583
 20
578.8011
 40
46.413068
 50
217.139394
 51
247.651151
  0
ARC
  8
APS_GEOMETR�
 10
1273.582602
 20
580.933395
 40
49.890113
 50
188.126697
 51
217.18696
  0
ARC
  8
APS_GEOMETR�
 10
1195.52695
 20
473.84227
 40
104.064781
 50
74.010081
 51
104.342663
  0
ARC
  8
APS_GEOMETR�
 10
1383.021555
 20
827.517623
 40
330.788183
 50
229.853542
 51
237.553917
  0
ARC
  8
APS_GEOMETR�
 10
1201.201566
 20
541.560075
 40
8.077931
 50
31.166474
 51
57.416131
  0
ARC
  8
APS_GEOMETR�
 10
1200.784767
 20
541.299252
 40
8.569559
 50
5.989782
 51
31.216442
  0
ARC
  8
APS_GEOMETR�
 10
1200.665685
 20
541.272801
 40
8.690762
 50
341.091946
 51
6.08129
  0
ARC
  8
APS_GEOMETR�
 10
1200.992317
 20
541.149023
 40
8.341652
 50
315.480825
 51
341.169238
  0
ARC
  8
APS_GEOMETR�
 10
1201.372771
 20
540.773453
 40
7.807052
 50
288.62968
 51
315.488407
  0
ARC
  8
APS_GEOMETR�
 10
1364.437196
 20
837.239246
 40
343.680184
 50
216.500618
 51
242.146724
  0
ARC
  8
APS_GEOMETR�
 10
1517.182273
 20
589.252835
 40
431.217773
 50
174.203025
 51
179.587169
  0
ARC
  8
APS_GEOMETR�
 10
1052.727548
 20
531.049769
 40
69.744997
 50
35.28833
 51
61.529247
  0
ARC
  8
APS_GEOMETR�
 10
1049.092762
 20
528.418143
 40
74.232194
 50
10.162566
 51
35.325605
  0
ARC
  8
APS_GEOMETR�
 10
1047.394548
 20
527.997126
 40
75.978136
 50
345.47665
 51
10.24912
  0
ARC
  8
APS_GEOMETR�
 10
1591.758307
 20
444.025052
 40
475.268087
 50
172.149206
 51
179.113805
  0
ARC
  8
APS_GEOMETR�
 10
1108.468701
 20
448.089519
 40
8.721194
 50
355.388619
 51
22.13611
  0
ARC
  8
APS_GEOMETR�
 10
1108.565077
 20
448.064781
 40
8.623158
 50
328.548929
 51
355.500974
  0
ARC
  8
APS_GEOMETR�
 10
1109.009763
 20
447.782884
 40
8.096721
 50
300.488295
 51
328.608784
  0
ARC
  8
APS_GEOMETR�
 10
1109.259051
 20
447.374589
 40
7.618405
 50
271.133574
 51
300.430638
  0
ARC
  8
APS_GEOMETR�
 10
1178.155936
 20
551.196783
 40
130.937811
 50
212.606363
 51
238.329794
  0
ARC
  8
APS_GEOMETR�
 10
1184.838719
 20
555.595689
 40
138.93779
 50
187.931803
 51
212.649455
  0
ARC
  8
APS_GEOMETR�
 10
1097.781039
 20
542.70867
 40
50.940179
 50
158.733657
 51
187.087903
  0
ARC
  8
APS_GEOMETR�
 10
1095.471752
 20
543.703361
 40
48.427448
 50
129.500647
 51
158.839393
  0
ARC
  8
APS_GEOMETR�
 10
2271.868267
 20
595.049973
 40
1207.281518
 50
176.662884
 51
180.663444
  0
ARC
  8
APS_GEOMETR�
 10
1381.892337
 20
850.127721
 40
365.430273
 50
199.151935
 51
210.378361
  0
ARC
  8
APS_GEOMETR�
 10
1339.245672
 20
486.761122
 40
388.359213
 50
141.175206
 51
156.463541
  0
ARC
  8
APS_GEOMETR�
 10
1314.894952
 20
548.505663
 40
344.582111
 50
164.283443
 51
185.991781
  0
ARC
  8
APS_GEOMETR�
 10
680.122728
 20
357.079778
 40
330.867195
 50
4.455983
 51
28.024257
  0
ARC
  8
APS_GEOMETR�
 10
676.883449
 20
356.383029
 40
334.15111
 50
341.119617
 51
4.531938
  0
ARC
  8
APS_GEOMETR�
 10
1245.308068
 20
168.903965
 40
264.438157
 50
162.538196
 51
187.013978
  0
ARC
  8
APS_GEOMETR�
 10
1055.363764
 20
145.433947
 40
73.049433
 50
186.935548
 51
210.6824
  0
ARC
  8
APS_GEOMETR�
 10
1052.006732
 20
143.381639
 40
69.115124
 50
210.639308
 51
235.286455
  0
ARC
  8
APS_GEOMETR�
 10
1049.748399
 20
140.174796
 40
65.193014
 50
235.31296
 51
260.946596
  0
ARC
  8
APS_GEOMETR�
 10
1049.457373
 20
138.96939
 40
63.956906
 50
261.034141
 51
286.999325
  0
ARC
  8
APS_GEOMETR�
 10
1048.714423
 20
141.105831
 40
66.217267
 50
287.073634
 51
312.44032
  0
ARC
  8
APS_GEOMETR�
 10
1224.480336
 20
423.382959
 40
356.144235
 50
248.404219
 51
269.291151
  0
ARC
  8
APS_GEOMETR�
 10
1258.683108
 20
76.168593
 40
39.621898
 50
192.984604
 51
215.973758
  0
ARC
  8
APS_GEOMETR�
 10
1256.894818
 20
74.848751
 40
37.399369
 50
215.9467
 51
239.844731
  0
ARC
  8
APS_GEOMETR�
 10
1255.919949
 20
73.214953
 40
35.496964
 50
239.880575
 51
264.630959
  0
ARC
  8
APS_GEOMETR�
 10
1481.375617
 20
2347.971153
 40
2321.398092
 50
264.344238
 51
269.667906
  0
ARC
  8
APS_GEOMETR�
 10
1593.546613
 20
370.856468
 40
366.450702
 50
249.951322
 51
256.189274
  0
LINE
  8
APS_GEOMETR�
 10
1506.069241
 11
401.676584
 20
15.0
 21
15.0
  0
ARC
  8
APS_GEOMETR�
 10
598.033192
 20
-323.677729
 40
391.482467
 50
82.722759
 51
120.104051
  0
ARC
  8
APS_GEOMETR�
 10
652.439425
 20
65.675643
 40
4.924631
 50
166.277485
 51
192.005622
  0
ARC
  8
APS_GEOMETR�
 10
727.038934
 20
47.559708
 40
81.692288
 50
142.67869
 51
166.345977
  0
ARC
  8
APS_GEOMETR�
 10
723.275416
 20
50.472705
 40
76.933262
 50
118.06331
 51
142.704603
  0
ARC
  8
APS_GEOMETR�
 10
841.343611
 20
-171.846479
 40
328.659066
 50
97.73717
 51
117.993114
  0
LINE
  8
APS_GEOMETR�
 10
797.096555
 11
855.272662
 20
153.820498
 21
231.128742
  0
ARC
  8
APS_GEOMETR�
 10
1088.5003
 20
239.915704
 40
233.393106
 50
161.259892
 51
182.157625
  0
ARC
  8
APS_GEOMETR�
 10
374.919427
 20
382.271992
 40
497.147241
 50
352.211392
 51
14.31249
  0
ARC
  8
APS_GEOMETR�
 10
1178.200529
 20
575.545942
 40
329.174972
 50
170.631236
 51
192.344503
  0
ARC
  8
APS_GEOMETR�
 10
876.138865
 20
651.075804
 40
31.588823
 50
186.858716
 51
224.001663
  0
ARC
  8
APS_GEOMETR�
 10
771.775922
 20
638.529233
 40
73.525592
 50
6.853734
 51
44.357246
  0
ARC
  8
APS_GEOMETR�
 10
769.636401
 20
636.193198
 40
76.688729
 50
44.487581
 51
71.075994
  0
ARC
  8
APS_GEOMETR�
 10
770.70434
 20
638.984399
 40
73.702121
 50
71.157614
 51
98.465311
  0
ARC
  8
APS_GEOMETR�
 10
968.722643
 20
564.728281
 40
255.500546
 50
144.833886
 51
158.829141
  0
LINE
  8
APS_GEOMETR�
 10
730.466441
 11
749.228429
 20
657.002391
 21
605.438043
  0
LINE
  8
APS_GEOMETR�
 10
749.228429
 11
759.536347
 20
605.438043
 21
598.04803
  0
ARC
  8
APS_GEOMETR�
 10
739.04488
 20
533.260165
 40
67.951216
 50
45.762837
 51
72.448589
  0
ARC
  8
APS_GEOMETR�
 10
735.829038
 20
529.951933
 40
72.564894
 50
20.233425
 51
45.76592
  0
ARC
  8
APS_GEOMETR�
 10
732.857143
 20
528.753555
 40
75.767912
 50
355.505342
 51
20.306483
  0
ARC
  8
APS_GEOMETR�
 10
1283.007085
 20
541.023546
 40
474.964163
 50
182.196958
 51
189.16453
  0
ARC
  8
APS_GEOMETR�
 10
806.832635
 20
460.767091
 40
8.610516
 50
5.383027
 51
32.361732
  0
ARC
  8
APS_GEOMETR�
 10
806.717973
 20
460.73917
 40
8.727309
 50
338.760042
 51
5.494903
  0
ARC
  8
APS_GEOMETR�
 10
807.094126
 20
460.579107
 40
8.31873
 50
311.236286
 51
338.849023
  0
ARC
  8
APS_GEOMETR�
 10
807.463281
 20
460.159972
 40
7.760207
 50
282.290744
 51
311.226513
  0
ARC
  8
APS_GEOMETR�
 10
854.262878
 20
571.775794
 40
127.461813
 50
223.062314
 51
249.255247
  0
ARC
  8
APS_GEOMETR�
 10
860.480923
 20
577.625645
 40
135.999032
 50
197.998585
 51
223.074249
  0
ARC
  8
APS_GEOMETR�
 10
779.916757
 20
550.62754
 40
51.04111
 50
168.803066
 51
197.11946
  0
ARC
  8
APS_GEOMETR�
 10
778.530893
 20
551.014014
 40
49.606702
 50
140.063765
 51
168.930125
  0
LINE
  8
APS_GEOMETR�
 10
740.494491
 11
722.101253
 20
582.858276
 21
631.658668
  0
ARC
  8
APS_GEOMETR�
 10
976.406518
 20
561.984306
 40
263.677236
 50
164.678137
 51
177.79619
  0
ARC
  8
APS_GEOMETR�
 10
703.702286
 20
572.473291
 40
9.228642
 50
335.103429
 51
357.829804
  0
ARC
  8
APS_GEOMETR�
 10
704.079963
 20
572.289699
 40
8.808778
 50
311.703952
 51
335.152441
  0
ARC
  8
APS_GEOMETR�
 10
704.422006
 20
571.906781
 40
8.295338
 50
287.286282
 51
311.699682
  0
ARC
  8
APS_GEOMETR�
 10
704.513056
 20
571.645248
 40
8.018569
 50
262.244657
 51
287.220374
  0
ARC
  8
APS_GEOMETR�
 10
704.541767
 20
571.772413
 40
8.148453
 50
237.45739
 51
262.165285
  0
ARC
  8
APS_GEOMETR�
 10
704.791606
 20
572.155722
 40
8.605975
 50
213.609778
 51
237.427961
  0
ARC
  8
APS_GEOMETR�
 10
705.202307
 20
572.434858
 40
9.102531
 50
190.704668
 51
213.642099
  0
ARC
  8
APS_GEOMETR�
 10
705.403016
 20
572.483642
 40
9.308814
 50
168.175559
 51
190.770244
  0
ARC
  8
APS_GEOMETR�
 10
-433.309729
 20
832.104118
 40
1158.626532
 50
347.148218
 51
353.062504
  0
ARC
  8
APS_GEOMETR�
 10
576.038507
 20
948.799023
 40
292.725357
 50
259.825225
 51
298.749512
  0
ARC
  8
APS_GEOMETR�
 10
109.14002
 20
948.283442
 40
505.072797
 50
318.825445
 51
325.289151
  0
LINE
  8
APS_GEOMETR�
 10
489.312032
 11
488.468186
 20
615.766117
 21
542.52184
  0
ARC
  8
APS_GEOMETR�
 10
442.300926
 20
487.510081
 40
71.817195
 50
24.284761
 51
49.995775
  0
ARC
  8
APS_GEOMETR�
 10
438.993295
 20
485.923416
 40
75.484742
 50
359.486276
 51
24.349985
  0
ARC
  8
APS_GEOMETR�
 10
439.074531
 20
485.803102
 40
75.402526
 50
334.695194
 51
359.577142
  0
ARC
  8
APS_GEOMETR�
 10
953.234409
 20
303.437804
 40
470.584764
 50
161.395076
 51
168.405842
  0
ARC
  8
APS_GEOMETR�
 10
483.672693
 20
396.284863
 40
8.751607
 50
344.717368
 51
11.402179
  0
ARC
  8
APS_GEOMETR�
 10
483.968342
 20
396.188678
 40
8.441074
 50
317.475761
 51
344.818209
  0
ARC
  8
APS_GEOMETR�
 10
484.387888
 20
395.800658
 40
7.869609
 50
288.828813
 51
317.493205
  0
ARC
  8
APS_GEOMETR�
 10
484.505714
 20
395.496945
 40
7.544134
 50
259.235529
 51
288.726284
  0
ARC
  8
APS_GEOMETR�
 10
575.14848
 20
486.513715
 40
134.765111
 50
201.687417
 51
226.917271
  0
ARC
  8
APS_GEOMETR�
 10
580.862501
 20
488.965037
 40
140.980624
 50
177.278838
 51
201.754973
  0
ARC
  8
APS_GEOMETR�
 10
490.168802
 20
492.568451
 40
50.223085
 50
145.80777
 51
176.472969
  0
ARC
  8
APS_GEOMETR�
 10
487.259645
 20
494.616246
 40
46.665991
 50
113.654355
 51
145.880191
  0
LINE
  8
APS_GEOMETR�
 10
468.536401
 11
467.305253
 20
537.361478
 21
592.195423
  0
ARC
  8
APS_GEOMETR�
 10
123.826959
 20
933.506854
 40
484.221883
 50
296.553402
 51
315.181299
  0
ARC
  8
APS_GEOMETR�
 10
335.792096
 20
509.360025
 40
10.059724
 50
272.105624
 51
296.555905
  0
ARC
  8
APS_GEOMETR�
 10
335.807456
 20
509.317937
 40
10.01711
 50
247.506669
 51
272.026674
  0
ARC
  8
APS_GEOMETR�
 10
335.980032
 20
509.709766
 40
10.445158
 50
223.613198
 51
247.454321
  0
ARC
  8
APS_GEOMETR�
 10
336.443596
 20
510.15353
 40
11.086887
 50
200.715551
 51
223.621112
  0
ARC
  8
APS_GEOMETR�
 10
336.861574
 20
510.322937
 40
11.53777
 50
178.467773
 51
200.768209
  0
ARC
  8
APS_GEOMETR�
 10
336.825572
 20
510.337163
 40
11.501409
 50
156.186053
 51
178.533821
  0
ARC
  8
APS_GEOMETR�
 10
336.372476
 20
510.547293
 40
11.00205
 50
133.210429
 51
156.234454
  0
ARC
  8
APS_GEOMETR�
 10
335.937339
 20
511.010463
 40
10.366541
 50
109.247975
 51
133.210298
  0
ARC
  8
APS_GEOMETR�
 10
104.807573
 20
921.068744
 40
460.510554
 50
299.635338
 51
305.933657
  0
LINE
  8
APS_GEOMETR�
 10
375.057318
 11
338.643124
 20
548.194709
 21
553.919393
  0
ARC
  8
APS_GEOMETR�
 10
293.549168
 20
604.268507
 40
67.590666
 50
285.067086
 51
311.848439
  0
ARC
  8
APS_GEOMETR�
 10
294.211367
 20
602.209723
 40
65.430603
 50
257.603532
 51
284.975794
  0
ARC
  8
APS_GEOMETR�
 10
294.710482
 20
603.953049
 40
67.240527
 50
230.632044
 51
257.507049
  0
ARC
  8
APS_GEOMETR�
 10
27.621527
 20
194.30358
 40
422.253468
 50
57.891428
 51
65.427824
  0
ARC
  8
APS_GEOMETR�
 10
203.122616
 20
585.918213
 40
7.601732
 50
241.326449
 51
270.666724
  0
ARC
  8
APS_GEOMETR�
 10
203.350981
 20
586.316695
 40
8.060927
 50
213.056809
 51
241.261333
  0
ARC
  8
APS_GEOMETR�
 10
203.798154
 20
586.617419
 40
8.599755
 50
186.109499
 51
213.110949
  0
ARC
  8
APS_GEOMETR�
 10
203.927682
 20
586.64836
 40
8.731857
 50
159.495443
 51
186.220916
  0
ARC
  8
APS_GEOMETR�
 10
274.083103
 20
492.086345
 40
125.163943
 50
102.229599
 51
128.744727
  0
ARC
  8
APS_GEOMETR�
 10
273.198267
 20
495.234045
 40
121.900401
 50
75.146636
 51
102.136544
  0
ARC
  8
APS_GEOMETR�
 10
291.963812
 20
569.41906
 40
45.392302
 50
49.775944
 51
74.037634
  0
ARC
  8
APS_GEOMETR�
 10
290.172908
 20
567.312145
 40
48.157511
 50
26.450528
 51
49.767854
  0
ARC
  8
APS_GEOMETR�
 10
288.057181
 20
566.215028
 40
50.540461
 50
3.922682
 51
26.49573
  0
LINE
  8
APS_GEOMETR�
 10
338.47924
 11
396.877118
 20
569.672514
 21
565.01152
  0
ARC
  8
APS_GEOMETR�
 10
93.161485
 20
935.054337
 40
478.722124
 50
309.377715
 51
326.454057
  0
ARC
  8
APS_GEOMETR�
 10
2051.521736
 20
5011.702732
 40
4612.764735
 50
248.259588
 51
250.241523
  0
ARC
  8
APS_GEOMETR�
 10
174.831884
 20
458.005522
 40
317.237541
 50
57.999523
 51
67.513746
  0
ARC
  8
APS_GEOMETR�
 10
707.898752
 20
317.195223
 40
598.180857
 50
133.496713
 51
145.17377
  0
ARC
  8
APS_GEOMETR�
 10
217.634826
 20
670.118574
 40
11.335148
 50
239.682538
 51
266.077144
  0
ARC
  8
APS_GEOMETR�
 10
217.969062
 20
670.672446
 40
11.981995
 50
214.211302
 51
239.639805
  0
ARC
  8
APS_GEOMETR�
 10
218.576333
 20
671.095311
 40
12.721947
 50
189.824161
 51
214.248504
  0
ARC
  8
APS_GEOMETR�
 10
218.85092
 20
671.161226
 40
13.003767
 50
165.836828
 51
189.903898
  0
ARC
  8
APS_GEOMETR�
 10
218.473789
 20
671.273574
 40
12.610621
 50
141.343363
 51
165.912499
  0
ARC
  8
APS_GEOMETR�
 10
5670.40608
 20
-3708.072822
 40
7005.624292
 50
141.001304
 51
141.226516
  0
LINE
  8
APS_GEOMETR�
 10
225.913144
 11
187.029018
 20
700.585521
 21
689.115437
  0
ARC
  8
APS_GEOMETR�
 10
147.218491
 20
697.598579
 40
40.704322
 50
326.350024
 51
347.970876
  0
ARC
  8
APS_GEOMETR�
 10
147.338909
 20
697.457892
 40
40.526155
 50
296.618325
 51
326.42126
  0
ARC
  8
APS_GEOMETR�
 10
117.395237
 20
761.597314
 40
111.301005
 50
269.750729
 51
295.605501
  0
ARC
  8
APS_GEOMETR�
 10
117.423931
 20
761.607298
 40
111.311118
 50
243.882771
 51
269.735982
  0
ARC
  8
APS_GEOMETR�
 10
74.340884
 20
665.445188
 40
7.023401
 50
184.715032
 51
212.59623
  0
ARC
  8
APS_GEOMETR�
 10
74.353975
 20
665.448785
 40
7.036744
 50
156.890325
 51
184.73546
  0
ARC
  8
APS_GEOMETR�
 10
74.301411
 20
665.473359
 40
6.978752
 50
128.904376
 51
156.906507
  0
ARC
  8
APS_GEOMETR�
 10
74.253743
 20
665.53236
 40
6.902902
 50
100.695658
 51
128.904038
  0
ARC
  8
APS_GEOMETR�
 10
-142.962289
 20
980.836112
 40
376.580606
 50
304.988327
 51
312.324394
  0
ARC
  8
APS_GEOMETR�
 10
156.256291
 20
663.228857
 40
60.165962
 50
113.265208
 51
139.36236
  0
ARC
  8
APS_GEOMETR�
 10
156.069994
 20
663.638561
 40
59.715988
 50
87.028107
 51
113.256265
  0
ARC
  8
APS_GEOMETR�
 10
155.933902
 20
663.074334
 40
60.286607
 50
50.798817
 51
86.926742
  0
LINE
  8
APS_GEOMETR�
 10
194.037769
 11
204.3827
 20
709.792321
 21
710.838849
  0
LINE
  8
APS_GEOMETR�
 10
204.3827
 11
240.327663
 20
710.838849
 21
718.327498
  0
ARC
  8
APS_GEOMETR�
 10
5663.027123
 20
-3702.068943
 40
6996.111358
 50
140.379755
 51
140.814275
  0
ARC
  8
APS_GEOMETR�
 10
177.711217
 20
466.112604
 40
308.619836
 50
71.818994
 51
112.536218
  0
ARC
  8
APS_GEOMETR�
 10
51.200555
 20
761.465109
 40
13.181904
 50
283.436256
 51
308.615729
  0
ARC
  8
APS_GEOMETR�
 10
51.300999
 20
761.12003
 40
12.822943
 50
257.707544
 51
283.358013
  0
ARC
  8
APS_GEOMETR�
 10
51.389585
 20
761.440385
 40
13.154826
 50
232.413357
 51
257.627617
  0
ARC
  8
APS_GEOMETR�
 10
51.886742
 20
762.079523
 40
13.964546
 50
208.173811
 51
232.396476
  0
ARC
  8
APS_GEOMETR�
 10
52.538093
 20
762.441977
 40
14.709862
 50
184.82958
 51
208.220459
  0
ARC
  8
APS_GEOMETR�
 10
52.692803
 20
762.474341
 40
14.86676
 50
161.678997
 51
184.903666
  0
ARC
  8
APS_GEOMETR�
 10
52.180787
 20
762.660481
 40
14.322194
 50
137.927507
 51
161.742033
  0
ARC
  8
APS_GEOMETR�
 10
51.546225
 20
763.237475
 40
13.464535
 50
113.117389
 51
137.940701
  0
ARC
  8
APS_GEOMETR�
 10
180.206373
 20
460.459856
 40
342.444335
 50
97.630797
 51
113.025973
  0
LINE
  8
APS_GEOMETR�
 10
134.73348
 11
61.797376
 20
799.871609
 21
904.878813
  0
ARC
  8
APS_GEOMETR�
 10
75.255639
 20
897.561191
 40
15.319022
 50
128.831654
 51
151.465879
  0
ARC
  8
APS_GEOMETR�
 10
74.722969
 20
898.218637
 40
14.472876
 50
105.307042
 51
128.820948
  0
ARC
  8
APS_GEOMETR�
 10
74.597948
 20
898.618216
 40
14.054475
 50
81.264357
 51
105.24548
  0
ARC
  8
APS_GEOMETR�
 10
74.543389
 20
898.377423
 40
14.300771
 50
57.491473
 51
81.194824
  0
ARC
  8
APS_GEOMETR�
 10
74.122489
 20
897.729735
 40
15.073178
 50
34.584029
 51
57.465376
  0
LINE
  8
APS_GEOMETR�
 10
86.532156
 11
111.973459
 20
906.285486
 21
869.541997
  0
LINE
  8
APS_GEOMETR�
 10
111.973459
 11
114.694928
 20
869.541997
 21
919.935308
  0
ARC
  8
APS_GEOMETR�
 10
137.183466
 20
952.193469
 40
39.323318
 50
201.190058
 51
235.118004
  0
ARC
  8
APS_GEOMETR�
 10
137.149354
 20
952.214423
 40
39.299098
 50
171.292672
 51
201.236518
  0
ARC
  8
APS_GEOMETR�
 10
205.916256
 20
939.734049
 40
109.17979
 50
144.503172
 51
170.281834
  0
ARC
  8
APS_GEOMETR�
 10
206.568455
 20
939.267731
 40
109.981547
 50
118.849838
 51
144.502679
  0
ARC
  8
APS_GEOMETR�
 10
153.236339
 20
1028.757992
 40
6.846284
 50
59.871134
 51
87.787642
  0
ARC
  8
APS_GEOMETR�
 10
153.263133
 20
1028.80157
 40
6.795144
 50
31.82292
 51
59.8821
  0
ARC
  8
APS_GEOMETR�
 10
153.305838
 20
1028.828466
 40
6.744676
 50
3.620915
 51
31.820072
  0
ARC
  8
APS_GEOMETR�
 10
153.312613
 20
1028.830499
 40
6.737786
 50
335.389137
 51
3.607303
  0
ARC
  8
APS_GEOMETR�
 10
524.873491
 20
1024.138332
 40
365.440039
 50
179.70427
 51
187.071567
  0
ARC
  8
APS_GEOMETR�
 10
105.530639
 20
964.879886
 40
58.451194
 50
347.941862
 51
14.130216
  0
ARC
  8
APS_GEOMETR�
 10
105.35339
 20
964.927864
 40
58.634555
 50
321.798026
 51
347.932197
  0
ARC
  8
APS_GEOMETR�
 10
104.901251
 20
965.30962
 40
59.225957
 50
297.726265
 51
321.778312
  0
LINE
  8
APS_GEOMETR�
 10
132.456001
 11
133.553984
 20
912.883961
 21
838.374419
  0
LINE
  8
APS_GEOMETR�
 10
133.553984
 11
158.597867
 20
838.374419
 21
802.204901
  0
ARC
  8
APS_GEOMETR�
 10
179.369329
 20
460.505006
 40
342.330647
 50
58.890962
 51
93.47865
  0
ARC
  8
APS_GEOMETR�
 10
2010.76812
 20
5028.615931
 40
4584.014774
 50
248.842425
 51
248.871903
  0
LINE
  8
APS_GEOMETR�
 10
358.440411
 11
336.132711
 20
752.752908
 21
787.305843
  0
ARC
  8
APS_GEOMETR�
 10
370.794608
 20
858.66101
 40
79.328475
 50
226.568007
 51
244.091106
  0
ARC
  8
APS_GEOMETR�
 10
356.027215
 20
843.589025
 40
58.231981
 50
202.249467
 51
226.924249
  0
ARC
  8
APS_GEOMETR�
 10
338.440841
 20
836.436042
 40
39.246632
 50
170.124186
 51
202.305679
  0
ARC
  8
APS_GEOMETR�
 10
62.809454
 20
848.673204
 40
237.030274
 50
358.668988
 51
7.913372
  0
ARC
  8
APS_GEOMETR�
 10
301.940416
 20
884.380362
 40
5.332852
 50
184.153874
 51
215.197607
  0
ARC
  8
APS_GEOMETR�
 10
300.588263
 20
884.232552
 40
3.973853
 50
145.569194
 51
183.440481
  0
ARC
  8
APS_GEOMETR�
 10
301.254272
 20
883.670132
 40
4.841969
 50
111.398468
 51
144.535859
  0
ARC
  8
APS_GEOMETR�
 10
302.230199
 20
881.27061
 40
7.432225
 50
86.830935
 51
111.654269
  0
ARC
  8
APS_GEOMETR�
 10
240.430943
 20
758.765947
 40
144.051176
 50
44.301568
 51
64.414259
  0
ARC
  8
APS_GEOMETR�
 10
269.28321
 20
786.015007
 40
104.372701
 50
19.687075
 51
44.658388
  0
ARC
  8
APS_GEOMETR�
 10
343.939026
 20
813.151005
 40
24.942321
 50
340.514046
 51
18.769242
  0
ARC
  8
APS_GEOMETR�
 10
344.135058
 20
813.758491
 40
24.968314
 50
297.614665
 51
339.049653
  0
LINE
  8
APS_GEOMETR�
 10
355.708442
 11
393.283635
 20
791.634443
 21
739.451096
  0
ARC
  8
APS_GEOMETR�
 10
2007.164739
 20
5019.014272
 40
4573.759198
 50
249.337863
 51
251.052618
  0
ARC
  8
APS_GEOMETR�
 10
573.168532
 20
949.488148
 40
261.456439
 50
258.728915
 51
300.450184
  0
ARC
  8
APS_GEOMETR�
 10
771.643117
 20
638.90854
 40
107.744333
 50
103.738813
 51
127.755643
  0
ARC
  8
APS_GEOMETR�
 10
770.840678
 20
641.669775
 40
104.871599
 50
79.215033
 51
103.671232
  0
LINE
  8
APS_GEOMETR�
 10
790.464627
 11
773.830951
 20
744.688961
 21
767.789332
  0
ARC
  8
APS_GEOMETR�
 10
761.923635
 20
796.681281
 40
31.249462
 50
267.093132
 51
292.39816
  0
ARC
  8
APS_GEOMETR�
 10
761.79895
 20
794.740703
 40
29.30507
 50
236.91579
 51
267.144187
  0
ARC
  8
APS_GEOMETR�
 10
789.508069
 20
834.436488
 40
77.705968
 50
208.92163
 51
235.774431
  0
ARC
  8
APS_GEOMETR�
 10
790.583214
 20
834.89547
 40
78.869082
 50
182.251686
 51
208.835752
  0
ARC
  8
APS_GEOMETR�
 10
716.566476
 20
829.16352
 40
5.467354
 50
124.296083
 51
151.208027
  0
ARC
  8
APS_GEOMETR�
 10
716.56306
 20
829.187034
 40
5.446013
 50
97.423987
 51
124.405785
  0
ARC
  8
APS_GEOMETR�
 10
716.531587
 20
829.472577
 40
5.1588
 50
69.50446
 51
97.487138
  0
ARC
  8
APS_GEOMETR�
 10
716.631687
 20
829.749854
 40
4.864027
 50
40.348676
 51
69.465338
  0
ARC
  8
APS_GEOMETR�
 10
833.103633
 20
1079.03455
 40
270.737227
 50
245.385505
 51
252.854169
  0
ARC
  8
APS_GEOMETR�
 10
745.842193
 20
777.878476
 40
43.0993
 50
53.412815
 51
80.050348
  0
ARC
  8
APS_GEOMETR�
 10
746.653385
 20
779.060828
 40
41.666456
 50
26.087447
 51
53.3394
  0
ARC
  8
APS_GEOMETR�
 10
745.84336
 20
778.735827
 40
42.536924
 50
359.12736
 51
26.000822
  0
LINE
  8
APS_GEOMETR�
 10
788.375351
 11
820.331811
 20
778.087996
 21
734.193425
  0
ARC
  8
APS_GEOMETR�
 10
768.652621
 20
636.697813
 40
110.345517
 50
45.097649
 51
62.073421
  0
ARC
  8
APS_GEOMETR�
 10
769.558484
 20
638.186205
 40
108.652593
 50
7.351223
 51
44.881958
  0
ARC
  8
APS_GEOMETR�
 10
831.996351
 20
685.703927
 40
56.427408
 50
323.435338
 51
347.073731
  0
ARC
  8
APS_GEOMETR�
 10
830.483071
 20
686.123
 40
57.996127
 50
347.004638
 51
10.211357
  0
ARC
  8
APS_GEOMETR�
 10
1076.272074
 20
730.395608
 40
191.748338
 50
177.377019
 51
190.210736
  0
ARC
  8
APS_GEOMETR�
 10
320.581914
 20
688.547872
 40
566.409461
 50
5.127652
 51
16.2076
  0
ARC
  8
APS_GEOMETR�
 10
688.23716
 20
796.160518
 40
183.33078
 50
15.983708
 51
51.218341
  0
ARC
  8
APS_GEOMETR�
 10
583.567128
 20
1309.995883
 40
431.002757
 50
278.794908
 51
300.615724
  0
ARC
  8
APS_GEOMETR�
 10
-3092.63855
 20
5479.325066
 40
5926.196416
 50
308.144965
 51
309.157287
  0
ARC
  8
APS_GEOMETR�
 10
498.053029
 20
828.767036
 40
70.371891
 50
328.429154
 51
351.74633
  0
ARC
  8
APS_GEOMETR�
 10
510.070512
 20
821.212015
 40
56.177811
 50
301.446809
 51
328.577087
  0
ARC
  8
APS_GEOMETR�
 10
515.198002
 20
813.180864
 40
46.651556
 50
270.473996
 51
301.220232
  0
ARC
  8
APS_GEOMETR�
 10
559.256934
 20
481.789147
 40
288.071518
 50
98.719933
 51
107.427888
  0
ARC
  8
APS_GEOMETR�
 10
468.924816
 20
760.685144
 40
5.728765
 50
283.279729
 51
315.033227
  0
ARC
  8
APS_GEOMETR�
 10
469.068587
 20
760.3063
 40
5.327289
 50
249.361837
 51
282.710722
  0
ARC
  8
APS_GEOMETR�
 10
469.484758
 20
761.306467
 40
6.410063
 50
219.59528
 51
249.031662
  0
ARC
  8
APS_GEOMETR�
 10
470.814817
 20
762.440327
 40
8.15768
 50
194.751858
 51
219.777797
  0
ARC
  8
APS_GEOMETR�
 10
589.034639
 20
736.192291
 40
128.404085
 50
145.833722
 51
169.149894
  0
ARC
  8
APS_GEOMETR�
 10
567.533964
 20
751.042244
 40
102.274723
 50
118.782875
 51
145.952664
  0
ARC
  8
APS_GEOMETR�
 10
532.54202
 20
813.191266
 40
30.964793
 50
81.924402
 51
117.405207
  0
ARC
  8
APS_GEOMETR�
 10
531.542073
 20
809.465129
 40
34.79758
 50
38.249622
 51
81.156127
  0
ARC
  8
APS_GEOMETR�
 10
500.163909
 20
936.736263
 40
120.933083
 50
299.04113
 51
331.856386
  0
ARC
  8
APS_GEOMETR�
 10
585.028656
 20
1302.875532
 40
423.740979
 50
264.258714
 51
272.944934
  0
ARC
  8
APS_GEOMETR�
 10
543.504315
 20
889.754082
 40
8.5379
 50
237.660572
 51
264.183054
  0
ARC
  8
APS_GEOMETR�
 10
543.781758
 20
890.181374
 40
9.047332
 50
212.114243
 51
237.623606
  0
ARC
  8
APS_GEOMETR�
 10
544.239126
 20
890.477029
 40
9.591894
 50
187.631529
 51
212.157702
  0
ARC
  8
APS_GEOMETR�
 10
544.403056
 20
890.513243
 40
9.759191
 50
163.471868
 51
187.714441
  0
ARC
  8
APS_GEOMETR�
 10
544.080122
 20
890.621806
 40
9.418724
 50
138.717575
 51
163.546126
  0
ARC
  8
APS_GEOMETR�
 10
543.642676
 20
891.009436
 40
8.834251
 50
112.8136
 51
138.734936
  0
ARC
  8
APS_GEOMETR�
 10
543.480998
 20
891.368445
 40
8.440645
 50
86.019533
 51
112.746877
  0
ARC
  8
APS_GEOMETR�
 10
558.470149
 20
1325.698845
 40
426.153588
 50
268.063136
 51
300.344236
  0
ARC
  8
APS_GEOMETR�
 10
698.080175
 20
809.746014
 40
166.387381
 50
62.945126
 51
98.374411
  0
ARC
  8
APS_GEOMETR�
 10
624.290516
 20
2018.358404
 40
1045.174643
 50
263.039777
 51
272.71769
  0
ARC
  8
APS_GEOMETR�
 10
643.33522
 20
521.77451
 40
481.676001
 50
107.606853
 51
127.312588
  0
ARC
  8
APS_GEOMETR�
 10
347.584096
 20
913.294586
 40
9.231688
 50
268.049795
 51
294.149633
  0
ARC
  8
APS_GEOMETR�
 10
347.600816
 20
913.334182
 40
9.271843
 50
241.930962
 51
267.954859
  0
ARC
  8
APS_GEOMETR�
 10
347.841225
 20
913.767811
 40
9.767594
 50
216.754352
 51
241.883481
  0
ARC
  8
APS_GEOMETR�
 10
348.328834
 20
914.13852
 40
10.380098
 50
192.6607
 51
216.783257
  0
ARC
  8
APS_GEOMETR�
 10
348.607307
 20
914.215127
 40
10.668599
 50
169.052327
 51
192.734327
  0
ARC
  8
APS_GEOMETR�
 10
348.363878
 20
914.276146
 40
10.418021
 50
145.064066
 51
169.127552
  0
ARC
  8
APS_GEOMETR�
 10
347.873186
 20
914.62597
 40
9.815427
 50
120.051056
 51
145.097828
  0
LINE
  8
APS_GEOMETR�
 10
0.0
 11
15.0
 20
0.0
 21
0.0
  0
LINE
  8
APS_GEOMETR�
 10
15.0
 11
15.0
 20
0.0
 21
15.0
  0
LINE
  8
APS_GEOMETR�
 10
15.0
 11
0.0
 20
15.0
 21
15.0
  0
LINE
  8
APS_GEOMETR�
 10
0.0
 11
0.0
 20
15.0
 21
0.0
  0
ENDSEC
  0
EOF
