  0
SECTION
  2
ENTITIES
  0
LINE
  8
APS_GEOMETR�
 10
1324.877242
 11
1003.773677
 20
662.057932
 21
782.962419
  0
LINE
  8
APS_GEOMETR�
 10
1003.773677
 11
1016.392911
 20
782.962419
 21
759.262004
  0
LINE
  8
APS_GEOMETR�
 10
1016.392911
 11
1288.791193
 20
759.262004
 21
655.547675
  0
ARC
  8
APS_GEOMETR�
 10
1483.00856
 20
536.708974
 40
28.802529
 50
159.811553
 51
180.058607
  0
ARC
  8
APS_GEOMETR�
 10
1480.824419
 20
537.56135
 40
26.458454
 50
138.478475
 51
159.911689
  0
ARC
  8
APS_GEOMETR�
 10
1478.440909
 20
539.688186
 40
23.264025
 50
115.143007
 51
138.508878
  0
ARC
  8
APS_GEOMETR�
 10
1477.485596
 20
541.637261
 40
21.093764
 50
90.089696
 51
115.043385
  0
ARC
  8
APS_GEOMETR�
 10
1477.419551
 20
541.637261
 40
21.093764
 50
64.956615
 51
89.910304
  0
ARC
  8
APS_GEOMETR�
 10
1476.464238
 20
539.688186
 40
23.264025
 50
41.491122
 51
64.856993
  0
ARC
  8
APS_GEOMETR�
 10
1474.080729
 20
537.56135
 40
26.458454
 50
20.088311
 51
41.521525
  0
ARC
  8
APS_GEOMETR�
 10
1471.896587
 20
536.708974
 40
28.802529
 50
359.941393
 51
20.188447
  0
ARC
  8
APS_GEOMETR�
 10
1471.896587
 20
536.650051
 40
28.802529
 50
339.811553
 51
0.058607
  0
ARC
  8
APS_GEOMETR�
 10
1474.080729
 20
535.797675
 40
26.458454
 50
318.478475
 51
339.911689
  0
ARC
  8
APS_GEOMETR�
 10
1476.464238
 20
533.670839
 40
23.264025
 50
295.143007
 51
318.508878
  0
ARC
  8
APS_GEOMETR�
 10
1477.419551
 20
531.721764
 40
21.093764
 50
270.089696
 51
295.043385
  0
ARC
  8
APS_GEOMETR�
 10
1477.485596
 20
531.721764
 40
21.093764
 50
244.956615
 51
269.910304
  0
ARC
  8
APS_GEOMETR�
 10
1478.440909
 20
533.670839
 40
23.264025
 50
221.491122
 51
244.856993
  0
ARC
  8
APS_GEOMETR�
 10
1480.824419
 20
535.797675
 40
26.458454
 50
200.088311
 51
221.521525
  0
ARC
  8
APS_GEOMETR�
 10
1483.00856
 20
536.650051
 40
28.802529
 50
179.941393
 51
200.188447
  0
ARC
  8
APS_GEOMETR�
 10
1184.3722
 20
541.28534
 40
27.547268
 50
159.811553
 51
180.058607
  0
ARC
  8
APS_GEOMETR�
 10
1182.283247
 20
542.100568
 40
25.305351
 50
138.478475
 51
159.911689
  0
ARC
  8
APS_GEOMETR�
 10
1180.003614
 20
544.134713
 40
22.25014
 50
115.143007
 51
138.508878
  0
ARC
  8
APS_GEOMETR�
 10
1179.089935
 20
545.998844
 40
20.174463
 50
90.089696
 51
115.043385
  0
ARC
  8
APS_GEOMETR�
 10
1179.026769
 20
545.998844
 40
20.174463
 50
64.956615
 51
89.910304
  0
ARC
  8
APS_GEOMETR�
 10
1178.113091
 20
544.134713
 40
22.25014
 50
41.491122
 51
64.856993
  0
ARC
  8
APS_GEOMETR�
 10
1175.833458
 20
542.100568
 40
25.305351
 50
20.088311
 51
41.521525
  0
ARC
  8
APS_GEOMETR�
 10
1173.744505
 20
541.28534
 40
27.547268
 50
359.941393
 51
20.188447
  0
ARC
  8
APS_GEOMETR�
 10
1173.744505
 20
541.228985
 40
27.547268
 50
339.811553
 51
0.058607
  0
ARC
  8
APS_GEOMETR�
 10
1175.833458
 20
540.413757
 40
25.305351
 50
318.478475
 51
339.911689
  0
ARC
  8
APS_GEOMETR�
 10
1178.113091
 20
538.379612
 40
22.25014
 50
295.143007
 51
318.508878
  0
ARC
  8
APS_GEOMETR�
 10
1179.026769
 20
536.515481
 40
20.174463
 50
270.089696
 51
295.043385
  0
ARC
  8
APS_GEOMETR�
 10
1179.089935
 20
536.515481
 40
20.174463
 50
244.956615
 51
269.910304
  0
ARC
  8
APS_GEOMETR�
 10
1180.003614
 20
538.379612
 40
22.25014
 50
221.491122
 51
244.856993
  0
ARC
  8
APS_GEOMETR�
 10
1182.283247
 20
540.413757
 40
25.305351
 50
200.088311
 51
221.521525
  0
ARC
  8
APS_GEOMETR�
 10
1184.3722
 20
541.228985
 40
27.547268
 50
179.941393
 51
200.188447
  0
LINE
  8
APS_GEOMETR�
 10
1697.206494
 11
1701.539377
 20
542.464236
 21
562.446192
  0
LINE
  8
APS_GEOMETR�
 10
1701.539377
 11
1708.665904
 20
562.446192
 21
559.2426
  0
LINE
  8
APS_GEOMETR�
 10
1708.665904
 11
1722.182141
 20
559.2426
 21
558.913609
  0
LINE
  8
APS_GEOMETR�
 10
1722.182141
 11
1717.774679
 20
558.913609
 21
541.148283
  0
LINE
  8
APS_GEOMETR�
 10
1642.008124
 11
1760.05007
 20
538.180328
 21
542.281521
  0
ARC
  8
APS_GEOMETR�
 10
1762.656498
 20
489.440019
 40
52.905745
 50
57.851977
 51
92.823848
  0
ARC
  8
APS_GEOMETR�
 10
1757.78095
 20
482.020912
 40
61.781909
 50
26.192907
 51
57.684823
  0
LINE
  8
APS_GEOMETR�
 10
1813.218661
 11
1883.938998
 20
509.291124
 21
509.291123
  0
LINE
  8
APS_GEOMETR�
 10
1883.938998
 11
1883.938998
 20
509.291123
 21
501.769279
  0
LINE
  8
APS_GEOMETR�
 10
1883.938998
 11
1861.190252
 20
501.769279
 21
501.769279
  0
LINE
  8
APS_GEOMETR�
 10
1861.190252
 11
1861.190252
 20
501.769279
 21
446.452229
  0
LINE
  8
APS_GEOMETR�
 10
1847.303486
 11
1851.509412
 20
502.992036
 21
444.015536
  0
LINE
  8
APS_GEOMETR�
 10
1830.079254
 11
1833.08348
 20
502.319302
 21
444.464025
  0
LINE
  8
APS_GEOMETR�
 10
1813.255576
 11
1816.660368
 20
500.525336
 21
444.015536
  0
LINE
  8
APS_GEOMETR�
 10
1192.454218
 11
984.832448
 20
611.639422
 21
611.639422
  0
ARC
  8
APS_GEOMETR�
 10
986.918621
 20
618.07576
 40
6.765985
 50
225.867035
 51
252.04123
  0
ARC
  8
APS_GEOMETR�
 10
987.628996
 20
618.810004
 40
7.787624
 50
202.063433
 51
225.877478
  0
ARC
  8
APS_GEOMETR�
 10
988.380751
 20
619.135241
 40
8.606518
 50
179.922586
 51
202.190156
  0
ARC
  8
APS_GEOMETR�
 10
988.380751
 20
619.158498
 40
8.606518
 50
157.809844
 51
180.077414
  0
ARC
  8
APS_GEOMETR�
 10
987.628996
 20
619.483735
 40
7.787624
 50
134.122522
 51
157.936567
  0
ARC
  8
APS_GEOMETR�
 10
986.918621
 20
620.21798
 40
6.765985
 50
107.95877
 51
134.132965
  0
LINE
  8
APS_GEOMETR�
 10
984.832448
 11
1213.848124
 20
626.654317
 21
626.654317
  0
LINE
  8
APS_GEOMETR�
 10
1547.953609
 11
1555.751379
 20
580.469703
 21
611.639422
  0
LINE
  8
APS_GEOMETR�
 10
1559.507676
 11
1570.661401
 20
626.654317
 21
671.238663
  0
LINE
  8
APS_GEOMETR�
 10
1838.476112
 11
1874.435037
 20
1741.763788
 21
1885.500972
  0
LINE
  8
APS_GEOMETR�
 10
1874.435037
 11
1864.357817
 20
1885.500972
 21
1886.72738
  0
LINE
  8
APS_GEOMETR�
 10
1864.357817
 11
1825.728333
 20
1886.72738
 21
1741.763788
  0
LINE
  8
APS_GEOMETR�
 10
1543.383701
 11
1528.577146
 20
682.218386
 21
626.654317
  0
LINE
  8
APS_GEOMETR�
 10
1524.57602
 11
1519.433499
 20
611.639422
 21
592.341255
  0
ARC
  8
APS_GEOMETR�
 10
618.027951
 20
-1616.029671
 40
2385.229348
 50
60.151892
 51
72.761831
  0
ARC
  8
APS_GEOMETR�
 10
1587.102012
 20
500.743505
 40
307.870385
 50
148.401162
 51
177.565713
  0
ARC
  8
APS_GEOMETR�
 10
1592.172797
 20
498.715651
 40
313.027962
 50
177.234295
 51
206.073777
  0
ARC
  8
APS_GEOMETR�
 10
865.705245
 20
-1408.425563
 40
2072.587775
 50
63.82119
 51
77.769026
  0
ARC
  8
APS_GEOMETR�
 10
1349.152929
 20
299.274402
 40
320.924305
 50
97.945807
 51
134.114762
  0
ARC
  8
APS_GEOMETR�
 10
1347.8226
 20
417.044917
 40
248.996948
 50
127.988142
 51
153.104836
  0
ARC
  8
APS_GEOMETR�
 10
1327.736022
 20
442.532418
 40
216.546068
 50
100.360759
 51
127.950178
  0
ARC
  8
APS_GEOMETR�
 10
1301.476858
 20
687.542578
 40
34.418017
 50
248.372159
 51
280.200002
  0
ARC
  8
APS_GEOMETR�
 10
1300.929694
 20
689.412977
 40
36.356341
 50
280.526693
 51
311.200018
  0
ARC
  8
APS_GEOMETR�
 10
1643.43443
 20
788.031462
 40
342.560962
 50
176.244087
 51
201.576334
  0
ARC
  8
APS_GEOMETR�
 10
1636.51636
 20
789.824801
 40
335.542937
 50
150.784733
 51
176.47227
  0
ARC
  8
APS_GEOMETR�
 10
683.799153
 20
-2661.519704
 40
3261.262997
 50
70.949786
 51
75.664395
  0
ARC
  8
APS_GEOMETR�
 10
689.771535
 20
-2639.366423
 40
3238.320767
 50
75.797424
 51
75.849726
  0
ARC
  8
APS_GEOMETR�
 10
693.169015
 20
-2625.233398
 40
3223.785714
 50
75.960163
 51
79.468831
  0
ARC
  8
APS_GEOMETR�
 10
1304.510183
 20
266.703947
 40
278.42647
 50
94.558524
 51
130.848765
  0
ARC
  8
APS_GEOMETR�
 10
832.796507
 20
-2901.403719
 40
3414.78588
 50
75.016413
 51
82.479432
  0
ARC
  8
APS_GEOMETR�
 10
1293.322267
 20
198.896952
 40
285.434794
 50
92.729263
 51
124.152239
  0
ARC
  8
APS_GEOMETR�
 10
1074.771131
 20
-2440.022294
 40
2884.903953
 50
77.481674
 51
85.782237
  0
ARC
  8
APS_GEOMETR�
 10
1262.182477
 20
252.812202
 40
185.913268
 50
82.344785
 51
126.375849
  0
ARC
  8
APS_GEOMETR�
 10
1330.197404
 20
-1409.093223
 40
1796.603862
 50
79.122825
 51
90.972212
  0
ARC
  8
APS_GEOMETR�
 10
1280.845528
 20
187.51224
 40
200.628948
 50
84.603683
 51
116.026758
  0
ARC
  8
APS_GEOMETR�
 10
1276.968964
 20
493.704356
 40
155.431683
 50
166.616781
 51
193.309143
  0
ARC
  8
APS_GEOMETR�
 10
1266.004614
 20
490.450976
 40
144.014298
 50
193.053743
 51
221.153977
  0
ARC
  8
APS_GEOMETR�
 10
1249.532853
 20
475.859456
 40
122.009618
 50
221.085051
 51
252.509693
  0
ARC
  8
APS_GEOMETR�
 10
1498.349362
 20
507.991366
 40
18.436495
 50
171.233722
 51
191.66857
  0
ARC
  8
APS_GEOMETR�
 10
1497.42864
 20
507.764561
 40
17.488966
 50
191.550949
 51
212.721928
  0
ARC
  8
APS_GEOMETR�
 10
1508.447405
 20
475.585006
 40
34.330858
 50
111.164512
 51
138.550422
  0
ARC
  8
APS_GEOMETR�
 10
1507.200863
 20
478.519641
 40
31.14428
 50
81.733501
 51
110.975173
  0
ARC
  8
APS_GEOMETR�
 10
1517.078899
 20
491.878173
 40
18.278103
 50
107.184263
 51
150.527525
  0
ARC
  8
APS_GEOMETR�
 10
1499.786522
 20
486.585007
 40
14.35255
 50
84.484065
 51
110.929452
  0
ARC
  8
APS_GEOMETR�
 10
1500.300636
 20
485.349213
 40
15.690506
 50
111.070935
 51
135.979097
  0
ARC
  8
APS_GEOMETR�
 10
1501.935434
 20
483.760341
 40
17.970209
 50
135.958433
 51
158.697804
  0
ARC
  8
APS_GEOMETR�
 10
1513.270196
 20
502.379507
 40
30.569872
 50
203.298058
 51
248.039751
  0
ARC
  8
APS_GEOMETR�
 10
1509.209832
 20
498.87145
 40
25.914363
 50
253.473325
 51
279.921741
  0
ARC
  8
APS_GEOMETR�
 10
1508.914022
 20
500.038509
 40
27.115087
 50
280.112546
 51
305.76811
  0
ARC
  8
APS_GEOMETR�
 10
1506.741543
 20
503.013626
 40
30.798901
 50
305.812297
 51
329.363985
  0
ARC
  8
APS_GEOMETR�
 10
1503.388549
 20
505.059297
 40
34.726366
 50
329.278992
 51
351.007674
  0
ARC
  8
APS_GEOMETR�
 10
1542.016618
 20
512.074281
 40
13.174182
 50
250.818578
 51
280.045586
  0
ARC
  8
APS_GEOMETR�
 10
1541.837783
 20
512.730016
 40
13.851197
 50
280.30086
 51
308.558376
  0
ARC
  8
APS_GEOMETR�
 10
1491.568697
 20
517.326814
 40
60.88968
 50
322.357768
 51
345.322542
  0
ARC
  8
APS_GEOMETR�
 10
1497.664994
 20
512.553546
 40
53.147247
 50
297.257155
 51
322.418655
  0
ARC
  8
APS_GEOMETR�
 10
1500.326825
 20
507.592285
 40
47.5179
 50
270.015543
 51
297.143717
  0
ARC
  8
APS_GEOMETR�
 10
1498.507599
 20
491.930141
 40
31.908395
 50
238.454147
 51
273.29162
  0
ARC
  8
APS_GEOMETR�
 10
1501.359841
 20
496.360519
 40
37.176469
 50
206.860354
 51
238.280217
  0
ARC
  8
APS_GEOMETR�
 10
1494.110443
 20
476.439526
 40
26.103726
 50
132.932092
 51
173.126546
  0
ARC
  8
APS_GEOMETR�
 10
1661.901151
 20
528.97683
 40
188.557023
 50
185.506845
 51
190.210679
  0
ARC
  8
APS_GEOMETR�
 10
1489.790714
 20
480.402827
 40
13.614683
 50
141.211594
 51
167.669882
  0
ARC
  8
APS_GEOMETR�
 10
1490.72502
 20
480.141596
 40
14.583329
 50
167.451083
 51
192.71348
  0
ARC
  8
APS_GEOMETR�
 10
1485.917682
 20
483.174838
 40
11.299478
 50
213.536976
 51
237.954138
  0
ARC
  8
APS_GEOMETR�
 10
1485.213667
 20
482.074773
 40
9.993496
 50
238.028939
 51
264.546809
  0
ARC
  8
APS_GEOMETR�
 10
1485.153569
 20
481.832692
 40
9.746869
 50
264.763258
 51
291.730348
  0
ARC
  8
APS_GEOMETR�
 10
1522.365594
 20
503.63491
 40
45.621327
 50
198.801365
 51
222.559853
  0
ARC
  8
APS_GEOMETR�
 10
1601.530733
 20
331.16782
 40
251.984226
 50
64.838817
 51
83.66581
  0
ARC
  8
APS_GEOMETR�
 10
1621.067165
 20
555.780589
 40
27.122902
 50
72.259908
 51
104.042403
  0
ARC
  8
APS_GEOMETR�
 10
1621.717217
 20
553.809968
 40
29.192761
 50
104.341663
 51
134.586538
  0
ARC
  8
APS_GEOMETR�
 10
1625.248543
 20
550.212105
 40
34.234069
 50
134.56868
 51
161.735769
  0
ARC
  8
APS_GEOMETR�
 10
1896.167723
 20
377.900948
 40
64.575645
 50
107.113425
 51
135.764379
  0
ARC
  8
APS_GEOMETR�
 10
1894.410382
 20
382.758243
 40
59.416815
 50
76.568511
 51
106.872151
  0
ARC
  8
APS_GEOMETR�
 10
1862.295381
 20
408.870705
 40
55.78437
 50
34.602995
 51
63.377665
  0
ARC
  8
APS_GEOMETR�
 10
1865.346361
 20
414.613842
 40
49.283196
 50
63.556668
 51
94.837565
  0
ARC
  8
APS_GEOMETR�
 10
1991.179629
 20
325.452123
 40
141.884284
 50
125.785791
 51
153.883316
  0
ARC
  8
APS_GEOMETR�
 10
1904.150722
 20
296.663923
 40
124.98675
 50
98.530587
 51
118.717356
  0
ARC
  8
APS_GEOMETR�
 10
3073.173566
 20
-173.343768
 40
2279.679237
 50
123.540939
 51
155.197509
  0
ARC
  8
APS_GEOMETR�
 10
1552.457189
 20
112.557669
 40
866.311794
 50
96.675821
 51
129.298136
  0
ARC
  8
APS_GEOMETR�
 10
2872.993284
 20
753.085104
 40
1438.159078
 50
137.388716
 51
171.204329
  0
ARC
  8
APS_GEOMETR�
 10
2153.081235
 20
835.393146
 40
299.497526
 50
140.621264
 51
168.040132
  0
ARC
  8
APS_GEOMETR�
 10
2173.75823
 20
829.618307
 40
320.925286
 50
167.796493
 51
193.968653
  0
ARC
  8
APS_GEOMETR�
 10
2150.571127
 20
822.573802
 40
296.72598
 50
193.729405
 51
221.320525
  0
ARC
  8
APS_GEOMETR�
 10
1769.980067
 20
493.689805
 40
206.305567
 50
40.128406
 51
64.106396
  0
ARC
  8
APS_GEOMETR�
 10
1779.084002
 20
511.667479
 40
186.157343
 50
64.21076
 51
89.902161
  0
ARC
  8
APS_GEOMETR�
 10
1779.719771
 20
511.667479
 40
186.157343
 50
90.097839
 51
115.78924
  0
ARC
  8
APS_GEOMETR�
 10
1788.823705
 20
493.689805
 40
206.305567
 50
115.893604
 51
139.871594
  0
ARC
  8
APS_GEOMETR�
 10
1887.3168
 20
808.637146
 40
314.283297
 50
189.268379
 51
215.383101
  0
ARC
  8
APS_GEOMETR�
 10
1903.813633
 20
812.632465
 40
331.210739
 50
164.28192
 51
189.490877
  0
ARC
  8
APS_GEOMETR�
 10
1878.325767
 20
820.960741
 40
304.421825
 50
137.810082
 51
164.491228
  0
ARC
  8
APS_GEOMETR�
 10
1478.188157
 20
482.449432
 40
210.170396
 50
43.324792
 51
70.479458
  0
ARC
  8
APS_GEOMETR�
 10
1484.833519
 20
499.254928
 40
192.111431
 50
70.672698
 51
99.519659
  0
ARC
  8
APS_GEOMETR�
 10
1487.224469
 20
490.2674
 40
201.372507
 50
99.767657
 51
127.714922
  0
ARC
  8
APS_GEOMETR�
 10
1210.558809
 20
500.973344
 40
177.049704
 50
82.464526
 51
108.507309
  0
ARC
  8
APS_GEOMETR�
 10
1215.655175
 20
487.301273
 40
191.63305
 50
108.65469
 51
133.348922
  0
ARC
  8
APS_GEOMETR�
 10
1392.007838
 20
752.516644
 40
332.628903
 50
181.666757
 51
202.233782
  0
ARC
  8
APS_GEOMETR�
 10
1395.753526
 20
753.28753
 40
336.387038
 50
166.704912
 51
178.517945
  0
ARC
  8
APS_GEOMETR�
 10
1515.675631
 20
859.49515
 40
232.764343
 50
51.013824
 51
75.530969
  0
ARC
  8
APS_GEOMETR�
 10
1515.746636
 20
859.729057
 40
232.520115
 50
75.533509
 51
100.067952
  0
ARC
  8
APS_GEOMETR�
 10
1464.475789
 20
1126.97193
 40
285.262649
 50
110.88405
 51
136.679863
  0
ARC
  8
APS_GEOMETR�
 10
1495.579194
 20
1097.427171
 40
328.161293
 50
136.652712
 51
160.131251
  0
ARC
  8
APS_GEOMETR�
 10
1524.870096
 20
1085.971965
 40
359.602787
 50
160.000867
 51
182.080398
  0
ARC
  8
APS_GEOMETR�
 10
2137.225308
 20
1548.613122
 40
229.724989
 50
129.155918
 51
157.601018
  0
ARC
  8
APS_GEOMETR�
 10
2163.531238
 20
1536.770026
 40
258.560725
 50
157.395911
 51
183.663363
  0
ARC
  8
APS_GEOMETR�
 10
2158.29407
 20
1535.311869
 40
253.24357
 50
183.40984
 51
210.047375
  0
ARC
  8
APS_GEOMETR�
 10
1858.158383
 20
1286.457006
 40
146.442849
 50
56.454069
 51
89.78768
  0
ARC
  8
APS_GEOMETR�
 10
1859.243724
 20
1286.457006
 40
146.442849
 50
90.21232
 51
123.545931
  0
ARC
  8
APS_GEOMETR�
 10
1838.005264
 20
1480.808609
 40
264.330003
 50
111.498222
 51
137.802254
  0
ARC
  8
APS_GEOMETR�
 10
1867.910675
 20
1453.432937
 40
304.872925
 50
137.765882
 51
161.664417
  0
ARC
  8
APS_GEOMETR�
 10
1481.946448
 20
1336.981174
 40
111.022674
 50
96.780792
 51
138.285283
  0
ARC
  8
APS_GEOMETR�
 10
1759.475838
 20
1401.01148
 40
360.538668
 50
154.08361
 51
178.435006
  0
ARC
  8
APS_GEOMETR�
 10
1722.793685
 20
1419.749633
 40
319.356913
 50
127.80995
 51
154.230985
  0
ARC
  8
APS_GEOMETR�
 10
1696.026822
 20
1453.876833
 40
275.985589
 50
98.614498
 51
127.763107
  0
ARC
  8
APS_GEOMETR�
 10
2167.574097
 20
1487.224033
 40
97.1401
 50
115.229839
 51
157.968821
  0
ARC
  8
APS_GEOMETR�
 10
2525.656042
 20
783.757796
 40
865.030776
 50
117.01601
 51
121.201514
  0
ARC
  8
APS_GEOMETR�
 10
2138.987689
 20
1490.675475
 40
64.027647
 50
57.381342
 51
95.613263
  0
ARC
  8
APS_GEOMETR�
 10
2203.281336
 20
1533.142277
 40
31.909592
 50
135.224362
 51
158.948386
  0
ARC
  8
APS_GEOMETR�
 10
2200.311408
 20
1536.101305
 40
27.717191
 50
109.163226
 51
135.242366
  0
ARC
  8
APS_GEOMETR�
 10
2199.495883
 20
1538.21505
 40
25.452985
 50
81.373936
 51
108.991075
  0
ARC
  8
APS_GEOMETR�
 10
2179.348614
 20
1220.763765
 40
343.453458
 50
75.088462
 51
85.998874
  0
ARC
  8
APS_GEOMETR�
 10
2153.894741
 20
1397.141371
 40
192.721165
 50
53.795711
 51
75.060018
  0
ARC
  8
APS_GEOMETR�
 10
2234.877211
 20
1518.032727
 40
72.426561
 50
115.602721
 51
150.896971
  0
ARC
  8
APS_GEOMETR�
 10
2112.712576
 20
1488.940674
 40
87.201173
 50
47.5268
 51
81.123554
  0
ARC
  8
APS_GEOMETR�
 10
1023.873207
 20
541.814898
 40
202.243046
 50
254.869897
 51
296.631734
  0
ARC
  8
APS_GEOMETR�
 10
1170.186791
 20
437.750912
 40
94.784202
 50
234.041443
 51
260.808158
  0
ARC
  8
APS_GEOMETR�
 10
1169.211548
 20
433.89345
 40
90.821148
 50
261.026769
 51
288.573381
  0
ARC
  8
APS_GEOMETR�
 10
1166.412341
 20
441.286661
 40
98.721346
 50
288.746645
 51
314.790935
  0
ARC
  8
APS_GEOMETR�
 10
1285.179223
 20
428.584183
 40
75.578722
 50
229.369197
 51
256.898666
  0
ARC
  8
APS_GEOMETR�
 10
1283.870382
 20
424.210224
 40
71.022499
 50
257.12722
 51
285.832936
  0
ARC
  8
APS_GEOMETR�
 10
1282.086719
 20
429.460315
 40
76.560576
 50
286.04517
 51
313.336627
  0
ARC
  8
APS_GEOMETR�
 10
1503.698472
 20
651.608513
 40
325.231994
 50
238.678295
 51
273.407656
  0
ARC
  8
APS_GEOMETR�
 10
1448.723522
 20
461.301275
 40
127.544524
 50
259.71397
 51
300.852594
  0
ARC
  8
APS_GEOMETR�
 10
1632.744825
 20
506.190235
 40
194.688287
 50
232.465204
 51
258.529668
  0
ARC
  8
APS_GEOMETR�
 10
1630.157499
 20
496.642028
 40
184.817359
 50
258.727113
 51
285.719308
  0
ARC
  8
APS_GEOMETR�
 10
1571.698072
 20
545.951942
 40
220.608471
 50
266.910002
 51
299.6929
  0
ARC
  8
APS_GEOMETR�
 10
1717.648817
 20
428.82389
 40
83.048331
 50
243.795549
 51
276.580493
  0
ARC
  8
APS_GEOMETR�
 10
1716.723262
 20
431.882659
 40
86.194894
 50
276.958674
 51
308.930967
  0
ARC
  8
APS_GEOMETR�
 10
1793.470797
 20
407.712465
 40
48.464746
 50
242.2257
 51
267.55871
  0
ARC
  8
APS_GEOMETR�
 10
1793.291153
 20
407.212036
 40
47.95738
 50
267.747672
 51
293.260392
  0
ARC
  8
APS_GEOMETR�
 10
1791.322744
 20
411.521913
 40
52.694402
 50
293.376084
 51
317.324913
  0
ARC
  8
APS_GEOMETR�
 10
1890.423024
 20
575.016521
 40
208.156203
 50
253.143896
 51
289.788082
  0
ARC
  8
APS_GEOMETR�
 10
2007.678818
 20
432.612113
 40
71.041953
 50
228.809059
 51
259.579194
  0
ARC
  8
APS_GEOMETR�
 10
2006.617308
 20
428.983458
 40
67.282265
 50
259.909321
 51
291.828775
  0
ARC
  8
APS_GEOMETR�
 10
1814.526352
 20
466.787167
 40
99.780687
 50
287.905347
 51
309.715514
  0
ARC
  8
APS_GEOMETR�
 10
1770.849961
 20
948.247661
 40
573.274286
 50
279.907979
 51
285.680821
  0
ARC
  8
APS_GEOMETR�
 10
1966.129947
 20
473.130162
 40
86.766744
 50
242.297299
 51
268.955728
  0
ARC
  8
APS_GEOMETR�
 10
1965.792429
 20
472.756396
 40
86.387522
 50
269.175029
 51
295.912068
  0
ARC
  8
APS_GEOMETR�
 10
2043.528198
 20
464.983061
 40
91.094061
 50
235.107076
 51
260.138272
  0
ARC
  8
APS_GEOMETR�
 10
2042.601753
 20
461.231585
 40
87.239763
 50
260.315753
 51
286.084501
  0
ARC
  8
APS_GEOMETR�
 10
1974.406566
 20
463.661382
 40
120.552052
 50
241.901245
 51
264.899987
  0
ARC
  8
APS_GEOMETR�
 10
1974.397731
 20
463.618339
 40
120.508394
 50
264.902352
 51
287.906686
  0
ARC
  8
APS_GEOMETR�
 10
1761.951076
 20
542.722151
 40
205.0516
 50
262.63206
 51
293.18739
  0
ARC
  8
APS_GEOMETR�
 10
1908.684501
 20
454.496145
 40
120.033299
 50
236.645462
 51
261.059252
  0
ARC
  8
APS_GEOMETR�
 10
1908.666488
 20
454.418394
 40
119.953693
 50
261.06198
 51
285.486653
  0
ARC
  8
APS_GEOMETR�
 10
1842.824583
 20
454.977889
 40
164.328993
 50
229.39897
 51
255.843021
  0
ARC
  8
APS_GEOMETR�
 10
1839.785455
 20
445.117369
 40
154.025566
 50
256.042091
 51
283.662963
  0
ARC
  8
APS_GEOMETR�
 10
1557.791432
 20
361.760816
 40
63.012703
 50
243.488106
 51
271.228769
  0
ARC
  8
APS_GEOMETR�
 10
1557.512464
 20
362.167411
 40
63.425762
 50
271.472842
 51
299.091853
  0
ARC
  8
APS_GEOMETR�
 10
1668.120615
 20
348.470093
 40
90.024151
 50
207.613577
 51
234.644985
  0
ARC
  8
APS_GEOMETR�
 10
1661.070081
 20
338.706832
 40
77.981745
 50
234.719096
 51
264.494843
  0
ARC
  8
APS_GEOMETR�
 10
1660.461779
 20
336.624997
 40
75.85224
 50
264.801351
 51
295.137768
  0
ARC
  8
APS_GEOMETR�
 10
1503.607036
 20
398.559519
 40
131.720784
 50
244.566606
 51
267.776517
  0
ARC
  8
APS_GEOMETR�
 10
1503.600567
 20
398.538698
 40
131.699728
 50
267.778977
 51
290.991379
  0
ARC
  8
APS_GEOMETR�
 10
1648.98088
 20
406.302798
 40
163.499951
 50
233.085462
 51
270.141383
  0
ARC
  8
APS_GEOMETR�
 10
1362.868765
 20
584.247712
 40
330.950578
 50
242.625386
 51
282.082714
  0
ARC
  8
APS_GEOMETR�
 10
1559.961003
 20
737.674304
 40
493.871848
 50
255.000835
 51
273.106955
  0
ARC
  8
APS_GEOMETR�
 10
1204.280301
 20
346.659627
 40
46.894408
 50
256.630485
 51
287.583426
  0
ARC
  8
APS_GEOMETR�
 10
1202.76467
 20
350.699297
 40
51.203693
 50
287.83459
 51
317.007106
  0
ARC
  8
APS_GEOMETR�
 10
1359.813144
 20
536.322546
 40
250.880208
 50
241.529506
 51
272.975573
  0
ARC
  8
APS_GEOMETR�
 10
1473.984772
 20
438.958891
 40
141.38719
 50
254.293543
 51
283.200225
  0
ARC
  8
APS_GEOMETR�
 10
1477.522031
 20
449.402037
 40
152.399067
 50
226.592273
 51
254.076189
  0
ARC
  8
APS_GEOMETR�
 10
1321.119421
 20
-28.565635
 40
370.870356
 50
81.990483
 51
95.677078
  0
ARC
  8
APS_GEOMETR�
 10
1287.146494
 20
266.359016
 40
74.176343
 50
59.099843
 51
92.096974
  0
ARC
  8
APS_GEOMETR�
 10
1281.029981
 20
256.593753
 40
85.696974
 50
29.009625
 51
58.943749
  0
ARC
  8
APS_GEOMETR�
 10
1421.502804
 20
447.294304
 40
154.783285
 50
240.988947
 51
276.861195
  0
ARC
  8
APS_GEOMETR�
 10
1265.27766
 20
256.394331
 40
100.430471
 50
101.088743
 51
127.747664
  0
ARC
  8
APS_GEOMETR�
 10
1274.23853
 20
244.936755
 40
114.975876
 50
127.783211
 51
152.125639
  0
ARC
  8
APS_GEOMETR�
 10
1000.126515
 20
383.081502
 40
100.668806
 50
256.510142
 51
289.31222
  0
ARC
  8
APS_GEOMETR�
 10
996.107388
 20
392.90092
 40
111.266215
 50
289.593141
 51
320.253143
  0
ARC
  8
APS_GEOMETR�
 10
1173.809974
 20
658.463459
 40
349.088661
 50
254.693624
 51
270.863632
  0
ARC
  8
APS_GEOMETR�
 10
1035.585067
 20
461.635618
 40
206.192447
 50
262.817718
 51
298.322836
  0
ARC
  8
APS_GEOMETR�
 10
1672.016989
 20
1215.19465
 40
215.300272
 50
63.880986
 51
87.125376
  0
ARC
  8
APS_GEOMETR�
 10
1672.028477
 20
1215.238661
 40
215.255741
 50
87.127842
 51
110.37546
  0
ARC
  8
APS_GEOMETR�
 10
1797.751484
 20
845.352741
 40
236.581248
 50
90.648357
 51
124.458583
  0
ARC
  8
APS_GEOMETR�
 10
1795.916396
 20
845.91665
 40
236.003695
 50
56.338305
 51
90.204418
  0
ARC
  8
APS_GEOMETR�
 10
2134.541373
 20
1207.685551
 40
265.545582
 50
191.639234
 51
219.041643
  0
ARC
  8
APS_GEOMETR�
 10
2152.432657
 20
1212.609571
 40
284.064978
 50
165.697789
 51
191.883942
  0
ARC
  8
APS_GEOMETR�
 10
2131.497663
 20
1219.073816
 40
262.184211
 50
138.297898
 51
165.936468
  0
ARC
  8
APS_GEOMETR�
 10
2145.475017
 20
1461.496074
 40
376.66446
 50
160.95344
 51
188.08691
  0
ARC
  8
APS_GEOMETR�
 10
2110.010883
 20
1475.276217
 40
338.648008
 50
132.048484
 51
161.199187
  0
LINE
  8
APS_GEOMETR�
 10
1470.673061
 11
2046.496113
 20
611.639422
 21
611.639422
  0
ARC
  8
APS_GEOMETR�
 10
2042.22209
 20
618.418382
 40
8.013836
 50
302.230755
 51
326.805226
  0
ARC
  8
APS_GEOMETR�
 10
2041.307814
 20
619.032081
 40
9.114916
 50
326.723524
 51
349.262483
  0
ARC
  8
APS_GEOMETR�
 10
2040.830915
 20
619.14687
 40
9.604882
 50
349.119744
 51
10.880256
  0
ARC
  8
APS_GEOMETR�
 10
2041.307814
 20
619.261659
 40
9.114916
 50
10.737517
 51
33.276476
  0
ARC
  8
APS_GEOMETR�
 10
2042.22209
 20
619.875358
 40
8.013836
 50
33.194774
 51
57.769245
  0
LINE
  8
APS_GEOMETR�
 10
2046.496113
 11
1430.373315
 20
626.654317
 21
626.654317
  0
LINE
  8
APS_GEOMETR�
 10
1135.339659
 11
1021.37851
 20
1025.407461
 21
1025.407461
  0
ARC
  8
APS_GEOMETR�
 10
1023.464684
 20
1031.843798
 40
6.765985
 50
225.867035
 51
252.04123
  0
ARC
  8
APS_GEOMETR�
 10
1024.175059
 20
1032.578043
 40
7.787624
 50
202.063433
 51
225.877478
  0
ARC
  8
APS_GEOMETR�
 10
1024.926814
 20
1032.90328
 40
8.606518
 50
179.922586
 51
202.190156
  0
ARC
  8
APS_GEOMETR�
 10
1024.926814
 20
1032.926537
 40
8.606518
 50
157.809844
 51
180.077414
  0
ARC
  8
APS_GEOMETR�
 10
1024.175059
 20
1033.251774
 40
7.787624
 50
134.122522
 51
157.936567
  0
ARC
  8
APS_GEOMETR�
 10
1023.464684
 20
1033.986019
 40
6.765985
 50
107.95877
 51
134.132965
  0
LINE
  8
APS_GEOMETR�
 10
1021.37851
 11
1144.703886
 20
1040.422356
 21
1040.422356
  0
LINE
  8
APS_GEOMETR�
 10
1461.174173
 11
2048.457472
 20
1025.407461
 21
1025.407461
  0
ARC
  8
APS_GEOMETR�
 10
2044.18345
 20
1032.186421
 40
8.013836
 50
302.230755
 51
326.805226
  0
ARC
  8
APS_GEOMETR�
 10
2043.269174
 20
1032.80012
 40
9.114916
 50
326.723524
 51
349.262483
  0
ARC
  8
APS_GEOMETR�
 10
2042.792275
 20
1032.914909
 40
9.604882
 50
349.119744
 51
10.880256
  0
ARC
  8
APS_GEOMETR�
 10
2043.269174
 20
1033.029698
 40
9.114916
 50
10.737517
 51
33.276476
  0
ARC
  8
APS_GEOMETR�
 10
2044.18345
 20
1033.643397
 40
8.013836
 50
33.194774
 51
57.769245
  0
LINE
  8
APS_GEOMETR�
 10
2048.457472
 11
1464.22418
 20
1040.422356
 21
1040.422356
  0
LINE
  8
APS_GEOMETR�
 10
1416.701829
 11
1244.991651
 20
1393.493892
 21
1393.493892
  0
ARC
  8
APS_GEOMETR�
 10
1247.077824
 20
1399.93023
 40
6.765985
 50
225.867035
 51
252.04123
  0
ARC
  8
APS_GEOMETR�
 10
1247.788199
 20
1400.664475
 40
7.787624
 50
202.063433
 51
225.877478
  0
ARC
  8
APS_GEOMETR�
 10
1248.539954
 20
1400.989711
 40
8.606518
 50
179.922586
 51
202.190156
  0
ARC
  8
APS_GEOMETR�
 10
1248.539954
 20
1401.012969
 40
8.606518
 50
157.809844
 51
180.077414
  0
ARC
  8
APS_GEOMETR�
 10
1247.788199
 20
1401.338205
 40
7.787624
 50
134.122522
 51
157.936567
  0
ARC
  8
APS_GEOMETR�
 10
1247.077824
 20
1402.07245
 40
6.765985
 50
107.95877
 51
134.132965
  0
LINE
  8
APS_GEOMETR�
 10
1244.991651
 11
1430.921185
 20
1408.508788
 21
1408.508788
  0
LINE
  8
APS_GEOMETR�
 10
1585.23211
 11
2048.153436
 20
1393.493892
 21
1393.493892
  0
ARC
  8
APS_GEOMETR�
 10
2043.879414
 20
1400.272852
 40
8.013836
 50
302.230755
 51
326.805226
  0
ARC
  8
APS_GEOMETR�
 10
2042.965137
 20
1400.886551
 40
9.114916
 50
326.723524
 51
349.262483
  0
ARC
  8
APS_GEOMETR�
 10
2042.488238
 20
1401.00134
 40
9.604882
 50
349.119744
 51
10.880256
  0
ARC
  8
APS_GEOMETR�
 10
2042.965137
 20
1401.116129
 40
9.114916
 50
10.737517
 51
33.276476
  0
ARC
  8
APS_GEOMETR�
 10
2043.879414
 20
1401.729828
 40
8.013836
 50
33.194774
 51
57.769245
  0
LINE
  8
APS_GEOMETR�
 10
2048.153436
 11
1592.730878
 20
1408.508788
 21
1408.508788
  0
LINE
  8
APS_GEOMETR�
 10
1518.760715
 11
2061.326794
 20
1726.748893
 21
1726.748893
  0
ARC
  8
APS_GEOMETR�
 10
2057.052772
 20
1733.527853
 40
8.013836
 50
302.230755
 51
326.805226
  0
ARC
  8
APS_GEOMETR�
 10
2056.138496
 20
1734.141551
 40
9.114916
 50
326.723524
 51
349.262483
  0
ARC
  8
APS_GEOMETR�
 10
2055.661596
 20
1734.25634
 40
9.604882
 50
349.119744
 51
10.880256
  0
ARC
  8
APS_GEOMETR�
 10
2056.138496
 20
1734.37113
 40
9.114916
 50
10.737517
 51
33.276476
  0
ARC
  8
APS_GEOMETR�
 10
2057.052772
 20
1734.984828
 40
8.013836
 50
33.194774
 51
57.769245
  0
LINE
  8
APS_GEOMETR�
 10
2061.326794
 11
1518.760715
 20
1741.763788
 21
1741.763788
  0
ARC
  8
APS_GEOMETR�
 10
1520.846889
 20
1735.327451
 40
6.765985
 50
107.95877
 51
134.132965
  0
ARC
  8
APS_GEOMETR�
 10
1521.557264
 20
1734.593206
 40
7.787624
 50
134.122522
 51
157.936567
  0
ARC
  8
APS_GEOMETR�
 10
1522.309019
 20
1734.267969
 40
8.606518
 50
157.809844
 51
180.077414
  0
ARC
  8
APS_GEOMETR�
 10
1522.309019
 20
1734.244712
 40
8.606518
 50
179.922586
 51
202.190156
  0
ARC
  8
APS_GEOMETR�
 10
1521.557264
 20
1733.919475
 40
7.787624
 50
202.063433
 51
225.877478
  0
ARC
  8
APS_GEOMETR�
 10
1520.846889
 20
1733.18523
 40
6.765985
 50
225.867035
 51
252.04123
  0
ARC
  8
APS_GEOMETR�
 10
2071.012974
 20
1112.738927
 40
414.654369
 50
163.108649
 51
190.043863
  0
ARC
  8
APS_GEOMETR�
 10
2035.37851
 20
1125.278945
 40
376.917257
 50
134.634619
 51
163.35873
  0
ARC
  8
APS_GEOMETR�
 10
1371.482183
 20
1411.667824
 40
27.601352
 50
353.427967
 51
358.318942
  0
ARC
  8
APS_GEOMETR�
 10
1876.848766
 20
1699.494152
 40
131.30917
 50
63.23843
 51
97.154201
  0
ARC
  8
APS_GEOMETR�
 10
1980.619765
 20
1869.853817
 40
69.386114
 50
229.951761
 51
257.033519
  0
ARC
  8
APS_GEOMETR�
 10
1979.461026
 20
1865.927649
 40
65.30053
 50
257.251326
 51
285.461511
  0
ARC
  8
APS_GEOMETR�
 10
1977.913533
 20
1870.58581
 40
70.203103
 50
285.665274
 51
312.534668
  0
ARC
  8
APS_GEOMETR�
 10
2045.936874
 20
1836.13784
 40
26.861529
 50
192.462682
 51
220.045183
  0
ARC
  8
APS_GEOMETR�
 10
2047.869388
 20
1836.691541
 40
28.868262
 50
166.431955
 51
192.708018
  0
ARC
  8
APS_GEOMETR�
 10
2045.826699
 20
1837.301254
 40
26.739783
 50
139.008075
 51
166.675114
  0
ARC
  8
APS_GEOMETR�
 10
1991.921955
 20
1940.257799
 40
91.832023
 50
265.361646
 51
291.543562
  0
ARC
  8
APS_GEOMETR�
 10
1992.410143
 20
1942.231234
 40
93.839043
 50
239.357666
 51
265.161984
  0
ARC
  8
APS_GEOMETR�
 10
1879.853351
 20
1786.841258
 40
98.808387
 50
49.072926
 51
93.143482
  0
ARC
  8
APS_GEOMETR�
 10
1882.343948
 20
1746.632389
 40
111.636517
 50
56.361028
 51
97.708398
  0
ARC
  8
APS_GEOMETR�
 10
1985.174507
 20
1901.529894
 40
74.286636
 50
236.511949
 51
266.922463
  0
ARC
  8
APS_GEOMETR�
 10
1984.697396
 20
1900.421996
 40
73.155909
 50
267.249015
 51
297.975541
  0
ARC
  8
APS_GEOMETR�
 10
2392.245141
 20
1435.890214
 40
97.1401
 50
115.229839
 51
157.968821
  0
ARC
  8
APS_GEOMETR�
 10
2750.327086
 20
732.423976
 40
865.030776
 50
117.01601
 51
121.201514
  0
ARC
  8
APS_GEOMETR�
 10
2363.658732
 20
1439.341655
 40
64.027647
 50
57.381342
 51
95.613263
  0
ARC
  8
APS_GEOMETR�
 10
2427.952379
 20
1481.808457
 40
31.909592
 50
135.224362
 51
158.948386
  0
ARC
  8
APS_GEOMETR�
 10
2424.982452
 20
1484.767485
 40
27.717191
 50
109.163226
 51
135.242366
  0
ARC
  8
APS_GEOMETR�
 10
2424.166926
 20
1486.88123
 40
25.452985
 50
81.373936
 51
108.991075
  0
ARC
  8
APS_GEOMETR�
 10
2404.019658
 20
1169.429945
 40
343.453458
 50
75.088462
 51
85.998874
  0
ARC
  8
APS_GEOMETR�
 10
2378.565785
 20
1345.807551
 40
192.721165
 50
53.795711
 51
75.060018
  0
ARC
  8
APS_GEOMETR�
 10
2459.548254
 20
1466.698907
 40
72.426561
 50
115.602721
 51
150.896971
  0
ARC
  8
APS_GEOMETR�
 10
2337.38362
 20
1437.606855
 40
87.201173
 50
47.5268
 51
81.123554
  0
ARC
  8
APS_GEOMETR�
 10
457.550001
 20
1803.876165
 40
97.1401
 50
115.229839
 51
157.968821
  0
ARC
  8
APS_GEOMETR�
 10
815.631946
 20
1100.409927
 40
865.030776
 50
117.01601
 51
121.201514
  0
ARC
  8
APS_GEOMETR�
 10
428.963593
 20
1807.327606
 40
64.027647
 50
57.381342
 51
95.613263
  0
ARC
  8
APS_GEOMETR�
 10
493.25724
 20
1849.794408
 40
31.909592
 50
135.224362
 51
158.948386
  0
ARC
  8
APS_GEOMETR�
 10
490.287312
 20
1852.753436
 40
27.717191
 50
109.163226
 51
135.242366
  0
ARC
  8
APS_GEOMETR�
 10
489.471787
 20
1854.867181
 40
25.452985
 50
81.373936
 51
108.991075
  0
ARC
  8
APS_GEOMETR�
 10
469.324518
 20
1537.415896
 40
343.453458
 50
75.088462
 51
85.998874
  0
ARC
  8
APS_GEOMETR�
 10
443.870645
 20
1713.793502
 40
192.721165
 50
53.795711
 51
75.060018
  0
ARC
  8
APS_GEOMETR�
 10
524.853115
 20
1834.684858
 40
72.426561
 50
115.602721
 51
150.896971
  0
ARC
  8
APS_GEOMETR�
 10
402.68848
 20
1805.592805
 40
87.201173
 50
47.5268
 51
81.123554
  0
ARC
  8
APS_GEOMETR�
 10
398.079497
 20
1671.60575
 40
97.1401
 50
115.229839
 51
157.968821
  0
ARC
  8
APS_GEOMETR�
 10
756.161441
 20
968.139513
 40
865.030776
 50
117.01601
 51
121.201514
  0
ARC
  8
APS_GEOMETR�
 10
369.493088
 20
1675.057192
 40
64.027647
 50
57.381342
 51
95.613263
  0
ARC
  8
APS_GEOMETR�
 10
433.786735
 20
1717.523994
 40
31.909592
 50
135.224362
 51
158.948386
  0
ARC
  8
APS_GEOMETR�
 10
430.816807
 20
1720.483022
 40
27.717191
 50
109.163226
 51
135.242366
  0
ARC
  8
APS_GEOMETR�
 10
430.001282
 20
1722.596766
 40
25.452985
 50
81.373936
 51
108.991075
  0
ARC
  8
APS_GEOMETR�
 10
409.854013
 20
1405.145482
 40
343.453458
 50
75.088462
 51
85.998874
  0
ARC
  8
APS_GEOMETR�
 10
384.40014
 20
1581.523087
 40
192.721165
 50
53.795711
 51
75.060018
  0
ARC
  8
APS_GEOMETR�
 10
465.38261
 20
1702.414444
 40
72.426561
 50
115.602721
 51
150.896971
  0
ARC
  8
APS_GEOMETR�
 10
343.217975
 20
1673.322391
 40
87.201173
 50
47.5268
 51
81.123554
  0
ARC
  8
APS_GEOMETR�
 10
724.34636
 20
1711.675304
 40
97.1401
 50
115.229839
 51
157.968821
  0
ARC
  8
APS_GEOMETR�
 10
1082.428305
 20
1008.209067
 40
865.030776
 50
117.01601
 51
121.201514
  0
ARC
  8
APS_GEOMETR�
 10
695.759952
 20
1715.126746
 40
64.027647
 50
57.381342
 51
95.613263
  0
ARC
  8
APS_GEOMETR�
 10
760.053598
 20
1757.593547
 40
31.909592
 50
135.224362
 51
158.948386
  0
ARC
  8
APS_GEOMETR�
 10
757.083671
 20
1760.552575
 40
27.717191
 50
109.163226
 51
135.242366
  0
ARC
  8
APS_GEOMETR�
 10
756.268146
 20
1762.66632
 40
25.452985
 50
81.373936
 51
108.991075
  0
ARC
  8
APS_GEOMETR�
 10
736.120877
 20
1445.215036
 40
343.453458
 50
75.088462
 51
85.998874
  0
ARC
  8
APS_GEOMETR�
 10
710.667004
 20
1621.592641
 40
192.721165
 50
53.795711
 51
75.060018
  0
ARC
  8
APS_GEOMETR�
 10
791.649474
 20
1742.483997
 40
72.426561
 50
115.602721
 51
150.896971
  0
ARC
  8
APS_GEOMETR�
 10
669.484839
 20
1713.391945
 40
87.201173
 50
47.5268
 51
81.123554
  0
ARC
  8
APS_GEOMETR�
 10
252.787806
 20
515.136791
 40
202.243046
 50
254.869897
 51
296.631734
  0
ARC
  8
APS_GEOMETR�
 10
399.101391
 20
411.072806
 40
94.784202
 50
234.041443
 51
260.808158
  0
ARC
  8
APS_GEOMETR�
 10
398.126148
 20
407.215343
 40
90.821148
 50
261.026769
 51
288.573381
  0
ARC
  8
APS_GEOMETR�
 10
395.326941
 20
414.608555
 40
98.721346
 50
288.746645
 51
314.790935
  0
ARC
  8
APS_GEOMETR�
 10
514.093823
 20
401.906077
 40
75.578722
 50
229.369197
 51
256.898666
  0
ARC
  8
APS_GEOMETR�
 10
512.784982
 20
397.532117
 40
71.022499
 50
257.12722
 51
285.832936
  0
ARC
  8
APS_GEOMETR�
 10
511.001319
 20
402.782208
 40
76.560576
 50
286.04517
 51
313.336627
  0
ARC
  8
APS_GEOMETR�
 10
732.613072
 20
624.930406
 40
325.231994
 50
238.678295
 51
273.407656
  0
ARC
  8
APS_GEOMETR�
 10
433.194901
 20
319.98152
 40
46.894408
 50
256.630485
 51
287.583426
  0
ARC
  8
APS_GEOMETR�
 10
431.679269
 20
324.02119
 40
51.203693
 50
287.83459
 51
317.007106
  0
ARC
  8
APS_GEOMETR�
 10
588.727744
 20
509.644439
 40
250.880208
 50
241.529506
 51
272.975573
  0
ARC
  8
APS_GEOMETR�
 10
702.899372
 20
412.280784
 40
141.38719
 50
254.293543
 51
283.200225
  0
ARC
  8
APS_GEOMETR�
 10
706.436631
 20
422.723931
 40
152.399067
 50
226.592273
 51
254.076189
  0
ARC
  8
APS_GEOMETR�
 10
550.034021
 20
-55.243741
 40
370.870356
 50
81.990483
 51
95.677078
  0
ARC
  8
APS_GEOMETR�
 10
516.061094
 20
239.68091
 40
74.176343
 50
59.099843
 51
92.096974
  0
ARC
  8
APS_GEOMETR�
 10
509.94458
 20
229.915647
 40
85.696974
 50
29.009625
 51
58.943749
  0
ARC
  8
APS_GEOMETR�
 10
494.19226
 20
229.716224
 40
100.430471
 50
101.088743
 51
127.747664
  0
ARC
  8
APS_GEOMETR�
 10
503.15313
 20
218.258648
 40
114.975876
 50
127.783211
 51
152.125639
  0
ARC
  8
APS_GEOMETR�
 10
229.041114
 20
356.403395
 40
100.668806
 50
256.510142
 51
289.31222
  0
ARC
  8
APS_GEOMETR�
 10
225.021988
 20
366.222813
 40
111.266215
 50
289.593141
 51
320.253143
  0
ARC
  8
APS_GEOMETR�
 10
402.724574
 20
631.785353
 40
349.088661
 50
254.693624
 51
270.863632
  0
ARC
  8
APS_GEOMETR�
 10
264.499667
 20
434.957512
 40
206.192447
 50
262.817718
 51
298.322836
  0
ARC
  8
APS_GEOMETR�
 10
2100.843023
 20
486.372289
 40
202.243046
 50
254.869897
 51
296.631734
  0
ARC
  8
APS_GEOMETR�
 10
2247.156607
 20
382.308304
 40
94.784202
 50
234.041443
 51
260.808158
  0
ARC
  8
APS_GEOMETR�
 10
2246.181364
 20
378.450841
 40
90.821148
 50
261.026769
 51
288.573381
  0
ARC
  8
APS_GEOMETR�
 10
2243.382158
 20
385.844053
 40
98.721346
 50
288.746645
 51
314.790935
  0
ARC
  8
APS_GEOMETR�
 10
2362.14904
 20
373.141575
 40
75.578722
 50
229.369197
 51
256.898666
  0
ARC
  8
APS_GEOMETR�
 10
2360.840199
 20
368.767615
 40
71.022499
 50
257.12722
 51
285.832936
  0
ARC
  8
APS_GEOMETR�
 10
2359.056535
 20
374.017706
 40
76.560576
 50
286.04517
 51
313.336627
  0
ARC
  8
APS_GEOMETR�
 10
2580.668288
 20
596.165905
 40
325.231994
 50
238.678295
 51
273.407656
  0
ARC
  8
APS_GEOMETR�
 10
2281.250117
 20
291.217018
 40
46.894408
 50
256.630485
 51
287.583426
  0
ARC
  8
APS_GEOMETR�
 10
2279.734486
 20
295.256689
 40
51.203693
 50
287.83459
 51
317.007106
  0
ARC
  8
APS_GEOMETR�
 10
2436.78296
 20
480.879937
 40
250.880208
 50
241.529506
 51
272.975573
  0
ARC
  8
APS_GEOMETR�
 10
2550.954588
 20
383.516282
 40
141.38719
 50
254.293543
 51
283.200225
  0
ARC
  8
APS_GEOMETR�
 10
2554.491848
 20
393.959429
 40
152.399067
 50
226.592273
 51
254.076189
  0
ARC
  8
APS_GEOMETR�
 10
2398.089237
 20
-84.008243
 40
370.870356
 50
81.990483
 51
95.677078
  0
ARC
  8
APS_GEOMETR�
 10
2364.116311
 20
210.916408
 40
74.176343
 50
59.099843
 51
92.096974
  0
ARC
  8
APS_GEOMETR�
 10
2357.999797
 20
201.151145
 40
85.696974
 50
29.009625
 51
58.943749
  0
ARC
  8
APS_GEOMETR�
 10
2342.247476
 20
200.951722
 40
100.430471
 50
101.088743
 51
127.747664
  0
ARC
  8
APS_GEOMETR�
 10
2351.208346
 20
189.494147
 40
114.975876
 50
127.783211
 51
152.125639
  0
ARC
  8
APS_GEOMETR�
 10
2077.096331
 20
327.638893
 40
100.668806
 50
256.510142
 51
289.31222
  0
ARC
  8
APS_GEOMETR�
 10
2073.077204
 20
337.458311
 40
111.266215
 50
289.593141
 51
320.253143
  0
ARC
  8
APS_GEOMETR�
 10
2250.77979
 20
603.020851
 40
349.088661
 50
254.693624
 51
270.863632
  0
ARC
  8
APS_GEOMETR�
 10
2112.554883
 20
406.19301
 40
206.192447
 50
262.817718
 51
298.322836
  0
LINE
  8
APS_GEOMETR�
 10
0.0
 11
2800.0
 20
0.0
 21
0.0
  0
LINE
  8
APS_GEOMETR�
 10
2800.0
 11
2800.0
 20
0.0
 21
2100.0
  0
LINE
  8
APS_GEOMETR�
 10
2800.0
 11
0.0
 20
2100.0
 21
2100.0
  0
LINE
  8
APS_GEOMETR�
 10
0.0
 11
0.0
 20
2100.0
 21
0.0
  0
ENDSEC
  0
EOF
