  0
SECTION
  2
HEADER
  9
$ACADVER
  1
AC1006
  9
$DWGCODEPAGE
  3
ansi_1252
  9
$INSBASE
 10
0.0
 20
0.0
 30
0.0
  9
$EXTMIN
 10
-0.3950577559741841
 20
0.0026379474576427
  9
$EXTMAX
 10
14.96285298989678
 20
20.42588938908761
  9
$LIMMIN
 10
0.0
 20
0.0
  9
$LIMMAX
 10
12.0
 20
9.0
  9
$ORTHOMODE
 70
     0
  9
$REGENMODE
 70
     1
  9
$FILLMODE
 70
     1
  9
$QTEXTMODE
 70
     0
  9
$MIRRTEXT
 70
     1
  9
$DRAGMODE
 70
     2
  9
$LTSCALE
 40
1.0
  9
$OSMODE
 70
    37
  9
$ATTMODE
 70
     1
  9
$TEXTSIZE
 40
0.2
  9
$TRACEWID
 40
0.05
  9
$TEXTSTYLE
  7
STANDARD
  9
$CLAYER
  8
0
  9
$CELTYPE
  6
BYBLOCK
  9
$CECOLOR
 62
     2
  9
$DIMSCALE
 40
1.0
  9
$DIMASZ
 40
0.18
  9
$DIMEXO
 40
0.0625
  9
$DIMDLI
 40
0.38
  9
$DIMRND
 40
0.0
  9
$DIMDLE
 40
0.0
  9
$DIMEXE
 40
0.18
  9
$DIMTP
 40
0.0
  9
$DIMTM
 40
0.0
  9
$DIMTXT
 40
0.18
  9
$DIMCEN
 40
0.09
  9
$DIMTSZ
 40
0.0
  9
$DIMTOL
 70
     0
  9
$DIMLIM
 70
     0
  9
$DIMTIH
 70
     1
  9
$DIMTOH
 70
     1
  9
$DIMSE1
 70
     0
  9
$DIMSE2
 70
     0
  9
$DIMTAD
 70
     0
  9
$DIMZIN
 70
     0
  9
$DIMBLK
  1

  9
$DIMASO
 70
     1
  9
$DIMSHO
 70
     1
  9
$DIMPOST
  1

  9
$DIMAPOST
  1

  9
$DIMALT
 70
     0
  9
$DIMALTD
 70
     2
  9
$DIMALTF
 40
25.4
  9
$DIMLFAC
 40
1.0
  9
$DIMTOFL
 70
     0
  9
$DIMTVP
 40
0.0
  9
$DIMTIX
 70
     0
  9
$DIMSOXD
 70
     0
  9
$DIMSAH
 70
     0
  9
$DIMBLK1
  1

  9
$DIMBLK2
  1

  9
$LUNITS
 70
     2
  9
$LUPREC
 70
     4
  9
$SKETCHINC
 40
0.1
  9
$FILLETRAD
 40
0.5
  9
$AUNITS
 70
     0
  9
$AUPREC
 70
     0
  9
$MENU
  1
.
  9
$ELEVATION
 40
0.0
  9
$THICKNESS
 40
0.0
  9
$LIMCHECK
 70
     0
  9
$CHAMFERA
 40
0.5
  9
$CHAMFERB
 40
0.5
  9
$SKPOLY
 70
     0
  9
$TDCREATE
 40
2453353.508792454
  9
$TDUPDATE
 40
2440603.864653334
  9
$TDINDWG
 40
4881724.056348322
  9
$TDUSRTIMER
 40
4881724.056348322
  9
$USRTIMER
 70
     1
  9
$ANGBASE
 50
0.0
  9
$ANGDIR
 70
     0
  9
$PDMODE
 70
     0
  9
$PDSIZE
 40
0.0
  9
$PLINEWID
 40
0.0
  9
$COORDS
 70
     1
  9
$SPLFRAME
 70
     0
  9
$SPLINETYPE
 70
     6
  9
$SPLINESEGS
 70
     8
  9
$ATTDIA
 70
     0
  9
$ATTREQ
 70
     1
  9
$HANDLING
 70
     1
  9
$HANDSEED
  5
1550
  9
$SURFTAB1
 70
     6
  9
$SURFTAB2
 70
     6
  9
$SURFTYPE
 70
     6
  9
$SURFU
 70
     6
  9
$SURFV
 70
     6
  9
$UCSNAME
  2

  9
$UCSORG
 10
0.0
 20
0.0
 30
0.0
  9
$UCSXDIR
 10
1.0
 20
0.0
 30
0.0
  9
$UCSYDIR
 10
0.0
 20
1.0
 30
0.0
  9
$USERI1
 70
     0
  9
$USERI2
 70
     0
  9
$USERI3
 70
     0
  9
$USERI4
 70
     0
  9
$USERI5
 70
     0
  9
$USERR1
 40
0.0
  9
$USERR2
 40
0.0
  9
$USERR3
 40
0.0
  9
$USERR4
 40
0.0
  9
$USERR5
 40
0.0
  9
$WORLDVIEW
 70
     1
  0
ENDSEC
  0
SECTION
  2
TABLES
  0
TABLE
  2
VPORT
 70
     1
  0
VPORT
  2
*ACTIVE
 70
     0
 10
0.0
 20
0.0
 11
1.0
 21
1.0
 12
5.512282726284075
 22
10.01686370236282
 13
0.0
 23
0.0
 14
0.5
 24
0.5
 15
0.5
 25
0.5
 16
0.0
 26
0.0
 36
1.0
 17
0.0
 27
0.0
 37
0.0
 40
32.61976546895183
 41
1.972972972850329
 42
50.0
 43
0.0
 44
0.0
 50
0.0
 51
0.0
 71
    16
 72
   100
 73
     1
 74
     1
 75
     0
 76
     0
 77
     0
 78
     0
  0
ENDTAB
  0
TABLE
  2
LTYPE
 70
     1
  0
LTYPE
  2
CONTINUOUS
 70
     0
  3
Solid line
 72
    65
 73
     0
 40
0.0
  0
ENDTAB
  0
TABLE
  2
LAYER
 70
     1
  0
LAYER
  2
0
 70
     0
 62
     7
  6
CONTINUOUS
  0
ENDTAB
  0
TABLE
  2
STYLE
 70
     1
  0
STYLE
  2
STANDARD
 70
     0
 40
0.0
 41
1.0
 50
0.0
 71
     0
 42
0.2
  3
txt
  4

  0
ENDTAB
  0
TABLE
  2
VIEW
 70
     0
  0
ENDTAB
  0
TABLE
  2
UCS
 70
     0
  0
ENDTAB
  0
ENDSEC
  0
SECTION
  2
BLOCKS
  0
ENDSEC
  0
SECTION
  2
ENTITIES
  0
POLYLINE
  5
FBB
  8
0
 62
     2
 66
     1
 10
0.0
 20
0.0
 30
0.0
  0
VERTEX
  5
1531
  8
0
 62
     2
 10
7.572903578821347
 20
11.61856430447991
 30
0.0
 42
0.5732131300415091
  0
VERTEX
  5
1532
  8
0
 62
     2
 10
8.527352652694814
 20
11.58370087117213
 30
0.0
 42
-0.3235732297402139
  0
VERTEX
  5
1533
  8
0
 62
     2
 10
9.716389112400899
 20
13.38798963248689
 30
0.0
  0
VERTEX
  5
1534
  8
0
 62
     2
 10
10.09503122325603
 20
12.94173285897907
 30
0.0
  0
VERTEX
  5
1535
  8
0
 62
     2
 10
10.23026054856143
 20
12.40081555775744
 30
0.0
 42
-0.1014301050163987
  0
VERTEX
  5
1536
  8
0
 62
     2
 10
9.828182816533378
 20
11.38959831001424
 30
0.0
 42
-0.2137382122353764
  0
VERTEX
  5
1537
  8
0
 62
     2
 10
13.42654361448636
 20
12.75239978773089
 30
0.0
  0
VERTEX
  5
1538
  8
0
 62
     2
 10
14.30358571819216
 20
12.91945542653199
 30
0.0
  0
VERTEX
  5
1539
  8
0
 62
     2
 10
14.74312540391803
 20
12.85575343973673
 30
0.0
  0
VERTEX
  5
153A
  8
0
 62
     2
 10
14.96285298989678
 20
12.87215102077992
 30
0.0
  0
SEQEND
  5
1530
  8
0
 62
     2
  0
ARC
  5
FBC
  8
0
  6
BYBLOCK
 62
     2
 10
5.692188985720771
 20
14.99456051295217
 30
0.0
 40
1.435583304257469
 50
212.3132321344858
 51
6.776492518771732
  0
ARC
  5
FBD
  8
0
  6
BYBLOCK
 62
     2
 10
8.744571285439491
 20
12.01819582485509
 30
0.0
 40
1.23794610820068
 50
128.2427749205963
 51
198.8334428951771
  0
LINE
  5
FBE
  8
0
  6
BYBLOCK
 62
     2
 10
7.978288939661505
 20
12.99047250016835
 30
0.0
 11
11.87676356609341
 21
14.92717429899482
 31
0.0
  0
LINE
  5
FBF
  8
0
  6
BYBLOCK
 62
     2
 10
11.87676356609341
 20
14.92717429899482
 30
0.0
 11
13.90726014623285
 21
16.48144860232097
 31
0.0
  0
ARC
  5
FC0
  8
0
  6
BYBLOCK
 62
     2
 10
13.61508962651556
 20
16.99685424816509
 30
0.0
 40
0.5924580933364627
 50
299.5478120491465
 51
135.451887852048
  0
LINE
  5
FC1
  8
0
  6
BYBLOCK
 62
     2
 10
12.73264029862736
 20
17.76849310343475
 30
0.0
 11
13.24247773878837
 21
18.19088907860681
 31
0.0
  0
LINE
  5
FC2
  8
0
  6
BYBLOCK
 62
     2
 10
13.24247773878837
 20
18.19088907860681
 30
0.0
 11
13.41658741692859
 21
18.39665506186344
 31
0.0
  0
ARC
  5
FC3
  8
0
  6
BYBLOCK
 62
     2
 10
12.93013306639178
 20
18.74390086744248
 30
0.0
 40
0.5976767392566195
 50
324.4796077913295
 51
131.999792800875
  0
ARC
  5
FC4
  8
0
  6
BYBLOCK
 62
     2
 10
12.01313092496277
 20
19.07759416961005
 30
0.0
 40
0.2877397947068129
 50
140.7697064093463
 51
320.8724480664921
  0
ARC
  5
FC5
  8
0
  6
BYBLOCK
 62
     2
 10
11.26591644345305
 20
19.49201559908134
 30
0.0
 40
0.5735417864445166
 50
336.091482567111
 51
164.1381872051782
  0
LINE
  5
FC6
  8
0
  6
BYBLOCK
 62
     2
 10
10.71421301319698
 20
19.64877498744978
 30
0.0
 11
10.43117043997457
 21
19.12646385445525
 31
0.0
  0
LINE
  5
FC7
  8
0
  6
BYBLOCK
 62
     2
 10
8.653726724816734
 20
19.9998207995442
 30
0.0
 11
8.26320754551083
 21
18.36646837633815
 31
0.0
  0
LINE
  5
FC9
  8
0
  6
BYBLOCK
 62
     2
 10
6.585609005738771
 20
17.86302020418697
 30
0.0
 11
7.101740811429328
 21
15.16395440665607
 31
0.0
  0
LINE
  5
FCA
  8
0
  6
BYBLOCK
 62
     2
 10
4.478922401651194
 20
14.22717298409669
 30
0.0
 11
4.045765952505453
 21
15.92762143417608
 31
0.0
  0
ARC
  5
FCB
  8
0
  6
BYBLOCK
 62
     2
 10
3.524193904644759
 20
15.70085991459558
 30
0.0
 40
0.5687338462515295
 50
23.49774009479794
 51
171.6915466423848
  0
ARC
  5
FCC
  8
0
  6
BYBLOCK
 62
     2
 10
2.659930741271288
 20
15.68695019603499
 30
0.0
 40
0.3164414575220704
 50
165.0498357418351
 51
17.67801932137067
  0
LINE
  5
FCD
  8
0
  6
BYBLOCK
 62
     2
 10
2.354200643200029
 20
15.76858537945506
 30
0.0
 11
2.31082717373066
 21
16.57822347621662
 31
0.0
  0
ARC
  5
FCE
  8
0
  6
BYBLOCK
 62
     2
 10
1.782547007957892
 20
16.26765702044812
 30
0.0
 40
0.6128062148816001
 50
30.45050846353514
 51
160.1304459298714
  0
ARC
  5
FCF
  8
0
  6
BYBLOCK
 62
     2
 10
0.9463811001332448
 20
16.45111720915679
 30
0.0
 40
0.2610234822644309
 50
202.2656494170773
 51
5.456405708965765
  0
ARC
  5
FD0
  8
0
  6
BYBLOCK
 62
     2
 10
0.2324703131452583
 20
15.93623191334716
 30
0.0
 40
0.6294096252864413
 50
41.36931367373278
 51
202.4084960838933
  0
LINE
  5
FD1
  8
0
  6
BYBLOCK
 62
     2
 10
-0.3494122870573576
 20
15.69629626367278
 30
0.0
 11
0.7204666265204323
 21
14.38063435643523
 31
0.0
  0
ARC
  5
FD2
  8
0
  6
BYBLOCK
 62
     2
 10
5.440582085892051
 20
17.6851303880728
 30
0.0
 40
5.761873304135338
 50
214.9954026664258
 51
268.2595202060267
  0
ARC
  5
FD3
  8
0
  6
BYBLOCK
 62
     2
 10
9.247145084981238
 20
19.79961177667415
 30
0.0
 40
0.626281887826005
 50
342.4359732370636
 51
161.3565006939238
  0
ARC
  5
FD4
  8
0
  6
BYBLOCK
 62
     2
 10
10.18180869908496
 20
19.42201366560614
 30
0.0
 40
0.3866923437189103
 50
150.808049833899
 51
310.1550469840062
  0
ARC
  5
FD5
  8
0
  6
BYBLOCK
 62
     2
 10
8.018978073322463
 20
18.36374022823399
 30
0.0
 40
0.2442447090061364
 50
195.6112601083098
 51
0.6399918482742392
  0
ARC
  5
FD6
  8
0
  6
BYBLOCK
 62
     2
 10
7.193530270912854
 20
18.05612876857206
 30
0.0
 40
0.637855142089276
 50
22.28494485807401
 51
197.6226535826406
  0
LINE
  5
11C0
  8
0
  6
BYBLOCK
 62
     2
 10
12.23634306891352
 20
18.89601628480346
 30
0.0
 11
12.53021087366928
 21
19.18806268977355
 31
0.0
  0
ARC
  5
11C6
  8
0
  6
BYBLOCK
 62
     2
 10
13.03148167082576
 20
17.67932393909119
 30
0.0
 40
0.3118610357309002
 50
163.3857947135312
 51
301.1642152022476
  0
POLYLINE
  5
151E
  8
0
 62
     2
 66
     1
 10
0.0
 20
0.0
 30
0.0
  0
VERTEX
  5
153C
  8
0
 62
     2
 10
14.95957347368819
 20
2.430171412475976
 30
0.0
 42
-0.047445633289451
  0
VERTEX
  5
153D
  8
0
 62
     2
 10
11.80229040260083
 20
2.922379079531575
 30
0.0
 42
0.2530992088409639
  0
VERTEX
  5
153E
  8
0
 62
     2
 10
8.098306274731526
 20
5.128944881012027
 30
0.0
 42
0.0182587510139092
  0
VERTEX
  5
153F
  8
0
 62
     2
 10
8.044535175146112
 20
3.46972237951918
 30
0.0
 42
-0.0103303653918282
  0
VERTEX
  5
1540
  8
0
 62
     2
 10
7.997443715260745
 20
2.261041575794853
 30
0.0
 42
-0.0269039200255122
  0
VERTEX
  5
1541
  8
0
 62
     2
 10
7.52318929655708
 20
2.728616354798472
 30
0.0
  0
VERTEX
  5
1542
  8
0
 62
     2
 10
7.316120465855478
 20
2.05397274509325
 30
0.0
 42
-0.0175825024855382
  0
VERTEX
  5
1543
  8
0
 62
     2
 10
6.895303164752224
 20
2.595023560797441
 30
0.0
  0
VERTEX
  5
1544
  8
0
 62
     2
 10
6.494524782749125
 20
1.693272201290463
 30
0.0
 42
0.0312195418814014
  0
VERTEX
  5
1545
  8
0
 62
     2
 10
6.32953768215785
 20
2.376599342605753
 30
0.0
 42
0.0174472286784645
  0
VERTEX
  5
1546
  8
0
 62
     2
 10
5.588097675452118
 20
5.045783366746387
 30
0.0
 42
0.3375187357537399
  0
VERTEX
  5
1547
  8
0
 62
     2
 10
4.23877146420577
 20
5.290596740410291
 30
0.0
 42
0.0097289488372662
  0
VERTEX
  5
1548
  8
0
 62
     2
 10
3.248947962576463
 20
4.612778610218668
 30
0.0
 42
-0.05452492
  0
VERTEX
  5
1549
  8
0
 62
     2
 10
1.579965255336687
 20
4.681408075800082
 30
0.0
 42
-0.2460490165690396
  0
VERTEX
  5
154A
  8
0
 62
     2
 10
1.191111514605766
 20
5.295387666427847
 30
0.0
 42
-0.03267536
  0
VERTEX
  5
154B
  8
0
 62
     2
 10
1.715866704801014
 20
7.54562971204996
 30
0.0
 42
-0.12129374
  0
VERTEX
  5
154C
  8
0
 62
     2
 10
3.046954433472686
 20
8.837061601895082
 30
0.0
 42
0.122458558177696
  0
VERTEX
  5
154D
  8
0
 62
     2
 10
4.623615850992967
 20
9.800576912601926
 30
0.0
  0
VERTEX
  5
154E
  8
0
 62
     2
 10
5.207564524148626
 20
10.58890762136206
 30
0.0
 42
0.7712327902346193
  0
VERTEX
  5
154F
  8
0
 62
     2
 10
5.265579984535314
 20
11.9259153167781
 30
0.0
  0
SEQEND
  5
153B
  8
0
 62
     2
  0
LINE
  5
151F
  8
0
  6
BYBLOCK
 62
     2
 10
14.95957347368819
 20
2.430171412475976
 30
0.0
 11
14.96285298989678
 21
12.87215102077992
 31
0.0
  0
ARC
  5
1526
  8
0
  6
BYBLOCK
 62
     2
 10
5.884050780743285
 20
9.454338245688454
 30
0.0
 40
0.7111115696867075
 50
75.05320904628098
 51
187.1700960897268
  0
ARC
  5
1527
  8
0
  6
BYBLOCK
 62
     2
 10
5.479550656288391
 20
9.917835121681978
 30
0.0
 40
0.6289805435091366
 50
241.4038726240499
 51
20.81943251195788
  0
ENDSEC
  0
EOF
