  0
SECTION
  2
HEADER
  9
$ACADVER
  1
AC1009
  9
$LIMMIN
 10
0.000000
 20
0.000000
  9
$LIMMAX
 10
23.401150
 20
15.959075
  0
ENDSEC
  0
SECTION
  2
TABLES
  0
TABLE
  2
LTYPE
 70
     4
  0
LTYPE
  2
CONTINUOUS
 70
     0
  3
Solid line
 72
     65
 73
     0
 40
0.000000
  0
LTYPE
  2
HIDDEN
 70
     0
  3
 _ _ _ _ _ _ _ _ _ _ _
 72
     65
 73
     2
 40
0.375000
 49
0.250000
 49
-0.125000
  0
LTYPE
  2
DASHED
 70
     0
  3
 ___ ___ ___ ___ ___ ___ ___ 
 72
     65
 73
     2
 40
0.750000
 49
0.500000
 49
-0.250000
  0
LTYPE
  2
CENTER
 70
     0
  3
___ _ ___ _ ___ _ ___
 72
     65
 73
     4
 40
2.000000
 49
1.250000
 49
-0.250000
 49
0.250000
 49
-0.250000
  0
LTYPE
  2
BORDER
 70
     0
  3
___ ___ . ___ ___ . ___ ___
 72
     65
 73
     6
 40
1.750000
 49
0.500000
 49
-0.250000
 49
0.500000
 49
-0.250000
 49
0.000000
 49
-0.250000
  0
LTYPE
  2
DOT
 70
     0
  3
.................
 72
     65
 73
     2
 40
0.250000
 49
0.000000
 49
-0.250000
  0
LTYPE
  2
DASHDOT
 70
     0
  3
__ . __ . __ . __
 72
     65
 73
     4
 40
1.000000
 49
0.500000
 49
-0.250000
 49
0.000000
 49
-0.250000
  0
LTYPE
  2
DIVIDE
 70
     0
  3
___ .. ___ .. ___ .. ___
 72
     65
 73
     6
 40
1.250000
 49
0.500000
 49
-0.250000
 49
0.000000
 49
-0.250000
 49
0.000000
 49
-0.250000
  0
ENDTAB
  0
TABLE
  2
LAYER
 70
     8
  0
LAYER
  2
BLACK
 70
     0
 62
     1
  6
CONTINUOUS
  0
LAYER
  2
WHITE
 70
     0
 62
     7
  6
CONTINUOUS
  0
LAYER
  2
RED
 70
     0
 62
     1
  6
CONTINUOUS
  0
LAYER
  2
YELLOW
 70
     0
 62
     2
  6
CONTINUOUS
  0
LAYER
  2
GREEN
 70
     0
 62
     3
  6
CONTINUOUS
  0
LAYER
  2
CYAN
 70
     0
 62
     4
  6
CONTINUOUS
  0
LAYER
  2
BLUE
 70
     0
 62
     5
  6
CONTINUOUS
  0
LAYER
  2
MAGENTA
 70
     0
 62
     6
  6
CONTINUOUS
  0
ENDTAB
  0
TABLE
  2
APPID
 70
     1
  0
APPID
  2
TC_BEND_DATA
 70
     0
  0
ENDTAB
  0
ENDSEC
  0
SECTION
  2
BLOCKS
  0
ENDSEC
  0
SECTION
  2
ENTITIES
  0
LINE
  8
WHITE
 10
13.657038
 20
0.122362
 30
0.000000
 11
11.833050
 21
0.027419
 31
0.000000
  6
CONTINUOUS
  0
LINE
  8
WHITE
 10
11.833050
 20
0.027419
 30
0.000000
 11
10.161207
 21
0.000000
 31
0.000000
  6
CONTINUOUS
  0
LINE
  8
WHITE
 10
10.161207
 20
0.000000
 30
0.000000
 11
8.501605
 21
0.028905
 31
0.000000
  6
CONTINUOUS
  0
LINE
  8
WHITE
 10
8.501605
 20
0.028905
 30
0.000000
 11
7.724077
 21
0.063481
 31
0.000000
  6
CONTINUOUS
  0
ARC
  8
WHITE
 10
7.725912
 20
0.104750
 30
0.000000
 40
0.041310
 50
95.265034
 51
267.454056
  6
CONTINUOUS
  0
LINE
  8
WHITE
 10
7.722121
 20
0.145886
 30
0.000000
 11
10.895699
 21
0.438337
 31
0.000000
  6
CONTINUOUS
  0
LINE
  8
WHITE
 10
10.895699
 20
0.438337
 30
0.000000
 11
11.207731
 21
0.475813
 31
0.000000
  6
CONTINUOUS
  0
ARC
  8
WHITE
 10
11.197878
 20
0.557844
 30
0.000000
 40
0.082621
 50
-83.150837
 51
90.192125
  6
CONTINUOUS
  0
LINE
  8
WHITE
 10
11.197601
 20
0.640464
 30
0.000000
 11
5.702119
 21
0.622036
 31
0.000000
  6
CONTINUOUS
  0
ARC
  8
WHITE
 10
5.701911
 20
0.684000
 30
0.000000
 40
0.061964
 50
94.658127
 51
270.192329
  6
CONTINUOUS
  0
LINE
  8
WHITE
 10
5.696879
 20
0.745760
 30
0.000000
 11
6.236922
 21
0.789763
 31
0.000000
  6
CONTINUOUS
  0
LINE
  8
WHITE
 10
6.236922
 20
0.789763
 30
0.000000
 11
7.847558
 21
0.961308
 31
0.000000
  6
CONTINUOUS
  0
LINE
  8
WHITE
 10
7.847558
 20
0.961308
 30
0.000000
 11
9.565622
 21
1.194138
 31
0.000000
  6
CONTINUOUS
  0
ARC
  8
WHITE
 10
9.554527
 20
1.276009
 30
0.000000
 40
0.082619
 50
-82.282402
 51
89.523988
  6
CONTINUOUS
  0
LINE
  8
WHITE
 10
9.555213
 20
1.358626
 30
0.000000
 11
6.369830
 21
1.385091
 31
0.000000
  6
CONTINUOUS
  0
LINE
  8
WHITE
 10
6.369830
 20
1.385091
 30
0.000000
 11
1.294878
 21
1.525773
 31
0.000000
  6
CONTINUOUS
  0
ARC
  8
WHITE
 10
1.296938
 20
1.600102
 30
0.000000
 40
0.074358
 50
89.794882
 51
268.412476
  6
CONTINUOUS
  0
LINE
  8
WHITE
 10
1.297204
 20
1.674460
 30
0.000000
 11
3.027893
 21
1.668264
 31
0.000000
  6
CONTINUOUS
  0
LINE
  8
WHITE
 10
3.027893
 20
1.668264
 30
0.000000
 11
3.613737
 21
1.676026
 31
0.000000
  6
CONTINUOUS
  0
LINE
  8
WHITE
 10
3.613737
 20
1.676026
 30
0.000000
 11
5.115969
 21
1.727040
 31
0.000000
  6
CONTINUOUS
  0
ARC
  8
WHITE
 10
5.112113
 20
1.840577
 30
0.000000
 40
0.113602
 50
-88.054840
 51
90.703136
  6
CONTINUOUS
  0
LINE
  8
WHITE
 10
5.110719
 20
1.954171
 30
0.000000
 11
4.148867
 21
1.942366
 31
0.000000
  6
CONTINUOUS
  0
LINE
  8
WHITE
 10
4.148867
 20
1.942366
 30
0.000000
 11
3.333931
 21
1.952983
 31
0.000000
  6
CONTINUOUS
  0
LINE
  8
WHITE
 10
3.333931
 20
1.952983
 30
0.000000
 11
2.247932
 21
2.004093
 31
0.000000
  6
CONTINUOUS
  0
LINE
  8
WHITE
 10
2.247932
 20
2.004093
 30
0.000000
 11
0.920601
 21
2.126699
 31
0.000000
  6
CONTINUOUS
  0
LINE
  8
WHITE
 10
0.920601
 20
2.126699
 30
0.000000
 11
0.054001
 21
2.239007
 31
0.000000
  6
CONTINUOUS
  0
ARC
  8
WHITE
 10
0.061965
 20
2.300458
 30
0.000000
 40
0.061965
 50
97.404327
 51
262.615672
  6
CONTINUOUS
  0
LINE
  8
WHITE
 10
0.053980
 20
2.361906
 30
0.000000
 11
3.241245
 21
2.776104
 31
0.000000
  6
CONTINUOUS
  0
LINE
  8
WHITE
 10
3.241245
 20
2.776104
 30
0.000000
 11
5.014562
 21
2.945018
 31
0.000000
  6
CONTINUOUS
  0
LINE
  8
WHITE
 10
5.014562
 20
2.945018
 30
0.000000
 11
5.039720
 21
3.033070
 31
0.000000
  6
CONTINUOUS
  0
LINE
  8
WHITE
 10
5.039720
 20
3.033070
 30
0.000000
 11
5.021454
 21
3.313945
 31
0.000000
  6
CONTINUOUS
  0
LINE
  8
WHITE
 10
5.021454
 20
3.313945
 30
0.000000
 11
5.021248
 21
3.503665
 31
0.000000
  6
CONTINUOUS
  0
LINE
  8
WHITE
 10
5.021248
 20
3.503665
 30
0.000000
 11
5.040033
 21
3.658548
 31
0.000000
  6
CONTINUOUS
  0
ARC
  8
WHITE
 10
5.023142
 20
3.673296
 30
0.000000
 40
0.022423
 50
-41.125111
 51
147.181103
  6
CONTINUOUS
  0
ARC
  8
WHITE
 10
4.965501
 20
3.727506
 30
0.000000
 40
0.057218
 50
147.683379
 51
312.690803
  6
CONTINUOUS
  0
ARC
  8
WHITE
 10
4.836177
 20
3.801558
 30
0.000000
 40
0.091897
 50
-28.226580
 51
10.895740
  6
CONTINUOUS
  0
LINE
  8
WHITE
 10
4.926416
 20
3.818928
 30
0.000000
 11
4.843150
 21
3.982848
 31
0.000000
  6
CONTINUOUS
  0
LINE
  8
WHITE
 10
4.843150
 20
3.982848
 30
0.000000
 11
4.779520
 21
4.364678
 31
0.000000
  6
CONTINUOUS
  0
LINE
  8
WHITE
 10
4.779520
 20
4.364678
 30
0.000000
 11
4.758973
 21
4.817464
 31
0.000000
  6
CONTINUOUS
  0
LINE
  8
WHITE
 10
4.758973
 20
4.817464
 30
0.000000
 11
4.735918
 21
4.957211
 31
0.000000
  6
CONTINUOUS
  0
ARC
  8
WHITE
 10
4.705349
 20
4.952168
 30
0.000000
 40
0.030982
 50
9.367770
 51
107.354054
  6
CONTINUOUS
  0
LINE
  8
WHITE
 10
4.696108
 20
4.981740
 30
0.000000
 11
4.640426
 21
4.964339
 31
0.000000
  6
CONTINUOUS
  0
ARC
  8
WHITE
 10
4.631184
 20
4.993911
 30
0.000000
 40
0.030983
 50
-166.204269
 51
-72.644652
  6
CONTINUOUS
  0
LINE
  8
WHITE
 10
4.601095
 20
4.986523
 30
0.000000
 11
4.556382
 21
5.168621
 31
0.000000
  6
CONTINUOUS
  0
LINE
  8
WHITE
 10
4.556382
 20
5.168621
 30
0.000000
 11
4.556196
 21
5.222853
 31
0.000000
  6
CONTINUOUS
  0
LINE
  8
WHITE
 10
4.556196
 20
5.222853
 30
0.000000
 11
4.533715
 21
5.397037
 31
0.000000
  6
CONTINUOUS
  0
ARC
  8
WHITE
 10
4.502987
 20
5.393071
 30
0.000000
 40
0.030983
 50
7.354391
 51
79.286771
  6
CONTINUOUS
  0
LINE
  8
WHITE
 10
4.508746
 20
5.423513
 30
0.000000
 11
4.469206
 21
5.430994
 31
0.000000
  6
CONTINUOUS
  0
ARC
  8
WHITE
 10
4.474965
 20
5.461437
 30
0.000000
 40
0.030983
 50
-158.199017
 51
-100.712239
  6
CONTINUOUS
  0
LINE
  8
WHITE
 10
4.446198
 20
5.449930
 30
0.000000
 11
4.437903
 21
5.470670
 31
0.000000
  6
CONTINUOUS
  0
ARC
  8
WHITE
 10
4.466670
 20
5.482176
 30
0.000000
 40
0.030983
 50
179.675623
 51
201.800036
  6
CONTINUOUS
  0
LINE
  8
WHITE
 10
4.435688
 20
5.482351
 30
0.000000
 11
4.437639
 21
5.826956
 31
0.000000
  6
CONTINUOUS
  0
LINE
  8
WHITE
 10
4.437639
 20
5.826956
 30
0.000000
 11
4.458867
 21
6.077131
 31
0.000000
  6
CONTINUOUS
  0
ARC
  8
WHITE
 10
4.910228
 20
6.069021
 30
0.000000
 40
0.451434
 50
158.687978
 51
178.970627
  6
CONTINUOUS
  0
LINE
  8
WHITE
 10
4.489665
 20
6.233093
 30
0.000000
 11
4.532299
 21
6.500240
 31
0.000000
  6
CONTINUOUS
  0
LINE
  8
WHITE
 10
4.532299
 20
6.500240
 30
0.000000
 11
4.643307
 21
7.003892
 31
0.000000
  6
CONTINUOUS
  0
LINE
  8
WHITE
 10
4.643307
 20
7.003892
 30
0.000000
 11
4.694489
 21
7.285554
 31
0.000000
  6
CONTINUOUS
  0
ARC
  8
WHITE
 10
4.203290
 20
7.376458
 30
0.000000
 40
0.499540
 50
-10.484848
 51
3.012183
  6
CONTINUOUS
  0
LINE
  8
WHITE
 10
4.702140
 20
7.402708
 30
0.000000
 11
4.708697
 21
7.663186
 31
0.000000
  6
CONTINUOUS
  0
LINE
  8
WHITE
 10
4.708697
 20
7.663186
 30
0.000000
 11
4.705075
 21
7.954873
 31
0.000000
  6
CONTINUOUS
  0
LINE
  8
WHITE
 10
4.705075
 20
7.954873
 30
0.000000
 11
4.731173
 21
8.049943
 31
0.000000
  6
CONTINUOUS
  0
LINE
  8
WHITE
 10
4.731173
 20
8.049943
 30
0.000000
 11
4.731394
 21
8.138931
 31
0.000000
  6
CONTINUOUS
  0
LINE
  8
WHITE
 10
4.731394
 20
8.138931
 30
0.000000
 11
4.766068
 21
8.304385
 31
0.000000
  6
CONTINUOUS
  0
LINE
  8
WHITE
 10
4.766068
 20
8.304385
 30
0.000000
 11
4.769464
 21
8.409919
 31
0.000000
  6
CONTINUOUS
  0
LINE
  8
WHITE
 10
4.769464
 20
8.409919
 30
0.000000
 11
4.849285
 21
8.855981
 31
0.000000
  6
CONTINUOUS
  0
LINE
  8
WHITE
 10
4.849285
 20
8.855981
 30
0.000000
 11
4.915729
 21
8.996537
 31
0.000000
  6
CONTINUOUS
  0
LINE
  8
WHITE
 10
4.915729
 20
8.996537
 30
0.000000
 11
4.937202
 21
9.077110
 31
0.000000
  6
CONTINUOUS
  0
LINE
  8
WHITE
 10
4.937202
 20
9.077110
 30
0.000000
 11
4.992641
 21
9.180069
 31
0.000000
  6
CONTINUOUS
  0
LINE
  8
WHITE
 10
4.992641
 20
9.180069
 30
0.000000
 11
4.990513
 21
9.214120
 31
0.000000
  6
CONTINUOUS
  0
LINE
  8
WHITE
 10
4.990513
 20
9.214120
 30
0.000000
 11
4.976501
 21
9.238140
 31
0.000000
  6
CONTINUOUS
  0
LINE
  8
WHITE
 10
4.976501
 20
9.238140
 30
0.000000
 11
4.910221
 21
9.268268
 31
0.000000
  6
CONTINUOUS
  0
ARC
  8
WHITE
 10
5.044754
 20
9.285712
 30
0.000000
 40
0.135659
 50
130.332771
 51
187.387943
  6
CONTINUOUS
  0
LINE
  8
WHITE
 10
4.956952
 20
9.389125
 30
0.000000
 11
5.011146
 21
9.505057
 31
0.000000
  6
CONTINUOUS
  0
ARC
  8
WHITE
 10
6.654551
 20
8.195866
 30
0.000000
 40
2.101133
 50
121.569930
 51
141.458009
  6
CONTINUOUS
  0
LINE
  8
WHITE
 10
5.554526
 20
9.986035
 30
0.000000
 11
5.789339
 21
10.142163
 31
0.000000
  6
CONTINUOUS
  0
LINE
  8
WHITE
 10
5.789339
 20
10.142163
 30
0.000000
 11
5.810977
 21
10.167858
 31
0.000000
  6
CONTINUOUS
  0
LINE
  8
WHITE
 10
5.810977
 20
10.167858
 30
0.000000
 11
5.858533
 21
10.261139
 31
0.000000
  6
CONTINUOUS
  0
LINE
  8
WHITE
 10
5.858533
 20
10.261139
 30
0.000000
 11
5.900462
 21
10.294175
 31
0.000000
  6
CONTINUOUS
  0
LINE
  8
WHITE
 10
5.900462
 20
10.294175
 30
0.000000
 11
6.108810
 21
10.407753
 31
0.000000
  6
CONTINUOUS
  0
ARC
  8
WHITE
 10
6.308921
 20
10.259971
 30
0.000000
 40
0.248765
 50
97.959897
 51
143.554127
  6
CONTINUOUS
  0
LINE
  8
WHITE
 10
6.274472
 20
10.506339
 30
0.000000
 11
6.326990
 21
10.529680
 31
0.000000
  6
CONTINUOUS
  0
ARC
  8
WHITE
 10
6.328343
 20
10.808852
 30
0.000000
 40
0.279175
 50
-90.277680
 51
-44.770253
  6
CONTINUOUS
  0
LINE
  8
WHITE
 10
6.526540
 20
10.612239
 30
0.000000
 11
6.643173
 21
10.612563
 31
0.000000
  6
CONTINUOUS
  0
ARC
  8
WHITE
 10
6.791731
 20
8.550032
 30
0.000000
 40
2.067874
 50
80.056260
 51
94.119731
  6
CONTINUOUS
  0
LINE
  8
WHITE
 10
7.148814
 20
10.586842
 30
0.000000
 11
7.151192
 21
10.551172
 31
0.000000
  6
CONTINUOUS
  0
LINE
  8
WHITE
 10
7.151192
 20
10.551172
 30
0.000000
 11
7.037597
 21
10.496559
 31
0.000000
  6
CONTINUOUS
  0
LINE
  8
WHITE
 10
7.037597
 20
10.496559
 30
0.000000
 11
6.947974
 21
10.478738
 31
0.000000
  6
CONTINUOUS
  0
LINE
  8
WHITE
 10
6.947974
 20
10.478738
 30
0.000000
 11
6.836407
 21
10.478738
 31
0.000000
  6
CONTINUOUS
  0
LINE
  8
WHITE
 10
6.836407
 20
10.478738
 30
0.000000
 11
6.795652
 21
10.490059
 31
0.000000
  6
CONTINUOUS
  0
LINE
  8
WHITE
 10
6.795652
 20
10.490059
 30
0.000000
 11
6.736027
 21
10.482001
 31
0.000000
  6
CONTINUOUS
  0
LINE
  8
WHITE
 10
6.736027
 20
10.482001
 30
0.000000
 11
6.736027
 21
10.456305
 31
0.000000
  6
CONTINUOUS
  0
LINE
  8
WHITE
 10
6.736027
 20
10.456305
 30
0.000000
 11
6.769464
 21
10.405166
 31
0.000000
  6
CONTINUOUS
  0
LINE
  8
WHITE
 10
6.769464
 20
10.405166
 30
0.000000
 11
6.795250
 21
10.386166
 31
0.000000
  6
CONTINUOUS
  0
LINE
  8
WHITE
 10
6.795250
 20
10.386166
 30
0.000000
 11
6.918502
 21
10.366585
 31
0.000000
  6
CONTINUOUS
  0
LINE
  8
WHITE
 10
6.918502
 20
10.366585
 30
0.000000
 11
6.951504
 21
10.367477
 31
0.000000
  6
CONTINUOUS
  0
LINE
  8
WHITE
 10
6.951504
 20
10.367477
 30
0.000000
 11
7.053748
 21
10.394465
 31
0.000000
  6
CONTINUOUS
  0
LINE
  8
WHITE
 10
7.053748
 20
10.394465
 30
0.000000
 11
7.162032
 21
10.434843
 31
0.000000
  6
CONTINUOUS
  0
LINE
  8
WHITE
 10
7.162032
 20
10.434843
 30
0.000000
 11
7.512191
 21
10.595322
 31
0.000000
  6
CONTINUOUS
  0
LINE
  8
WHITE
 10
7.512191
 20
10.595322
 30
0.000000
 11
7.722629
 21
10.657713
 31
0.000000
  6
CONTINUOUS
  0
LINE
  8
WHITE
 10
7.722629
 20
10.657713
 30
0.000000
 11
7.818312
 21
10.696899
 31
0.000000
  6
CONTINUOUS
  0
LINE
  8
WHITE
 10
7.818312
 20
10.696899
 30
0.000000
 11
8.176363
 21
10.720360
 31
0.000000
  6
CONTINUOUS
  0
LINE
  8
WHITE
 10
8.176363
 20
10.720360
 30
0.000000
 11
8.209444
 21
10.700901
 31
0.000000
  6
CONTINUOUS
  0
LINE
  8
WHITE
 10
8.209444
 20
10.700901
 30
0.000000
 11
8.223889
 21
10.632285
 31
0.000000
  6
CONTINUOUS
  0
LINE
  8
WHITE
 10
8.223889
 20
10.632285
 30
0.000000
 11
8.251254
 21
10.616892
 31
0.000000
  6
CONTINUOUS
  0
LINE
  8
WHITE
 10
8.251254
 20
10.616892
 30
0.000000
 11
8.335669
 21
10.616892
 31
0.000000
  6
CONTINUOUS
  0
LINE
  8
WHITE
 10
8.335669
 20
10.616892
 30
0.000000
 11
8.580226
 21
10.590938
 31
0.000000
  6
CONTINUOUS
  0
LINE
  8
WHITE
 10
8.580226
 20
10.590938
 30
0.000000
 11
8.714697
 21
10.599692
 31
0.000000
  6
CONTINUOUS
  0
LINE
  8
WHITE
 10
8.714697
 20
10.599692
 30
0.000000
 11
8.744107
 21
10.582046
 31
0.000000
  6
CONTINUOUS
  0
LINE
  8
WHITE
 10
8.744107
 20
10.582046
 30
0.000000
 11
8.745872
 21
10.553795
 31
0.000000
  6
CONTINUOUS
  0
LINE
  8
WHITE
 10
8.745872
 20
10.553795
 30
0.000000
 11
8.771943
 21
10.501654
 31
0.000000
  6
CONTINUOUS
  0
LINE
  8
WHITE
 10
8.771943
 20
10.501654
 30
0.000000
 11
8.807932
 21
10.487571
 31
0.000000
  6
CONTINUOUS
  0
LINE
  8
WHITE
 10
8.807932
 20
10.487571
 30
0.000000
 11
8.896865
 21
10.487252
 31
0.000000
  6
CONTINUOUS
  0
LINE
  8
WHITE
 10
8.896865
 20
10.487252
 30
0.000000
 11
9.058642
 21
10.453750
 31
0.000000
  6
CONTINUOUS
  0
LINE
  8
WHITE
 10
9.058642
 20
10.453750
 30
0.000000
 11
9.174486
 21
10.395670
 31
0.000000
  6
CONTINUOUS
  0
LINE
  8
WHITE
 10
9.174486
 20
10.395670
 30
0.000000
 11
9.189888
 21
10.372566
 31
0.000000
  6
CONTINUOUS
  0
LINE
  8
WHITE
 10
9.189888
 20
10.372566
 30
0.000000
 11
9.188475
 21
10.349956
 31
0.000000
  6
CONTINUOUS
  0
LINE
  8
WHITE
 10
9.188475
 20
10.349956
 30
0.000000
 11
9.169625
 21
10.318540
 31
0.000000
  6
CONTINUOUS
  0
LINE
  8
WHITE
 10
9.169625
 20
10.318540
 30
0.000000
 11
9.174579
 21
10.280560
 31
0.000000
  6
CONTINUOUS
  0
LINE
  8
WHITE
 10
9.174579
 20
10.280560
 30
0.000000
 11
9.200319
 21
10.254821
 31
0.000000
  6
CONTINUOUS
  0
ARC
  8
WHITE
 10
8.621121
 20
8.882721
 30
0.000000
 40
1.489338
 50
44.574228
 51
67.114166
  6
CONTINUOUS
  0
LINE
  8
WHITE
 10
9.682039
 20
9.927987
 30
0.000000
 11
9.682039
 21
9.883624
 31
0.000000
  6
CONTINUOUS
  0
ARC
  8
WHITE
 10
9.569358
 20
9.992007
 30
0.000000
 40
0.156345
 50
-74.850166
 51
-43.886177
  6
CONTINUOUS
  0
LINE
  8
WHITE
 10
9.610218
 20
9.841096
 30
0.000000
 11
9.607180
 21
9.813748
 31
0.000000
  6
CONTINUOUS
  0
LINE
  8
WHITE
 10
9.607180
 20
9.813748
 30
0.000000
 11
9.625562
 21
9.769629
 31
0.000000
  6
CONTINUOUS
  0
LINE
  8
WHITE
 10
9.625562
 20
9.769629
 30
0.000000
 11
9.682608
 21
9.724593
 31
0.000000
  6
CONTINUOUS
  0
LINE
  8
WHITE
 10
9.682608
 20
9.724593
 30
0.000000
 11
9.985495
 21
9.409883
 31
0.000000
  6
CONTINUOUS
  0
LINE
  8
WHITE
 10
9.985495
 20
9.409883
 30
0.000000
 11
10.015790
 21
9.386800
 31
0.000000
  6
CONTINUOUS
  0
LINE
  8
WHITE
 10
10.015790
 20
9.386800
 30
0.000000
 11
10.178873
 21
9.208994
 31
0.000000
  6
CONTINUOUS
  0
LINE
  8
WHITE
 10
10.178873
 20
9.208994
 30
0.000000
 11
10.207064
 21
9.162561
 31
0.000000
  6
CONTINUOUS
  0
LINE
  8
WHITE
 10
10.207064
 20
9.162561
 30
0.000000
 11
10.238631
 21
9.141515
 31
0.000000
  6
CONTINUOUS
  0
LINE
  8
WHITE
 10
10.238631
 20
9.141515
 30
0.000000
 11
10.274314
 21
9.144914
 31
0.000000
  6
CONTINUOUS
  0
LINE
  8
WHITE
 10
10.274314
 20
9.144914
 30
0.000000
 11
10.291266
 21
9.163750
 31
0.000000
  6
CONTINUOUS
  0
LINE
  8
WHITE
 10
10.291266
 20
9.163750
 30
0.000000
 11
10.289218
 21
9.194438
 31
0.000000
  6
CONTINUOUS
  0
ARC
  8
WHITE
 10
8.462259
 20
8.046027
 30
0.000000
 40
2.157922
 50
32.153122
 51
47.892674
  6
CONTINUOUS
  0
LINE
  8
WHITE
 10
9.909192
 20
9.646968
 30
0.000000
 11
9.842553
 21
9.734651
 31
0.000000
  6
CONTINUOUS
  0
LINE
  8
WHITE
 10
9.842553
 20
9.734651
 30
0.000000
 11
9.844962
 21
9.753920
 31
0.000000
  6
CONTINUOUS
  0
ARC
  8
WHITE
 10
9.905288
 20
9.827207
 30
0.000000
 40
0.094922
 50
-129.459413
 51
-41.789549
  6
CONTINUOUS
  0
ARC
  8
WHITE
 10
9.844797
 20
9.779554
 30
0.000000
 40
0.132188
 50
-6.778373
 51
61.104094
  6
CONTINUOUS
  0
LINE
  8
WHITE
 10
9.908673
 20
9.895284
 30
0.000000
 11
9.462240
 21
10.221527
 31
0.000000
  6
CONTINUOUS
  0
LINE
  8
WHITE
 10
9.462240
 20
10.221527
 30
0.000000
 11
9.487997
 21
10.264455
 31
0.000000
  6
CONTINUOUS
  0
LINE
  8
WHITE
 10
9.487997
 20
10.264455
 30
0.000000
 11
9.493571
 21
10.325771
 31
0.000000
  6
CONTINUOUS
  0
LINE
  8
WHITE
 10
9.493571
 20
10.325771
 30
0.000000
 11
9.433967
 21
10.370925
 31
0.000000
  6
CONTINUOUS
  0
LINE
  8
WHITE
 10
9.433967
 20
10.370925
 30
0.000000
 11
9.259573
 21
10.461984
 31
0.000000
  6
CONTINUOUS
  0
ARC
  8
WHITE
 10
9.299590
 20
10.481624
 30
0.000000
 40
0.044577
 50
139.181017
 51
206.141408
  6
CONTINUOUS
  0
LINE
  8
WHITE
 10
9.265856
 20
10.510762
 30
0.000000
 11
9.380493
 21
10.551037
 31
0.000000
  6
CONTINUOUS
  0
LINE
  8
WHITE
 10
9.380493
 20
10.551037
 30
0.000000
 11
9.581360
 21
10.655640
 31
0.000000
  6
CONTINUOUS
  0
LINE
  8
WHITE
 10
9.581360
 20
10.655640
 30
0.000000
 11
9.641746
 21
10.672893
 31
0.000000
  6
CONTINUOUS
  0
LINE
  8
WHITE
 10
9.641746
 20
10.672893
 30
0.000000
 11
9.808226
 21
10.761318
 31
0.000000
  6
CONTINUOUS
  0
LINE
  8
WHITE
 10
9.808226
 20
10.761318
 30
0.000000
 11
9.850640
 21
10.773018
 31
0.000000
  6
CONTINUOUS
  0
LINE
  8
WHITE
 10
9.850640
 20
10.773018
 30
0.000000
 11
9.994069
 21
10.847927
 31
0.000000
  6
CONTINUOUS
  0
LINE
  8
WHITE
 10
9.994069
 20
10.847927
 30
0.000000
 11
10.036362
 21
10.861610
 31
0.000000
  6
CONTINUOUS
  0
LINE
  8
WHITE
 10
10.036362
 20
10.861610
 30
0.000000
 11
10.198243
 21
10.954593
 31
0.000000
  6
CONTINUOUS
  0
ARC
  8
WHITE
 10
9.868961
 20
10.986927
 30
0.000000
 40
0.330866
 50
-5.608207
 51
17.301487
  6
CONTINUOUS
  0
ARC
  8
WHITE
 10
9.493824
 20
12.568573
 30
0.000000
 40
1.636321
 50
-65.019577
 51
-45.589387
  6
CONTINUOUS
  0
ARC
  8
WHITE
 10
10.512490
 20
11.547230
 30
0.000000
 40
0.194305
 50
-49.409545
 51
-10.858271
  6
CONTINUOUS
  0
LINE
  8
WHITE
 10
10.703316
 20
11.510627
 30
0.000000
 11
10.662532
 21
11.570835
 31
0.000000
  6
CONTINUOUS
  0
LINE
  8
WHITE
 10
10.662532
 20
11.570835
 30
0.000000
 11
10.666393
 21
11.597861
 31
0.000000
  6
CONTINUOUS
  0
ARC
  8
WHITE
 10
11.090845
 20
11.306630
 30
0.000000
 40
0.514757
 50
97.961830
 51
145.544652
  6
CONTINUOUS
  0
ARC
  8
WHITE
 10
10.956297
 20
12.251466
 30
0.000000
 40
0.439614
 50
-81.728158
 51
-41.817343
  6
CONTINUOUS
  0
LINE
  8
WHITE
 10
11.283931
 20
11.958349
 30
0.000000
 11
11.283930
 21
12.001289
 31
0.000000
  6
CONTINUOUS
  0
ARC
  8
WHITE
 10
11.318674
 20
12.031530
 30
0.000000
 40
0.046062
 50
136.231465
 51
221.036145
  6
CONTINUOUS
  0
LINE
  8
WHITE
 10
11.285411
 20
12.063393
 30
0.000000
 11
11.312592
 21
12.090501
 31
0.000000
  6
CONTINUOUS
  0
LINE
  8
WHITE
 10
11.312592
 20
12.090501
 30
0.000000
 11
11.491447
 21
12.169248
 31
0.000000
  6
CONTINUOUS
  0
LINE
  8
WHITE
 10
11.491447
 20
12.169248
 30
0.000000
 11
11.665175
 21
12.193607
 31
0.000000
  6
CONTINUOUS
  0
LINE
  8
WHITE
 10
11.665175
 20
12.193607
 30
0.000000
 11
11.691288
 21
12.212260
 31
0.000000
  6
CONTINUOUS
  0
ARC
  8
WHITE
 10
11.814696
 20
12.169751
 30
0.000000
 40
0.130524
 50
81.908992
 51
160.993269
  6
CONTINUOUS
  0
LINE
  8
WHITE
 10
11.833067
 20
12.298977
 30
0.000000
 11
11.978378
 21
12.277273
 31
0.000000
  6
CONTINUOUS
  0
ARC
  8
WHITE
 10
11.982955
 20
12.307916
 30
0.000000
 40
0.030983
 50
-98.495195
 51
-48.093978
  6
CONTINUOUS
  0
LINE
  8
WHITE
 10
12.003648
 20
12.284858
 30
0.000000
 11
12.063461
 21
12.338536
 31
0.000000
  6
CONTINUOUS
  0
LINE
  8
WHITE
 10
12.063461
 20
12.338536
 30
0.000000
 11
12.094593
 21
12.353064
 31
0.000000
  6
CONTINUOUS
  0
LINE
  8
WHITE
 10
12.094593
 20
12.353064
 30
0.000000
 11
12.205770
 21
12.339450
 31
0.000000
  6
CONTINUOUS
  0
LINE
  8
WHITE
 10
12.205770
 20
12.339450
 30
0.000000
 11
12.252266
 21
12.339450
 31
0.000000
  6
CONTINUOUS
  0
LINE
  8
WHITE
 10
12.252266
 20
12.339450
 30
0.000000
 11
12.390832
 21
12.293982
 31
0.000000
  6
CONTINUOUS
  0
LINE
  8
WHITE
 10
12.390832
 20
12.293982
 30
0.000000
 11
12.434293
 21
12.293982
 31
0.000000
  6
CONTINUOUS
  0
LINE
  8
WHITE
 10
12.434293
 20
12.293982
 30
0.000000
 11
12.546950
 21
12.345951
 31
0.000000
  6
CONTINUOUS
  0
ARC
  8
WHITE
 10
12.761548
 20
12.558369
 30
0.000000
 40
0.301950
 50
-135.292504
 51
-60.845729
  6
CONTINUOUS
  0
LINE
  8
WHITE
 10
12.908647
 20
12.294672
 30
0.000000
 11
12.943347
 21
12.292003
 31
0.000000
  6
CONTINUOUS
  0
LINE
  8
WHITE
 10
12.943347
 20
12.292003
 30
0.000000
 11
13.110869
 21
12.193382
 31
0.000000
  6
CONTINUOUS
  0
LINE
  8
WHITE
 10
13.110869
 20
12.193382
 30
0.000000
 11
13.171232
 21
12.168527
 31
0.000000
  6
CONTINUOUS
  0
LINE
  8
WHITE
 10
13.171232
 20
12.168527
 30
0.000000
 11
13.202936
 21
12.143869
 31
0.000000
  6
CONTINUOUS
  0
LINE
  8
WHITE
 10
13.202936
 20
12.143869
 30
0.000000
 11
13.503265
 21
11.996687
 31
0.000000
  6
CONTINUOUS
  0
ARC
  8
WHITE
 10
13.528700
 20
12.027946
 30
0.000000
 40
0.040300
 50
-129.134755
 51
46.914417
  6
CONTINUOUS
  0
LINE
  8
WHITE
 10
13.556228
 20
12.057378
 30
0.000000
 11
13.361923
 21
12.385964
 31
0.000000
  6
CONTINUOUS
  0
ARC
  8
WHITE
 10
13.222689
 20
12.345057
 30
0.000000
 40
0.145119
 50
16.372807
 51
62.782121
  6
CONTINUOUS
  0
LINE
  8
WHITE
 10
13.289063
 20
12.474108
 30
0.000000
 11
12.695083
 21
14.113097
 31
0.000000
  6
CONTINUOUS
  0
LINE
  8
WHITE
 10
12.695083
 20
14.113097
 30
0.000000
 11
12.665386
 21
14.287602
 31
0.000000
  6
CONTINUOUS
  0
LINE
  8
WHITE
 10
12.665386
 20
14.287602
 30
0.000000
 11
12.627490
 21
14.740805
 31
0.000000
  6
CONTINUOUS
  0
LINE
  8
WHITE
 10
12.627490
 20
14.740805
 30
0.000000
 11
12.619414
 21
14.763688
 31
0.000000
  6
CONTINUOUS
  0
LINE
  8
WHITE
 10
12.619414
 20
14.763688
 30
0.000000
 11
12.603307
 21
14.981872
 31
0.000000
  6
CONTINUOUS
  0
LINE
  8
WHITE
 10
12.603307
 20
14.981872
 30
0.000000
 11
12.600654
 21
15.241114
 31
0.000000
  6
CONTINUOUS
  0
LINE
  8
WHITE
 10
12.600654
 20
15.241114
 30
0.000000
 11
12.588083
 21
15.329108
 31
0.000000
  6
CONTINUOUS
  0
LINE
  8
WHITE
 10
12.588083
 20
15.329108
 30
0.000000
 11
12.600769
 21
15.362937
 31
0.000000
  6
CONTINUOUS
  0
LINE
  8
WHITE
 10
12.600769
 20
15.362937
 30
0.000000
 11
12.600769
 21
15.628491
 31
0.000000
  6
CONTINUOUS
  0
LINE
  8
WHITE
 10
12.600769
 20
15.628491
 30
0.000000
 11
12.595490
 21
15.649422
 31
0.000000
  6
CONTINUOUS
  0
ARC
  8
WHITE
 10
12.731357
 20
15.697688
 30
0.000000
 40
0.144185
 50
121.839146
 51
199.557301
  6
CONTINUOUS
  0
ARC
  8
WHITE
 10
12.631132
 20
15.684044
 30
0.000000
 40
0.138261
 50
19.172938
 51
79.935477
  6
CONTINUOUS
  0
LINE
  8
WHITE
 10
12.761725
 20
15.729452
 30
0.000000
 11
12.787354
 21
15.657440
 31
0.000000
  6
CONTINUOUS
  0
ARC
  8
WHITE
 10
13.248300
 20
15.629785
 30
0.000000
 40
0.461775
 50
176.566588
 51
206.683246
  6
CONTINUOUS
  0
LINE
  8
WHITE
 10
12.835704
 20
15.422422
 30
0.000000
 11
12.859975
 21
15.422421
 31
0.000000
  6
CONTINUOUS
  0
LINE
  8
WHITE
 10
12.859975
 20
15.422421
 30
0.000000
 11
12.912217
 21
15.454220
 31
0.000000
  6
CONTINUOUS
  0
LINE
  8
WHITE
 10
12.912217
 20
15.454220
 30
0.000000
 11
12.922873
 21
15.528815
 31
0.000000
  6
CONTINUOUS
  0
LINE
  8
WHITE
 10
12.922873
 20
15.528815
 30
0.000000
 11
12.883532
 21
15.708963
 31
0.000000
  6
CONTINUOUS
  0
LINE
  8
WHITE
 10
12.883532
 20
15.708963
 30
0.000000
 11
12.881226
 21
15.795066
 31
0.000000
  6
CONTINUOUS
  0
ARC
  8
WHITE
 10
13.050550
 20
15.799150
 30
0.000000
 40
0.169373
 50
109.227120
 51
181.381674
  6
CONTINUOUS
  0
LINE
  8
WHITE
 10
12.994773
 20
15.959075
 30
0.000000
 11
13.040885
 21
15.915159
 31
0.000000
  6
CONTINUOUS
  0
LINE
  8
WHITE
 10
13.040885
 20
15.915159
 30
0.000000
 11
13.101740
 21
15.634394
 31
0.000000
  6
CONTINUOUS
  0
ARC
  8
WHITE
 10
13.172228
 20
15.645772
 30
0.000000
 40
0.071400
 50
-170.830549
 51
-59.920580
  6
CONTINUOUS
  0
LINE
  8
WHITE
 10
13.208014
 20
15.583987
 30
0.000000
 11
13.222155
 21
15.677319
 31
0.000000
  6
CONTINUOUS
  0
ARC
  8
WHITE
 10
13.390051
 20
15.705738
 30
0.000000
 40
0.170284
 50
113.686680
 51
189.607139
  6
CONTINUOUS
  0
LINE
  8
WHITE
 10
13.321642
 20
15.861678
 30
0.000000
 11
13.348552
 21
15.848223
 31
0.000000
  6
CONTINUOUS
  0
LINE
  8
WHITE
 10
13.348552
 20
15.848223
 30
0.000000
 11
13.394272
 21
15.802502
 31
0.000000
  6
CONTINUOUS
  0
LINE
  8
WHITE
 10
13.394272
 20
15.802502
 30
0.000000
 11
13.411209
 21
15.766934
 31
0.000000
  6
CONTINUOUS
  0
LINE
  8
WHITE
 10
13.411209
 20
15.766934
 30
0.000000
 11
13.423673
 21
15.590451
 31
0.000000
  6
CONTINUOUS
  0
LINE
  8
WHITE
 10
13.423673
 20
15.590451
 30
0.000000
 11
13.408643
 21
15.485524
 31
0.000000
  6
CONTINUOUS
  0
LINE
  8
WHITE
 10
13.408643
 20
15.485524
 30
0.000000
 11
13.385328
 21
15.186011
 31
0.000000
  6
CONTINUOUS
  0
LINE
  8
WHITE
 10
13.385328
 20
15.186011
 30
0.000000
 11
13.398216
 21
15.149921
 31
0.000000
  6
CONTINUOUS
  0
LINE
  8
WHITE
 10
13.398216
 20
15.149921
 30
0.000000
 11
13.390110
 21
15.085068
 31
0.000000
  6
CONTINUOUS
  0
LINE
  8
WHITE
 10
13.390110
 20
15.085068
 30
0.000000
 11
13.374674
 21
15.043903
 31
0.000000
  6
CONTINUOUS
  0
LINE
  8
WHITE
 10
13.374674
 20
15.043903
 30
0.000000
 11
13.404871
 21
14.939730
 31
0.000000
  6
CONTINUOUS
  0
LINE
  8
WHITE
 10
13.404871
 20
14.939730
 30
0.000000
 11
13.426198
 21
14.906771
 31
0.000000
  6
CONTINUOUS
  0
LINE
  8
WHITE
 10
13.426198
 20
14.906771
 30
0.000000
 11
13.426198
 21
14.854101
 31
0.000000
  6
CONTINUOUS
  0
LINE
  8
WHITE
 10
13.426198
 20
14.854101
 30
0.000000
 11
13.351000
 21
14.632611
 31
0.000000
  6
CONTINUOUS
  0
LINE
  8
WHITE
 10
13.351000
 20
14.632611
 30
0.000000
 11
13.351000
 21
14.545471
 31
0.000000
  6
CONTINUOUS
  0
LINE
  8
WHITE
 10
13.351000
 20
14.545471
 30
0.000000
 11
13.340955
 21
14.511321
 31
0.000000
  6
CONTINUOUS
  0
LINE
  8
WHITE
 10
13.340955
 20
14.511321
 30
0.000000
 11
13.351000
 21
14.180033
 31
0.000000
  6
CONTINUOUS
  0
LINE
  8
WHITE
 10
13.351000
 20
14.180033
 30
0.000000
 11
13.368166
 21
14.150850
 31
0.000000
  6
CONTINUOUS
  0
LINE
  8
WHITE
 10
13.368166
 20
14.150850
 30
0.000000
 11
13.427540
 21
14.145612
 31
0.000000
  6
CONTINUOUS
  0
LINE
  8
WHITE
 10
13.427540
 20
14.145612
 30
0.000000
 11
13.456487
 21
14.172492
 31
0.000000
  6
CONTINUOUS
  0
LINE
  8
WHITE
 10
13.456487
 20
14.172492
 30
0.000000
 11
13.474016
 21
14.260137
 31
0.000000
  6
CONTINUOUS
  0
LINE
  8
WHITE
 10
13.474016
 20
14.260137
 30
0.000000
 11
13.459698
 21
14.552004
 31
0.000000
  6
CONTINUOUS
  0
LINE
  8
WHITE
 10
13.459698
 20
14.552004
 30
0.000000
 11
13.493066
 21
14.674085
 31
0.000000
  6
CONTINUOUS
  0
LINE
  8
WHITE
 10
13.493066
 20
14.674085
 30
0.000000
 11
13.543521
 21
14.922063
 31
0.000000
  6
CONTINUOUS
  0
LINE
  8
WHITE
 10
13.543521
 20
14.922063
 30
0.000000
 11
13.555539
 21
14.953309
 31
0.000000
  6
CONTINUOUS
  0
ARC
  8
WHITE
 10
14.318614
 20
14.794768
 30
0.000000
 40
0.779371
 50
140.859975
 51
168.262871
  6
CONTINUOUS
  0
LINE
  8
WHITE
 10
13.714129
 20
15.286721
 30
0.000000
 11
13.750914
 21
15.286721
 31
0.000000
  6
CONTINUOUS
  0
LINE
  8
WHITE
 10
13.750914
 20
15.286721
 30
0.000000
 11
13.783090
 21
15.254545
 31
0.000000
  6
CONTINUOUS
  0
ARC
  8
WHITE
 10
13.043793
 20
15.187705
 30
0.000000
 40
0.742312
 50
-21.962194
 51
5.166078
  6
CONTINUOUS
  0
LINE
  8
WHITE
 10
13.732236
 20
14.910084
 30
0.000000
 11
13.732236
 21
14.878368
 31
0.000000
  6
CONTINUOUS
  0
ARC
  8
WHITE
 10
14.794479
 20
14.475976
 30
0.000000
 40
1.135905
 50
159.252635
 51
189.934884
  6
CONTINUOUS
  0
ARC
  8
WHITE
 10
14.350186
 20
14.253226
 30
0.000000
 40
0.675110
 50
177.727157
 51
205.563258
  6
CONTINUOUS
  0
LINE
  8
WHITE
 10
13.741163
 20
13.961911
 30
0.000000
 11
13.767546
 21
13.935529
 31
0.000000
  6
CONTINUOUS
  0
LINE
  8
WHITE
 10
13.767546
 20
13.935529
 30
0.000000
 11
13.793712
 21
13.927352
 31
0.000000
  6
CONTINUOUS
  0
LINE
  8
WHITE
 10
13.793712
 20
13.927352
 30
0.000000
 11
13.812283
 21
13.927352
 31
0.000000
  6
CONTINUOUS
  0
ARC
  8
WHITE
 10
13.766341
 20
14.085809
 30
0.000000
 40
0.164983
 50
-73.831353
 51
-9.187678
  6
CONTINUOUS
  0
LINE
  8
WHITE
 10
13.929207
 20
14.059466
 30
0.000000
 11
13.946355
 21
14.172502
 31
0.000000
  6
CONTINUOUS
  0
LINE
  8
WHITE
 10
13.946355
 20
14.172502
 30
0.000000
 11
13.973060
 21
14.244984
 31
0.000000
  6
CONTINUOUS
  0
ARC
  8
WHITE
 10
13.921857
 20
14.251884
 30
0.000000
 40
0.051666
 50
-7.674815
 51
7.145346
  6
CONTINUOUS
  0
ARC
  8
WHITE
 10
14.996813
 20
14.158664
 30
0.000000
 40
1.028530
 50
140.302796
 51
174.440318
  6
CONTINUOUS
  0
LINE
  8
WHITE
 10
14.205431
 20
14.815617
 30
0.000000
 11
14.253734
 21
14.831718
 31
0.000000
  6
CONTINUOUS
  0
LINE
  8
WHITE
 10
14.253734
 20
14.831718
 30
0.000000
 11
14.272177
 21
14.826185
 31
0.000000
  6
CONTINUOUS
  0
LINE
  8
WHITE
 10
14.272177
 20
14.826185
 30
0.000000
 11
14.308370
 21
14.773706
 31
0.000000
  6
CONTINUOUS
  0
LINE
  8
WHITE
 10
14.308370
 20
14.773706
 30
0.000000
 11
14.297558
 21
14.581004
 31
0.000000
  6
CONTINUOUS
  0
LINE
  8
WHITE
 10
14.297558
 20
14.581004
 30
0.000000
 11
14.276706
 21
14.537908
 31
0.000000
  6
CONTINUOUS
  0
LINE
  8
WHITE
 10
14.276706
 20
14.537908
 30
0.000000
 11
14.123784
 21
13.961815
 31
0.000000
  6
CONTINUOUS
  0
ARC
  8
WHITE
 10
15.700158
 20
13.529749
 30
0.000000
 40
1.634514
 50
164.672313
 51
179.652393
  6
CONTINUOUS
  0
LINE
  8
WHITE
 10
14.065675
 20
13.539665
 30
0.000000
 11
14.064506
 21
13.487531
 31
0.000000
  6
CONTINUOUS
  0
LINE
  8
WHITE
 10
14.064506
 20
13.487531
 30
0.000000
 11
14.054779
 21
13.458346
 31
0.000000
  6
CONTINUOUS
  0
LINE
  8
WHITE
 10
14.054779
 20
13.458346
 30
0.000000
 11
14.062477
 21
13.339758
 31
0.000000
  6
CONTINUOUS
  0
LINE
  8
WHITE
 10
14.062477
 20
13.339758
 30
0.000000
 11
14.064506
 21
13.152922
 31
0.000000
  6
CONTINUOUS
  0
LINE
  8
WHITE
 10
14.064506
 20
13.152922
 30
0.000000
 11
14.104182
 21
13.086486
 31
0.000000
  6
CONTINUOUS
  0
ARC
  8
WHITE
 10
14.186945
 20
13.135334
 30
0.000000
 40
0.096103
 50
-149.450240
 51
-19.594915
  6
CONTINUOUS
  0
ARC
  8
WHITE
 10
18.017072
 20
11.935431
 30
0.000000
 40
3.917651
 50
135.495855
 51
162.659217
  6
CONTINUOUS
  0
LINE
  8
WHITE
 10
15.223004
 20
14.681551
 30
0.000000
 11
15.354123
 21
14.768943
 31
0.000000
  6
CONTINUOUS
  0
LINE
  8
WHITE
 10
15.354123
 20
14.768943
 30
0.000000
 11
15.396896
 21
14.755435
 31
0.000000
  6
CONTINUOUS
  0
ARC
  8
WHITE
 10
15.325218
 20
14.637986
 30
0.000000
 40
0.137594
 50
-28.331461
 51
58.604683
  6
CONTINUOUS
  0
ARC
  8
WHITE
 10
15.623195
 20
14.442203
 30
0.000000
 40
0.219789
 50
143.581308
 51
166.384940
  6
CONTINUOUS
  0
ARC
  8
WHITE
 10
17.666872
 20
12.333234
 30
0.000000
 40
3.124742
 50
136.252358
 51
184.548848
  6
CONTINUOUS
  0
ARC
  8
WHITE
 10
16.989147
 20
12.239905
 30
0.000000
 40
2.442066
 50
-176.372905
 51
-152.025373
  6
CONTINUOUS
  0
ARC
  8
WHITE
 10
15.380447
 20
11.346103
 30
0.000000
 40
0.603071
 50
-155.329279
 51
-115.565809
  6
CONTINUOUS
  0
LINE
  8
WHITE
 10
15.120193
 20
10.802079
 30
0.000000
 11
15.330272
 21
10.805588
 31
0.000000
  6
CONTINUOUS
  0
ARC
  8
WHITE
 10
15.315842
 20
11.012222
 30
0.000000
 40
0.207137
 50
-86.005314
 51
-47.647045
  6
CONTINUOUS
  0
LINE
  8
WHITE
 10
15.455390
 20
10.859145
 30
0.000000
 11
15.461339
 21
10.890869
 31
0.000000
  6
CONTINUOUS
  0
LINE
  8
WHITE
 10
15.461339
 20
10.890869
 30
0.000000
 11
15.439245
 21
10.938457
 31
0.000000
  6
CONTINUOUS
  0
LINE
  8
WHITE
 10
15.439245
 20
10.938457
 30
0.000000
 11
15.388853
 21
10.982347
 31
0.000000
  6
CONTINUOUS
  0
LINE
  8
WHITE
 10
15.388853
 20
10.982347
 30
0.000000
 11
15.346033
 21
11.036602
 31
0.000000
  6
CONTINUOUS
  0
LINE
  8
WHITE
 10
15.346033
 20
11.036602
 30
0.000000
 11
15.245976
 21
11.140435
 31
0.000000
  6
CONTINUOUS
  0
LINE
  8
WHITE
 10
15.245976
 20
11.140435
 30
0.000000
 11
15.131980
 21
11.289116
 31
0.000000
  6
CONTINUOUS
  0
LINE
  8
WHITE
 10
15.131980
 20
11.289116
 30
0.000000
 11
15.055440
 21
11.420343
 31
0.000000
  6
CONTINUOUS
  0
LINE
  8
WHITE
 10
15.055440
 20
11.420343
 30
0.000000
 11
15.022510
 21
11.586807
 31
0.000000
  6
CONTINUOUS
  0
LINE
  8
WHITE
 10
15.022510
 20
11.586807
 30
0.000000
 11
14.991199
 21
11.984867
 31
0.000000
  6
CONTINUOUS
  0
LINE
  8
WHITE
 10
14.991199
 20
11.984867
 30
0.000000
 11
15.016982
 21
12.033210
 31
0.000000
  6
CONTINUOUS
  0
ARC
  8
WHITE
 10
15.120828
 20
11.773226
 30
0.000000
 40
0.279957
 50
67.624404
 51
111.773362
  6
CONTINUOUS
  0
ARC
  8
WHITE
 10
15.279372
 20
11.703520
 30
0.000000
 40
0.332669
 50
63.641042
 51
98.987795
  6
CONTINUOUS
  0
LINE
  8
WHITE
 10
15.427075
 20
12.001601
 30
0.000000
 11
15.474139
 21
11.993044
 31
0.000000
  6
CONTINUOUS
  0
LINE
  8
WHITE
 10
15.474139
 20
11.993044
 30
0.000000
 11
15.631526
 21
11.919503
 31
0.000000
  6
CONTINUOUS
  0
ARC
  8
WHITE
 10
15.748815
 20
12.184858
 30
0.000000
 40
0.290121
 50
-113.845806
 51
-73.953725
  6
CONTINUOUS
  0
LINE
  8
WHITE
 10
15.829008
 20
11.906040
 30
0.000000
 11
15.871006
 21
11.988358
 31
0.000000
  6
CONTINUOUS
  0
LINE
  8
WHITE
 10
15.871006
 20
11.988358
 30
0.000000
 11
15.871006
 21
12.028271
 31
0.000000
  6
CONTINUOUS
  0
LINE
  8
WHITE
 10
15.871006
 20
12.028271
 30
0.000000
 11
15.898328
 21
12.086330
 31
0.000000
  6
CONTINUOUS
  0
LINE
  8
WHITE
 10
15.898328
 20
12.086330
 30
0.000000
 11
15.900295
 21
12.119751
 31
0.000000
  6
CONTINUOUS
  0
LINE
  8
WHITE
 10
15.900295
 20
12.119751
 30
0.000000
 11
15.949919
 21
12.216015
 31
0.000000
  6
CONTINUOUS
  0
LINE
  8
WHITE
 10
15.949919
 20
12.216015
 30
0.000000
 11
15.971429
 21
12.216015
 31
0.000000
  6
CONTINUOUS
  0
LINE
  8
WHITE
 10
15.971429
 20
12.216015
 30
0.000000
 11
15.993422
 21
12.160186
 31
0.000000
  6
CONTINUOUS
  0
LINE
  8
WHITE
 10
15.993422
 20
12.160186
 30
0.000000
 11
15.993422
 21
12.040749
 31
0.000000
  6
CONTINUOUS
  0
LINE
  8
WHITE
 10
15.993422
 20
12.040749
 30
0.000000
 11
15.977073
 21
11.914041
 31
0.000000
  6
CONTINUOUS
  0
LINE
  8
WHITE
 10
15.977073
 20
11.914041
 30
0.000000
 11
15.987788
 21
11.879216
 31
0.000000
  6
CONTINUOUS
  0
ARC
  8
WHITE
 10
16.224194
 20
11.782965
 30
0.000000
 40
0.255249
 50
157.846658
 51
182.080422
  6
CONTINUOUS
  0
LINE
  8
WHITE
 10
15.969113
 20
11.773699
 30
0.000000
 11
15.960092
 21
11.434401
 31
0.000000
  6
CONTINUOUS
  0
LINE
  8
WHITE
 10
15.960092
 20
11.434401
 30
0.000000
 11
15.977182
 21
11.404018
 31
0.000000
  6
CONTINUOUS
  0
LINE
  8
WHITE
 10
15.977182
 20
11.404018
 30
0.000000
 11
15.997206
 21
11.387332
 31
0.000000
  6
CONTINUOUS
  0
LINE
  8
WHITE
 10
15.997206
 20
11.387332
 30
0.000000
 11
16.032681
 21
11.389105
 31
0.000000
  6
CONTINUOUS
  0
LINE
  8
WHITE
 10
16.032681
 20
11.389105
 30
0.000000
 11
16.052988
 21
11.410975
 31
0.000000
  6
CONTINUOUS
  0
LINE
  8
WHITE
 10
16.052988
 20
11.410975
 30
0.000000
 11
16.069450
 21
11.462711
 31
0.000000
  6
CONTINUOUS
  0
LINE
  8
WHITE
 10
16.069450
 20
11.462711
 30
0.000000
 11
16.077845
 21
11.616185
 31
0.000000
  6
CONTINUOUS
  0
ARC
  8
WHITE
 10
16.097389
 20
11.620140
 30
0.000000
 40
0.019940
 50
59.325132
 51
191.440105
  6
CONTINUOUS
  0
LINE
  8
WHITE
 10
16.107561
 20
11.637289
 30
0.000000
 11
16.153079
 21
11.608629
 31
0.000000
  6
CONTINUOUS
  0
LINE
  8
WHITE
 10
16.153079
 20
11.608629
 30
0.000000
 11
16.331257
 21
11.305596
 31
0.000000
  6
CONTINUOUS
  0
LINE
  8
WHITE
 10
16.331257
 20
11.305596
 30
0.000000
 11
16.384170
 21
11.277881
 31
0.000000
  6
CONTINUOUS
  0
ARC
  8
WHITE
 10
16.334535
 20
11.611923
 30
0.000000
 40
0.337709
 50
-81.548311
 51
-48.253153
  6
CONTINUOUS
  0
LINE
  8
WHITE
 10
16.559396
 20
11.359960
 30
0.000000
 11
16.698001
 21
11.483071
 31
0.000000
  6
CONTINUOUS
  0
ARC
  8
WHITE
 10
15.520712
 20
12.605186
 30
0.000000
 40
1.626392
 50
-43.625456
 51
-28.342213
  6
CONTINUOUS
  0
LINE
  8
WHITE
 10
16.952145
 20
11.833078
 30
0.000000
 11
17.047894
 21
12.068924
 31
0.000000
  6
CONTINUOUS
  0
ARC
  8
WHITE
 10
14.173013
 20
12.602707
 30
0.000000
 40
2.924015
 50
-10.518406
 51
1.142001
  6
CONTINUOUS
  0
LINE
  8
WHITE
 10
17.096447
 20
12.660984
 30
0.000000
 11
17.116363
 21
12.855288
 31
0.000000
  6
CONTINUOUS
  0
LINE
  8
WHITE
 10
17.116363
 20
12.855288
 30
0.000000
 11
17.150446
 21
12.963923
 31
0.000000
  6
CONTINUOUS
  0
ARC
  8
WHITE
 10
17.183408
 20
12.945297
 30
0.000000
 40
0.037861
 50
0.791877
 51
150.530297
  6
CONTINUOUS
  0
LINE
  8
WHITE
 10
17.221265
 20
12.945820
 30
0.000000
 11
17.233966
 21
12.886548
 31
0.000000
  6
CONTINUOUS
  0
LINE
  8
WHITE
 10
17.233966
 20
12.886548
 30
0.000000
 11
17.226532
 21
12.840083
 31
0.000000
  6
CONTINUOUS
  0
LINE
  8
WHITE
 10
17.226532
 20
12.840083
 30
0.000000
 11
17.250274
 21
12.644507
 31
0.000000
  6
CONTINUOUS
  0
LINE
  8
WHITE
 10
17.250274
 20
12.644507
 30
0.000000
 11
17.270038
 21
12.592623
 31
0.000000
  6
CONTINUOUS
  0
LINE
  8
WHITE
 10
17.270038
 20
12.592623
 30
0.000000
 11
17.289670
 21
12.438284
 31
0.000000
  6
CONTINUOUS
  0
LINE
  8
WHITE
 10
17.289670
 20
12.438284
 30
0.000000
 11
17.291475
 21
12.047740
 31
0.000000
  6
CONTINUOUS
  0
LINE
  8
WHITE
 10
17.291475
 20
12.047740
 30
0.000000
 11
17.279531
 21
12.007925
 31
0.000000
  6
CONTINUOUS
  0
ARC
  8
WHITE
 10
17.074203
 20
11.967012
 30
0.000000
 40
0.209364
 50
-38.261019
 51
11.268982
  6
CONTINUOUS
  0
LINE
  8
WHITE
 10
17.238596
 20
11.837364
 30
0.000000
 11
17.233189
 21
11.785109
 31
0.000000
  6
CONTINUOUS
  0
LINE
  8
WHITE
 10
17.233189
 20
11.785109
 30
0.000000
 11
17.060404
 21
11.484672
 31
0.000000
  6
CONTINUOUS
  0
LINE
  8
WHITE
 10
17.060404
 20
11.484672
 30
0.000000
 11
16.974493
 21
11.286973
 31
0.000000
  6
CONTINUOUS
  0
LINE
  8
WHITE
 10
16.974493
 20
11.286973
 30
0.000000
 11
16.974493
 21
11.213910
 31
0.000000
  6
CONTINUOUS
  0
LINE
  8
WHITE
 10
16.974493
 20
11.213910
 30
0.000000
 11
16.985510
 21
11.193714
 31
0.000000
  6
CONTINUOUS
  0
LINE
  8
WHITE
 10
16.985510
 20
11.193714
 30
0.000000
 11
17.016911
 21
11.181751
 31
0.000000
  6
CONTINUOUS
  0
LINE
  8
WHITE
 10
17.016911
 20
11.181751
 30
0.000000
 11
17.189765
 21
11.181751
 31
0.000000
  6
CONTINUOUS
  0
LINE
  8
WHITE
 10
17.189765
 20
11.181751
 30
0.000000
 11
17.260425
 21
11.229929
 31
0.000000
  6
CONTINUOUS
  0
LINE
  8
WHITE
 10
17.260425
 20
11.229929
 30
0.000000
 11
17.330674
 21
11.251543
 31
0.000000
  6
CONTINUOUS
  0
LINE
  8
WHITE
 10
17.330674
 20
11.251543
 30
0.000000
 11
17.393033
 21
11.305201
 31
0.000000
  6
CONTINUOUS
  0
LINE
  8
WHITE
 10
17.393033
 20
11.305201
 30
0.000000
 11
17.575021
 21
11.432606
 31
0.000000
  6
CONTINUOUS
  0
LINE
  8
WHITE
 10
17.575021
 20
11.432606
 30
0.000000
 11
17.580747
 21
11.451690
 31
0.000000
  6
CONTINUOUS
  0
LINE
  8
WHITE
 10
17.580747
 20
11.451690
 30
0.000000
 11
17.601178
 21
11.466744
 31
0.000000
  6
CONTINUOUS
  0
LINE
  8
WHITE
 10
17.601178
 20
11.466744
 30
0.000000
 11
17.679812
 21
11.561569
 31
0.000000
  6
CONTINUOUS
  0
LINE
  8
WHITE
 10
17.679812
 20
11.561569
 30
0.000000
 11
17.693427
 21
11.593746
 31
0.000000
  6
CONTINUOUS
  0
LINE
  8
WHITE
 10
17.693427
 20
11.593746
 30
0.000000
 11
17.737016
 21
11.641299
 31
0.000000
  6
CONTINUOUS
  0
ARC
  8
WHITE
 10
17.919960
 20
11.581179
 30
0.000000
 40
0.192569
 50
113.983436
 51
161.808176
  6
CONTINUOUS
  0
LINE
  8
WHITE
 10
17.841686
 20
11.757122
 30
0.000000
 11
17.864055
 21
11.741635
 31
0.000000
  6
CONTINUOUS
  0
LINE
  8
WHITE
 10
17.864055
 20
11.741635
 30
0.000000
 11
17.870473
 21
11.715966
 31
0.000000
  6
CONTINUOUS
  0
ARC
  8
WHITE
 10
17.526169
 20
11.748640
 30
0.000000
 40
0.345851
 50
-39.171097
 51
-5.421060
  6
CONTINUOUS
  0
ARC
  8
WHITE
 10
17.865189
 20
11.471360
 30
0.000000
 40
0.092124
 50
140.314570
 51
266.480961
  6
CONTINUOUS
  0
LINE
  8
WHITE
 10
17.859534
 20
11.379411
 30
0.000000
 11
18.075547
 21
11.376005
 31
0.000000
  6
CONTINUOUS
  0
LINE
  8
WHITE
 10
18.075547
 20
11.376005
 30
0.000000
 11
18.134692
 21
11.424712
 31
0.000000
  6
CONTINUOUS
  0
ARC
  8
WHITE
 10
17.187548
 20
12.985962
 30
0.000000
 40
1.826084
 50
-58.756592
 51
-39.097303
  6
CONTINUOUS
  0
LINE
  8
WHITE
 10
18.604728
 20
11.834362
 30
0.000000
 11
18.729053
 21
12.005116
 31
0.000000
  6
CONTINUOUS
  0
LINE
  8
WHITE
 10
18.729053
 20
12.005116
 30
0.000000
 11
18.792439
 21
12.117710
 31
0.000000
  6
CONTINUOUS
  0
ARC
  8
WHITE
 10
18.930515
 20
12.085696
 30
0.000000
 40
0.141739
 50
144.975117
 51
166.946180
  6
CONTINUOUS
  0
ARC
  8
WHITE
 10
18.791700
 20
12.189788
 30
0.000000
 40
0.032164
 50
-44.998933
 51
123.300597
  6
CONTINUOUS
  0
LINE
  8
WHITE
 10
18.774040
 20
12.216672
 30
0.000000
 11
18.677044
 21
12.123479
 31
0.000000
  6
CONTINUOUS
  0
ARC
  8
WHITE
 10
17.445073
 20
12.762052
 30
0.000000
 40
1.387634
 50
-48.106020
 51
-27.399263
  6
CONTINUOUS
  0
LINE
  8
WHITE
 10
18.371672
 20
11.729122
 30
0.000000
 11
18.343122
 21
11.729123
 31
0.000000
  6
CONTINUOUS
  0
LINE
  8
WHITE
 10
18.343122
 20
11.729123
 30
0.000000
 11
18.318990
 21
11.745713
 31
0.000000
  6
CONTINUOUS
  0
LINE
  8
WHITE
 10
18.318990
 20
11.745713
 30
0.000000
 11
18.249007
 21
11.953276
 31
0.000000
  6
CONTINUOUS
  0
LINE
  8
WHITE
 10
18.249007
 20
11.953276
 30
0.000000
 11
18.240979
 21
11.994683
 31
0.000000
  6
CONTINUOUS
  0
LINE
  8
WHITE
 10
18.240979
 20
11.994683
 30
0.000000
 11
18.161841
 21
12.246481
 31
0.000000
  6
CONTINUOUS
  0
LINE
  8
WHITE
 10
18.161841
 20
12.246481
 30
0.000000
 11
18.151717
 21
12.331527
 31
0.000000
  6
CONTINUOUS
  0
LINE
  8
WHITE
 10
18.151717
 20
12.331527
 30
0.000000
 11
18.118164
 21
12.401828
 31
0.000000
  6
CONTINUOUS
  0
LINE
  8
WHITE
 10
18.118164
 20
12.401828
 30
0.000000
 11
18.052145
 21
12.631863
 31
0.000000
  6
CONTINUOUS
  0
LINE
  8
WHITE
 10
18.052145
 20
12.631863
 30
0.000000
 11
18.033006
 21
12.655104
 31
0.000000
  6
CONTINUOUS
  0
LINE
  8
WHITE
 10
18.033006
 20
12.655104
 30
0.000000
 11
17.988286
 21
12.796934
 31
0.000000
  6
CONTINUOUS
  0
LINE
  8
WHITE
 10
17.988286
 20
12.796934
 30
0.000000
 11
17.920339
 21
12.936757
 31
0.000000
  6
CONTINUOUS
  0
ARC
  8
WHITE
 10
19.211467
 20
13.813971
 30
0.000000
 40
1.560934
 50
-170.569782
 51
-145.807155
  6
CONTINUOUS
  0
ARC
  8
WHITE
 10
17.753711
 20
13.544909
 30
0.000000
 40
0.083155
 50
36.739546
 51
170.790344
  6
CONTINUOUS
  0
LINE
  8
WHITE
 10
17.820349
 20
13.594651
 30
0.000000
 11
17.913829
 21
13.508226
 31
0.000000
  6
CONTINUOUS
  0
LINE
  8
WHITE
 10
17.913829
 20
13.508226
 30
0.000000
 11
18.028473
 21
13.336502
 31
0.000000
  6
CONTINUOUS
  0
ARC
  8
WHITE
 10
18.143935
 20
13.413494
 30
0.000000
 40
0.138778
 50
-146.303978
 51
4.796052
  6
CONTINUOUS
  0
LINE
  8
WHITE
 10
18.282226
 20
13.425097
 30
0.000000
 11
18.266845
 21
13.621175
 31
0.000000
  6
CONTINUOUS
  0
ARC
  8
WHITE
 10
18.437899
 20
13.635156
 30
0.000000
 40
0.171624
 50
109.640294
 51
184.672651
  6
CONTINUOUS
  0
ARC
  8
WHITE
 10
18.357634
 20
13.548241
 30
0.000000
 40
0.249578
 50
38.198201
 51
84.809243
  6
CONTINUOUS
  0
LINE
  8
WHITE
 10
18.553772
 20
13.702577
 30
0.000000
 11
18.665597
 21
13.553437
 31
0.000000
  6
CONTINUOUS
  0
ARC
  8
WHITE
 10
18.813373
 20
13.662835
 30
0.000000
 40
0.183863
 50
-143.487597
 51
-59.768223
  6
CONTINUOUS
  0
LINE
  8
WHITE
 10
18.905948
 20
13.503978
 30
0.000000
 11
18.956777
 21
13.576378
 31
0.000000
  6
CONTINUOUS
  0
LINE
  8
WHITE
 10
18.956777
 20
13.576378
 30
0.000000
 11
19.025526
 21
13.846061
 31
0.000000
  6
CONTINUOUS
  0
LINE
  8
WHITE
 10
19.025526
 20
13.846061
 30
0.000000
 11
19.060734
 21
13.905359
 31
0.000000
  6
CONTINUOUS
  0
ARC
  8
WHITE
 10
19.085238
 20
13.739642
 30
0.000000
 40
0.167519
 50
-5.972623
 51
98.411180
  6
CONTINUOUS
  0
ARC
  8
WHITE
 10
19.571386
 20
13.690109
 30
0.000000
 40
0.321147
 50
174.263085
 51
225.201848
  6
CONTINUOUS
  0
LINE
  8
WHITE
 10
19.345102
 20
13.462225
 30
0.000000
 11
19.374034
 21
13.442937
 31
0.000000
  6
CONTINUOUS
  0
LINE
  8
WHITE
 10
19.374034
 20
13.442937
 30
0.000000
 11
19.478994
 21
13.442937
 31
0.000000
  6
CONTINUOUS
  0
LINE
  8
WHITE
 10
19.478994
 20
13.442937
 30
0.000000
 11
19.507835
 21
13.456396
 31
0.000000
  6
CONTINUOUS
  0
LINE
  8
WHITE
 10
19.507835
 20
13.456396
 30
0.000000
 11
19.533591
 21
13.483439
 31
0.000000
  6
CONTINUOUS
  0
LINE
  8
WHITE
 10
19.533591
 20
13.483439
 30
0.000000
 11
19.606007
 21
13.621528
 31
0.000000
  6
CONTINUOUS
  0
LINE
  8
WHITE
 10
19.606007
 20
13.621528
 30
0.000000
 11
19.662518
 21
13.649784
 31
0.000000
  6
CONTINUOUS
  0
LINE
  8
WHITE
 10
19.662518
 20
13.649784
 30
0.000000
 11
19.711334
 21
13.624472
 31
0.000000
  6
CONTINUOUS
  0
LINE
  8
WHITE
 10
19.711334
 20
13.624472
 30
0.000000
 11
19.766964
 21
13.505784
 31
0.000000
  6
CONTINUOUS
  0
ARC
  8
WHITE
 10
20.381824
 20
13.455130
 30
0.000000
 40
0.616943
 50
175.290438
 51
201.876807
  6
CONTINUOUS
  0
LINE
  8
WHITE
 10
19.809309
 20
13.225250
 30
0.000000
 11
19.867936
 21
13.185605
 31
0.000000
  6
CONTINUOUS
  0
ARC
  8
WHITE
 10
19.936277
 20
13.287323
 30
0.000000
 40
0.122544
 50
-123.895863
 51
-29.456403
  6
CONTINUOUS
  0
LINE
  8
WHITE
 10
20.042980
 20
13.227061
 30
0.000000
 11
20.131725
 21
13.393808
 31
0.000000
  6
CONTINUOUS
  0
ARC
  8
WHITE
 10
20.193812
 20
13.363641
 30
0.000000
 40
0.069028
 50
43.853363
 51
154.085684
  6
CONTINUOUS
  0
LINE
  8
WHITE
 10
20.243589
 20
13.411465
 30
0.000000
 11
20.292591
 21
13.184121
 31
0.000000
  6
CONTINUOUS
  0
LINE
  8
WHITE
 10
20.292591
 20
13.184121
 30
0.000000
 11
20.285234
 21
13.143655
 31
0.000000
  6
CONTINUOUS
  0
LINE
  8
WHITE
 10
20.285234
 20
13.143655
 30
0.000000
 11
20.295658
 21
13.108212
 31
0.000000
  6
CONTINUOUS
  0
LINE
  8
WHITE
 10
20.295658
 20
13.108212
 30
0.000000
 11
20.276731
 21
13.008307
 31
0.000000
  6
CONTINUOUS
  0
LINE
  8
WHITE
 10
20.276731
 20
13.008307
 30
0.000000
 11
20.338430
 21
12.840465
 31
0.000000
  6
CONTINUOUS
  0
LINE
  8
WHITE
 10
20.338430
 20
12.840465
 30
0.000000
 11
20.434131
 21
12.782295
 31
0.000000
  6
CONTINUOUS
  0
LINE
  8
WHITE
 10
20.434131
 20
12.782295
 30
0.000000
 11
20.541193
 21
12.796688
 31
0.000000
  6
CONTINUOUS
  0
LINE
  8
WHITE
 10
20.541193
 20
12.796688
 30
0.000000
 11
20.575108
 21
12.777053
 31
0.000000
  6
CONTINUOUS
  0
ARC
  8
WHITE
 10
19.544750
 20
12.785912
 30
0.000000
 40
1.030396
 50
-21.354125
 51
-0.492616
  6
CONTINUOUS
  0
LINE
  8
WHITE
 10
20.504407
 20
12.410713
 30
0.000000
 11
20.512898
 21
12.342768
 31
0.000000
  6
CONTINUOUS
  0
LINE
  8
WHITE
 10
20.512898
 20
12.342768
 30
0.000000
 11
20.551267
 21
12.340940
 31
0.000000
  6
CONTINUOUS
  0
LINE
  8
WHITE
 10
20.551267
 20
12.340940
 30
0.000000
 11
20.568292
 21
12.359856
 31
0.000000
  6
CONTINUOUS
  0
LINE
  8
WHITE
 10
20.568292
 20
12.359856
 30
0.000000
 11
20.653947
 21
12.664331
 31
0.000000
  6
CONTINUOUS
  0
LINE
  8
WHITE
 10
20.653947
 20
12.664331
 30
0.000000
 11
20.653947
 21
12.711943
 31
0.000000
  6
CONTINUOUS
  0
LINE
  8
WHITE
 10
20.653947
 20
12.711943
 30
0.000000
 11
20.672156
 21
12.746705
 31
0.000000
  6
CONTINUOUS
  0
LINE
  8
WHITE
 10
20.672156
 20
12.746705
 30
0.000000
 11
20.690672
 21
12.864326
 31
0.000000
  6
CONTINUOUS
  0
LINE
  8
WHITE
 10
20.690672
 20
12.864326
 30
0.000000
 11
20.690672
 21
13.370690
 31
0.000000
  6
CONTINUOUS
  0
LINE
  8
WHITE
 10
20.690672
 20
13.370690
 30
0.000000
 11
20.701164
 21
13.396922
 31
0.000000
  6
CONTINUOUS
  0
LINE
  8
WHITE
 10
20.701164
 20
13.396922
 30
0.000000
 11
20.701164
 21
13.440928
 31
0.000000
  6
CONTINUOUS
  0
LINE
  8
WHITE
 10
20.701164
 20
13.440928
 30
0.000000
 11
20.724308
 21
13.480604
 31
0.000000
  6
CONTINUOUS
  0
LINE
  8
WHITE
 10
20.724308
 20
13.480604
 30
0.000000
 11
20.757252
 21
13.498045
 31
0.000000
  6
CONTINUOUS
  0
LINE
  8
WHITE
 10
20.757252
 20
13.498045
 30
0.000000
 11
20.805878
 21
13.471995
 31
0.000000
  6
CONTINUOUS
  0
LINE
  8
WHITE
 10
20.805878
 20
13.471995
 30
0.000000
 11
20.831871
 21
13.360933
 31
0.000000
  6
CONTINUOUS
  0
LINE
  8
WHITE
 10
20.831871
 20
13.360933
 30
0.000000
 11
20.825479
 21
13.295444
 31
0.000000
  6
CONTINUOUS
  0
ARC
  8
WHITE
 10
20.519575
 20
13.184770
 30
0.000000
 40
0.325309
 50
-12.647927
 51
19.889781
  6
CONTINUOUS
  0
LINE
  8
WHITE
 10
20.836990
 20
13.113541
 30
0.000000
 11
20.870928
 21
13.001118
 31
0.000000
  6
CONTINUOUS
  0
LINE
  8
WHITE
 10
20.870928
 20
13.001118
 30
0.000000
 11
20.856006
 21
12.537302
 31
0.000000
  6
CONTINUOUS
  0
LINE
  8
WHITE
 10
20.856006
 20
12.537302
 30
0.000000
 11
20.839319
 21
12.485385
 31
0.000000
  6
CONTINUOUS
  0
LINE
  8
WHITE
 10
20.839319
 20
12.485385
 30
0.000000
 11
20.839319
 21
12.356895
 31
0.000000
  6
CONTINUOUS
  0
LINE
  8
WHITE
 10
20.839319
 20
12.356895
 30
0.000000
 11
20.833018
 21
12.336734
 31
0.000000
  6
CONTINUOUS
  0
ARC
  8
WHITE
 10
20.420330
 20
12.278122
 30
0.000000
 40
0.416829
 50
-26.350152
 51
8.083370
  6
CONTINUOUS
  0
LINE
  8
WHITE
 10
20.793851
 20
12.093110
 30
0.000000
 11
20.793850
 21
12.046722
 31
0.000000
  6
CONTINUOUS
  0
LINE
  8
WHITE
 10
20.793850
 20
12.046722
 30
0.000000
 11
20.811164
 21
12.015393
 31
0.000000
  6
CONTINUOUS
  0
LINE
  8
WHITE
 10
20.811164
 20
12.015393
 30
0.000000
 11
20.888015
 21
11.920244
 31
0.000000
  6
CONTINUOUS
  0
ARC
  8
WHITE
 10
20.783063
 20
11.100260
 30
0.000000
 40
0.826673
 50
75.995042
 51
82.706213
  6
CONTINUOUS
  0
ARC
  8
WHITE
 10
20.985236
 20
11.862492
 30
0.000000
 40
0.039924
 50
22.724903
 51
93.034253
  6
CONTINUOUS
  0
ARC
  8
WHITE
 10
20.643964
 20
11.828043
 30
0.000000
 40
0.381372
 50
0.303083
 51
7.514082
  6
CONTINUOUS
  0
LINE
  8
WHITE
 10
21.025331
 20
11.830060
 30
0.000000
 11
20.984424
 21
11.787109
 31
0.000000
  6
CONTINUOUS
  0
LINE
  8
WHITE
 10
20.984424
 20
11.787109
 30
0.000000
 11
20.903218
 21
11.608426
 31
0.000000
  6
CONTINUOUS
  0
ARC
  8
WHITE
 10
20.939370
 20
11.586658
 30
0.000000
 40
0.042200
 50
148.946829
 51
297.599552
  6
CONTINUOUS
  0
LINE
  8
WHITE
 10
20.958921
 20
11.549260
 30
0.000000
 11
21.089698
 21
11.818311
 31
0.000000
  6
CONTINUOUS
  0
LINE
  8
WHITE
 10
21.089698
 20
11.818311
 30
0.000000
 11
21.304579
 21
12.211789
 31
0.000000
  6
CONTINUOUS
  0
LINE
  8
WHITE
 10
21.304579
 20
12.211789
 30
0.000000
 11
21.411989
 21
12.434505
 31
0.000000
  6
CONTINUOUS
  0
LINE
  8
WHITE
 10
21.411989
 20
12.434505
 30
0.000000
 11
21.434177
 21
12.513013
 31
0.000000
  6
CONTINUOUS
  0
LINE
  8
WHITE
 10
21.434177
 20
12.513013
 30
0.000000
 11
21.448359
 21
12.533273
 31
0.000000
  6
CONTINUOUS
  0
LINE
  8
WHITE
 10
21.448359
 20
12.533273
 30
0.000000
 11
21.519164
 21
12.725802
 31
0.000000
  6
CONTINUOUS
  0
LINE
  8
WHITE
 10
21.519164
 20
12.725802
 30
0.000000
 11
21.551650
 21
12.756122
 31
0.000000
  6
CONTINUOUS
  0
LINE
  8
WHITE
 10
21.551650
 20
12.756122
 30
0.000000
 11
21.582554
 21
12.767029
 31
0.000000
  6
CONTINUOUS
  0
LINE
  8
WHITE
 10
21.582554
 20
12.767029
 30
0.000000
 11
21.603683
 21
12.756465
 31
0.000000
  6
CONTINUOUS
  0
LINE
  8
WHITE
 10
21.603683
 20
12.756465
 30
0.000000
 11
21.631393
 21
12.717979
 31
0.000000
  6
CONTINUOUS
  0
LINE
  8
WHITE
 10
21.631393
 20
12.717979
 30
0.000000
 11
21.627021
 21
12.599111
 31
0.000000
  6
CONTINUOUS
  0
LINE
  8
WHITE
 10
21.627021
 20
12.599111
 30
0.000000
 11
21.548783
 21
12.371159
 31
0.000000
  6
CONTINUOUS
  0
LINE
  8
WHITE
 10
21.548783
 20
12.371159
 30
0.000000
 11
21.544826
 21
12.342799
 31
0.000000
  6
CONTINUOUS
  0
LINE
  8
WHITE
 10
21.544826
 20
12.342799
 30
0.000000
 11
21.470886
 21
12.147083
 31
0.000000
  6
CONTINUOUS
  0
LINE
  8
WHITE
 10
21.470886
 20
12.147083
 30
0.000000
 11
21.411291
 21
12.010678
 31
0.000000
  6
CONTINUOUS
  0
LINE
  8
WHITE
 10
21.411291
 20
12.010678
 30
0.000000
 11
21.365686
 21
11.883584
 31
0.000000
  6
CONTINUOUS
  0
LINE
  8
WHITE
 10
21.365686
 20
11.883584
 30
0.000000
 11
21.343551
 21
11.857426
 31
0.000000
  6
CONTINUOUS
  0
LINE
  8
WHITE
 10
21.343551
 20
11.857426
 30
0.000000
 11
21.328403
 21
11.788416
 31
0.000000
  6
CONTINUOUS
  0
LINE
  8
WHITE
 10
21.328403
 20
11.788416
 30
0.000000
 11
21.218314
 21
11.547310
 31
0.000000
  6
CONTINUOUS
  0
ARC
  8
WHITE
 10
22.116084
 20
11.133490
 30
0.000000
 40
0.988553
 50
155.253034
 51
177.755879
  6
CONTINUOUS
  0
LINE
  8
WHITE
 10
21.128289
 20
11.172199
 30
0.000000
 11
21.116386
 21
11.142442
 31
0.000000
  6
CONTINUOUS
  0
LINE
  8
WHITE
 10
21.116386
 20
11.142442
 30
0.000000
 11
21.145285
 21
11.034688
 31
0.000000
  6
CONTINUOUS
  0
LINE
  8
WHITE
 10
21.145285
 20
11.034688
 30
0.000000
 11
21.145652
 21
10.913078
 31
0.000000
  6
CONTINUOUS
  0
LINE
  8
WHITE
 10
21.145652
 20
10.913078
 30
0.000000
 11
21.166185
 21
10.884648
 31
0.000000
  6
CONTINUOUS
  0
LINE
  8
WHITE
 10
21.166185
 20
10.884648
 30
0.000000
 11
21.221069
 21
10.858152
 31
0.000000
  6
CONTINUOUS
  0
LINE
  8
WHITE
 10
21.221069
 20
10.858152
 30
0.000000
 11
21.328234
 21
10.858597
 31
0.000000
  6
CONTINUOUS
  0
LINE
  8
WHITE
 10
21.328234
 20
10.858597
 30
0.000000
 11
21.557465
 21
10.974792
 31
0.000000
  6
CONTINUOUS
  0
LINE
  8
WHITE
 10
21.557465
 20
10.974792
 30
0.000000
 11
21.611468
 21
11.016398
 31
0.000000
  6
CONTINUOUS
  0
ARC
  8
WHITE
 10
21.531319
 20
11.123797
 30
0.000000
 40
0.134009
 50
-53.267005
 51
7.977738
  6
CONTINUOUS
  0
LINE
  8
WHITE
 10
21.664031
 20
11.142396
 30
0.000000
 11
21.636767
 21
11.426271
 31
0.000000
  6
CONTINUOUS
  0
LINE
  8
WHITE
 10
21.636767
 20
11.426271
 30
0.000000
 11
21.636767
 21
11.587369
 31
0.000000
  6
CONTINUOUS
  0
LINE
  8
WHITE
 10
21.636767
 20
11.587369
 30
0.000000
 11
21.669885
 21
11.642013
 31
0.000000
  6
CONTINUOUS
  0
LINE
  8
WHITE
 10
21.669885
 20
11.642013
 30
0.000000
 11
21.714732
 21
11.654244
 31
0.000000
  6
CONTINUOUS
  0
ARC
  8
WHITE
 10
21.590658
 20
11.385853
 30
0.000000
 40
0.295682
 50
10.058551
 51
65.189455
  6
CONTINUOUS
  0
ARC
  8
WHITE
 10
21.908558
 20
11.440666
 30
0.000000
 40
0.026950
 50
-173.243152
 51
-43.665163
  6
CONTINUOUS
  0
LINE
  8
WHITE
 10
21.928053
 20
11.422059
 30
0.000000
 11
21.962264
 21
11.442585
 31
0.000000
  6
CONTINUOUS
  0
LINE
  8
WHITE
 10
21.962264
 20
11.442585
 30
0.000000
 11
22.018702
 21
11.501993
 31
0.000000
  6
CONTINUOUS
  0
LINE
  8
WHITE
 10
22.018702
 20
11.501993
 30
0.000000
 11
22.082604
 21
11.623022
 31
0.000000
  6
CONTINUOUS
  0
LINE
  8
WHITE
 10
22.082604
 20
11.623022
 30
0.000000
 11
22.092631
 21
11.693206
 31
0.000000
  6
CONTINUOUS
  0
LINE
  8
WHITE
 10
22.092631
 20
11.693206
 30
0.000000
 11
22.122066
 21
11.759087
 31
0.000000
  6
CONTINUOUS
  0
LINE
  8
WHITE
 10
22.122066
 20
11.759087
 30
0.000000
 11
22.152054
 21
11.884765
 31
0.000000
  6
CONTINUOUS
  0
LINE
  8
WHITE
 10
22.152054
 20
11.884765
 30
0.000000
 11
22.196988
 21
12.033705
 31
0.000000
  6
CONTINUOUS
  0
LINE
  8
WHITE
 10
22.196988
 20
12.033705
 30
0.000000
 11
22.255014
 21
12.165860
 31
0.000000
  6
CONTINUOUS
  0
LINE
  8
WHITE
 10
22.255014
 20
12.165860
 30
0.000000
 11
22.282221
 21
12.281654
 31
0.000000
  6
CONTINUOUS
  0
LINE
  8
WHITE
 10
22.282221
 20
12.281654
 30
0.000000
 11
22.323295
 21
12.383945
 31
0.000000
  6
CONTINUOUS
  0
LINE
  8
WHITE
 10
22.323295
 20
12.383945
 30
0.000000
 11
22.400935
 21
12.715440
 31
0.000000
  6
CONTINUOUS
  0
LINE
  8
WHITE
 10
22.400935
 20
12.715440
 30
0.000000
 11
22.439875
 21
12.958045
 31
0.000000
  6
CONTINUOUS
  0
LINE
  8
WHITE
 10
22.439875
 20
12.958045
 30
0.000000
 11
22.472593
 21
13.012576
 31
0.000000
  6
CONTINUOUS
  0
LINE
  8
WHITE
 10
22.472593
 20
13.012576
 30
0.000000
 11
22.503658
 21
13.038159
 31
0.000000
  6
CONTINUOUS
  0
LINE
  8
WHITE
 10
22.503658
 20
13.038159
 30
0.000000
 11
22.524210
 21
13.038159
 31
0.000000
  6
CONTINUOUS
  0
LINE
  8
WHITE
 10
22.524210
 20
13.038159
 30
0.000000
 11
22.546847
 21
13.015524
 31
0.000000
  6
CONTINUOUS
  0
LINE
  8
WHITE
 10
22.546847
 20
13.015524
 30
0.000000
 11
22.557961
 21
12.988354
 31
0.000000
  6
CONTINUOUS
  0
LINE
  8
WHITE
 10
22.557961
 20
12.988354
 30
0.000000
 11
22.552463
 21
12.725933
 31
0.000000
  6
CONTINUOUS
  0
LINE
  8
WHITE
 10
22.552463
 20
12.725933
 30
0.000000
 11
22.544389
 21
12.681162
 31
0.000000
  6
CONTINUOUS
  0
ARC
  8
WHITE
 10
18.472531
 20
13.084603
 30
0.000000
 40
4.091796
 50
-25.637240
 51
-5.658416
  6
CONTINUOUS
  0
LINE
  8
WHITE
 10
22.161495
 20
11.314199
 30
0.000000
 11
22.153552
 21
11.271496
 31
0.000000
  6
CONTINUOUS
  0
LINE
  8
WHITE
 10
22.153552
 20
11.271496
 30
0.000000
 11
22.115987
 21
11.224916
 31
0.000000
  6
CONTINUOUS
  0
LINE
  8
WHITE
 10
22.115987
 20
11.224916
 30
0.000000
 11
22.081812
 21
11.141718
 31
0.000000
  6
CONTINUOUS
  0
ARC
  8
WHITE
 10
22.409780
 20
10.911509
 30
0.000000
 40
0.400698
 50
144.934016
 51
177.209787
  6
CONTINUOUS
  0
LINE
  8
WHITE
 10
22.009556
 20
10.931015
 30
0.000000
 11
21.981723
 21
10.654560
 31
0.000000
  6
CONTINUOUS
  0
LINE
  8
WHITE
 10
21.981723
 20
10.654560
 30
0.000000
 11
21.989495
 21
10.609866
 31
0.000000
  6
CONTINUOUS
  0
LINE
  8
WHITE
 10
21.989495
 20
10.609866
 30
0.000000
 11
21.962050
 21
10.481634
 31
0.000000
  6
CONTINUOUS
  0
LINE
  8
WHITE
 10
21.962050
 20
10.481634
 30
0.000000
 11
21.961885
 21
10.393240
 31
0.000000
  6
CONTINUOUS
  0
LINE
  8
WHITE
 10
21.961885
 20
10.393240
 30
0.000000
 11
21.950653
 21
10.364034
 31
0.000000
  6
CONTINUOUS
  0
LINE
  8
WHITE
 10
21.950653
 20
10.364034
 30
0.000000
 11
21.963739
 21
10.318228
 31
0.000000
  6
CONTINUOUS
  0
LINE
  8
WHITE
 10
21.963739
 20
10.318228
 30
0.000000
 11
21.957883
 21
10.237205
 31
0.000000
  6
CONTINUOUS
  0
ARC
  8
WHITE
 10
22.184545
 20
10.220827
 30
0.000000
 40
0.227253
 50
175.867140
 51
240.445247
  6
CONTINUOUS
  0
LINE
  8
WHITE
 10
22.072452
 20
10.023144
 30
0.000000
 11
22.154607
 21
10.024855
 31
0.000000
  6
CONTINUOUS
  0
LINE
  8
WHITE
 10
22.154607
 20
10.024855
 30
0.000000
 11
22.296327
 21
10.080812
 31
0.000000
  6
CONTINUOUS
  0
ARC
  8
WHITE
 10
21.850866
 20
10.656127
 30
0.000000
 40
0.727614
 50
-52.249718
 51
-2.140718
  6
CONTINUOUS
  0
LINE
  8
WHITE
 10
22.577973
 20
10.628948
 30
0.000000
 11
22.611603
 21
10.791771
 31
0.000000
  6
CONTINUOUS
  0
LINE
  8
WHITE
 10
22.611603
 20
10.791771
 30
0.000000
 11
22.664043
 21
10.969503
 31
0.000000
  6
CONTINUOUS
  0
LINE
  8
WHITE
 10
22.664043
 20
10.969503
 30
0.000000
 11
22.666239
 21
11.037622
 31
0.000000
  6
CONTINUOUS
  0
LINE
  8
WHITE
 10
22.666239
 20
11.037622
 30
0.000000
 11
22.686630
 21
11.086247
 31
0.000000
  6
CONTINUOUS
  0
LINE
  8
WHITE
 10
22.686630
 20
11.086247
 30
0.000000
 11
22.718119
 21
11.103959
 31
0.000000
  6
CONTINUOUS
  0
ARC
  8
WHITE
 10
22.710104
 20
11.017951
 30
0.000000
 40
0.086381
 50
39.269367
 51
84.676039
  6
CONTINUOUS
  0
LINE
  8
WHITE
 10
22.776978
 20
11.072627
 30
0.000000
 11
22.776978
 21
10.856832
 31
0.000000
  6
CONTINUOUS
  0
LINE
  8
WHITE
 10
22.776978
 20
10.856832
 30
0.000000
 11
22.748997
 21
10.772890
 31
0.000000
  6
CONTINUOUS
  0
LINE
  8
WHITE
 10
22.748997
 20
10.772890
 30
0.000000
 11
22.748997
 21
10.685982
 31
0.000000
  6
CONTINUOUS
  0
ARC
  8
WHITE
 10
22.958779
 20
10.589944
 30
0.000000
 40
0.230720
 50
155.401738
 51
212.357565
  6
CONTINUOUS
  0
LINE
  8
WHITE
 10
22.763885
 20
10.466463
 30
0.000000
 11
22.798853
 21
10.448279
 31
0.000000
  6
CONTINUOUS
  0
LINE
  8
WHITE
 10
22.798853
 20
10.448279
 30
0.000000
 11
22.825768
 21
10.449962
 31
0.000000
  6
CONTINUOUS
  0
LINE
  8
WHITE
 10
22.825768
 20
10.449962
 30
0.000000
 11
22.854073
 21
10.462828
 31
0.000000
  6
CONTINUOUS
  0
ARC
  8
WHITE
 10
22.892289
 20
10.602918
 30
0.000000
 40
0.145209
 50
-105.258787
 51
-39.851299
  6
CONTINUOUS
  0
LINE
  8
WHITE
 10
23.003767
 20
10.509868
 30
0.000000
 11
23.034638
 21
10.547320
 31
0.000000
  6
CONTINUOUS
  0
ARC
  8
WHITE
 10
19.140275
 20
12.032545
 30
0.000000
 40
4.167968
 50
-20.875759
 51
-10.604691
  6
CONTINUOUS
  0
LINE
  8
WHITE
 10
23.237055
 20
11.265506
 30
0.000000
 11
23.292516
 21
11.364880
 31
0.000000
  6
CONTINUOUS
  0
ARC
  8
WHITE
 10
23.343174
 20
11.336684
 30
0.000000
 40
0.057976
 50
-2.748287
 51
150.899897
  6
CONTINUOUS
  0
LINE
  8
WHITE
 10
23.401084
 20
11.333904
 30
0.000000
 11
23.397798
 21
11.194329
 31
0.000000
  6
CONTINUOUS
  0
LINE
  8
WHITE
 10
23.397798
 20
11.194329
 30
0.000000
 11
23.359638
 21
11.065744
 31
0.000000
  6
CONTINUOUS
  0
LINE
  8
WHITE
 10
23.359638
 20
11.065744
 30
0.000000
 11
23.370762
 21
11.030142
 31
0.000000
  6
CONTINUOUS
  0
LINE
  8
WHITE
 10
23.370762
 20
11.030142
 30
0.000000
 11
23.363598
 21
10.978795
 31
0.000000
  6
CONTINUOUS
  0
LINE
  8
WHITE
 10
23.363598
 20
10.978795
 30
0.000000
 11
23.304501
 21
10.853090
 31
0.000000
  6
CONTINUOUS
  0
ARC
  8
WHITE
 10
22.866897
 20
10.808290
 30
0.000000
 40
0.439891
 50
-44.579442
 51
5.845329
  6
CONTINUOUS
  0
LINE
  8
WHITE
 10
23.180222
 20
10.499532
 30
0.000000
 11
23.174614
 21
10.458411
 31
0.000000
  6
CONTINUOUS
  0
LINE
  8
WHITE
 10
23.174614
 20
10.458411
 30
0.000000
 11
23.125440
 21
10.417433
 31
0.000000
  6
CONTINUOUS
  0
LINE
  8
WHITE
 10
23.125440
 20
10.417433
 30
0.000000
 11
23.114226
 21
10.387533
 31
0.000000
  6
CONTINUOUS
  0
LINE
  8
WHITE
 10
23.114226
 20
10.387533
 30
0.000000
 11
23.059141
 21
10.332448
 31
0.000000
  6
CONTINUOUS
  0
LINE
  8
WHITE
 10
23.059141
 20
10.332448
 30
0.000000
 11
23.027504
 21
10.323660
 31
0.000000
  6
CONTINUOUS
  0
LINE
  8
WHITE
 10
23.027504
 20
10.323660
 30
0.000000
 11
22.996791
 21
10.264426
 31
0.000000
  6
CONTINUOUS
  0
LINE
  8
WHITE
 10
22.996791
 20
10.264426
 30
0.000000
 11
22.852094
 21
10.148800
 31
0.000000
  6
CONTINUOUS
  0
LINE
  8
WHITE
 10
22.852094
 20
10.148800
 30
0.000000
 11
22.823647
 21
10.137859
 31
0.000000
  6
CONTINUOUS
  0
LINE
  8
WHITE
 10
22.823647
 20
10.137859
 30
0.000000
 11
22.793298
 21
10.094729
 31
0.000000
  6
CONTINUOUS
  0
LINE
  8
WHITE
 10
22.793298
 20
10.094729
 30
0.000000
 11
22.666287
 21
9.983486
 31
0.000000
  6
CONTINUOUS
  0
LINE
  8
WHITE
 10
22.666287
 20
9.983486
 30
0.000000
 11
22.655109
 21
9.956942
 31
0.000000
  6
CONTINUOUS
  0
LINE
  8
WHITE
 10
22.655109
 20
9.956942
 30
0.000000
 11
22.581114
 21
9.893596
 31
0.000000
  6
CONTINUOUS
  0
LINE
  8
WHITE
 10
22.581114
 20
9.893596
 30
0.000000
 11
22.479557
 21
9.823767
 31
0.000000
  6
CONTINUOUS
  0
LINE
  8
WHITE
 10
22.479557
 20
9.823767
 30
0.000000
 11
22.442558
 21
9.814517
 31
0.000000
  6
CONTINUOUS
  0
LINE
  8
WHITE
 10
22.442558
 20
9.814517
 30
0.000000
 11
22.422064
 21
9.788901
 31
0.000000
  6
CONTINUOUS
  0
LINE
  8
WHITE
 10
22.422064
 20
9.788901
 30
0.000000
 11
22.395209
 21
9.767081
 31
0.000000
  6
CONTINUOUS
  0
LINE
  8
WHITE
 10
22.395209
 20
9.767081
 30
0.000000
 11
22.387630
 21
9.748130
 31
0.000000
  6
CONTINUOUS
  0
LINE
  8
WHITE
 10
22.387630
 20
9.748130
 30
0.000000
 11
22.361574
 21
9.741183
 31
0.000000
  6
CONTINUOUS
  0
LINE
  8
WHITE
 10
22.361574
 20
9.741183
 30
0.000000
 11
22.358003
 21
9.721536
 31
0.000000
  6
CONTINUOUS
  0
LINE
  8
WHITE
 10
22.358003
 20
9.721536
 30
0.000000
 11
22.274402
 21
9.687005
 31
0.000000
  6
CONTINUOUS
  0
LINE
  8
WHITE
 10
22.274402
 20
9.687005
 30
0.000000
 11
22.223507
 21
9.646639
 31
0.000000
  6
CONTINUOUS
  0
LINE
  8
WHITE
 10
22.223507
 20
9.646639
 30
0.000000
 11
22.112129
 21
9.609353
 31
0.000000
  6
CONTINUOUS
  0
LINE
  8
WHITE
 10
22.112129
 20
9.609353
 30
0.000000
 11
22.050310
 21
9.604472
 31
0.000000
  6
CONTINUOUS
  0
LINE
  8
WHITE
 10
22.050310
 20
9.604472
 30
0.000000
 11
22.041970
 21
9.573196
 31
0.000000
  6
CONTINUOUS
  0
LINE
  8
WHITE
 10
22.041970
 20
9.573196
 30
0.000000
 11
22.021178
 21
9.555603
 31
0.000000
  6
CONTINUOUS
  0
LINE
  8
WHITE
 10
22.021178
 20
9.555603
 30
0.000000
 11
21.986129
 21
9.561137
 31
0.000000
  6
CONTINUOUS
  0
LINE
  8
WHITE
 10
21.986129
 20
9.561137
 30
0.000000
 11
21.937779
 21
9.525681
 31
0.000000
  6
CONTINUOUS
  0
LINE
  8
WHITE
 10
21.937779
 20
9.525681
 30
0.000000
 11
21.914864
 21
9.519953
 31
0.000000
  6
CONTINUOUS
  0
LINE
  8
WHITE
 10
21.914864
 20
9.519953
 30
0.000000
 11
21.810795
 21
9.466898
 31
0.000000
  6
CONTINUOUS
  0
LINE
  8
WHITE
 10
21.810795
 20
9.466898
 30
0.000000
 11
21.786319
 21
9.417946
 31
0.000000
  6
CONTINUOUS
  0
LINE
  8
WHITE
 10
21.786319
 20
9.417946
 30
0.000000
 11
21.751574
 21
9.387733
 31
0.000000
  6
CONTINUOUS
  0
LINE
  8
WHITE
 10
21.751574
 20
9.387733
 30
0.000000
 11
21.625311
 21
9.382164
 31
0.000000
  6
CONTINUOUS
  0
LINE
  8
WHITE
 10
21.625311
 20
9.382164
 30
0.000000
 11
21.612752
 21
9.360188
 31
0.000000
  6
CONTINUOUS
  0
LINE
  8
WHITE
 10
21.612752
 20
9.360188
 30
0.000000
 11
21.616424
 21
9.279427
 31
0.000000
  6
CONTINUOUS
  0
LINE
  8
WHITE
 10
21.616424
 20
9.279427
 30
0.000000
 11
21.548437
 21
9.239768
 31
0.000000
  6
CONTINUOUS
  0
ARC
  8
WHITE
 10
21.484700
 20
9.325441
 30
0.000000
 40
0.106781
 50
-85.069637
 51
-53.352351
  6
CONTINUOUS
  0
ARC
  8
WHITE
 10
21.499565
 20
9.144494
 30
0.000000
 40
0.074777
 50
94.362217
 51
128.080767
  6
CONTINUOUS
  0
ARC
  8
WHITE
 10
21.398751
 20
9.247882
 30
0.000000
 40
0.070528
 50
-93.477194
 51
-39.150146
  6
CONTINUOUS
  0
ARC
  8
WHITE
 10
21.337858
 20
9.218460
 30
0.000000
 40
0.069888
 50
-90.350418
 51
-35.894960
  6
CONTINUOUS
  0
LINE
  8
WHITE
 10
21.337431
 20
9.148573
 30
0.000000
 11
21.316624
 21
9.117364
 31
0.000000
  6
CONTINUOUS
  0
LINE
  8
WHITE
 10
21.316624
 20
9.117364
 30
0.000000
 11
21.291634
 21
9.113793
 31
0.000000
  6
CONTINUOUS
  0
LINE
  8
WHITE
 10
21.291634
 20
9.113793
 30
0.000000
 11
21.259761
 21
9.092545
 31
0.000000
  6
CONTINUOUS
  0
LINE
  8
WHITE
 10
21.259761
 20
9.092545
 30
0.000000
 11
21.184939
 21
9.082834
 31
0.000000
  6
CONTINUOUS
  0
LINE
  8
WHITE
 10
21.184939
 20
9.082834
 30
0.000000
 11
21.088537
 21
9.004508
 31
0.000000
  6
CONTINUOUS
  0
LINE
  8
WHITE
 10
21.088537
 20
9.004508
 30
0.000000
 11
21.026210
 21
9.004508
 31
0.000000
  6
CONTINUOUS
  0
LINE
  8
WHITE
 10
21.026210
 20
9.004508
 30
0.000000
 11
20.982328
 21
9.012252
 31
0.000000
  6
CONTINUOUS
  0
LINE
  8
WHITE
 10
20.982328
 20
9.012252
 30
0.000000
 11
20.967199
 21
8.981992
 31
0.000000
  6
CONTINUOUS
  0
LINE
  8
WHITE
 10
20.967199
 20
8.981992
 30
0.000000
 11
20.947517
 21
8.962309
 31
0.000000
  6
CONTINUOUS
  0
LINE
  8
WHITE
 10
20.947517
 20
8.962309
 30
0.000000
 11
20.882043
 21
8.939803
 31
0.000000
  6
CONTINUOUS
  0
LINE
  8
WHITE
 10
20.882043
 20
8.939803
 30
0.000000
 11
20.840048
 21
8.939803
 31
0.000000
  6
CONTINUOUS
  0
LINE
  8
WHITE
 10
20.840048
 20
8.939803
 30
0.000000
 11
20.805323
 21
8.952058
 31
0.000000
  6
CONTINUOUS
  0
LINE
  8
WHITE
 10
20.805323
 20
8.952058
 30
0.000000
 11
20.582554
 21
8.901236
 31
0.000000
  6
CONTINUOUS
  0
LINE
  8
WHITE
 10
20.582554
 20
8.901236
 30
0.000000
 11
20.403549
 21
8.914606
 31
0.000000
  6
CONTINUOUS
  0
LINE
  8
WHITE
 10
20.403549
 20
8.914606
 30
0.000000
 11
20.137200
 21
8.977560
 31
0.000000
  6
CONTINUOUS
  0
LINE
  8
WHITE
 10
20.137200
 20
8.977560
 30
0.000000
 11
20.035186
 21
9.021467
 31
0.000000
  6
CONTINUOUS
  0
LINE
  8
WHITE
 10
20.035186
 20
9.021467
 30
0.000000
 11
19.994356
 21
9.025418
 31
0.000000
  6
CONTINUOUS
  0
LINE
  8
WHITE
 10
19.994356
 20
9.025418
 30
0.000000
 11
19.978258
 21
9.048669
 31
0.000000
  6
CONTINUOUS
  0
ARC
  8
WHITE
 10
19.901434
 20
9.513730
 30
0.000000
 40
0.471364
 50
-113.494373
 51
-80.619949
  6
CONTINUOUS
  0
LINE
  8
WHITE
 10
19.713521
 20
9.081443
 30
0.000000
 11
19.552937
 21
9.107700
 31
0.000000
  6
CONTINUOUS
  0
LINE
  8
WHITE
 10
19.552937
 20
9.107700
 30
0.000000
 11
19.238559
 21
9.107608
 31
0.000000
  6
CONTINUOUS
  0
LINE
  8
WHITE
 10
19.238559
 20
9.107608
 30
0.000000
 11
18.943630
 21
9.062032
 31
0.000000
  6
CONTINUOUS
  0
LINE
  8
WHITE
 10
18.943630
 20
9.062032
 30
0.000000
 11
18.702724
 21
9.039005
 31
0.000000
  6
CONTINUOUS
  0
ARC
  8
WHITE
 10
18.758324
 20
8.735564
 30
0.000000
 40
0.308493
 50
100.383222
 51
204.908544
  6
CONTINUOUS
  0
ARC
  8
WHITE
 10
18.083350
 20
8.372136
 30
0.000000
 40
0.459006
 50
-6.884504
 51
30.577744
  6
CONTINUOUS
  0
LINE
  8
WHITE
 10
18.539047
 20
8.317116
 30
0.000000
 11
18.589816
 21
8.199710
 31
0.000000
  6
CONTINUOUS
  0
LINE
  8
WHITE
 10
18.589816
 20
8.199710
 30
0.000000
 11
18.595179
 21
8.156804
 31
0.000000
  6
CONTINUOUS
  0
LINE
  8
WHITE
 10
18.595179
 20
8.156804
 30
0.000000
 11
18.574624
 21
8.138118
 31
0.000000
  6
CONTINUOUS
  0
LINE
  8
WHITE
 10
18.574624
 20
8.138118
 30
0.000000
 11
18.554245
 21
8.139817
 31
0.000000
  6
CONTINUOUS
  0
LINE
  8
WHITE
 10
18.554245
 20
8.139817
 30
0.000000
 11
18.508640
 21
8.179373
 31
0.000000
  6
CONTINUOUS
  0
ARC
  8
WHITE
 10
18.478394
 20
8.144884
 30
0.000000
 40
0.045873
 50
48.750039
 51
222.624448
  6
CONTINUOUS
  0
LINE
  8
WHITE
 10
18.444641
 20
8.113820
 30
0.000000
 11
18.426195
 21
8.080618
 31
0.000000
  6
CONTINUOUS
  0
ARC
  8
WHITE
 10
18.384988
 20
7.910528
 30
0.000000
 40
0.175010
 50
76.381576
 51
106.186358
  6
CONTINUOUS
  0
ARC
  8
WHITE
 10
18.789214
 20
8.017656
 30
0.000000
 40
0.457094
 50
172.337776
 51
204.105541
  6
CONTINUOUS
  0
LINE
  8
WHITE
 10
18.371981
 20
7.830970
 30
0.000000
 11
18.392002
 21
7.784545
 31
0.000000
  6
CONTINUOUS
  0
LINE
  8
WHITE
 10
18.392002
 20
7.784545
 30
0.000000
 11
18.393429
 21
7.730330
 31
0.000000
  6
CONTINUOUS
  0
LINE
  8
WHITE
 10
18.393429
 20
7.730330
 30
0.000000
 11
18.544385
 21
7.306433
 31
0.000000
  6
CONTINUOUS
  0
LINE
  8
WHITE
 10
18.544385
 20
7.306433
 30
0.000000
 11
18.661556
 21
7.010887
 31
0.000000
  6
CONTINUOUS
  0
LINE
  8
WHITE
 10
18.661556
 20
7.010887
 30
0.000000
 11
18.845807
 21
6.605885
 31
0.000000
  6
CONTINUOUS
  0
LINE
  8
WHITE
 10
18.845807
 20
6.605885
 30
0.000000
 11
18.944848
 21
6.477259
 31
0.000000
  6
CONTINUOUS
  0
LINE
  8
WHITE
 10
18.944848
 20
6.477259
 30
0.000000
 11
19.064261
 21
6.268752
 31
0.000000
  6
CONTINUOUS
  0
LINE
  8
WHITE
 10
19.064261
 20
6.268752
 30
0.000000
 11
19.104232
 21
6.150349
 31
0.000000
  6
CONTINUOUS
  0
ARC
  8
WHITE
 10
18.070291
 20
5.800064
 30
0.000000
 40
1.091666
 50
-12.371995
 51
18.715674
  6
CONTINUOUS
  0
LINE
  8
WHITE
 10
19.136605
 20
5.566166
 30
0.000000
 11
19.007924
 21
5.365276
 31
0.000000
  6
CONTINUOUS
  0
LINE
  8
WHITE
 10
19.007924
 20
5.365276
 30
0.000000
 11
18.914289
 21
5.188279
 31
0.000000
  6
CONTINUOUS
  0
ARC
  8
WHITE
 10
16.820729
 20
6.302302
 30
0.000000
 40
2.371506
 50
-34.455098
 51
-28.018290
  6
CONTINUOUS
  0
ARC
  8
WHITE
 10
18.820461
 20
4.932751
 30
0.000000
 40
0.052291
 50
147.822768
 51
349.361934
  6
CONTINUOUS
  0
LINE
  8
WHITE
 10
18.871854
 20
4.923098
 30
0.000000
 11
18.940736
 21
5.051785
 31
0.000000
  6
CONTINUOUS
  0
LINE
  8
WHITE
 10
18.940736
 20
5.051785
 30
0.000000
 11
18.980763
 21
5.055266
 31
0.000000
  6
CONTINUOUS
  0
LINE
  8
WHITE
 10
18.980763
 20
5.055266
 30
0.000000
 11
18.996094
 21
5.028011
 31
0.000000
  6
CONTINUOUS
  0
LINE
  8
WHITE
 10
18.996094
 20
5.028011
 30
0.000000
 11
18.996094
 21
4.892782
 31
0.000000
  6
CONTINUOUS
  0
LINE
  8
WHITE
 10
18.996094
 20
4.892782
 30
0.000000
 11
18.971478
 21
4.845445
 31
0.000000
  6
CONTINUOUS
  0
LINE
  8
WHITE
 10
18.971478
 20
4.845445
 30
0.000000
 11
18.939320
 21
4.729618
 31
0.000000
  6
CONTINUOUS
  0
ARC
  8
WHITE
 10
18.637664
 20
4.904719
 30
0.000000
 40
0.348793
 50
-116.114078
 51
-30.133701
  6
CONTINUOUS
  0
LINE
  8
WHITE
 10
18.484139
 20
4.591531
 30
0.000000
 11
18.431153
 21
4.566804
 31
0.000000
  6
CONTINUOUS
  0
LINE
  8
WHITE
 10
18.431153
 20
4.566804
 30
0.000000
 11
18.347293
 21
4.078113
 31
0.000000
  6
CONTINUOUS
  0
LINE
  8
WHITE
 10
18.347293
 20
4.078113
 30
0.000000
 11
18.347293
 21
3.971585
 31
0.000000
  6
CONTINUOUS
  0
LINE
  8
WHITE
 10
18.347293
 20
3.971585
 30
0.000000
 11
18.365488
 21
3.891523
 31
0.000000
  6
CONTINUOUS
  0
LINE
  8
WHITE
 10
18.365488
 20
3.891523
 30
0.000000
 11
18.363695
 21
3.861034
 31
0.000000
  6
CONTINUOUS
  0
LINE
  8
WHITE
 10
18.363695
 20
3.861034
 30
0.000000
 11
18.339115
 21
3.819354
 31
0.000000
  6
CONTINUOUS
  0
ARC
  8
WHITE
 10
18.319589
 20
3.835205
 30
0.000000
 40
0.025150
 50
-151.318065
 51
-39.069326
  6
CONTINUOUS
  0
LINE
  8
WHITE
 10
18.297526
 20
3.823135
 30
0.000000
 11
18.282104
 21
3.850123
 31
0.000000
  6
CONTINUOUS
  0
ARC
  8
WHITE
 10
16.701289
 20
3.893276
 30
0.000000
 40
1.581404
 50
-1.563669
 51
25.085514
  6
CONTINUOUS
  0
ARC
  8
WHITE
 10
18.061388
 20
4.494565
 30
0.000000
 40
0.099950
 50
43.799648
 51
148.941716
  6
CONTINUOUS
  0
ARC
  8
WHITE
 10
19.084872
 20
4.241671
 30
0.000000
 40
1.150135
 50
164.649918
 51
174.804659
  6
CONTINUOUS
  0
LINE
  8
WHITE
 10
17.939465
 20
4.345817
 30
0.000000
 11
17.926121
 21
4.288445
 31
0.000000
  6
CONTINUOUS
  0
LINE
  8
WHITE
 10
17.926121
 20
4.288445
 30
0.000000
 11
17.910253
 21
4.105654
 31
0.000000
  6
CONTINUOUS
  0
LINE
  8
WHITE
 10
17.910253
 20
4.105654
 30
0.000000
 11
17.949307
 21
3.967753
 31
0.000000
  6
CONTINUOUS
  0
ARC
  8
WHITE
 10
17.905256
 20
3.970847
 30
0.000000
 40
0.044160
 50
-166.690344
 51
-4.017673
  6
CONTINUOUS
  0
LINE
  8
WHITE
 10
17.862282
 20
3.960681
 30
0.000000
 11
17.875256
 21
4.059278
 31
0.000000
  6
CONTINUOUS
  0
LINE
  8
WHITE
 10
17.875256
 20
4.059278
 30
0.000000
 11
17.858952
 21
4.327470
 31
0.000000
  6
CONTINUOUS
  0
LINE
  8
WHITE
 10
17.858952
 20
4.327470
 30
0.000000
 11
17.864212
 21
4.366395
 31
0.000000
  6
CONTINUOUS
  0
LINE
  8
WHITE
 10
17.864212
 20
4.366395
 30
0.000000
 11
17.852971
 21
4.439460
 31
0.000000
  6
CONTINUOUS
  0
LINE
  8
WHITE
 10
17.852971
 20
4.439460
 30
0.000000
 11
17.799688
 21
4.508960
 31
0.000000
  6
CONTINUOUS
  0
LINE
  8
WHITE
 10
17.799688
 20
4.508960
 30
0.000000
 11
17.610065
 21
4.613632
 31
0.000000
  6
CONTINUOUS
  0
LINE
  8
WHITE
 10
17.610065
 20
4.613632
 30
0.000000
 11
17.521931
 21
4.708545
 31
0.000000
  6
CONTINUOUS
  0
LINE
  8
WHITE
 10
17.521931
 20
4.708545
 30
0.000000
 11
17.489399
 21
4.754948
 31
0.000000
  6
CONTINUOUS
  0
LINE
  8
WHITE
 10
17.489399
 20
4.754948
 30
0.000000
 11
17.178150
 21
5.432724
 31
0.000000
  6
CONTINUOUS
  0
LINE
  8
WHITE
 10
17.178150
 20
5.432724
 30
0.000000
 11
17.146239
 21
5.476600
 31
0.000000
  6
CONTINUOUS
  0
ARC
  8
WHITE
 10
17.010135
 20
5.460064
 30
0.000000
 40
0.137105
 50
6.927218
 51
129.406382
  6
CONTINUOUS
  0
LINE
  8
WHITE
 10
16.923098
 20
5.566000
 30
0.000000
 11
16.781677
 21
5.450972
 31
0.000000
  6
CONTINUOUS
  0
LINE
  8
WHITE
 10
16.781677
 20
5.450972
 30
0.000000
 11
16.760936
 21
5.409486
 31
0.000000
  6
CONTINUOUS
  0
LINE
  8
WHITE
 10
16.760936
 20
5.409486
 30
0.000000
 11
16.693704
 21
5.061735
 31
0.000000
  6
CONTINUOUS
  0
LINE
  8
WHITE
 10
16.693704
 20
5.061735
 30
0.000000
 11
16.661702
 21
4.695793
 31
0.000000
  6
CONTINUOUS
  0
LINE
  8
WHITE
 10
16.661702
 20
4.695793
 30
0.000000
 11
16.604851
 21
4.577532
 31
0.000000
  6
CONTINUOUS
  0
LINE
  8
WHITE
 10
16.604851
 20
4.577532
 30
0.000000
 11
16.594520
 21
4.532762
 31
0.000000
  6
CONTINUOUS
  0
LINE
  8
WHITE
 10
16.594520
 20
4.532762
 30
0.000000
 11
16.522951
 21
4.377546
 31
0.000000
  6
CONTINUOUS
  0
LINE
  8
WHITE
 10
16.522951
 20
4.377546
 30
0.000000
 11
16.521189
 21
4.293694
 31
0.000000
  6
CONTINUOUS
  0
LINE
  8
WHITE
 10
16.521189
 20
4.293694
 30
0.000000
 11
16.584509
 21
3.929482
 31
0.000000
  6
CONTINUOUS
  0
ARC
  8
WHITE
 10
15.921344
 20
3.811516
 30
0.000000
 40
0.673575
 50
-20.865118
 51
10.086460
  6
CONTINUOUS
  0
LINE
  8
WHITE
 10
16.550748
 20
3.571609
 30
0.000000
 11
16.521966
 21
3.461097
 31
0.000000
  6
CONTINUOUS
  0
LINE
  8
WHITE
 10
16.521966
 20
3.461097
 30
0.000000
 11
16.481250
 21
3.425933
 31
0.000000
  6
CONTINUOUS
  0
LINE
  8
WHITE
 10
16.481250
 20
3.425933
 30
0.000000
 11
16.468184
 21
3.341932
 31
0.000000
  6
CONTINUOUS
  0
LINE
  8
WHITE
 10
16.468184
 20
3.341932
 30
0.000000
 11
16.450081
 21
3.302108
 31
0.000000
  6
CONTINUOUS
  0
LINE
  8
WHITE
 10
16.450081
 20
3.302108
 30
0.000000
 11
16.436803
 21
3.063818
 31
0.000000
  6
CONTINUOUS
  0
LINE
  8
WHITE
 10
16.436803
 20
3.063818
 30
0.000000
 11
16.451977
 21
3.018295
 31
0.000000
  6
CONTINUOUS
  0
LINE
  8
WHITE
 10
16.451977
 20
3.018295
 30
0.000000
 11
16.481474
 21
2.974050
 31
0.000000
  6
CONTINUOUS
  0
LINE
  8
WHITE
 10
16.481474
 20
2.974050
 30
0.000000
 11
16.603076
 21
2.951946
 31
0.000000
  6
CONTINUOUS
  0
LINE
  8
WHITE
 10
16.603076
 20
2.951946
 30
0.000000
 11
16.701186
 21
2.951946
 31
0.000000
  6
CONTINUOUS
  0
ARC
  8
WHITE
 10
16.704029
 20
2.923635
 30
0.000000
 40
0.028453
 50
-54.149833
 51
95.734437
  6
CONTINUOUS
  0
LINE
  8
WHITE
 10
16.720693
 20
2.900572
 30
0.000000
 11
16.651194
 21
2.888989
 31
0.000000
  6
CONTINUOUS
  0
LINE
  8
WHITE
 10
16.651194
 20
2.888989
 30
0.000000
 11
16.539977
 21
2.888989
 31
0.000000
  6
CONTINUOUS
  0
LINE
  8
WHITE
 10
16.539977
 20
2.888989
 30
0.000000
 11
16.510966
 21
2.876557
 31
0.000000
  6
CONTINUOUS
  0
ARC
  8
WHITE
 10
16.453615
 20
2.277941
 30
0.000000
 40
0.601357
 50
84.527424
 51
115.836329
  6
CONTINUOUS
  0
LINE
  8
WHITE
 10
16.191542
 20
2.819188
 30
0.000000
 11
16.163017
 21
2.743121
 31
0.000000
  6
CONTINUOUS
  0
LINE
  8
WHITE
 10
16.163017
 20
2.743121
 30
0.000000
 11
16.198143
 21
2.682625
 31
0.000000
  6
CONTINUOUS
  0
LINE
  8
WHITE
 10
16.198143
 20
2.682625
 30
0.000000
 11
16.339605
 21
2.594830
 31
0.000000
  6
CONTINUOUS
  0
LINE
  8
WHITE
 10
16.339605
 20
2.594830
 30
0.000000
 11
16.476861
 21
2.550805
 31
0.000000
  6
CONTINUOUS
  0
ARC
  8
WHITE
 10
17.342943
 20
7.639010
 30
0.000000
 40
5.161388
 50
-99.659943
 51
-85.797954
  6
CONTINUOUS
  0
ARC
  8
WHITE
 10
17.685619
 20
2.613867
 30
0.000000
 40
0.127421
 50
-73.814397
 51
16.672492
  6
CONTINUOUS
  0
LINE
  8
WHITE
 10
17.807683
 20
2.650424
 30
0.000000
 11
17.794149
 21
2.677496
 31
0.000000
  6
CONTINUOUS
  0
ARC
  8
WHITE
 10
17.667564
 20
2.557921
 30
0.000000
 40
0.174132
 50
43.368805
 51
87.011136
  6
CONTINUOUS
  0
ARC
  8
WHITE
 10
17.576041
 20
4.030664
 30
0.000000
 40
1.302739
 50
-109.204766
 51
-85.570991
  6
CONTINUOUS
  0
ARC
  8
WHITE
 10
17.178983
 20
2.826821
 30
0.000000
 40
0.041076
 50
96.208536
 51
219.987916
  6
CONTINUOUS
  0
LINE
  8
WHITE
 10
17.174541
 20
2.867656
 30
0.000000
 11
17.651275
 21
2.870144
 31
0.000000
  6
CONTINUOUS
  0
LINE
  8
WHITE
 10
17.651275
 20
2.870144
 30
0.000000
 11
17.780762
 21
2.881950
 31
0.000000
  6
CONTINUOUS
  0
ARC
  8
WHITE
 10
17.769617
 20
2.995490
 30
0.000000
 40
0.114086
 50
-84.393849
 51
9.900562
  6
CONTINUOUS
  0
ARC
  8
WHITE
 10
17.915304
 20
3.025123
 30
0.000000
 40
0.034774
 50
166.541735
 51
196.742156
  6
CONTINUOUS
  0
ARC
  8
WHITE
 10
17.892681
 20
3.027240
 30
0.000000
 40
0.012691
 50
15.960667
 51
151.907812
  6
CONTINUOUS
  0
LINE
  8
WHITE
 10
17.904884
 20
3.030730
 30
0.000000
 11
17.948379
 21
2.926492
 31
0.000000
  6
CONTINUOUS
  0
LINE
  8
WHITE
 10
17.948379
 20
2.926492
 30
0.000000
 11
17.971735
 21
2.904803
 31
0.000000
  6
CONTINUOUS
  0
LINE
  8
WHITE
 10
17.971735
 20
2.904803
 30
0.000000
 11
18.228531
 21
2.904718
 31
0.000000
  6
CONTINUOUS
  0
ARC
  8
WHITE
 10
18.192193
 20
3.059783
 30
0.000000
 40
0.159266
 50
-76.811266
 51
1.552700
  6
CONTINUOUS
  0
LINE
  8
WHITE
 10
18.351401
 20
3.064099
 30
0.000000
 11
18.339277
 21
3.244865
 31
0.000000
  6
CONTINUOUS
  0
ARC
  8
WHITE
 10
18.360330
 20
3.234424
 30
0.000000
 40
0.023500
 50
2.567259
 51
153.621402
  6
CONTINUOUS
  0
ARC
  8
WHITE
 10
19.115116
 20
3.223690
 30
0.000000
 40
0.731404
 50
179.076631
 51
195.223211
  6
CONTINUOUS
  0
ARC
  8
WHITE
 10
18.602305
 20
3.128340
 30
0.000000
 40
0.215807
 50
-153.378422
 51
-111.569667
  6
CONTINUOUS
  0
ARC
  8
WHITE
 10
18.626701
 20
3.390020
 30
0.000000
 40
0.473867
 50
-102.644905
 51
-91.299154
  6
CONTINUOUS
  0
LINE
  8
WHITE
 10
18.615957
 20
2.916275
 30
0.000000
 11
18.905157
 21
2.904986
 31
0.000000
  6
CONTINUOUS
  0
LINE
  8
WHITE
 10
18.905157
 20
2.904986
 30
0.000000
 11
19.272403
 21
2.872120
 31
0.000000
  6
CONTINUOUS
  0
LINE
  8
WHITE
 10
19.272403
 20
2.872120
 30
0.000000
 11
19.465636
 21
2.867909
 31
0.000000
  6
CONTINUOUS
  0
LINE
  8
WHITE
 10
19.465636
 20
2.867909
 30
0.000000
 11
19.517608
 21
2.850043
 31
0.000000
  6
CONTINUOUS
  0
LINE
  8
WHITE
 10
19.517608
 20
2.850043
 30
0.000000
 11
19.517608
 21
2.825781
 31
0.000000
  6
CONTINUOUS
  0
LINE
  8
WHITE
 10
19.517608
 20
2.825781
 30
0.000000
 11
19.500663
 21
2.807296
 31
0.000000
  6
CONTINUOUS
  0
LINE
  8
WHITE
 10
19.500663
 20
2.807296
 30
0.000000
 11
19.450356
 21
2.785161
 31
0.000000
  6
CONTINUOUS
  0
LINE
  8
WHITE
 10
19.450356
 20
2.785161
 30
0.000000
 11
19.372830
 21
2.775932
 31
0.000000
  6
CONTINUOUS
  0
LINE
  8
WHITE
 10
19.372830
 20
2.775932
 30
0.000000
 11
19.300411
 21
2.748344
 31
0.000000
  6
CONTINUOUS
  0
LINE
  8
WHITE
 10
19.300411
 20
2.748344
 30
0.000000
 11
18.889092
 21
2.716570
 31
0.000000
  6
CONTINUOUS
  0
LINE
  8
WHITE
 10
18.889092
 20
2.716570
 30
0.000000
 11
18.849419
 21
2.696734
 31
0.000000
  6
CONTINUOUS
  0
ARC
  8
WHITE
 10
18.941057
 20
2.631994
 30
0.000000
 40
0.112200
 50
144.759731
 51
244.520865
  6
CONTINUOUS
  0
ARC
  8
WHITE
 10
19.340505
 20
6.584717
 30
0.000000
 40
4.078657
 50
-96.302055
 51
-79.096138
  6
CONTINUOUS
  0
LINE
  8
WHITE
 10
20.112030
 20
2.579696
 30
0.000000
 11
20.320273
 21
2.639161
 31
0.000000
  6
CONTINUOUS
  0
LINE
  8
WHITE
 10
20.320273
 20
2.639161
 30
0.000000
 11
20.396067
 21
2.689690
 31
0.000000
  6
CONTINUOUS
  0
LINE
  8
WHITE
 10
20.396067
 20
2.689690
 30
0.000000
 11
20.432727
 21
2.730016
 31
0.000000
  6
CONTINUOUS
  0
ARC
  8
WHITE
 10
20.383963
 20
2.762222
 30
0.000000
 40
0.058439
 50
-33.442617
 51
62.865905
  6
CONTINUOUS
  0
ARC
  8
WHITE
 10
20.104079
 20
2.221251
 30
0.000000
 40
0.667524
 50
62.663570
 51
90.303285
  6
CONTINUOUS
  0
LINE
  8
WHITE
 10
20.100546
 20
2.888766
 30
0.000000
 11
19.944172
 21
2.889041
 31
0.000000
  6
CONTINUOUS
  0
LINE
  8
WHITE
 10
19.944172
 20
2.889041
 30
0.000000
 11
19.941554
 21
2.915221
 31
0.000000
  6
CONTINUOUS
  0
LINE
  8
WHITE
 10
19.941554
 20
2.915221
 30
0.000000
 11
20.355908
 21
2.904734
 31
0.000000
  6
CONTINUOUS
  0
LINE
  8
WHITE
 10
20.355908
 20
2.904734
 30
0.000000
 11
20.539195
 21
2.872436
 31
0.000000
  6
CONTINUOUS
  0
LINE
  8
WHITE
 10
20.539195
 20
2.872436
 30
0.000000
 11
20.829316
 21
2.855343
 31
0.000000
  6
CONTINUOUS
  0
LINE
  8
WHITE
 10
20.829316
 20
2.855343
 30
0.000000
 11
20.932005
 21
2.833873
 31
0.000000
  6
CONTINUOUS
  0
LINE
  8
WHITE
 10
20.932005
 20
2.833873
 30
0.000000
 11
21.080652
 21
2.815621
 31
0.000000
  6
CONTINUOUS
  0
LINE
  8
WHITE
 10
21.080652
 20
2.815621
 30
0.000000
 11
21.295753
 21
2.801619
 31
0.000000
  6
CONTINUOUS
  0
LINE
  8
WHITE
 10
21.295753
 20
2.801619
 30
0.000000
 11
21.743443
 21
2.749357
 31
0.000000
  6
CONTINUOUS
  0
LINE
  8
WHITE
 10
21.743443
 20
2.749357
 30
0.000000
 11
22.003787
 21
2.704623
 31
0.000000
  6
CONTINUOUS
  0
ARC
  8
WHITE
 10
21.993293
 20
2.643553
 30
0.000000
 40
0.061965
 50
-81.941923
 51
80.249768
  6
CONTINUOUS
  0
LINE
  8
WHITE
 10
22.001979
 20
2.582200
 30
0.000000
 11
21.199569
 21
2.468599
 31
0.000000
  6
CONTINUOUS
  0
ARC
  8
WHITE
 10
20.095201
 20
8.054121
 30
0.000000
 40
5.693653
 50
-90.618003
 51
-78.815746
  6
CONTINUOUS
  0
LINE
  8
WHITE
 10
20.033789
 20
2.360799
 30
0.000000
 11
18.523522
 21
2.297631
 31
0.000000
  6
CONTINUOUS
  0
ARC
  8
WHITE
 10
18.527838
 20
2.194446
 30
0.000000
 40
0.103275
 50
92.395159
 51
270.068422
  6
CONTINUOUS
  0
LINE
  8
WHITE
 10
18.527961
 20
2.091171
 30
0.000000
 11
20.316431
 21
2.093307
 31
0.000000
  6
CONTINUOUS
  0
LINE
  8
WHITE
 10
20.316431
 20
2.093307
 30
0.000000
 11
20.901401
 21
2.111094
 31
0.000000
  6
CONTINUOUS
  0
ARC
  8
WHITE
 10
20.903285
 20
2.049158
 30
0.000000
 40
0.061965
 50
-86.110724
 51
91.742314
  6
CONTINUOUS
  0
LINE
  8
WHITE
 10
20.907488
 20
1.987336
 30
0.000000
 11
18.817717
 21
1.845262
 31
0.000000
  6
CONTINUOUS
  0
LINE
  8
WHITE
 10
18.817717
 20
1.845262
 30
0.000000
 11
17.162566
 21
1.774379
 31
0.000000
  6
CONTINUOUS
  0
ARC
  8
WHITE
 10
17.165217
 20
1.712471
 30
0.000000
 40
0.061965
 50
92.451999
 51
268.305031
  6
CONTINUOUS
  0
LINE
  8
WHITE
 10
17.163384
 20
1.650533
 30
0.000000
 11
18.585128
 21
1.608462
 31
0.000000
  6
CONTINUOUS
  0
LINE
  8
WHITE
 10
18.585128
 20
1.608462
 30
0.000000
 11
18.868195
 21
1.609878
 31
0.000000
  6
CONTINUOUS
  0
ARC
  8
WHITE
 10
18.868505
 20
1.547913
 30
0.000000
 40
0.061966
 50
-85.881492
 51
90.286638
  6
CONTINUOUS
  0
LINE
  8
WHITE
 10
18.872955
 20
1.486108
 30
0.000000
 11
13.193465
 21
1.077153
 31
0.000000
  6
CONTINUOUS
  0
ARC
  8
WHITE
 10
13.199399
 20
0.994747
 30
0.000000
 40
0.082619
 50
94.118721
 51
270.857048
  6
CONTINUOUS
  0
LINE
  8
WHITE
 10
13.200635
 20
0.912136
 30
0.000000
 11
15.178485
 21
0.941723
 31
0.000000
  6
CONTINUOUS
  0
LINE
  8
WHITE
 10
15.178485
 20
0.941723
 30
0.000000
 11
17.108420
 21
0.996916
 31
0.000000
  6
CONTINUOUS
  0
ARC
  8
WHITE
 10
17.109601
 20
0.955623
 30
0.000000
 40
0.041310
 50
-83.556746
 51
91.638241
  6
CONTINUOUS
  0
LINE
  8
WHITE
 10
17.114237
 20
0.914574
 30
0.000000
 11
15.460041
 21
0.727761
 31
0.000000
  6
CONTINUOUS
  0
LINE
  8
WHITE
 10
15.460041
 20
0.727761
 30
0.000000
 11
14.609890
 21
0.664014
 31
0.000000
  6
CONTINUOUS
  0
ARC
  8
WHITE
 10
14.617648
 20
0.548609
 30
0.000000
 40
0.115665
 50
93.845872
 51
269.034698
  6
CONTINUOUS
  0
LINE
  8
WHITE
 10
14.615699
 20
0.432960
 30
0.000000
 11
15.933390
 21
0.408155
 31
0.000000
  6
CONTINUOUS
  0
ARC
  8
WHITE
 10
15.932224
 20
0.346201
 30
0.000000
 40
0.061965
 50
-85.934327
 51
88.921797
  6
CONTINUOUS
  0
LINE
  8
WHITE
 10
15.936617
 20
0.284392
 30
0.000000
 11
13.657038
 21
0.122362
 31
0.000000
  6
CONTINUOUS
  0
ARC
  8
WHITE
 10
14.434468
 20
-2.386265
 30
0.000000
 40
5.587849
 50
79.410369
 51
93.781754
  6
CONTINUOUS
  0
LINE
  8
WHITE
 10
14.065915
 20
3.189417
 30
0.000000
 11
13.636950
 21
3.161577
 31
0.000000
  6
CONTINUOUS
  0
ARC
  8
WHITE
 10
13.637633
 20
3.139064
 30
0.000000
 40
0.022523
 50
91.738975
 51
268.261100
  6
CONTINUOUS
  0
ARC
  8
WHITE
 10
13.993168
 20
4.213016
 30
0.000000
 40
1.152878
 50
-107.997888
 51
-82.519504
  6
CONTINUOUS
  0
ARC
  8
WHITE
 10
14.096056
 20
3.017518
 30
0.000000
 40
0.070550
 50
-62.354968
 51
48.003829
  6
CONTINUOUS
  0
ARC
  8
WHITE
 10
13.218270
 20
7.463942
 30
0.000000
 40
4.599936
 50
-94.109670
 51
-78.583357
  6
CONTINUOUS
  0
LINE
  8
WHITE
 10
12.888612
 20
2.875834
 30
0.000000
 11
12.872288
 21
2.913920
 31
0.000000
  6
CONTINUOUS
  0
LINE
  8
WHITE
 10
12.872288
 20
2.913920
 30
0.000000
 11
12.882130
 21
2.933603
 31
0.000000
  6
CONTINUOUS
  0
LINE
  8
WHITE
 10
12.882130
 20
2.933603
 30
0.000000
 11
12.919098
 21
2.952087
 31
0.000000
  6
CONTINUOUS
  0
LINE
  8
WHITE
 10
12.919098
 20
2.952087
 30
0.000000
 11
13.385387
 21
2.971407
 31
0.000000
  6
CONTINUOUS
  0
LINE
  8
WHITE
 10
13.385387
 20
2.971407
 30
0.000000
 11
13.435845
 21
2.998318
 31
0.000000
  6
CONTINUOUS
  0
LINE
  8
WHITE
 10
13.435845
 20
2.998318
 30
0.000000
 11
13.465325
 21
3.027797
 31
0.000000
  6
CONTINUOUS
  0
LINE
  8
WHITE
 10
13.465325
 20
3.027797
 30
0.000000
 11
13.490302
 21
3.067761
 31
0.000000
  6
CONTINUOUS
  0
LINE
  8
WHITE
 10
13.490302
 20
3.067761
 30
0.000000
 11
13.504891
 21
3.149823
 31
0.000000
  6
CONTINUOUS
  0
LINE
  8
WHITE
 10
13.504891
 20
3.149823
 30
0.000000
 11
13.449620
 21
3.696462
 31
0.000000
  6
CONTINUOUS
  0
LINE
  8
WHITE
 10
13.449620
 20
3.696462
 30
0.000000
 11
13.383966
 21
3.891678
 31
0.000000
  6
CONTINUOUS
  0
ARC
  8
WHITE
 10
13.439595
 20
3.919100
 30
0.000000
 40
0.062021
 50
142.872727
 51
206.240841
  6
CONTINUOUS
  0
LINE
  8
WHITE
 10
13.390146
 20
3.956535
 30
0.000000
 11
13.412438
 21
3.962480
 31
0.000000
  6
CONTINUOUS
  0
LINE
  8
WHITE
 10
13.412438
 20
3.962480
 30
0.000000
 11
13.431961
 21
3.950465
 31
0.000000
  6
CONTINUOUS
  0
LINE
  8
WHITE
 10
13.431961
 20
3.950465
 30
0.000000
 11
13.451204
 21
3.920532
 31
0.000000
  6
CONTINUOUS
  0
LINE
  8
WHITE
 10
13.451204
 20
3.920532
 30
0.000000
 11
13.463401
 21
3.845611
 31
0.000000
  6
CONTINUOUS
  0
LINE
  8
WHITE
 10
13.463401
 20
3.845611
 30
0.000000
 11
13.498351
 21
3.801922
 31
0.000000
  6
CONTINUOUS
  0
LINE
  8
WHITE
 10
13.498351
 20
3.801922
 30
0.000000
 11
13.515518
 21
3.757291
 31
0.000000
  6
CONTINUOUS
  0
LINE
  8
WHITE
 10
13.515518
 20
3.757291
 30
0.000000
 11
13.551874
 21
3.742748
 31
0.000000
  6
CONTINUOUS
  0
LINE
  8
WHITE
 10
13.551874
 20
3.742748
 30
0.000000
 11
13.573649
 21
4.109918
 31
0.000000
  6
CONTINUOUS
  0
ARC
  8
WHITE
 10
14.494695
 20
4.206567
 30
0.000000
 40
0.926103
 50
167.907740
 51
185.990344
  6
CONTINUOUS
  0
LINE
  8
WHITE
 10
13.589141
 20
4.400573
 30
0.000000
 11
13.619002
 21
4.409904
 31
0.000000
  6
CONTINUOUS
  0
LINE
  8
WHITE
 10
13.619002
 20
4.409904
 30
0.000000
 11
13.645194
 21
4.397682
 31
0.000000
  6
CONTINUOUS
  0
ARC
  8
WHITE
 10
13.889085
 20
4.433982
 30
0.000000
 40
0.246578
 50
-171.534325
 51
-146.215712
  6
CONTINUOUS
  0
LINE
  8
WHITE
 10
13.684145
 20
4.296868
 30
0.000000
 11
13.713728
 21
4.300812
 31
0.000000
  6
CONTINUOUS
  0
LINE
  8
WHITE
 10
13.713728
 20
4.300812
 30
0.000000
 11
13.754718
 21
4.370648
 31
0.000000
  6
CONTINUOUS
  0
LINE
  8
WHITE
 10
13.754718
 20
4.370648
 30
0.000000
 11
13.811438
 21
4.663019
 31
0.000000
  6
CONTINUOUS
  0
LINE
  8
WHITE
 10
13.811438
 20
4.663019
 30
0.000000
 11
13.824150
 21
4.693065
 31
0.000000
  6
CONTINUOUS
  0
LINE
  8
WHITE
 10
13.824150
 20
4.693065
 30
0.000000
 11
13.831552
 21
4.821402
 31
0.000000
  6
CONTINUOUS
  0
LINE
  8
WHITE
 10
13.831552
 20
4.821402
 30
0.000000
 11
13.833666
 21
5.067599
 31
0.000000
  6
CONTINUOUS
  0
LINE
  8
WHITE
 10
13.833666
 20
5.067599
 30
0.000000
 11
13.844150
 21
5.093809
 31
0.000000
  6
CONTINUOUS
  0
LINE
  8
WHITE
 10
13.844150
 20
5.093809
 30
0.000000
 11
13.871610
 21
5.093809
 31
0.000000
  6
CONTINUOUS
  0
LINE
  8
WHITE
 10
13.871610
 20
5.093809
 30
0.000000
 11
13.889310
 21
4.983086
 31
0.000000
  6
CONTINUOUS
  0
LINE
  8
WHITE
 10
13.889310
 20
4.983086
 30
0.000000
 11
13.932739
 21
4.959398
 31
0.000000
  6
CONTINUOUS
  0
LINE
  8
WHITE
 10
13.932739
 20
4.959398
 30
0.000000
 11
13.953385
 21
4.959398
 31
0.000000
  6
CONTINUOUS
  0
LINE
  8
WHITE
 10
13.953385
 20
4.959398
 30
0.000000
 11
13.982306
 21
5.042551
 31
0.000000
  6
CONTINUOUS
  0
LINE
  8
WHITE
 10
13.982306
 20
5.042551
 30
0.000000
 11
14.019190
 21
5.044228
 31
0.000000
  6
CONTINUOUS
  0
LINE
  8
WHITE
 10
14.019190
 20
5.044228
 30
0.000000
 11
14.045270
 21
4.983375
 31
0.000000
  6
CONTINUOUS
  0
LINE
  8
WHITE
 10
14.045270
 20
4.983375
 30
0.000000
 11
14.045270
 21
4.773025
 31
0.000000
  6
CONTINUOUS
  0
LINE
  8
WHITE
 10
14.045270
 20
4.773025
 30
0.000000
 11
14.062483
 21
4.733680
 31
0.000000
  6
CONTINUOUS
  0
LINE
  8
WHITE
 10
14.062483
 20
4.733680
 30
0.000000
 11
14.101518
 21
4.764908
 31
0.000000
  6
CONTINUOUS
  0
ARC
  8
WHITE
 10
10.341325
 20
5.512732
 30
0.000000
 40
3.833835
 50
-11.248173
 51
4.075096
  6
CONTINUOUS
  0
ARC
  8
WHITE
 10
13.606210
 20
5.782065
 30
0.000000
 40
0.559266
 50
0.319093
 51
15.324036
  6
CONTINUOUS
  0
ARC
  8
WHITE
 10
14.319220
 20
5.976297
 30
0.000000
 40
0.179729
 50
170.069452
 51
194.971426
  6
CONTINUOUS
  0
LINE
  8
WHITE
 10
14.142184
 20
6.007292
 30
0.000000
 11
14.199435
 21
6.015188
 31
0.000000
  6
CONTINUOUS
  0
LINE
  8
WHITE
 10
14.199435
 20
6.015188
 30
0.000000
 11
14.349194
 21
5.558460
 31
0.000000
  6
CONTINUOUS
  0
LINE
  8
WHITE
 10
14.349194
 20
5.558460
 30
0.000000
 11
14.354368
 21
5.382764
 31
0.000000
  6
CONTINUOUS
  0
LINE
  8
WHITE
 10
14.354368
 20
5.382764
 30
0.000000
 11
14.346242
 21
5.255600
 31
0.000000
  6
CONTINUOUS
  0
LINE
  8
WHITE
 10
14.346242
 20
5.255600
 30
0.000000
 11
14.398754
 21
5.302584
 31
0.000000
  6
CONTINUOUS
  0
LINE
  8
WHITE
 10
14.398754
 20
5.302584
 30
0.000000
 11
14.474635
 21
5.492354
 31
0.000000
  6
CONTINUOUS
  0
LINE
  8
WHITE
 10
14.474635
 20
5.492354
 30
0.000000
 11
14.503140
 21
5.598598
 31
0.000000
  6
CONTINUOUS
  0
LINE
  8
WHITE
 10
14.503140
 20
5.598598
 30
0.000000
 11
14.581573
 21
5.798863
 31
0.000000
  6
CONTINUOUS
  0
LINE
  8
WHITE
 10
14.581573
 20
5.798863
 30
0.000000
 11
14.624317
 21
5.820235
 31
0.000000
  6
CONTINUOUS
  0
LINE
  8
WHITE
 10
14.624317
 20
5.820235
 30
0.000000
 11
14.645187
 21
5.762845
 31
0.000000
  6
CONTINUOUS
  0
LINE
  8
WHITE
 10
14.645187
 20
5.762845
 30
0.000000
 11
14.638755
 21
5.692089
 31
0.000000
  6
CONTINUOUS
  0
LINE
  8
WHITE
 10
14.638755
 20
5.692089
 30
0.000000
 11
14.591662
 21
5.503354
 31
0.000000
  6
CONTINUOUS
  0
LINE
  8
WHITE
 10
14.591662
 20
5.503354
 30
0.000000
 11
14.564660
 21
5.435847
 31
0.000000
  6
CONTINUOUS
  0
LINE
  8
WHITE
 10
14.564660
 20
5.435847
 30
0.000000
 11
14.554871
 21
5.272037
 31
0.000000
  6
CONTINUOUS
  0
ARC
  8
WHITE
 10
14.578864
 20
5.268971
 30
0.000000
 40
0.024188
 50
172.718022
 51
331.822454
  6
CONTINUOUS
  0
LINE
  8
WHITE
 10
14.600186
 20
5.257549
 30
0.000000
 11
14.616202
 21
5.333120
 31
0.000000
  6
CONTINUOUS
  0
LINE
  8
WHITE
 10
14.616202
 20
5.333120
 30
0.000000
 11
14.763882
 21
5.698273
 31
0.000000
  6
CONTINUOUS
  0
LINE
  8
WHITE
 10
14.763882
 20
5.698273
 30
0.000000
 11
14.809853
 21
5.774891
 31
0.000000
  6
CONTINUOUS
  0
LINE
  8
WHITE
 10
14.809853
 20
5.774891
 30
0.000000
 11
14.873634
 21
5.802226
 31
0.000000
  6
CONTINUOUS
  0
LINE
  8
WHITE
 10
14.873634
 20
5.802226
 30
0.000000
 11
14.882344
 21
5.753455
 31
0.000000
  6
CONTINUOUS
  0
LINE
  8
WHITE
 10
14.882344
 20
5.753455
 30
0.000000
 11
14.858862
 21
5.712360
 31
0.000000
  6
CONTINUOUS
  0
LINE
  8
WHITE
 10
14.858862
 20
5.712360
 30
0.000000
 11
14.815220
 21
5.468813
 31
0.000000
  6
CONTINUOUS
  0
LINE
  8
WHITE
 10
14.815220
 20
5.468813
 30
0.000000
 11
14.813048
 21
5.357478
 31
0.000000
  6
CONTINUOUS
  0
LINE
  8
WHITE
 10
14.813048
 20
5.357478
 30
0.000000
 11
14.815673
 21
5.342162
 31
0.000000
  6
CONTINUOUS
  0
ARC
  8
WHITE
 10
14.839238
 20
5.344421
 30
0.000000
 40
0.023673
 50
-174.524710
 51
-5.475785
  6
CONTINUOUS
  0
LINE
  8
WHITE
 10
14.862803
 20
5.342162
 30
0.000000
 11
14.911221
 21
5.478053
 31
0.000000
  6
CONTINUOUS
  0
LINE
  8
WHITE
 10
14.911221
 20
5.478053
 30
0.000000
 11
14.937552
 21
5.515355
 31
0.000000
  6
CONTINUOUS
  0
LINE
  8
WHITE
 10
14.937552
 20
5.515355
 30
0.000000
 11
14.971515
 21
5.607744
 31
0.000000
  6
CONTINUOUS
  0
LINE
  8
WHITE
 10
14.971515
 20
5.607744
 30
0.000000
 11
15.008125
 21
5.644355
 31
0.000000
  6
CONTINUOUS
  0
LINE
  8
WHITE
 10
15.008125
 20
5.644355
 30
0.000000
 11
15.101450
 21
5.683838
 31
0.000000
  6
CONTINUOUS
  0
LINE
  8
WHITE
 10
15.101450
 20
5.683838
 30
0.000000
 11
15.122420
 21
5.702187
 31
0.000000
  6
CONTINUOUS
  0
LINE
  8
WHITE
 10
15.122420
 20
5.702187
 30
0.000000
 11
15.151454
 21
5.760257
 31
0.000000
  6
CONTINUOUS
  0
LINE
  8
WHITE
 10
15.151454
 20
5.760257
 30
0.000000
 11
15.147736
 21
5.988314
 31
0.000000
  6
CONTINUOUS
  0
LINE
  8
WHITE
 10
15.147736
 20
5.988314
 30
0.000000
 11
15.131268
 21
6.064072
 31
0.000000
  6
CONTINUOUS
  0
LINE
  8
WHITE
 10
15.131268
 20
6.064072
 30
0.000000
 11
15.131268
 21
6.220046
 31
0.000000
  6
CONTINUOUS
  0
LINE
  8
WHITE
 10
15.131268
 20
6.220046
 30
0.000000
 11
15.121322
 21
6.277738
 31
0.000000
  6
CONTINUOUS
  0
LINE
  8
WHITE
 10
15.121322
 20
6.277738
 30
0.000000
 11
15.131268
 21
6.303600
 31
0.000000
  6
CONTINUOUS
  0
LINE
  8
WHITE
 10
15.131268
 20
6.303600
 30
0.000000
 11
15.132548
 21
6.472563
 31
0.000000
  6
CONTINUOUS
  0
ARC
  8
WHITE
 10
15.231427
 20
6.469022
 30
0.000000
 40
0.098942
 50
118.558281
 51
177.948944
  6
CONTINUOUS
  0
LINE
  8
WHITE
 10
15.184128
 20
6.555925
 30
0.000000
 11
15.204415
 21
6.548122
 31
0.000000
  6
CONTINUOUS
  0
LINE
  8
WHITE
 10
15.204415
 20
6.548122
 30
0.000000
 11
15.228106
 21
6.509201
 31
0.000000
  6
CONTINUOUS
  0
LINE
  8
WHITE
 10
15.228106
 20
6.509201
 30
0.000000
 11
15.243505
 21
4.987346
 31
0.000000
  6
CONTINUOUS
  0
ARC
  8
WHITE
 10
15.771031
 20
5.139716
 30
0.000000
 40
0.549090
 50
-163.889203
 51
-112.373828
  6
CONTINUOUS
  0
ARC
  8
WHITE
 10
15.160139
 20
4.329126
 30
0.000000
 40
0.503208
 50
-7.697604
 51
36.999597
  6
CONTINUOUS
  0
LINE
  8
WHITE
 10
15.658812
 20
4.261724
 30
0.000000
 11
15.636937
 21
4.095904
 31
0.000000
  6
CONTINUOUS
  0
LINE
  8
WHITE
 10
15.636937
 20
4.095904
 30
0.000000
 11
15.672520
 21
4.038971
 31
0.000000
  6
CONTINUOUS
  0
LINE
  8
WHITE
 10
15.672520
 20
4.038971
 30
0.000000
 11
15.703150
 21
4.041014
 31
0.000000
  6
CONTINUOUS
  0
LINE
  8
WHITE
 10
15.703150
 20
4.041014
 30
0.000000
 11
15.732852
 21
4.074015
 31
0.000000
  6
CONTINUOUS
  0
LINE
  8
WHITE
 10
15.732852
 20
4.074015
 30
0.000000
 11
15.732852
 21
4.118090
 31
0.000000
  6
CONTINUOUS
  0
LINE
  8
WHITE
 10
15.732852
 20
4.118090
 30
0.000000
 11
15.702875
 21
4.249990
 31
0.000000
  6
CONTINUOUS
  0
LINE
  8
WHITE
 10
15.702875
 20
4.249990
 30
0.000000
 11
15.690789
 21
4.383704
 31
0.000000
  6
CONTINUOUS
  0
LINE
  8
WHITE
 10
15.690789
 20
4.383704
 30
0.000000
 11
15.741532
 21
4.479050
 31
0.000000
  6
CONTINUOUS
  0
ARC
  8
WHITE
 10
15.792113
 20
4.453560
 30
0.000000
 40
0.056641
 50
13.391233
 51
153.254167
  6
CONTINUOUS
  0
LINE
  8
WHITE
 10
15.847214
 20
4.466678
 30
0.000000
 11
15.918360
 21
4.179596
 31
0.000000
  6
CONTINUOUS
  0
LINE
  8
WHITE
 10
15.918360
 20
4.179596
 30
0.000000
 11
15.964751
 21
4.038800
 31
0.000000
  6
CONTINUOUS
  0
LINE
  8
WHITE
 10
15.964751
 20
4.038800
 30
0.000000
 11
16.017010
 21
3.977831
 31
0.000000
  6
CONTINUOUS
  0
LINE
  8
WHITE
 10
16.017010
 20
3.977831
 30
0.000000
 11
16.062547
 21
3.938800
 31
0.000000
  6
CONTINUOUS
  0
LINE
  8
WHITE
 10
16.062547
 20
3.938800
 30
0.000000
 11
16.102074
 21
3.868728
 31
0.000000
  6
CONTINUOUS
  0
LINE
  8
WHITE
 10
16.102074
 20
3.868728
 30
0.000000
 11
16.164531
 21
3.539642
 31
0.000000
  6
CONTINUOUS
  0
LINE
  8
WHITE
 10
16.164531
 20
3.539642
 30
0.000000
 11
16.203029
 21
3.403346
 31
0.000000
  6
CONTINUOUS
  0
LINE
  8
WHITE
 10
16.203029
 20
3.403346
 30
0.000000
 11
16.325760
 21
3.164997
 31
0.000000
  6
CONTINUOUS
  0
LINE
  8
WHITE
 10
16.325760
 20
3.164997
 30
0.000000
 11
16.325528
 21
3.019747
 31
0.000000
  6
CONTINUOUS
  0
LINE
  8
WHITE
 10
16.325528
 20
3.019747
 30
0.000000
 11
16.282665
 21
2.966167
 31
0.000000
  6
CONTINUOUS
  0
LINE
  8
WHITE
 10
16.282665
 20
2.966167
 30
0.000000
 11
16.253324
 21
2.950163
 31
0.000000
  6
CONTINUOUS
  0
LINE
  8
WHITE
 10
16.253324
 20
2.950163
 30
0.000000
 11
15.140012
 21
2.951605
 31
0.000000
  6
CONTINUOUS
  0
LINE
  8
WHITE
 10
15.140012
 20
2.951605
 30
0.000000
 11
15.093012
 21
2.942282
 31
0.000000
  6
CONTINUOUS
  0
LINE
  8
WHITE
 10
15.093012
 20
2.942282
 30
0.000000
 11
15.000468
 21
2.964982
 31
0.000000
  6
CONTINUOUS
  0
ARC
  8
WHITE
 10
15.035422
 20
2.992121
 30
0.000000
 40
0.044253
 50
149.324456
 51
217.826366
  6
CONTINUOUS
  0
LINE
  8
WHITE
 10
14.997361
 20
3.014698
 30
0.000000
 11
15.039880
 21
3.038996
 31
0.000000
  6
CONTINUOUS
  0
LINE
  8
WHITE
 10
15.039880
 20
3.038996
 30
0.000000
 11
15.203300
 21
3.063868
 31
0.000000
  6
CONTINUOUS
  0
ARC
  8
WHITE
 10
15.322168
 20
2.397897
 30
0.000000
 40
0.676496
 50
89.439480
 51
100.120055
  6
CONTINUOUS
  0
LINE
  8
WHITE
 10
15.328786
 20
3.074361
 30
0.000000
 11
15.461366
 21
3.074361
 31
0.000000
  6
CONTINUOUS
  0
ARC
  8
WHITE
 10
15.454517
 20
3.090388
 30
0.000000
 40
0.017429
 50
-66.860669
 51
66.860198
  6
CONTINUOUS
  0
ARC
  8
WHITE
 10
6.557219
 20
4.268346
 30
0.000000
 40
1.753979
 50
-102.746231
 51
-70.252858
  6
CONTINUOUS
  0
ARC
  8
WHITE
 10
7.134711
 20
2.657755
 30
0.000000
 40
0.042990
 50
-69.401623
 51
34.481135
  6
CONTINUOUS
  0
LINE
  8
WHITE
 10
7.170148
 20
2.682093
 30
0.000000
 11
7.148981
 21
2.717913
 31
0.000000
  6
CONTINUOUS
  0
LINE
  8
WHITE
 10
7.148981
 20
2.717913
 30
0.000000
 11
7.009887
 21
2.746311
 31
0.000000
  6
CONTINUOUS
  0
LINE
  8
WHITE
 10
7.009887
 20
2.746311
 30
0.000000
 11
6.545955
 21
2.805047
 31
0.000000
  6
CONTINUOUS
  0
LINE
  8
WHITE
 10
6.545955
 20
2.805047
 30
0.000000
 11
6.504922
 21
2.805047
 31
0.000000
  6
CONTINUOUS
  0
LINE
  8
WHITE
 10
6.504922
 20
2.805047
 30
0.000000
 11
6.381995
 21
2.831947
 31
0.000000
  6
CONTINUOUS
  0
ARC
  8
WHITE
 10
6.414803
 20
2.912653
 30
0.000000
 40
0.087120
 50
97.012445
 51
247.877682
  6
CONTINUOUS
  0
LINE
  8
WHITE
 10
6.404167
 20
2.999121
 30
0.000000
 11
6.492246
 21
3.020285
 31
0.000000
  6
CONTINUOUS
  0
LINE
  8
WHITE
 10
6.492246
 20
3.020285
 30
0.000000
 11
7.750918
 21
3.077740
 31
0.000000
  6
CONTINUOUS
  0
ARC
  8
WHITE
 10
7.707354
 20
2.929563
 30
0.000000
 40
0.154448
 50
-67.715268
 51
73.616509
  6
CONTINUOUS
  0
LINE
  8
WHITE
 10
7.765922
 20
2.786651
 30
0.000000
 11
7.739086
 21
2.777066
 31
0.000000
  6
CONTINUOUS
  0
ARC
  8
WHITE
 10
7.706103
 20
2.337212
 30
0.000000
 40
0.441089
 50
85.711657
 51
123.799776
  6
CONTINUOUS
  0
ARC
  8
WHITE
 10
7.490001
 20
2.650759
 30
0.000000
 40
0.060539
 50
118.915904
 51
248.359223
  6
CONTINUOUS
  0
LINE
  8
WHITE
 10
7.467675
 20
2.594487
 30
0.000000
 11
7.701724
 21
2.572458
 31
0.000000
  6
CONTINUOUS
  0
LINE
  8
WHITE
 10
7.701724
 20
2.572458
 30
0.000000
 11
7.952368
 21
2.572458
 31
0.000000
  6
CONTINUOUS
  0
LINE
  8
WHITE
 10
7.952368
 20
2.572458
 30
0.000000
 11
7.976913
 21
2.561939
 31
0.000000
  6
CONTINUOUS
  0
LINE
  8
WHITE
 10
7.976913
 20
2.561939
 30
0.000000
 11
8.442146
 21
2.557390
 31
0.000000
  6
CONTINUOUS
  0
LINE
  8
WHITE
 10
8.442146
 20
2.557390
 30
0.000000
 11
8.836668
 21
2.588219
 31
0.000000
  6
CONTINUOUS
  0
LINE
  8
WHITE
 10
8.836668
 20
2.588219
 30
0.000000
 11
8.866073
 21
2.585898
 31
0.000000
  6
CONTINUOUS
  0
LINE
  8
WHITE
 10
8.866073
 20
2.585898
 30
0.000000
 11
8.951430
 21
2.606716
 31
0.000000
  6
CONTINUOUS
  0
LINE
  8
WHITE
 10
8.951430
 20
2.606716
 30
0.000000
 11
8.956972
 21
2.630263
 31
0.000000
  6
CONTINUOUS
  0
ARC
  8
WHITE
 10
8.911602
 20
2.576648
 30
0.000000
 40
0.070235
 50
49.761760
 51
115.975485
  6
CONTINUOUS
  0
LINE
  8
WHITE
 10
8.880840
 20
2.639788
 30
0.000000
 11
8.549292
 21
2.663292
 31
0.000000
  6
CONTINUOUS
  0
ARC
  8
WHITE
 10
8.564746
 20
2.856153
 30
0.000000
 40
0.193479
 50
179.029816
 51
265.418680
  6
CONTINUOUS
  0
LINE
  8
WHITE
 10
8.371295
 20
2.859429
 30
0.000000
 11
8.375335
 21
2.999473
 31
0.000000
  6
CONTINUOUS
  0
LINE
  8
WHITE
 10
8.375335
 20
2.999473
 30
0.000000
 11
8.359496
 21
3.027985
 31
0.000000
  6
CONTINUOUS
  0
LINE
  8
WHITE
 10
8.359496
 20
3.027985
 30
0.000000
 11
8.312986
 21
3.058992
 31
0.000000
  6
CONTINUOUS
  0
LINE
  8
WHITE
 10
8.312986
 20
3.058992
 30
0.000000
 11
8.305876
 21
3.146091
 31
0.000000
  6
CONTINUOUS
  0
ARC
  8
WHITE
 10
8.290928
 20
3.144025
 30
0.000000
 40
0.015090
 50
7.870312
 51
175.073347
  6
CONTINUOUS
  0
LINE
  8
WHITE
 10
8.275893
 20
3.145321
 30
0.000000
 11
8.270428
 21
3.059681
 31
0.000000
  6
CONTINUOUS
  0
LINE
  8
WHITE
 10
8.270428
 20
3.059681
 30
0.000000
 11
8.239731
 21
3.036658
 31
0.000000
  6
CONTINUOUS
  0
ARC
  8
WHITE
 10
14.721141
 20
2.544623
 30
0.000000
 40
6.500060
 50
175.658730
 51
177.849301
  6
CONTINUOUS
  0
ARC
  8
WHITE
 10
8.099027
 20
2.733066
 30
0.000000
 40
0.138257
 50
-10.749869
 51
23.663309
  6
CONTINUOUS
  0
LINE
  8
WHITE
 10
8.234858
 20
2.707278
 30
0.000000
 11
8.209428
 21
2.683185
 31
0.000000
  6
CONTINUOUS
  0
ARC
  8
WHITE
 10
8.153139
 20
2.849765
 30
0.000000
 40
0.175833
 50
-122.840325
 51
-71.329238
  6
CONTINUOUS
  0
LINE
  8
WHITE
 10
8.057785
 20
2.702033
 30
0.000000
 11
8.044505
 21
2.722901
 31
0.000000
  6
CONTINUOUS
  0
ARC
  8
WHITE
 10
8.539816
 20
2.904884
 30
0.000000
 40
0.527685
 50
168.657998
 51
200.173946
  6
CONTINUOUS
  0
LINE
  8
WHITE
 10
8.022437
 20
3.008661
 30
0.000000
 11
8.022437
 21
3.178193
 31
0.000000
  6
CONTINUOUS
  0
LINE
  8
WHITE
 10
8.022437
 20
3.178193
 30
0.000000
 11
7.996948
 21
3.237137
 31
0.000000
  6
CONTINUOUS
  0
LINE
  8
WHITE
 10
7.996948
 20
3.237137
 30
0.000000
 11
7.926315
 21
3.288149
 31
0.000000
  6
CONTINUOUS
  0
LINE
  8
WHITE
 10
7.926315
 20
3.288149
 30
0.000000
 11
7.830482
 21
3.696856
 31
0.000000
  6
CONTINUOUS
  0
ARC
  8
WHITE
 10
6.364554
 20
3.521663
 30
0.000000
 40
1.476360
 50
6.815103
 51
27.047254
  6
CONTINUOUS
  0
LINE
  8
WHITE
 10
7.679447
 20
4.193001
 30
0.000000
 11
7.582715
 21
4.190943
 31
0.000000
  6
CONTINUOUS
  0
ARC
  8
WHITE
 10
8.030292
 20
4.603893
 30
0.000000
 40
0.608977
 50
-171.393296
 51
-137.304270
  6
CONTINUOUS
  0
LINE
  8
WHITE
 10
7.428173
 20
4.512759
 30
0.000000
 11
7.438434
 21
4.549701
 31
0.000000
  6
CONTINUOUS
  0
LINE
  8
WHITE
 10
7.438434
 20
4.549701
 30
0.000000
 11
7.438025
 21
4.663501
 31
0.000000
  6
CONTINUOUS
  0
LINE
  8
WHITE
 10
7.438025
 20
4.663501
 30
0.000000
 11
7.418473
 21
4.692829
 31
0.000000
  6
CONTINUOUS
  0
LINE
  8
WHITE
 10
7.418473
 20
4.692829
 30
0.000000
 11
7.341304
 21
4.722028
 31
0.000000
  6
CONTINUOUS
  0
LINE
  8
WHITE
 10
7.341304
 20
4.722028
 30
0.000000
 11
7.320521
 21
4.754003
 31
0.000000
  6
CONTINUOUS
  0
LINE
  8
WHITE
 10
7.320521
 20
4.754003
 30
0.000000
 11
7.258778
 21
5.105925
 31
0.000000
  6
CONTINUOUS
  0
LINE
  8
WHITE
 10
7.258778
 20
5.105925
 30
0.000000
 11
7.214909
 21
5.154180
 31
0.000000
  6
CONTINUOUS
  0
LINE
  8
WHITE
 10
7.214909
 20
5.154180
 30
0.000000
 11
7.191385
 21
5.158457
 31
0.000000
  6
CONTINUOUS
  0
LINE
  8
WHITE
 10
7.191385
 20
5.158457
 30
0.000000
 11
7.144791
 21
5.128638
 31
0.000000
  6
CONTINUOUS
  0
ARC
  8
WHITE
 10
7.137091
 20
5.139746
 30
0.000000
 40
0.013516
 50
-140.990650
 51
-55.271132
  6
CONTINUOUS
  0
LINE
  8
WHITE
 10
7.126588
 20
5.131238
 30
0.000000
 11
7.079643
 21
5.193274
 31
0.000000
  6
CONTINUOUS
  0
LINE
  8
WHITE
 10
7.079643
 20
5.193274
 30
0.000000
 11
7.071743
 21
5.226846
 31
0.000000
  6
CONTINUOUS
  0
LINE
  8
WHITE
 10
7.071743
 20
5.226846
 30
0.000000
 11
7.045620
 21
5.269044
 31
0.000000
  6
CONTINUOUS
  0
LINE
  8
WHITE
 10
7.045620
 20
5.269044
 30
0.000000
 11
7.027462
 21
5.349929
 31
0.000000
  6
CONTINUOUS
  0
LINE
  8
WHITE
 10
7.027462
 20
5.349929
 30
0.000000
 11
7.001917
 21
5.383138
 31
0.000000
  6
CONTINUOUS
  0
LINE
  8
WHITE
 10
7.001917
 20
5.383138
 30
0.000000
 11
6.942547
 21
5.537715
 31
0.000000
  6
CONTINUOUS
  0
ARC
  8
WHITE
 10
8.604863
 20
6.364439
 30
0.000000
 40
1.856547
 50
-169.669981
 51
-153.557339
  6
CONTINUOUS
  0
ARC
  8
WHITE
 10
6.762665
 20
6.024347
 30
0.000000
 40
0.017304
 50
24.516587
 51
151.313962
  6
CONTINUOUS
  0
LINE
  8
WHITE
 10
6.747485
 20
6.032653
 30
0.000000
 11
6.731034
 21
5.880169
 31
0.000000
  6
CONTINUOUS
  0
LINE
  8
WHITE
 10
6.731034
 20
5.880169
 30
0.000000
 11
6.771474
 21
5.806641
 31
0.000000
  6
CONTINUOUS
  0
LINE
  8
WHITE
 10
6.771474
 20
5.806641
 30
0.000000
 11
6.780796
 21
5.760032
 31
0.000000
  6
CONTINUOUS
  0
LINE
  8
WHITE
 10
6.780796
 20
5.760032
 30
0.000000
 11
6.780796
 21
5.697101
 31
0.000000
  6
CONTINUOUS
  0
LINE
  8
WHITE
 10
6.780796
 20
5.697101
 30
0.000000
 11
6.882140
 21
5.331985
 31
0.000000
  6
CONTINUOUS
  0
LINE
  8
WHITE
 10
6.882140
 20
5.331985
 30
0.000000
 11
6.882572
 21
5.234742
 31
0.000000
  6
CONTINUOUS
  0
LINE
  8
WHITE
 10
6.882572
 20
5.234742
 30
0.000000
 11
6.903513
 21
5.194764
 31
0.000000
  6
CONTINUOUS
  0
LINE
  8
WHITE
 10
6.903513
 20
5.194764
 30
0.000000
 11
6.979512
 21
5.173555
 31
0.000000
  6
CONTINUOUS
  0
LINE
  8
WHITE
 10
6.979512
 20
5.173555
 30
0.000000
 11
7.019431
 21
5.133636
 31
0.000000
  6
CONTINUOUS
  0
LINE
  8
WHITE
 10
7.019431
 20
5.133636
 30
0.000000
 11
7.114167
 21
4.868390
 31
0.000000
  6
CONTINUOUS
  0
ARC
  8
WHITE
 10
7.135780
 20
4.876109
 30
0.000000
 40
0.022950
 50
-160.345159
 51
-113.199246
  6
CONTINUOUS
  0
LINE
  8
WHITE
 10
7.126739
 20
4.855014
 30
0.000000
 11
7.143493
 21
4.847834
 31
0.000000
  6
CONTINUOUS
  0
ARC
  8
WHITE
 10
7.134453
 20
4.826740
 30
0.000000
 40
0.022950
 50
42.510140
 51
66.801882
  6
CONTINUOUS
  0
LINE
  8
WHITE
 10
7.151371
 20
4.842248
 30
0.000000
 11
7.181419
 21
4.809468
 31
0.000000
  6
CONTINUOUS
  0
ARC
  8
WHITE
 10
7.164502
 20
4.793960
 30
0.000000
 40
0.022950
 50
9.272702
 51
42.511176
  6
CONTINUOUS
  0
LINE
  8
WHITE
 10
7.187152
 20
4.797658
 30
0.000000
 11
7.203182
 21
4.699475
 31
0.000000
  6
CONTINUOUS
  0
LINE
  8
WHITE
 10
7.203182
 20
4.699475
 30
0.000000
 11
7.248812
 21
4.653845
 31
0.000000
  6
CONTINUOUS
  0
ARC
  8
WHITE
 10
7.350031
 20
4.667829
 30
0.000000
 40
0.102180
 50
-172.133847
 51
-104.264448
  6
CONTINUOUS
  0
LINE
  8
WHITE
 10
7.324854
 20
4.568799
 30
0.000000
 11
7.347154
 21
4.540925
 31
0.000000
  6
CONTINUOUS
  0
LINE
  8
WHITE
 10
7.347154
 20
4.540925
 30
0.000000
 11
7.364911
 21
4.368085
 31
0.000000
  6
CONTINUOUS
  0
LINE
  8
WHITE
 10
7.364911
 20
4.368085
 30
0.000000
 11
7.350192
 21
4.319023
 31
0.000000
  6
CONTINUOUS
  0
LINE
  8
WHITE
 10
7.350192
 20
4.319023
 30
0.000000
 11
7.280913
 21
4.302396
 31
0.000000
  6
CONTINUOUS
  0
ARC
  8
WHITE
 10
7.350759
 20
5.163893
 30
0.000000
 40
0.864324
 50
-131.126346
 51
-94.635104
  6
CONTINUOUS
  0
LINE
  8
WHITE
 10
6.782274
 20
4.512831
 30
0.000000
 11
6.766248
 21
4.536870
 31
0.000000
  6
CONTINUOUS
  0
LINE
  8
WHITE
 10
6.766248
 20
4.536870
 30
0.000000
 11
6.756089
 21
4.592744
 31
0.000000
  6
CONTINUOUS
  0
LINE
  8
WHITE
 10
6.756089
 20
4.592744
 30
0.000000
 11
6.775867
 21
4.654904
 31
0.000000
  6
CONTINUOUS
  0
LINE
  8
WHITE
 10
6.775867
 20
4.654904
 30
0.000000
 11
6.792836
 21
4.845029
 31
0.000000
  6
CONTINUOUS
  0
LINE
  8
WHITE
 10
6.792836
 20
4.845029
 30
0.000000
 11
6.768095
 21
4.878766
 31
0.000000
  6
CONTINUOUS
  0
LINE
  8
WHITE
 10
6.768095
 20
4.878766
 30
0.000000
 11
6.725747
 21
4.874917
 31
0.000000
  6
CONTINUOUS
  0
LINE
  8
WHITE
 10
6.725747
 20
4.874917
 30
0.000000
 11
6.666615
 21
4.627517
 31
0.000000
  6
CONTINUOUS
  0
LINE
  8
WHITE
 10
6.666615
 20
4.627517
 30
0.000000
 11
6.605075
 21
4.040446
 31
0.000000
  6
CONTINUOUS
  0
LINE
  8
WHITE
 10
6.605075
 20
4.040446
 30
0.000000
 11
6.607308
 21
3.962172
 31
0.000000
  6
CONTINUOUS
  0
LINE
  8
WHITE
 10
6.607308
 20
3.962172
 30
0.000000
 11
6.602972
 21
3.931820
 31
0.000000
  6
CONTINUOUS
  0
LINE
  8
WHITE
 10
6.602972
 20
3.931820
 30
0.000000
 11
6.579307
 21
3.908155
 31
0.000000
  6
CONTINUOUS
  0
LINE
  8
WHITE
 10
6.579307
 20
3.908155
 30
0.000000
 11
6.553694
 21
3.892148
 31
0.000000
  6
CONTINUOUS
  0
ARC
  8
WHITE
 10
7.364690
 20
3.378123
 30
0.000000
 40
0.960175
 50
147.632706
 51
174.704148
  6
CONTINUOUS
  0
ARC
  8
WHITE
 10
6.214043
 20
3.486043
 30
0.000000
 40
0.195525
 50
-71.438562
 51
-5.664006
  6
CONTINUOUS
  0
LINE
  8
WHITE
 10
6.276283
 20
3.300688
 30
0.000000
 11
6.163254
 21
2.958718
 31
0.000000
  6
CONTINUOUS
  0
ARC
  8
WHITE
 10
6.884706
 20
2.868871
 30
0.000000
 40
0.727025
 50
172.901172
 51
191.766048
  6
CONTINUOUS
  0
LINE
  8
WHITE
 10
6.172957
 20
2.720619
 30
0.000000
 11
6.286034
 21
2.684715
 31
0.000000
  6
CONTINUOUS
  0
LINE
  8
WHITE
 10
6.286034
 20
2.684715
 30
0.000000
 11
6.286034
 21
2.650977
 31
0.000000
  6
CONTINUOUS
  0
LINE
  8
WHITE
 10
6.286034
 20
2.650977
 30
0.000000
 11
6.147173
 21
2.626574
 31
0.000000
  6
CONTINUOUS
  0
LINE
  8
WHITE
 10
6.147173
 20
2.626574
 30
0.000000
 11
6.138691
 21
2.590948
 31
0.000000
  6
CONTINUOUS
  0
LINE
  8
WHITE
 10
6.138691
 20
2.590948
 30
0.000000
 11
6.150796
 21
2.566737
 31
0.000000
  6
CONTINUOUS
  0
LINE
  8
WHITE
 10
6.150796
 20
2.566737
 30
0.000000
 11
6.170233
 21
2.557591
 31
0.000000
  6
CONTINUOUS
  0
ARC
  8
WHITE
 10
16.990999
 20
11.378613
 30
0.000000
 40
1.012112
 50
-103.937525
 51
-80.837320
  6
CONTINUOUS
  0
LINE
  8
WHITE
 10
16.747218
 20
10.396299
 30
0.000000
 11
16.700124
 21
10.456237
 31
0.000000
  6
CONTINUOUS
  0
LINE
  8
WHITE
 10
16.700124
 20
10.456237
 30
0.000000
 11
16.618638
 21
10.513956
 31
0.000000
  6
CONTINUOUS
  0
ARC
  8
WHITE
 10
16.717248
 20
10.520351
 30
0.000000
 40
0.098817
 50
147.263589
 51
183.710245
  6
CONTINUOUS
  0
LINE
  8
WHITE
 10
16.634126
 20
10.573789
 30
0.000000
 11
17.521864
 21
10.882774
 31
0.000000
  6
CONTINUOUS
  0
LINE
  8
WHITE
 10
17.521864
 20
10.882774
 30
0.000000
 11
18.464793
 21
11.279489
 31
0.000000
  6
CONTINUOUS
  0
LINE
  8
WHITE
 10
18.464793
 20
11.279489
 30
0.000000
 11
18.519134
 21
11.196380
 31
0.000000
  6
CONTINUOUS
  0
LINE
  8
WHITE
 10
18.519134
 20
11.196380
 30
0.000000
 11
18.658578
 21
10.910689
 31
0.000000
  6
CONTINUOUS
  0
LINE
  8
WHITE
 10
18.658578
 20
10.910689
 30
0.000000
 11
18.735524
 21
10.782344
 31
0.000000
  6
CONTINUOUS
  0
LINE
  8
WHITE
 10
18.735524
 20
10.782344
 30
0.000000
 11
18.735524
 21
10.718322
 31
0.000000
  6
CONTINUOUS
  0
LINE
  8
WHITE
 10
18.735524
 20
10.718322
 30
0.000000
 11
18.726075
 21
10.693752
 31
0.000000
  6
CONTINUOUS
  0
LINE
  8
WHITE
 10
18.726075
 20
10.693752
 30
0.000000
 11
18.691953
 21
10.656040
 31
0.000000
  6
CONTINUOUS
  0
ARC
  8
WHITE
 10
19.263575
 20
9.094394
 30
0.000000
 40
1.662976
 50
110.104560
 51
131.644213
  6
CONTINUOUS
  0
ARC
  8
WHITE
 10
17.627475
 20
10.929726
 30
0.000000
 40
0.795742
 50
-70.192086
 51
-48.136167
  6
CONTINUOUS
  0
LINE
  8
WHITE
 10
17.897126
 20
10.181066
 30
0.000000
 11
17.667876
 21
10.153463
 31
0.000000
  6
CONTINUOUS
  0
LINE
  8
WHITE
 10
17.667876
 20
10.153463
 30
0.000000
 11
17.558640
 21
10.153463
 31
0.000000
  6
CONTINUOUS
  0
LINE
  8
WHITE
 10
17.558640
 20
10.153463
 30
0.000000
 11
17.437616
 21
10.220638
 31
0.000000
  6
CONTINUOUS
  0
LINE
  8
WHITE
 10
17.437616
 20
10.220638
 30
0.000000
 11
17.372474
 21
10.323968
 31
0.000000
  6
CONTINUOUS
  0
LINE
  8
WHITE
 10
17.372474
 20
10.323968
 30
0.000000
 11
17.306763
 21
10.325677
 31
0.000000
  6
CONTINUOUS
  0
ARC
  8
WHITE
 10
17.259941
 20
10.413864
 30
0.000000
 40
0.099846
 50
-121.684945
 51
-62.034670
  6
CONTINUOUS
  0
LINE
  8
WHITE
 10
17.207497
 20
10.328900
 30
0.000000
 11
17.173741
 21
10.371095
 31
0.000000
  6
CONTINUOUS
  0
ARC
  8
WHITE
 10
17.155820
 20
10.356758
 30
0.000000
 40
0.022950
 50
38.659533
 51
99.161656
  6
CONTINUOUS
  0
LINE
  8
WHITE
 10
12.622178
 20
1.978952
 30
0.000000
 11
13.239077
 21
1.932889
 31
0.000000
  6
CONTINUOUS
  0
LINE
  8
WHITE
 10
13.239077
 20
1.932889
 30
0.000000
 11
13.884381
 21
1.903811
 31
0.000000
  6
CONTINUOUS
  0
LINE
  8
WHITE
 10
13.884381
 20
1.903811
 30
0.000000
 11
16.517895
 21
1.760215
 31
0.000000
  6
CONTINUOUS
  0
ARC
  8
WHITE
 10
16.503312
 20
1.812241
 30
0.000000
 40
0.054031
 50
-74.341701
 51
50.561477
  6
CONTINUOUS
  0
LINE
  8
WHITE
 10
16.537635
 20
1.853970
 30
0.000000
 11
15.760833
 21
1.887407
 31
0.000000
  6
CONTINUOUS
  0
LINE
  8
WHITE
 10
15.760833
 20
1.887407
 30
0.000000
 11
14.209656
 21
2.010468
 31
0.000000
  6
CONTINUOUS
  0
LINE
  8
WHITE
 10
14.209656
 20
2.010468
 30
0.000000
 11
13.726990
 21
2.075358
 31
0.000000
  6
CONTINUOUS
  0
LINE
  8
WHITE
 10
13.726990
 20
2.075358
 30
0.000000
 11
13.373112
 21
2.132295
 31
0.000000
  6
CONTINUOUS
  0
ARC
  8
WHITE
 10
13.496418
 20
5.039109
 30
0.000000
 40
2.909428
 50
-109.775569
 51
-92.429010
  6
CONTINUOUS
  0
ARC
  8
WHITE
 10
12.526440
 20
2.382796
 30
0.000000
 40
0.082792
 50
106.803506
 51
259.991824
  6
CONTINUOUS
  0
LINE
  8
WHITE
 10
12.502506
 20
2.462052
 30
0.000000
 11
12.884073
 21
2.580246
 31
0.000000
  6
CONTINUOUS
  0
LINE
  8
WHITE
 10
12.884073
 20
2.580246
 30
0.000000
 11
12.964517
 21
2.596893
 31
0.000000
  6
CONTINUOUS
  0
LINE
  8
WHITE
 10
12.964517
 20
2.596893
 30
0.000000
 11
13.594954
 21
2.672663
 31
0.000000
  6
CONTINUOUS
  0
ARC
  8
WHITE
 10
13.588502
 20
2.697229
 30
0.000000
 40
0.025399
 50
-75.284223
 51
75.284092
  6
CONTINUOUS
  0
ARC
  8
WHITE
 10
13.635067
 20
-4.152229
 30
0.000000
 40
6.874142
 50
90.334340
 51
108.714312
  6
CONTINUOUS
  0
ARC
  8
WHITE
 10
11.442756
 20
2.319352
 30
0.000000
 40
0.041309
 50
108.714604
 51
238.719893
  6
CONTINUOUS
  0
LINE
  8
WHITE
 10
11.421307
 20
2.284047
 30
0.000000
 11
11.571142
 21
2.193017
 31
0.000000
  6
CONTINUOUS
  0
ARC
  8
WHITE
 10
12.764341
 20
5.392969
 30
0.000000
 40
3.415174
 50
-110.449494
 51
-93.963099
  6
CONTINUOUS
  0
LINE
  8
WHITE
 10
12.528305
 20
1.985961
 30
0.000000
 11
12.610703
 21
1.979809
 31
0.000000
  6
CONTINUOUS
  0
LINE
  8
WHITE
 10
12.610703
 20
1.979809
 30
0.000000
 11
12.622178
 21
1.978952
 31
0.000000
  6
CONTINUOUS
  0
ARC
  8
WHITE
 10
14.948743
 20
6.241174
 30
0.000000
 40
4.101370
 50
-111.098969
 51
-96.180235
  6
CONTINUOUS
  0
ARC
  8
WHITE
 10
13.514251
 20
2.483300
 30
0.000000
 40
0.080343
 50
127.553229
 51
238.550027
  6
CONTINUOUS
  0
ARC
  8
WHITE
 10
14.315871
 20
0.808141
 30
0.000000
 40
1.935747
 50
88.018027
 51
116.066330
  6
CONTINUOUS
  0
ARC
  8
WHITE
 10
14.379096
 20
2.691360
 30
0.000000
 40
0.051504
 50
-96.701620
 51
85.854837
  6
CONTINUOUS
  0
ARC
  8
WHITE
 10
14.661872
 20
0.382418
 30
0.000000
 40
2.276183
 50
97.288942
 51
111.020321
  6
CONTINUOUS
  0
ARC
  8
WHITE
 10
13.875521
 20
2.470559
 30
0.000000
 40
0.047373
 50
129.470059
 51
274.161792
  6
CONTINUOUS
  0
LINE
  8
WHITE
 10
13.878959
 20
2.423311
 30
0.000000
 11
14.164775
 21
2.344063
 31
0.000000
  6
CONTINUOUS
  0
LINE
  8
WHITE
 10
14.164775
 20
2.344063
 30
0.000000
 11
14.931906
 21
2.232286
 31
0.000000
  6
CONTINUOUS
  0
LINE
  8
WHITE
 10
14.931906
 20
2.232286
 30
0.000000
 11
15.909480
 21
2.142821
 31
0.000000
  6
CONTINUOUS
  0
LINE
  8
WHITE
 10
15.909480
 20
2.142821
 30
0.000000
 11
16.596754
 21
2.117937
 31
0.000000
  6
CONTINUOUS
  0
LINE
  8
WHITE
 10
16.596754
 20
2.117937
 30
0.000000
 11
18.020270
 21
2.095354
 31
0.000000
  6
CONTINUOUS
  0
ARC
  8
WHITE
 10
18.015069
 20
2.053636
 30
0.000000
 40
0.042041
 50
-82.894931
 51
82.894062
  6
CONTINUOUS
  0
LINE
  8
WHITE
 10
18.020269
 20
2.011918
 30
0.000000
 11
17.089913
 21
2.005662
 31
0.000000
  6
CONTINUOUS
  0
LINE
  8
WHITE
 10
17.089913
 20
2.005662
 30
0.000000
 11
16.108842
 21
2.034662
 31
0.000000
  6
CONTINUOUS
  0
LINE
  8
WHITE
 10
16.108842
 20
2.034662
 30
0.000000
 11
15.360360
 21
2.075194
 31
0.000000
  6
CONTINUOUS
  0
LINE
  8
WHITE
 10
15.360360
 20
2.075194
 30
0.000000
 11
14.507204
 21
2.163641
 31
0.000000
  6
CONTINUOUS
  0
ARC
  8
WHITE
 10
12.634889
 20
6.179185
 30
0.000000
 40
1.601651
 50
33.954522
 51
38.320481
  6
CONTINUOUS
  0
LINE
  8
WHITE
 10
13.891472
 20
7.172304
 30
0.000000
 11
13.783954
 21
7.405691
 31
0.000000
  6
CONTINUOUS
  0
LINE
  8
WHITE
 10
13.783954
 20
7.405691
 30
0.000000
 11
13.798811
 21
7.435405
 31
0.000000
  6
CONTINUOUS
  0
LINE
  8
WHITE
 10
13.798811
 20
7.435405
 30
0.000000
 11
13.825115
 21
7.433651
 31
0.000000
  6
CONTINUOUS
  0
LINE
  8
WHITE
 10
13.825115
 20
7.433651
 30
0.000000
 11
13.844447
 21
7.420763
 31
0.000000
  6
CONTINUOUS
  0
LINE
  8
WHITE
 10
13.844447
 20
7.420763
 30
0.000000
 11
13.941669
 21
7.258131
 31
0.000000
  6
CONTINUOUS
  0
ARC
  8
WHITE
 10
13.981614
 20
7.275840
 30
0.000000
 40
0.043695
 50
-156.090778
 51
47.609172
  6
CONTINUOUS
  0
LINE
  8
WHITE
 10
14.011072
 20
7.308111
 30
0.000000
 11
13.972838
 21
7.377297
 31
0.000000
  6
CONTINUOUS
  0
LINE
  8
WHITE
 10
13.972838
 20
7.377297
 30
0.000000
 11
13.970338
 21
7.417199
 31
0.000000
  6
CONTINUOUS
  0
ARC
  8
WHITE
 10
14.583538
 20
7.782209
 30
0.000000
 40
0.713615
 50
179.408578
 51
210.763460
  6
CONTINUOUS
  0
ARC
  8
WHITE
 10
13.902509
 20
7.732470
 30
0.000000
 40
0.065729
 50
39.504560
 51
119.681169
  6
CONTINUOUS
  0
LINE
  8
WHITE
 10
13.953224
 20
7.774283
 30
0.000000
 11
13.984011
 21
7.772663
 31
0.000000
  6
CONTINUOUS
  0
LINE
  8
WHITE
 10
13.984011
 20
7.772663
 30
0.000000
 11
14.001386
 21
7.791775
 31
0.000000
  6
CONTINUOUS
  0
LINE
  8
WHITE
 10
14.001386
 20
7.791775
 30
0.000000
 11
14.005864
 21
7.814168
 31
0.000000
  6
CONTINUOUS
  0
LINE
  8
WHITE
 10
14.005864
 20
7.814168
 30
0.000000
 11
13.971484
 21
8.002839
 31
0.000000
  6
CONTINUOUS
  0
LINE
  8
WHITE
 10
13.971484
 20
8.002839
 30
0.000000
 11
13.757945
 21
8.333863
 31
0.000000
  6
CONTINUOUS
  0
LINE
  8
WHITE
 10
13.757945
 20
8.333863
 30
0.000000
 11
13.759930
 21
8.405282
 31
0.000000
  6
CONTINUOUS
  0
LINE
  8
WHITE
 10
13.759930
 20
8.405282
 30
0.000000
 11
13.856940
 21
8.417935
 31
0.000000
  6
CONTINUOUS
  0
LINE
  8
WHITE
 10
13.856940
 20
8.417935
 30
0.000000
 11
13.859862
 21
8.455966
 31
0.000000
  6
CONTINUOUS
  0
ARC
  8
WHITE
 10
16.125650
 20
10.119863
 30
0.000000
 40
2.811112
 50
-155.662465
 51
-143.708048
  6
CONTINUOUS
  0
LINE
  8
WHITE
 10
13.564352
 20
8.961372
 30
0.000000
 11
13.564352
 21
8.993453
 31
0.000000
  6
CONTINUOUS
  0
LINE
  8
WHITE
 10
13.564352
 20
8.993453
 30
0.000000
 11
13.554585
 21
9.026661
 31
0.000000
  6
CONTINUOUS
  0
LINE
  8
WHITE
 10
13.554585
 20
9.026661
 30
0.000000
 11
13.563749
 21
9.055989
 31
0.000000
  6
CONTINUOUS
  0
LINE
  8
WHITE
 10
13.563749
 20
9.055989
 30
0.000000
 11
13.598169
 21
9.057628
 31
0.000000
  6
CONTINUOUS
  0
LINE
  8
WHITE
 10
13.598169
 20
9.057628
 30
0.000000
 11
13.664029
 21
8.967985
 31
0.000000
  6
CONTINUOUS
  0
LINE
  8
WHITE
 10
13.664029
 20
8.967985
 30
0.000000
 11
13.686586
 21
8.969864
 31
0.000000
  6
CONTINUOUS
  0
LINE
  8
WHITE
 10
13.686586
 20
8.969864
 30
0.000000
 11
13.704256
 21
9.128895
 31
0.000000
  6
CONTINUOUS
  0
LINE
  8
WHITE
 10
13.704256
 20
9.128895
 30
0.000000
 11
13.704256
 21
9.438619
 31
0.000000
  6
CONTINUOUS
  0
ARC
  8
WHITE
 10
13.609978
 20
9.416013
 30
0.000000
 40
0.096950
 50
13.484143
 51
75.357565
  6
CONTINUOUS
  0
ARC
  8
WHITE
 10
13.634391
 20
9.572677
 30
0.000000
 40
0.062863
 50
-141.214613
 51
-89.913825
  6
CONTINUOUS
  0
ARC
  8
WHITE
 10
16.187259
 20
10.451952
 30
0.000000
 40
2.759284
 50
-174.873084
 51
-160.553194
  6
CONTINUOUS
  0
ARC
  8
WHITE
 10
13.482380
 20
10.197547
 30
0.000000
 40
0.044066
 50
31.454344
 51
169.765722
  6
CONTINUOUS
  0
LINE
  8
WHITE
 10
13.519970
 20
10.220541
 30
0.000000
 11
13.553947
 21
9.994658
 31
0.000000
  6
CONTINUOUS
  0
ARC
  8
WHITE
 10
14.808410
 20
10.136620
 30
0.000000
 40
1.262470
 50
-173.543540
 51
-162.980138
  6
CONTINUOUS
  0
LINE
  8
WHITE
 10
13.601232
 20
9.767091
 30
0.000000
 11
13.621201
 21
9.727154
 31
0.000000
  6
CONTINUOUS
  0
LINE
  8
WHITE
 10
13.621201
 20
9.727154
 30
0.000000
 11
13.707252
 21
9.649540
 31
0.000000
  6
CONTINUOUS
  0
ARC
  8
WHITE
 10
13.248364
 20
9.392266
 30
0.000000
 40
0.526087
 50
2.640349
 51
29.277018
  6
CONTINUOUS
  0
LINE
  8
WHITE
 10
13.773893
 20
9.416501
 30
0.000000
 11
13.782116
 21
9.033580
 31
0.000000
  6
CONTINUOUS
  0
ARC
  8
WHITE
 10
14.257104
 20
8.957835
 30
0.000000
 40
0.480989
 50
170.939518
 51
217.824480
  6
CONTINUOUS
  0
LINE
  8
WHITE
 10
13.877174
 20
8.662871
 30
0.000000
 11
13.934406
 21
8.483316
 31
0.000000
  6
CONTINUOUS
  0
LINE
  8
WHITE
 10
13.934406
 20
8.483316
 30
0.000000
 11
13.980303
 21
8.415467
 31
0.000000
  6
CONTINUOUS
  0
ARC
  8
WHITE
 10
13.938481
 20
8.375124
 30
0.000000
 40
0.058109
 50
-60.557812
 51
43.968989
  6
CONTINUOUS
  0
LINE
  8
WHITE
 10
13.967044
 20
8.324520
 30
0.000000
 11
13.886920
 21
8.322656
 31
0.000000
  6
CONTINUOUS
  0
LINE
  8
WHITE
 10
13.886920
 20
8.322656
 30
0.000000
 11
13.877331
 21
8.288135
 31
0.000000
  6
CONTINUOUS
  0
LINE
  8
WHITE
 10
13.877331
 20
8.288135
 30
0.000000
 11
13.991265
 21
8.102081
 31
0.000000
  6
CONTINUOUS
  0
LINE
  8
WHITE
 10
13.991265
 20
8.102081
 30
0.000000
 11
14.009049
 21
8.082076
 31
0.000000
  6
CONTINUOUS
  0
LINE
  8
WHITE
 10
14.009049
 20
8.082076
 30
0.000000
 11
14.121344
 21
7.840562
 31
0.000000
  6
CONTINUOUS
  0
LINE
  8
WHITE
 10
14.121344
 20
7.840562
 30
0.000000
 11
14.219073
 21
7.477114
 31
0.000000
  6
CONTINUOUS
  0
ARC
  8
WHITE
 10
14.195234
 20
7.452173
 30
0.000000
 40
0.034501
 50
-124.094470
 51
46.294397
  6
CONTINUOUS
  0
LINE
  8
WHITE
 10
14.175894
 20
7.423602
 30
0.000000
 11
14.142046
 21
7.453389
 31
0.000000
  6
CONTINUOUS
  0
LINE
  8
WHITE
 10
14.142046
 20
7.453389
 30
0.000000
 11
14.008432
 21
7.639287
 31
0.000000
  6
CONTINUOUS
  0
LINE
  8
WHITE
 10
14.008432
 20
7.639287
 30
0.000000
 11
13.979823
 21
7.635199
 31
0.000000
  6
CONTINUOUS
  0
LINE
  8
WHITE
 10
13.979823
 20
7.635199
 30
0.000000
 11
13.972693
 21
7.594804
 31
0.000000
  6
CONTINUOUS
  0
ARC
  8
WHITE
 10
15.600253
 20
8.106068
 30
0.000000
 40
1.705973
 50
-162.560985
 51
-140.988003
  6
CONTINUOUS
  0
LINE
  8
WHITE
 10
14.274688
 20
7.032187
 30
0.000000
 11
14.286704
 21
6.948070
 31
0.000000
  6
CONTINUOUS
  0
ARC
  8
WHITE
 10
14.245614
 20
6.984147
 30
0.000000
 40
0.054680
 50
-100.837647
 51
-41.282945
  6
CONTINUOUS
  0
ARC
  8
WHITE
 10
13.269817
 20
6.291694
 30
0.000000
 40
1.157679
 50
33.487114
 51
44.223903
  6
CONTINUOUS
  0
LINE
  8
WHITE
 10
14.099433
 20
7.099134
 30
0.000000
 11
14.077438
 21
7.099134
 31
0.000000
  6
CONTINUOUS
  0
LINE
  8
WHITE
 10
14.077438
 20
7.099134
 30
0.000000
 11
14.065835
 21
7.059352
 31
0.000000
  6
CONTINUOUS
  0
LINE
  8
WHITE
 10
14.065835
 20
7.059352
 30
0.000000
 11
14.089664
 21
6.990033
 31
0.000000
  6
CONTINUOUS
  0
LINE
  8
WHITE
 10
14.089664
 20
6.990033
 30
0.000000
 11
14.143921
 21
6.897216
 31
0.000000
  6
CONTINUOUS
  0
LINE
  8
WHITE
 10
14.143921
 20
6.897216
 30
0.000000
 11
14.250684
 21
6.685597
 31
0.000000
  6
CONTINUOUS
  0
ARC
  8
WHITE
 10
11.951546
 20
5.526681
 30
0.000000
 40
2.574708
 50
13.564920
 51
26.751090
  6
CONTINUOUS
  0
LINE
  8
WHITE
 10
14.454432
 20
6.130571
 30
0.000000
 11
14.446537
 21
6.060181
 31
0.000000
  6
CONTINUOUS
  0
ARC
  8
WHITE
 10
14.402538
 20
6.081913
 30
0.000000
 40
0.049073
 50
-126.393233
 51
-26.285666
  6
CONTINUOUS
  0
ARC
  8
WHITE
 10
13.482841
 20
5.643044
 30
0.000000
 40
0.976027
 50
24.153110
 51
44.978457
  6
CONTINUOUS
  0
LINE
  8
WHITE
 10
14.173256
 20
6.332940
 30
0.000000
 11
14.025497
 21
6.538120
 31
0.000000
  6
CONTINUOUS
  0
ARC
  8
WHITE
 10
14.053809
 20
6.557599
 30
0.000000
 40
0.034366
 50
36.048580
 51
214.528761
  6
CONTINUOUS
  0
LINE
  8
WHITE
 10
14.081594
 20
6.577822
 30
0.000000
 11
14.139023
 21
6.498748
 31
0.000000
  6
CONTINUOUS
  0
LINE
  8
WHITE
 10
14.139023
 20
6.498748
 30
0.000000
 11
14.202147
 21
6.453950
 31
0.000000
  6
CONTINUOUS
  0
LINE
  8
WHITE
 10
14.202147
 20
6.453950
 30
0.000000
 11
14.222516
 21
6.460061
 31
0.000000
  6
CONTINUOUS
  0
ARC
  8
WHITE
 10
13.663604
 20
6.402784
 30
0.000000
 40
0.561839
 50
5.851248
 51
25.170593
  6
CONTINUOUS
  0
ARC
  8
WHITE
 10
13.871870
 20
6.582981
 30
0.000000
 40
0.305920
 50
11.074232
 51
22.836385
  6
CONTINUOUS
  0
ARC
  8
WHITE
 10
14.233590
 20
6.783272
 30
0.000000
 40
0.114093
 50
-176.345944
 51
-134.366401
  6
CONTINUOUS
  0
ARC
  8
WHITE
 10
12.733005
 20
6.237985
 30
0.000000
 40
1.487436
 50
21.205051
 51
34.186708
  6
CONTINUOUS
  0
ARC
  8
WHITE
 10
24.104666
 20
8.609346
 30
0.000000
 40
3.498097
 50
155.481208
 51
163.601964
  6
CONTINUOUS
  0
LINE
  8
WHITE
 10
20.748858
 20
9.596889
 30
0.000000
 11
20.744713
 21
9.534714
 31
0.000000
  6
CONTINUOUS
  0
ARC
  8
WHITE
 10
20.917632
 20
9.456458
 30
0.000000
 40
0.189803
 50
155.650444
 51
214.628065
  6
CONTINUOUS
  0
LINE
  8
WHITE
 10
20.761451
 20
9.348603
 30
0.000000
 11
20.792303
 21
9.328034
 31
0.000000
  6
CONTINUOUS
  0
LINE
  8
WHITE
 10
20.792303
 20
9.328034
 30
0.000000
 11
20.896467
 21
9.328034
 31
0.000000
  6
CONTINUOUS
  0
ARC
  8
WHITE
 10
20.575450
 20
10.229765
 30
0.000000
 40
0.957168
 50
-70.404204
 51
-41.890132
  6
CONTINUOUS
  0
LINE
  8
WHITE
 10
21.287991
 20
9.590660
 30
0.000000
 11
21.345986
 21
9.622294
 31
0.000000
  6
CONTINUOUS
  0
LINE
  8
WHITE
 10
21.345986
 20
9.622294
 30
0.000000
 11
21.400754
 21
9.686841
 31
0.000000
  6
CONTINUOUS
  0
LINE
  8
WHITE
 10
21.400754
 20
9.686841
 30
0.000000
 11
21.446791
 21
9.728693
 31
0.000000
  6
CONTINUOUS
  0
LINE
  8
WHITE
 10
21.446791
 20
9.728693
 30
0.000000
 11
21.491124
 21
9.780850
 31
0.000000
  6
CONTINUOUS
  0
LINE
  8
WHITE
 10
21.491124
 20
9.780850
 30
0.000000
 11
21.560136
 21
9.889803
 31
0.000000
  6
CONTINUOUS
  0
LINE
  8
WHITE
 10
21.560136
 20
9.889803
 30
0.000000
 11
21.571073
 21
9.980959
 31
0.000000
  6
CONTINUOUS
  0
ARC
  8
WHITE
 10
20.646410
 20
10.381130
 30
0.000000
 40
1.007541
 50
-23.401752
 51
-1.269486
  6
CONTINUOUS
  0
LINE
  8
WHITE
 10
21.653705
 20
10.358808
 30
0.000000
 11
21.663854
 21
10.382488
 31
0.000000
  6
CONTINUOUS
  0
LINE
  8
WHITE
 10
21.663854
 20
10.382488
 30
0.000000
 11
21.670546
 21
10.427659
 31
0.000000
  6
CONTINUOUS
  0
LINE
  8
WHITE
 10
21.670546
 20
10.427659
 30
0.000000
 11
21.660733
 21
10.496355
 31
0.000000
  6
CONTINUOUS
  0
LINE
  8
WHITE
 10
21.660733
 20
10.496355
 30
0.000000
 11
21.633000
 21
10.506755
 31
0.000000
  6
CONTINUOUS
  0
LINE
  8
WHITE
 10
21.633000
 20
10.506755
 30
0.000000
 11
21.523413
 21
10.414971
 31
0.000000
  6
CONTINUOUS
  0
LINE
  8
WHITE
 10
21.523413
 20
10.414971
 30
0.000000
 11
21.502296
 21
10.405034
 31
0.000000
  6
CONTINUOUS
  0
LINE
  8
WHITE
 10
21.502296
 20
10.405034
 30
0.000000
 11
21.465724
 21
10.369922
 31
0.000000
  6
CONTINUOUS
  0
LINE
  8
WHITE
 10
21.465724
 20
10.369922
 30
0.000000
 11
21.424557
 21
10.340863
 31
0.000000
  6
CONTINUOUS
  0
LINE
  8
WHITE
 10
21.424557
 20
10.340863
 30
0.000000
 11
21.397777
 21
10.339078
 31
0.000000
  6
CONTINUOUS
  0
LINE
  8
WHITE
 10
21.397777
 20
10.339078
 30
0.000000
 11
21.298697
 21
10.270687
 31
0.000000
  6
CONTINUOUS
  0
LINE
  8
WHITE
 10
21.298697
 20
10.270687
 30
0.000000
 11
21.002867
 21
10.187142
 31
0.000000
  6
CONTINUOUS
  0
ARC
  8
WHITE
 10
20.908980
 20
10.197195
 30
0.000000
 40
0.094424
 50
-47.192654
 51
-6.111556
  6
CONTINUOUS
  0
LINE
  8
WHITE
 10
20.973144
 20
10.127922
 30
0.000000
 11
20.950143
 21
10.124088
 31
0.000000
  6
CONTINUOUS
  0
LINE
  8
WHITE
 10
20.950143
 20
10.124088
 30
0.000000
 11
20.922009
 21
10.061027
 31
0.000000
  6
CONTINUOUS
  0
ARC
  8
WHITE
 10
4.897747
 20
24.546222
 30
0.000000
 40
22.385039
 50
-97.471403
 51
-87.357165
  6
CONTINUOUS
  0
ARC
  8
WHITE
 10
5.929789
 20
2.226302
 30
0.000000
 40
0.041310
 50
-89.822378
 51
87.904700
  6
CONTINUOUS
  0
ARC
  8
WHITE
 10
5.343177
 20
31.411669
 30
0.000000
 40
29.150018
 50
-95.093750
 51
-88.843938
  6
CONTINUOUS
  0
LINE
  8
WHITE
 10
2.755074
 20
2.376771
 30
0.000000
 11
2.454346
 21
2.431032
 31
0.000000
  6
CONTINUOUS
  0
ARC
  8
WHITE
 10
2.454811
 20
2.453284
 30
0.000000
 40
0.022257
 50
121.710301
 51
268.802864
  6
CONTINUOUS
  0
ARC
  8
WHITE
 10
3.098705
 20
0.240441
 30
0.000000
 40
2.326077
 50
94.040468
 51
106.370345
  6
CONTINUOUS
  0
ARC
  8
WHITE
 10
2.912118
 20
2.603327
 30
0.000000
 40
0.048257
 50
-61.954404
 51
94.001321
  6
CONTINUOUS
  0
LINE
  8
WHITE
 10
2.908751
 20
2.651466
 30
0.000000
 11
2.798794
 21
2.648401
 31
0.000000
  6
CONTINUOUS
  0
ARC
  8
WHITE
 10
2.794702
 20
0.811876
 30
0.000000
 40
1.836530
 50
89.872338
 51
116.725128
  6
CONTINUOUS
  0
ARC
  8
WHITE
 10
1.988804
 20
2.403692
 30
0.000000
 40
0.052489
 50
112.408693
 51
268.019822
  6
CONTINUOUS
  0
LINE
  8
WHITE
 10
10.220936
 20
1.896417
 30
0.000000
 11
10.806510
 21
1.910534
 31
0.000000
  6
CONTINUOUS
  0
LINE
  8
WHITE
 10
10.806510
 20
1.910534
 30
0.000000
 11
11.313660
 21
1.946203
 31
0.000000
  6
CONTINUOUS
  0
ARC
  8
WHITE
 10
11.294939
 20
1.987695
 30
0.000000
 40
0.045520
 50
-65.715322
 51
95.223207
  6
CONTINUOUS
  0
LINE
  8
WHITE
 10
11.290795
 20
2.033025
 30
0.000000
 11
11.242893
 21
2.047603
 31
0.000000
  6
CONTINUOUS
  0
ARC
  8
WHITE
 10
11.338303
 20
2.677927
 30
0.000000
 40
0.637504
 50
-135.876436
 51
-98.607328
  6
CONTINUOUS
  0
LINE
  8
WHITE
 10
10.880677
 20
2.234092
 30
0.000000
 11
10.832228
 21
2.249231
 31
0.000000
  6
CONTINUOUS
  0
LINE
  8
WHITE
 10
10.832228
 20
2.249231
 30
0.000000
 11
10.108743
 21
2.195596
 31
0.000000
  6
CONTINUOUS
  0
LINE
  8
WHITE
 10
10.108743
 20
2.195596
 30
0.000000
 11
9.538054
 21
2.136363
 31
0.000000
  6
CONTINUOUS
  0
ARC
  8
WHITE
 10
9.623965
 20
2.007751
 30
0.000000
 40
0.154667
 50
123.742364
 51
229.043625
  6
CONTINUOUS
  0
ARC
  8
WHITE
 10
9.787720
 20
12.621596
 30
0.000000
 40
10.733925
 50
-91.415393
 51
-87.686944
  6
CONTINUOUS
  0
LINE
  8
WHITE
 10
6.051569
 20
8.632891
 30
0.000000
 11
6.029966
 21
8.559734
 31
0.000000
  6
CONTINUOUS
  0
LINE
  8
WHITE
 10
6.029966
 20
8.559734
 30
0.000000
 11
6.059835
 21
8.514052
 31
0.000000
  6
CONTINUOUS
  0
ARC
  8
WHITE
 10
5.920387
 20
8.326346
 30
0.000000
 40
0.233836
 50
-23.638336
 51
53.391104
  6
CONTINUOUS
  0
ARC
  8
WHITE
 10
5.953403
 20
8.152991
 30
0.000000
 40
0.197911
 50
2.668916
 51
23.714430
  6
CONTINUOUS
  0
ARC
  8
WHITE
 10
2.991361
 20
7.932121
 30
0.000000
 40
3.168105
 50
2.190712
 51
4.164809
  6
CONTINUOUS
  0
ARC
  8
WHITE
 10
6.348236
 20
8.008480
 30
0.000000
 40
0.196255
 50
166.821190
 51
198.620141
  6
CONTINUOUS
  0
LINE
  8
WHITE
 10
6.162254
 20
7.945817
 30
0.000000
 11
6.214483
 21
7.921711
 31
0.000000
  6
CONTINUOUS
  0
LINE
  8
WHITE
 10
6.214483
 20
7.921711
 30
0.000000
 11
6.241793
 21
7.894402
 31
0.000000
  6
CONTINUOUS
  0
LINE
  8
WHITE
 10
6.241793
 20
7.894402
 30
0.000000
 11
6.297028
 21
7.753366
 31
0.000000
  6
CONTINUOUS
  0
LINE
  8
WHITE
 10
6.297028
 20
7.753366
 30
0.000000
 11
6.325537
 21
7.730203
 31
0.000000
  6
CONTINUOUS
  0
LINE
  8
WHITE
 10
6.325537
 20
7.730203
 30
0.000000
 11
6.354703
 21
7.716741
 31
0.000000
  6
CONTINUOUS
  0
LINE
  8
WHITE
 10
6.354703
 20
7.716741
 30
0.000000
 11
6.387061
 21
7.682680
 31
0.000000
  6
CONTINUOUS
  0
LINE
  8
WHITE
 10
6.387061
 20
7.682680
 30
0.000000
 11
6.489669
 21
7.477829
 31
0.000000
  6
CONTINUOUS
  0
LINE
  8
WHITE
 10
6.489669
 20
7.477829
 30
0.000000
 11
6.517670
 21
7.456829
 31
0.000000
  6
CONTINUOUS
  0
LINE
  8
WHITE
 10
6.517670
 20
7.456829
 30
0.000000
 11
6.570988
 21
7.456829
 31
0.000000
  6
CONTINUOUS
  0
LINE
  8
WHITE
 10
6.570988
 20
7.456829
 30
0.000000
 11
6.597079
 21
7.475465
 31
0.000000
  6
CONTINUOUS
  0
LINE
  8
WHITE
 10
6.597079
 20
7.475465
 30
0.000000
 11
6.675886
 21
7.659463
 31
0.000000
  6
CONTINUOUS
  0
LINE
  8
WHITE
 10
6.675886
 20
7.659463
 30
0.000000
 11
6.700222
 21
7.669892
 31
0.000000
  6
CONTINUOUS
  0
LINE
  8
WHITE
 10
6.700222
 20
7.669892
 30
0.000000
 11
6.771054
 21
7.656776
 31
0.000000
  6
CONTINUOUS
  0
ARC
  8
WHITE
 10
6.690001
 20
7.756860
 30
0.000000
 40
0.128788
 50
-50.997727
 51
7.125676
  6
CONTINUOUS
  0
LINE
  8
WHITE
 10
6.817794
 20
7.772836
 30
0.000000
 11
6.885862
 21
7.958694
 31
0.000000
  6
CONTINUOUS
  0
ARC
  8
WHITE
 10
7.014757
 20
7.994154
 30
0.000000
 40
0.133684
 50
113.883340
 51
195.381985
  6
CONTINUOUS
  0
LINE
  8
WHITE
 10
6.960632
 20
8.116391
 30
0.000000
 11
7.007473
 21
8.203383
 31
0.000000
  6
CONTINUOUS
  0
LINE
  8
WHITE
 10
7.007473
 20
8.203383
 30
0.000000
 11
7.020242
 21
8.257646
 31
0.000000
  6
CONTINUOUS
  0
LINE
  8
WHITE
 10
7.020242
 20
8.257646
 30
0.000000
 11
7.020438
 21
8.472705
 31
0.000000
  6
CONTINUOUS
  0
LINE
  8
WHITE
 10
7.020438
 20
8.472705
 30
0.000000
 11
7.042934
 21
8.509663
 31
0.000000
  6
CONTINUOUS
  0
LINE
  8
WHITE
 10
7.042934
 20
8.509663
 30
0.000000
 11
7.073437
 21
8.527094
 31
0.000000
  6
CONTINUOUS
  0
ARC
  8
WHITE
 10
7.062050
 20
8.547020
 30
0.000000
 40
0.022950
 50
-60.253570
 51
-16.698872
  6
CONTINUOUS
  0
LINE
  8
WHITE
 10
7.084032
 20
8.540426
 30
0.000000
 11
7.097862
 21
8.586527
 31
0.000000
  6
CONTINUOUS
  0
LINE
  8
WHITE
 10
7.097862
 20
8.586527
 30
0.000000
 11
7.063309
 21
8.840192
 31
0.000000
  6
CONTINUOUS
  0
ARC
  8
WHITE
 10
6.362335
 20
8.747740
 30
0.000000
 40
0.707044
 50
7.513419
 51
42.720005
  6
CONTINUOUS
  0
LINE
  8
WHITE
 10
6.881785
 20
9.227410
 30
0.000000
 11
6.849121
 21
9.230677
 31
0.000000
  6
CONTINUOUS
  0
LINE
  8
WHITE
 10
6.849121
 20
9.230677
 30
0.000000
 11
6.836502
 21
9.192821
 31
0.000000
  6
CONTINUOUS
  0
ARC
  8
WHITE
 10
6.256381
 20
8.757073
 30
0.000000
 40
0.725546
 50
5.401871
 51
36.911420
  6
CONTINUOUS
  0
LINE
  8
WHITE
 10
6.978705
 20
8.825376
 30
0.000000
 11
6.911982
 21
8.715285
 31
0.000000
  6
CONTINUOUS
  0
LINE
  8
WHITE
 10
6.911982
 20
8.715285
 30
0.000000
 11
6.900616
 21
8.669821
 31
0.000000
  6
CONTINUOUS
  0
LINE
  8
WHITE
 10
6.900616
 20
8.669821
 30
0.000000
 11
6.901717
 21
8.407962
 31
0.000000
  6
CONTINUOUS
  0
LINE
  8
WHITE
 10
6.901717
 20
8.407962
 30
0.000000
 11
6.878254
 21
8.343972
 31
0.000000
  6
CONTINUOUS
  0
ARC
  8
WHITE
 10
6.974071
 20
8.169792
 30
0.000000
 40
0.198795
 50
118.815339
 51
177.369925
  6
CONTINUOUS
  0
LINE
  8
WHITE
 10
6.775484
 20
8.178914
 30
0.000000
 11
6.772052
 21
8.106472
 31
0.000000
  6
CONTINUOUS
  0
LINE
  8
WHITE
 10
6.772052
 20
8.106472
 30
0.000000
 11
6.730289
 21
7.925090
 31
0.000000
  6
CONTINUOUS
  0
LINE
  8
WHITE
 10
6.730289
 20
7.925090
 30
0.000000
 11
6.711062
 21
7.885034
 31
0.000000
  6
CONTINUOUS
  0
LINE
  8
WHITE
 10
6.711062
 20
7.885034
 30
0.000000
 11
6.671722
 21
7.847405
 31
0.000000
  6
CONTINUOUS
  0
ARC
  8
WHITE
 10
6.661397
 20
7.758186
 30
0.000000
 40
0.089814
 50
83.398727
 51
147.542669
  6
CONTINUOUS
  0
ARC
  8
WHITE
 10
6.463566
 20
7.902085
 30
0.000000
 40
0.155092
 50
-56.673012
 51
-38.100230
  6
CONTINUOUS
  0
ARC
  8
WHITE
 10
6.513884
 20
7.822687
 30
0.000000
 40
0.061126
 50
-101.865707
 51
-55.192654
  6
CONTINUOUS
  0
ARC
  8
WHITE
 10
6.719668
 20
8.016967
 30
0.000000
 40
0.335030
 50
-171.370071
 51
-130.673099
  6
CONTINUOUS
  0
LINE
  8
WHITE
 10
6.388432
 20
7.966695
 30
0.000000
 11
6.367045
 21
7.991372
 31
0.000000
  6
CONTINUOUS
  0
LINE
  8
WHITE
 10
6.367045
 20
7.991372
 30
0.000000
 11
6.326454
 21
8.009822
 31
0.000000
  6
CONTINUOUS
  0
LINE
  8
WHITE
 10
6.326454
 20
8.009822
 30
0.000000
 11
6.307554
 21
8.040063
 31
0.000000
  6
CONTINUOUS
  0
LINE
  8
WHITE
 10
6.307554
 20
8.040063
 30
0.000000
 11
6.314506
 21
8.083517
 31
0.000000
  6
CONTINUOUS
  0
LINE
  8
WHITE
 10
6.314506
 20
8.083517
 30
0.000000
 11
6.301689
 21
8.156763
 31
0.000000
  6
CONTINUOUS
  0
LINE
  8
WHITE
 10
6.301689
 20
8.156763
 30
0.000000
 11
6.237585
 21
8.236892
 31
0.000000
  6
CONTINUOUS
  0
LINE
  8
WHITE
 10
6.237585
 20
8.236892
 30
0.000000
 11
6.224681
 21
8.268436
 31
0.000000
  6
CONTINUOUS
  0
LINE
  8
WHITE
 10
6.224681
 20
8.268436
 30
0.000000
 11
6.224681
 21
8.292807
 31
0.000000
  6
CONTINUOUS
  0
LINE
  8
WHITE
 10
6.224681
 20
8.292807
 30
0.000000
 11
6.245332
 21
8.354761
 31
0.000000
  6
CONTINUOUS
  0
LINE
  8
WHITE
 10
6.245332
 20
8.354761
 30
0.000000
 11
6.224285
 21
8.558233
 31
0.000000
  6
CONTINUOUS
  0
ARC
  8
WHITE
 10
6.247114
 20
8.560594
 30
0.000000
 40
0.022951
 50
169.089475
 51
185.904600
  6
CONTINUOUS
  0
LINE
  8
WHITE
 10
6.224579
 20
8.564938
 30
0.000000
 11
6.253350
 21
8.714198
 31
0.000000
  6
CONTINUOUS
  0
LINE
  8
WHITE
 10
6.253350
 20
8.714198
 30
0.000000
 11
6.246273
 21
8.767978
 31
0.000000
  6
CONTINUOUS
  0
LINE
  8
WHITE
 10
6.246273
 20
8.767978
 30
0.000000
 11
6.310693
 21
9.064284
 31
0.000000
  6
CONTINUOUS
  0
LINE
  8
WHITE
 10
6.310693
 20
9.064284
 30
0.000000
 11
6.278003
 21
9.088801
 31
0.000000
  6
CONTINUOUS
  0
LINE
  8
WHITE
 10
6.278003
 20
9.088801
 30
0.000000
 11
6.232784
 21
9.067029
 31
0.000000
  6
CONTINUOUS
  0
LINE
  8
WHITE
 10
6.232784
 20
9.067029
 30
0.000000
 11
6.199270
 21
9.011172
 31
0.000000
  6
CONTINUOUS
  0
LINE
  8
WHITE
 10
6.199270
 20
9.011172
 30
0.000000
 11
6.079052
 21
8.725963
 31
0.000000
  6
CONTINUOUS
  0
LINE
  8
WHITE
 10
6.079052
 20
8.725963
 30
0.000000
 11
6.054957
 21
8.644366
 31
0.000000
  6
CONTINUOUS
  0
LINE
  8
WHITE
 10
6.054957
 20
8.644366
 30
0.000000
 11
6.051569
 21
8.632891
 31
0.000000
  6
CONTINUOUS
  0
LINE
  8
WHITE
 10
9.766708
 20
2.991137
 30
0.000000
 11
9.809866
 21
3.143104
 31
0.000000
  6
CONTINUOUS
  0
ARC
  8
WHITE
 10
7.041920
 20
4.431488
 30
0.000000
 40
3.053106
 50
-24.960364
 51
-9.847838
  6
CONTINUOUS
  0
LINE
  8
WHITE
 10
10.050040
 20
3.909309
 30
0.000000
 11
10.079706
 21
3.925282
 31
0.000000
  6
CONTINUOUS
  0
ARC
  8
WHITE
 10
10.134506
 20
3.992775
 30
0.000000
 40
0.086939
 50
-129.074390
 51
-47.947911
  6
CONTINUOUS
  0
LINE
  8
WHITE
 10
10.192738
 20
3.928220
 30
0.000000
 11
10.405993
 21
4.541092
 31
0.000000
  6
CONTINUOUS
  0
ARC
  8
WHITE
 10
9.867000
 20
4.728003
 30
0.000000
 40
0.570482
 50
-19.125429
 51
6.637535
  6
CONTINUOUS
  0
LINE
  8
WHITE
 10
10.433658
 20
4.793944
 30
0.000000
 11
10.432269
 21
5.149655
 31
0.000000
  6
CONTINUOUS
  0
ARC
  8
WHITE
 10
10.408725
 20
5.143944
 30
0.000000
 40
0.024227
 50
13.634726
 51
168.581467
  6
CONTINUOUS
  0
ARC
  8
WHITE
 10
8.816908
 20
5.089049
 30
0.000000
 40
1.569205
 50
-28.066317
 51
2.180012
  6
CONTINUOUS
  0
LINE
  8
WHITE
 10
10.201580
 20
4.350749
 30
0.000000
 11
10.162480
 21
4.217033
 31
0.000000
  6
CONTINUOUS
  0
ARC
  8
WHITE
 10
10.140963
 20
4.234200
 30
0.000000
 40
0.027526
 50
-129.245593
 51
-38.584065
  6
CONTINUOUS
  0
LINE
  8
WHITE
 10
10.123549
 20
4.212883
 30
0.000000
 11
10.094098
 21
4.268101
 31
0.000000
  6
CONTINUOUS
  0
ARC
  8
WHITE
 10
10.069334
 20
4.247528
 30
0.000000
 40
0.032195
 50
39.718528
 51
139.114461
  6
CONTINUOUS
  0
LINE
  8
WHITE
 10
10.044994
 20
4.268601
 30
0.000000
 11
10.014830
 21
4.198219
 31
0.000000
  6
CONTINUOUS
  0
LINE
  8
WHITE
 10
10.014830
 20
4.198219
 30
0.000000
 11
9.980586
 21
4.036098
 31
0.000000
  6
CONTINUOUS
  0
LINE
  8
WHITE
 10
9.980586
 20
4.036098
 30
0.000000
 11
9.949759
 21
3.963236
 31
0.000000
  6
CONTINUOUS
  0
LINE
  8
WHITE
 10
9.949759
 20
3.963236
 30
0.000000
 11
9.943755
 21
3.916407
 31
0.000000
  6
CONTINUOUS
  0
LINE
  8
WHITE
 10
9.943755
 20
3.916407
 30
0.000000
 11
9.866605
 21
3.661954
 31
0.000000
  6
CONTINUOUS
  0
LINE
  8
WHITE
 10
9.866605
 20
3.661954
 30
0.000000
 11
9.810552
 21
3.512782
 31
0.000000
  6
CONTINUOUS
  0
LINE
  8
WHITE
 10
9.810552
 20
3.512782
 30
0.000000
 11
9.776325
 21
3.462033
 31
0.000000
  6
CONTINUOUS
  0
LINE
  8
WHITE
 10
9.776325
 20
3.462033
 30
0.000000
 11
9.723259
 21
3.358207
 31
0.000000
  6
CONTINUOUS
  0
LINE
  8
WHITE
 10
9.723259
 20
3.358207
 30
0.000000
 11
9.686967
 21
3.364519
 31
0.000000
  6
CONTINUOUS
  0
LINE
  8
WHITE
 10
9.686967
 20
3.364519
 30
0.000000
 11
9.639497
 21
3.431768
 31
0.000000
  6
CONTINUOUS
  0
LINE
  8
WHITE
 10
9.639497
 20
3.431768
 30
0.000000
 11
9.599603
 21
3.420370
 31
0.000000
  6
CONTINUOUS
  0
LINE
  8
WHITE
 10
9.599603
 20
3.420370
 30
0.000000
 11
9.547375
 21
3.278943
 31
0.000000
  6
CONTINUOUS
  0
ARC
  8
WHITE
 10
9.922991
 20
3.136383
 30
0.000000
 40
0.401760
 50
159.216416
 51
187.055415
  6
CONTINUOUS
  0
LINE
  8
WHITE
 10
9.524274
 20
3.087035
 30
0.000000
 11
9.508623
 21
2.974680
 31
0.000000
  6
CONTINUOUS
  0
LINE
  8
WHITE
 10
9.508623
 20
2.974680
 30
0.000000
 11
9.505411
 21
2.781951
 31
0.000000
  6
CONTINUOUS
  0
ARC
  8
WHITE
 10
9.602972
 20
2.690207
 30
0.000000
 40
0.133922
 50
136.760042
 51
197.120268
  6
CONTINUOUS
  0
LINE
  8
WHITE
 10
9.474984
 20
2.650783
 30
0.000000
 11
9.503169
 21
2.628861
 31
0.000000
  6
CONTINUOUS
  0
ARC
  8
WHITE
 10
9.748909
 20
5.698653
 30
0.000000
 40
3.079612
 50
-94.576826
 51
-81.672554
  6
CONTINUOUS
  0
LINE
  8
WHITE
 10
10.194930
 20
2.651510
 30
0.000000
 11
10.213810
 21
2.661999
 31
0.000000
  6
CONTINUOUS
  0
LINE
  8
WHITE
 10
10.213810
 20
2.661999
 30
0.000000
 11
10.228940
 21
2.681453
 31
0.000000
  6
CONTINUOUS
  0
LINE
  8
WHITE
 10
10.228940
 20
2.681453
 30
0.000000
 11
10.219439
 21
2.722623
 31
0.000000
  6
CONTINUOUS
  0
LINE
  8
WHITE
 10
10.219439
 20
2.722623
 30
0.000000
 11
10.197943
 21
2.736953
 31
0.000000
  6
CONTINUOUS
  0
LINE
  8
WHITE
 10
10.197943
 20
2.736953
 30
0.000000
 11
10.075516
 21
2.725488
 31
0.000000
  6
CONTINUOUS
  0
LINE
  8
WHITE
 10
10.075516
 20
2.725488
 30
0.000000
 11
9.952548
 21
2.703617
 31
0.000000
  6
CONTINUOUS
  0
LINE
  8
WHITE
 10
9.952548
 20
2.703617
 30
0.000000
 11
9.777125
 21
2.703617
 31
0.000000
  6
CONTINUOUS
  0
LINE
  8
WHITE
 10
9.777125
 20
2.703617
 30
0.000000
 11
9.733060
 21
2.729730
 31
0.000000
  6
CONTINUOUS
  0
LINE
  8
WHITE
 10
9.733060
 20
2.729730
 30
0.000000
 11
9.706128
 21
2.777823
 31
0.000000
  6
CONTINUOUS
  0
LINE
  8
WHITE
 10
9.706128
 20
2.777823
 30
0.000000
 11
9.763449
 21
2.979662
 31
0.000000
  6
CONTINUOUS
  0
LINE
  8
WHITE
 10
9.763449
 20
2.979662
 30
0.000000
 11
9.766708
 21
2.991137
 31
0.000000
  6
CONTINUOUS
  0
LINE
  8
WHITE
 10
9.972338
 20
2.358564
 30
0.000000
 11
10.970173
 21
2.471535
 31
0.000000
  6
CONTINUOUS
  0
ARC
  8
WHITE
 10
10.876498
 20
4.175901
 30
0.000000
 40
1.706938
 50
-86.854087
 51
-70.643263
  6
CONTINUOUS
  0
ARC
  8
WHITE
 10
11.392120
 20
2.636648
 30
0.000000
 40
0.087081
 50
-54.844915
 51
81.391053
  6
CONTINUOUS
  0
LINE
  8
WHITE
 10
11.405155
 20
2.722748
 30
0.000000
 11
11.007235
 21
2.776901
 31
0.000000
  6
CONTINUOUS
  0
LINE
  8
WHITE
 10
11.007235
 20
2.776901
 30
0.000000
 11
10.801310
 21
2.784359
 31
0.000000
  6
CONTINUOUS
  0
ARC
  8
WHITE
 10
10.818852
 20
2.743763
 30
0.000000
 40
0.044224
 50
113.369730
 51
268.540041
  6
CONTINUOUS
  0
LINE
  8
WHITE
 10
10.817725
 20
2.699553
 30
0.000000
 11
10.918644
 21
2.699898
 31
0.000000
  6
CONTINUOUS
  0
ARC
  8
WHITE
 10
10.909287
 20
2.669468
 30
0.000000
 40
0.031836
 50
-72.908471
 51
72.907724
  6
CONTINUOUS
  0
LINE
  8
WHITE
 10
10.918644
 20
2.639037
 30
0.000000
 11
10.383303
 21
2.549095
 31
0.000000
  6
CONTINUOUS
  0
LINE
  8
WHITE
 10
10.383303
 20
2.549095
 30
0.000000
 11
9.298760
 21
2.406323
 31
0.000000
  6
CONTINUOUS
  0
LINE
  8
WHITE
 10
9.298760
 20
2.406323
 30
0.000000
 11
8.997581
 21
2.387666
 31
0.000000
  6
CONTINUOUS
  0
ARC
  8
WHITE
 10
8.624260
 20
4.912350
 30
0.000000
 40
2.552136
 50
-88.709664
 51
-81.588715
  6
CONTINUOUS
  0
LINE
  8
WHITE
 10
8.681731
 20
2.360861
 30
0.000000
 11
8.482369
 21
2.346445
 31
0.000000
  6
CONTINUOUS
  0
LINE
  8
WHITE
 10
8.482369
 20
2.346445
 30
0.000000
 11
7.863726
 21
2.322547
 31
0.000000
  6
CONTINUOUS
  0
LINE
  8
WHITE
 10
7.863726
 20
2.322547
 30
0.000000
 11
7.820388
 21
2.311977
 31
0.000000
  6
CONTINUOUS
  0
ARC
  8
WHITE
 10
7.821880
 20
2.286425
 30
0.000000
 40
0.025596
 50
93.341748
 51
270.608968
  6
CONTINUOUS
  0
ARC
  8
WHITE
 10
7.936629
 20
21.439725
 30
0.000000
 40
19.179236
 50
-90.341989
 51
-85.094395
  6
CONTINUOUS
  0
LINE
  8
WHITE
 10
9.576730
 20
2.330744
 30
0.000000
 11
9.972338
 21
2.358564
 31
0.000000
  6
CONTINUOUS
  0
ARC
  8
WHITE
 10
18.002814
 20
9.903391
 30
0.000000
 40
0.060990
 50
168.983415
 51
221.341845
  6
CONTINUOUS
  0
ARC
  8
WHITE
 10
17.839556
 20
9.404577
 30
0.000000
 40
0.473335
 50
28.458864
 51
75.630709
  6
CONTINUOUS
  0
LINE
  8
WHITE
 10
18.255693
 20
9.630134
 30
0.000000
 11
18.331899
 21
9.488909
 31
0.000000
  6
CONTINUOUS
  0
LINE
  8
WHITE
 10
18.331899
 20
9.488909
 30
0.000000
 11
18.329487
 21
9.382112
 31
0.000000
  6
CONTINUOUS
  0
ARC
  8
WHITE
 10
18.422976
 20
9.377862
 30
0.000000
 40
0.093586
 50
177.397132
 51
260.744111
  6
CONTINUOUS
  0
ARC
  8
WHITE
 10
18.411615
 20
9.308146
 30
0.000000
 40
0.022949
 50
-99.256696
 51
-34.693501
  6
CONTINUOUS
  0
LINE
  8
WHITE
 10
18.430485
 20
9.295083
 30
0.000000
 11
18.440044
 21
9.308892
 31
0.000000
  6
CONTINUOUS
  0
LINE
  8
WHITE
 10
18.440044
 20
9.308892
 30
0.000000
 11
18.429486
 21
9.376465
 31
0.000000
  6
CONTINUOUS
  0
LINE
  8
WHITE
 10
18.429486
 20
9.376465
 30
0.000000
 11
18.429486
 21
9.471507
 31
0.000000
  6
CONTINUOUS
  0
LINE
  8
WHITE
 10
18.429486
 20
9.471507
 30
0.000000
 11
18.447632
 21
9.509311
 31
0.000000
  6
CONTINUOUS
  0
ARC
  8
WHITE
 10
18.468322
 20
9.499380
 30
0.000000
 40
0.022950
 50
78.231640
 51
154.359444
  6
CONTINUOUS
  0
LINE
  8
WHITE
 10
18.473003
 20
9.521848
 30
0.000000
 11
18.516231
 21
9.512842
 31
0.000000
  6
CONTINUOUS
  0
LINE
  8
WHITE
 10
18.516231
 20
9.512842
 30
0.000000
 11
18.554174
 21
9.514066
 31
0.000000
  6
CONTINUOUS
  0
ARC
  8
WHITE
 10
18.553434
 20
9.537004
 30
0.000000
 40
0.022950
 50
-88.152229
 51
0.000000
  6
CONTINUOUS
  0
LINE
  8
WHITE
 10
18.576384
 20
9.537004
 30
0.000000
 11
18.576384
 21
9.559483
 31
0.000000
  6
CONTINUOUS
  0
LINE
  8
WHITE
 10
18.576384
 20
9.559483
 30
0.000000
 11
18.536666
 21
9.616006
 31
0.000000
  6
CONTINUOUS
  0
LINE
  8
WHITE
 10
18.536666
 20
9.616006
 30
0.000000
 11
18.502578
 21
9.644979
 31
0.000000
  6
CONTINUOUS
  0
LINE
  8
WHITE
 10
18.502578
 20
9.644979
 30
0.000000
 11
18.405355
 21
9.784592
 31
0.000000
  6
CONTINUOUS
  0
LINE
  8
WHITE
 10
18.405355
 20
9.784592
 30
0.000000
 11
18.417318
 21
9.828458
 31
0.000000
  6
CONTINUOUS
  0
ARC
  8
WHITE
 10
18.512081
 20
9.612222
 30
0.000000
 40
0.236089
 50
55.858619
 51
113.664896
  6
CONTINUOUS
  0
ARC
  8
WHITE
 10
18.673600
 20
9.849468
 30
0.000000
 40
0.050923
 50
-124.738653
 51
-75.188413
  6
CONTINUOUS
  0
ARC
  8
WHITE
 10
18.695464
 20
9.834798
 30
0.000000
 40
0.035675
 50
-104.356823
 51
-37.197686
  6
CONTINUOUS
  0
ARC
  8
WHITE
 10
18.580823
 20
9.842309
 30
0.000000
 40
0.145984
 50
-11.489782
 51
3.861961
  6
CONTINUOUS
  0
ARC
  8
WHITE
 10
18.628692
 20
9.857377
 30
0.000000
 40
0.097923
 50
-3.064892
 51
39.802695
  6
CONTINUOUS
  0
ARC
  8
WHITE
 10
18.538081
 20
9.846756
 30
0.000000
 40
0.181320
 50
23.846706
 51
44.105693
  6
CONTINUOUS
  0
ARC
  8
WHITE
 10
18.770067
 20
10.072395
 30
0.000000
 40
0.142301
 50
-158.985885
 51
-135.667575
  6
CONTINUOUS
  0
ARC
  8
WHITE
 10
18.654988
 20
10.041690
 30
0.000000
 40
0.026989
 50
95.432162
 51
228.854820
  6
CONTINUOUS
  0
ARC
  8
WHITE
 10
18.731165
 20
9.925223
 30
0.000000
 40
0.163536
 50
90.186660
 51
118.779292
  6
CONTINUOUS
  0
LINE
  8
WHITE
 10
18.730632
 20
10.088758
 30
0.000000
 11
18.791420
 21
10.088758
 31
0.000000
  6
CONTINUOUS
  0
ARC
  8
WHITE
 10
18.804165
 20
9.916798
 30
0.000000
 40
0.172432
 50
63.968375
 51
94.238788
  6
CONTINUOUS
  0
ARC
  8
WHITE
 10
18.899989
 20
10.137288
 30
0.000000
 40
0.068579
 50
-107.086689
 51
-31.798011
  6
CONTINUOUS
  0
LINE
  8
WHITE
 10
18.958275
 20
10.101152
 30
0.000000
 11
18.941106
 21
10.170706
 31
0.000000
  6
CONTINUOUS
  0
ARC
  8
WHITE
 10
18.987511
 20
10.183852
 30
0.000000
 40
0.048231
 50
94.952385
 51
195.816813
  6
CONTINUOUS
  0
LINE
  8
WHITE
 10
18.983347
 20
10.231903
 30
0.000000
 11
19.175135
 21
10.239159
 31
0.000000
  6
CONTINUOUS
  0
ARC
  8
WHITE
 10
19.170784
 20
10.301673
 30
0.000000
 40
0.062665
 50
-86.018611
 51
22.610136
  6
CONTINUOUS
  0
ARC
  8
WHITE
 10
19.522835
 20
11.963053
 30
0.000000
 40
1.663510
 50
-105.673713
 51
-100.186702
  6
CONTINUOUS
  0
LINE
  8
WHITE
 10
19.073423
 20
10.361398
 30
0.000000
 11
19.082142
 21
10.402817
 31
0.000000
  6
CONTINUOUS
  0
ARC
  8
WHITE
 10
19.347432
 20
10.077846
 30
0.000000
 40
0.419506
 50
91.528214
 51
129.226473
  6
CONTINUOUS
  0
ARC
  8
WHITE
 10
19.216493
 20
10.720495
 30
0.000000
 40
0.253378
 50
-61.795543
 51
-12.806098
  6
CONTINUOUS
  0
LINE
  8
WHITE
 10
19.463568
 20
10.664333
 30
0.000000
 11
19.416405
 21
10.675653
 31
0.000000
  6
CONTINUOUS
  0
LINE
  8
WHITE
 10
19.416405
 20
10.675653
 30
0.000000
 11
19.327922
 21
10.629641
 31
0.000000
  6
CONTINUOUS
  0
LINE
  8
WHITE
 10
19.327922
 20
10.629641
 30
0.000000
 11
19.007487
 21
10.522085
 31
0.000000
  6
CONTINUOUS
  0
LINE
  8
WHITE
 10
19.007487
 20
10.522085
 30
0.000000
 11
18.768751
 21
10.392263
 31
0.000000
  6
CONTINUOUS
  0
LINE
  8
WHITE
 10
18.768751
 20
10.392263
 30
0.000000
 11
18.617519
 21
10.296934
 31
0.000000
  6
CONTINUOUS
  0
LINE
  8
WHITE
 10
18.617519
 20
10.296934
 30
0.000000
 11
18.586288
 21
10.288786
 31
0.000000
  6
CONTINUOUS
  0
LINE
  8
WHITE
 10
18.586288
 20
10.288786
 30
0.000000
 11
18.569466
 21
10.261450
 31
0.000000
  6
CONTINUOUS
  0
ARC
  8
WHITE
 10
19.115616
 20
9.233691
 30
0.000000
 40
1.163859
 50
117.986127
 51
139.599786
  6
CONTINUOUS
  0
LINE
  8
WHITE
 10
18.229296
 20
9.988014
 30
0.000000
 11
18.132747
 21
9.900749
 31
0.000000
  6
CONTINUOUS
  0
LINE
  8
WHITE
 10
18.132747
 20
9.900749
 30
0.000000
 11
18.084674
 21
9.893465
 31
0.000000
  6
CONTINUOUS
  0
LINE
  8
WHITE
 10
18.084674
 20
9.893465
 30
0.000000
 11
17.965184
 21
9.929869
 31
0.000000
  6
CONTINUOUS
  0
LINE
  8
WHITE
 10
17.965184
 20
9.929869
 30
0.000000
 11
17.942948
 21
9.915046
 31
0.000000
  6
CONTINUOUS
  0
ARC
  8
WHITE
 10
11.782835
 20
3.431006
 30
0.000000
 40
0.255788
 50
-101.023797
 51
-82.848838
  6
CONTINUOUS
  0
ARC
  8
WHITE
 10
11.739503
 20
3.372669
 30
0.000000
 40
0.192811
 50
-115.657137
 51
-91.658018
  6
CONTINUOUS
  0
ARC
  8
WHITE
 10
11.667349
 20
3.251762
 30
0.000000
 40
0.054093
 50
-159.433686
 51
-102.090636
  6
CONTINUOUS
  0
ARC
  8
WHITE
 10
11.830643
 20
3.345799
 30
0.000000
 40
0.241968
 50
156.629375
 51
207.850641
  6
CONTINUOUS
  0
ARC
  8
WHITE
 10
4.636951
 20
6.516365
 30
0.000000
 40
7.619445
 50
-23.798291
 51
-20.545265
  6
CONTINUOUS
  0
LINE
  8
WHITE
 10
11.771762
 20
3.842342
 30
0.000000
 11
11.796555
 21
3.853188
 31
0.000000
  6
CONTINUOUS
  0
LINE
  8
WHITE
 10
11.796555
 20
3.853188
 30
0.000000
 11
11.822282
 21
3.846756
 31
0.000000
  6
CONTINUOUS
  0
LINE
  8
WHITE
 10
11.822282
 20
3.846756
 30
0.000000
 11
11.838998
 21
3.821682
 31
0.000000
  6
CONTINUOUS
  0
LINE
  8
WHITE
 10
11.838998
 20
3.821682
 30
0.000000
 11
11.827369
 21
3.702387
 31
0.000000
  6
CONTINUOUS
  0
LINE
  8
WHITE
 10
11.827369
 20
3.702387
 30
0.000000
 11
11.765328
 21
3.520979
 31
0.000000
  6
CONTINUOUS
  0
LINE
  8
WHITE
 10
11.765328
 20
3.520979
 30
0.000000
 11
11.786203
 21
3.477624
 31
0.000000
  6
CONTINUOUS
  0
LINE
  8
WHITE
 10
11.786203
 20
3.477624
 30
0.000000
 11
11.810172
 21
3.480621
 31
0.000000
  6
CONTINUOUS
  0
LINE
  8
WHITE
 10
11.810172
 20
3.480621
 30
0.000000
 11
11.932087
 21
3.699164
 31
0.000000
  6
CONTINUOUS
  0
LINE
  8
WHITE
 10
11.932087
 20
3.699164
 30
0.000000
 11
11.972623
 21
3.688354
 31
0.000000
  6
CONTINUOUS
  0
LINE
  8
WHITE
 10
11.972623
 20
3.688354
 30
0.000000
 11
12.007929
 21
3.656411
 31
0.000000
  6
CONTINUOUS
  0
LINE
  8
WHITE
 10
12.007929
 20
3.656411
 30
0.000000
 11
12.007929
 21
3.566954
 31
0.000000
  6
CONTINUOUS
  0
LINE
  8
WHITE
 10
12.007929
 20
3.566954
 30
0.000000
 11
12.039114
 21
3.560717
 31
0.000000
  6
CONTINUOUS
  0
LINE
  8
WHITE
 10
12.039114
 20
3.560717
 30
0.000000
 11
12.098929
 21
3.661206
 31
0.000000
  6
CONTINUOUS
  0
LINE
  8
WHITE
 10
12.098929
 20
3.661206
 30
0.000000
 11
12.106465
 21
3.695876
 31
0.000000
  6
CONTINUOUS
  0
ARC
  8
WHITE
 10
11.611739
 20
4.065691
 30
0.000000
 40
0.617670
 50
-36.778649
 51
-11.359778
  6
CONTINUOUS
  0
LINE
  8
WHITE
 10
12.217309
 20
3.944029
 30
0.000000
 11
12.269297
 21
4.048418
 31
0.000000
  6
CONTINUOUS
  0
LINE
  8
WHITE
 10
12.269297
 20
4.048418
 30
0.000000
 11
12.303221
 21
4.036445
 31
0.000000
  6
CONTINUOUS
  0
LINE
  8
WHITE
 10
12.303221
 20
4.036445
 30
0.000000
 11
12.303550
 21
3.886729
 31
0.000000
  6
CONTINUOUS
  0
LINE
  8
WHITE
 10
12.303550
 20
3.886729
 30
0.000000
 11
12.324307
 21
3.811685
 31
0.000000
  6
CONTINUOUS
  0
LINE
  8
WHITE
 10
12.324307
 20
3.811685
 30
0.000000
 11
12.397880
 21
3.788562
 31
0.000000
  6
CONTINUOUS
  0
LINE
  8
WHITE
 10
12.397880
 20
3.788562
 30
0.000000
 11
12.414711
 21
3.689551
 31
0.000000
  6
CONTINUOUS
  0
LINE
  8
WHITE
 10
12.414711
 20
3.689551
 30
0.000000
 11
12.399298
 21
3.563683
 31
0.000000
  6
CONTINUOUS
  0
LINE
  8
WHITE
 10
12.399298
 20
3.563683
 30
0.000000
 11
12.388491
 21
3.538825
 31
0.000000
  6
CONTINUOUS
  0
LINE
  8
WHITE
 10
12.388491
 20
3.538825
 30
0.000000
 11
12.358438
 21
3.537058
 31
0.000000
  6
CONTINUOUS
  0
LINE
  8
WHITE
 10
12.358438
 20
3.537058
 30
0.000000
 11
12.322279
 21
3.558327
 31
0.000000
  6
CONTINUOUS
  0
LINE
  8
WHITE
 10
12.322279
 20
3.558327
 30
0.000000
 11
12.272038
 21
3.659581
 31
0.000000
  6
CONTINUOUS
  0
ARC
  8
WHITE
 10
12.246873
 20
3.610436
 30
0.000000
 40
0.055213
 50
62.885267
 51
118.936273
  6
CONTINUOUS
  0
LINE
  8
WHITE
 10
12.220159
 20
3.658756
 30
0.000000
 11
12.203180
 21
3.628194
 31
0.000000
  6
CONTINUOUS
  0
LINE
  8
WHITE
 10
12.203180
 20
3.628194
 30
0.000000
 11
12.191720
 21
3.519981
 31
0.000000
  6
CONTINUOUS
  0
LINE
  8
WHITE
 10
12.191720
 20
3.519981
 30
0.000000
 11
12.243639
 21
3.290010
 31
0.000000
  6
CONTINUOUS
  0
ARC
  8
WHITE
 10
11.592471
 20
2.918257
 30
0.000000
 40
0.749813
 50
0.884598
 51
29.722139
  6
CONTINUOUS
  0
LINE
  8
WHITE
 10
12.342194
 20
2.929833
 30
0.000000
 11
12.328230
 21
2.892597
 31
0.000000
  6
CONTINUOUS
  0
LINE
  8
WHITE
 10
12.328230
 20
2.892597
 30
0.000000
 11
12.292302
 21
2.859793
 31
0.000000
  6
CONTINUOUS
  0
LINE
  8
WHITE
 10
12.292302
 20
2.859793
 30
0.000000
 11
12.268301
 21
2.853393
 31
0.000000
  6
CONTINUOUS
  0
LINE
  8
WHITE
 10
12.268301
 20
2.853393
 30
0.000000
 11
12.185190
 21
2.862141
 31
0.000000
  6
CONTINUOUS
  0
LINE
  8
WHITE
 10
12.185190
 20
2.862141
 30
0.000000
 11
12.140380
 21
2.880592
 31
0.000000
  6
CONTINUOUS
  0
LINE
  8
WHITE
 10
12.140380
 20
2.880592
 30
0.000000
 11
12.110012
 21
2.917033
 31
0.000000
  6
CONTINUOUS
  0
LINE
  8
WHITE
 10
12.110012
 20
2.917033
 30
0.000000
 11
12.050857
 21
3.053223
 31
0.000000
  6
CONTINUOUS
  0
ARC
  8
WHITE
 10
11.797729
 20
2.945961
 30
0.000000
 40
0.274916
 50
22.964678
 51
59.479095
  6
CONTINUOUS
  0
LINE
  8
WHITE
 10
11.937346
 20
3.182786
 30
0.000000
 11
11.814677
 21
3.177208
 31
0.000000
  6
CONTINUOUS
  0
ARC
  8
WHITE
 10
16.083150
 20
7.412271
 30
0.000000
 40
5.183454
 50
-105.734093
 51
-85.458574
  6
CONTINUOUS
  0
LINE
  8
WHITE
 10
16.493575
 20
2.245091
 30
0.000000
 11
17.255006
 21
2.235310
 31
0.000000
  6
CONTINUOUS
  0
ARC
  8
WHITE
 10
17.244725
 20
2.270518
 30
0.000000
 40
0.036678
 50
-73.721800
 51
83.524340
  6
CONTINUOUS
  0
LINE
  8
WHITE
 10
17.248862
 20
2.306963
 30
0.000000
 11
16.214725
 21
2.335863
 31
0.000000
  6
CONTINUOUS
  0
ARC
  8
WHITE
 10
16.394159
 20
8.843782
 30
0.000000
 40
6.510392
 50
-103.277714
 51
-91.579338
  6
CONTINUOUS
  0
ARC
  8
WHITE
 10
14.911391
 20
2.533665
 30
0.000000
 40
0.029059
 50
111.857031
 51
244.562457
  6
CONTINUOUS
  0
LINE
  8
WHITE
 10
14.900573
 20
2.560635
 30
0.000000
 11
14.970093
 21
2.607608
 31
0.000000
  6
CONTINUOUS
  0
LINE
  8
WHITE
 10
14.970093
 20
2.607608
 30
0.000000
 11
15.293906
 21
2.679787
 31
0.000000
  6
CONTINUOUS
  0
LINE
  8
WHITE
 10
15.293906
 20
2.679787
 30
0.000000
 11
15.891698
 21
2.763979
 31
0.000000
  6
CONTINUOUS
  0
ARC
  8
WHITE
 10
15.868393
 20
2.798826
 30
0.000000
 40
0.041922
 50
-56.226160
 51
71.830708
  6
CONTINUOUS
  0
ARC
  8
WHITE
 10
15.844773
 20
-0.759240
 30
0.000000
 40
3.598085
 50
89.415702
 51
110.648864
  6
CONTINUOUS
  0
ARC
  8
WHITE
 10
14.625572
 20
2.546654
 30
0.000000
 40
0.078673
 50
129.109051
 51
234.089217
  6
CONTINUOUS
  0
LINE
  8
WHITE
 10
14.579428
 20
2.482934
 30
0.000000
 11
14.677536
 21
2.423038
 31
0.000000
  6
CONTINUOUS
  0
ARC
  8
WHITE
 10
4.706335
 20
15.259922
 30
0.000000
 40
12.810370
 50
-95.896950
 51
-85.052848
  6
CONTINUOUS
  0
ARC
  8
WHITE
 10
5.783216
 20
2.532919
 30
0.000000
 40
0.045232
 50
-52.004005
 51
82.356339
  6
CONTINUOUS
  0
LINE
  8
WHITE
 10
5.789232
 20
2.577749
 30
0.000000
 11
4.489881
 21
2.562557
 31
0.000000
  6
CONTINUOUS
  0
LINE
  8
WHITE
 10
4.489881
 20
2.562557
 30
0.000000
 11
4.207979
 21
2.586212
 31
0.000000
  6
CONTINUOUS
  0
ARC
  8
WHITE
 10
4.204887
 20
2.605130
 30
0.000000
 40
0.019169
 50
114.965022
 51
279.282475
  6
CONTINUOUS
  0
ARC
  8
WHITE
 10
5.040836
 20
-1.739189
 30
0.000000
 40
4.442612
 50
91.121919
 51
100.952039
  6
CONTINUOUS
  0
ARC
  8
WHITE
 10
4.942360
 20
2.751142
 30
0.000000
 40
0.049912
 50
-76.690913
 51
88.857112
  6
CONTINUOUS
  0
LINE
  8
WHITE
 10
4.943356
 20
2.801044
 30
0.000000
 11
4.474142
 21
2.777858
 31
0.000000
  6
CONTINUOUS
  0
LINE
  8
WHITE
 10
4.474142
 20
2.777858
 30
0.000000
 11
3.739650
 21
2.695337
 31
0.000000
  6
CONTINUOUS
  0
LINE
  8
WHITE
 10
3.739650
 20
2.695337
 30
0.000000
 11
3.415089
 21
2.638405
 31
0.000000
  6
CONTINUOUS
  0
ARC
  8
WHITE
 10
3.427751
 20
2.572712
 30
0.000000
 40
0.066902
 50
100.909690
 51
235.858333
  6
CONTINUOUS
  0
ARC
  8
WHITE
 10
15.670923
 20
12.123886
 30
0.000000
 40
1.961431
 50
-113.715148
 51
-103.513895
  6
CONTINUOUS
  0
ARC
  8
WHITE
 10
15.133499
 20
11.010431
 30
0.000000
 40
0.727199
 50
-132.342218
 51
-110.228788
  6
CONTINUOUS
  0
LINE
  8
WHITE
 10
14.643689
 20
10.472933
 30
0.000000
 11
14.436979
 21
10.673180
 31
0.000000
  6
CONTINUOUS
  0
ARC
  8
WHITE
 10
16.246615
 20
12.530367
 30
0.000000
 40
2.593053
 50
-148.559079
 51
-134.257032
  6
CONTINUOUS
  0
LINE
  8
WHITE
 10
14.034278
 20
11.177781
 30
0.000000
 11
13.943814
 21
11.297171
 31
0.000000
  6
CONTINUOUS
  0
LINE
  8
WHITE
 10
13.943814
 20
11.297171
 30
0.000000
 11
13.836650
 21
11.458574
 31
0.000000
  6
CONTINUOUS
  0
LINE
  8
WHITE
 10
13.836650
 20
11.458574
 30
0.000000
 11
13.800228
 21
11.494996
 31
0.000000
  6
CONTINUOUS
  0
LINE
  8
WHITE
 10
13.800228
 20
11.494996
 30
0.000000
 11
13.683584
 21
11.694632
 31
0.000000
  6
CONTINUOUS
  0
LINE
  8
WHITE
 10
13.683584
 20
11.694632
 30
0.000000
 11
13.687778
 21
11.730280
 31
0.000000
  6
CONTINUOUS
  0
LINE
  8
WHITE
 10
13.687778
 20
11.730280
 30
0.000000
 11
13.710119
 21
11.745747
 31
0.000000
  6
CONTINUOUS
  0
LINE
  8
WHITE
 10
13.710119
 20
11.745747
 30
0.000000
 11
13.742797
 21
11.734214
 31
0.000000
  6
CONTINUOUS
  0
LINE
  8
WHITE
 10
13.742797
 20
11.734214
 30
0.000000
 11
13.767367
 21
11.715786
 31
0.000000
  6
CONTINUOUS
  0
LINE
  8
WHITE
 10
13.767367
 20
11.715786
 30
0.000000
 11
14.067314
 21
11.269191
 31
0.000000
  6
CONTINUOUS
  0
LINE
  8
WHITE
 10
14.067314
 20
11.269191
 30
0.000000
 11
14.135884
 21
11.156014
 31
0.000000
  6
CONTINUOUS
  0
LINE
  8
WHITE
 10
14.135884
 20
11.156014
 30
0.000000
 11
14.417270
 21
10.802902
 31
0.000000
  6
CONTINUOUS
  0
LINE
  8
WHITE
 10
14.417270
 20
10.802902
 30
0.000000
 11
14.778805
 21
10.487509
 31
0.000000
  6
CONTINUOUS
  0
LINE
  8
WHITE
 10
14.778805
 20
10.487509
 30
0.000000
 11
15.071662
 21
10.404158
 31
0.000000
  6
CONTINUOUS
  0
ARC
  8
WHITE
 10
16.506896
 20
15.500957
 30
0.000000
 40
5.295022
 50
-105.726962
 51
-99.054647
  6
CONTINUOUS
  0
ARC
  8
WHITE
 10
15.597172
 20
9.622994
 30
0.000000
 40
0.653406
 50
55.120886
 51
83.284214
  6
CONTINUOUS
  0
ARC
  8
WHITE
 10
13.892862
 20
6.859512
 30
0.000000
 40
3.899319
 50
46.312922
 51
57.798189
  6
CONTINUOUS
  0
LINE
  8
WHITE
 10
16.586197
 20
9.679199
 30
0.000000
 11
16.600149
 21
9.660885
 31
0.000000
  6
CONTINUOUS
  0
LINE
  8
WHITE
 10
16.600149
 20
9.660885
 30
0.000000
 11
16.608996
 21
9.637296
 31
0.000000
  6
CONTINUOUS
  0
LINE
  8
WHITE
 10
16.608996
 20
9.637296
 30
0.000000
 11
16.608996
 21
9.612212
 31
0.000000
  6
CONTINUOUS
  0
LINE
  8
WHITE
 10
16.608996
 20
9.612212
 30
0.000000
 11
16.592778
 21
9.587886
 31
0.000000
  6
CONTINUOUS
  0
LINE
  8
WHITE
 10
16.592778
 20
9.587886
 30
0.000000
 11
16.522470
 21
9.586170
 31
0.000000
  6
CONTINUOUS
  0
LINE
  8
WHITE
 10
16.522470
 20
9.586170
 30
0.000000
 11
16.495847
 21
9.600506
 31
0.000000
  6
CONTINUOUS
  0
LINE
  8
WHITE
 10
16.495847
 20
9.600506
 30
0.000000
 11
16.457433
 21
9.632141
 31
0.000000
  6
CONTINUOUS
  0
LINE
  8
WHITE
 10
16.457433
 20
9.632141
 30
0.000000
 11
16.270377
 21
9.842807
 31
0.000000
  6
CONTINUOUS
  0
ARC
  8
WHITE
 10
15.572552
 20
9.227877
 30
0.000000
 40
0.930107
 50
41.386808
 51
83.528232
  6
CONTINUOUS
  0
ARC
  8
WHITE
 10
15.510035
 20
9.337285
 30
0.000000
 40
0.831782
 50
78.392981
 51
90.000029
  6
CONTINUOUS
  0
ARC
  8
WHITE
 10
15.670923
 20
12.123886
 30
0.000000
 40
1.961429
 50
-103.341572
 51
-94.705037
  6
CONTINUOUS
  0
LINE
  8
WHITE
 10
15.218312
 20
10.215393
 30
0.000000
 11
15.212574
 21
10.216761
 31
0.000000
  6
CONTINUOUS
  0
ARC
  8
WHITE
 10
10.702739
 20
7.620833
 30
0.000000
 40
4.764725
 50
-94.217991
 51
-80.968137
  6
CONTINUOUS
  0
ARC
  8
WHITE
 10
11.424761
 20
2.974452
 30
0.000000
 40
0.064704
 50
-66.343975
 51
38.929738
  6
CONTINUOUS
  0
ARC
  8
WHITE
 10
11.450993
 20
2.995641
 30
0.000000
 40
0.030982
 50
38.929803
 51
89.842328
  6
CONTINUOUS
  0
LINE
  8
WHITE
 10
11.451078
 20
3.026624
 30
0.000000
 11
11.190649
 21
3.027340
 31
0.000000
  6
CONTINUOUS
  0
LINE
  8
WHITE
 10
11.190649
 20
3.027340
 30
0.000000
 11
11.035230
 21
3.055839
 31
0.000000
  6
CONTINUOUS
  0
LINE
  8
WHITE
 10
11.035230
 20
3.055839
 30
0.000000
 11
10.974422
 21
3.096377
 31
0.000000
  6
CONTINUOUS
  0
LINE
  8
WHITE
 10
10.974422
 20
3.096377
 30
0.000000
 11
10.991644
 21
3.140661
 31
0.000000
  6
CONTINUOUS
  0
LINE
  8
WHITE
 10
10.991644
 20
3.140661
 30
0.000000
 11
11.068755
 21
3.165131
 31
0.000000
  6
CONTINUOUS
  0
ARC
  8
WHITE
 10
11.056990
 20
3.261828
 30
0.000000
 40
0.097410
 50
-83.062992
 51
-0.651532
  6
CONTINUOUS
  0
LINE
  8
WHITE
 10
11.154394
 20
3.260720
 30
0.000000
 11
11.152824
 21
3.366891
 31
0.000000
  6
CONTINUOUS
  0
ARC
  8
WHITE
 10
7.727402
 20
3.336159
 30
0.000000
 40
3.425560
 50
0.514029
 51
1.845748
  6
CONTINUOUS
  0
ARC
  8
WHITE
 10
11.089513
 20
3.437841
 30
0.000000
 40
0.062276
 50
7.985254
 51
117.888812
  6
CONTINUOUS
  0
ARC
  8
WHITE
 10
11.212088
 20
3.292189
 30
0.000000
 40
0.251580
 50
127.085606
 51
140.652747
  6
CONTINUOUS
  0
ARC
  8
WHITE
 10
10.976700
 20
3.485085
 30
0.000000
 40
0.052749
 50
-103.843328
 51
-39.270609
  6
CONTINUOUS
  0
LINE
  8
WHITE
 10
10.964079
 20
3.433868
 30
0.000000
 11
10.949898
 21
3.459866
 31
0.000000
  6
CONTINUOUS
  0
LINE
  8
WHITE
 10
10.949898
 20
3.459866
 30
0.000000
 11
10.969148
 21
3.540715
 31
0.000000
  6
CONTINUOUS
  0
LINE
  8
WHITE
 10
10.969148
 20
3.540715
 30
0.000000
 11
10.969148
 21
3.606298
 31
0.000000
  6
CONTINUOUS
  0
LINE
  8
WHITE
 10
10.969148
 20
3.606298
 30
0.000000
 11
11.031482
 21
3.701747
 31
0.000000
  6
CONTINUOUS
  0
LINE
  8
WHITE
 10
11.031482
 20
3.701747
 30
0.000000
 11
11.072078
 21
3.817486
 31
0.000000
  6
CONTINUOUS
  0
LINE
  8
WHITE
 10
11.072078
 20
3.817486
 30
0.000000
 11
11.109322
 21
3.871281
 31
0.000000
  6
CONTINUOUS
  0
LINE
  8
WHITE
 10
11.109322
 20
3.871281
 30
0.000000
 11
11.190992
 21
4.045982
 31
0.000000
  6
CONTINUOUS
  0
LINE
  8
WHITE
 10
11.190992
 20
4.045982
 30
0.000000
 11
11.197420
 21
4.105974
 31
0.000000
  6
CONTINUOUS
  0
LINE
  8
WHITE
 10
11.197420
 20
4.105974
 30
0.000000
 11
11.168437
 21
4.121318
 31
0.000000
  6
CONTINUOUS
  0
LINE
  8
WHITE
 10
11.168437
 20
4.121318
 30
0.000000
 11
11.142125
 21
4.104293
 31
0.000000
  6
CONTINUOUS
  0
LINE
  8
WHITE
 10
11.142125
 20
4.104293
 30
0.000000
 11
11.021006
 21
3.921083
 31
0.000000
  6
CONTINUOUS
  0
ARC
  8
WHITE
 10
12.727139
 20
2.796186
 30
0.000000
 40
2.043596
 50
146.602117
 51
163.342222
  6
CONTINUOUS
  0
LINE
  8
WHITE
 10
10.769305
 20
3.381992
 30
0.000000
 11
10.729573
 21
3.163737
 31
0.000000
  6
CONTINUOUS
  0
LINE
  8
WHITE
 10
10.729573
 20
3.163737
 30
0.000000
 11
10.729453
 21
2.999680
 31
0.000000
  6
CONTINUOUS
  0
LINE
  8
WHITE
 10
10.729453
 20
2.999680
 30
0.000000
 11
10.660634
 21
2.927332
 31
0.000000
  6
CONTINUOUS
  0
LINE
  8
WHITE
 10
10.660634
 20
2.927332
 30
0.000000
 11
10.558182
 21
2.918524
 31
0.000000
  6
CONTINUOUS
  0
LINE
  8
WHITE
 10
10.558182
 20
2.918524
 30
0.000000
 11
10.352287
 21
2.917221
 31
0.000000
  6
CONTINUOUS
  0
ARC
  8
WHITE
 10
10.355157
 20
2.893117
 30
0.000000
 40
0.024274
 50
96.790091
 51
263.209791
  6
CONTINUOUS
  0
LINE
  8
WHITE
 10
6.938180
 20
1.800235
 30
0.000000
 11
7.880120
 21
1.826490
 31
0.000000
  6
CONTINUOUS
  0
ARC
  8
WHITE
 10
7.877291
 20
1.941984
 30
0.000000
 40
0.115529
 50
-88.596833
 51
70.491896
  6
CONTINUOUS
  0
ARC
  8
WHITE
 10
7.655193
 20
-6.958319
 30
0.000000
 40
9.012970
 50
88.342633
 51
98.638713
  6
CONTINUOUS
  0
ARC
  8
WHITE
 10
6.352201
 20
1.873096
 30
0.000000
 40
0.094171
 50
122.635919
 51
252.823433
  6
CONTINUOUS
  0
LINE
  8
WHITE
 10
6.324391
 20
1.783125
 30
0.000000
 11
6.926705
 21
1.799915
 31
0.000000
  6
CONTINUOUS
  0
LINE
  8
WHITE
 10
6.926705
 20
1.799915
 30
0.000000
 11
6.938180
 21
1.800235
 31
0.000000
  6
CONTINUOUS
  0
LINE
  8
WHITE
 10
13.027474
 20
4.329962
 30
0.000000
 11
13.027474
 21
4.118388
 31
0.000000
  6
CONTINUOUS
  0
LINE
  8
WHITE
 10
13.027474
 20
4.118388
 30
0.000000
 11
13.017086
 21
4.095536
 31
0.000000
  6
CONTINUOUS
  0
LINE
  8
WHITE
 10
13.017086
 20
4.095536
 30
0.000000
 11
13.016960
 21
3.837184
 31
0.000000
  6
CONTINUOUS
  0
LINE
  8
WHITE
 10
13.016960
 20
3.837184
 30
0.000000
 11
13.001570
 21
3.814099
 31
0.000000
  6
CONTINUOUS
  0
LINE
  8
WHITE
 10
13.001570
 20
3.814099
 30
0.000000
 11
12.969575
 21
3.814099
 31
0.000000
  6
CONTINUOUS
  0
LINE
  8
WHITE
 10
12.969575
 20
3.814099
 30
0.000000
 11
12.945031
 21
3.832099
 31
0.000000
  6
CONTINUOUS
  0
ARC
  8
WHITE
 10
13.403347
 20
4.122292
 30
0.000000
 40
0.542463
 50
-177.391093
 51
-147.659130
  6
CONTINUOUS
  0
LINE
  8
WHITE
 10
12.861446
 20
4.097600
 30
0.000000
 11
12.838792
 21
4.105151
 31
0.000000
  6
CONTINUOUS
  0
LINE
  8
WHITE
 10
12.838792
 20
4.105151
 30
0.000000
 11
12.798169
 21
4.054856
 31
0.000000
  6
CONTINUOUS
  0
LINE
  8
WHITE
 10
12.798169
 20
4.054856
 30
0.000000
 11
12.710211
 21
3.710071
 31
0.000000
  6
CONTINUOUS
  0
LINE
  8
WHITE
 10
12.710211
 20
3.710071
 30
0.000000
 11
12.668073
 21
3.634573
 31
0.000000
  6
CONTINUOUS
  0
LINE
  8
WHITE
 10
12.668073
 20
3.634573
 30
0.000000
 11
12.609013
 21
3.641521
 31
0.000000
  6
CONTINUOUS
  0
LINE
  8
WHITE
 10
12.609013
 20
3.641521
 30
0.000000
 11
12.590884
 21
3.680197
 31
0.000000
  6
CONTINUOUS
  0
ARC
  8
WHITE
 10
14.740145
 20
3.970032
 30
0.000000
 40
2.168716
 50
171.812135
 51
187.680203
  6
CONTINUOUS
  0
LINE
  8
WHITE
 10
12.593536
 20
4.278899
 30
0.000000
 11
12.628541
 21
4.285462
 31
0.000000
  6
CONTINUOUS
  0
LINE
  8
WHITE
 10
12.628541
 20
4.285462
 30
0.000000
 11
12.628791
 21
4.097973
 31
0.000000
  6
CONTINUOUS
  0
LINE
  8
WHITE
 10
12.628791
 20
4.097973
 30
0.000000
 11
12.647953
 21
4.035696
 31
0.000000
  6
CONTINUOUS
  0
LINE
  8
WHITE
 10
12.647953
 20
4.035696
 30
0.000000
 11
12.666999
 21
4.035696
 31
0.000000
  6
CONTINUOUS
  0
LINE
  8
WHITE
 10
12.666999
 20
4.035696
 30
0.000000
 11
12.704517
 21
4.099823
 31
0.000000
  6
CONTINUOUS
  0
LINE
  8
WHITE
 10
12.704517
 20
4.099823
 30
0.000000
 11
12.808568
 21
4.364378
 31
0.000000
  6
CONTINUOUS
  0
LINE
  8
WHITE
 10
12.808568
 20
4.364378
 30
0.000000
 11
12.817603
 21
4.491690
 31
0.000000
  6
CONTINUOUS
  0
LINE
  8
WHITE
 10
12.817603
 20
4.491690
 30
0.000000
 11
12.881649
 21
4.705103
 31
0.000000
  6
CONTINUOUS
  0
ARC
  8
WHITE
 10
12.898446
 20
4.684172
 30
0.000000
 40
0.026838
 50
17.507997
 51
128.746783
  6
CONTINUOUS
  0
LINE
  8
WHITE
 10
12.924041
 20
4.692246
 30
0.000000
 11
12.924041
 21
4.615135
 31
0.000000
  6
CONTINUOUS
  0
LINE
  8
WHITE
 10
12.924041
 20
4.615135
 30
0.000000
 11
12.883497
 21
4.445589
 31
0.000000
  6
CONTINUOUS
  0
LINE
  8
WHITE
 10
12.883497
 20
4.445589
 30
0.000000
 11
12.905684
 21
4.426176
 31
0.000000
  6
CONTINUOUS
  0
LINE
  8
WHITE
 10
12.905684
 20
4.426176
 30
0.000000
 11
12.945678
 21
4.426176
 31
0.000000
  6
CONTINUOUS
  0
LINE
  8
WHITE
 10
12.945678
 20
4.426176
 30
0.000000
 11
13.021771
 21
4.621631
 31
0.000000
  6
CONTINUOUS
  0
LINE
  8
WHITE
 10
13.021771
 20
4.621631
 30
0.000000
 11
13.076419
 21
4.852525
 31
0.000000
  6
CONTINUOUS
  0
LINE
  8
WHITE
 10
13.076419
 20
4.852525
 30
0.000000
 11
13.119431
 21
4.990352
 31
0.000000
  6
CONTINUOUS
  0
LINE
  8
WHITE
 10
13.119431
 20
4.990352
 30
0.000000
 11
13.120611
 21
5.028107
 31
0.000000
  6
CONTINUOUS
  0
LINE
  8
WHITE
 10
13.120611
 20
5.028107
 30
0.000000
 11
13.166118
 21
5.277455
 31
0.000000
  6
CONTINUOUS
  0
LINE
  8
WHITE
 10
13.166118
 20
5.277455
 30
0.000000
 11
13.158916
 21
5.313466
 31
0.000000
  6
CONTINUOUS
  0
LINE
  8
WHITE
 10
13.158916
 20
5.313466
 30
0.000000
 11
13.206691
 21
5.518910
 31
0.000000
  6
CONTINUOUS
  0
LINE
  8
WHITE
 10
13.206691
 20
5.518910
 30
0.000000
 11
13.227769
 21
5.529449
 31
0.000000
  6
CONTINUOUS
  0
LINE
  8
WHITE
 10
13.227769
 20
5.529449
 30
0.000000
 11
13.252486
 21
5.518856
 31
0.000000
  6
CONTINUOUS
  0
LINE
  8
WHITE
 10
13.252486
 20
5.518856
 30
0.000000
 11
13.271321
 21
5.094513
 31
0.000000
  6
CONTINUOUS
  0
LINE
  8
WHITE
 10
13.271321
 20
5.094513
 30
0.000000
 11
13.257949
 21
5.057072
 31
0.000000
  6
CONTINUOUS
  0
LINE
  8
WHITE
 10
13.257949
 20
5.057072
 30
0.000000
 11
13.268044
 21
5.020728
 31
0.000000
  6
CONTINUOUS
  0
LINE
  8
WHITE
 10
13.268044
 20
5.020728
 30
0.000000
 11
13.258227
 21
4.732613
 31
0.000000
  6
CONTINUOUS
  0
LINE
  8
WHITE
 10
13.258227
 20
4.732613
 30
0.000000
 11
13.221595
 21
4.735056
 31
0.000000
  6
CONTINUOUS
  0
LINE
  8
WHITE
 10
13.221595
 20
4.735056
 30
0.000000
 11
13.207375
 21
4.763497
 31
0.000000
  6
CONTINUOUS
  0
LINE
  8
WHITE
 10
13.207375
 20
4.763497
 30
0.000000
 11
13.212882
 21
4.822701
 31
0.000000
  6
CONTINUOUS
  0
LINE
  8
WHITE
 10
13.212882
 20
4.822701
 30
0.000000
 11
13.199737
 21
4.919977
 31
0.000000
  6
CONTINUOUS
  0
LINE
  8
WHITE
 10
13.199737
 20
4.919977
 30
0.000000
 11
13.175100
 21
4.923056
 31
0.000000
  6
CONTINUOUS
  0
LINE
  8
WHITE
 10
13.175100
 20
4.923056
 30
0.000000
 11
13.154370
 21
4.905783
 31
0.000000
  6
CONTINUOUS
  0
LINE
  8
WHITE
 10
13.154370
 20
4.905783
 30
0.000000
 11
13.147617
 21
4.878766
 31
0.000000
  6
CONTINUOUS
  0
ARC
  8
WHITE
 10
13.407028
 20
4.729814
 30
0.000000
 40
0.299133
 50
150.135854
 51
188.089498
  6
CONTINUOUS
  0
LINE
  8
WHITE
 10
13.110871
 20
4.687720
 30
0.000000
 11
13.027474
 21
4.329962
 31
0.000000
  6
CONTINUOUS
  0
ARC
  8
WHITE
 10
13.166313
 20
15.021175
 30
0.000000
 40
0.176316
 50
101.474482
 51
168.919433
  6
CONTINUOUS
  0
ARC
  8
WHITE
 10
13.123540
 20
15.005596
 30
0.000000
 40
0.188528
 50
34.092304
 51
87.659784
  6
CONTINUOUS
  0
LINE
  8
WHITE
 10
13.279668
 20
15.111272
 30
0.000000
 11
13.307974
 21
14.936806
 31
0.000000
  6
CONTINUOUS
  0
LINE
  8
WHITE
 10
13.307974
 20
14.936806
 30
0.000000
 11
13.265524
 21
14.654848
 31
0.000000
  6
CONTINUOUS
  0
LINE
  8
WHITE
 10
13.265524
 20
14.654848
 30
0.000000
 11
13.216305
 21
14.435550
 31
0.000000
  6
CONTINUOUS
  0
ARC
  8
WHITE
 10
13.238698
 20
14.430524
 30
0.000000
 40
0.022950
 50
167.349879
 51
182.485184
  6
CONTINUOUS
  0
LINE
  8
WHITE
 10
13.215770
 20
14.429529
 30
0.000000
 11
13.224939
 21
14.218243
 31
0.000000
  6
CONTINUOUS
  0
LINE
  8
WHITE
 10
13.224939
 20
14.218243
 30
0.000000
 11
13.208860
 21
14.160357
 31
0.000000
  6
CONTINUOUS
  0
LINE
  8
WHITE
 10
13.208860
 20
14.160357
 30
0.000000
 11
13.221589
 21
14.117077
 31
0.000000
  6
CONTINUOUS
  0
LINE
  8
WHITE
 10
13.221589
 20
14.117077
 30
0.000000
 11
13.221589
 21
13.965501
 31
0.000000
  6
CONTINUOUS
  0
LINE
  8
WHITE
 10
13.221589
 20
13.965501
 30
0.000000
 11
13.247237
 21
13.898816
 31
0.000000
  6
CONTINUOUS
  0
LINE
  8
WHITE
 10
13.247237
 20
13.898816
 30
0.000000
 11
13.266965
 21
13.770638
 31
0.000000
  6
CONTINUOUS
  0
LINE
  8
WHITE
 10
13.266965
 20
13.770638
 30
0.000000
 11
13.295934
 21
13.717811
 31
0.000000
  6
CONTINUOUS
  0
LINE
  8
WHITE
 10
13.295934
 20
13.717811
 30
0.000000
 11
13.320561
 21
13.713193
 31
0.000000
  6
CONTINUOUS
  0
ARC
  8
WHITE
 10
13.260904
 20
13.796182
 30
0.000000
 40
0.102206
 50
-54.289368
 51
24.738791
  6
CONTINUOUS
  0
LINE
  8
WHITE
 10
13.353730
 20
13.838953
 30
0.000000
 11
13.368813
 21
13.873429
 31
0.000000
  6
CONTINUOUS
  0
LINE
  8
WHITE
 10
13.368813
 20
13.873429
 30
0.000000
 11
13.404633
 21
13.882383
 31
0.000000
  6
CONTINUOUS
  0
LINE
  8
WHITE
 10
13.404633
 20
13.882383
 30
0.000000
 11
13.442957
 21
13.862309
 31
0.000000
  6
CONTINUOUS
  0
LINE
  8
WHITE
 10
13.442957
 20
13.862309
 30
0.000000
 11
13.443614
 21
13.788481
 31
0.000000
  6
CONTINUOUS
  0
LINE
  8
WHITE
 10
13.443614
 20
13.788481
 30
0.000000
 11
13.431671
 21
13.669056
 31
0.000000
  6
CONTINUOUS
  0
LINE
  8
WHITE
 10
13.431671
 20
13.669056
 30
0.000000
 11
13.406258
 21
13.605523
 31
0.000000
  6
CONTINUOUS
  0
LINE
  8
WHITE
 10
13.406258
 20
13.605523
 30
0.000000
 11
13.358016
 21
13.543773
 31
0.000000
  6
CONTINUOUS
  0
LINE
  8
WHITE
 10
13.358016
 20
13.543773
 30
0.000000
 11
13.337223
 21
13.526879
 31
0.000000
  6
CONTINUOUS
  0
LINE
  8
WHITE
 10
13.337223
 20
13.526879
 30
0.000000
 11
13.303101
 21
13.526879
 31
0.000000
  6
CONTINUOUS
  0
LINE
  8
WHITE
 10
13.303101
 20
13.526879
 30
0.000000
 11
13.259324
 21
13.550956
 31
0.000000
  6
CONTINUOUS
  0
ARC
  8
WHITE
 10
13.759415
 20
13.905960
 30
0.000000
 40
0.613285
 50
177.068496
 51
215.370135
  6
CONTINUOUS
  0
LINE
  8
WHITE
 10
13.146933
 20
13.937325
 30
0.000000
 11
13.136735
 21
13.959760
 31
0.000000
  6
CONTINUOUS
  0
LINE
  8
WHITE
 10
13.136735
 20
13.959760
 30
0.000000
 11
13.145776
 21
14.089738
 31
0.000000
  6
CONTINUOUS
  0
LINE
  8
WHITE
 10
13.145776
 20
14.089738
 30
0.000000
 11
13.156884
 21
14.144168
 31
0.000000
  6
CONTINUOUS
  0
LINE
  8
WHITE
 10
13.156884
 20
14.144168
 30
0.000000
 11
13.162096
 21
14.485216
 31
0.000000
  6
CONTINUOUS
  0
LINE
  8
WHITE
 10
13.162096
 20
14.485216
 30
0.000000
 11
13.192385
 21
14.869167
 31
0.000000
  6
CONTINUOUS
  0
ARC
  8
WHITE
 10
12.946513
 20
14.972930
 30
0.000000
 40
0.266870
 50
-22.880737
 51
28.030564
  6
CONTINUOUS
  0
ARC
  8
WHITE
 10
13.127755
 20
15.074677
 30
0.000000
 40
0.059256
 50
23.540942
 51
166.816035
  6
CONTINUOUS
  0
ARC
  8
WHITE
 10
20.881731
 20
13.250916
 30
0.000000
 40
8.024821
 50
166.764790
 51
170.895317
  6
CONTINUOUS
  0
LINE
  8
WHITE
 10
12.958016
 20
14.520754
 30
0.000000
 11
12.934103
 21
14.326791
 31
0.000000
  6
CONTINUOUS
  0
LINE
  8
WHITE
 10
12.934103
 20
14.326791
 30
0.000000
 11
12.905778
 21
14.296287
 31
0.000000
  6
CONTINUOUS
  0
LINE
  8
WHITE
 10
12.905778
 20
14.296287
 30
0.000000
 11
12.842583
 21
14.297907
 31
0.000000
  6
CONTINUOUS
  0
LINE
  8
WHITE
 10
12.842583
 20
14.297907
 30
0.000000
 11
12.766433
 21
14.391630
 31
0.000000
  6
CONTINUOUS
  0
LINE
  8
WHITE
 10
12.766433
 20
14.391630
 30
0.000000
 11
12.721202
 21
14.495949
 31
0.000000
  6
CONTINUOUS
  0
LINE
  8
WHITE
 10
12.721202
 20
14.495949
 30
0.000000
 11
12.709860
 21
14.890568
 31
0.000000
  6
CONTINUOUS
  0
LINE
  8
WHITE
 10
12.709860
 20
14.890568
 30
0.000000
 11
12.696432
 21
14.918759
 31
0.000000
  6
CONTINUOUS
  0
ARC
  8
WHITE
 10
12.726106
 20
14.932371
 30
0.000000
 40
0.032647
 50
35.409704
 51
204.641779
  6
CONTINUOUS
  0
LINE
  8
WHITE
 10
12.752715
 20
14.951288
 30
0.000000
 11
12.775648
 21
14.919763
 31
0.000000
  6
CONTINUOUS
  0
LINE
  8
WHITE
 10
12.775648
 20
14.919763
 30
0.000000
 11
12.778634
 21
14.782510
 31
0.000000
  6
CONTINUOUS
  0
LINE
  8
WHITE
 10
12.778634
 20
14.782510
 30
0.000000
 11
12.793930
 21
14.626494
 31
0.000000
  6
CONTINUOUS
  0
LINE
  8
WHITE
 10
12.793930
 20
14.626494
 30
0.000000
 11
12.840719
 21
14.528207
 31
0.000000
  6
CONTINUOUS
  0
LINE
  8
WHITE
 10
12.840719
 20
14.528207
 30
0.000000
 11
12.867103
 21
14.528207
 31
0.000000
  6
CONTINUOUS
  0
ARC
  8
WHITE
 10
12.658766
 20
14.680016
 30
0.000000
 40
0.257780
 50
-36.079715
 51
6.094665
  6
CONTINUOUS
  0
ARC
  8
WHITE
 10
11.400520
 20
15.184166
 30
0.000000
 40
1.587841
 50
-17.473823
 51
-10.637621
  6
CONTINUOUS
  0
LINE
  8
WHITE
 10
12.961073
 20
14.891056
 30
0.000000
 11
12.993284
 21
15.055061
 31
0.000000
  6
CONTINUOUS
  0
LINE
  8
WHITE
 10
18.035664
 20
4.896884
 30
0.000000
 11
18.017803
 21
4.904871
 31
0.000000
  6
CONTINUOUS
  0
ARC
  8
WHITE
 10
18.384362
 20
5.695868
 30
0.000000
 40
0.871804
 50
-142.793057
 51
-114.863658
  6
CONTINUOUS
  0
LINE
  8
WHITE
 10
17.690008
 20
5.168692
 30
0.000000
 11
17.649700
 21
5.187014
 31
0.000000
  6
CONTINUOUS
  0
LINE
  8
WHITE
 10
17.649700
 20
5.187014
 30
0.000000
 11
17.629999
 21
5.208686
 31
0.000000
  6
CONTINUOUS
  0
ARC
  8
WHITE
 10
17.647854
 20
5.285778
 30
0.000000
 40
0.079133
 50
-179.221690
 51
-103.040077
  6
CONTINUOUS
  0
ARC
  8
WHITE
 10
18.054014
 20
5.301624
 30
0.000000
 40
0.485581
 50
145.371644
 51
181.996976
  6
CONTINUOUS
  0
LINE
  8
WHITE
 10
17.654451
 20
5.577556
 30
0.000000
 11
17.796118
 21
5.793689
 31
0.000000
  6
CONTINUOUS
  0
LINE
  8
WHITE
 10
17.796118
 20
5.793689
 30
0.000000
 11
17.848297
 21
5.915922
 31
0.000000
  6
CONTINUOUS
  0
LINE
  8
WHITE
 10
17.848297
 20
5.915922
 30
0.000000
 11
17.806589
 21
6.031322
 31
0.000000
  6
CONTINUOUS
  0
LINE
  8
WHITE
 10
17.806589
 20
6.031322
 30
0.000000
 11
17.784304
 21
6.050178
 31
0.000000
  6
CONTINUOUS
  0
LINE
  8
WHITE
 10
17.784304
 20
6.050178
 30
0.000000
 11
17.785966
 21
6.076748
 31
0.000000
  6
CONTINUOUS
  0
LINE
  8
WHITE
 10
17.785966
 20
6.076748
 30
0.000000
 11
17.821163
 21
6.090286
 31
0.000000
  6
CONTINUOUS
  0
ARC
  8
WHITE
 10
17.719805
 20
5.857060
 30
0.000000
 40
0.254299
 50
0.318363
 51
66.510716
  6
CONTINUOUS
  0
LINE
  8
WHITE
 10
17.974100
 20
5.858473
 30
0.000000
 11
17.985293
 21
5.834221
 31
0.000000
  6
CONTINUOUS
  0
LINE
  8
WHITE
 10
17.985293
 20
5.834221
 30
0.000000
 11
17.985293
 21
5.734584
 31
0.000000
  6
CONTINUOUS
  0
LINE
  8
WHITE
 10
17.985293
 20
5.734584
 30
0.000000
 11
17.901352
 21
5.436792
 31
0.000000
  6
CONTINUOUS
  0
LINE
  8
WHITE
 10
17.901352
 20
5.436792
 30
0.000000
 11
17.901356
 21
5.278267
 31
0.000000
  6
CONTINUOUS
  0
ARC
  8
WHITE
 10
18.592229
 20
5.527700
 30
0.000000
 40
0.734522
 50
-160.148370
 51
-127.152322
  6
CONTINUOUS
  0
ARC
  8
WHITE
 10
18.114157
 20
4.908206
 30
0.000000
 40
0.048455
 50
-143.098885
 51
44.655836
  6
CONTINUOUS
  0
LINE
  8
WHITE
 10
18.075409
 20
4.879112
 30
0.000000
 11
18.035664
 21
4.896884
 31
0.000000
  6
CONTINUOUS
  0
ARC
  8
WHITE
 10
16.570297
 20
7.849689
 30
0.000000
 40
1.403804
 50
127.652924
 51
166.196024
  6
CONTINUOUS
  0
LINE
  8
WHITE
 10
15.207038
 20
8.184638
 30
0.000000
 11
15.165405
 21
8.191577
 31
0.000000
  6
CONTINUOUS
  0
LINE
  8
WHITE
 10
15.165405
 20
8.191577
 30
0.000000
 11
15.168391
 21
8.313770
 31
0.000000
  6
CONTINUOUS
  0
ARC
  8
WHITE
 10
15.958572
 20
8.161633
 30
0.000000
 40
0.804694
 50
142.500329
 51
169.101949
  6
CONTINUOUS
  0
LINE
  8
WHITE
 10
15.320163
 20
8.651495
 30
0.000000
 11
15.331211
 21
8.698842
 31
0.000000
  6
CONTINUOUS
  0
LINE
  8
WHITE
 10
15.331211
 20
8.698842
 30
0.000000
 11
15.356273
 21
8.729276
 31
0.000000
  6
CONTINUOUS
  0
LINE
  8
WHITE
 10
15.356273
 20
8.729276
 30
0.000000
 11
15.377125
 21
8.767503
 31
0.000000
  6
CONTINUOUS
  0
LINE
  8
WHITE
 10
15.377125
 20
8.767503
 30
0.000000
 11
15.378782
 21
8.795661
 31
0.000000
  6
CONTINUOUS
  0
LINE
  8
WHITE
 10
15.378782
 20
8.795661
 30
0.000000
 11
15.323452
 21
8.836235
 31
0.000000
  6
CONTINUOUS
  0
LINE
  8
WHITE
 10
15.323452
 20
8.836235
 30
0.000000
 11
15.298380
 21
8.867994
 31
0.000000
  6
CONTINUOUS
  0
LINE
  8
WHITE
 10
15.298380
 20
8.867994
 30
0.000000
 11
15.296426
 21
8.934422
 31
0.000000
  6
CONTINUOUS
  0
LINE
  8
WHITE
 10
15.296426
 20
8.934422
 30
0.000000
 11
15.467307
 21
9.205928
 31
0.000000
  6
CONTINUOUS
  0
LINE
  8
WHITE
 10
15.467307
 20
9.205928
 30
0.000000
 11
15.462179
 21
9.252080
 31
0.000000
  6
CONTINUOUS
  0
LINE
  8
WHITE
 10
15.462179
 20
9.252080
 30
0.000000
 11
15.407118
 21
9.256013
 31
0.000000
  6
CONTINUOUS
  0
LINE
  8
WHITE
 10
15.407118
 20
9.256013
 30
0.000000
 11
15.398592
 21
9.292955
 31
0.000000
  6
CONTINUOUS
  0
LINE
  8
WHITE
 10
15.398592
 20
9.292955
 30
0.000000
 11
15.415780
 21
9.348814
 31
0.000000
  6
CONTINUOUS
  0
LINE
  8
WHITE
 10
15.415780
 20
9.348814
 30
0.000000
 11
15.487437
 21
9.435300
 31
0.000000
  6
CONTINUOUS
  0
LINE
  8
WHITE
 10
15.487437
 20
9.435300
 30
0.000000
 11
15.567721
 21
9.629819
 31
0.000000
  6
CONTINUOUS
  0
LINE
  8
WHITE
 10
15.567721
 20
9.629819
 30
0.000000
 11
15.559155
 21
9.700057
 31
0.000000
  6
CONTINUOUS
  0
LINE
  8
WHITE
 10
15.559155
 20
9.700057
 30
0.000000
 11
15.576489
 21
9.766499
 31
0.000000
  6
CONTINUOUS
  0
LINE
  8
WHITE
 10
15.576489
 20
9.766499
 30
0.000000
 11
15.609421
 21
9.789746
 31
0.000000
  6
CONTINUOUS
  0
LINE
  8
WHITE
 10
15.609421
 20
9.789746
 30
0.000000
 11
15.629673
 21
9.781307
 31
0.000000
  6
CONTINUOUS
  0
LINE
  8
WHITE
 10
15.629673
 20
9.781307
 30
0.000000
 11
15.629673
 21
9.755485
 31
0.000000
  6
CONTINUOUS
  0
LINE
  8
WHITE
 10
15.629673
 20
9.755485
 30
0.000000
 11
15.605093
 21
9.698130
 31
0.000000
  6
CONTINUOUS
  0
LINE
  8
WHITE
 10
15.605093
 20
9.698130
 30
0.000000
 11
15.613478
 21
9.622655
 31
0.000000
  6
CONTINUOUS
  0
LINE
  8
WHITE
 10
15.613478
 20
9.622655
 30
0.000000
 11
15.601421
 21
9.576835
 31
0.000000
  6
CONTINUOUS
  0
LINE
  8
WHITE
 10
15.601421
 20
9.576835
 30
0.000000
 11
15.583897
 21
9.557558
 31
0.000000
  6
CONTINUOUS
  0
LINE
  8
WHITE
 10
15.583897
 20
9.557558
 30
0.000000
 11
15.564896
 21
9.506515
 31
0.000000
  6
CONTINUOUS
  0
ARC
  8
WHITE
 10
15.609337
 20
9.488054
 30
0.000000
 40
0.048123
 50
157.441772
 51
308.610271
  6
CONTINUOUS
  0
LINE
  8
WHITE
 10
15.639367
 20
9.450450
 30
0.000000
 11
15.697830
 21
9.495852
 31
0.000000
  6
CONTINUOUS
  0
ARC
  8
WHITE
 10
15.722730
 20
9.461424
 30
0.000000
 40
0.042489
 50
-26.800899
 51
125.876279
  6
CONTINUOUS
  0
LINE
  8
WHITE
 10
15.760655
 20
9.442266
 30
0.000000
 11
15.720202
 21
9.365595
 31
0.000000
  6
CONTINUOUS
  0
LINE
  8
WHITE
 10
15.720202
 20
9.365595
 30
0.000000
 11
15.665793
 21
9.304288
 31
0.000000
  6
CONTINUOUS
  0
LINE
  8
WHITE
 10
15.665793
 20
9.304288
 30
0.000000
 11
15.524331
 21
9.167674
 31
0.000000
  6
CONTINUOUS
  0
LINE
  8
WHITE
 10
15.524331
 20
9.167674
 30
0.000000
 11
15.515529
 21
9.128061
 31
0.000000
  6
CONTINUOUS
  0
LINE
  8
WHITE
 10
15.515529
 20
9.128061
 30
0.000000
 11
15.461622
 21
9.039989
 31
0.000000
  6
CONTINUOUS
  0
LINE
  8
WHITE
 10
15.461622
 20
9.039989
 30
0.000000
 11
15.468503
 21
9.017053
 31
0.000000
  6
CONTINUOUS
  0
LINE
  8
WHITE
 10
15.468503
 20
9.017053
 30
0.000000
 11
15.501907
 21
8.985319
 31
0.000000
  6
CONTINUOUS
  0
LINE
  8
WHITE
 10
15.501907
 20
8.985319
 30
0.000000
 11
15.535608
 21
8.977389
 31
0.000000
  6
CONTINUOUS
  0
LINE
  8
WHITE
 10
15.535608
 20
8.977389
 30
0.000000
 11
15.640596
 21
9.013756
 31
0.000000
  6
CONTINUOUS
  0
LINE
  8
WHITE
 10
15.640596
 20
9.013756
 30
0.000000
 11
15.679419
 21
9.042858
 31
0.000000
  6
CONTINUOUS
  0
ARC
  8
WHITE
 10
15.707184
 20
9.006514
 30
0.000000
 40
0.045736
 50
-83.015288
 51
127.378020
  6
CONTINUOUS
  0
ARC
  8
WHITE
 10
11.325912
 20
10.344235
 30
0.000000
 40
0.436702
 50
50.774787
 51
70.753277
  6
CONTINUOUS
  0
LINE
  8
WHITE
 10
11.469865
 20
10.756529
 30
0.000000
 11
11.358482
 21
10.779989
 31
0.000000
  6
CONTINUOUS
  0
LINE
  8
WHITE
 10
11.358482
 20
10.779989
 30
0.000000
 11
11.241669
 21
10.784603
 31
0.000000
  6
CONTINUOUS
  0
ARC
  8
WHITE
 10
11.249625
 20
10.824058
 30
0.000000
 40
0.040249
 50
95.313258
 51
258.599335
  6
CONTINUOUS
  0
LINE
  8
WHITE
 10
11.245898
 20
10.864134
 30
0.000000
 11
11.375374
 21
10.887055
 31
0.000000
  6
CONTINUOUS
  0
LINE
  8
WHITE
 10
11.375374
 20
10.887055
 30
0.000000
 11
11.416672
 21
10.920093
 31
0.000000
  6
CONTINUOUS
  0
LINE
  8
WHITE
 10
11.416672
 20
10.920093
 30
0.000000
 11
11.414872
 21
10.943494
 31
0.000000
  6
CONTINUOUS
  0
ARC
  8
WHITE
 10
11.273556
 20
10.760690
 30
0.000000
 40
0.231057
 50
52.294308
 51
85.697346
  6
CONTINUOUS
  0
LINE
  8
WHITE
 10
11.290891
 20
10.991097
 30
0.000000
 11
11.091563
 21
10.997786
 31
0.000000
  6
CONTINUOUS
  0
LINE
  8
WHITE
 10
11.091563
 20
10.997786
 30
0.000000
 11
10.983900
 21
11.009563
 31
0.000000
  6
CONTINUOUS
  0
ARC
  8
WHITE
 10
10.987705
 20
11.026046
 30
0.000000
 40
0.016916
 50
92.611524
 51
257.001321
  6
CONTINUOUS
  0
ARC
  8
WHITE
 10
11.241628
 20
9.287203
 30
0.000000
 40
1.774119
 50
75.804774
 51
98.253943
  6
CONTINUOUS
  0
ARC
  8
WHITE
 10
11.591884
 20
10.793640
 30
0.000000
 40
0.229736
 50
45.967473
 51
68.337314
  6
CONTINUOUS
  0
ARC
  8
WHITE
 10
11.731888
 20
10.931615
 30
0.000000
 40
0.033566
 50
-80.598756
 51
54.108779
  6
CONTINUOUS
  0
LINE
  8
WHITE
 10
11.737371
 20
10.898500
 30
0.000000
 11
11.556143
 21
10.857704
 31
0.000000
  6
CONTINUOUS
  0
ARC
  8
WHITE
 10
11.569861
 20
10.839970
 30
0.000000
 40
0.022420
 50
127.723470
 51
276.147900
  6
CONTINUOUS
  0
ARC
  8
WHITE
 10
11.531300
 20
10.195759
 30
0.000000
 40
0.623266
 50
41.591767
 51
86.231703
  6
CONTINUOUS
  0
ARC
  8
WHITE
 10
11.958308
 20
10.589386
 30
0.000000
 40
0.043993
 50
-68.826085
 51
27.199190
  6
CONTINUOUS
  0
ARC
  8
WHITE
 10
11.875985
 20
11.122244
 30
0.000000
 40
0.582224
 50
-101.734009
 51
-80.288553
  6
CONTINUOUS
  0
ARC
  8
WHITE
 10
11.501215
 20
8.857223
 30
0.000000
 40
1.714242
 50
81.399182
 51
92.107245
  6
CONTINUOUS
  0
ARC
  8
WHITE
 10
11.443456
 20
10.596934
 30
0.000000
 40
0.027145
 50
101.202034
 51
258.797376
  6
CONTINUOUS
  0
LINE
  8
WHITE
 10
11.438183
 20
10.623562
 30
0.000000
 11
11.472091
 21
10.628170
 31
0.000000
  6
CONTINUOUS
  0
ARC
  8
WHITE
 10
11.494435
 20
11.172809
 30
0.000000
 40
0.545097
 50
-92.349261
 51
-79.751624
  6
CONTINUOUS
  0
ARC
  8
WHITE
 10
11.582503
 20
10.662760
 30
0.000000
 40
0.027818
 50
-71.312020
 51
45.301426
  6
CONTINUOUS
  0
ARC
  8
WHITE
 10
19.338334
 20
9.155726
 30
0.000000
 40
1.664925
 50
79.501739
 51
101.125542
  6
CONTINUOUS
  0
LINE
  8
WHITE
 10
19.017071
 20
10.789362
 30
0.000000
 11
18.995104
 21
10.804006
 31
0.000000
  6
CONTINUOUS
  0
LINE
  8
WHITE
 10
18.995104
 20
10.804006
 30
0.000000
 11
18.987202
 21
10.837196
 31
0.000000
  6
CONTINUOUS
  0
LINE
  8
WHITE
 10
18.987202
 20
10.837196
 30
0.000000
 11
19.014289
 21
10.857060
 31
0.000000
  6
CONTINUOUS
  0
LINE
  8
WHITE
 10
19.014289
 20
10.857060
 30
0.000000
 11
19.051936
 21
10.858201
 31
0.000000
  6
CONTINUOUS
  0
LINE
  8
WHITE
 10
19.051936
 20
10.858201
 30
0.000000
 11
19.281459
 21
10.896699
 31
0.000000
  6
CONTINUOUS
  0
LINE
  8
WHITE
 10
19.281459
 20
10.896699
 30
0.000000
 11
19.672644
 21
10.905475
 31
0.000000
  6
CONTINUOUS
  0
LINE
  8
WHITE
 10
19.672644
 20
10.905475
 30
0.000000
 11
19.714230
 21
10.917027
 31
0.000000
  6
CONTINUOUS
  0
LINE
  8
WHITE
 10
19.714230
 20
10.917027
 30
0.000000
 11
19.742969
 21
10.899783
 31
0.000000
  6
CONTINUOUS
  0
LINE
  8
WHITE
 10
19.742969
 20
10.899783
 30
0.000000
 11
19.812651
 21
10.881088
 31
0.000000
  6
CONTINUOUS
  0
LINE
  8
WHITE
 10
19.812651
 20
10.881088
 30
0.000000
 11
19.837809
 21
10.855930
 31
0.000000
  6
CONTINUOUS
  0
LINE
  8
WHITE
 10
19.837809
 20
10.855930
 30
0.000000
 11
19.839393
 21
10.733374
 31
0.000000
  6
CONTINUOUS
  0
LINE
  8
WHITE
 10
19.839393
 20
10.733374
 30
0.000000
 11
19.753677
 21
10.518663
 31
0.000000
  6
CONTINUOUS
  0
LINE
  8
WHITE
 10
19.753677
 20
10.518663
 30
0.000000
 11
19.573448
 21
10.166006
 31
0.000000
  6
CONTINUOUS
  0
LINE
  8
WHITE
 10
19.573448
 20
10.166006
 30
0.000000
 11
19.536901
 21
10.134226
 31
0.000000
  6
CONTINUOUS
  0
LINE
  8
WHITE
 10
19.536901
 20
10.134226
 30
0.000000
 11
19.518773
 21
10.134226
 31
0.000000
  6
CONTINUOUS
  0
ARC
  8
WHITE
 10
19.518773
 20
10.157176
 30
0.000000
 40
0.022950
 50
175.426477
 51
270.000000
  6
CONTINUOUS
  0
LINE
  8
WHITE
 10
19.495896
 20
10.159006
 30
0.000000
 11
19.499711
 21
10.206663
 31
0.000000
  6
CONTINUOUS
  0
ARC
  8
WHITE
 10
19.367321
 20
10.344172
 30
0.000000
 40
0.190882
 50
-46.086525
 51
24.718830
  6
CONTINUOUS
  0
LINE
  8
WHITE
 10
19.540712
 20
10.423992
 30
0.000000
 11
19.641266
 21
10.601897
 31
0.000000
  6
CONTINUOUS
  0
LINE
  8
WHITE
 10
19.641266
 20
10.601897
 30
0.000000
 11
19.676957
 21
10.734006
 31
0.000000
  6
CONTINUOUS
  0
LINE
  8
WHITE
 10
19.676957
 20
10.734006
 30
0.000000
 11
19.641693
 21
10.792781
 31
0.000000
  6
CONTINUOUS
  0
ARC
  8
WHITE
 10
15.145245
 20
8.810157
 30
0.000000
 40
4.773612
 50
-166.209362
 51
-159.463387
  6
CONTINUOUS
  0
ARC
  8
WHITE
 10
10.693835
 20
7.138406
 30
0.000000
 40
0.019046
 50
-171.363625
 51
-1.008447
  6
CONTINUOUS
  0
ARC
  8
WHITE
 10
10.214399
 20
7.234492
 30
0.000000
 40
0.507719
 50
-10.947569
 51
11.502484
  6
CONTINUOUS
  0
ARC
  8
WHITE
 10
15.136366
 20
8.397869
 30
0.000000
 40
4.550148
 50
-179.857240
 51
-166.501013
  6
CONTINUOUS
  0
ARC
  8
WHITE
 10
10.531345
 20
8.387077
 30
0.000000
 40
0.054891
 50
-0.569180
 51
165.166960
  6
CONTINUOUS
  0
ARC
  8
WHITE
 10
14.576140
 20
8.210073
 30
0.000000
 40
4.102307
 50
177.330608
 51
187.533333
  6
CONTINUOUS
  0
LINE
  8
WHITE
 10
4.724351
 20
5.464832
 30
0.000000
 11
4.721271
 21
5.774985
 31
0.000000
  6
CONTINUOUS
  0
LINE
  8
WHITE
 10
4.721271
 20
5.774985
 30
0.000000
 11
4.648447
 21
5.830095
 31
0.000000
  6
CONTINUOUS
  0
LINE
  8
WHITE
 10
4.648447
 20
5.830095
 30
0.000000
 11
4.636073
 21
5.856905
 31
0.000000
  6
CONTINUOUS
  0
LINE
  8
WHITE
 10
4.636073
 20
5.856905
 30
0.000000
 11
4.677002
 21
6.018709
 31
0.000000
  6
CONTINUOUS
  0
LINE
  8
WHITE
 10
4.677002
 20
6.018709
 30
0.000000
 11
4.677002
 21
6.088805
 31
0.000000
  6
CONTINUOUS
  0
LINE
  8
WHITE
 10
4.677002
 20
6.088805
 30
0.000000
 11
4.652986
 21
6.122827
 31
0.000000
  6
CONTINUOUS
  0
ARC
  8
WHITE
 10
4.649187
 20
6.170559
 30
0.000000
 40
0.047883
 50
167.489882
 51
274.550577
  6
CONTINUOUS
  0
LINE
  8
WHITE
 10
4.602441
 20
6.180931
 30
0.000000
 11
4.629759
 21
6.281520
 31
0.000000
  6
CONTINUOUS
  0
ARC
  8
WHITE
 10
3.425465
 20
7.070116
 30
0.000000
 40
1.439517
 50
-33.217597
 51
-11.163243
  6
CONTINUOUS
  0
ARC
  8
WHITE
 10
4.851931
 20
6.788619
 30
0.000000
 40
0.014459
 50
22.929574
 51
168.836731
  6
CONTINUOUS
  0
LINE
  8
WHITE
 10
4.865247
 20
6.794252
 30
0.000000
 11
4.880826
 21
6.757430
 31
0.000000
  6
CONTINUOUS
  0
ARC
  8
WHITE
 10
4.867510
 20
6.751796
 30
0.000000
 40
0.014459
 50
-7.733452
 51
22.931973
  6
CONTINUOUS
  0
ARC
  8
WHITE
 10
3.518512
 20
6.935001
 30
0.000000
 40
1.375840
 50
-26.712254
 51
-7.733916
  6
CONTINUOUS
  0
LINE
  8
WHITE
 10
4.747516
 20
6.316547
 30
0.000000
 11
4.766356
 21
6.285932
 31
0.000000
  6
CONTINUOUS
  0
LINE
  8
WHITE
 10
4.766356
 20
6.285932
 30
0.000000
 11
4.791097
 21
6.187094
 31
0.000000
  6
CONTINUOUS
  0
LINE
  8
WHITE
 10
4.791097
 20
6.187094
 30
0.000000
 11
4.719021
 21
6.000696
 31
0.000000
  6
CONTINUOUS
  0
ARC
  8
WHITE
 10
4.742440
 20
5.993345
 30
0.000000
 40
0.024546
 50
162.573355
 51
329.383321
  6
CONTINUOUS
  0
LINE
  8
WHITE
 10
4.763564
 20
5.980844
 30
0.000000
 11
4.776636
 21
6.006989
 31
0.000000
  6
CONTINUOUS
  0
ARC
  8
WHITE
 10
4.806846
 20
5.979620
 30
0.000000
 40
0.040764
 50
63.727651
 51
137.823823
  6
CONTINUOUS
  0
ARC
  8
WHITE
 10
4.778490
 20
5.963322
 30
0.000000
 40
0.070329
 50
-32.028872
 51
48.719029
  6
CONTINUOUS
  0
LINE
  8
WHITE
 10
4.838114
 20
5.926023
 30
0.000000
 11
4.816133
 21
5.828877
 31
0.000000
  6
CONTINUOUS
  0
LINE
  8
WHITE
 10
4.816133
 20
5.828877
 30
0.000000
 11
4.862204
 21
5.754013
 31
0.000000
  6
CONTINUOUS
  0
LINE
  8
WHITE
 10
4.862204
 20
5.754013
 30
0.000000
 11
4.869997
 21
5.713485
 31
0.000000
  6
CONTINUOUS
  0
LINE
  8
WHITE
 10
4.869997
 20
5.713485
 30
0.000000
 11
4.864794
 21
5.693978
 31
0.000000
  6
CONTINUOUS
  0
ARC
  8
WHITE
 10
5.169160
 20
5.529322
 30
0.000000
 40
0.346049
 50
151.587521
 51
187.252581
  6
CONTINUOUS
  0
ARC
  8
WHITE
 10
4.771210
 20
5.486189
 30
0.000000
 40
0.054673
 50
-68.766641
 51
-0.579981
  6
CONTINUOUS
  0
LINE
  8
WHITE
 10
4.791011
 20
5.435227
 30
0.000000
 11
4.750916
 21
5.435227
 31
0.000000
  6
CONTINUOUS
  0
ARC
  8
WHITE
 10
4.745528
 20
5.457114
 30
0.000000
 40
0.022540
 50
159.975630
 51
283.830255
  6
CONTINUOUS
  0
LINE
  8
WHITE
 10
15.602255
 20
6.359238
 30
0.000000
 11
15.602271
 21
6.359280
 31
0.000000
  6
CONTINUOUS
  0
LINE
  8
WHITE
 10
15.602271
 20
6.359280
 30
0.000000
 11
15.622354
 21
6.319569
 31
0.000000
  6
CONTINUOUS
  0
LINE
  8
WHITE
 10
15.622354
 20
6.319569
 30
0.000000
 11
15.712770
 21
6.312614
 31
0.000000
  6
CONTINUOUS
  0
LINE
  8
WHITE
 10
15.712770
 20
6.312614
 30
0.000000
 11
15.812488
 21
6.200165
 31
0.000000
  6
CONTINUOUS
  0
LINE
  8
WHITE
 10
15.812488
 20
6.200165
 30
0.000000
 11
15.856903
 21
6.160975
 31
0.000000
  6
CONTINUOUS
  0
ARC
  8
WHITE
 10
15.868229
 20
6.205616
 30
0.000000
 40
0.046055
 50
-104.236291
 51
-51.106767
  6
CONTINUOUS
  0
LINE
  8
WHITE
 10
15.897146
 20
6.169771
 30
0.000000
 11
15.927915
 21
6.198830
 31
0.000000
  6
CONTINUOUS
  0
LINE
  8
WHITE
 10
15.927915
 20
6.198830
 30
0.000000
 11
15.962258
 21
6.195709
 31
0.000000
  6
CONTINUOUS
  0
LINE
  8
WHITE
 10
15.962258
 20
6.195709
 30
0.000000
 11
16.028688
 21
6.100543
 31
0.000000
  6
CONTINUOUS
  0
LINE
  8
WHITE
 10
16.028688
 20
6.100543
 30
0.000000
 11
16.087430
 21
6.046543
 31
0.000000
  6
CONTINUOUS
  0
ARC
  8
WHITE
 10
16.133946
 20
6.093429
 30
0.000000
 40
0.066046
 50
-134.773031
 51
-57.557954
  6
CONTINUOUS
  0
ARC
  8
WHITE
 10
16.066141
 20
6.180978
 30
0.000000
 40
0.176604
 50
-54.228175
 51
-36.660201
  6
CONTINUOUS
  0
LINE
  8
WHITE
 10
16.207810
 20
6.075534
 30
0.000000
 11
16.246860
 21
6.034188
 31
0.000000
  6
CONTINUOUS
  0
LINE
  8
WHITE
 10
16.246860
 20
6.034188
 30
0.000000
 11
16.289170
 21
5.947728
 31
0.000000
  6
CONTINUOUS
  0
LINE
  8
WHITE
 10
16.289170
 20
5.947728
 30
0.000000
 11
16.341972
 21
5.894926
 31
0.000000
  6
CONTINUOUS
  0
LINE
  8
WHITE
 10
16.341972
 20
5.894926
 30
0.000000
 11
16.381292
 21
5.894926
 31
0.000000
  6
CONTINUOUS
  0
ARC
  8
WHITE
 10
16.328903
 20
5.924203
 30
0.000000
 40
0.060015
 50
-29.198148
 51
64.439223
  6
CONTINUOUS
  0
ARC
  8
WHITE
 10
15.757589
 20
5.792523
 30
0.000000
 40
0.625449
 50
17.283443
 51
46.538647
  6
CONTINUOUS
  0
LINE
  8
WHITE
 10
16.187814
 20
6.246498
 30
0.000000
 11
16.163693
 21
6.251021
 31
0.000000
  6
CONTINUOUS
  0
LINE
  8
WHITE
 10
16.163693
 20
6.251021
 30
0.000000
 11
16.141930
 21
6.240140
 31
0.000000
  6
CONTINUOUS
  0
LINE
  8
WHITE
 10
16.141930
 20
6.240140
 30
0.000000
 11
16.115497
 21
6.178463
 31
0.000000
  6
CONTINUOUS
  0
LINE
  8
WHITE
 10
16.115497
 20
6.178463
 30
0.000000
 11
16.076976
 21
6.178463
 31
0.000000
  6
CONTINUOUS
  0
LINE
  8
WHITE
 10
16.076976
 20
6.178463
 30
0.000000
 11
16.004191
 21
6.286466
 31
0.000000
  6
CONTINUOUS
  0
LINE
  8
WHITE
 10
16.004191
 20
6.286466
 30
0.000000
 11
15.980145
 21
6.304100
 31
0.000000
  6
CONTINUOUS
  0
LINE
  8
WHITE
 10
15.980145
 20
6.304100
 30
0.000000
 11
15.956164
 21
6.308097
 31
0.000000
  6
CONTINUOUS
  0
LINE
  8
WHITE
 10
15.956164
 20
6.308097
 30
0.000000
 11
15.932402
 21
6.298593
 31
0.000000
  6
CONTINUOUS
  0
LINE
  8
WHITE
 10
15.932402
 20
6.298593
 30
0.000000
 11
15.910890
 21
6.269911
 31
0.000000
  6
CONTINUOUS
  0
ARC
  8
WHITE
 10
15.887199
 20
6.279884
 30
0.000000
 40
0.025705
 50
-140.776142
 51
-22.829221
  6
CONTINUOUS
  0
LINE
  8
WHITE
 10
15.867286
 20
6.263629
 30
0.000000
 11
15.843234
 21
6.304331
 31
0.000000
  6
CONTINUOUS
  0
LINE
  8
WHITE
 10
15.843234
 20
6.304331
 30
0.000000
 11
15.820279
 21
6.330282
 31
0.000000
  6
CONTINUOUS
  0
LINE
  8
WHITE
 10
15.820279
 20
6.330282
 30
0.000000
 11
15.732852
 21
6.493729
 31
0.000000
  6
CONTINUOUS
  0
LINE
  8
WHITE
 10
15.732852
 20
6.493729
 30
0.000000
 11
15.732852
 21
6.531340
 31
0.000000
  6
CONTINUOUS
  0
LINE
  8
WHITE
 10
15.732852
 20
6.531340
 30
0.000000
 11
15.719575
 21
6.556417
 31
0.000000
  6
CONTINUOUS
  0
LINE
  8
WHITE
 10
15.719575
 20
6.556417
 30
0.000000
 11
15.690263
 21
6.579868
 31
0.000000
  6
CONTINUOUS
  0
LINE
  8
WHITE
 10
15.690263
 20
6.579868
 30
0.000000
 11
15.664700
 21
6.579868
 31
0.000000
  6
CONTINUOUS
  0
LINE
  8
WHITE
 10
15.664700
 20
6.579868
 30
0.000000
 11
15.641500
 21
6.533467
 31
0.000000
  6
CONTINUOUS
  0
LINE
  8
WHITE
 10
15.641500
 20
6.533467
 30
0.000000
 11
15.615560
 21
6.533467
 31
0.000000
  6
CONTINUOUS
  0
LINE
  8
WHITE
 10
15.615560
 20
6.533467
 30
0.000000
 11
15.588018
 21
6.562458
 31
0.000000
  6
CONTINUOUS
  0
LINE
  8
WHITE
 10
15.588018
 20
6.562458
 30
0.000000
 11
15.545569
 21
6.655075
 31
0.000000
  6
CONTINUOUS
  0
LINE
  8
WHITE
 10
15.545569
 20
6.655075
 30
0.000000
 11
15.516571
 21
6.667016
 31
0.000000
  6
CONTINUOUS
  0
LINE
  8
WHITE
 10
15.516571
 20
6.667016
 30
0.000000
 11
15.485224
 21
6.643045
 31
0.000000
  6
CONTINUOUS
  0
ARC
  8
WHITE
 10
15.602978
 20
6.636398
 30
0.000000
 40
0.117941
 50
176.769186
 51
212.811396
  6
CONTINUOUS
  0
ARC
  8
WHITE
 10
18.628808
 20
7.885122
 30
0.000000
 40
3.389446
 50
-157.215219
 51
-153.244327
  6
CONTINUOUS
  0
LINE
  8
WHITE
 10
18.894025
 20
11.876181
 30
0.000000
 11
18.815847
 21
11.755354
 31
0.000000
  6
CONTINUOUS
  0
LINE
  8
WHITE
 10
18.815847
 20
11.755354
 30
0.000000
 11
18.740220
 21
11.651919
 31
0.000000
  6
CONTINUOUS
  0
ARC
  8
WHITE
 10
18.892524
 20
11.542152
 30
0.000000
 40
0.187737
 50
144.219283
 51
212.241217
  6
CONTINUOUS
  0
LINE
  8
WHITE
 10
18.733734
 20
11.441997
 30
0.000000
 11
18.884072
 21
11.210563
 31
0.000000
  6
CONTINUOUS
  0
LINE
  8
WHITE
 10
18.884072
 20
11.210563
 30
0.000000
 11
18.916770
 21
11.223139
 31
0.000000
  6
CONTINUOUS
  0
ARC
  8
WHITE
 10
18.513126
 20
11.195073
 30
0.000000
 40
0.404619
 50
3.977465
 51
45.947758
  6
CONTINUOUS
  0
ARC
  8
WHITE
 10
18.997936
 20
11.523855
 30
0.000000
 40
0.206987
 50
124.977348
 51
190.573047
  6
CONTINUOUS
  0
LINE
  8
WHITE
 10
18.879280
 20
11.693456
 30
0.000000
 11
19.012439
 21
11.919741
 31
0.000000
  6
CONTINUOUS
  0
LINE
  8
WHITE
 10
19.012439
 20
11.919741
 30
0.000000
 11
19.221116
 21
12.305930
 31
0.000000
  6
CONTINUOUS
  0
LINE
  8
WHITE
 10
19.221116
 20
12.305930
 30
0.000000
 11
19.246171
 21
12.379009
 31
0.000000
  6
CONTINUOUS
  0
LINE
  8
WHITE
 10
19.246171
 20
12.379009
 30
0.000000
 11
19.246171
 21
12.490098
 31
0.000000
  6
CONTINUOUS
  0
ARC
  8
WHITE
 10
19.095377
 20
12.415526
 30
0.000000
 40
0.168225
 50
26.313769
 51
109.200099
  6
CONTINUOUS
  0
LINE
  8
WHITE
 10
19.040053
 20
12.574394
 30
0.000000
 11
19.005485
 21
12.572324
 31
0.000000
  6
CONTINUOUS
  0
LINE
  8
WHITE
 10
19.005485
 20
12.572324
 30
0.000000
 11
18.976243
 21
12.551056
 31
0.000000
  6
CONTINUOUS
  0
LINE
  8
WHITE
 10
18.976243
 20
12.551056
 30
0.000000
 11
18.922491
 21
12.480104
 31
0.000000
  6
CONTINUOUS
  0
LINE
  8
WHITE
 10
18.922491
 20
12.480104
 30
0.000000
 11
18.922491
 21
12.429491
 31
0.000000
  6
CONTINUOUS
  0
ARC
  8
WHITE
 10
18.954780
 20
12.462337
 30
0.000000
 40
0.046059
 50
-134.510139
 51
-54.843453
  6
CONTINUOUS
  0
ARC
  8
WHITE
 10
18.677552
 20
12.810727
 30
0.000000
 40
0.491219
 50
-51.803639
 51
-44.226581
  6
CONTINUOUS
  0
ARC
  8
WHITE
 10
19.078906
 20
12.432413
 30
0.000000
 40
0.060905
 50
103.454642
 51
144.127148
  6
CONTINUOUS
  0
LINE
  8
WHITE
 10
19.064735
 20
12.491646
 30
0.000000
 11
19.119572
 21
12.509925
 31
0.000000
  6
CONTINUOUS
  0
LINE
  8
WHITE
 10
19.119572
 20
12.509925
 30
0.000000
 11
19.162246
 21
12.484321
 31
0.000000
  6
CONTINUOUS
  0
LINE
  8
WHITE
 10
19.162246
 20
12.484321
 30
0.000000
 11
19.162016
 21
12.376087
 31
0.000000
  6
CONTINUOUS
  0
ARC
  8
WHITE
 10
18.070733
 20
12.697627
 30
0.000000
 40
1.137667
 50
-34.007088
 51
-16.417283
  6
CONTINUOUS
  0
LINE
  8
WHITE
 10
19.013823
 20
12.061335
 30
0.000000
 11
18.897737
 21
11.881919
 31
0.000000
  6
CONTINUOUS
  0
LINE
  8
WHITE
 10
18.897737
 20
11.881919
 30
0.000000
 11
18.894025
 21
11.876181
 31
0.000000
  6
CONTINUOUS
  0
ARC
  8
WHITE
 10
15.389392
 20
11.458136
 30
0.000000
 40
0.421924
 50
23.230968
 51
100.278630
  6
CONTINUOUS
  0
LINE
  8
WHITE
 10
15.777107
 20
11.624559
 30
0.000000
 11
15.755292
 21
11.431344
 31
0.000000
  6
CONTINUOUS
  0
LINE
  8
WHITE
 10
15.755292
 20
11.431344
 30
0.000000
 11
15.702310
 21
11.201482
 31
0.000000
  6
CONTINUOUS
  0
ARC
  8
WHITE
 10
15.668550
 20
11.223114
 30
0.000000
 40
0.040096
 50
-158.258997
 51
-32.650055
  6
CONTINUOUS
  0
ARC
  8
WHITE
 10
15.068504
 20
11.282454
 30
0.000000
 40
0.567671
 50
-7.509778
 51
62.008117
  6
CONTINUOUS
  0
LINE
  8
WHITE
 10
15.334938
 20
11.783715
 30
0.000000
 11
15.311516
 21
11.794255
 31
0.000000
  6
CONTINUOUS
  0
ARC
  8
WHITE
 10
15.320934
 20
11.815184
 30
0.000000
 40
0.022950
 50
-175.601762
 51
-114.227631
  6
CONTINUOUS
  0
LINE
  8
WHITE
 10
15.298052
 20
11.813424
 30
0.000000
 11
15.295319
 21
11.848947
 31
0.000000
  6
CONTINUOUS
  0
ARC
  8
WHITE
 10
15.318201
 20
11.850707
 30
0.000000
 40
0.022950
 50
100.278623
 51
184.398322
  6
CONTINUOUS
  0
LINE
  8
WHITE
 10
11.921464
 20
10.375978
 30
0.000000
 11
11.793668
 21
10.420087
 31
0.000000
  6
CONTINUOUS
  0
ARC
  8
WHITE
 10
11.798318
 20
10.450157
 30
0.000000
 40
0.030427
 50
98.791162
 51
261.209055
  6
CONTINUOUS
  0
ARC
  8
WHITE
 10
11.441798
 20
9.009404
 30
0.000000
 40
1.512326
 50
53.453475
 51
76.545803
  6
CONTINUOUS
  0
LINE
  8
WHITE
 10
12.342351
 20
10.224367
 30
0.000000
 11
12.367051
 21
10.198295
 31
0.000000
  6
CONTINUOUS
  0
ARC
  8
WHITE
 10
12.310850
 20
10.171130
 30
0.000000
 40
0.062422
 50
-22.102247
 51
25.797418
  6
CONTINUOUS
  0
LINE
  8
WHITE
 10
12.368685
 20
10.147643
 30
0.000000
 11
12.353021
 21
10.109354
 31
0.000000
  6
CONTINUOUS
  0
ARC
  8
WHITE
 10
12.374262
 20
10.100664
 30
0.000000
 40
0.022950
 50
157.751214
 51
233.828007
  6
CONTINUOUS
  0
ARC
  8
WHITE
 10
11.409722
 20
8.781473
 30
0.000000
 40
1.611247
 50
31.943751
 51
53.827202
  6
CONTINUOUS
  0
ARC
  8
WHITE
 10
12.747239
 20
9.620870
 30
0.000000
 40
0.032491
 50
-133.618022
 51
23.763208
  6
CONTINUOUS
  0
ARC
  8
WHITE
 10
11.262268
 20
8.542328
 30
0.000000
 40
1.803369
 50
35.804907
 51
62.870270
  6
CONTINUOUS
  0
ARC
  8
WHITE
 10
12.095082
 20
10.167709
 30
0.000000
 40
0.022950
 50
128.210650
 51
242.870293
  6
CONTINUOUS
  0
LINE
  8
WHITE
 10
12.080886
 20
10.185742
 30
0.000000
 11
12.155061
 21
10.244135
 31
0.000000
  6
CONTINUOUS
  0
LINE
  8
WHITE
 10
12.155061
 20
10.244135
 30
0.000000
 11
12.155061
 21
10.269344
 31
0.000000
  6
CONTINUOUS
  0
LINE
  8
WHITE
 10
12.155061
 20
10.269344
 30
0.000000
 11
12.006391
 21
10.346665
 31
0.000000
  6
CONTINUOUS
  0
LINE
  8
WHITE
 10
12.006391
 20
10.346665
 30
0.000000
 11
11.932394
 21
10.372205
 31
0.000000
  6
CONTINUOUS
  0
LINE
  8
WHITE
 10
11.932394
 20
10.372205
 30
0.000000
 11
11.921464
 21
10.375978
 31
0.000000
  6
CONTINUOUS
  0
LINE
  8
WHITE
 10
10.832545
 20
5.581630
 30
0.000000
 11
10.830332
 21
5.494170
 31
0.000000
  6
CONTINUOUS
  0
ARC
  8
WHITE
 10
10.771446
 20
5.506814
 30
0.000000
 40
0.060228
 50
-108.925490
 51
-12.118543
  6
CONTINUOUS
  0
LINE
  8
WHITE
 10
10.751912
 20
5.449842
 30
0.000000
 11
10.662635
 21
5.465368
 31
0.000000
  6
CONTINUOUS
  0
ARC
  8
WHITE
 10
10.649812
 20
5.445614
 30
0.000000
 40
0.023551
 50
57.011013
 51
188.460385
  6
CONTINUOUS
  0
LINE
  8
WHITE
 10
10.626517
 20
5.442149
 30
0.000000
 11
10.626356
 21
5.220714
 31
0.000000
  6
CONTINUOUS
  0
ARC
  8
WHITE
 10
10.603823
 20
5.222791
 30
0.000000
 40
0.022629
 50
-179.121847
 51
-5.266410
  6
CONTINUOUS
  0
ARC
  8
WHITE
 10
9.136480
 20
5.350137
 30
0.000000
 40
1.450350
 50
-5.051018
 51
5.175544
  6
CONTINUOUS
  0
ARC
  8
WHITE
 10
10.846234
 20
5.581869
 30
0.000000
 40
0.283855
 50
149.995331
 51
200.821711
  6
CONTINUOUS
  0
ARC
  8
WHITE
 10
10.632730
 20
5.715520
 30
0.000000
 40
0.033358
 50
14.400245
 51
165.598811
  6
CONTINUOUS
  0
ARC
  8
WHITE
 10
10.710060
 20
5.714733
 30
0.000000
 40
0.045926
 50
168.592971
 51
318.255885
  6
CONTINUOUS
  0
LINE
  8
WHITE
 10
10.744327
 20
5.684155
 30
0.000000
 11
10.766288
 21
5.770174
 31
0.000000
  6
CONTINUOUS
  0
ARC
  8
WHITE
 10
8.591598
 20
5.839370
 30
0.000000
 40
2.175791
 50
-1.822467
 51
12.922527
  6
CONTINUOUS
  0
ARC
  8
WHITE
 10
10.747337
 20
6.321117
 30
0.000000
 40
0.035385
 50
11.731486
 51
172.150771
  6
CONTINUOUS
  0
LINE
  8
WHITE
 10
10.781983
 20
6.328312
 30
0.000000
 11
10.807358
 21
6.289625
 31
0.000000
  6
CONTINUOUS
  0
ARC
  8
WHITE
 10
7.524189
 20
5.818379
 30
0.000000
 40
3.316816
 50
-4.093161
 51
8.168098
  6
CONTINUOUS
  0
LINE
  8
WHITE
 10
16.250108
 20
7.921322
 30
0.000000
 11
16.250840
 21
7.919219
 31
0.000000
  6
CONTINUOUS
  0
ARC
  8
WHITE
 10
16.210656
 20
7.983887
 30
0.000000
 40
0.076136
 50
-92.527762
 51
-58.143911
  6
CONTINUOUS
  0
ARC
  8
WHITE
 10
16.218175
 20
7.946139
 30
0.000000
 40
0.039828
 50
-172.299211
 51
-105.848577
  6
CONTINUOUS
  0
ARC
  8
WHITE
 10
17.444864
 20
8.009656
 30
0.000000
 40
1.268029
 50
178.958475
 51
183.112693
  6
CONTINUOUS
  0
LINE
  8
WHITE
 10
16.177045
 20
8.032705
 30
0.000000
 11
16.152613
 21
8.041430
 31
0.000000
  6
CONTINUOUS
  0
LINE
  8
WHITE
 10
16.152613
 20
8.041430
 30
0.000000
 11
16.126962
 21
8.023108
 31
0.000000
  6
CONTINUOUS
  0
LINE
  8
WHITE
 10
16.126962
 20
8.023108
 30
0.000000
 11
16.115077
 21
7.928028
 31
0.000000
  6
CONTINUOUS
  0
LINE
  8
WHITE
 10
16.115077
 20
7.928028
 30
0.000000
 11
16.140721
 21
7.797810
 31
0.000000
  6
CONTINUOUS
  0
ARC
  8
WHITE
 10
16.174497
 20
7.804462
 30
0.000000
 40
0.034425
 50
-168.859246
 51
-102.680627
  6
CONTINUOUS
  0
LINE
  8
WHITE
 10
16.166940
 20
7.770876
 30
0.000000
 11
16.232046
 21
7.756227
 31
0.000000
  6
CONTINUOUS
  0
LINE
  8
WHITE
 10
16.232046
 20
7.756227
 30
0.000000
 11
16.255899
 21
7.729392
 31
0.000000
  6
CONTINUOUS
  0
LINE
  8
WHITE
 10
16.255899
 20
7.729392
 30
0.000000
 11
16.338955
 21
7.565664
 31
0.000000
  6
CONTINUOUS
  0
LINE
  8
WHITE
 10
16.338955
 20
7.565664
 30
0.000000
 11
16.384773
 21
7.500210
 31
0.000000
  6
CONTINUOUS
  0
LINE
  8
WHITE
 10
16.384773
 20
7.500210
 30
0.000000
 11
16.415630
 21
7.424999
 31
0.000000
  6
CONTINUOUS
  0
LINE
  8
WHITE
 10
16.415630
 20
7.424999
 30
0.000000
 11
16.405453
 21
7.365641
 31
0.000000
  6
CONTINUOUS
  0
LINE
  8
WHITE
 10
16.405453
 20
7.365641
 30
0.000000
 11
16.419520
 21
7.339265
 31
0.000000
  6
CONTINUOUS
  0
LINE
  8
WHITE
 10
16.419520
 20
7.339265
 30
0.000000
 11
16.443462
 21
7.338177
 31
0.000000
  6
CONTINUOUS
  0
ARC
  8
WHITE
 10
16.444504
 20
7.361103
 30
0.000000
 40
0.022950
 50
-92.602843
 51
-30.950484
  6
CONTINUOUS
  0
LINE
  8
WHITE
 10
16.464186
 20
7.349300
 30
0.000000
 11
16.477489
 21
7.371480
 31
0.000000
  6
CONTINUOUS
  0
ARC
  8
WHITE
 10
16.509957
 20
7.352361
 30
0.000000
 40
0.037679
 50
24.770149
 51
149.508780
  6
CONTINUOUS
  0
LINE
  8
WHITE
 10
16.544170
 20
7.368148
 30
0.000000
 11
16.577702
 21
7.289473
 31
0.000000
  6
CONTINUOUS
  0
ARC
  8
WHITE
 10
16.598814
 20
7.298471
 30
0.000000
 40
0.022950
 50
-156.915573
 51
-135.000000
  6
CONTINUOUS
  0
LINE
  8
WHITE
 10
16.582586
 20
7.282243
 30
0.000000
 11
16.596676
 21
7.268153
 31
0.000000
  6
CONTINUOUS
  0
ARC
  8
WHITE
 10
16.580448
 20
7.251925
 30
0.000000
 40
0.022950
 50
1.058600
 51
45.000994
  6
CONTINUOUS
  0
LINE
  8
WHITE
 10
16.603394
 20
7.252349
 30
0.000000
 11
16.605157
 21
7.156905
 31
0.000000
  6
CONTINUOUS
  0
ARC
  8
WHITE
 10
16.628103
 20
7.157329
 30
0.000000
 40
0.022950
 50
-178.941838
 51
-97.762917
  6
CONTINUOUS
  0
LINE
  8
WHITE
 10
16.625003
 20
7.134589
 30
0.000000
 11
16.641178
 21
7.132383
 31
0.000000
  6
CONTINUOUS
  0
ARC
  8
WHITE
 10
16.644279
 20
7.155123
 30
0.000000
 40
0.022950
 50
-97.764808
 51
-25.344632
  6
CONTINUOUS
  0
LINE
  8
WHITE
 10
16.665020
 20
7.145299
 30
0.000000
 11
16.674477
 21
7.165265
 31
0.000000
  6
CONTINUOUS
  0
ARC
  8
WHITE
 10
16.695218
 20
7.155440
 30
0.000000
 40
0.022950
 50
50.528787
 51
154.654011
  6
CONTINUOUS
  0
LINE
  8
WHITE
 10
16.709807
 20
7.173156
 30
0.000000
 11
16.756077
 21
7.135051
 31
0.000000
  6
CONTINUOUS
  0
LINE
  8
WHITE
 10
16.756077
 20
7.135051
 30
0.000000
 11
16.769468
 21
7.135051
 31
0.000000
  6
CONTINUOUS
  0
ARC
  8
WHITE
 10
16.769468
 20
7.158001
 30
0.000000
 40
0.022950
 50
-90.000000
 51
-5.711587
  6
CONTINUOUS
  0
LINE
  8
WHITE
 10
16.792304
 20
7.155717
 30
0.000000
 11
16.793522
 21
7.167892
 31
0.000000
  6
CONTINUOUS
  0
ARC
  8
WHITE
 10
16.770686
 20
7.170176
 30
0.000000
 40
0.022950
 50
-5.711410
 51
31.186829
  6
CONTINUOUS
  0
LINE
  8
WHITE
 10
16.790319
 20
7.182060
 30
0.000000
 11
16.755518
 21
7.239555
 31
0.000000
  6
CONTINUOUS
  0
LINE
  8
WHITE
 10
16.755518
 20
7.239555
 30
0.000000
 11
16.749244
 21
7.285044
 31
0.000000
  6
CONTINUOUS
  0
ARC
  8
WHITE
 10
16.726509
 20
7.281908
 30
0.000000
 40
0.022950
 50
7.853724
 51
82.614553
  6
CONTINUOUS
  0
LINE
  8
WHITE
 10
16.729459
 20
7.304667
 30
0.000000
 11
16.646749
 21
7.315389
 31
0.000000
  6
CONTINUOUS
  0
ARC
  8
WHITE
 10
16.649699
 20
7.338149
 30
0.000000
 40
0.022950
 50
-158.926461
 51
-97.386393
  6
CONTINUOUS
  0
LINE
  8
WHITE
 10
16.628284
 20
7.329897
 30
0.000000
 11
16.577705
 21
7.461155
 31
0.000000
  6
CONTINUOUS
  0
ARC
  8
WHITE
 10
16.599120
 20
7.469407
 30
0.000000
 40
0.022950
 50
-178.806563
 51
-158.926425
  6
CONTINUOUS
  0
LINE
  8
WHITE
 10
16.576175
 20
7.468929
 30
0.000000
 11
16.579563
 21
7.527069
 31
0.000000
  6
CONTINUOUS
  0
ARC
  8
WHITE
 10
16.545578
 20
7.511771
 30
0.000000
 40
0.037270
 50
24.234651
 51
193.706450
  6
CONTINUOUS
  0
ARC
  8
WHITE
 10
16.494607
 20
7.497273
 30
0.000000
 40
0.015813
 50
-127.983029
 51
21.000636
  6
CONTINUOUS
  0
ARC
  8
WHITE
 10
16.484875
 20
7.519234
 30
0.000000
 40
0.034425
 50
-157.890455
 51
-90.000000
  6
CONTINUOUS
  0
LINE
  8
WHITE
 10
16.452981
 20
7.506277
 30
0.000000
 11
16.432221
 21
7.557380
 31
0.000000
  6
CONTINUOUS
  0
LINE
  8
WHITE
 10
16.432221
 20
7.557380
 30
0.000000
 11
16.414943
 21
7.708893
 31
0.000000
  6
CONTINUOUS
  0
ARC
  8
WHITE
 10
16.800126
 20
8.490013
 30
0.000000
 40
0.870928
 50
-120.874190
 51
-116.248667
  6
CONTINUOUS
  0
ARC
  8
WHITE
 10
16.676145
 20
8.073430
 30
0.000000
 40
0.462390
 50
-140.816642
 51
-134.299808
  6
CONTINUOUS
  0
ARC
  8
WHITE
 10
16.598687
 20
7.895850
 30
0.000000
 40
0.303412
 50
-172.730083
 51
-157.816536
  6
CONTINUOUS
  0
ARC
  8
WHITE
 10
16.245557
 20
7.868254
 30
0.000000
 40
0.053263
 50
-11.697573
 51
85.098188
  6
CONTINUOUS
  0
ARC
  8
WHITE
 10
16.198657
 20
9.445496
 30
0.000000
 40
0.892433
 50
17.755036
 51
71.606388
  6
CONTINUOUS
  0
ARC
  8
WHITE
 10
16.944181
 20
9.689167
 30
0.000000
 40
0.108215
 50
-47.523053
 51
15.255897
  6
CONTINUOUS
  0
LINE
  8
WHITE
 10
17.017258
 20
9.609353
 30
0.000000
 11
17.017258
 21
9.586821
 31
0.000000
  6
CONTINUOUS
  0
LINE
  8
WHITE
 10
17.017258
 20
9.586821
 30
0.000000
 11
17.045527
 21
9.571116
 31
0.000000
  6
CONTINUOUS
  0
LINE
  8
WHITE
 10
17.045527
 20
9.571116
 30
0.000000
 11
17.076254
 21
9.571116
 31
0.000000
  6
CONTINUOUS
  0
LINE
  8
WHITE
 10
17.076254
 20
9.571116
 30
0.000000
 11
17.108736
 21
9.589162
 31
0.000000
  6
CONTINUOUS
  0
LINE
  8
WHITE
 10
17.108736
 20
9.589162
 30
0.000000
 11
17.194372
 21
9.660816
 31
0.000000
  6
CONTINUOUS
  0
LINE
  8
WHITE
 10
17.194372
 20
9.660816
 30
0.000000
 11
17.226903
 21
9.716840
 31
0.000000
  6
CONTINUOUS
  0
ARC
  8
WHITE
 10
16.959551
 20
9.709496
 30
0.000000
 40
0.267453
 50
1.573551
 51
53.554098
  6
CONTINUOUS
  0
ARC
  8
WHITE
 10
15.972832
 20
8.943092
 30
0.000000
 40
1.508590
 50
40.589836
 51
67.671815
  6
CONTINUOUS
  0
ARC
  8
WHITE
 10
16.519076
 20
10.306976
 30
0.000000
 40
0.041487
 50
49.604341
 51
200.664227
  6
CONTINUOUS
  0
ARC
  8
WHITE
 10
10.450060
 20
3.434507
 30
0.000000
 40
0.054224
 50
-152.092786
 51
-40.575556
  6
CONTINUOUS
  0
LINE
  8
WHITE
 10
10.491246
 20
3.399237
 30
0.000000
 11
10.513152
 21
3.426745
 31
0.000000
  6
CONTINUOUS
  0
ARC
  8
WHITE
 10
11.186390
 20
3.271437
 30
0.000000
 40
0.690920
 50
119.029218
 51
167.009796
  6
CONTINUOUS
  0
LINE
  8
WHITE
 10
10.851118
 20
3.875557
 30
0.000000
 11
10.908172
 21
3.925428
 31
0.000000
  6
CONTINUOUS
  0
ARC
  8
WHITE
 10
10.858503
 20
3.981295
 30
0.000000
 40
0.074754
 50
-48.361050
 51
24.981388
  6
CONTINUOUS
  0
LINE
  8
WHITE
 10
10.926263
 20
4.012865
 30
0.000000
 11
10.905343
 21
4.021233
 31
0.000000
  6
CONTINUOUS
  0
ARC
  8
WHITE
 10
11.521338
 20
2.918160
 30
0.000000
 40
1.263416
 50
119.180537
 51
148.503295
  6
CONTINUOUS
  0
LINE
  8
WHITE
 10
10.444061
 20
3.578231
 30
0.000000
 11
10.425032
 21
3.578231
 31
0.000000
  6
CONTINUOUS
  0
LINE
  8
WHITE
 10
10.425032
 20
3.578231
 30
0.000000
 11
10.387010
 21
3.610821
 31
0.000000
  6
CONTINUOUS
  0
LINE
  8
WHITE
 10
10.387010
 20
3.610821
 30
0.000000
 11
10.375678
 21
3.648595
 31
0.000000
  6
CONTINUOUS
  0
LINE
  8
WHITE
 10
10.375678
 20
3.648595
 30
0.000000
 11
10.378223
 21
3.912058
 31
0.000000
  6
CONTINUOUS
  0
ARC
  8
WHITE
 10
10.353050
 20
3.896698
 30
0.000000
 40
0.029489
 50
31.390605
 51
153.464887
  6
CONTINUOUS
  0
LINE
  8
WHITE
 10
10.326667
 20
3.909872
 30
0.000000
 11
10.312868
 21
3.840875
 31
0.000000
  6
CONTINUOUS
  0
ARC
  8
WHITE
 10
10.580868
 20
3.699624
 30
0.000000
 40
0.302945
 50
152.208260
 51
223.438286
  6
CONTINUOUS
  0
LINE
  8
WHITE
 10
10.360895
 20
3.491327
 30
0.000000
 11
10.402142
 21
3.409128
 31
0.000000
  6
CONTINUOUS
  0
ARC
  8
WHITE
 10
11.657459
 20
3.933059
 30
0.000000
 40
0.098976
 50
-120.154218
 51
-81.840584
  6
CONTINUOUS
  0
LINE
  8
WHITE
 10
11.671506
 20
3.835085
 30
0.000000
 11
11.771849
 21
4.003807
 31
0.000000
  6
CONTINUOUS
  0
LINE
  8
WHITE
 10
11.771849
 20
4.003807
 30
0.000000
 11
11.786740
 21
4.055922
 31
0.000000
  6
CONTINUOUS
  0
LINE
  8
WHITE
 10
11.786740
 20
4.055922
 30
0.000000
 11
11.807659
 21
4.081324
 31
0.000000
  6
CONTINUOUS
  0
LINE
  8
WHITE
 10
11.807659
 20
4.081324
 30
0.000000
 11
11.866989
 21
4.210897
 31
0.000000
  6
CONTINUOUS
  0
LINE
  8
WHITE
 10
11.866989
 20
4.210897
 30
0.000000
 11
11.922239
 21
4.279959
 31
0.000000
  6
CONTINUOUS
  0
ARC
  8
WHITE
 10
11.898324
 20
4.296899
 30
0.000000
 40
0.029307
 50
-35.311546
 51
138.384946
  6
CONTINUOUS
  0
LINE
  8
WHITE
 10
11.876414
 20
4.316362
 30
0.000000
 11
11.741033
 21
4.139154
 31
0.000000
  6
CONTINUOUS
  0
LINE
  8
WHITE
 10
11.741033
 20
4.139154
 30
0.000000
 11
11.713256
 21
4.113692
 31
0.000000
  6
CONTINUOUS
  0
LINE
  8
WHITE
 10
11.713256
 20
4.113692
 30
0.000000
 11
11.688736
 21
4.117779
 31
0.000000
  6
CONTINUOUS
  0
LINE
  8
WHITE
 10
11.688736
 20
4.117779
 30
0.000000
 11
11.673708
 21
4.229185
 31
0.000000
  6
CONTINUOUS
  0
LINE
  8
WHITE
 10
11.673708
 20
4.229185
 30
0.000000
 11
11.639922
 21
4.227496
 31
0.000000
  6
CONTINUOUS
  0
LINE
  8
WHITE
 10
11.639922
 20
4.227496
 30
0.000000
 11
11.494610
 21
4.017183
 31
0.000000
  6
CONTINUOUS
  0
LINE
  8
WHITE
 10
11.494610
 20
4.017183
 30
0.000000
 11
11.442602
 21
3.952174
 31
0.000000
  6
CONTINUOUS
  0
LINE
  8
WHITE
 10
11.442602
 20
3.952174
 30
0.000000
 11
11.338757
 21
3.847842
 31
0.000000
  6
CONTINUOUS
  0
LINE
  8
WHITE
 10
11.338757
 20
3.847842
 30
0.000000
 11
11.192559
 21
3.729230
 31
0.000000
  6
CONTINUOUS
  0
ARC
  8
WHITE
 10
11.217079
 20
3.705777
 30
0.000000
 40
0.033930
 50
136.274144
 51
324.473212
  6
CONTINUOUS
  0
ARC
  8
WHITE
 10
10.652037
 20
4.644860
 30
0.000000
 40
1.127180
 50
-58.278859
 51
-38.201171
  6
CONTINUOUS
  0
LINE
  8
WHITE
 10
11.537824
 20
3.947785
 30
0.000000
 11
11.566830
 21
3.962287
 31
0.000000
  6
CONTINUOUS
  0
LINE
  8
WHITE
 10
11.566830
 20
3.962287
 30
0.000000
 11
11.594273
 21
3.943992
 31
0.000000
  6
CONTINUOUS
  0
LINE
  8
WHITE
 10
11.594273
 20
3.943992
 30
0.000000
 11
11.607740
 21
3.847477
 31
0.000000
  6
CONTINUOUS
  0
LINE
  8
WHITE
 10
7.090770
 20
5.798823
 30
0.000000
 11
7.091052
 21
5.795798
 31
0.000000
  6
CONTINUOUS
  0
LINE
  8
WHITE
 10
7.091052
 20
5.795798
 30
0.000000
 11
7.089367
 21
5.721614
 31
0.000000
  6
CONTINUOUS
  0
LINE
  8
WHITE
 10
7.089367
 20
5.721614
 30
0.000000
 11
7.101946
 21
5.693940
 31
0.000000
  6
CONTINUOUS
  0
ARC
  8
WHITE
 10
7.013358
 20
5.552489
 30
0.000000
 40
0.166902
 50
1.361744
 51
57.941890
  6
CONTINUOUS
  0
LINE
  8
WHITE
 10
7.180213
 20
5.556455
 30
0.000000
 11
7.197008
 21
5.527663
 31
0.000000
  6
CONTINUOUS
  0
LINE
  8
WHITE
 10
7.197008
 20
5.527663
 30
0.000000
 11
7.197008
 21
5.497409
 31
0.000000
  6
CONTINUOUS
  0
LINE
  8
WHITE
 10
7.197008
 20
5.497409
 30
0.000000
 11
7.233646
 21
5.413664
 31
0.000000
  6
CONTINUOUS
  0
ARC
  8
WHITE
 10
7.263635
 20
5.431744
 30
0.000000
 40
0.035018
 50
-148.914741
 51
19.278879
  6
CONTINUOUS
  0
LINE
  8
WHITE
 10
7.296689
 20
5.443306
 30
0.000000
 11
7.272206
 21
5.490523
 31
0.000000
  6
CONTINUOUS
  0
LINE
  8
WHITE
 10
7.272206
 20
5.490523
 30
0.000000
 11
7.272206
 21
5.564093
 31
0.000000
  6
CONTINUOUS
  0
ARC
  8
WHITE
 10
7.634340
 20
5.685519
 30
0.000000
 40
0.381949
 50
148.332220
 51
198.536654
  6
CONTINUOUS
  0
ARC
  8
WHITE
 10
7.303693
 20
5.906798
 30
0.000000
 40
0.021491
 50
-74.987571
 51
81.337994
  6
CONTINUOUS
  0
LINE
  8
WHITE
 10
7.306930
 20
5.928045
 30
0.000000
 11
7.222495
 21
5.913598
 31
0.000000
  6
CONTINUOUS
  0
ARC
  8
WHITE
 10
7.216824
 20
5.963592
 30
0.000000
 40
0.050315
 50
-160.974881
 51
-83.528395
  6
CONTINUOUS
  0
LINE
  8
WHITE
 10
7.169257
 20
5.947190
 30
0.000000
 11
7.168713
 21
6.080070
 31
0.000000
  6
CONTINUOUS
  0
ARC
  8
WHITE
 10
7.230239
 20
6.158465
 30
0.000000
 40
0.099656
 50
175.013740
 51
231.874452
  6
CONTINUOUS
  0
ARC
  8
WHITE
 10
7.098125
 20
6.166693
 30
0.000000
 40
0.032838
 50
0.756890
 51
168.076065
  6
CONTINUOUS
  0
LINE
  8
WHITE
 10
7.065995
 20
6.173478
 30
0.000000
 11
7.053433
 21
6.121138
 31
0.000000
  6
CONTINUOUS
  0
ARC
  8
WHITE
 10
7.048964
 20
6.043615
 30
0.000000
 40
0.077652
 50
86.700698
 51
211.897824
  6
CONTINUOUS
  0
LINE
  8
WHITE
 10
6.983038
 20
6.002583
 30
0.000000
 11
6.994128
 21
5.978185
 31
0.000000
  6
CONTINUOUS
  0
LINE
  8
WHITE
 10
6.994128
 20
5.978185
 30
0.000000
 11
7.056732
 21
5.956720
 31
0.000000
  6
CONTINUOUS
  0
LINE
  8
WHITE
 10
7.056732
 20
5.956720
 30
0.000000
 11
7.077873
 21
5.937206
 31
0.000000
  6
CONTINUOUS
  0
LINE
  8
WHITE
 10
7.077873
 20
5.937206
 30
0.000000
 11
7.090770
 21
5.798823
 31
0.000000
  6
CONTINUOUS
  0
ARC
  8
WHITE
 10
19.248799
 20
10.078117
 30
0.000000
 40
0.546946
 50
-112.818312
 51
-82.889159
  6
CONTINUOUS
  0
ARC
  8
WHITE
 10
19.045588
 20
9.595130
 30
0.000000
 40
0.022951
 50
143.652212
 51
247.182364
  6
CONTINUOUS
  0
LINE
  8
WHITE
 10
19.027103
 20
9.608732
 30
0.000000
 11
19.086268
 21
9.689133
 31
0.000000
  6
CONTINUOUS
  0
LINE
  8
WHITE
 10
19.086268
 20
9.689133
 30
0.000000
 11
19.186306
 21
9.785535
 31
0.000000
  6
CONTINUOUS
  0
LINE
  8
WHITE
 10
19.186306
 20
9.785535
 30
0.000000
 11
19.244783
 21
9.866503
 31
0.000000
  6
CONTINUOUS
  0
ARC
  8
WHITE
 10
19.263053
 20
9.705683
 30
0.000000
 40
0.161854
 50
24.908960
 51
96.481315
  6
CONTINUOUS
  0
LINE
  8
WHITE
 10
19.409851
 20
9.773852
 30
0.000000
 11
19.487040
 21
9.615591
 31
0.000000
  6
CONTINUOUS
  0
LINE
  8
WHITE
 10
19.487040
 20
9.615591
 30
0.000000
 11
19.483595
 21
9.577700
 31
0.000000
  6
CONTINUOUS
  0
LINE
  8
WHITE
 10
19.483595
 20
9.577700
 30
0.000000
 11
19.451633
 21
9.545738
 31
0.000000
  6
CONTINUOUS
  0
LINE
  8
WHITE
 10
19.451633
 20
9.545738
 30
0.000000
 11
19.373611
 21
9.522150
 31
0.000000
  6
CONTINUOUS
  0
LINE
  8
WHITE
 10
19.373611
 20
9.522150
 30
0.000000
 11
19.350899
 21
9.522150
 31
0.000000
  6
CONTINUOUS
  0
LINE
  8
WHITE
 10
19.350899
 20
9.522150
 30
0.000000
 11
19.316505
 21
9.535378
 31
0.000000
  6
CONTINUOUS
  0
LINE
  8
WHITE
 10
16.805985
 20
8.437799
 30
0.000000
 11
16.867024
 21
8.437677
 31
0.000000
  6
CONTINUOUS
  0
LINE
  8
WHITE
 10
16.867024
 20
8.437677
 30
0.000000
 11
16.946613
 21
8.413800
 31
0.000000
  6
CONTINUOUS
  0
LINE
  8
WHITE
 10
16.946613
 20
8.413800
 30
0.000000
 11
16.988837
 21
8.367353
 31
0.000000
  6
CONTINUOUS
  0
LINE
  8
WHITE
 10
16.988837
 20
8.367353
 30
0.000000
 11
17.058660
 21
8.359199
 31
0.000000
  6
CONTINUOUS
  0
ARC
  8
WHITE
 10
17.061903
 20
8.396180
 30
0.000000
 40
0.037123
 50
-95.011870
 51
-0.682189
  6
CONTINUOUS
  0
LINE
  8
WHITE
 10
17.099024
 20
8.395738
 30
0.000000
 11
17.096777
 21
8.452860
 31
0.000000
  6
CONTINUOUS
  0
LINE
  8
WHITE
 10
17.096777
 20
8.452860
 30
0.000000
 11
17.051774
 21
8.627278
 31
0.000000
  6
CONTINUOUS
  0
ARC
  8
WHITE
 10
16.631821
 20
8.522068
 30
0.000000
 40
0.432931
 50
14.064694
 51
46.180044
  6
CONTINUOUS
  0
ARC
  8
WHITE
 10
16.814981
 20
8.582768
 30
0.000000
 40
0.277367
 50
65.141429
 51
127.570519
  6
CONTINUOUS
  0
LINE
  8
WHITE
 10
16.645860
 20
8.802610
 30
0.000000
 11
16.645860
 21
8.763175
 31
0.000000
  6
CONTINUOUS
  0
LINE
  8
WHITE
 10
16.645860
 20
8.763175
 30
0.000000
 11
16.790685
 21
8.763175
 31
0.000000
  6
CONTINUOUS
  0
LINE
  8
WHITE
 10
16.790685
 20
8.763175
 30
0.000000
 11
16.828971
 21
8.779583
 31
0.000000
  6
CONTINUOUS
  0
LINE
  8
WHITE
 10
16.828971
 20
8.779583
 30
0.000000
 11
16.911132
 21
8.755619
 31
0.000000
  6
CONTINUOUS
  0
LINE
  8
WHITE
 10
16.911132
 20
8.755619
 30
0.000000
 11
16.947479
 21
8.717693
 31
0.000000
  6
CONTINUOUS
  0
LINE
  8
WHITE
 10
16.947479
 20
8.717693
 30
0.000000
 11
16.984280
 21
8.620432
 31
0.000000
  6
CONTINUOUS
  0
LINE
  8
WHITE
 10
16.984280
 20
8.620432
 30
0.000000
 11
16.996278
 21
8.556841
 31
0.000000
  6
CONTINUOUS
  0
LINE
  8
WHITE
 10
16.996278
 20
8.556841
 30
0.000000
 11
16.975632
 21
8.527937
 31
0.000000
  6
CONTINUOUS
  0
LINE
  8
WHITE
 10
16.975632
 20
8.527937
 30
0.000000
 11
16.887084
 21
8.532211
 31
0.000000
  6
CONTINUOUS
  0
ARC
  8
WHITE
 10
16.813078
 20
8.725274
 30
0.000000
 40
0.206761
 50
-139.649652
 51
-69.026893
  6
CONTINUOUS
  0
LINE
  8
WHITE
 10
16.655506
 20
8.591405
 30
0.000000
 11
16.622974
 21
8.597505
 31
0.000000
  6
CONTINUOUS
  0
LINE
  8
WHITE
 10
16.622974
 20
8.597505
 30
0.000000
 11
16.602024
 21
8.588776
 31
0.000000
  6
CONTINUOUS
  0
ARC
  8
WHITE
 10
16.725322
 20
8.545644
 30
0.000000
 40
0.130624
 50
160.719233
 51
196.032519
  6
CONTINUOUS
  0
LINE
  8
WHITE
 10
16.599779
 20
8.509568
 30
0.000000
 11
16.656946
 21
8.463217
 31
0.000000
  6
CONTINUOUS
  0
LINE
  8
WHITE
 10
16.656946
 20
8.463217
 30
0.000000
 11
16.735073
 21
8.437941
 31
0.000000
  6
CONTINUOUS
  0
LINE
  8
WHITE
 10
16.735073
 20
8.437941
 30
0.000000
 11
16.800248
 21
8.437810
 31
0.000000
  6
CONTINUOUS
  0
LINE
  8
WHITE
 10
16.800248
 20
8.437810
 30
0.000000
 11
16.805985
 21
8.437799
 31
0.000000
  6
CONTINUOUS
  0
LINE
  8
WHITE
 10
12.142480
 20
4.456840
 30
0.000000
 11
12.152534
 21
4.577531
 31
0.000000
  6
CONTINUOUS
  0
LINE
  8
WHITE
 10
12.152534
 20
4.577531
 30
0.000000
 11
12.172584
 21
4.622643
 31
0.000000
  6
CONTINUOUS
  0
LINE
  8
WHITE
 10
12.172584
 20
4.622643
 30
0.000000
 11
12.202163
 21
4.634020
 31
0.000000
  6
CONTINUOUS
  0
ARC
  8
WHITE
 10
11.915844
 20
4.891026
 30
0.000000
 40
0.384748
 50
-41.911853
 51
-6.129380
  6
CONTINUOUS
  0
LINE
  8
WHITE
 10
12.298392
 20
4.849945
 30
0.000000
 11
12.312697
 21
4.867826
 31
0.000000
  6
CONTINUOUS
  0
LINE
  8
WHITE
 10
12.312697
 20
4.867826
 30
0.000000
 11
12.354182
 21
5.067235
 31
0.000000
  6
CONTINUOUS
  0
ARC
  8
WHITE
 10
12.376932
 20
5.051800
 30
0.000000
 40
0.027492
 50
-42.489920
 51
145.843665
  6
CONTINUOUS
  0
ARC
  8
WHITE
 10
9.141462
 20
5.429319
 30
0.000000
 40
3.279748
 50
-25.283517
 51
-6.936434
  6
CONTINUOUS
  0
LINE
  8
WHITE
 10
12.107028
 20
4.028546
 30
0.000000
 11
12.076781
 21
3.995973
 31
0.000000
  6
CONTINUOUS
  0
LINE
  8
WHITE
 10
12.076781
 20
3.995973
 30
0.000000
 11
12.051787
 21
3.995973
 31
0.000000
  6
CONTINUOUS
  0
LINE
  8
WHITE
 10
12.051787
 20
3.995973
 30
0.000000
 11
12.045052
 21
4.021232
 31
0.000000
  6
CONTINUOUS
  0
LINE
  8
WHITE
 10
12.045052
 20
4.021232
 30
0.000000
 11
12.098187
 21
4.210376
 31
0.000000
  6
CONTINUOUS
  0
LINE
  8
WHITE
 10
12.098187
 20
4.210376
 30
0.000000
 11
12.140757
 21
4.436149
 31
0.000000
  6
CONTINUOUS
  0
LINE
  8
WHITE
 10
12.140757
 20
4.436149
 30
0.000000
 11
12.142480
 21
4.456840
 31
0.000000
  6
CONTINUOUS
  0
LINE
  8
WHITE
 10
11.506376
 20
3.353229
 30
0.000000
 11
11.508829
 21
3.487645
 31
0.000000
  6
CONTINUOUS
  0
LINE
  8
WHITE
 10
11.508829
 20
3.487645
 30
0.000000
 11
11.516594
 21
3.513530
 31
0.000000
  6
CONTINUOUS
  0
LINE
  8
WHITE
 10
11.516594
 20
3.513530
 30
0.000000
 11
11.516253
 21
3.613492
 31
0.000000
  6
CONTINUOUS
  0
ARC
  8
WHITE
 10
11.452419
 20
3.570618
 30
0.000000
 40
0.076896
 50
33.887218
 51
136.311478
  6
CONTINUOUS
  0
ARC
  8
WHITE
 10
12.080952
 20
3.147818
 30
0.000000
 40
0.833389
 50
145.175882
 51
173.402666
  6
CONTINUOUS
  0
LINE
  8
WHITE
 10
11.253082
 20
3.243567
 30
0.000000
 11
11.273196
 21
3.203340
 31
0.000000
  6
CONTINUOUS
  0
LINE
  8
WHITE
 10
11.273196
 20
3.203340
 30
0.000000
 11
11.300553
 21
3.184531
 31
0.000000
  6
CONTINUOUS
  0
LINE
  8
WHITE
 10
11.300553
 20
3.184531
 30
0.000000
 11
11.331411
 21
3.174245
 31
0.000000
  6
CONTINUOUS
  0
LINE
  8
WHITE
 10
11.331411
 20
3.174245
 30
0.000000
 11
11.476954
 21
3.183798
 31
0.000000
  6
CONTINUOUS
  0
LINE
  8
WHITE
 10
11.476954
 20
3.183798
 30
0.000000
 11
11.508604
 21
3.213783
 31
0.000000
  6
CONTINUOUS
  0
LINE
  8
WHITE
 10
11.508604
 20
3.213783
 30
0.000000
 11
11.519189
 21
3.234953
 31
0.000000
  6
CONTINUOUS
  0
LINE
  8
WHITE
 10
11.519189
 20
3.234953
 30
0.000000
 11
11.505841
 21
3.323936
 31
0.000000
  6
CONTINUOUS
  0
LINE
  8
WHITE
 10
11.505841
 20
3.323936
 30
0.000000
 11
11.506166
 21
3.341754
 31
0.000000
  6
CONTINUOUS
  0
LINE
  8
WHITE
 10
11.506166
 20
3.341754
 30
0.000000
 11
11.506376
 21
3.353229
 31
0.000000
  6
CONTINUOUS
  0
ARC
  8
WHITE
 10
10.087408
 20
4.503786
 30
0.000000
 40
0.061963
 50
174.955842
 51
384.652393
  6
CONTINUOUS
  0
LINE
  8
WHITE
 10
10.143722
 20
4.529631
 30
0.000000
 11
10.143605
 21
4.805118
 31
0.000000
  6
CONTINUOUS
  0
LINE
  8
WHITE
 10
10.143605
 20
4.805118
 30
0.000000
 11
10.114277
 21
4.814894
 31
0.000000
  6
CONTINUOUS
  0
LINE
  8
WHITE
 10
10.114277
 20
4.814894
 30
0.000000
 11
10.081237
 21
4.585483
 31
0.000000
  6
CONTINUOUS
  0
LINE
  8
WHITE
 10
10.081237
 20
4.585483
 30
0.000000
 11
10.058999
 21
4.589190
 31
0.000000
  6
CONTINUOUS
  0
LINE
  8
WHITE
 10
10.058999
 20
4.589190
 30
0.000000
 11
10.052849
 21
4.615836
 31
0.000000
  6
CONTINUOUS
  0
LINE
  8
WHITE
 10
10.052849
 20
4.615836
 30
0.000000
 11
9.979175
 21
4.640395
 31
0.000000
  6
CONTINUOUS
  0
LINE
  8
WHITE
 10
9.979175
 20
4.640395
 30
0.000000
 11
9.926752
 21
4.617095
 31
0.000000
  6
CONTINUOUS
  0
LINE
  8
WHITE
 10
9.926752
 20
4.617095
 30
0.000000
 11
9.862500
 21
4.424427
 31
0.000000
  6
CONTINUOUS
  0
LINE
  8
WHITE
 10
9.862500
 20
4.424427
 30
0.000000
 11
9.798537
 21
4.275665
 31
0.000000
  6
CONTINUOUS
  0
LINE
  8
WHITE
 10
9.798537
 20
4.275665
 30
0.000000
 11
9.788032
 21
4.197626
 31
0.000000
  6
CONTINUOUS
  0
LINE
  8
WHITE
 10
9.788032
 20
4.197626
 30
0.000000
 11
9.769036
 21
4.172785
 31
0.000000
  6
CONTINUOUS
  0
LINE
  8
WHITE
 10
9.769036
 20
4.172785
 30
0.000000
 11
9.714864
 21
3.916778
 31
0.000000
  6
CONTINUOUS
  0
LINE
  8
WHITE
 10
9.714864
 20
3.916778
 30
0.000000
 11
9.708757
 21
3.804239
 31
0.000000
  6
CONTINUOUS
  0
LINE
  8
WHITE
 10
9.708757
 20
3.804239
 30
0.000000
 11
9.747482
 21
3.795128
 31
0.000000
  6
CONTINUOUS
  0
LINE
  8
WHITE
 10
9.747482
 20
3.795128
 30
0.000000
 11
9.777533
 21
3.912285
 31
0.000000
  6
CONTINUOUS
  0
LINE
  8
WHITE
 10
9.777533
 20
3.912285
 30
0.000000
 11
9.772994
 21
3.941034
 31
0.000000
  6
CONTINUOUS
  0
LINE
  8
WHITE
 10
9.772994
 20
3.941034
 30
0.000000
 11
9.777439
 21
3.974988
 31
0.000000
  6
CONTINUOUS
  0
LINE
  8
WHITE
 10
9.777439
 20
3.974988
 30
0.000000
 11
9.828716
 21
4.169103
 31
0.000000
  6
CONTINUOUS
  0
LINE
  8
WHITE
 10
9.828716
 20
4.169103
 30
0.000000
 11
9.950106
 21
4.527937
 31
0.000000
  6
CONTINUOUS
  0
LINE
  8
WHITE
 10
9.950106
 20
4.527937
 30
0.000000
 11
10.001650
 21
4.533269
 31
0.000000
  6
CONTINUOUS
  0
LINE
  8
WHITE
 10
10.001650
 20
4.533269
 30
0.000000
 11
10.025685
 21
4.509234
 31
0.000000
  6
CONTINUOUS
  0
ARC
  8
WHITE
 10
17.478514
 20
7.200160
 30
0.000000
 40
0.061511
 50
-7.619233
 51
122.807158
  6
CONTINUOUS
  0
LINE
  8
WHITE
 10
17.445186
 20
7.251860
 30
0.000000
 11
17.429469
 21
7.218964
 31
0.000000
  6
CONTINUOUS
  0
ARC
  8
WHITE
 10
17.498767
 20
7.240488
 30
0.000000
 40
0.072564
 50
-162.745177
 51
-111.422093
  6
CONTINUOUS
  0
LINE
  8
WHITE
 10
17.472264
 20
7.172937
 30
0.000000
 11
17.488062
 21
7.043568
 31
0.000000
  6
CONTINUOUS
  0
LINE
  8
WHITE
 10
17.488062
 20
7.043568
 30
0.000000
 11
17.563885
 21
7.034090
 31
0.000000
  6
CONTINUOUS
  0
LINE
  8
WHITE
 10
17.563885
 20
7.034090
 30
0.000000
 11
17.588750
 21
7.010606
 31
0.000000
  6
CONTINUOUS
  0
LINE
  8
WHITE
 10
17.588750
 20
7.010606
 30
0.000000
 11
17.622573
 21
6.923376
 31
0.000000
  6
CONTINUOUS
  0
LINE
  8
WHITE
 10
17.622573
 20
6.923376
 30
0.000000
 11
17.624775
 21
6.850733
 31
0.000000
  6
CONTINUOUS
  0
LINE
  8
WHITE
 10
17.624775
 20
6.850733
 30
0.000000
 11
17.666688
 21
6.827871
 31
0.000000
  6
CONTINUOUS
  0
LINE
  8
WHITE
 10
17.666688
 20
6.827871
 30
0.000000
 11
17.702726
 21
6.821865
 31
0.000000
  6
CONTINUOUS
  0
LINE
  8
WHITE
 10
17.702726
 20
6.821865
 30
0.000000
 11
17.731575
 21
6.790130
 31
0.000000
  6
CONTINUOUS
  0
LINE
  8
WHITE
 10
17.731575
 20
6.790130
 30
0.000000
 11
17.816083
 21
6.611049
 31
0.000000
  6
CONTINUOUS
  0
LINE
  8
WHITE
 10
17.816083
 20
6.611049
 30
0.000000
 11
17.851965
 21
6.554883
 31
0.000000
  6
CONTINUOUS
  0
LINE
  8
WHITE
 10
17.851965
 20
6.554883
 30
0.000000
 11
17.869105
 21
6.461573
 31
0.000000
  6
CONTINUOUS
  0
LINE
  8
WHITE
 10
17.869105
 20
6.461573
 30
0.000000
 11
17.891559
 21
6.446028
 31
0.000000
  6
CONTINUOUS
  0
LINE
  8
WHITE
 10
17.891559
 20
6.446028
 30
0.000000
 11
17.932867
 21
6.446028
 31
0.000000
  6
CONTINUOUS
  0
LINE
  8
WHITE
 10
17.932867
 20
6.446028
 30
0.000000
 11
17.954124
 21
6.462380
 31
0.000000
  6
CONTINUOUS
  0
LINE
  8
WHITE
 10
17.954124
 20
6.462380
 30
0.000000
 11
17.966786
 21
6.493127
 31
0.000000
  6
CONTINUOUS
  0
LINE
  8
WHITE
 10
17.966786
 20
6.493127
 30
0.000000
 11
17.964751
 21
6.586517
 31
0.000000
  6
CONTINUOUS
  0
ARC
  8
WHITE
 10
18.148156
 20
6.902351
 30
0.000000
 40
0.365224
 50
-163.570373
 51
-120.143665
  6
CONTINUOUS
  0
LINE
  8
WHITE
 10
17.797845
 20
6.799052
 30
0.000000
 11
17.783838
 21
6.820602
 31
0.000000
  6
CONTINUOUS
  0
LINE
  8
WHITE
 10
17.783838
 20
6.820602
 30
0.000000
 11
17.757109
 21
6.914154
 31
0.000000
  6
CONTINUOUS
  0
LINE
  8
WHITE
 10
17.757109
 20
6.914154
 30
0.000000
 11
17.676084
 21
6.949142
 31
0.000000
  6
CONTINUOUS
  0
ARC
  8
WHITE
 10
17.678991
 20
6.965960
 30
0.000000
 40
0.017067
 50
-175.170287
 51
-99.807411
  6
CONTINUOUS
  0
LINE
  8
WHITE
 10
17.661984
 20
6.964523
 30
0.000000
 11
17.641749
 21
7.029671
 31
0.000000
  6
CONTINUOUS
  0
ARC
  8
WHITE
 10
17.549510
 20
7.000984
 30
0.000000
 40
0.096597
 50
17.276071
 51
99.444087
  6
CONTINUOUS
  0
LINE
  8
WHITE
 10
17.533660
 20
7.096271
 30
0.000000
 11
17.539482
 21
7.192004
 31
0.000000
  6
CONTINUOUS
  0
LINE
  8
WHITE
 10
4.834393
 20
8.172532
 30
0.000000
 11
4.834393
 21
8.055562
 31
0.000000
  6
CONTINUOUS
  0
LINE
  8
WHITE
 10
4.834393
 20
8.055562
 30
0.000000
 11
4.873699
 21
7.999059
 31
0.000000
  6
CONTINUOUS
  0
LINE
  8
WHITE
 10
4.873699
 20
7.999059
 30
0.000000
 11
4.857966
 21
7.766427
 31
0.000000
  6
CONTINUOUS
  0
LINE
  8
WHITE
 10
4.857966
 20
7.766427
 30
0.000000
 11
4.843137
 21
7.723286
 31
0.000000
  6
CONTINUOUS
  0
LINE
  8
WHITE
 10
4.843137
 20
7.723286
 30
0.000000
 11
4.843137
 21
7.693319
 31
0.000000
  6
CONTINUOUS
  0
LINE
  8
WHITE
 10
4.843137
 20
7.693319
 30
0.000000
 11
4.853976
 21
7.671641
 31
0.000000
  6
CONTINUOUS
  0
LINE
  8
WHITE
 10
4.853976
 20
7.671641
 30
0.000000
 11
4.899147
 21
7.666622
 31
0.000000
  6
CONTINUOUS
  0
LINE
  8
WHITE
 10
4.899147
 20
7.666622
 30
0.000000
 11
4.922641
 21
7.681573
 31
0.000000
  6
CONTINUOUS
  0
LINE
  8
WHITE
 10
4.922641
 20
7.681573
 30
0.000000
 11
4.907619
 21
7.776001
 31
0.000000
  6
CONTINUOUS
  0
LINE
  8
WHITE
 10
4.907619
 20
7.776001
 30
0.000000
 11
4.916010
 21
7.841452
 31
0.000000
  6
CONTINUOUS
  0
LINE
  8
WHITE
 10
4.916010
 20
7.841452
 30
0.000000
 11
4.910414
 21
7.886221
 31
0.000000
  6
CONTINUOUS
  0
LINE
  8
WHITE
 10
4.910414
 20
7.886221
 30
0.000000
 11
4.966594
 21
8.004720
 31
0.000000
  6
CONTINUOUS
  0
ARC
  8
WHITE
 10
4.818833
 20
8.076726
 30
0.000000
 40
0.164372
 50
-25.980621
 51
56.989272
  6
CONTINUOUS
  0
LINE
  8
WHITE
 10
4.908382
 20
8.214563
 30
0.000000
 11
4.965615
 21
8.357291
 31
0.000000
  6
CONTINUOUS
  0
LINE
  8
WHITE
 10
4.965615
 20
8.357291
 30
0.000000
 11
4.984667
 21
8.435231
 31
0.000000
  6
CONTINUOUS
  0
LINE
  8
WHITE
 10
4.984667
 20
8.435231
 30
0.000000
 11
4.981813
 21
8.486970
 31
0.000000
  6
CONTINUOUS
  0
ARC
  8
WHITE
 10
4.945455
 20
8.485349
 30
0.000000
 40
0.036394
 50
2.552808
 51
170.401097
  6
CONTINUOUS
  0
LINE
  8
WHITE
 10
4.909571
 20
8.491418
 30
0.000000
 11
4.894194
 21
8.401860
 31
0.000000
  6
CONTINUOUS
  0
LINE
  8
WHITE
 10
4.894194
 20
8.401860
 30
0.000000
 11
4.860623
 21
8.302877
 31
0.000000
  6
CONTINUOUS
  0
LINE
  8
WHITE
 10
4.860623
 20
8.302877
 30
0.000000
 11
4.856905
 21
8.215511
 31
0.000000
  6
CONTINUOUS
  0
LINE
  8
WHITE
 10
4.856905
 20
8.215511
 30
0.000000
 11
4.834393
 21
8.172532
 31
0.000000
  6
CONTINUOUS
  0
LINE
  8
WHITE
 10
17.879108
 20
8.562554
 30
0.000000
 11
17.867330
 21
8.481557
 31
0.000000
  6
CONTINUOUS
  0
ARC
  8
WHITE
 10
17.909428
 20
8.467622
 30
0.000000
 40
0.044344
 50
161.685198
 51
317.913003
  6
CONTINUOUS
  0
LINE
  8
WHITE
 10
17.942337
 20
8.437900
 30
0.000000
 11
17.980710
 21
8.543045
 31
0.000000
  6
CONTINUOUS
  0
LINE
  8
WHITE
 10
17.980710
 20
8.543045
 30
0.000000
 11
18.094393
 21
8.598122
 31
0.000000
  6
CONTINUOUS
  0
LINE
  8
WHITE
 10
18.094393
 20
8.598122
 30
0.000000
 11
18.111401
 21
8.619665
 31
0.000000
  6
CONTINUOUS
  0
LINE
  8
WHITE
 10
18.111401
 20
8.619665
 30
0.000000
 11
18.111401
 21
8.664448
 31
0.000000
  6
CONTINUOUS
  0
LINE
  8
WHITE
 10
18.111401
 20
8.664448
 30
0.000000
 11
18.073148
 21
8.670824
 31
0.000000
  6
CONTINUOUS
  0
LINE
  8
WHITE
 10
18.073148
 20
8.670824
 30
0.000000
 11
18.053175
 21
8.661745
 31
0.000000
  6
CONTINUOUS
  0
LINE
  8
WHITE
 10
18.053175
 20
8.661745
 30
0.000000
 11
18.003407
 21
8.661745
 31
0.000000
  6
CONTINUOUS
  0
ARC
  8
WHITE
 10
18.000159
 20
8.680157
 30
0.000000
 40
0.018696
 50
148.311990
 51
280.003528
  6
CONTINUOUS
  0
LINE
  8
WHITE
 10
17.984250
 20
8.689978
 30
0.000000
 11
18.049018
 21
8.874042
 31
0.000000
  6
CONTINUOUS
  0
LINE
  8
WHITE
 10
18.049018
 20
8.874042
 30
0.000000
 11
18.058743
 21
9.087872
 31
0.000000
  6
CONTINUOUS
  0
LINE
  8
WHITE
 10
18.058743
 20
9.087872
 30
0.000000
 11
18.046149
 21
9.114857
 31
0.000000
  6
CONTINUOUS
  0
LINE
  8
WHITE
 10
18.046149
 20
9.114857
 30
0.000000
 11
18.026726
 21
9.124569
 31
0.000000
  6
CONTINUOUS
  0
LINE
  8
WHITE
 10
18.026726
 20
9.124569
 30
0.000000
 11
18.004658
 21
9.113535
 31
0.000000
  6
CONTINUOUS
  0
LINE
  8
WHITE
 10
18.004658
 20
9.113535
 30
0.000000
 11
17.987622
 21
9.076053
 31
0.000000
  6
CONTINUOUS
  0
ARC
  8
WHITE
 10
17.409952
 20
9.049826
 30
0.000000
 40
0.578265
 50
-30.736533
 51
2.599496
  6
CONTINUOUS
  0
LINE
  8
WHITE
 10
17.906986
 20
8.754280
 30
0.000000
 11
17.879942
 21
8.568291
 31
0.000000
  6
CONTINUOUS
  0
LINE
  8
WHITE
 10
17.879942
 20
8.568291
 30
0.000000
 11
17.879108
 21
8.562554
 31
0.000000
  6
CONTINUOUS
  0
ARC
  8
WHITE
 10
13.034918
 20
4.966346
 30
0.000000
 40
0.543113
 50
148.299832
 51
178.058082
  6
CONTINUOUS
  0
LINE
  8
WHITE
 10
12.572832
 20
5.251738
 30
0.000000
 11
12.585022
 21
5.393857
 31
0.000000
  6
CONTINUOUS
  0
ARC
  8
WHITE
 10
12.611945
 20
5.396801
 30
0.000000
 40
0.027084
 50
3.062487
 51
186.241102
  6
CONTINUOUS
  0
LINE
  8
WHITE
 10
12.638991
 20
5.398248
 30
0.000000
 11
12.629568
 21
5.210440
 31
0.000000
  6
CONTINUOUS
  0
ARC
  8
WHITE
 10
11.999157
 20
5.133742
 30
0.000000
 40
0.635060
 50
-23.640686
 51
6.936732
  6
CONTINUOUS
  0
LINE
  8
WHITE
 10
12.580922
 20
4.879083
 30
0.000000
 11
12.554126
 21
4.758500
 31
0.000000
  6
CONTINUOUS
  0
LINE
  8
WHITE
 10
12.554126
 20
4.758500
 30
0.000000
 11
12.553208
 21
4.720924
 31
0.000000
  6
CONTINUOUS
  0
ARC
  8
WHITE
 10
12.521051
 20
4.709751
 30
0.000000
 40
0.034043
 50
164.611294
 51
379.159397
  6
CONTINUOUS
  0
LINE
  8
WHITE
 10
12.488228
 20
4.718785
 30
0.000000
 11
12.477849
 21
4.882973
 31
0.000000
  6
CONTINUOUS
  0
LINE
  8
WHITE
 10
12.477849
 20
4.882973
 30
0.000000
 11
12.488846
 21
4.911565
 31
0.000000
  6
CONTINUOUS
  0
LINE
  8
WHITE
 10
12.488846
 20
4.911565
 30
0.000000
 11
12.492117
 21
4.984750
 31
0.000000
  6
CONTINUOUS
  0
LINE
  8
WHITE
 10
18.322891
 20
12.634221
 30
0.000000
 11
18.323137
 21
12.634515
 31
0.000000
  6
CONTINUOUS
  0
LINE
  8
WHITE
 10
18.323137
 20
12.634515
 30
0.000000
 11
18.385169
 21
12.511292
 31
0.000000
  6
CONTINUOUS
  0
LINE
  8
WHITE
 10
18.385169
 20
12.511292
 30
0.000000
 11
18.406484
 21
12.413241
 31
0.000000
  6
CONTINUOUS
  0
LINE
  8
WHITE
 10
18.406484
 20
12.413241
 30
0.000000
 11
18.429881
 21
12.394097
 31
0.000000
  6
CONTINUOUS
  0
LINE
  8
WHITE
 10
18.429881
 20
12.394097
 30
0.000000
 11
18.448882
 21
12.269540
 31
0.000000
  6
CONTINUOUS
  0
ARC
  8
WHITE
 10
18.442846
 20
12.229335
 30
0.000000
 40
0.040656
 50
-38.849157
 51
81.461917
  6
CONTINUOUS
  0
LINE
  8
WHITE
 10
18.474508
 20
12.203833
 30
0.000000
 11
18.491327
 21
12.157584
 31
0.000000
  6
CONTINUOUS
  0
LINE
  8
WHITE
 10
18.491327
 20
12.157584
 30
0.000000
 11
18.522964
 21
12.147038
 31
0.000000
  6
CONTINUOUS
  0
LINE
  8
WHITE
 10
18.522964
 20
12.147038
 30
0.000000
 11
18.552016
 21
12.191933
 31
0.000000
  6
CONTINUOUS
  0
LINE
  8
WHITE
 10
18.552016
 20
12.191933
 30
0.000000
 11
18.558333
 21
12.234582
 31
0.000000
  6
CONTINUOUS
  0
LINE
  8
WHITE
 10
18.558333
 20
12.234582
 30
0.000000
 11
18.486592
 21
12.461826
 31
0.000000
  6
CONTINUOUS
  0
ARC
  8
WHITE
 10
20.515782
 20
13.659605
 30
0.000000
 40
2.356329
 50
-162.523284
 51
-149.447732
  6
CONTINUOUS
  0
ARC
  8
WHITE
 10
18.234606
 20
12.936952
 30
0.000000
 40
0.036814
 50
24.052770
 51
157.954361
  6
CONTINUOUS
  0
ARC
  8
WHITE
 10
21.009175
 20
13.854932
 30
0.000000
 40
2.950637
 50
-162.155814
 51
-155.561818
  6
CONTINUOUS
  0
LINE
  8
WHITE
 10
16.792258
 20
5.724034
 30
0.000000
 11
16.670203
 21
5.761546
 31
0.000000
  6
CONTINUOUS
  0
LINE
  8
WHITE
 10
16.670203
 20
5.761546
 30
0.000000
 11
16.635183
 21
5.777602
 31
0.000000
  6
CONTINUOUS
  0
LINE
  8
WHITE
 10
16.635183
 20
5.777602
 30
0.000000
 11
16.500432
 21
5.886725
 31
0.000000
  6
CONTINUOUS
  0
LINE
  8
WHITE
 10
16.500432
 20
5.886725
 30
0.000000
 11
16.436788
 21
5.968792
 31
0.000000
  6
CONTINUOUS
  0
LINE
  8
WHITE
 10
16.436788
 20
5.968792
 30
0.000000
 11
16.417430
 21
6.009123
 31
0.000000
  6
CONTINUOUS
  0
LINE
  8
WHITE
 10
16.417430
 20
6.009123
 30
0.000000
 11
16.424292
 21
6.040004
 31
0.000000
  6
CONTINUOUS
  0
LINE
  8
WHITE
 10
16.424292
 20
6.040004
 30
0.000000
 11
16.442369
 21
6.048037
 31
0.000000
  6
CONTINUOUS
  0
LINE
  8
WHITE
 10
16.442369
 20
6.048037
 30
0.000000
 11
16.466068
 21
6.042771
 31
0.000000
  6
CONTINUOUS
  0
LINE
  8
WHITE
 10
16.466068
 20
6.042771
 30
0.000000
 11
16.621785
 21
5.904356
 31
0.000000
  6
CONTINUOUS
  0
LINE
  8
WHITE
 10
16.621785
 20
5.904356
 30
0.000000
 11
16.645754
 21
5.902644
 31
0.000000
  6
CONTINUOUS
  0
LINE
  8
WHITE
 10
16.645754
 20
5.902644
 30
0.000000
 11
16.656871
 21
5.955996
 31
0.000000
  6
CONTINUOUS
  0
LINE
  8
WHITE
 10
16.656871
 20
5.955996
 30
0.000000
 11
16.696381
 21
5.975751
 31
0.000000
  6
CONTINUOUS
  0
ARC
  8
WHITE
 10
16.963395
 20
6.038050
 30
0.000000
 40
0.274185
 50
-166.866917
 51
-97.395151
  6
CONTINUOUS
  0
ARC
  8
WHITE
 10
16.895997
 20
5.729439
 30
0.000000
 40
0.048767
 50
-48.029591
 51
48.823674
  6
CONTINUOUS
  0
ARC
  8
WHITE
 10
16.961444
 20
6.155022
 30
0.000000
 40
0.463006
 50
-111.432681
 51
-94.066621
  6
CONTINUOUS
  0
ARC
  8
WHITE
 10
16.374063
 20
8.099324
 30
0.000000
 40
0.167553
 50
13.785029
 51
41.319003
  6
CONTINUOUS
  0
ARC
  8
WHITE
 10
15.442007
 20
6.823647
 30
0.000000
 40
1.743841
 50
52.652557
 51
55.066046
  6
CONTINUOUS
  0
LINE
  8
WHITE
 10
16.440586
 20
8.253270
 30
0.000000
 11
16.420044
 21
8.382220
 31
0.000000
  6
CONTINUOUS
  0
LINE
  8
WHITE
 10
16.420044
 20
8.382220
 30
0.000000
 11
16.367518
 21
8.437248
 31
0.000000
  6
CONTINUOUS
  0
ARC
  8
WHITE
 10
16.384119
 20
8.453095
 30
0.000000
 40
0.022950
 50
173.488290
 51
223.668847
  6
CONTINUOUS
  0
LINE
  8
WHITE
 10
16.361317
 20
8.455698
 30
0.000000
 11
16.375552
 21
8.580410
 31
0.000000
  6
CONTINUOUS
  0
ARC
  8
WHITE
 10
16.398834
 20
8.577484
 30
0.000000
 40
0.023465
 50
56.772300
 51
172.836823
  6
CONTINUOUS
  0
LINE
  8
WHITE
 10
16.411692
 20
8.597112
 30
0.000000
 11
16.429429
 21
8.539959
 31
0.000000
  6
CONTINUOUS
  0
ARC
  8
WHITE
 10
16.305104
 20
8.420245
 30
0.000000
 40
0.172592
 50
-16.297940
 51
43.917552
  6
CONTINUOUS
  0
LINE
  8
WHITE
 10
16.470760
 20
8.371810
 30
0.000000
 11
16.534201
 21
8.299309
 31
0.000000
  6
CONTINUOUS
  0
ARC
  8
WHITE
 10
16.508000
 20
8.197402
 30
0.000000
 40
0.105221
 50
-13.893021
 51
75.581156
  6
CONTINUOUS
  0
ARC
  8
WHITE
 10
16.772586
 20
8.249188
 30
0.000000
 40
0.179790
 50
-154.623920
 51
-106.574420
  6
CONTINUOUS
  0
ARC
  8
WHITE
 10
16.681108
 20
8.061737
 30
0.000000
 40
0.042944
 50
-85.653022
 51
20.629484
  6
CONTINUOUS
  0
LINE
  8
WHITE
 10
16.684363
 20
8.018916
 30
0.000000
 11
16.655942
 21
8.016063
 31
0.000000
  6
CONTINUOUS
  0
LINE
  8
WHITE
 10
16.655942
 20
8.016063
 30
0.000000
 11
16.573116
 21
8.054025
 31
0.000000
  6
CONTINUOUS
  0
LINE
  8
WHITE
 10
16.573116
 20
8.054025
 30
0.000000
 11
16.537331
 21
8.140365
 31
0.000000
  6
CONTINUOUS
  0
LINE
  8
WHITE
 10
16.537331
 20
8.140365
 30
0.000000
 11
16.536790
 21
8.139248
 31
0.000000
  6
CONTINUOUS
  0
ARC
  8
WHITE
 10
18.390779
 20
5.791930
 30
0.000000
 40
0.229518
 50
-165.748671
 51
-105.446862
  6
CONTINUOUS
  0
ARC
  8
WHITE
 10
18.181081
 20
5.740048
 30
0.000000
 40
0.013567
 50
70.090499
 51
199.907850
  6
CONTINUOUS
  0
LINE
  8
WHITE
 10
18.185701
 20
5.752804
 30
0.000000
 11
18.256767
 21
5.724751
 31
0.000000
  6
CONTINUOUS
  0
LINE
  8
WHITE
 10
18.256767
 20
5.724751
 30
0.000000
 11
18.333216
 21
5.721022
 31
0.000000
  6
CONTINUOUS
  0
LINE
  8
WHITE
 10
18.333216
 20
5.721022
 30
0.000000
 11
18.361773
 21
5.668667
 31
0.000000
  6
CONTINUOUS
  0
LINE
  8
WHITE
 10
18.361773
 20
5.668667
 30
0.000000
 11
18.426216
 21
5.620795
 31
0.000000
  6
CONTINUOUS
  0
LINE
  8
WHITE
 10
18.426216
 20
5.620795
 30
0.000000
 11
18.475009
 21
5.625518
 31
0.000000
  6
CONTINUOUS
  0
LINE
  8
WHITE
 10
18.475009
 20
5.625518
 30
0.000000
 11
18.481639
 21
5.656455
 31
0.000000
  6
CONTINUOUS
  0
LINE
  8
WHITE
 10
18.481639
 20
5.656455
 30
0.000000
 11
18.513882
 21
5.665412
 31
0.000000
  6
CONTINUOUS
  0
LINE
  8
WHITE
 10
18.513882
 20
5.665412
 30
0.000000
 11
18.558364
 21
5.608687
 31
0.000000
  6
CONTINUOUS
  0
ARC
  8
WHITE
 10
18.488327
 20
5.555286
 30
0.000000
 40
0.088073
 50
-54.688366
 51
37.324085
  6
CONTINUOUS
  0
LINE
  8
WHITE
 10
18.539235
 20
5.483417
 30
0.000000
 11
18.456394
 21
5.481692
 31
0.000000
  6
CONTINUOUS
  0
LINE
  8
WHITE
 10
18.456394
 20
5.481692
 30
0.000000
 11
18.409828
 21
5.507228
 31
0.000000
  6
CONTINUOUS
  0
LINE
  8
WHITE
 10
18.409828
 20
5.507228
 30
0.000000
 11
18.329648
 21
5.570703
 31
0.000000
  6
CONTINUOUS
  0
LINE
  8
WHITE
 10
8.013914
 20
3.623159
 30
0.000000
 11
8.105798
 21
3.473985
 31
0.000000
  6
CONTINUOUS
  0
LINE
  8
WHITE
 10
8.105798
 20
3.473985
 30
0.000000
 11
8.126519
 21
3.472392
 31
0.000000
  6
CONTINUOUS
  0
ARC
  8
WHITE
 10
8.097820
 20
3.508897
 30
0.000000
 40
0.046435
 50
-51.826765
 51
12.790482
  6
CONTINUOUS
  0
LINE
  8
WHITE
 10
8.143103
 20
3.519177
 30
0.000000
 11
8.143103
 21
3.610352
 31
0.000000
  6
CONTINUOUS
  0
ARC
  8
WHITE
 10
8.013276
 20
3.560746
 30
0.000000
 40
0.138981
 50
20.911511
 51
49.046335
  6
CONTINUOUS
  0
ARC
  8
WHITE
 10
8.160447
 20
3.725094
 30
0.000000
 40
0.081676
 50
154.986379
 51
226.641055
  6
CONTINUOUS
  0
ARC
  8
WHITE
 10
7.896298
 20
3.824352
 30
0.000000
 40
0.200849
 50
-18.798916
 51
10.515504
  6
CONTINUOUS
  0
LINE
  8
WHITE
 10
8.093773
 20
3.861007
 30
0.000000
 11
8.013510
 21
3.895406
 31
0.000000
  6
CONTINUOUS
  0
LINE
  8
WHITE
 10
8.013510
 20
3.895406
 30
0.000000
 11
7.989450
 21
3.919466
 31
0.000000
  6
CONTINUOUS
  0
LINE
  8
WHITE
 10
7.989450
 20
3.919466
 30
0.000000
 11
7.946832
 21
4.054930
 31
0.000000
  6
CONTINUOUS
  0
LINE
  8
WHITE
 10
7.946832
 20
4.054930
 30
0.000000
 11
7.932695
 21
4.085378
 31
0.000000
  6
CONTINUOUS
  0
ARC
  8
WHITE
 10
7.915599
 20
4.072606
 30
0.000000
 40
0.021340
 50
36.762502
 51
216.780276
  6
CONTINUOUS
  0
LINE
  8
WHITE
 10
7.898506
 20
4.059828
 30
0.000000
 11
7.998576
 21
3.734117
 31
0.000000
  6
CONTINUOUS
  0
LINE
  8
WHITE
 10
7.998576
 20
3.734117
 30
0.000000
 11
8.013914
 21
3.623159
 31
0.000000
  6
CONTINUOUS
  0
ARC
  8
WHITE
 10
17.096963
 20
7.980801
 30
0.000000
 40
0.056319
 50
-169.665990
 51
-115.967654
  6
CONTINUOUS
  0
ARC
  8
WHITE
 10
16.847018
 20
7.843705
 30
0.000000
 40
0.241307
 50
11.233932
 51
20.996475
  6
CONTINUOUS
  0
ARC
  8
WHITE
 10
16.676217
 20
7.996258
 30
0.000000
 40
0.420931
 50
-24.294479
 51
-14.521091
  6
CONTINUOUS
  0
ARC
  8
WHITE
 10
17.138003
 20
7.777186
 30
0.000000
 40
0.090612
 50
149.572587
 51
183.502264
  6
CONTINUOUS
  0
LINE
  8
WHITE
 10
17.047561
 20
7.771651
 30
0.000000
 11
17.061130
 21
7.609807
 31
0.000000
  6
CONTINUOUS
  0
LINE
  8
WHITE
 10
17.061130
 20
7.609807
 30
0.000000
 11
17.039201
 21
7.592751
 31
0.000000
  6
CONTINUOUS
  0
LINE
  8
WHITE
 10
17.039201
 20
7.592751
 30
0.000000
 11
17.005896
 21
7.599412
 31
0.000000
  6
CONTINUOUS
  0
ARC
  8
WHITE
 10
17.543017
 20
7.858025
 30
0.000000
 40
0.596137
 50
178.759990
 51
205.709883
  6
CONTINUOUS
  0
LINE
  8
WHITE
 10
16.947020
 20
7.870926
 30
0.000000
 11
16.981267
 21
7.954100
 31
0.000000
  6
CONTINUOUS
  0
ARC
  8
WHITE
 10
17.369912
 20
7.950641
 30
0.000000
 40
0.388660
 50
142.955653
 51
179.490072
  6
CONTINUOUS
  0
ARC
  8
WHITE
 10
17.078013
 20
8.170958
 30
0.000000
 40
0.022949
 50
66.250396
 51
142.957439
  6
CONTINUOUS
  0
LINE
  8
WHITE
 10
17.087256
 20
8.191964
 30
0.000000
 11
17.100689
 21
8.186054
 31
0.000000
  6
CONTINUOUS
  0
ARC
  8
WHITE
 10
17.091446
 20
8.165047
 30
0.000000
 40
0.022951
 50
0.000000
 51
66.250688
  6
CONTINUOUS
  0
LINE
  8
WHITE
 10
17.114396
 20
8.165047
 30
0.000000
 11
17.114396
 21
8.145005
 31
0.000000
  6
CONTINUOUS
  0
LINE
  8
WHITE
 10
17.114396
 20
8.145005
 30
0.000000
 11
17.083610
 21
8.083432
 31
0.000000
  6
CONTINUOUS
  0
ARC
  8
WHITE
 10
17.151042
 20
7.994046
 30
0.000000
 40
0.111968
 50
127.030576
 51
192.043352
  6
CONTINUOUS
  0
LINE
  8
WHITE
 10
17.041538
 20
7.970684
 30
0.000000
 11
17.041558
 21
7.970698
 31
0.000000
  6
CONTINUOUS
  0
LINE
  8
WHITE
 10
4.981029
 20
4.231092
 30
0.000000
 11
4.990537
 21
4.188123
 31
0.000000
  6
CONTINUOUS
  0
ARC
  8
WHITE
 10
5.022034
 20
4.198892
 30
0.000000
 40
0.033287
 50
-161.124156
 51
1.450802
  6
CONTINUOUS
  0
LINE
  8
WHITE
 10
5.055310
 20
4.199735
 30
0.000000
 11
5.038885
 21
4.374693
 31
0.000000
  6
CONTINUOUS
  0
LINE
  8
WHITE
 10
5.038885
 20
4.374693
 30
0.000000
 11
5.047196
 21
4.445665
 31
0.000000
  6
CONTINUOUS
  0
LINE
  8
WHITE
 10
5.047196
 20
4.445665
 30
0.000000
 11
5.032778
 21
4.499733
 31
0.000000
  6
CONTINUOUS
  0
LINE
  8
WHITE
 10
5.032778
 20
4.499733
 30
0.000000
 11
4.955132
 21
4.571249
 31
0.000000
  6
CONTINUOUS
  0
LINE
  8
WHITE
 10
4.955132
 20
4.571249
 30
0.000000
 11
4.963372
 21
4.769436
 31
0.000000
  6
CONTINUOUS
  0
ARC
  8
WHITE
 10
4.948926
 20
4.770037
 30
0.000000
 40
0.014458
 50
-2.382315
 51
68.962742
  6
CONTINUOUS
  0
LINE
  8
WHITE
 10
4.954116
 20
4.783531
 30
0.000000
 11
4.940273
 21
4.788856
 31
0.000000
  6
CONTINUOUS
  0
ARC
  8
WHITE
 10
4.935082
 20
4.775361
 30
0.000000
 40
0.014459
 50
68.960213
 51
179.415088
  6
CONTINUOUS
  0
LINE
  8
WHITE
 10
4.920625
 20
4.775509
 30
0.000000
 11
4.917780
 21
4.496795
 31
0.000000
  6
CONTINUOUS
  0
ARC
  8
WHITE
 10
5.053858
 20
4.441236
 30
0.000000
 40
0.146983
 50
157.790401
 51
231.420741
  6
CONTINUOUS
  0
ARC
  8
WHITE
 10
5.543257
 20
4.391728
 30
0.000000
 40
0.584726
 50
-173.578565
 51
-164.054690
  6
CONTINUOUS
  0
ARC
  8
WHITE
 10
12.765767
 20
9.280613
 30
0.000000
 40
0.026717
 50
-139.690890
 51
0.000000
  6
CONTINUOUS
  0
ARC
  8
WHITE
 10
12.641235
 20
9.266252
 30
0.000000
 40
0.151929
 50
5.423939
 51
31.469612
  6
CONTINUOUS
  0
ARC
  8
WHITE
 10
11.662754
 20
8.738240
 30
0.000000
 40
1.263587
 50
28.726997
 51
53.209747
  6
CONTINUOUS
  0
ARC
  8
WHITE
 10
12.396178
 20
9.736170
 30
0.000000
 40
0.027198
 50
30.962172
 51
208.747216
  6
CONTINUOUS
  0
LINE
  8
WHITE
 10
12.372333
 20
9.723090
 30
0.000000
 11
12.388781
 21
9.691840
 31
0.000000
  6
CONTINUOUS
  0
LINE
  8
WHITE
 10
12.388781
 20
9.691840
 30
0.000000
 11
12.417724
 21
9.668410
 31
0.000000
  6
CONTINUOUS
  0
LINE
  8
WHITE
 10
12.417724
 20
9.668410
 30
0.000000
 11
12.554027
 21
9.513406
 31
0.000000
  6
CONTINUOUS
  0
LINE
  8
WHITE
 10
12.554027
 20
9.513406
 30
0.000000
 11
12.745394
 21
9.263329
 31
0.000000
  6
CONTINUOUS
  0
ARC
  8
WHITE
 10
12.610753
 20
6.008875
 30
0.000000
 40
0.833917
 50
-10.576575
 51
15.145173
  6
CONTINUOUS
  0
LINE
  8
WHITE
 10
13.430502
 20
5.855810
 30
0.000000
 11
13.396194
 21
5.825791
 31
0.000000
  6
CONTINUOUS
  0
LINE
  8
WHITE
 10
13.396194
 20
5.825791
 30
0.000000
 11
13.361493
 21
5.830417
 31
0.000000
  6
CONTINUOUS
  0
LINE
  8
WHITE
 10
13.361493
 20
5.830417
 30
0.000000
 11
13.361492
 21
5.972926
 31
0.000000
  6
CONTINUOUS
  0
ARC
  8
WHITE
 10
12.047966
 20
5.973047
 30
0.000000
 40
1.313526
 50
-0.005274
 51
4.262052
  6
CONTINUOUS
  0
LINE
  8
WHITE
 10
13.357860
 20
6.070666
 30
0.000000
 11
13.333329
 21
6.453750
 31
0.000000
  6
CONTINUOUS
  0
ARC
  8
WHITE
 10
13.356944
 20
6.450020
 30
0.000000
 40
0.023908
 50
27.137379
 51
171.024688
  6
CONTINUOUS
  0
LINE
  8
WHITE
 10
13.378220
 20
6.460925
 30
0.000000
 11
13.415705
 21
6.282886
 31
0.000000
  6
CONTINUOUS
  0
LINE
  8
WHITE
 10
13.415705
 20
6.282886
 30
0.000000
 11
13.415706
 21
6.226749
 31
0.000000
  6
CONTINUOUS
  0
ARC
  8
WHITE
 10
19.023441
 20
5.253170
 30
0.000000
 40
0.464207
 50
108.913715
 51
165.406905
  6
CONTINUOUS
  0
ARC
  8
WHITE
 10
18.820269
 20
5.604804
 30
0.000000
 40
0.102153
 50
-29.013691
 51
58.941152
  6
CONTINUOUS
  0
LINE
  8
WHITE
 10
18.909602
 20
5.555258
 30
0.000000
 11
18.891399
 21
5.539482
 31
0.000000
  6
CONTINUOUS
  0
LINE
  8
WHITE
 10
18.891399
 20
5.539482
 30
0.000000
 11
18.757010
 21
5.503052
 31
0.000000
  6
CONTINUOUS
  0
LINE
  8
WHITE
 10
18.757010
 20
5.503052
 30
0.000000
 11
18.730623
 21
5.485900
 31
0.000000
  6
CONTINUOUS
  0
LINE
  8
WHITE
 10
18.730623
 20
5.485900
 30
0.000000
 11
18.631063
 21
5.359162
 31
0.000000
  6
CONTINUOUS
  0
LINE
  8
WHITE
 10
18.631063
 20
5.359162
 30
0.000000
 11
18.608276
 21
5.354097
 31
0.000000
  6
CONTINUOUS
  0
LINE
  8
WHITE
 10
18.608276
 20
5.354097
 30
0.000000
 11
18.574210
 21
5.370128
 31
0.000000
  6
CONTINUOUS
  0
ARC
  8
WHITE
 10
16.912233
 20
7.750396
 30
0.000000
 40
1.643822
 50
154.714636
 51
171.251417
  6
CONTINUOUS
  0
ARC
  8
WHITE
 10
15.437715
 20
8.449514
 30
0.000000
 40
0.012188
 50
15.429123
 51
165.737746
  6
CONTINUOUS
  0
LINE
  8
WHITE
 10
15.449463
 20
8.452756
 30
0.000000
 11
15.469896
 21
8.347686
 31
0.000000
  6
CONTINUOUS
  0
LINE
  8
WHITE
 10
15.469896
 20
8.347686
 30
0.000000
 11
15.536987
 21
8.329050
 31
0.000000
  6
CONTINUOUS
  0
LINE
  8
WHITE
 10
15.536987
 20
8.329050
 30
0.000000
 11
15.536987
 21
8.298393
 31
0.000000
  6
CONTINUOUS
  0
LINE
  8
WHITE
 10
15.536987
 20
8.298393
 30
0.000000
 11
15.462126
 21
8.252644
 31
0.000000
  6
CONTINUOUS
  0
LINE
  8
WHITE
 10
15.462126
 20
8.252644
 30
0.000000
 11
15.430173
 21
8.218234
 31
0.000000
  6
CONTINUOUS
  0
LINE
  8
WHITE
 10
15.430173
 20
8.218234
 30
0.000000
 11
15.411104
 21
8.159288
 31
0.000000
  6
CONTINUOUS
  0
LINE
  8
WHITE
 10
15.411104
 20
8.159288
 30
0.000000
 11
15.376654
 21
8.124839
 31
0.000000
  6
CONTINUOUS
  0
LINE
  8
WHITE
 10
15.376654
 20
8.124839
 30
0.000000
 11
15.354275
 21
8.011245
 31
0.000000
  6
CONTINUOUS
  0
ARC
  8
WHITE
 10
15.318151
 20
8.022814
 30
0.000000
 40
0.037931
 50
-143.814702
 51
-17.758080
  6
CONTINUOUS
  0
LINE
  8
WHITE
 10
7.799502
 20
4.533731
 30
0.000000
 11
7.776256
 21
4.629845
 31
0.000000
  6
CONTINUOUS
  0
LINE
  8
WHITE
 10
7.776256
 20
4.629845
 30
0.000000
 11
7.724884
 21
4.660669
 31
0.000000
  6
CONTINUOUS
  0
LINE
  8
WHITE
 10
7.724884
 20
4.660669
 30
0.000000
 11
7.654490
 21
4.642503
 31
0.000000
  6
CONTINUOUS
  0
LINE
  8
WHITE
 10
7.654490
 20
4.642503
 30
0.000000
 11
7.651258
 21
4.597255
 31
0.000000
  6
CONTINUOUS
  0
ARC
  8
WHITE
 10
7.961439
 20
4.812281
 30
0.000000
 40
0.377423
 50
-145.269236
 51
-125.107278
  6
CONTINUOUS
  0
ARC
  8
WHITE
 10
7.986489
 20
4.491159
 30
0.000000
 40
0.242425
 50
177.077266
 51
188.670838
  6
CONTINUOUS
  0
ARC
  8
WHITE
 10
7.390538
 20
4.279196
 30
0.000000
 40
0.397137
 50
4.845831
 51
26.212406
  6
CONTINUOUS
  0
LINE
  8
WHITE
 10
7.786255
 20
4.312744
 30
0.000000
 11
7.816641
 21
4.299451
 31
0.000000
  6
CONTINUOUS
  0
LINE
  8
WHITE
 10
7.816641
 20
4.299451
 30
0.000000
 11
7.855014
 21
4.259333
 31
0.000000
  6
CONTINUOUS
  0
ARC
  8
WHITE
 10
7.876546
 20
4.272755
 30
0.000000
 40
0.025373
 50
-148.062596
 51
-0.858956
  6
CONTINUOUS
  0
LINE
  8
WHITE
 10
7.901916
 20
4.272375
 30
0.000000
 11
7.900758
 21
4.378478
 31
0.000000
  6
CONTINUOUS
  0
LINE
  8
WHITE
 10
7.900758
 20
4.378478
 30
0.000000
 11
7.819873
 21
4.449498
 31
0.000000
  6
CONTINUOUS
  0
LINE
  8
WHITE
 10
7.819873
 20
4.449498
 30
0.000000
 11
7.799502
 21
4.533731
 31
0.000000
  6
CONTINUOUS
  0
ARC
  8
WHITE
 10
15.741485
 20
7.477549
 30
0.000000
 40
0.481664
 50
158.522272
 51
206.259375
  6
CONTINUOUS
  0
LINE
  8
WHITE
 10
15.309529
 20
7.264444
 30
0.000000
 11
15.301724
 21
7.215670
 31
0.000000
  6
CONTINUOUS
  0
LINE
  8
WHITE
 10
15.301724
 20
7.215670
 30
0.000000
 11
15.268229
 21
7.219392
 31
0.000000
  6
CONTINUOUS
  0
LINE
  8
WHITE
 10
15.268229
 20
7.219392
 30
0.000000
 11
15.230920
 21
7.277788
 31
0.000000
  6
CONTINUOUS
  0
LINE
  8
WHITE
 10
15.230920
 20
7.277788
 30
0.000000
 11
15.193430
 21
7.446899
 31
0.000000
  6
CONTINUOUS
  0
LINE
  8
WHITE
 10
15.193430
 20
7.446899
 30
0.000000
 11
15.202962
 21
7.477399
 31
0.000000
  6
CONTINUOUS
  0
ARC
  8
WHITE
 10
15.734416
 20
7.479061
 30
0.000000
 40
0.531457
 50
137.490756
 51
180.179172
  6
CONTINUOUS
  0
ARC
  8
WHITE
 10
15.344475
 20
7.804099
 30
0.000000
 40
0.034121
 50
-57.159554
 51
93.077203
  6
CONTINUOUS
  0
ARC
  8
WHITE
 10
15.741485
 20
7.477549
 30
0.000000
 40
0.481665
 50
141.797441
 51
157.839374
  6
CONTINUOUS
  0
LINE
  8
WHITE
 10
15.295401
 20
7.659235
 30
0.000000
 11
15.293268
 21
7.653905
 31
0.000000
  6
CONTINUOUS
  0
ARC
  8
WHITE
 10
16.438936
 20
6.385761
 30
0.000000
 40
0.140463
 50
35.345589
 51
90.947452
  6
CONTINUOUS
  0
LINE
  8
WHITE
 10
16.436613
 20
6.526205
 30
0.000000
 11
16.427624
 21
6.493246
 31
0.000000
  6
CONTINUOUS
  0
ARC
  8
WHITE
 10
16.279340
 20
6.264810
 30
0.000000
 40
0.272344
 50
12.986497
 51
57.011305
  6
CONTINUOUS
  0
ARC
  8
WHITE
 10
16.446171
 20
6.306977
 30
0.000000
 40
0.100370
 50
-23.191394
 51
10.932149
  6
CONTINUOUS
  0
ARC
  8
WHITE
 10
16.670504
 20
6.267451
 30
0.000000
 40
0.132073
 50
-179.999960
 51
-132.622496
  6
CONTINUOUS
  0
ARC
  8
WHITE
 10
16.610180
 20
6.223056
 30
0.000000
 40
0.060284
 50
-118.875611
 51
2.103147
  6
CONTINUOUS
  0
LINE
  8
WHITE
 10
16.670423
 20
6.225268
 30
0.000000
 11
16.665461
 21
6.309623
 31
0.000000
  6
CONTINUOUS
  0
LINE
  8
WHITE
 10
16.665461
 20
6.309623
 30
0.000000
 11
16.617499
 21
6.347593
 31
0.000000
  6
CONTINUOUS
  0
LINE
  8
WHITE
 10
16.617499
 20
6.347593
 30
0.000000
 11
16.553509
 21
6.467020
 31
0.000000
  6
CONTINUOUS
  0
LINE
  8
WHITE
 10
17.642060
 20
8.707583
 30
0.000000
 11
17.675848
 21
8.692638
 31
0.000000
  6
CONTINUOUS
  0
LINE
  8
WHITE
 10
17.675848
 20
8.692638
 30
0.000000
 11
17.704791
 21
8.648371
 31
0.000000
  6
CONTINUOUS
  0
ARC
  8
WHITE
 10
17.742750
 20
8.696242
 30
0.000000
 40
0.061094
 50
-128.412325
 51
-75.281994
  6
CONTINUOUS
  0
ARC
  8
WHITE
 10
17.642696
 20
8.694107
 30
0.000000
 40
0.128847
 50
-26.233588
 51
86.279841
  6
CONTINUOUS
  0
LINE
  8
WHITE
 10
17.651056
 20
8.822682
 30
0.000000
 11
17.622008
 21
8.845615
 31
0.000000
  6
CONTINUOUS
  0
LINE
  8
WHITE
 10
17.622008
 20
8.845615
 30
0.000000
 11
17.572910
 21
8.950178
 31
0.000000
  6
CONTINUOUS
  0
ARC
  8
WHITE
 10
17.547438
 20
8.916998
 30
0.000000
 40
0.041830
 50
52.487141
 51
123.884073
  6
CONTINUOUS
  0
ARC
  8
WHITE
 10
17.734407
 20
8.924474
 30
0.000000
 40
0.212048
 50
172.616618
 51
220.505048
  6
CONTINUOUS
  0
LINE
  8
WHITE
 10
17.573177
 20
8.786746
 30
0.000000
 11
17.583413
 21
8.733523
 31
0.000000
  6
CONTINUOUS
  0
LINE
  8
WHITE
 10
17.583413
 20
8.733523
 30
0.000000
 11
17.636805
 21
8.709907
 31
0.000000
  6
CONTINUOUS
  0
LINE
  8
WHITE
 10
17.636805
 20
8.709907
 30
0.000000
 11
17.642060
 21
8.707583
 31
0.000000
  6
CONTINUOUS
  0
ARC
  8
WHITE
 10
16.654635
 20
8.876018
 30
0.000000
 40
0.247059
 50
130.281594
 51
176.658815
  6
CONTINUOUS
  0
LINE
  8
WHITE
 10
16.407996
 20
8.890417
 30
0.000000
 11
16.327593
 21
8.754431
 31
0.000000
  6
CONTINUOUS
  0
LINE
  8
WHITE
 10
16.327593
 20
8.754431
 30
0.000000
 11
16.284636
 21
8.754431
 31
0.000000
  6
CONTINUOUS
  0
LINE
  8
WHITE
 10
16.284636
 20
8.754431
 30
0.000000
 11
16.279863
 21
8.821263
 31
0.000000
  6
CONTINUOUS
  0
LINE
  8
WHITE
 10
16.279863
 20
8.821263
 30
0.000000
 11
16.311050
 21
8.860958
 31
0.000000
  6
CONTINUOUS
  0
ARC
  8
WHITE
 10
16.680578
 20
8.824848
 30
0.000000
 40
0.371288
 50
124.174566
 51
174.418846
  6
CONTINUOUS
  0
LINE
  8
WHITE
 10
16.472020
 20
9.132025
 30
0.000000
 11
16.498692
 21
9.121357
 31
0.000000
  6
CONTINUOUS
  0
LINE
  8
WHITE
 10
16.498692
 20
9.121357
 30
0.000000
 11
16.494900
 21
9.064493
 31
0.000000
  6
CONTINUOUS
  0
ARC
  8
WHITE
 10
16.723512
 20
8.918920
 30
0.000000
 40
0.469116
 50
119.350129
 51
150.833564
  6
CONTINUOUS
  0
ARC
  8
WHITE
 10
16.336963
 20
9.141958
 30
0.000000
 40
0.023753
 50
166.400978
 51
320.729454
  6
CONTINUOUS
  0
LINE
  8
WHITE
 10
16.355351
 20
9.126923
 30
0.000000
 11
16.391538
 21
9.148032
 31
0.000000
  6
CONTINUOUS
  0
LINE
  8
WHITE
 10
16.391538
 20
9.148032
 30
0.000000
 11
16.451605
 21
9.212617
 31
0.000000
  6
CONTINUOUS
  0
LINE
  8
WHITE
 10
16.451605
 20
9.212617
 30
0.000000
 11
16.505257
 21
9.249756
 31
0.000000
  6
CONTINUOUS
  0
LINE
  8
WHITE
 10
16.505257
 20
9.249756
 30
0.000000
 11
16.609945
 21
9.348772
 31
0.000000
  6
CONTINUOUS
  0
LINE
  8
WHITE
 10
16.609945
 20
9.348772
 30
0.000000
 11
16.611674
 21
9.385088
 31
0.000000
  6
CONTINUOUS
  0
LINE
  8
WHITE
 10
16.611674
 20
9.385088
 30
0.000000
 11
16.572642
 21
9.396472
 31
0.000000
  6
CONTINUOUS
  0
LINE
  8
WHITE
 10
16.572642
 20
9.396472
 30
0.000000
 11
16.541420
 21
9.383984
 31
0.000000
  6
CONTINUOUS
  0
LINE
  8
WHITE
 10
16.541420
 20
9.383984
 30
0.000000
 11
16.493577
 21
9.327821
 31
0.000000
  6
CONTINUOUS
  0
ARC
  8
WHITE
 10
16.721828
 20
8.739938
 30
0.000000
 40
0.159639
 50
91.600107
 51
125.335576
  6
CONTINUOUS
  0
ARC
  8
WHITE
 10
16.612495
 20
8.893709
 30
0.000000
 40
0.029040
 50
154.777492
 51
305.840428
  6
CONTINUOUS
  0
ARC
  8
WHITE
 10
16.645340
 20
8.887891
 30
0.000000
 40
0.061852
 50
100.507262
 51
162.894335
  6
CONTINUOUS
  0
ARC
  8
WHITE
 10
16.861506
 20
8.447066
 30
0.000000
 40
0.550795
 50
93.046678
 51
114.389688
  6
CONTINUOUS
  0
ARC
  8
WHITE
 10
16.839945
 20
8.970533
 30
0.000000
 40
0.027647
 50
37.729021
 51
106.200286
  6
CONTINUOUS
  0
ARC
  8
WHITE
 10
16.820133
 20
8.944799
 30
0.000000
 40
0.059635
 50
-9.511759
 51
45.661437
  6
CONTINUOUS
  0
ARC
  8
WHITE
 10
16.846005
 20
8.946733
 30
0.000000
 40
0.034989
 50
-90.574156
 51
-19.689732
  6
CONTINUOUS
  0
ARC
  8
WHITE
 10
16.838567
 20
8.253564
 30
0.000000
 40
0.658220
 50
89.383056
 51
100.670431
  6
CONTINUOUS
  0
LINE
  8
WHITE
 10
16.716691
 20
8.900402
 30
0.000000
 11
16.717370
 21
8.899515
 31
0.000000
  6
CONTINUOUS
  0
LINE
  8
WHITE
 10
5.159758
 20
3.008279
 30
0.000000
 11
5.160021
 21
3.145744
 31
0.000000
  6
CONTINUOUS
  0
ARC
  8
WHITE
 10
5.182836
 20
3.142564
 30
0.000000
 40
0.023036
 50
14.507206
 51
172.065121
  6
CONTINUOUS
  0
LINE
  8
WHITE
 10
5.205137
 20
3.148334
 30
0.000000
 11
5.205136
 21
3.006158
 31
0.000000
  6
CONTINUOUS
  0
ARC
  8
WHITE
 10
4.686529
 20
2.969777
 30
0.000000
 40
0.519882
 50
-12.235405
 51
4.012804
  6
CONTINUOUS
  0
LINE
  8
WHITE
 10
5.194601
 20
2.859599
 30
0.000000
 11
5.183012
 21
2.829798
 31
0.000000
  6
CONTINUOUS
  0
LINE
  8
WHITE
 10
5.183012
 20
2.829798
 30
0.000000
 11
5.146100
 21
2.777067
 31
0.000000
  6
CONTINUOUS
  0
ARC
  8
WHITE
 10
5.123816
 20
2.784106
 30
0.000000
 40
0.023369
 50
158.133089
 51
342.469879
  6
CONTINUOUS
  0
ARC
  8
WHITE
 10
4.690627
 20
3.018312
 30
0.000000
 40
0.469238
 50
-28.722680
 51
-1.225161
  6
CONTINUOUS
  0
ARC
  8
WHITE
 10
16.060307
 20
11.300469
 30
0.000000
 40
0.240460
 50
-77.339097
 51
-48.587391
  6
CONTINUOUS
  0
LINE
  8
WHITE
 10
16.219366
 20
11.120132
 30
0.000000
 11
16.219366
 21
11.150932
 31
0.000000
  6
CONTINUOUS
  0
LINE
  8
WHITE
 10
16.219366
 20
11.150932
 30
0.000000
 11
16.175475
 21
11.166607
 31
0.000000
  6
CONTINUOUS
  0
ARC
  8
WHITE
 10
16.122857
 20
10.921478
 30
0.000000
 40
0.250713
 50
77.885164
 51
121.540501
  6
CONTINUOUS
  0
ARC
  8
WHITE
 10
16.028215
 20
11.113467
 30
0.000000
 40
0.042461
 50
149.288388
 51
252.884632
  6
CONTINUOUS
  0
ARC
  8
WHITE
 10
16.077601
 20
11.252526
 30
0.000000
 40
0.190000
 50
-109.007768
 51
-81.015272
  6
CONTINUOUS
  0
LINE
  8
WHITE
 10
16.107274
 20
11.064857
 30
0.000000
 11
16.113011
 21
11.065856
 31
0.000000
  6
CONTINUOUS
  0
LINE
  8
WHITE
 10
16.758451
 20
8.293521
 30
0.000000
 11
16.705463
 21
8.308576
 31
0.000000
  6
CONTINUOUS
  0
LINE
  8
WHITE
 10
16.705463
 20
8.308576
 30
0.000000
 11
16.670854
 21
8.331649
 31
0.000000
  6
CONTINUOUS
  0
ARC
  8
WHITE
 10
16.676207
 20
8.351416
 30
0.000000
 40
0.020479
 50
112.441011
 51
254.846385
  6
CONTINUOUS
  0
LINE
  8
WHITE
 10
16.668390
 20
8.370343
 30
0.000000
 11
16.711404
 21
8.378947
 31
0.000000
  6
CONTINUOUS
  0
ARC
  8
WHITE
 10
16.746392
 20
8.468320
 30
0.000000
 40
0.095978
 50
-111.379396
 51
-60.648002
  6
CONTINUOUS
  0
LINE
  8
WHITE
 10
16.793438
 20
8.384663
 30
0.000000
 11
16.849685
 21
8.381254
 31
0.000000
  6
CONTINUOUS
  0
ARC
  8
WHITE
 10
16.834606
 20
8.340297
 30
0.000000
 40
0.043645
 50
-29.738694
 51
69.788357
  6
CONTINUOUS
  0
LINE
  8
WHITE
 10
16.872503
 20
8.318647
 30
0.000000
 11
16.853681
 21
8.293552
 31
0.000000
  6
CONTINUOUS
  0
ARC
  8
WHITE
 10
16.814106
 20
8.342509
 30
0.000000
 40
0.062952
 50
-97.822348
 51
-51.048721
  6
CONTINUOUS
  0
LINE
  8
WHITE
 10
16.805538
 20
8.280142
 30
0.000000
 11
16.758451
 21
8.293521
 31
0.000000
  6
CONTINUOUS
  0
LINE
  8
WHITE
 10
16.830848
 20
8.651252
 30
0.000000
 11
16.741703
 21
8.651252
 31
0.000000
  6
CONTINUOUS
  0
ARC
  8
WHITE
 10
16.747328
 20
8.679551
 30
0.000000
 40
0.028853
 50
149.709543
 51
258.757078
  6
CONTINUOUS
  0
LINE
  8
WHITE
 10
16.722414
 20
8.694104
 30
0.000000
 11
16.770393
 21
8.719807
 31
0.000000
  6
CONTINUOUS
  0
LINE
  8
WHITE
 10
16.770393
 20
8.719807
 30
0.000000
 11
16.862753
 21
8.714479
 31
0.000000
  6
CONTINUOUS
  0
ARC
  8
WHITE
 10
16.836412
 20
8.690871
 30
0.000000
 40
0.035372
 50
-23.948345
 51
41.867681
  6
CONTINUOUS
  0
LINE
  8
WHITE
 10
16.868739
 20
8.676513
 30
0.000000
 11
16.830848
 21
8.651252
 31
0.000000
  6
CONTINUOUS
  0
ENDSEC
  0
EOF
