  0
SECTION
  2
HEADER
  9
$ACADVER
  1
AC1009
  9
$LIMMIN
 10
-0.000000
 20
0.000000
  9
$LIMMAX
 10
13.346488
 20
13.282179
  0
ENDSEC
  0
SECTION
  2
TABLES
  0
TABLE
  2
LTYPE
 70
     4
  0
LTYPE
  2
CONTINUOUS
 70
     0
  3
Solid line
 72
     65
 73
     0
 40
0.000000
  0
LTYPE
  2
HIDDEN
 70
     0
  3
 _ _ _ _ _ _ _ _ _ _ _
 72
     65
 73
     2
 40
0.375000
 49
0.250000
 49
-0.125000
  0
LTYPE
  2
DASHED
 70
     0
  3
 ___ ___ ___ ___ ___ ___ ___ 
 72
     65
 73
     2
 40
0.750000
 49
0.500000
 49
-0.250000
  0
LTYPE
  2
CENTER
 70
     0
  3
___ _ ___ _ ___ _ ___
 72
     65
 73
     4
 40
2.000000
 49
1.250000
 49
-0.250000
 49
0.250000
 49
-0.250000
  0
LTYPE
  2
BORDER
 70
     0
  3
___ ___ . ___ ___ . ___ ___
 72
     65
 73
     6
 40
1.750000
 49
0.500000
 49
-0.250000
 49
0.500000
 49
-0.250000
 49
0.000000
 49
-0.250000
  0
LTYPE
  2
DOT
 70
     0
  3
.................
 72
     65
 73
     2
 40
0.250000
 49
0.000000
 49
-0.250000
  0
LTYPE
  2
DASHDOT
 70
     0
  3
__ . __ . __ . __
 72
     65
 73
     4
 40
1.000000
 49
0.500000
 49
-0.250000
 49
0.000000
 49
-0.250000
  0
LTYPE
  2
DIVIDE
 70
     0
  3
___ .. ___ .. ___ .. ___
 72
     65
 73
     6
 40
1.250000
 49
0.500000
 49
-0.250000
 49
0.000000
 49
-0.250000
 49
0.000000
 49
-0.250000
  0
ENDTAB
  0
TABLE
  2
LAYER
 70
     8
  0
LAYER
  2
BLACK
 70
     0
 62
     1
  6
CONTINUOUS
  0
LAYER
  2
WHITE
 70
     0
 62
     7
  6
CONTINUOUS
  0
LAYER
  2
RED
 70
     0
 62
     1
  6
CONTINUOUS
  0
LAYER
  2
YELLOW
 70
     0
 62
     2
  6
CONTINUOUS
  0
LAYER
  2
GREEN
 70
     0
 62
     3
  6
CONTINUOUS
  0
LAYER
  2
CYAN
 70
     0
 62
     4
  6
CONTINUOUS
  0
LAYER
  2
BLUE
 70
     0
 62
     5
  6
CONTINUOUS
  0
LAYER
  2
MAGENTA
 70
     0
 62
     6
  6
CONTINUOUS
  0
ENDTAB
  0
TABLE
  2
APPID
 70
     1
  0
APPID
  2
TC_BEND_DATA
 70
     0
  0
ENDTAB
  0
ENDSEC
  0
SECTION
  2
BLOCKS
  0
ENDSEC
  0
SECTION
  2
ENTITIES
  0
ARC
  8
WHITE
 10
4.922471
 20
5.161447
 30
0.000000
 40
5.204606
 50
-126.651878
 51
-115.815349
  6
CONTINUOUS
  0
ARC
  8
WHITE
 10
4.200170
 20
3.668316
 30
0.000000
 40
3.545943
 50
-115.815349
 51
-97.561929
  6
CONTINUOUS
  0
ARC
  8
WHITE
 10
3.912609
 20
1.502169
 30
0.000000
 40
1.360793
 50
-97.561929
 51
-62.422112
  6
CONTINUOUS
  0
ARC
  8
WHITE
 10
5.176070
 20
-0.916882
 30
0.000000
 40
1.368335
 50
67.096724
 51
117.577888
  6
CONTINUOUS
  0
ARC
  8
WHITE
 10
7.404661
 20
4.358090
 30
0.000000
 40
4.358090
 50
-112.903276
 51
-62.963927
  6
CONTINUOUS
  0
ARC
  8
WHITE
 10
10.261707
 20
-0.433570
 30
0.000000
 40
1.263040
 50
103.475243
 51
133.917363
  6
CONTINUOUS
  0
ARC
  8
WHITE
 10
9.830950
 20
1.172596
 30
0.000000
 40
0.401772
 50
-70.148228
 51
-7.620765
  6
CONTINUOUS
  0
ARC
  8
WHITE
 10
10.651648
 20
0.820771
 30
0.000000
 40
0.517314
 50
70.298321
 51
144.752816
  6
CONTINUOUS
  0
ARC
  8
WHITE
 10
10.979046
 20
1.541082
 30
0.000000
 40
0.278978
 50
-123.259280
 51
-46.351862
  6
CONTINUOUS
  0
ARC
  8
WHITE
 10
11.515045
 20
0.808211
 30
0.000000
 40
0.632391
 50
81.095782
 51
122.893845
  6
CONTINUOUS
  0
ARC
  8
WHITE
 10
11.620445
 20
2.002038
 30
0.000000
 40
0.569107
 50
-90.756711
 51
-69.918185
  6
CONTINUOUS
  0
ARC
  8
WHITE
 10
11.790619
 20
1.488627
 30
0.000000
 40
0.032893
 50
-39.895554
 51
48.893045
  6
CONTINUOUS
  0
ARC
  8
WHITE
 10
12.056333
 20
1.818098
 30
0.000000
 40
0.390401
 50
-162.207649
 51
-128.698760
  6
CONTINUOUS
  0
ARC
  8
WHITE
 10
11.742579
 20
1.704352
 30
0.000000
 40
0.058239
 50
124.212357
 51
185.466571
  6
CONTINUOUS
  0
ARC
  8
WHITE
 10
11.808088
 20
1.614852
 30
0.000000
 40
0.169129
 50
77.936793
 51
125.516908
  6
CONTINUOUS
  0
ARC
  8
WHITE
 10
11.847894
 20
1.798654
 30
0.000000
 40
0.018941
 50
-103.618454
 51
41.690924
  6
CONTINUOUS
  0
ARC
  8
WHITE
 10
11.978322
 20
2.078827
 30
0.000000
 40
0.291751
 50
-141.148143
 51
-113.488957
  6
CONTINUOUS
  0
ARC
  8
WHITE
 10
11.810913
 20
1.931602
 30
0.000000
 40
0.069692
 50
109.522210
 51
210.902867
  6
CONTINUOUS
  0
ARC
  8
WHITE
 10
11.775221
 20
2.018991
 30
0.000000
 40
0.024998
 50
-60.255117
 51
60.255077
  6
CONTINUOUS
  0
ARC
  8
WHITE
 10
11.936089
 20
2.760889
 30
0.000000
 40
0.735337
 50
-121.363412
 51
-101.648140
  6
CONTINUOUS
  0
ARC
  8
WHITE
 10
11.591439
 20
2.161960
 30
0.000000
 40
0.047833
 50
127.762207
 51
217.265731
  6
CONTINUOUS
  0
ARC
  8
WHITE
 10
11.601944
 20
2.109258
 30
0.000000
 40
0.098879
 50
60.538770
 51
113.733370
  6
CONTINUOUS
  0
ARC
  8
WHITE
 10
11.659210
 20
2.216805
 30
0.000000
 40
0.023127
 50
-111.921166
 51
-6.149697
  6
CONTINUOUS
  0
ARC
  8
WHITE
 10
11.825263
 20
2.211820
 30
0.000000
 40
0.143081
 50
142.123369
 51
178.995803
  6
CONTINUOUS
  0
ARC
  8
WHITE
 10
11.781221
 20
2.211712
 30
0.000000
 40
0.111727
 50
72.523454
 51
128.072717
  6
CONTINUOUS
  0
ARC
  8
WHITE
 10
11.825963
 20
2.352147
 30
0.000000
 40
0.035666
 50
-108.282738
 51
-53.638296
  6
CONTINUOUS
  0
ARC
  8
WHITE
 10
11.831327
 20
2.355410
 30
0.000000
 40
0.035666
 50
-63.737632
 51
72.490393
  6
CONTINUOUS
  0
ARC
  8
WHITE
 10
12.183400
 20
3.091831
 30
0.000000
 40
0.780955
 50
-165.609605
 51
-115.917895
  6
CONTINUOUS
  0
ARC
  8
WHITE
 10
11.543743
 20
2.956073
 30
0.000000
 40
0.130551
 50
123.197943
 51
206.538725
  6
CONTINUOUS
  0
ARC
  8
WHITE
 10
11.989137
 20
2.112440
 30
0.000000
 40
1.084036
 50
108.855512
 51
118.477051
  6
CONTINUOUS
  0
ARC
  8
WHITE
 10
11.631622
 20
3.154911
 30
0.000000
 40
0.018091
 50
-66.639355
 51
62.279463
  6
CONTINUOUS
  0
ARC
  8
WHITE
 10
11.799635
 20
3.506515
 30
0.000000
 40
0.371607
 50
-144.749013
 51
-115.434490
  6
CONTINUOUS
  0
ARC
  8
WHITE
 10
11.507042
 20
3.301987
 30
0.000000
 40
0.014738
 50
137.544304
 51
222.455696
  6
CONTINUOUS
  0
ARC
  8
WHITE
 10
11.541987
 20
3.275419
 30
0.000000
 40
0.058589
 50
102.564595
 51
141.445696
  6
CONTINUOUS
  0
ARC
  8
WHITE
 10
11.525384
 20
3.351998
 30
0.000000
 40
0.019772
 50
-78.752240
 51
44.127785
  6
CONTINUOUS
  0
ARC
  8
WHITE
 10
11.604218
 20
3.771503
 30
0.000000
 40
0.410855
 50
-131.608336
 51
-99.052104
  6
CONTINUOUS
  0
ARC
  8
WHITE
 10
11.597996
 20
3.648461
 30
0.000000
 40
0.324020
 50
169.069738
 51
214.634865
  6
CONTINUOUS
  0
ARC
  8
WHITE
 10
11.329501
 20
3.683687
 30
0.000000
 40
0.056142
 50
41.943862
 51
152.167156
  6
CONTINUOUS
  0
ARC
  8
WHITE
 10
11.395887
 20
3.771918
 30
0.000000
 40
0.056370
 50
-115.905698
 51
-64.094302
  6
CONTINUOUS
  0
ARC
  8
WHITE
 10
11.439981
 20
3.697248
 30
0.000000
 40
0.030874
 50
77.698019
 51
129.087307
  6
CONTINUOUS
  0
ARC
  8
WHITE
 10
11.449291
 20
3.761889
 30
0.000000
 40
0.034584
 50
-94.530070
 51
4.530071
  6
CONTINUOUS
  0
ARC
  8
WHITE
 10
11.518463
 20
3.778624
 30
0.000000
 40
0.037416
 50
151.356710
 51
201.977781
  6
CONTINUOUS
  0
ARC
  8
WHITE
 10
11.450579
 20
3.826301
 30
0.000000
 40
0.045966
 50
-40.318497
 51
-7.336416
  6
CONTINUOUS
  0
ARC
  8
WHITE
 10
11.432932
 20
3.822191
 30
0.000000
 40
0.063261
 50
-1.594288
 51
60.332658
  6
CONTINUOUS
  0
LINE
  8
WHITE
 10
11.464244
 20
3.877160
 30
0.000000
 11
11.414634
 21
3.889562
 31
0.000000
  6
CONTINUOUS
  0
ARC
  8
WHITE
 10
11.487800
 20
4.048867
 30
0.000000
 40
0.175303
 50
-168.930877
 51
-114.668308
  6
CONTINUOUS
  0
ARC
  8
WHITE
 10
11.385695
 20
4.012513
 30
0.000000
 40
0.069989
 50
117.348740
 51
177.791294
  6
CONTINUOUS
  0
ARC
  8
WHITE
 10
11.340284
 20
4.090492
 30
0.000000
 40
0.020635
 50
-50.023344
 51
50.023344
  6
CONTINUOUS
  0
ARC
  8
WHITE
 10
11.292013
 20
4.023081
 30
0.000000
 40
0.103499
 50
53.523980
 51
84.385843
  6
CONTINUOUS
  0
ARC
  8
WHITE
 10
11.402821
 20
4.247306
 30
0.000000
 40
0.157581
 50
-169.025369
 51
-129.711845
  6
CONTINUOUS
  0
ARC
  8
WHITE
 10
11.282536
 20
4.242670
 30
0.000000
 40
0.042751
 50
120.990169
 51
216.389976
  6
CONTINUOUS
  0
ARC
  8
WHITE
 10
11.247364
 20
4.307740
 30
0.000000
 40
0.031321
 50
-65.155207
 51
65.155207
  6
CONTINUOUS
  0
ARC
  8
WHITE
 10
11.270896
 20
4.380022
 30
0.000000
 40
0.045070
 50
-154.017193
 51
-103.304229
  6
CONTINUOUS
  0
ARC
  8
WHITE
 10
11.404216
 20
4.463487
 30
0.000000
 40
0.202165
 50
177.282635
 51
210.698585
  6
CONTINUOUS
  0
ARC
  8
WHITE
 10
11.182958
 20
4.467397
 30
0.000000
 40
0.020136
 50
16.366436
 51
160.919269
  6
CONTINUOUS
  0
ARC
  8
WHITE
 10
10.676338
 20
4.467273
 30
0.000000
 40
0.487636
 50
-30.464684
 51
0.788007
  6
CONTINUOUS
  0
ARC
  8
WHITE
 10
10.786572
 20
4.456765
 30
0.000000
 40
0.390114
 50
-64.150199
 51
-37.359420
  6
CONTINUOUS
  0
ARC
  8
WHITE
 10
10.982319
 20
4.093283
 30
0.000000
 40
0.028493
 50
154.197359
 51
205.802641
  6
CONTINUOUS
  0
ARC
  8
WHITE
 10
10.989624
 20
4.097416
 30
0.000000
 40
0.036873
 50
-153.356311
 51
-51.701284
  6
CONTINUOUS
  0
ARC
  8
WHITE
 10
11.063961
 20
4.020920
 30
0.000000
 40
0.070088
 50
86.940883
 51
137.269783
  6
CONTINUOUS
  0
ARC
  8
WHITE
 10
11.065774
 20
4.062980
 30
0.000000
 40
0.027995
 50
12.624064
 51
86.053911
  6
CONTINUOUS
  0
ARC
  8
WHITE
 10
10.964055
 20
4.062664
 30
0.000000
 40
0.129198
 50
-59.403491
 51
2.854692
  6
CONTINUOUS
  0
ARC
  8
WHITE
 10
10.949378
 20
4.086013
 30
0.000000
 40
0.156769
 50
-130.718516
 51
-59.129856
  6
CONTINUOUS
  0
ARC
  8
WHITE
 10
10.889392
 20
4.042176
 30
0.000000
 40
0.086081
 50
151.088548
 51
240.581627
  6
CONTINUOUS
  0
ARC
  8
WHITE
 10
10.713937
 20
4.191350
 30
0.000000
 40
0.146933
 50
-47.056256
 51
-9.544392
  6
CONTINUOUS
  0
ARC
  8
WHITE
 10
10.765269
 20
4.157204
 30
0.000000
 40
0.094077
 50
5.969171
 51
74.707810
  6
CONTINUOUS
  0
ARC
  8
WHITE
 10
10.818277
 20
4.374853
 30
0.000000
 40
0.129998
 50
-150.238833
 51
-102.526573
  6
CONTINUOUS
  0
ARC
  8
WHITE
 10
10.772237
 20
4.364619
 30
0.000000
 40
0.086091
 50
142.013290
 51
219.099234
  6
CONTINUOUS
  0
ARC
  8
WHITE
 10
10.910094
 20
4.213784
 30
0.000000
 40
0.289586
 50
94.285548
 51
135.264131
  6
CONTINUOUS
  0
ARC
  8
WHITE
 10
10.881378
 20
4.537358
 30
0.000000
 40
0.035510
 50
-78.505881
 51
26.130155
  6
CONTINUOUS
  0
ARC
  8
WHITE
 10
10.762423
 20
4.461944
 30
0.000000
 40
0.176188
 50
31.117672
 51
89.466237
  6
CONTINUOUS
  0
ARC
  8
WHITE
 10
10.846676
 20
4.890502
 30
0.000000
 40
0.265555
 50
-152.907230
 51
-108.125173
  6
CONTINUOUS
  0
ARC
  8
WHITE
 10
10.651349
 20
4.796536
 30
0.000000
 40
0.049153
 50
168.402610
 51
213.287310
  6
CONTINUOUS
  0
ARC
  8
WHITE
 10
10.717220
 20
4.741598
 30
0.000000
 40
0.131157
 50
104.755304
 51
150.381882
  6
CONTINUOUS
  0
ARC
  8
WHITE
 10
10.669592
 20
4.945445
 30
0.000000
 40
0.078318
 50
-79.536532
 51
-41.491171
  6
CONTINUOUS
  0
ARC
  8
WHITE
 10
10.744420
 20
4.878181
 30
0.000000
 40
0.022310
 50
72.303658
 51
136.426046
  6
CONTINUOUS
  0
ARC
  8
WHITE
 10
10.759621
 20
4.914226
 30
0.000000
 40
0.017019
 50
-119.650993
 51
-63.232132
  6
CONTINUOUS
  0
ARC
  8
WHITE
 10
10.761254
 20
4.914945
 30
0.000000
 40
0.017019
 50
-69.240240
 51
41.169439
  6
CONTINUOUS
  0
ARC
  8
WHITE
 10
10.809175
 20
5.087035
 30
0.000000
 40
0.164673
 50
175.213748
 51
257.689606
  6
CONTINUOUS
  0
ARC
  8
WHITE
 10
10.685775
 20
5.100775
 30
0.000000
 40
0.040699
 50
128.316991
 51
180.000000
  6
CONTINUOUS
  0
ARC
  8
WHITE
 10
10.722593
 20
5.011507
 30
0.000000
 40
0.136161
 50
87.006678
 51
117.111552
  6
CONTINUOUS
  0
ARC
  8
WHITE
 10
10.729581
 20
5.161208
 30
0.000000
 40
0.013726
 50
-89.489542
 51
36.356304
  6
CONTINUOUS
  0
ARC
  8
WHITE
 10
10.533336
 20
5.088911
 30
0.000000
 40
0.222357
 50
21.206678
 51
64.801824
  6
CONTINUOUS
  0
ARC
  8
WHITE
 10
10.646315
 20
5.306129
 30
0.000000
 40
0.024329
 50
138.817836
 51
221.182166
  6
CONTINUOUS
  0
ARC
  8
WHITE
 10
10.686644
 20
5.263636
 30
0.000000
 40
0.082838
 50
50.239367
 51
135.062287
  6
CONTINUOUS
  0
ARC
  8
WHITE
 10
10.751880
 20
5.355399
 30
0.000000
 40
0.030640
 50
-113.574176
 51
46.130215
  6
CONTINUOUS
  0
ARC
  8
WHITE
 10
10.260222
 20
5.069325
 30
0.000000
 40
0.598351
 50
30.998945
 51
50.122812
  6
CONTINUOUS
  0
ARC
  8
WHITE
 10
10.702212
 20
5.630909
 30
0.000000
 40
0.117861
 50
179.879323
 51
240.319191
  6
CONTINUOUS
  0
ARC
  8
WHITE
 10
10.410226
 20
5.643619
 30
0.000000
 40
0.174571
 50
-4.093746
 51
27.244124
  6
CONTINUOUS
  0
ARC
  8
WHITE
 10
10.772036
 20
5.831975
 30
0.000000
 40
0.233334
 50
179.297984
 51
207.693483
  6
CONTINUOUS
  0
ARC
  8
WHITE
 10
10.583714
 20
5.844306
 30
0.000000
 40
0.045981
 50
122.588208
 51
191.887837
  6
CONTINUOUS
  0
ARC
  8
WHITE
 10
10.508863
 20
5.941182
 30
0.000000
 40
0.076734
 50
-49.253242
 51
-9.263268
  6
CONTINUOUS
  0
ARC
  8
WHITE
 10
10.534735
 20
5.912764
 30
0.000000
 40
0.052385
 50
17.858998
 51
63.968689
  6
CONTINUOUS
  0
ARC
  8
WHITE
 10
10.573377
 20
5.983705
 30
0.000000
 40
0.028543
 50
133.884622
 51
236.745830
  6
CONTINUOUS
  0
ARC
  8
WHITE
 10
10.597924
 20
5.978955
 30
0.000000
 40
0.051056
 50
107.052607
 51
150.266283
  6
CONTINUOUS
  0
ARC
  8
WHITE
 10
10.550952
 20
6.048924
 30
0.000000
 40
0.038362
 50
-33.472606
 51
40.267610
  6
CONTINUOUS
  0
ARC
  8
WHITE
 10
11.702707
 20
6.738974
 30
0.000000
 40
1.304811
 50
-173.198092
 51
-149.346368
  6
CONTINUOUS
  0
ARC
  8
WHITE
 10
10.387392
 20
6.587000
 30
0.000000
 40
0.019855
 50
-7.420185
 51
182.442130
  6
CONTINUOUS
  0
ARC
  8
WHITE
 10
9.560739
 20
6.550735
 30
0.000000
 40
0.807593
 50
-16.932213
 51
2.513637
  6
CONTINUOUS
  0
ARC
  8
WHITE
 10
9.874876
 20
6.545614
 30
0.000000
 40
0.512944
 50
-50.648251
 51
-26.650902
  6
CONTINUOUS
  0
ARC
  8
WHITE
 10
10.211870
 20
6.130817
 30
0.000000
 40
0.021623
 50
122.904115
 51
237.095885
  6
CONTINUOUS
  0
ARC
  8
WHITE
 10
10.244039
 20
6.158033
 30
0.000000
 40
0.063142
 50
-134.066473
 51
-69.140451
  6
CONTINUOUS
  0
ARC
  8
WHITE
 10
10.273716
 20
6.029219
 30
0.000000
 40
0.070180
 50
-5.629011
 51
95.883773
  6
CONTINUOUS
  0
ARC
  8
WHITE
 10
10.074717
 20
6.126147
 30
0.000000
 40
0.288188
 50
-58.318747
 51
-21.113819
  6
CONTINUOUS
  0
ARC
  8
WHITE
 10
10.237913
 20
5.863435
 30
0.000000
 40
0.021104
 50
124.131819
 51
269.985522
  6
CONTINUOUS
  0
ARC
  8
WHITE
 10
10.257700
 20
5.818222
 30
0.000000
 40
0.031192
 50
74.053679
 51
129.385870
  6
CONTINUOUS
  0
ARC
  8
WHITE
 10
10.254087
 20
5.803179
 30
0.000000
 40
0.046654
 50
11.677343
 51
74.862647
  6
CONTINUOUS
  0
ARC
  8
WHITE
 10
9.999305
 20
5.815619
 30
0.000000
 40
0.300485
 50
-60.978417
 51
-0.571535
  6
CONTINUOUS
  0
ARC
  8
WHITE
 10
10.155358
 20
5.527909
 30
0.000000
 40
0.026988
 50
112.380959
 51
230.280123
  6
CONTINUOUS
  0
ARC
  8
WHITE
 10
10.012220
 20
5.330099
 30
0.000000
 40
0.217246
 50
23.608072
 51
54.585427
  6
CONTINUOUS
  0
ARC
  8
WHITE
 10
10.138943
 20
5.417101
 30
0.000000
 40
0.072341
 50
-66.548885
 51
0.000000
  6
CONTINUOUS
  0
ARC
  8
WHITE
 10
10.247625
 20
5.119382
 30
0.000000
 40
0.244759
 50
109.051209
 51
129.327486
  6
CONTINUOUS
  0
ARC
  8
WHITE
 10
10.219013
 20
5.215345
 30
0.000000
 40
0.157228
 50
143.570566
 51
188.948056
  6
CONTINUOUS
  0
ARC
  8
WHITE
 10
10.088709
 20
5.197545
 30
0.000000
 40
0.025881
 50
-165.099448
 51
-47.420778
  6
CONTINUOUS
  0
ARC
  8
WHITE
 10
10.237995
 20
5.007649
 30
0.000000
 40
0.215756
 50
83.220609
 51
127.644362
  6
CONTINUOUS
  0
ARC
  8
WHITE
 10
10.244654
 20
5.179482
 30
0.000000
 40
0.046398
 50
-23.697290
 51
66.082597
  6
CONTINUOUS
  0
ARC
  8
WHITE
 10
9.996213
 20
5.205169
 30
0.000000
 40
0.294285
 50
-57.353182
 51
-8.664714
  6
CONTINUOUS
  0
ARC
  8
WHITE
 10
10.169883
 20
4.934119
 30
0.000000
 40
0.027630
 50
122.669651
 51
267.936002
  6
CONTINUOUS
  0
ARC
  8
WHITE
 10
10.147500
 20
4.854825
 30
0.000000
 40
0.055932
 50
-19.805772
 51
67.518398
  6
CONTINUOUS
  0
ARC
  8
WHITE
 10
9.997208
 20
4.889315
 30
0.000000
 40
0.209835
 50
-59.982445
 51
-14.754808
  6
CONTINUOUS
  0
ARC
  8
WHITE
 10
10.128396
 20
4.647055
 30
0.000000
 40
0.065999
 50
113.403613
 51
196.715711
  6
CONTINUOUS
  0
ARC
  8
WHITE
 10
9.973873
 20
4.664154
 30
0.000000
 40
0.098184
 50
-68.438494
 51
-21.561506
  6
CONTINUOUS
  0
ARC
  8
WHITE
 10
10.045438
 20
4.549315
 30
0.000000
 40
0.042574
 50
146.454415
 51
233.792684
  6
CONTINUOUS
  0
ARC
  8
WHITE
 10
10.046493
 20
4.588070
 30
0.000000
 40
0.077661
 50
-109.718773
 51
-64.996585
  6
CONTINUOUS
  0
ARC
  8
WHITE
 10
10.100126
 20
4.400586
 30
0.000000
 40
0.118935
 50
74.085704
 51
100.075639
  6
CONTINUOUS
  0
ARC
  8
WHITE
 10
10.116928
 20
4.470976
 30
0.000000
 40
0.046742
 50
16.446857
 51
70.230747
  6
CONTINUOUS
  0
ARC
  8
WHITE
 10
9.860438
 20
4.415172
 30
0.000000
 40
0.309126
 50
-81.479342
 51
12.904685
  6
CONTINUOUS
  0
ARC
  8
WHITE
 10
9.866202
 20
4.469781
 30
0.000000
 40
0.362540
 50
-111.874374
 51
-83.659506
  6
CONTINUOUS
  0
ARC
  8
WHITE
 10
9.736740
 20
4.152958
 30
0.000000
 40
0.020402
 50
133.742688
 51
254.039695
  6
CONTINUOUS
  0
ARC
  8
WHITE
 10
9.939288
 20
4.008406
 30
0.000000
 40
0.268910
 50
121.049040
 51
143.675600
  6
CONTINUOUS
  0
ARC
  8
WHITE
 10
9.788387
 20
4.257017
 30
0.000000
 40
0.021936
 50
-56.196192
 51
82.049330
  6
CONTINUOUS
  0
ARC
  8
WHITE
 10
9.708992
 20
4.457568
 30
0.000000
 40
0.196910
 50
-141.353973
 51
-65.252672
  6
CONTINUOUS
  0
ARC
  8
WHITE
 10
9.566909
 20
4.355493
 30
0.000000
 40
0.023953
 50
119.259323
 51
240.740677
  6
CONTINUOUS
  0
ARC
  8
WHITE
 10
9.504928
 20
4.716011
 30
0.000000
 40
0.343322
 50
-81.579621
 51
-31.694285
  6
CONTINUOUS
  0
ARC
  8
WHITE
 10
9.773277
 20
4.547002
 30
0.000000
 40
0.026349
 50
-25.559421
 51
64.440581
  6
CONTINUOUS
  0
ARC
  8
WHITE
 10
9.769142
 20
4.508761
 30
0.000000
 40
0.063920
 50
75.963749
 51
129.093905
  6
CONTINUOUS
  0
ARC
  8
WHITE
 10
9.725027
 20
4.538787
 30
0.000000
 40
0.019950
 50
78.997439
 51
137.872348
  6
CONTINUOUS
  0
ARC
  8
WHITE
 10
9.694728
 20
4.592477
 30
0.000000
 40
0.043186
 50
-158.962439
 51
-68.962506
  6
CONTINUOUS
  0
ARC
  8
WHITE
 10
9.696250
 20
4.595578
 30
0.000000
 40
0.045780
 50
156.022904
 51
203.977095
  6
CONTINUOUS
  0
ARC
  8
WHITE
 10
9.402430
 20
4.906085
 30
0.000000
 40
0.385626
 50
-49.197080
 51
-43.052682
  6
CONTINUOUS
  0
ARC
  8
WHITE
 10
9.602038
 20
4.666457
 30
0.000000
 40
0.085507
 50
-16.040472
 51
79.777507
  6
CONTINUOUS
  0
ARC
  8
WHITE
 10
9.606320
 20
4.860804
 30
0.000000
 40
0.110734
 50
-142.904406
 51
-84.354367
  6
CONTINUOUS
  0
ARC
  8
WHITE
 10
9.522811
 20
4.804867
 30
0.000000
 40
0.011873
 50
113.933545
 51
246.066455
  6
CONTINUOUS
  0
ARC
  8
WHITE
 10
9.549068
 20
5.012758
 30
0.000000
 40
0.199473
 50
-98.961803
 51
-25.682857
  6
CONTINUOUS
  0
ARC
  8
WHITE
 10
9.718665
 20
4.940777
 30
0.000000
 40
0.017685
 50
-54.899244
 51
54.899246
  6
CONTINUOUS
  0
ARC
  8
WHITE
 10
9.838885
 20
5.466097
 30
0.000000
 40
0.522571
 50
-121.943069
 51
-102.157176
  6
CONTINUOUS
  0
ARC
  8
WHITE
 10
9.210448
 20
4.994109
 30
0.000000
 40
0.353113
 50
4.637186
 51
65.362406
  6
CONTINUOUS
  0
ARC
  8
WHITE
 10
9.488359
 20
5.367685
 30
0.000000
 40
0.140896
 50
134.918319
 51
201.924695
  6
CONTINUOUS
  0
ARC
  8
WHITE
 10
9.398295
 20
5.705252
 30
0.000000
 40
0.237984
 50
-92.269060
 51
-46.734817
  6
CONTINUOUS
  0
ARC
  8
WHITE
 10
9.543883
 20
5.550851
 30
0.000000
 40
0.025769
 50
-47.163434
 51
47.163434
  6
CONTINUOUS
  0
ARC
  8
WHITE
 10
8.982465
 20
5.199398
 30
0.000000
 40
0.687261
 50
32.607213
 51
52.208109
  6
CONTINUOUS
  0
ARC
  8
WHITE
 10
9.402284
 20
5.757178
 30
0.000000
 40
0.014738
 50
138.369490
 51
275.181887
  6
CONTINUOUS
  0
ARC
  8
WHITE
 10
9.364606
 20
5.810750
 30
0.000000
 40
0.051261
 50
-58.658888
 51
50.406966
  6
CONTINUOUS
  0
ARC
  8
WHITE
 10
9.482685
 20
6.018658
 30
0.000000
 40
0.188827
 50
173.927703
 51
243.107879
  6
CONTINUOUS
  0
ARC
  8
WHITE
 10
9.358646
 20
6.045802
 30
0.000000
 40
0.064130
 50
132.823036
 51
186.418670
  6
CONTINUOUS
  0
ARC
  8
WHITE
 10
9.305272
 20
6.101037
 30
0.000000
 40
0.012763
 50
-39.967883
 51
48.440667
  6
CONTINUOUS
  0
ARC
  8
WHITE
 10
9.401021
 20
6.232309
 30
0.000000
 40
0.149780
 50
-149.462415
 51
-125.642779
  6
CONTINUOUS
  0
ARC
  8
WHITE
 10
9.359242
 20
6.208668
 30
0.000000
 40
0.101788
 50
167.733474
 51
211.025055
  6
CONTINUOUS
  0
ARC
  8
WHITE
 10
9.243237
 20
6.226272
 30
0.000000
 40
0.017023
 50
13.666572
 51
168.770401
  6
CONTINUOUS
  0
ARC
  8
WHITE
 10
8.819791
 20
6.233270
 30
0.000000
 40
0.406765
 50
-59.803474
 51
-0.518776
  6
CONTINUOUS
  0
ARC
  8
WHITE
 10
9.041259
 20
5.854793
 30
0.000000
 40
0.031763
 50
122.099292
 51
232.449364
  6
CONTINUOUS
  0
ARC
  8
WHITE
 10
9.061175
 20
5.946890
 30
0.000000
 40
0.123680
 50
-108.514706
 51
-71.485294
  6
CONTINUOUS
  0
ARC
  8
WHITE
 10
9.076287
 20
5.766577
 30
0.000000
 40
0.067507
 50
-5.479017
 51
69.026920
  6
CONTINUOUS
  0
ARC
  8
WHITE
 10
8.994049
 20
5.848471
 30
0.000000
 40
0.173595
 50
-86.756870
 51
-30.589656
  6
CONTINUOUS
  0
ARC
  8
WHITE
 10
9.001785
 20
5.470415
 30
0.000000
 40
0.204750
 50
89.416522
 51
109.507304
  6
CONTINUOUS
  0
ARC
  8
WHITE
 10
9.010971
 20
5.550597
 30
0.000000
 40
0.136903
 50
124.507625
 51
141.332731
  6
CONTINUOUS
  0
ARC
  8
WHITE
 10
8.919889
 20
5.623810
 30
0.000000
 40
0.020045
 50
142.064071
 51
282.951965
  6
CONTINUOUS
  0
ARC
  8
WHITE
 10
8.846224
 20
5.416431
 30
0.000000
 40
0.203454
 50
40.804816
 51
67.408763
  6
CONTINUOUS
  0
ARC
  8
WHITE
 10
9.097022
 20
5.775204
 30
0.000000
 40
0.245689
 50
-113.202110
 51
-85.434310
  6
CONTINUOUS
  0
ARC
  8
WHITE
 10
9.103095
 20
5.490273
 30
0.000000
 40
0.042232
 50
-54.994659
 51
71.379064
  6
CONTINUOUS
  0
ARC
  8
WHITE
 10
9.747725
 20
4.048900
 30
0.000000
 40
1.537509
 50
113.797935
 51
122.407503
  6
CONTINUOUS
  0
ARC
  8
WHITE
 10
8.954024
 20
5.305180
 30
0.000000
 40
0.051610
 50
125.961420
 51
237.644470
  6
CONTINUOUS
  0
ARC
  8
WHITE
 10
9.041960
 20
5.386403
 30
0.000000
 40
0.170098
 50
-132.793154
 51
-78.936820
  6
CONTINUOUS
  0
ARC
  8
WHITE
 10
9.085378
 20
5.197222
 30
0.000000
 40
0.024717
 50
19.221996
 51
115.851835
  6
CONTINUOUS
  0
ARC
  8
WHITE
 10
8.938900
 20
5.214270
 30
0.000000
 40
0.170051
 50
-55.310411
 51
-3.003436
  6
CONTINUOUS
  0
ARC
  8
WHITE
 10
8.968005
 20
5.144343
 30
0.000000
 40
0.097292
 50
-100.107844
 51
-45.924680
  6
CONTINUOUS
  0
ARC
  8
WHITE
 10
8.950930
 20
5.035631
 30
0.000000
 40
0.012930
 50
90.000000
 51
192.317132
  6
CONTINUOUS
  0
ARC
  8
WHITE
 10
9.281415
 20
5.090886
 30
0.000000
 40
0.347988
 50
-170.403266
 51
-148.627747
  6
CONTINUOUS
  0
ARC
  8
WHITE
 10
8.946903
 20
4.896458
 30
0.000000
 40
0.039683
 50
-33.370605
 51
19.531668
  6
CONTINUOUS
  0
ARC
  8
WHITE
 10
8.957564
 20
4.935119
 30
0.000000
 40
0.064531
 50
-175.100410
 51
-69.613552
  6
CONTINUOUS
  0
ARC
  8
WHITE
 10
9.881723
 20
5.227956
 30
0.000000
 40
1.032498
 50
-176.412617
 51
-163.204414
  6
CONTINUOUS
  0
ARC
  8
WHITE
 10
8.827030
 20
5.160651
 30
0.000000
 40
0.024367
 50
6.363451
 51
67.374283
  6
CONTINUOUS
  0
ARC
  8
WHITE
 10
9.816213
 20
5.497747
 30
0.000000
 40
1.029077
 50
173.376282
 51
197.801155
  6
CONTINUOUS
  0
ARC
  8
WHITE
 10
8.466279
 20
5.519915
 30
0.000000
 40
0.341648
 50
16.412728
 51
52.420770
  6
CONTINUOUS
  0
ARC
  8
WHITE
 10
-5.412462
 20
-21.533125
 30
0.000000
 40
30.741444
 50
62.726114
 51
63.195768
  6
CONTINUOUS
  0
ARC
  8
WHITE
 10
8.454572
 20
5.929707
 30
0.000000
 40
0.024868
 50
-169.853438
 51
-100.146562
  6
CONTINUOUS
  0
ARC
  8
WHITE
 10
84.420613
 20
44.291960
 30
0.000000
 40
85.126716
 50
-153.365192
 51
-153.211378
  6
CONTINUOUS
  0
ARC
  8
WHITE
 10
8.583997
 20
6.238451
 30
0.000000
 40
0.278810
 50
144.020515
 51
203.010239
  6
CONTINUOUS
  0
ARC
  8
WHITE
 10
6.344695
 20
6.922569
 30
0.000000
 40
2.079818
 50
-14.487869
 51
5.857114
  6
CONTINUOUS
  0
ARC
  8
WHITE
 10
8.595490
 20
7.236971
 30
0.000000
 40
0.208568
 50
154.028065
 51
209.328670
  6
CONTINUOUS
  0
ARC
  8
WHITE
 10
8.138772
 20
7.532020
 30
0.000000
 40
0.337600
 50
-37.114506
 51
-1.840982
  6
CONTINUOUS
  0
ARC
  8
WHITE
 10
8.540734
 20
7.523437
 30
0.000000
 40
0.064576
 50
118.501339
 51
182.008267
  6
CONTINUOUS
  0
LINE
  8
WHITE
 10
8.509920
 20
7.580187
 30
0.000000
 11
8.577742
 21
7.586868
 31
0.000000
  6
CONTINUOUS
  0
ARC
  8
WHITE
 10
8.579024
 20
7.595663
 30
0.000000
 40
0.008888
 50
-98.292737
 51
8.292567
  6
CONTINUOUS
  0
LINE
  8
WHITE
 10
8.587819
 20
7.596945
 30
0.000000
 11
8.593790
 21
7.662630
 31
0.000000
  6
CONTINUOUS
  0
ARC
  8
WHITE
 10
8.725868
 20
7.609086
 30
0.000000
 40
0.142518
 50
129.862203
 51
157.932505
  6
CONTINUOUS
  0
ARC
  8
WHITE
 10
8.616655
 20
7.746893
 30
0.000000
 40
0.033562
 50
-57.836908
 51
8.707473
  6
CONTINUOUS
  0
ARC
  8
WHITE
 10
8.677736
 20
7.746807
 30
0.000000
 40
0.028380
 50
56.888695
 51
169.508477
  6
CONTINUOUS
  0
LINE
  8
WHITE
 10
8.693239
 20
7.770578
 30
0.000000
 11
8.711842
 21
7.751974
 31
0.000000
  6
CONTINUOUS
  0
ARC
  8
WHITE
 10
8.728108
 20
7.764477
 30
0.000000
 40
0.020516
 50
-142.452726
 51
-37.547274
  6
CONTINUOUS
  0
ARC
  8
WHITE
 10
8.998230
 20
7.653356
 30
0.000000
 40
0.272339
 50
120.338330
 51
158.769775
  6
CONTINUOUS
  0
ARC
  8
WHITE
 10
8.764662
 20
7.922903
 30
0.000000
 40
0.102020
 50
-19.767095
 51
10.003972
  6
CONTINUOUS
  0
ARC
  8
WHITE
 10
9.023448
 20
7.978577
 30
0.000000
 40
0.162802
 50
179.000096
 51
193.480287
  6
CONTINUOUS
  0
ARC
  8
WHITE
 10
8.873173
 20
7.981317
 30
0.000000
 40
0.012503
 50
90.460826
 51
179.539307
  6
CONTINUOUS
  0
ARC
  8
WHITE
 10
8.885475
 20
7.955063
 30
0.000000
 40
0.040693
 50
40.364474
 51
107.744692
  6
CONTINUOUS
  0
ARC
  8
WHITE
 10
8.930963
 20
8.007578
 30
0.000000
 40
0.029902
 50
-118.968706
 51
-43.984141
  6
CONTINUOUS
  0
LINE
  8
WHITE
 10
8.952478
 20
7.986813
 30
0.000000
 11
9.004556
 21
8.131504
 31
0.000000
  6
CONTINUOUS
  0
ARC
  8
WHITE
 10
8.918064
 20
8.177587
 30
0.000000
 40
0.098002
 50
-28.049126
 51
4.957473
  6
CONTINUOUS
  0
ARC
  8
WHITE
 10
9.041763
 20
8.179093
 30
0.000000
 40
0.026977
 50
29.209385
 51
165.040673
  6
CONTINUOUS
  0
LINE
  8
WHITE
 10
9.065309
 20
8.192258
 30
0.000000
 11
9.077712
 21
8.167453
 31
0.000000
  6
CONTINUOUS
  0
ARC
  8
WHITE
 10
9.090114
 20
8.177014
 30
0.000000
 40
0.015660
 50
-142.371295
 51
-37.628702
  6
CONTINUOUS
  0
ARC
  8
WHITE
 10
9.150838
 20
8.155346
 30
0.000000
 40
0.049815
 50
64.125152
 51
165.934222
  6
CONTINUOUS
  0
ARC
  8
WHITE
 10
8.660663
 20
7.751821
 30
0.000000
 40
0.680493
 50
18.418857
 51
41.212576
  6
CONTINUOUS
  0
ARC
  8
WHITE
 10
10.280264
 20
7.955041
 30
0.000000
 40
0.974040
 50
179.306477
 51
208.069409
  6
CONTINUOUS
  0
ARC
  8
WHITE
 10
9.662788
 20
7.545741
 30
0.000000
 40
0.246911
 50
-168.547601
 51
-99.256491
  6
CONTINUOUS
  0
ARC
  8
WHITE
 10
9.381997
 20
7.035170
 30
0.000000
 40
0.359637
 50
11.664241
 51
47.907864
  6
CONTINUOUS
  0
ARC
  8
WHITE
 10
10.129333
 20
7.420642
 30
0.000000
 40
0.503929
 50
-141.636634
 51
-118.272218
  6
CONTINUOUS
  0
ARC
  8
WHITE
 10
9.903066
 20
7.005178
 30
0.000000
 40
0.030953
 50
-113.665445
 51
10.774708
  6
CONTINUOUS
  0
ARC
  8
WHITE
 10
16.174079
 20
7.127196
 30
0.000000
 40
6.241688
 50
175.778965
 51
181.067018
  6
CONTINUOUS
  0
ARC
  8
WHITE
 10
12.112994
 20
7.555983
 30
0.000000
 40
2.163889
 50
158.545819
 51
179.188977
  6
CONTINUOUS
  0
ARC
  8
WHITE
 10
10.171235
 20
8.299975
 30
0.000000
 40
0.086401
 50
33.201171
 51
146.676965
  6
CONTINUOUS
  0
ARC
  8
WHITE
 10
9.401418
 20
7.970426
 30
0.000000
 40
0.922594
 50
7.491610
 51
24.109351
  6
CONTINUOUS
  0
ARC
  8
WHITE
 10
10.478307
 20
8.155734
 30
0.000000
 40
0.174719
 50
-158.152534
 51
-119.851680
  6
CONTINUOUS
  0
ARC
  8
WHITE
 10
10.566860
 20
8.576800
 30
0.000000
 40
0.598900
 50
-107.041914
 51
-76.219104
  6
CONTINUOUS
  0
ARC
  8
WHITE
 10
10.698518
 20
7.850648
 30
0.000000
 40
0.144911
 50
53.513273
 51
85.644263
  6
CONTINUOUS
  0
ARC
  8
WHITE
 10
10.871258
 20
8.051148
 30
0.000000
 40
0.120620
 50
-135.866172
 51
-55.836927
  6
CONTINUOUS
  0
ARC
  8
WHITE
 10
12.481581
 20
5.568478
 30
0.000000
 40
2.838594
 50
111.801826
 51
122.917720
  6
CONTINUOUS
  0
ARC
  8
WHITE
 10
11.315703
 20
8.349127
 30
0.000000
 40
0.183064
 50
-52.424955
 51
23.355822
  6
CONTINUOUS
  0
ARC
  8
WHITE
 10
11.861090
 20
8.602362
 30
0.000000
 40
0.418344
 50
164.886575
 51
205.584911
  6
CONTINUOUS
  0
ARC
  8
WHITE
 10
10.984304
 20
8.880871
 30
0.000000
 40
0.502348
 50
-19.711501
 51
23.046273
  6
CONTINUOUS
  0
ARC
  8
WHITE
 10
11.737324
 20
9.413170
 30
0.000000
 40
0.444073
 50
-166.024718
 51
-130.902164
  6
CONTINUOUS
  0
ARC
  8
WHITE
 10
11.043524
 20
9.257562
 30
0.000000
 40
0.267284
 50
10.424745
 51
54.681550
  6
CONTINUOUS
  0
ARC
  8
WHITE
 10
11.321911
 20
9.732718
 30
0.000000
 40
0.285351
 50
-145.968595
 51
-115.726577
  6
CONTINUOUS
  0
ARC
  8
WHITE
 10
10.820520
 20
9.472899
 30
0.000000
 40
0.283201
 50
20.704041
 51
70.885086
  6
CONTINUOUS
  0
ARC
  8
WHITE
 10
11.274784
 20
10.679380
 30
0.000000
 40
1.006094
 50
-134.553780
 51
-111.059392
  6
CONTINUOUS
  0
ARC
  8
WHITE
 10
10.743955
 20
10.112722
 30
0.000000
 40
0.230688
 50
166.136940
 51
220.649343
  6
CONTINUOUS
  0
ARC
  8
WHITE
 10
9.968503
 20
10.326711
 30
0.000000
 40
0.573869
 50
-16.055676
 51
1.600070
  6
CONTINUOUS
  0
ARC
  8
WHITE
 10
10.416488
 20
10.306217
 30
0.000000
 40
0.130859
 50
16.204279
 51
82.288845
  6
CONTINUOUS
  0
ARC
  8
WHITE
 10
10.627079
 20
10.758655
 30
0.000000
 40
0.376082
 50
-148.756106
 51
-120.882163
  6
CONTINUOUS
  0
ARC
  8
WHITE
 10
10.339179
 20
10.593437
 30
0.000000
 40
0.044971
 50
110.648788
 51
221.585394
  6
CONTINUOUS
  0
ARC
  8
WHITE
 10
10.556536
 20
10.198253
 30
0.000000
 40
0.495572
 50
82.962045
 51
118.073184
  6
CONTINUOUS
  0
ARC
  8
WHITE
 10
10.880910
 20
12.832466
 30
0.000000
 40
2.158538
 50
-97.015861
 51
-76.484563
  6
CONTINUOUS
  0
ARC
  8
WHITE
 10
12.180137
 20
7.992157
 30
0.000000
 40
2.854423
 50
90.712680
 51
106.166625
  6
CONTINUOUS
  0
ARC
  8
WHITE
 10
11.845253
 20
12.472547
 30
0.000000
 40
1.653516
 50
-79.568699
 51
-32.925780
  6
CONTINUOUS
  0
ARC
  8
WHITE
 10
12.811715
 20
11.902947
 30
0.000000
 40
0.534773
 50
-37.990847
 51
11.831489
  6
CONTINUOUS
  0
ARC
  8
WHITE
 10
13.314688
 20
12.006964
 30
0.000000
 40
0.021199
 50
15.397778
 51
167.111497
  6
CONTINUOUS
  0
ARC
  8
WHITE
 10
12.258803
 20
12.279282
 30
0.000000
 40
1.069244
 50
-72.092526
 51
-14.492870
  6
CONTINUOUS
  0
ARC
  8
WHITE
 10
12.572246
 20
11.294178
 30
0.000000
 40
0.035789
 50
106.204471
 51
295.359971
  6
CONTINUOUS
  0
ARC
  8
WHITE
 10
11.618311
 20
12.598801
 30
0.000000
 40
1.582588
 50
-53.383362
 51
-13.504922
  6
CONTINUOUS
  0
ARC
  8
WHITE
 10
13.759326
 20
12.207816
 30
0.000000
 40
0.602566
 50
159.399816
 51
177.964299
  6
CONTINUOUS
  0
ARC
  8
WHITE
 10
12.802559
 20
12.524203
 30
0.000000
 40
0.406364
 50
-14.883672
 51
4.461697
  6
CONTINUOUS
  0
ARC
  8
WHITE
 10
13.188071
 20
12.547572
 30
0.000000
 40
0.021282
 50
22.788591
 51
129.117915
  6
CONTINUOUS
  0
ARC
  8
WHITE
 10
13.418231
 20
12.343263
 30
0.000000
 40
0.328780
 50
137.806601
 51
168.482855
  6
CONTINUOUS
  0
ARC
  8
WHITE
 10
12.033737
 20
12.634401
 30
0.000000
 40
1.086002
 50
-49.254765
 51
-11.983849
  6
CONTINUOUS
  0
ARC
  8
WHITE
 10
11.436539
 20
12.940296
 30
0.000000
 40
1.726154
 50
-62.526136
 51
-40.833622
  6
CONTINUOUS
  0
ARC
  8
WHITE
 10
12.209373
 20
11.481855
 30
0.000000
 40
0.076732
 50
152.858273
 51
287.847179
  6
CONTINUOUS
  0
ARC
  8
WHITE
 10
12.603382
 20
11.409447
 30
0.000000
 40
0.474606
 50
130.410996
 51
166.919524
  6
CONTINUOUS
  0
ARC
  8
WHITE
 10
11.126567
 20
13.414563
 30
0.000000
 40
2.017125
 50
-54.576963
 51
-4.858870
  6
CONTINUOUS
  0
ARC
  8
WHITE
 10
13.118643
 20
13.258826
 30
0.000000
 40
0.023353
 50
-40.338891
 51
165.137743
  6
CONTINUOUS
  0
ARC
  8
WHITE
 10
19.224474
 20
10.114591
 30
0.000000
 40
6.890664
 50
152.795167
 51
158.055157
  6
CONTINUOUS
  0
ARC
  8
WHITE
 10
12.239495
 20
12.886712
 30
0.000000
 40
0.625416
 50
-52.323700
 51
-18.358721
  6
CONTINUOUS
  0
ARC
  8
WHITE
 10
12.863763
 20
12.059965
 30
0.000000
 40
0.410640
 50
126.111321
 51
157.875317
  6
CONTINUOUS
  0
ARC
  8
WHITE
 10
12.434951
 20
12.234991
 30
0.000000
 40
0.052520
 50
172.040959
 51
337.180100
  6
CONTINUOUS
  0
ARC
  8
WHITE
 10
13.450710
 20
12.317107
 30
0.000000
 40
1.070394
 50
144.308003
 51
184.009539
  6
CONTINUOUS
  0
ARC
  8
WHITE
 10
12.364266
 20
13.117457
 30
0.000000
 40
0.279391
 50
-39.006661
 51
13.238674
  6
CONTINUOUS
  0
ARC
  8
WHITE
 10
12.619519
 20
13.181439
 30
0.000000
 40
0.016713
 50
0.000000
 51
154.331368
  6
CONTINUOUS
  0
ARC
  8
WHITE
 10
12.521524
 20
13.213275
 30
0.000000
 40
0.086502
 50
-57.865871
 51
-16.519529
  6
CONTINUOUS
  0
ARC
  8
WHITE
 10
12.605054
 20
13.066951
 30
0.000000
 40
0.082142
 50
117.178021
 51
149.696006
  6
CONTINUOUS
  0
ARC
  8
WHITE
 10
11.498256
 20
13.622047
 30
0.000000
 40
1.156234
 50
-43.739603
 51
-26.374802
  6
CONTINUOUS
  0
ARC
  8
WHITE
 10
11.654491
 20
13.191866
 30
0.000000
 40
0.773009
 50
-74.697875
 51
-28.531267
  6
CONTINUOUS
  0
ARC
  8
WHITE
 10
11.805629
 20
12.525783
 30
0.000000
 40
0.095491
 50
-147.008567
 51
-56.384171
  6
CONTINUOUS
  0
ARC
  8
WHITE
 10
11.875132
 20
12.562028
 30
0.000000
 40
0.173682
 50
159.966573
 51
210.534855
  6
CONTINUOUS
  0
ARC
  8
WHITE
 10
12.910156
 20
12.482914
 30
0.000000
 40
1.206188
 50
145.457935
 51
173.401109
  6
CONTINUOUS
  0
ARC
  8
WHITE
 10
11.885140
 20
13.194210
 30
0.000000
 40
0.041708
 50
-41.021267
 51
139.299367
  6
CONTINUOUS
  0
ARC
  8
WHITE
 10
13.795929
 20
11.122638
 30
0.000000
 40
2.859683
 50
132.784228
 51
143.746903
  6
CONTINUOUS
  0
ARC
  8
WHITE
 10
11.408620
 20
12.904180
 30
0.000000
 40
0.121575
 50
-135.078337
 51
-48.078685
  6
CONTINUOUS
  0
ARC
  8
WHITE
 10
11.692849
 20
12.938179
 30
0.000000
 40
0.389224
 50
155.986881
 51
197.933544
  6
CONTINUOUS
  0
ARC
  8
WHITE
 10
11.307816
 20
13.112680
 30
0.000000
 40
0.033607
 50
-28.639138
 51
136.939346
  6
CONTINUOUS
  0
ARC
  8
WHITE
 10
11.118876
 20
13.312606
 30
0.000000
 40
0.241547
 50
-67.722633
 51
-47.112800
  6
CONTINUOUS
  0
ARC
  8
WHITE
 10
10.360919
 20
13.891113
 30
0.000000
 40
1.168305
 50
-59.694056
 51
-43.352567
  6
CONTINUOUS
  0
ARC
  8
WHITE
 10
10.909828
 20
12.944553
 30
0.000000
 40
0.074205
 50
-163.054003
 51
-56.794553
  6
CONTINUOUS
  0
ARC
  8
WHITE
 10
10.133365
 20
12.770533
 30
0.000000
 40
0.721751
 50
12.189223
 51
38.294143
  6
CONTINUOUS
  0
ARC
  8
WHITE
 10
10.670284
 20
13.156904
 30
0.000000
 40
0.067683
 50
64.123216
 51
156.260705
  6
CONTINUOUS
  0
ARC
  8
WHITE
 10
10.771702
 20
13.144366
 30
0.000000
 40
0.168149
 50
166.313396
 51
200.839399
  6
CONTINUOUS
  0
ARC
  8
WHITE
 10
10.503067
 20
13.078360
 30
0.000000
 40
0.111658
 50
-88.335371
 51
3.176440
  6
CONTINUOUS
  0
ARC
  8
WHITE
 10
10.478349
 20
12.883793
 30
0.000000
 40
0.087542
 50
71.372816
 51
118.179471
  6
CONTINUOUS
  0
ARC
  8
WHITE
 10
10.417371
 20
13.005444
 30
0.000000
 40
0.048626
 50
-139.922740
 51
-66.182180
  6
CONTINUOUS
  0
LINE
  8
WHITE
 10
10.380164
 20
12.974137
 30
0.000000
 11
10.348915
 21
13.013197
 31
0.000000
  6
CONTINUOUS
  0
ARC
  8
WHITE
 10
10.463210
 20
13.104951
 30
0.000000
 40
0.146567
 50
-170.531637
 51
-141.243027
  6
CONTINUOUS
  0
ARC
  8
WHITE
 10
10.248219
 20
13.092154
 30
0.000000
 40
0.071323
 50
-9.127212
 51
53.482391
  6
CONTINUOUS
  0
ARC
  8
WHITE
 10
10.249749
 20
13.105692
 30
0.000000
 40
0.059923
 50
46.941285
 51
136.155420
  6
CONTINUOUS
  0
ARC
  8
WHITE
 10
10.297982
 20
13.061667
 30
0.000000
 40
0.125217
 50
136.914835
 51
191.591991
  6
CONTINUOUS
  0
ARC
  8
WHITE
 10
10.067782
 20
13.036505
 30
0.000000
 40
0.107537
 50
-82.240491
 51
0.000000
  6
CONTINUOUS
  0
ARC
  8
WHITE
 10
10.060597
 20
12.967399
 30
0.000000
 40
0.043282
 50
-149.903133
 51
-59.903132
  6
CONTINUOUS
  0
ARC
  8
WHITE
 10
9.792121
 20
12.876689
 30
0.000000
 40
0.241116
 50
16.630330
 51
53.500661
  6
CONTINUOUS
  0
ARC
  8
WHITE
 10
9.910736
 20
13.041576
 30
0.000000
 40
0.038113
 50
49.397649
 51
102.529863
  6
CONTINUOUS
  0
ARC
  8
WHITE
 10
9.871462
 20
13.047775
 30
0.000000
 40
0.043849
 50
44.999945
 51
98.130103
  6
CONTINUOUS
  0
ARC
  8
WHITE
 10
9.895870
 20
13.018468
 30
0.000000
 40
0.078895
 50
112.829069
 51
167.627698
  6
CONTINUOUS
  0
ARC
  8
WHITE
 10
11.148851
 20
12.959755
 30
0.000000
 40
1.332192
 50
176.746029
 51
185.060338
  6
CONTINUOUS
  0
ARC
  8
WHITE
 10
9.758490
 20
12.851230
 30
0.000000
 40
0.063995
 50
-124.907732
 51
-8.067380
  6
CONTINUOUS
  0
ARC
  8
WHITE
 10
9.381403
 20
12.357848
 30
0.000000
 40
0.557055
 50
52.324537
 51
76.988418
  6
CONTINUOUS
  0
ARC
  8
WHITE
 10
9.499484
 20
12.829004
 30
0.000000
 40
0.071972
 50
84.147103
 51
232.813182
  6
CONTINUOUS
  0
ARC
  8
WHITE
 10
9.313706
 20
12.652376
 30
0.000000
 40
0.185669
 50
-17.264419
 51
39.977867
  6
CONTINUOUS
  0
ARC
  8
WHITE
 10
9.447266
 20
12.615146
 30
0.000000
 40
0.047255
 50
-108.312758
 51
-22.224881
  6
CONTINUOUS
  0
ARC
  8
WHITE
 10
9.124063
 20
11.944621
 30
0.000000
 40
0.697523
 50
63.763887
 51
68.783181
  6
CONTINUOUS
  0
ARC
  8
WHITE
 10
9.378275
 20
12.676560
 30
0.000000
 40
0.081716
 50
-121.756976
 51
-91.247786
  6
CONTINUOUS
  0
ARC
  8
WHITE
 10
9.317432
 20
12.566289
 30
0.000000
 40
0.044518
 50
66.383325
 51
228.245214
  6
CONTINUOUS
  0
ARC
  8
WHITE
 10
6.077622
 20
10.536788
 30
0.000000
 40
3.780254
 50
26.412470
 51
31.876056
  6
CONTINUOUS
  0
ARC
  8
WHITE
 10
10.276615
 20
12.610956
 30
0.000000
 40
0.903137
 50
-154.233575
 51
-130.370596
  6
CONTINUOUS
  0
ARC
  8
WHITE
 10
9.680129
 20
11.909571
 30
0.000000
 40
0.017590
 50
-49.177974
 51
49.177974
  6
CONTINUOUS
  0
ARC
  8
WHITE
 10
10.591325
 20
10.845342
 30
0.000000
 40
1.383432
 50
130.567036
 51
138.347493
  6
CONTINUOUS
  0
ARC
  8
WHITE
 10
10.287797
 20
10.948424
 30
0.000000
 40
1.095253
 50
131.809580
 51
152.906620
  6
CONTINUOUS
  0
ARC
  8
WHITE
 10
9.277388
 20
11.499396
 30
0.000000
 40
0.062997
 50
-154.904372
 51
-55.872694
  6
CONTINUOUS
  0
ARC
  8
WHITE
 10
9.196664
 20
11.446737
 30
0.000000
 40
0.035119
 50
47.614710
 51
180.354489
  6
CONTINUOUS
  0
ARC
  8
WHITE
 10
8.790311
 20
11.346322
 30
0.000000
 40
0.384518
 50
-5.165656
 51
15.104509
  6
CONTINUOUS
  0
ARC
  8
WHITE
 10
8.942540
 20
11.430407
 30
0.000000
 40
0.259473
 50
-79.816466
 51
-27.224945
  6
CONTINUOUS
  0
ARC
  8
WHITE
 10
8.912131
 20
11.342701
 30
0.000000
 40
0.184217
 50
-133.101669
 51
-65.537318
  6
CONTINUOUS
  0
ARC
  8
WHITE
 10
10.766827
 20
11.517686
 30
0.000000
 40
2.004605
 50
168.554684
 51
188.881368
  6
CONTINUOUS
  0
ARC
  8
WHITE
 10
8.765240
 20
11.931374
 30
0.000000
 40
0.040132
 50
-23.354967
 51
136.619636
  6
CONTINUOUS
  0
ARC
  8
WHITE
 10
8.827521
 20
11.861539
 30
0.000000
 40
0.133602
 50
133.195206
 51
179.222768
  6
CONTINUOUS
  0
ARC
  8
WHITE
 10
7.298477
 20
11.976973
 30
0.000000
 40
1.400072
 50
-16.384141
 51
-4.654931
  6
CONTINUOUS
  0
ARC
  8
WHITE
 10
8.954077
 20
11.437072
 30
0.000000
 40
0.344384
 50
155.104193
 51
178.391199
  6
CONTINUOUS
  0
ARC
  8
WHITE
 10
8.583518
 20
11.456540
 30
0.000000
 40
0.028076
 50
-162.018322
 51
-20.428472
  6
CONTINUOUS
  0
ARC
  8
WHITE
 10
7.971156
 20
11.121022
 30
0.000000
 40
0.670691
 50
29.165532
 51
59.583471
  6
CONTINUOUS
  0
ARC
  8
WHITE
 10
13.128715
 20
20.582809
 30
0.000000
 40
10.105841
 50
-118.807198
 51
-118.473617
  6
CONTINUOUS
  0
ARC
  8
WHITE
 10
8.307670
 20
11.800266
 30
0.000000
 40
0.087413
 50
-172.217043
 51
-123.773288
  6
CONTINUOUS
  0
ARC
  8
WHITE
 10
5.393433
 20
12.102015
 30
0.000000
 40
2.844965
 50
-6.328285
 51
2.322298
  6
CONTINUOUS
  0
ARC
  8
WHITE
 10
8.698677
 20
12.221172
 30
0.000000
 40
0.462632
 50
151.581099
 51
180.480134
  6
CONTINUOUS
  0
ARC
  8
WHITE
 10
8.243245
 20
12.477393
 30
0.000000
 40
0.060471
 50
-36.593108
 51
20.886482
  6
CONTINUOUS
  0
ARC
  8
WHITE
 10
8.402235
 20
12.529780
 30
0.000000
 40
0.107028
 50
171.564649
 51
196.740404
  6
CONTINUOUS
  0
ARC
  8
WHITE
 10
8.265556
 20
12.555601
 30
0.000000
 40
0.032428
 50
-18.185217
 51
139.905314
  6
CONTINUOUS
  0
ARC
  8
WHITE
 10
9.747002
 20
11.839080
 30
0.000000
 40
1.677071
 50
153.915330
 51
177.278581
  6
CONTINUOUS
  0
ARC
  8
WHITE
 10
7.983876
 20
11.927556
 30
0.000000
 40
0.088391
 50
-107.269140
 51
-5.745531
  6
CONTINUOUS
  0
ARC
  8
WHITE
 10
7.932749
 20
11.741020
 30
0.000000
 40
0.105118
 50
76.304683
 51
150.591491
  6
CONTINUOUS
  0
ARC
  8
WHITE
 10
8.746033
 20
11.586422
 30
0.000000
 40
0.928058
 50
167.161735
 51
187.091504
  6
CONTINUOUS
  0
ARC
  8
WHITE
 10
7.788636
 20
11.479724
 30
0.000000
 40
0.037280
 50
-121.308283
 51
-12.193727
  6
CONTINUOUS
  0
ARC
  8
WHITE
 10
7.856495
 20
11.615817
 30
0.000000
 40
0.189247
 50
168.150082
 51
242.552573
  6
CONTINUOUS
  0
ARC
  8
WHITE
 10
5.850532
 20
12.049091
 30
0.000000
 40
1.862978
 50
-12.222621
 51
16.254864
  6
CONTINUOUS
  0
ARC
  8
WHITE
 10
-8.896228
 20
8.635714
 30
0.000000
 40
16.997002
 50
13.385530
 51
15.243757
  6
CONTINUOUS
  0
ARC
  8
WHITE
 10
7.456642
 20
13.077625
 30
0.000000
 40
0.053455
 50
30.393045
 51
185.067143
  6
CONTINUOUS
  0
ARC
  8
WHITE
 10
4.636682
 20
12.333358
 30
0.000000
 40
2.863849
 50
-13.501829
 51
14.965360
  6
CONTINUOUS
  0
ARC
  8
WHITE
 10
7.374550
 20
11.688089
 30
0.000000
 40
0.052340
 50
-168.121779
 51
-26.523231
  6
CONTINUOUS
  0
ARC
  8
WHITE
 10
8.444572
 20
12.146292
 30
0.000000
 40
1.215369
 50
-171.766093
 51
-157.302148
  6
CONTINUOUS
  0
ARC
  8
WHITE
 10
11.247643
 20
13.765509
 30
0.000000
 40
4.388982
 50
-166.749130
 51
-155.883974
  6
CONTINUOUS
  0
ARC
  8
WHITE
 10
5.857470
 20
12.420662
 30
0.000000
 40
1.168257
 50
16.859558
 51
45.322371
  6
CONTINUOUS
  0
ARC
  8
WHITE
 10
6.650242
 20
13.238834
 30
0.000000
 40
0.031277
 50
23.647795
 51
220.504895
  6
CONTINUOUS
  0
ARC
  8
WHITE
 10
2.953131
 20
11.531922
 30
0.000000
 40
4.042025
 50
16.162962
 51
24.662073
  6
CONTINUOUS
  0
ARC
  8
WHITE
 10
10.056441
 20
13.292346
 30
0.000000
 40
3.283093
 50
-168.843497
 51
-161.420892
  6
CONTINUOUS
  0
ARC
  8
WHITE
 10
6.834500
 20
12.191787
 30
0.000000
 40
0.122722
 50
-20.326329
 51
26.375874
  6
CONTINUOUS
  0
ARC
  8
WHITE
 10
7.192918
 20
12.056702
 30
0.000000
 40
0.260310
 50
159.196017
 51
189.018006
  6
CONTINUOUS
  0
ARC
  8
WHITE
 10
6.891936
 20
12.008563
 30
0.000000
 40
0.044499
 50
-142.010989
 51
9.490264
  6
CONTINUOUS
  0
ARC
  8
WHITE
 10
9.399789
 20
13.720793
 30
0.000000
 40
3.081028
 50
-166.366075
 51
-145.623877
  6
CONTINUOUS
  0
ARC
  8
WHITE
 10
6.937507
 20
13.141598
 30
0.000000
 40
0.551882
 50
-177.169967
 51
-164.545982
  6
CONTINUOUS
  0
ARC
  8
WHITE
 10
6.354904
 20
13.106431
 30
0.000000
 40
0.032377
 50
14.156958
 51
161.542324
  6
CONTINUOUS
  0
ARC
  8
WHITE
 10
8.044823
 20
12.963836
 30
0.000000
 40
1.727405
 50
174.923658
 51
182.762453
  6
CONTINUOUS
  0
ARC
  8
WHITE
 10
12.409647
 20
13.735890
 30
0.000000
 40
6.149988
 50
-172.005702
 51
-165.838864
  6
CONTINUOUS
  0
ARC
  8
WHITE
 10
6.399322
 20
12.217751
 30
0.000000
 40
0.049130
 50
-133.344114
 51
16.005065
  6
CONTINUOUS
  0
ARC
  8
WHITE
 10
7.643696
 20
13.403031
 30
0.000000
 40
1.767595
 50
-162.947395
 51
-136.308567
  6
CONTINUOUS
  0
ARC
  8
WHITE
 10
5.916829
 20
12.870485
 30
0.000000
 40
0.039615
 50
21.003916
 51
169.265051
  6
CONTINUOUS
  0
ARC
  8
WHITE
 10
7.296885
 20
12.945318
 30
0.000000
 40
1.420580
 50
-177.278365
 51
-154.678544
  6
CONTINUOUS
  0
ARC
  8
WHITE
 10
5.960152
 20
12.302797
 30
0.000000
 40
0.063182
 50
-141.892126
 51
33.578023
  6
CONTINUOUS
  0
ARC
  8
WHITE
 10
6.840926
 20
13.022695
 30
0.000000
 40
1.200718
 50
-171.100206
 51
-140.799957
  6
CONTINUOUS
  0
ARC
  8
WHITE
 10
5.625900
 20
12.836762
 30
0.000000
 40
0.028765
 50
0.345909
 51
164.388069
  6
CONTINUOUS
  0
ARC
  8
WHITE
 10
5.138302
 20
12.763094
 30
0.000000
 40
0.467043
 50
-8.358454
 51
10.038387
  6
CONTINUOUS
  0
ARC
  8
WHITE
 10
6.364287
 20
12.618734
 30
0.000000
 40
0.767721
 50
174.283658
 51
196.935424
  6
CONTINUOUS
  0
ARC
  8
WHITE
 10
5.564758
 20
12.360553
 30
0.000000
 40
0.073701
 50
-37.843106
 51
27.954081
  6
CONTINUOUS
  0
ARC
  8
WHITE
 10
5.565488
 20
12.459622
 30
0.000000
 40
0.155309
 50
-105.325418
 51
-68.281743
  6
CONTINUOUS
  0
ARC
  8
WHITE
 10
5.604979
 20
12.584112
 30
0.000000
 40
0.285857
 50
-162.450351
 51
-106.364454
  6
CONTINUOUS
  0
ARC
  8
WHITE
 10
4.346969
 20
12.101872
 30
0.000000
 40
1.062064
 50
21.894667
 51
40.740905
  6
CONTINUOUS
  0
ARC
  8
WHITE
 10
5.124558
 20
12.785293
 30
0.000000
 40
0.028795
 50
19.736991
 51
200.704163
  6
CONTINUOUS
  0
ARC
  8
WHITE
 10
6.573518
 20
13.006035
 30
0.000000
 40
1.493851
 50
-171.107448
 51
-115.202372
  6
CONTINUOUS
  0
ARC
  8
WHITE
 10
5.555968
 20
10.675393
 30
0.000000
 40
1.050678
 50
52.860287
 51
68.712657
  6
CONTINUOUS
  0
ARC
  8
WHITE
 10
8.516682
 20
13.910235
 30
0.000000
 40
3.340490
 50
-134.139818
 51
-96.067518
  6
CONTINUOUS
  0
ARC
  8
WHITE
 10
8.162822
 20
10.559402
 30
0.000000
 40
0.029066
 50
-77.314277
 51
88.483480
  6
CONTINUOUS
  0
ARC
  8
WHITE
 10
7.335386
 20
11.484076
 30
0.000000
 40
1.266302
 50
-96.940309
 51
-48.816884
  6
CONTINUOUS
  0
ARC
  8
WHITE
 10
6.386580
 20
8.438839
 30
0.000000
 40
1.957292
 50
66.009945
 51
72.403723
  6
CONTINUOUS
  0
ARC
  8
WHITE
 10
7.062250
 20
10.619809
 30
0.000000
 40
0.326249
 50
-134.295187
 51
-104.913715
  6
CONTINUOUS
  0
ARC
  8
WHITE
 10
6.700876
 20
10.235641
 30
0.000000
 40
0.201318
 50
48.447243
 51
74.770360
  6
CONTINUOUS
  0
ARC
  8
WHITE
 10
6.601923
 20
9.964132
 30
0.000000
 40
0.489882
 50
71.944020
 51
100.125377
  6
CONTINUOUS
  0
ARC
  8
WHITE
 10
6.479145
 20
10.492177
 30
0.000000
 40
0.058658
 50
-138.762754
 51
-51.324204
  6
CONTINUOUS
  0
ARC
  8
WHITE
 10
6.383381
 20
10.361594
 30
0.000000
 40
0.105436
 50
60.665666
 51
120.322168
  6
CONTINUOUS
  0
ARC
  8
WHITE
 10
6.210242
 20
10.731561
 30
0.000000
 40
0.303633
 50
-82.555268
 51
-66.739462
  6
CONTINUOUS
  0
ARC
  8
WHITE
 10
6.238438
 20
10.339874
 30
0.000000
 40
0.091296
 50
82.987783
 51
124.011076
  6
CONTINUOUS
  0
ARC
  8
WHITE
 10
6.520498
 20
9.990295
 30
0.000000
 40
0.540201
 50
128.073513
 51
159.177610
  6
CONTINUOUS
  0
ARC
  8
WHITE
 10
5.196281
 20
10.566121
 30
0.000000
 40
0.904738
 50
-44.121188
 51
-25.100690
  6
CONTINUOUS
  0
ARC
  8
WHITE
 10
6.046955
 20
9.620928
 30
0.000000
 40
0.374049
 50
122.538798
 51
168.398759
  6
CONTINUOUS
  0
ARC
  8
WHITE
 10
5.474647
 20
9.692121
 30
0.000000
 40
0.205939
 50
-42.395886
 51
1.120792
  6
CONTINUOUS
  0
ARC
  8
WHITE
 10
5.568986
 20
9.632272
 30
0.000000
 40
0.097861
 50
-105.372330
 51
-53.835396
  6
CONTINUOUS
  0
ARC
  8
WHITE
 10
5.509970
 20
9.451096
 30
0.000000
 40
0.092902
 50
69.145230
 51
122.275333
  6
CONTINUOUS
  0
ARC
  8
WHITE
 10
5.466204
 20
9.511143
 30
0.000000
 40
0.019402
 50
107.526166
 51
239.052763
  6
CONTINUOUS
  0
LINE
  8
WHITE
 10
5.456227
 20
9.494504
 30
0.000000
 11
5.499635
 21
9.469699
 31
0.000000
  6
CONTINUOUS
  0
ARC
  8
WHITE
 10
5.474465
 20
9.455478
 30
0.000000
 40
0.028910
 50
-29.466779
 51
29.466777
  6
CONTINUOUS
  0
LINE
  8
WHITE
 10
5.499635
 20
9.441256
 30
0.000000
 11
5.481032
 21
9.402031
 31
0.000000
  6
CONTINUOUS
  0
ARC
  8
WHITE
 10
5.270369
 20
9.581664
 30
0.000000
 40
0.276852
 50
-80.678548
 51
-40.454429
  6
CONTINUOUS
  0
ARC
  8
WHITE
 10
5.309084
 20
9.181196
 30
0.000000
 40
0.127419
 50
87.243497
 51
134.287270
  6
CONTINUOUS
  0
ARC
  8
WHITE
 10
5.190116
 20
9.293836
 30
0.000000
 40
0.036863
 50
178.667780
 51
324.462323
  6
CONTINUOUS
  0
ARC
  8
WHITE
 10
4.142242
 20
9.130781
 30
0.000000
 40
1.024221
 50
9.208951
 51
26.045019
  6
CONTINUOUS
  0
ARC
  8
WHITE
 10
6.144275
 20
10.119727
 30
0.000000
 40
1.208765
 50
-173.043254
 51
-153.506060
  6
CONTINUOUS
  0
ARC
  8
WHITE
 10
4.626197
 20
9.900709
 30
0.000000
 40
0.326391
 50
12.854211
 51
73.611628
  6
CONTINUOUS
  0
ARC
  8
WHITE
 10
4.524500
 20
9.679873
 30
0.000000
 40
0.568044
 50
70.053062
 51
103.689682
  6
CONTINUOUS
  0
ARC
  8
WHITE
 10
4.371820
 20
10.308959
 30
0.000000
 40
0.079306
 50
-159.424902
 51
-76.699727
  6
CONTINUOUS
  0
ARC
  8
WHITE
 10
1.513133
 20
9.296795
 30
0.000000
 40
2.953292
 50
19.468380
 51
32.357861
  6
CONTINUOUS
  0
ARC
  8
WHITE
 10
3.951907
 20
10.854440
 30
0.000000
 40
0.060470
 50
22.328477
 51
83.931414
  6
CONTINUOUS
  0
ARC
  8
WHITE
 10
3.945811
 20
10.996997
 30
0.000000
 40
0.083365
 50
-124.987372
 51
-81.384569
  6
CONTINUOUS
  0
ARC
  8
WHITE
 10
4.504682
 20
11.782977
 30
0.000000
 40
1.047781
 50
-139.299125
 51
-125.380696
  6
CONTINUOUS
  0
ARC
  8
WHITE
 10
5.759334
 20
12.638071
 30
0.000000
 40
2.562218
 50
-158.768881
 51
-143.101265
  6
CONTINUOUS
  0
ARC
  8
WHITE
 10
3.070835
 20
11.578789
 30
0.000000
 40
0.327695
 50
23.644177
 51
79.087730
  6
CONTINUOUS
  0
ARC
  8
WHITE
 10
3.637881
 20
14.196139
 30
0.000000
 40
2.350474
 50
-110.182761
 51
-102.407033
  6
CONTINUOUS
  0
ARC
  8
WHITE
 10
2.453895
 20
10.886187
 30
0.000000
 40
1.165135
 50
71.327095
 51
91.261418
  6
CONTINUOUS
  0
ARC
  8
WHITE
 10
2.402372
 20
12.231737
 30
0.000000
 40
0.182540
 50
-159.298377
 51
-81.851350
  6
CONTINUOUS
  0
ARC
  8
WHITE
 10
1.081898
 20
12.183753
 30
0.000000
 40
1.149839
 50
-0.824431
 51
16.510944
  6
CONTINUOUS
  0
ARC
  8
WHITE
 10
2.161311
 20
12.511064
 30
0.000000
 40
0.023019
 50
-1.314883
 51
187.403354
  6
CONTINUOUS
  0
ARC
  8
WHITE
 10
1.014721
 20
12.418420
 30
0.000000
 40
1.127335
 50
-49.472951
 51
4.562627
  6
CONTINUOUS
  0
ARC
  8
WHITE
 10
1.851186
 20
11.464091
 30
0.000000
 40
0.142454
 50
136.841405
 51
189.581547
  6
CONTINUOUS
  0
ARC
  8
WHITE
 10
1.595909
 20
11.513263
 30
0.000000
 40
0.135990
 50
-61.350421
 51
-32.408102
  6
CONTINUOUS
  0
ARC
  8
WHITE
 10
1.682052
 20
11.380280
 30
0.000000
 40
0.024994
 50
146.918671
 51
213.081329
  6
CONTINUOUS
  0
ARC
  8
WHITE
 10
1.705780
 20
11.395766
 30
0.000000
 40
0.053328
 50
-146.892461
 51
-91.355930
  6
CONTINUOUS
  0
ARC
  8
WHITE
 10
1.780779
 20
11.634210
 30
0.000000
 40
0.301559
 50
-104.648518
 51
-58.742749
  6
CONTINUOUS
  0
ARC
  8
WHITE
 10
1.944546
 20
11.357467
 30
0.000000
 40
0.020310
 50
-6.680313
 51
111.043369
  6
CONTINUOUS
  0
ARC
  8
WHITE
 10
1.293768
 20
11.413039
 30
0.000000
 40
0.673447
 50
-54.171036
 51
-4.935087
  6
CONTINUOUS
  0
ARC
  8
WHITE
 10
1.735907
 20
10.786179
 30
0.000000
 40
0.093988
 50
120.657754
 51
229.479640
  6
CONTINUOUS
  0
ARC
  8
WHITE
 10
1.768269
 20
10.896117
 30
0.000000
 40
0.204033
 50
-117.251910
 51
-76.231162
  6
CONTINUOUS
  0
ARC
  8
WHITE
 10
1.816830
 20
10.672124
 30
0.000000
 40
0.025823
 50
-22.981860
 51
90.000000
  6
CONTINUOUS
  0
ARC
  8
WHITE
 10
1.472366
 20
10.807382
 30
0.000000
 40
0.395882
 50
-72.349492
 51
-21.538770
  6
CONTINUOUS
  0
ARC
  8
WHITE
 10
1.608715
 20
10.407481
 30
0.000000
 40
0.027918
 50
125.757114
 51
249.850392
  6
CONTINUOUS
  0
ARC
  8
WHITE
 10
1.629338
 20
10.440984
 30
0.000000
 40
0.066934
 50
-116.858291
 51
-79.938393
  6
CONTINUOUS
  0
ARC
  8
WHITE
 10
1.641032
 20
10.325488
 30
0.000000
 40
0.049592
 50
-38.739251
 51
90.000000
  6
CONTINUOUS
  0
ARC
  8
WHITE
 10
1.143827
 20
10.694081
 30
0.000000
 40
0.668487
 50
-77.997778
 51
-36.712941
  6
CONTINUOUS
  0
ARC
  8
WHITE
 10
1.267603
 20
9.902988
 30
0.000000
 40
0.138062
 50
83.664363
 51
157.325923
  6
CONTINUOUS
  0
ARC
  8
WHITE
 10
1.180895
 20
9.936337
 30
0.000000
 40
0.045277
 50
153.966474
 51
206.033527
  6
CONTINUOUS
  0
ARC
  8
WHITE
 10
1.202409
 20
9.943858
 30
0.000000
 40
0.067962
 50
-156.230560
 51
-66.320073
  6
CONTINUOUS
  0
ARC
  8
WHITE
 10
1.262270
 20
9.696482
 30
0.000000
 40
0.187979
 50
49.354523
 51
99.976472
  6
CONTINUOUS
  0
ARC
  8
WHITE
 10
1.375501
 20
9.809953
 30
0.000000
 40
0.030580
 50
-51.686962
 51
72.464474
  6
CONTINUOUS
  0
ARC
  8
WHITE
 10
0.957773
 20
10.457352
 30
0.000000
 40
0.800915
 50
-76.529231
 51
-56.959290
  6
CONTINUOUS
  0
ARC
  8
WHITE
 10
1.164105
 20
9.643663
 30
0.000000
 40
0.040026
 50
119.582073
 51
237.656620
  6
CONTINUOUS
  0
ARC
  8
WHITE
 10
1.332645
 20
9.802770
 30
0.000000
 40
0.270744
 50
-134.555394
 51
-72.815744
  6
CONTINUOUS
  0
ARC
  8
WHITE
 10
0.860014
 20
11.201409
 30
0.000000
 40
1.747003
 50
-71.559179
 51
-57.748335
  6
CONTINUOUS
  0
ARC
  8
WHITE
 10
1.832693
 20
9.671790
 30
0.000000
 40
0.065979
 50
-42.040142
 51
127.767796
  6
CONTINUOUS
  0
ARC
  8
WHITE
 10
1.063705
 20
9.857402
 30
0.000000
 40
0.849654
 50
-59.885097
 51
-15.691462
  6
CONTINUOUS
  0
ARC
  8
WHITE
 10
1.550985
 20
8.784332
 30
0.000000
 40
0.343556
 50
100.223577
 51
152.095001
  6
CONTINUOUS
  0
ARC
  8
WHITE
 10
1.123442
 20
8.951397
 30
0.000000
 40
0.124093
 50
-33.410335
 51
-2.900083
  6
CONTINUOUS
  0
ARC
  8
WHITE
 10
1.241461
 20
8.863316
 30
0.000000
 40
0.024463
 50
126.156071
 51
299.896475
  6
CONTINUOUS
  0
ARC
  8
WHITE
 10
1.293788
 20
8.753963
 30
0.000000
 40
0.096852
 50
80.847709
 51
114.480765
  6
CONTINUOUS
  0
ARC
  8
WHITE
 10
1.161097
 20
8.332897
 30
0.000000
 40
0.537490
 50
53.108081
 51
74.006153
  6
CONTINUOUS
  0
ARC
  8
WHITE
 10
1.536467
 20
8.819315
 30
0.000000
 40
0.077307
 50
-132.987781
 51
-49.075834
  6
CONTINUOUS
  0
ARC
  8
WHITE
 10
1.752116
 20
8.537146
 30
0.000000
 40
0.278021
 50
112.624697
 51
126.406588
  6
CONTINUOUS
  0
ARC
  8
WHITE
 10
1.667628
 20
8.771830
 30
0.000000
 40
0.031402
 50
-12.230691
 51
135.674337
  6
CONTINUOUS
  0
ARC
  8
WHITE
 10
0.057614
 20
9.309192
 30
0.000000
 40
1.728543
 50
-36.742587
 51
-18.344183
  6
CONTINUOUS
  0
ARC
  8
WHITE
 10
1.015825
 20
8.611743
 30
0.000000
 40
0.543658
 50
-88.654515
 51
-38.253426
  6
CONTINUOUS
  0
ARC
  8
WHITE
 10
1.031317
 20
7.745653
 30
0.000000
 40
0.322593
 50
90.484290
 51
165.388892
  6
CONTINUOUS
  0
ARC
  8
WHITE
 10
0.750878
 20
7.827029
 30
0.000000
 40
0.031721
 50
180.000000
 51
266.083445
  6
CONTINUOUS
  0
ARC
  8
WHITE
 10
0.551070
 20
5.880747
 30
0.000000
 40
1.924809
 50
72.950901
 51
84.106428
  6
CONTINUOUS
  0
ARC
  8
WHITE
 10
1.100718
 20
7.638822
 30
0.000000
 40
0.083450
 50
33.006205
 51
79.861662
  6
CONTINUOUS
  0
ARC
  8
WHITE
 10
1.290486
 20
7.763310
 30
0.000000
 40
0.143508
 50
-146.584607
 51
-80.548787
  6
CONTINUOUS
  0
ARC
  8
WHITE
 10
1.143792
 20
8.882963
 30
0.000000
 40
1.272653
 50
-82.311749
 51
-64.866609
  6
CONTINUOUS
  0
ARC
  8
WHITE
 10
1.739363
 20
7.673649
 30
0.000000
 40
0.079348
 50
80.791667
 51
133.921769
  6
CONTINUOUS
  0
ARC
  8
WHITE
 10
1.765092
 20
7.712393
 30
0.000000
 40
0.041671
 50
-38.870702
 51
108.222419
  6
CONTINUOUS
  0
ARC
  8
WHITE
 10
1.903465
 20
7.610022
 30
0.000000
 40
0.130501
 50
144.263975
 51
200.456366
  6
CONTINUOUS
  0
ARC
  8
WHITE
 10
0.349842
 20
8.766688
 30
0.000000
 40
1.869287
 50
-65.962339
 51
-40.028846
  6
CONTINUOUS
  0
ARC
  8
WHITE
 10
1.130346
 20
7.038701
 30
0.000000
 40
0.028227
 50
132.508626
 51
231.361840
  6
CONTINUOUS
  0
ARC
  8
WHITE
 10
1.364568
 20
7.150367
 30
0.000000
 40
0.285143
 50
-152.034610
 51
-89.132002
  6
CONTINUOUS
  0
ARC
  8
WHITE
 10
1.364813
 20
6.830657
 30
0.000000
 40
0.034839
 50
-75.068396
 51
83.283715
  6
CONTINUOUS
  0
ARC
  8
WHITE
 10
1.359516
 20
6.557399
 30
0.000000
 40
0.240020
 50
86.590698
 51
136.512445
  6
CONTINUOUS
  0
ARC
  8
WHITE
 10
0.671574
 20
8.620538
 30
0.000000
 40
1.966275
 50
-93.594659
 51
-74.852353
  6
CONTINUOUS
  0
ARC
  8
WHITE
 10
0.543970
 20
6.632499
 30
0.000000
 40
0.025994
 50
80.426138
 51
227.160979
  6
CONTINUOUS
  0
ARC
  8
WHITE
 10
0.792020
 20
6.739495
 30
0.000000
 40
0.294109
 50
-154.620861
 51
-105.526077
  6
CONTINUOUS
  0
ARC
  8
WHITE
 10
0.732065
 20
6.360684
 30
0.000000
 40
0.097264
 50
43.816164
 51
101.127530
  6
CONTINUOUS
  0
ARC
  8
WHITE
 10
0.788003
 20
6.406477
 30
0.000000
 40
0.025830
 50
-53.736136
 51
56.531897
  6
CONTINUOUS
  0
ARC
  8
WHITE
 10
0.964360
 20
6.008082
 30
0.000000
 40
0.410492
 50
113.104180
 51
123.894341
  6
CONTINUOUS
  0
ARC
  8
WHITE
 10
0.797174
 20
6.276378
 30
0.000000
 40
0.095175
 50
130.435495
 51
153.055559
  6
CONTINUOUS
  0
ARC
  8
WHITE
 10
0.737799
 20
6.294588
 30
0.000000
 40
0.035629
 50
135.627959
 51
211.399594
  6
CONTINUOUS
  0
ARC
  8
WHITE
 10
0.780015
 20
6.328353
 30
0.000000
 40
0.089515
 50
-144.227720
 51
-91.930772
  6
CONTINUOUS
  0
ARC
  8
WHITE
 10
0.797714
 20
6.080385
 30
0.000000
 40
0.159851
 50
57.685781
 51
97.445693
  6
CONTINUOUS
  0
ARC
  8
WHITE
 10
0.928543
 20
6.268323
 30
0.000000
 40
0.069653
 50
-130.654616
 51
-43.603837
  6
CONTINUOUS
  0
ARC
  8
WHITE
 10
1.003128
 20
6.176970
 30
0.000000
 40
0.049591
 50
56.280981
 51
119.138891
  6
CONTINUOUS
  0
ARC
  8
WHITE
 10
1.869070
 20
7.013740
 30
0.000000
 40
1.155764
 50
-136.503683
 51
-129.922261
  6
CONTINUOUS
  0
ARC
  8
WHITE
 10
1.098802
 20
6.105164
 30
0.000000
 40
0.036174
 50
-55.436302
 51
37.862352
  6
CONTINUOUS
  0
ARC
  8
WHITE
 10
0.738040
 20
6.472899
 30
0.000000
 40
0.550821
 50
-81.592756
 51
-46.194625
  6
CONTINUOUS
  0
ARC
  8
WHITE
 10
0.829301
 20
5.860957
 30
0.000000
 40
0.067893
 50
99.090878
 51
245.157105
  6
CONTINUOUS
  0
ARC
  8
WHITE
 10
1.516882
 20
7.012182
 30
0.000000
 40
1.408465
 50
-120.559262
 51
-88.292485
  6
CONTINUOUS
  0
ARC
  8
WHITE
 10
1.558851
 20
5.563734
 30
0.000000
 40
0.040608
 50
-10.072128
 51
90.000000
  6
CONTINUOUS
  0
ARC
  8
WHITE
 10
1.427578
 20
5.595098
 30
0.000000
 40
0.175522
 50
-62.834919
 51
-12.659277
  6
CONTINUOUS
  0
ARC
  8
WHITE
 10
1.101575
 20
6.017565
 30
0.000000
 40
0.706936
 50
-104.619503
 51
-54.935017
  6
CONTINUOUS
  0
ARC
  8
WHITE
 10
0.912245
 20
5.253699
 30
0.000000
 40
0.080559
 50
82.223613
 51
226.390068
  6
CONTINUOUS
  0
ARC
  8
WHITE
 10
1.044404
 20
5.331760
 30
0.000000
 40
0.232040
 50
-143.999771
 51
-90.892966
  6
CONTINUOUS
  0
ARC
  8
WHITE
 10
1.024325
 20
5.044126
 30
0.000000
 40
0.058007
 50
-46.563637
 51
73.512721
  6
CONTINUOUS
  0
ARC
  8
WHITE
 10
1.120005
 20
4.655971
 30
0.000000
 40
0.350503
 50
99.159946
 51
154.549957
  6
CONTINUOUS
  0
ARC
  8
WHITE
 10
0.676843
 20
4.853150
 30
0.000000
 40
0.134957
 50
-81.714830
 51
-20.181386
  6
CONTINUOUS
  0
ARC
  8
WHITE
 10
0.712253
 20
4.567374
 30
0.000000
 40
0.153062
 50
95.986264
 51
157.794766
  6
CONTINUOUS
  0
ARC
  8
WHITE
 10
0.481705
 20
4.665155
 30
0.000000
 40
0.097401
 50
-81.982699
 51
-24.205153
  6
CONTINUOUS
  0
ARC
  8
WHITE
 10
0.507492
 20
4.541651
 30
0.000000
 40
0.029680
 50
114.276390
 51
247.096536
  6
CONTINUOUS
  0
ARC
  8
WHITE
 10
0.299593
 20
9.264320
 30
0.000000
 40
4.754065
 50
-87.632949
 51
-81.330590
  6
CONTINUOUS
  0
ARC
  8
WHITE
 10
0.990065
 20
4.782833
 30
0.000000
 40
0.219819
 50
-83.175009
 51
-42.314160
  6
CONTINUOUS
  0
ARC
  8
WHITE
 10
1.167162
 20
4.612193
 30
0.000000
 40
0.026927
 50
-32.703284
 51
122.702135
  6
CONTINUOUS
  0
ARC
  8
WHITE
 10
1.073115
 20
4.659383
 30
0.000000
 40
0.132030
 50
-72.528881
 51
-27.879122
  6
CONTINUOUS
  0
ARC
  8
WHITE
 10
1.128719
 20
4.500899
 30
0.000000
 40
0.036250
 50
116.131091
 51
258.687328
  6
CONTINUOUS
  0
ARC
  8
WHITE
 10
1.185497
 20
4.852589
 30
0.000000
 40
0.392471
 50
-99.368694
 51
-59.345608
  6
CONTINUOUS
  0
ARC
  8
WHITE
 10
1.421463
 20
4.463727
 30
0.000000
 40
0.062539
 50
-38.669111
 51
124.989767
  6
CONTINUOUS
  0
ARC
  8
WHITE
 10
0.337518
 20
5.131648
 30
0.000000
 40
1.335298
 50
-89.379170
 51
-31.969487
  6
CONTINUOUS
  0
ARC
  8
WHITE
 10
0.367874
 20
3.323360
 30
0.000000
 40
0.473335
 50
91.923456
 51
111.213550
  6
CONTINUOUS
  0
ARC
  8
WHITE
 10
0.249910
 20
3.693812
 30
0.000000
 40
0.088633
 50
126.975136
 51
216.898138
  6
CONTINUOUS
  0
ARC
  8
WHITE
 10
0.345742
 20
3.889183
 30
0.000000
 40
0.299312
 50
-123.847395
 51
-76.757958
  6
CONTINUOUS
  0
ARC
  8
WHITE
 10
0.525416
 20
3.157886
 30
0.000000
 40
0.453758
 50
78.808222
 51
104.174243
  6
CONTINUOUS
  0
ARC
  8
WHITE
 10
0.694954
 20
3.717525
 30
0.000000
 40
0.140532
 50
-125.429209
 51
-81.365390
  6
CONTINUOUS
  0
ARC
  8
WHITE
 10
0.720939
 20
3.537957
 30
0.000000
 40
0.040921
 50
-85.841750
 51
96.859100
  6
CONTINUOUS
  0
ARC
  8
WHITE
 10
0.733419
 20
3.459019
 30
0.000000
 40
0.039294
 50
104.009325
 51
266.230347
  6
CONTINUOUS
  0
ARC
  8
WHITE
 10
0.733773
 20
3.376271
 30
0.000000
 40
0.043638
 50
-49.798955
 51
93.860204
  6
CONTINUOUS
  0
ARC
  8
WHITE
 10
0.312581
 20
3.885021
 30
0.000000
 40
0.704112
 50
-85.016492
 51
-50.342846
  6
CONTINUOUS
  0
ARC
  8
WHITE
 10
0.391879
 20
3.094582
 30
0.000000
 40
0.090817
 50
101.516978
 51
192.019562
  6
CONTINUOUS
  0
ARC
  8
WHITE
 10
0.280827
 20
3.079926
 30
0.000000
 40
0.022631
 50
-95.419247
 51
-10.839791
  6
CONTINUOUS
  0
ARC
  8
WHITE
 10
0.270584
 20
2.928595
 30
0.000000
 40
0.129056
 50
86.399037
 51
125.280356
  6
CONTINUOUS
  0
ARC
  8
WHITE
 10
0.248423
 20
2.966292
 30
0.000000
 40
0.085563
 50
127.746837
 51
286.027738
  6
CONTINUOUS
  0
ARC
  8
WHITE
 10
0.364628
 20
2.617463
 30
0.000000
 40
0.282210
 50
28.461295
 51
109.150840
  6
CONTINUOUS
  0
ARC
  8
WHITE
 10
0.627898
 20
2.755974
 30
0.000000
 40
0.015692
 50
-165.157057
 51
-67.971387
  6
CONTINUOUS
  0
ARC
  8
WHITE
 10
0.630928
 20
2.461335
 30
0.000000
 40
0.280107
 50
40.113116
 51
89.415859
  6
CONTINUOUS
  0
ARC
  8
WHITE
 10
0.869612
 20
2.680197
 30
0.000000
 40
0.045523
 50
-122.508936
 51
-44.810126
  6
CONTINUOUS
  0
ARC
  8
WHITE
 10
1.151426
 20
2.041557
 30
0.000000
 40
0.655875
 50
97.501779
 51
112.360734
  6
CONTINUOUS
  0
ARC
  8
WHITE
 10
1.697060
 20
1.688672
 30
0.000000
 40
1.185240
 50
96.850269
 51
122.181477
  6
CONTINUOUS
  0
ARC
  8
WHITE
 10
1.578487
 20
2.826906
 30
0.000000
 40
0.044782
 50
-53.221600
 51
120.601730
  6
CONTINUOUS
  0
ARC
  8
WHITE
 10
0.903947
 20
3.266536
 30
0.000000
 40
0.847345
 50
-67.526643
 51
-34.136279
  6
CONTINUOUS
  0
ARC
  8
WHITE
 10
1.303968
 20
2.299209
 30
0.000000
 40
0.199430
 50
112.438251
 51
140.998964
  6
CONTINUOUS
  0
ARC
  8
WHITE
 10
0.864662
 20
2.546138
 30
0.000000
 40
0.309164
 50
-103.898099
 51
-23.125128
  6
CONTINUOUS
  0
ARC
  8
WHITE
 10
0.797682
 20
2.089245
 30
0.000000
 40
0.156949
 50
92.658536
 51
158.264682
  6
CONTINUOUS
  0
ARC
  8
WHITE
 10
0.469736
 20
2.278231
 30
0.000000
 40
0.224290
 50
-82.469303
 51
-35.694530
  6
CONTINUOUS
  0
ARC
  8
WHITE
 10
0.260391
 20
2.781949
 30
0.000000
 40
0.764316
 50
-99.508533
 51
-71.798669
  6
CONTINUOUS
  0
ARC
  8
WHITE
 10
0.147043
 20
1.955363
 30
0.000000
 40
0.073908
 50
100.061537
 51
253.880859
  6
CONTINUOUS
  0
ARC
  8
WHITE
 10
0.527420
 20
2.436593
 30
0.000000
 40
0.682407
 50
-125.978046
 51
-91.668101
  6
CONTINUOUS
  0
ARC
  8
WHITE
 10
0.470582
 20
1.682943
 30
0.000000
 40
0.080522
 50
1.031636
 51
62.666488
  6
CONTINUOUS
  0
ARC
  8
WHITE
 10
0.408292
 20
1.769755
 30
0.000000
 40
0.166368
 50
-93.994905
 51
-30.869739
  6
CONTINUOUS
  0
ARC
  8
WHITE
 10
0.414778
 20
1.376911
 30
0.000000
 40
0.227599
 50
94.555309
 51
186.993343
  6
CONTINUOUS
  0
ARC
  8
WHITE
 10
-0.245256
 20
1.904110
 30
0.000000
 40
0.704551
 50
-66.599104
 51
-51.962562
  6
CONTINUOUS
  0
ARC
  8
WHITE
 10
0.047767
 20
1.211603
 30
0.000000
 40
0.047767
 50
106.044279
 51
274.093121
  6
CONTINUOUS
  0
ARC
  8
WHITE
 10
0.223966
 20
0.547048
 30
0.000000
 40
0.640650
 50
67.553664
 51
105.646915
  6
CONTINUOUS
  0
ARC
  8
WHITE
 10
0.889667
 20
1.713765
 30
0.000000
 40
0.712381
 50
-126.235263
 51
-87.538320
  6
CONTINUOUS
  0
ARC
  8
WHITE
 10
1.234833
 20
2.374244
 30
0.000000
 40
1.407797
 50
-102.911575
 51
-77.088425
  6
CONTINUOUS
  0
ARC
  8
WHITE
 10
1.666546
 20
0.730947
 30
0.000000
 40
0.295323
 50
59.693451
 51
113.370091
  6
CONTINUOUS
  0
ARC
  8
WHITE
 10
4.736166
 20
9.193925
 30
0.000000
 40
0.013449
 50
-124.118400
 51
-21.798843
  6
CONTINUOUS
  0
ARC
  8
WHITE
 10
4.762984
 20
9.180962
 30
0.000000
 40
0.016397
 50
71.010468
 51
150.921332
  6
CONTINUOUS
  0
ARC
  8
WHITE
 10
4.849594
 20
9.462217
 30
0.000000
 40
0.277901
 50
-107.005306
 51
-57.847714
  6
CONTINUOUS
  0
ARC
  8
WHITE
 10
4.608528
 20
9.285518
 30
0.000000
 40
0.393344
 50
-8.565167
 51
33.816238
  6
CONTINUOUS
  0
ARC
  8
WHITE
 10
5.068589
 20
9.632830
 30
0.000000
 40
0.185056
 50
-170.806496
 51
-136.063402
  6
CONTINUOUS
  0
ARC
  8
WHITE
 10
4.341355
 20
9.594551
 30
0.000000
 40
0.544625
 50
0.916594
 51
39.584492
  6
CONTINUOUS
  0
ARC
  8
WHITE
 10
4.326089
 20
9.394814
 30
0.000000
 40
0.698709
 50
51.495368
 51
68.838751
  6
CONTINUOUS
  0
ARC
  8
WHITE
 10
4.488640
 20
9.263340
 30
0.000000
 40
0.788187
 50
83.466835
 51
101.217146
  6
CONTINUOUS
  0
ARC
  8
WHITE
 10
4.272080
 20
10.276785
 30
0.000000
 40
0.248496
 50
-162.252372
 51
-75.257667
  6
CONTINUOUS
  0
ARC
  8
WHITE
 10
3.267496
 20
10.051453
 30
0.000000
 40
0.782347
 50
11.022783
 51
34.883921
  6
CONTINUOUS
  0
ARC
  8
WHITE
 10
4.857633
 20
11.352282
 30
0.000000
 40
1.275805
 50
-153.115809
 51
-138.017423
  6
CONTINUOUS
  0
ARC
  8
WHITE
 10
3.140661
 20
10.496288
 30
0.000000
 40
0.642801
 50
25.732952
 51
55.276209
  6
CONTINUOUS
  0
ARC
  8
WHITE
 10
4.500921
 20
12.182566
 30
0.000000
 40
1.526142
 50
-155.301968
 51
-130.646136
  6
CONTINUOUS
  0
ARC
  8
WHITE
 10
2.911019
 20
11.264764
 30
0.000000
 40
0.346162
 50
54.020866
 51
90.574986
  6
CONTINUOUS
  0
ARC
  8
WHITE
 10
3.725895
 20
15.057318
 30
0.000000
 40
3.542236
 50
-109.318112
 51
-103.357506
  6
CONTINUOUS
  0
ARC
  8
WHITE
 10
2.542296
 20
11.682070
 30
0.000000
 40
0.034525
 50
70.046174
 51
227.425193
  6
CONTINUOUS
  0
ARC
  8
WHITE
 10
2.503435
 20
11.618405
 30
0.000000
 40
0.041264
 50
-22.067648
 51
67.932425
  6
CONTINUOUS
  0
ARC
  8
WHITE
 10
2.486900
 20
11.632874
 30
0.000000
 40
0.062441
 50
-118.686095
 51
-28.686095
  6
CONTINUOUS
  0
ARC
  8
WHITE
 10
2.436300
 20
11.564219
 30
0.000000
 40
0.024862
 50
33.931895
 51
214.940759
  6
CONTINUOUS
  0
ARC
  8
WHITE
 10
2.765777
 20
11.743060
 30
0.000000
 40
0.399600
 50
-151.106492
 51
-110.220355
  6
CONTINUOUS
  0
ARC
  8
WHITE
 10
2.615260
 20
11.342453
 30
0.000000
 40
0.028478
 50
-25.817854
 51
64.182147
  6
CONTINUOUS
  0
ARC
  8
WHITE
 10
2.593330
 20
11.395251
 30
0.000000
 40
0.080707
 50
-120.624433
 51
-53.888371
  6
CONTINUOUS
  0
ARC
  8
WHITE
 10
2.471780
 20
11.202999
 30
0.000000
 40
0.146800
 50
56.774601
 51
108.203245
  6
CONTINUOUS
  0
ARC
  8
WHITE
 10
2.453013
 20
11.251499
 30
0.000000
 40
0.094903
 50
106.586575
 51
213.902733
  6
CONTINUOUS
  0
ARC
  8
WHITE
 10
3.212543
 20
11.402510
 30
0.000000
 40
0.862750
 50
-166.326390
 51
-125.909746
  6
CONTINUOUS
  0
ARC
  8
WHITE
 10
2.569622
 20
10.494961
 30
0.000000
 40
0.249659
 50
21.364094
 51
56.743763
  6
CONTINUOUS
  0
ARC
  8
WHITE
 10
2.697695
 20
10.628395
 30
0.000000
 40
0.112742
 50
-84.476165
 51
-22.137698
  6
CONTINUOUS
  0
ARC
  8
WHITE
 10
2.664300
 20
10.759543
 30
0.000000
 40
0.247356
 50
-124.177219
 51
-79.695508
  6
CONTINUOUS
  0
ARC
  8
WHITE
 10
2.501773
 20
10.517470
 30
0.000000
 40
0.044239
 50
57.799779
 51
216.886288
  6
CONTINUOUS
  0
ARC
  8
WHITE
 10
3.397247
 20
11.120403
 30
0.000000
 40
1.123721
 50
-145.931694
 51
-129.666018
  6
CONTINUOUS
  0
ARC
  8
WHITE
 10
2.652154
 20
10.216490
 30
0.000000
 40
0.047815
 50
-58.305948
 51
54.437908
  6
CONTINUOUS
  0
ARC
  8
WHITE
 10
2.720821
 20
9.995329
 30
0.000000
 40
0.185656
 50
103.565028
 51
129.235159
  6
CONTINUOUS
  0
ARC
  8
WHITE
 10
2.672512
 20
10.091823
 30
0.000000
 40
0.083758
 50
145.611524
 51
208.347826
  6
CONTINUOUS
  0
ARC
  8
WHITE
 10
2.944577
 20
10.408471
 30
0.000000
 40
0.496585
 50
-134.131966
 51
-108.169964
  6
CONTINUOUS
  0
ARC
  8
WHITE
 10
1.541494
 20
8.000265
 30
0.000000
 40
2.303834
 50
53.031161
 51
57.193406
  6
CONTINUOUS
  0
ARC
  8
WHITE
 10
3.394991
 20
10.783300
 30
0.000000
 40
1.052177
 50
-116.410991
 51
-98.452002
  6
CONTINUOUS
  0
ARC
  8
WHITE
 10
3.243733
 20
9.686784
 30
0.000000
 40
0.055870
 50
-90.000001
 51
93.480658
  6
CONTINUOUS
  0
ARC
  8
WHITE
 10
3.266186
 20
9.466067
 30
0.000000
 40
0.166368
 50
97.756250
 51
149.576546
  6
CONTINUOUS
  0
ARC
  8
WHITE
 10
3.155348
 20
9.519981
 30
0.000000
 40
0.044546
 50
137.082586
 51
232.625092
  6
CONTINUOUS
  0
ARC
  8
WHITE
 10
3.082380
 20
9.376472
 30
0.000000
 40
0.117460
 50
-78.151650
 51
66.982958
  6
CONTINUOUS
  0
ARC
  8
WHITE
 10
3.154775
 20
10.181526
 30
0.000000
 40
0.921277
 50
-118.315516
 51
-93.003858
  6
CONTINUOUS
  0
ARC
  8
WHITE
 10
2.678696
 20
9.309943
 30
0.000000
 40
0.072062
 50
57.146969
 51
201.387901
  6
CONTINUOUS
  0
ARC
  8
WHITE
 10
3.078146
 20
9.535751
 30
0.000000
 40
0.530297
 50
-151.616640
 51
-102.240684
  6
CONTINUOUS
  0
ARC
  8
WHITE
 10
2.792264
 20
8.546757
 30
0.000000
 40
0.501689
 50
55.700280
 51
69.773720
  6
CONTINUOUS
  0
ARC
  8
WHITE
 10
3.131323
 20
9.031547
 30
0.000000
 40
0.090129
 50
-128.694803
 51
-84.898839
  6
CONTINUOUS
  0
ARC
  8
WHITE
 10
3.115264
 20
8.611408
 30
0.000000
 40
0.331243
 50
42.388845
 51
85.832407
  6
CONTINUOUS
  0
ARC
  8
WHITE
 10
3.286862
 20
8.796593
 30
0.000000
 40
0.082404
 50
-56.005561
 51
27.559089
  6
CONTINUOUS
  0
ARC
  8
WHITE
 10
3.430091
 20
8.197123
 30
0.000000
 40
0.539962
 50
100.365743
 51
132.937692
  6
CONTINUOUS
  0
ARC
  8
WHITE
 10
2.886765
 20
8.933493
 30
0.000000
 40
0.383572
 50
-95.860453
 51
-62.771059
  6
CONTINUOUS
  0
ARC
  8
WHITE
 10
2.839675
 20
8.496606
 30
0.000000
 40
0.055884
 50
81.847278
 51
261.679914
  6
CONTINUOUS
  0
ARC
  8
WHITE
 10
2.568126
 20
8.002942
 30
0.000000
 40
0.511448
 50
36.193479
 51
58.993772
  6
CONTINUOUS
  0
ARC
  8
WHITE
 10
3.266072
 20
8.627798
 30
0.000000
 40
0.430766
 50
-131.457157
 51
-92.284587
  6
CONTINUOUS
  0
ARC
  8
WHITE
 10
3.242480
 20
8.290712
 30
0.000000
 40
0.093558
 50
-86.065288
 51
-32.935224
  6
CONTINUOUS
  0
ARC
  8
WHITE
 10
3.056373
 20
8.430961
 30
0.000000
 40
0.326426
 50
-35.836860
 51
-4.168662
  6
CONTINUOUS
  0
ARC
  8
WHITE
 10
3.674992
 20
8.370773
 30
0.000000
 40
0.295316
 50
114.512541
 51
172.908216
  6
CONTINUOUS
  0
ARC
  8
WHITE
 10
3.533599
 20
8.757983
 30
0.000000
 40
0.120004
 50
-80.953725
 51
-27.958008
  6
CONTINUOUS
  0
ARC
  8
WHITE
 10
4.145414
 20
8.545137
 30
0.000000
 40
0.529499
 50
136.513837
 51
162.799051
  6
CONTINUOUS
  0
ARC
  8
WHITE
 10
3.809312
 20
8.808048
 30
0.000000
 40
0.112289
 50
77.784819
 51
115.347076
  6
CONTINUOUS
  0
ARC
  8
WHITE
 10
3.835239
 20
8.941654
 30
0.000000
 40
0.023957
 50
-95.193148
 51
30.357588
  6
CONTINUOUS
  0
ARC
  8
WHITE
 10
3.746446
 20
8.893408
 30
0.000000
 40
0.125001
 50
28.870147
 51
57.035028
  6
CONTINUOUS
  0
ARC
  8
WHITE
 10
3.828500
 20
9.020667
 30
0.000000
 40
0.026421
 50
145.540478
 51
237.905767
  6
CONTINUOUS
  0
ARC
  8
WHITE
 10
3.947582
 20
8.910103
 30
0.000000
 40
0.188672
 50
77.141287
 51
138.298620
  6
CONTINUOUS
  0
ARC
  8
WHITE
 10
3.993197
 20
9.185099
 30
0.000000
 40
0.091128
 50
-92.280575
 51
-28.915771
  6
CONTINUOUS
  0
ARC
  8
WHITE
 10
4.174752
 20
8.989606
 30
0.000000
 40
0.182462
 50
90.940221
 51
123.907993
  6
CONTINUOUS
  0
ARC
  8
WHITE
 10
4.200077
 20
9.394774
 30
0.000000
 40
0.224524
 50
-97.245856
 51
-82.754144
  6
CONTINUOUS
  0
ARC
  8
WHITE
 10
4.271803
 20
9.088137
 30
0.000000
 40
0.094469
 50
62.645318
 51
117.354682
  6
CONTINUOUS
  0
ARC
  8
WHITE
 10
4.345496
 20
9.221660
 30
0.000000
 40
0.058129
 50
-121.398099
 51
-36.694449
  6
CONTINUOUS
  0
ARC
  8
WHITE
 10
4.467508
 20
9.125377
 30
0.000000
 40
0.097333
 50
81.546408
 51
140.776433
  6
CONTINUOUS
  0
ARC
  8
WHITE
 10
4.476953
 20
9.253975
 30
0.000000
 40
0.032687
 50
-81.443256
 51
-24.816969
  6
CONTINUOUS
  0
ARC
  8
WHITE
 10
4.516622
 20
9.228236
 30
0.000000
 40
0.015636
 50
0.000000
 51
129.760512
  6
CONTINUOUS
  0
ARC
  8
WHITE
 10
4.581458
 20
9.219985
 30
0.000000
 40
0.049888
 50
170.479812
 51
288.201271
  6
CONTINUOUS
  0
ARC
  8
WHITE
 10
4.677313
 20
8.990847
 30
0.000000
 40
0.198684
 50
75.033804
 51
113.829641
  6
CONTINUOUS
  0
ARC
  8
WHITE
 10
6.405574
 20
4.321060
 30
0.000000
 40
0.039842
 50
77.336107
 51
166.126939
  6
CONTINUOUS
  0
ARC
  8
WHITE
 10
-2.331147
 20
5.450638
 30
0.000000
 40
8.769856
 50
-17.066193
 51
-7.337453
  6
CONTINUOUS
  0
ARC
  8
WHITE
 10
6.269946
 20
2.750837
 30
0.000000
 40
0.251308
 50
149.894113
 51
193.723723
  6
CONTINUOUS
  0
ARC
  8
WHITE
 10
5.246056
 20
2.550133
 30
0.000000
 40
0.792417
 50
-8.811668
 51
10.255697
  6
CONTINUOUS
  0
ARC
  8
WHITE
 10
6.779256
 20
2.275137
 30
0.000000
 40
0.765701
 50
168.427323
 51
179.579798
  6
CONTINUOUS
  0
ARC
  8
WHITE
 10
5.399678
 20
2.316064
 30
0.000000
 40
0.614911
 50
-19.522995
 51
-3.292060
  6
CONTINUOUS
  0
ARC
  8
WHITE
 10
6.563788
 20
1.943406
 30
0.000000
 40
0.607984
 50
164.041062
 51
181.919275
  6
CONTINUOUS
  0
ARC
  8
WHITE
 10
5.419944
 20
1.942637
 30
0.000000
 40
0.536559
 50
-32.538583
 51
-2.092673
  6
CONTINUOUS
  0
ARC
  8
WHITE
 10
6.312047
 20
1.442767
 30
0.000000
 40
0.487884
 50
154.339546
 51
189.593516
  6
CONTINUOUS
  0
ARC
  8
WHITE
 10
5.870166
 20
1.365845
 30
0.000000
 40
0.039425
 50
-173.610712
 51
-10.639510
  6
CONTINUOUS
  0
ARC
  8
WHITE
 10
6.195802
 20
1.369689
 30
0.000000
 40
0.287105
 50
164.646767
 51
182.220187
  6
CONTINUOUS
  0
ARC
  8
WHITE
 10
5.830160
 20
1.473858
 30
0.000000
 40
0.093140
 50
-17.593774
 51
24.469679
  6
CONTINUOUS
  0
ARC
  8
WHITE
 10
6.013108
 20
1.529798
 30
0.000000
 40
0.099697
 50
139.625961
 51
190.028208
  6
CONTINUOUS
  0
ARC
  8
WHITE
 10
5.740042
 20
1.795447
 30
0.000000
 40
0.281570
 50
-45.568821
 51
-9.425495
  6
CONTINUOUS
  0
ARC
  8
WHITE
 10
6.068160
 20
1.728423
 30
0.000000
 40
0.054519
 50
22.012251
 51
157.444380
  6
CONTINUOUS
  0
ARC
  8
WHITE
 10
5.940722
 20
1.617785
 30
0.000000
 40
0.221037
 50
-9.608512
 51
36.369094
  6
CONTINUOUS
  0
ARC
  8
WHITE
 10
6.186476
 20
1.571613
 30
0.000000
 40
0.029324
 50
161.555378
 51
292.903650
  6
CONTINUOUS
  0
ARC
  8
WHITE
 10
6.206650
 20
1.508109
 30
0.000000
 40
0.037529
 50
8.406014
 51
103.501439
  6
CONTINUOUS
  0
ARC
  8
WHITE
 10
6.190445
 20
1.502433
 30
0.000000
 40
0.054486
 50
-41.308512
 51
11.821699
  6
CONTINUOUS
  0
ARC
  8
WHITE
 10
6.284303
 20
1.435600
 30
0.000000
 40
0.061272
 50
149.751412
 51
207.292961
  6
CONTINUOUS
  0
ARC
  8
WHITE
 10
6.284879
 20
1.441624
 30
0.000000
 40
0.064746
 50
-148.198522
 51
-45.085916
  6
CONTINUOUS
  0
ARC
  8
WHITE
 10
6.252262
 20
1.481180
 30
0.000000
 40
0.115887
 50
-47.474722
 51
31.940010
  6
CONTINUOUS
  0
ARC
  8
WHITE
 10
6.380632
 20
1.577468
 30
0.000000
 40
0.046100
 50
161.977512
 51
229.356676
  6
CONTINUOUS
  0
ARC
  8
WHITE
 10
6.288180
 20
1.593778
 30
0.000000
 40
0.048657
 50
-2.411474
 51
55.541576
  6
CONTINUOUS
  0
ARC
  8
WHITE
 10
6.347773
 20
1.688211
 30
0.000000
 40
0.063071
 50
157.535889
 51
239.445074
  6
CONTINUOUS
  0
ARC
  8
WHITE
 10
6.336382
 20
1.679031
 30
0.000000
 40
0.057502
 50
40.177791
 51
144.637447
  6
CONTINUOUS
  0
ARC
  8
WHITE
 10
6.494063
 20
1.763468
 30
0.000000
 40
0.123204
 50
-157.404211
 51
-76.200764
  6
CONTINUOUS
  0
ARC
  8
WHITE
 10
6.518608
 20
1.666183
 30
0.000000
 40
0.022881
 50
-77.784828
 51
4.043869
  6
CONTINUOUS
  0
ARC
  8
WHITE
 10
6.172131
 20
1.690600
 30
0.000000
 40
0.370005
 50
-3.533355
 51
18.258430
  6
CONTINUOUS
  0
ARC
  8
WHITE
 10
6.596404
 20
1.830243
 30
0.000000
 40
0.076659
 50
129.509303
 51
198.023940
  6
CONTINUOUS
  0
ARC
  8
WHITE
 10
6.605511
 20
1.798640
 30
0.000000
 40
0.107633
 50
78.927967
 51
122.529152
  6
CONTINUOUS
  0
ARC
  8
WHITE
 10
6.645197
 20
1.926800
 30
0.000000
 40
0.029483
 50
-130.165772
 51
-77.035562
  6
CONTINUOUS
  0
ARC
  8
WHITE
 10
6.638933
 20
2.021076
 30
0.000000
 40
0.123680
 50
-84.023021
 51
-30.153553
  6
CONTINUOUS
  0
ARC
  8
WHITE
 10
6.769531
 20
1.948561
 30
0.000000
 40
0.025835
 50
43.305143
 51
156.292100
  6
CONTINUOUS
  0
ARC
  8
WHITE
 10
7.021914
 20
2.178049
 30
0.000000
 40
0.315288
 50
-137.804168
 51
-112.354563
  6
CONTINUOUS
  0
ARC
  8
WHITE
 10
6.933856
 20
1.989490
 30
0.000000
 40
0.107847
 50
-107.181653
 51
-63.290538
  6
CONTINUOUS
  0
ARC
  8
WHITE
 10
6.996263
 20
1.871199
 30
0.000000
 40
0.026000
 50
-3.149657
 51
122.402484
  6
CONTINUOUS
  0
ARC
  8
WHITE
 10
6.979160
 20
1.860349
 30
0.000000
 40
0.044082
 50
-76.678625
 51
12.341057
  6
CONTINUOUS
  0
ARC
  8
WHITE
 10
7.047766
 20
1.762080
 30
0.000000
 40
0.080514
 50
136.548327
 51
202.915414
  6
CONTINUOUS
  0
ARC
  8
WHITE
 10
7.055020
 20
1.738551
 30
0.000000
 40
0.081788
 50
-174.512521
 51
-36.669420
  6
CONTINUOUS
  0
ARC
  8
WHITE
 10
7.022226
 20
1.752824
 30
0.000000
 40
0.116898
 50
-32.678418
 51
-14.744632
  6
CONTINUOUS
  0
ARC
  8
WHITE
 10
7.152454
 20
1.704516
 30
0.000000
 40
0.025287
 50
51.972034
 51
132.793298
  6
CONTINUOUS
  0
ARC
  8
WHITE
 10
7.122714
 20
1.627529
 30
0.000000
 40
0.106980
 50
19.037316
 51
64.937100
  6
CONTINUOUS
  0
ARC
  8
WHITE
 10
7.248962
 20
1.674219
 30
0.000000
 40
0.027751
 50
-154.846109
 51
-25.153891
  6
CONTINUOUS
  0
ARC
  8
WHITE
 10
7.486225
 20
1.571322
 30
0.000000
 40
0.230877
 50
125.053247
 51
156.759573
  6
CONTINUOUS
  0
ARC
  8
WHITE
 10
7.383652
 20
1.733971
 30
0.000000
 40
0.039951
 50
28.014589
 51
138.731457
  6
CONTINUOUS
  0
ARC
  8
WHITE
 10
7.228344
 20
1.620341
 30
0.000000
 40
0.232053
 50
5.807065
 51
34.787621
  6
CONTINUOUS
  0
ARC
  8
WHITE
 10
7.486856
 20
1.649894
 30
0.000000
 40
0.028310
 50
-167.611271
 51
-125.008500
  6
CONTINUOUS
  0
ARC
  8
WHITE
 10
7.452417
 20
1.608628
 30
0.000000
 40
0.025651
 50
-16.739727
 51
44.810538
  6
CONTINUOUS
  0
ARC
  8
WHITE
 10
7.489599
 20
1.596533
 30
0.000000
 40
0.013467
 50
159.540437
 51
245.585456
  6
CONTINUOUS
  0
ARC
  8
WHITE
 10
7.495931
 20
1.652699
 30
0.000000
 40
0.069456
 50
-99.864283
 51
-68.650148
  6
CONTINUOUS
  0
ARC
  8
WHITE
 10
7.491450
 20
1.628938
 30
0.000000
 40
0.050609
 50
-53.971377
 51
-17.101479
  6
CONTINUOUS
  0
ARC
  8
WHITE
 10
7.323216
 20
1.712654
 30
0.000000
 40
0.237990
 50
-24.474904
 51
24.474904
  6
CONTINUOUS
  0
ARC
  8
WHITE
 10
7.778044
 20
1.915277
 30
0.000000
 40
0.259946
 50
168.992417
 51
203.589622
  6
CONTINUOUS
  0
ARC
  8
WHITE
 10
7.401316
 20
2.005132
 30
0.000000
 40
0.128046
 50
-18.307314
 51
52.397480
  6
CONTINUOUS
  0
ARC
  8
WHITE
 10
7.537736
 20
2.228387
 30
0.000000
 40
0.135036
 50
174.179991
 51
244.427744
  6
CONTINUOUS
  0
ARC
  8
WHITE
 10
8.009908
 20
2.275672
 30
0.000000
 40
0.607442
 50
166.671729
 51
183.170088
  6
CONTINUOUS
  0
ARC
  8
WHITE
 10
7.035763
 20
2.461686
 30
0.000000
 40
0.385814
 50
-6.844633
 51
23.057036
  6
CONTINUOUS
  0
ARC
  8
WHITE
 10
7.707175
 20
2.748922
 30
0.000000
 40
0.344461
 50
156.621648
 51
203.278902
  6
CONTINUOUS
  0
ARC
  8
WHITE
 10
6.952411
 20
2.990732
 30
0.000000
 40
0.451006
 50
-13.479434
 51
19.099045
  6
CONTINUOUS
  0
ARC
  8
WHITE
 10
7.822198
 20
3.401667
 30
0.000000
 40
0.515896
 50
172.793561
 51
210.697072
  6
CONTINUOUS
  0
ARC
  8
WHITE
 10
6.452843
 20
3.459395
 30
0.000000
 40
0.857563
 50
0.466874
 51
31.084550
  6
CONTINUOUS
  0
ARC
  8
WHITE
 10
8.397967
 20
4.499947
 30
0.000000
 40
1.350241
 50
-173.147592
 51
-153.721920
  6
CONTINUOUS
  0
ARC
  8
WHITE
 10
6.418631
 20
4.393349
 30
0.000000
 40
0.641061
 50
-4.877113
 51
20.543998
  6
CONTINUOUS
  0
ARC
  8
WHITE
 10
6.958417
 20
4.599044
 30
0.000000
 40
0.063500
 50
17.666562
 51
67.216965
  6
CONTINUOUS
  0
ARC
  8
WHITE
 10
6.969959
 20
4.611306
 30
0.000000
 40
0.048088
 50
74.256133
 51
105.743866
  6
CONTINUOUS
  0
ARC
  8
WHITE
 10
6.984466
 20
4.620433
 30
0.000000
 40
0.046259
 50
126.560192
 51
217.179602
  6
CONTINUOUS
  0
ARC
  8
WHITE
 10
6.895972
 20
4.559566
 30
0.000000
 40
0.061234
 50
-3.088975
 51
32.511540
  6
CONTINUOUS
  0
ARC
  8
WHITE
 10
6.830986
 20
4.518384
 30
0.000000
 40
0.131697
 50
-51.202637
 51
16.717201
  6
CONTINUOUS
  0
ARC
  8
WHITE
 10
6.894899
 20
4.438099
 30
0.000000
 40
0.029083
 50
-129.766543
 51
-50.233455
  6
CONTINUOUS
  0
ARC
  8
WHITE
 10
6.899336
 20
4.465062
 30
0.000000
 40
0.054435
 50
173.150377
 51
244.958863
  6
CONTINUOUS
  0
ARC
  8
WHITE
 10
6.828132
 20
4.474721
 30
0.000000
 40
0.017447
 50
-10.457299
 51
148.038576
  6
CONTINUOUS
  0
ARC
  8
WHITE
 10
6.944324
 20
4.370520
 30
0.000000
 40
0.173284
 50
139.108507
 51
167.761355
  6
CONTINUOUS
  0
ARC
  8
WHITE
 10
6.754473
 20
4.411097
 30
0.000000
 40
0.020862
 50
-175.726801
 51
-10.616516
  6
CONTINUOUS
  0
ARC
  8
WHITE
 10
6.674359
 20
4.421591
 30
0.000000
 40
0.060521
 50
-11.483145
 51
68.128132
  6
CONTINUOUS
  0
ARC
  8
WHITE
 10
6.698117
 20
4.442585
 30
0.000000
 40
0.035192
 50
91.973038
 51
180.000000
  6
CONTINUOUS
  0
ARC
  8
WHITE
 10
6.234104
 20
4.473121
 30
0.000000
 40
0.429907
 50
-41.071156
 51
-4.073078
  6
CONTINUOUS
  0
ARC
  8
WHITE
 10
6.504426
 20
4.231227
 30
0.000000
 40
0.067358
 50
-73.883829
 51
-37.017291
  6
CONTINUOUS
  0
ARC
  8
WHITE
 10
6.517943
 20
4.174399
 30
0.000000
 40
0.009433
 50
142.823855
 51
303.315951
  6
CONTINUOUS
  0
ARC
  8
WHITE
 10
6.451798
 20
4.231545
 30
0.000000
 40
0.078000
 50
-41.266491
 51
-1.958752
  6
CONTINUOUS
  0
ARC
  8
WHITE
 10
7.975464
 20
4.256772
 30
0.000000
 40
1.445981
 50
172.356280
 51
181.105286
  6
CONTINUOUS
  0
ARC
  8
WHITE
 10
6.621572
 20
4.444695
 30
0.000000
 40
0.079364
 50
159.846698
 51
176.814649
  6
CONTINUOUS
  0
ARC
  8
WHITE
 10
6.536285
 20
4.479427
 30
0.000000
 40
0.013072
 50
-34.416001
 51
10.638684
  6
CONTINUOUS
  0
ARC
  8
WHITE
 10
6.529638
 20
4.476819
 30
0.000000
 40
0.020130
 50
14.442934
 51
138.500182
  6
CONTINUOUS
  0
ARC
  8
WHITE
 10
7.146938
 20
4.323265
 30
0.000000
 40
0.654029
 50
165.215974
 51
183.882649
  6
CONTINUOUS
  0
ARC
  8
WHITE
 10
6.418650
 20
4.281732
 30
0.000000
 40
0.075810
 50
-51.162610
 51
-2.080833
  6
CONTINUOUS
  0
ARC
  8
WHITE
 10
6.454005
 20
4.242187
 30
0.000000
 40
0.023000
 50
-167.896560
 51
-58.004253
  6
CONTINUOUS
  0
ARC
  8
WHITE
 10
6.477517
 20
4.248844
 30
0.000000
 40
0.047412
 50
149.010078
 51
194.012035
  6
CONTINUOUS
  0
ARC
  8
WHITE
 10
6.393287
 20
4.308185
 30
0.000000
 40
0.055855
 50
-38.707759
 51
67.891661
  6
CONTINUOUS
  0
ARC
  8
WHITE
 10
3.596923
 20
0.951105
 30
0.000000
 40
0.306897
 50
5.248504
 51
14.877869
  6
CONTINUOUS
  0
ARC
  8
WHITE
 10
3.929061
 20
1.032874
 30
0.000000
 40
0.035653
 50
73.798538
 51
184.779017
  6
CONTINUOUS
  0
ARC
  8
WHITE
 10
3.989055
 20
1.139455
 30
0.000000
 40
0.087968
 50
-124.675528
 51
-82.964339
  6
CONTINUOUS
  0
ARC
  8
WHITE
 10
3.995602
 20
1.075664
 30
0.000000
 40
0.023892
 50
-79.806251
 51
9.271049
  6
CONTINUOUS
  0
ARC
  8
WHITE
 10
-0.839374
 20
2.094222
 30
0.000000
 40
4.963386
 50
-11.796646
 51
4.139917
  6
CONTINUOUS
  0
ARC
  8
WHITE
 10
2.099297
 20
1.893404
 30
0.000000
 40
2.088020
 50
15.532369
 51
17.962457
  6
CONTINUOUS
  0
ARC
  8
WHITE
 10
4.172520
 20
2.571598
 30
0.000000
 40
0.093481
 50
132.510447
 51
201.500319
  6
CONTINUOUS
  0
ARC
  8
WHITE
 10
3.703001
 20
2.994574
 30
0.000000
 40
0.538967
 50
-41.066589
 51
-8.603790
  6
CONTINUOUS
  0
ARC
  8
WHITE
 10
3.199170
 20
3.238060
 30
0.000000
 40
1.086216
 50
-17.360886
 51
2.671128
  6
CONTINUOUS
  0
ARC
  8
WHITE
 10
4.954391
 20
3.209045
 30
0.000000
 40
0.674900
 50
118.558915
 51
173.223550
  6
CONTINUOUS
  0
ARC
  8
WHITE
 10
4.386519
 20
4.474971
 30
0.000000
 40
0.716420
 50
-69.983190
 51
-7.652418
  6
CONTINUOUS
  0
LINE
  8
WHITE
 10
5.096559
 20
4.379570
 30
0.000000
 11
5.046950
 21
4.422978
 31
0.000000
  6
CONTINUOUS
  0
LINE
  8
WHITE
 10
5.046950
 20
4.422978
 30
0.000000
 11
5.046950
 21
4.455819
 31
0.000000
  6
CONTINUOUS
  0
LINE
  8
WHITE
 10
5.046950
 20
4.455819
 30
0.000000
 11
5.098007
 21
4.500494
 31
0.000000
  6
CONTINUOUS
  0
LINE
  8
WHITE
 10
5.098007
 20
4.500494
 30
0.000000
 11
5.114421
 21
4.527851
 31
0.000000
  6
CONTINUOUS
  0
LINE
  8
WHITE
 10
5.114421
 20
4.527851
 30
0.000000
 11
5.108135
 21
4.552996
 31
0.000000
  6
CONTINUOUS
  0
LINE
  8
WHITE
 10
5.108135
 20
4.552996
 30
0.000000
 11
5.077956
 21
4.583175
 31
0.000000
  6
CONTINUOUS
  0
LINE
  8
WHITE
 10
5.077956
 20
4.583175
 30
0.000000
 11
5.077956
 21
4.593673
 31
0.000000
  6
CONTINUOUS
  0
LINE
  8
WHITE
 10
5.077956
 20
4.593673
 30
0.000000
 11
5.139484
 21
4.703054
 31
0.000000
  6
CONTINUOUS
  0
LINE
  8
WHITE
 10
5.139484
 20
4.703054
 30
0.000000
 11
5.108962
 21
4.832773
 31
0.000000
  6
CONTINUOUS
  0
LINE
  8
WHITE
 10
5.108962
 20
4.832773
 30
0.000000
 11
5.108962
 21
4.882382
 31
0.000000
  6
CONTINUOUS
  0
LINE
  8
WHITE
 10
5.108962
 20
4.882382
 30
0.000000
 11
5.121364
 21
4.919590
 31
0.000000
  6
CONTINUOUS
  0
LINE
  8
WHITE
 10
5.121364
 20
4.919590
 30
0.000000
 11
5.121364
 21
4.946978
 31
0.000000
  6
CONTINUOUS
  0
LINE
  8
WHITE
 10
5.121364
 20
4.946978
 30
0.000000
 11
5.127565
 21
4.959380
 31
0.000000
  6
CONTINUOUS
  0
LINE
  8
WHITE
 10
5.127565
 20
4.959380
 30
0.000000
 11
5.127565
 21
4.987802
 31
0.000000
  6
CONTINUOUS
  0
LINE
  8
WHITE
 10
5.127565
 20
4.987802
 30
0.000000
 11
5.121364
 21
5.006405
 31
0.000000
  6
CONTINUOUS
  0
LINE
  8
WHITE
 10
5.121364
 20
5.006405
 30
0.000000
 11
5.121364
 21
5.033794
 31
0.000000
  6
CONTINUOUS
  0
LINE
  8
WHITE
 10
5.121364
 20
5.033794
 30
0.000000
 11
5.115163
 21
5.046197
 31
0.000000
  6
CONTINUOUS
  0
LINE
  8
WHITE
 10
5.115163
 20
5.046197
 30
0.000000
 11
5.115163
 21
5.104074
 31
0.000000
  6
CONTINUOUS
  0
LINE
  8
WHITE
 10
5.115163
 20
5.104074
 30
0.000000
 11
5.102760
 21
5.122677
 31
0.000000
  6
CONTINUOUS
  0
LINE
  8
WHITE
 10
5.102760
 20
5.122677
 30
0.000000
 11
5.102760
 21
5.138801
 31
0.000000
  6
CONTINUOUS
  0
LINE
  8
WHITE
 10
5.102760
 20
5.138801
 30
0.000000
 11
5.090169
 21
5.163984
 31
0.000000
  6
CONTINUOUS
  0
LINE
  8
WHITE
 10
5.090169
 20
5.163984
 30
0.000000
 11
5.096559
 21
5.247088
 31
0.000000
  6
CONTINUOUS
  0
LINE
  8
WHITE
 10
5.096559
 20
5.247088
 30
0.000000
 11
5.002815
 21
5.290836
 31
0.000000
  6
CONTINUOUS
  0
LINE
  8
WHITE
 10
5.002815
 20
5.290836
 30
0.000000
 11
4.981556
 21
5.312095
 31
0.000000
  6
CONTINUOUS
  0
LINE
  8
WHITE
 10
4.981556
 20
5.312095
 30
0.000000
 11
4.950984
 21
5.373239
 31
0.000000
  6
CONTINUOUS
  0
LINE
  8
WHITE
 10
4.950984
 20
5.373239
 30
0.000000
 11
4.886047
 21
5.418695
 31
0.000000
  6
CONTINUOUS
  0
LINE
  8
WHITE
 10
4.886047
 20
5.418695
 30
0.000000
 11
4.879518
 21
5.451340
 31
0.000000
  6
CONTINUOUS
  0
LINE
  8
WHITE
 10
4.879518
 20
5.451340
 30
0.000000
 11
4.860915
 21
5.482345
 31
0.000000
  6
CONTINUOUS
  0
LINE
  8
WHITE
 10
4.860915
 20
5.482345
 30
0.000000
 11
4.842311
 21
5.494748
 31
0.000000
  6
CONTINUOUS
  0
LINE
  8
WHITE
 10
4.842311
 20
5.494748
 30
0.000000
 11
4.790893
 21
5.494748
 31
0.000000
  6
CONTINUOUS
  0
LINE
  8
WHITE
 10
4.790893
 20
5.494748
 30
0.000000
 11
4.752820
 21
5.462114
 31
0.000000
  6
CONTINUOUS
  0
LINE
  8
WHITE
 10
4.752820
 20
5.462114
 30
0.000000
 11
4.735750
 21
5.427975
 31
0.000000
  6
CONTINUOUS
  0
LINE
  8
WHITE
 10
4.735750
 20
5.427975
 30
0.000000
 11
4.732434
 21
5.414133
 31
0.000000
  6
CONTINUOUS
  0
LINE
  8
WHITE
 10
4.732434
 20
5.414133
 30
0.000000
 11
4.730690
 21
5.366590
 31
0.000000
  6
CONTINUOUS
  0
LINE
  8
WHITE
 10
4.730690
 20
5.366590
 30
0.000000
 11
4.722422
 21
5.350054
 31
0.000000
  6
CONTINUOUS
  0
LINE
  8
WHITE
 10
4.722422
 20
5.350054
 30
0.000000
 11
4.714153
 21
5.345920
 31
0.000000
  6
CONTINUOUS
  0
LINE
  8
WHITE
 10
4.714153
 20
5.345920
 30
0.000000
 11
4.686235
 21
5.345920
 31
0.000000
  6
CONTINUOUS
  0
LINE
  8
WHITE
 10
4.686235
 20
5.345920
 30
0.000000
 11
4.605620
 21
5.414133
 31
0.000000
  6
CONTINUOUS
  0
LINE
  8
WHITE
 10
4.605620
 20
5.414133
 30
0.000000
 11
4.575661
 21
5.414133
 31
0.000000
  6
CONTINUOUS
  0
LINE
  8
WHITE
 10
4.575661
 20
5.414133
 30
0.000000
 11
4.557057
 21
5.383127
 31
0.000000
  6
CONTINUOUS
  0
LINE
  8
WHITE
 10
4.557057
 20
5.383127
 30
0.000000
 11
4.540934
 21
5.367003
 31
0.000000
  6
CONTINUOUS
  0
LINE
  8
WHITE
 10
4.540934
 20
5.367003
 30
0.000000
 11
4.507860
 21
5.350467
 31
0.000000
  6
CONTINUOUS
  0
LINE
  8
WHITE
 10
4.507860
 20
5.350467
 30
0.000000
 11
4.488025
 21
5.310796
 31
0.000000
  6
CONTINUOUS
  0
LINE
  8
WHITE
 10
4.488025
 20
5.310796
 30
0.000000
 11
4.493547
 21
5.222446
 31
0.000000
  6
CONTINUOUS
  0
ARC
  8
WHITE
 10
2.458424
 20
4.752233
 30
0.000000
 40
2.088738
 50
-41.755486
 51
13.009824
  6
CONTINUOUS
  0
ARC
  8
WHITE
 10
4.553026
 20
3.070963
 30
0.000000
 40
0.609917
 50
151.581081
 51
180.586238
  6
CONTINUOUS
  0
ARC
  8
WHITE
 10
-1.512975
 20
1.801191
 30
0.000000
 40
5.600510
 50
9.839546
 51
13.038759
  6
CONTINUOUS
  0
ARC
  8
WHITE
 10
3.800754
 20
2.687173
 30
0.000000
 40
0.216408
 50
-22.526944
 51
19.176944
  6
CONTINUOUS
  0
ARC
  8
WHITE
 10
4.147314
 20
2.548126
 30
0.000000
 40
0.157040
 50
159.055333
 51
219.095541
  6
CONTINUOUS
  0
ARC
  8
WHITE
 10
1.086174
 20
2.048563
 30
0.000000
 40
2.966426
 50
-14.812331
 51
7.759871
  6
CONTINUOUS
  0
ARC
  8
WHITE
 10
3.843221
 20
1.301125
 30
0.000000
 40
0.111339
 50
-68.779028
 51
-5.639229
  6
CONTINUOUS
  0
ARC
  8
WHITE
 10
3.861655
 20
1.353105
 30
0.000000
 40
0.157296
 50
-97.990680
 51
-82.009320
  6
CONTINUOUS
  0
ARC
  8
WHITE
 10
3.866588
 20
1.276726
 30
0.000000
 40
0.083792
 50
-176.595074
 51
-108.652450
  6
CONTINUOUS
  0
ARC
  8
WHITE
 10
3.722544
 20
1.282015
 30
0.000000
 40
0.061266
 50
-9.645926
 51
74.748630
  6
CONTINUOUS
  0
ARC
  8
WHITE
 10
3.733333
 20
1.312037
 30
0.000000
 40
0.029571
 50
79.620560
 51
152.256309
  6
CONTINUOUS
  0
ARC
  8
WHITE
 10
4.009809
 20
1.217272
 30
0.000000
 40
0.321518
 50
160.271959
 51
167.837250
  6
CONTINUOUS
  0
ARC
  8
WHITE
 10
3.652382
 20
1.283859
 30
0.000000
 40
0.043141
 50
-91.954206
 51
1.531773
  6
CONTINUOUS
  0
ARC
  8
WHITE
 10
3.632947
 20
1.312922
 30
0.000000
 40
0.074380
 50
-114.876385
 51
-76.023891
  6
CONTINUOUS
  0
ARC
  8
WHITE
 10
3.717094
 20
1.465721
 30
0.000000
 40
0.248693
 50
-163.077961
 51
-117.656729
  6
CONTINUOUS
  0
ARC
  8
WHITE
 10
3.453523
 20
1.367347
 30
0.000000
 40
0.036512
 50
45.377858
 51
172.249709
  6
CONTINUOUS
  0
ARC
  8
WHITE
 10
3.122060
 20
1.380326
 30
0.000000
 40
0.295394
 50
-24.058116
 51
-1.562624
  6
CONTINUOUS
  0
ARC
  8
WHITE
 10
3.344728
 20
1.287810
 30
0.000000
 40
0.054717
 50
-120.663597
 51
-30.663597
  6
CONTINUOUS
  0
ARC
  8
WHITE
 10
3.238807
 20
1.139519
 30
0.000000
 40
0.127800
 50
52.377712
 51
99.549825
  6
CONTINUOUS
  0
ARC
  8
WHITE
 10
3.141127
 20
1.395115
 30
0.000000
 40
0.150453
 50
-114.909047
 51
-59.448443
  6
CONTINUOUS
  0
ARC
  8
WHITE
 10
3.060522
 20
1.096365
 30
0.000000
 40
0.163205
 50
83.937537
 51
138.953454
  6
CONTINUOUS
  0
ARC
  8
WHITE
 10
2.904433
 20
1.228149
 30
0.000000
 40
0.041171
 50
-118.622500
 51
-36.712433
  6
CONTINUOUS
  0
ARC
  8
WHITE
 10
2.787857
 20
0.988728
 30
0.000000
 40
0.225175
 50
64.524672
 51
106.994705
  6
CONTINUOUS
  0
ARC
  8
WHITE
 10
2.574838
 20
1.548308
 30
0.000000
 40
0.374392
 50
-101.236131
 51
-66.847366
  6
CONTINUOUS
  0
ARC
  8
WHITE
 10
2.459920
 20
1.077797
 30
0.000000
 40
0.111495
 50
67.888961
 51
159.938321
  6
CONTINUOUS
  0
ARC
  8
WHITE
 10
2.371213
 20
1.104538
 30
0.000000
 40
0.019726
 50
144.318708
 51
287.393106
  6
CONTINUOUS
  0
ARC
  8
WHITE
 10
2.362253
 20
1.277835
 30
0.000000
 40
0.192694
 50
-85.578206
 51
-62.482201
  6
CONTINUOUS
  0
ARC
  8
WHITE
 10
2.476232
 20
1.079191
 30
0.000000
 40
0.037317
 50
20.251502
 51
131.958900
  6
CONTINUOUS
  0
ARC
  8
WHITE
 10
2.418897
 20
1.058982
 30
0.000000
 40
0.098108
 50
-32.230285
 51
19.733596
  6
CONTINUOUS
  0
ARC
  8
WHITE
 10
2.524710
 20
0.982490
 30
0.000000
 40
0.033242
 50
133.359528
 51
267.176861
  6
CONTINUOUS
  0
LINE
  8
WHITE
 10
2.523073
 20
0.949289
 30
0.000000
 11
2.554079
 21
0.949289
 31
0.000000
  6
CONTINUOUS
  0
ARC
  8
WHITE
 10
2.521223
 20
1.018726
 30
0.000000
 40
0.076818
 50
-64.677905
 51
-0.501849
  6
CONTINUOUS
  0
ARC
  8
WHITE
 10
2.642934
 20
1.021917
 30
0.000000
 40
0.045062
 50
88.277250
 51
184.920016
  6
CONTINUOUS
  0
ARC
  8
WHITE
 10
2.633199
 20
0.991807
 30
0.000000
 40
0.075966
 50
18.786431
 51
81.606089
  6
CONTINUOUS
  0
ARC
  8
WHITE
 10
2.823383
 20
1.027203
 30
0.000000
 40
0.118769
 50
-174.718710
 51
-113.497719
  6
CONTINUOUS
  0
ARC
  8
WHITE
 10
2.806520
 20
0.981284
 30
0.000000
 40
0.069992
 50
-115.826505
 51
-33.074125
  6
CONTINUOUS
  0
ARC
  8
WHITE
 10
2.901861
 20
0.939160
 30
0.000000
 40
0.036900
 50
71.209677
 51
173.890020
  6
CONTINUOUS
  0
ARC
  8
WHITE
 10
2.891016
 20
0.918664
 30
0.000000
 40
0.059910
 50
3.460397
 51
67.702000
  6
CONTINUOUS
  0
ARC
  8
WHITE
 10
3.037934
 20
0.919364
 30
0.000000
 40
0.087167
 50
178.083223
 51
240.008502
  6
CONTINUOUS
  0
ARC
  8
WHITE
 10
3.012965
 20
0.915802
 30
0.000000
 40
0.074300
 50
-104.500161
 51
-33.424835
  6
CONTINUOUS
  0
ARC
  8
WHITE
 10
3.145275
 20
0.882448
 30
0.000000
 40
0.070705
 50
136.981356
 51
186.148747
  6
CONTINUOUS
  0
ARC
  8
WHITE
 10
3.103916
 20
0.906569
 30
0.000000
 40
0.026238
 50
-23.198363
 51
113.198363
  6
CONTINUOUS
  0
ARC
  8
WHITE
 10
3.142574
 20
0.889949
 30
0.000000
 40
0.015842
 50
156.626927
 51
293.375170
  6
CONTINUOUS
  0
ARC
  8
WHITE
 10
3.153987
 20
0.967482
 30
0.000000
 40
0.092217
 50
-93.187495
 51
-26.925035
  6
CONTINUOUS
  0
ARC
  8
WHITE
 10
3.263064
 20
0.914133
 30
0.000000
 40
0.029251
 50
8.156375
 51
156.654958
  6
CONTINUOUS
  0
ARC
  8
WHITE
 10
3.344649
 20
0.900713
 30
0.000000
 40
0.055486
 50
161.539061
 51
225.230554
  6
CONTINUOUS
  0
ARC
  8
WHITE
 10
3.347067
 20
0.961345
 30
0.000000
 40
0.108290
 50
-112.530842
 51
-65.928069
  6
CONTINUOUS
  0
ARC
  8
WHITE
 10
3.410678
 20
0.826564
 30
0.000000
 40
0.040833
 50
68.241563
 51
118.430911
  6
CONTINUOUS
  0
ARC
  8
WHITE
 10
3.430131
 20
0.911486
 30
0.000000
 40
0.047196
 50
-95.247570
 51
-48.585541
  6
CONTINUOUS
  0
ARC
  8
WHITE
 10
3.342415
 20
1.040561
 30
0.000000
 40
0.202967
 50
-54.127564
 51
-22.117513
  6
CONTINUOUS
  0
ARC
  8
WHITE
 10
3.657483
 20
0.889176
 30
0.000000
 40
0.147506
 50
95.068561
 51
149.454307
  6
CONTINUOUS
  0
ARC
  8
WHITE
 10
3.650432
 20
0.990543
 30
0.000000
 40
0.045953
 50
32.728577
 51
97.478826
  6
CONTINUOUS
  0
ARC
  8
WHITE
 10
4.116931
 20
1.210251
 30
0.000000
 40
0.470127
 50
-155.512796
 51
-148.130024
  6
CONTINUOUS
  0
ARC
  8
WHITE
 10
3.742897
 20
0.980756
 30
0.000000
 40
0.031414
 50
-143.402699
 51
-26.392971
  6
CONTINUOUS
  0
ARC
  8
WHITE
 10
3.843159
 20
0.960988
 30
0.000000
 40
0.072355
 50
128.642384
 51
175.399692
  6
CONTINUOUS
  0
ARC
  8
WHITE
 10
3.815767
 20
0.993706
 30
0.000000
 40
0.029711
 50
5.067277
 51
126.783710
  6
CONTINUOUS
  0
ARC
  8
WHITE
 10
3.783996
 20
0.981085
 30
0.000000
 40
0.063231
 50
-34.935431
 51
13.952478
  6
CONTINUOUS
  0
ARC
  8
WHITE
 10
3.887314
 20
0.936085
 30
0.000000
 40
0.052227
 50
170.309963
 51
249.151904
  6
CONTINUOUS
  0
ARC
  8
WHITE
 10
3.887331
 20
0.936181
 30
0.000000
 40
0.052323
 50
-110.827258
 51
-69.172741
  6
CONTINUOUS
  0
ARC
  8
WHITE
 10
3.886412
 20
0.914838
 30
0.000000
 40
0.033775
 50
-54.688203
 51
19.050065
  6
CONTINUOUS
  0
ARC
  8
WHITE
 10
4.096376
 20
1.007632
 30
0.000000
 40
0.195919
 50
-171.649507
 51
-155.331608
  6
CONTINUOUS
  0
ARC
  8
WHITE
 10
0.203617
 20
2.420703
 30
0.000000
 40
7.759859
 50
2.630395
 51
4.349913
  6
CONTINUOUS
  0
ARC
  8
WHITE
 10
9.465095
 20
3.402810
 30
0.000000
 40
1.573966
 50
173.587999
 51
194.479412
  6
CONTINUOUS
  0
ARC
  8
WHITE
 10
6.933353
 20
3.927823
 30
0.000000
 40
1.028718
 50
-19.845687
 51
7.072824
  6
CONTINUOUS
  0
ARC
  8
WHITE
 10
9.685515
 20
4.170761
 30
0.000000
 40
1.735172
 50
157.115901
 51
183.842164
  6
CONTINUOUS
  0
ARC
  8
WHITE
 10
6.437596
 20
5.109784
 30
0.000000
 40
1.670355
 50
-9.103114
 51
3.876969
  6
CONTINUOUS
  0
ARC
  8
WHITE
 10
7.957709
 20
5.226365
 30
0.000000
 40
0.146464
 50
-1.424672
 51
48.625522
  6
CONTINUOUS
  0
ARC
  8
WHITE
 10
8.103017
 20
5.368920
 30
0.000000
 40
0.058463
 50
140.170530
 51
213.946644
  6
CONTINUOUS
  0
ARC
  8
WHITE
 10
8.016082
 20
5.480320
 30
0.000000
 40
0.085068
 50
-60.385011
 51
55.183955
  6
CONTINUOUS
  0
ARC
  8
WHITE
 10
8.090429
 20
5.572477
 30
0.000000
 40
0.034099
 50
54.297520
 51
220.884262
  6
CONTINUOUS
  0
ARC
  8
WHITE
 10
8.170536
 20
5.642549
 30
0.000000
 40
0.073628
 50
-144.857028
 51
-94.632686
  6
CONTINUOUS
  0
ARC
  8
WHITE
 10
8.186558
 20
5.623826
 30
0.000000
 40
0.058914
 50
-111.894612
 51
39.169426
  6
CONTINUOUS
  0
ARC
  8
WHITE
 10
9.157051
 20
5.983900
 30
0.000000
 40
0.979555
 50
-168.504540
 51
-160.755428
  6
CONTINUOUS
  0
ARC
  8
WHITE
 10
8.266269
 20
5.804578
 30
0.000000
 40
0.070928
 50
86.141174
 51
192.949363
  6
CONTINUOUS
  0
ARC
  8
WHITE
 10
8.226713
 20
5.706485
 30
0.000000
 40
0.174581
 50
20.939552
 51
75.290615
  6
CONTINUOUS
  0
ARC
  8
WHITE
 10
9.083452
 20
5.934928
 30
0.000000
 40
0.713285
 50
-166.538192
 51
-141.513020
  6
CONTINUOUS
  0
ARC
  8
WHITE
 10
8.352286
 20
5.320814
 30
0.000000
 40
0.242583
 50
-4.793792
 51
44.560374
  6
CONTINUOUS
  0
ARC
  8
WHITE
 10
12.770792
 20
6.028307
 30
0.000000
 40
4.239702
 50
-170.115954
 51
-155.991855
  6
CONTINUOUS
  0
ARC
  8
WHITE
 10
8.840119
 20
4.270905
 30
0.000000
 40
0.066229
 50
-85.243583
 51
29.297459
  6
CONTINUOUS
  0
ARC
  8
WHITE
 10
8.831437
 20
4.079697
 30
0.000000
 40
0.126007
 50
83.541174
 51
120.410504
  6
CONTINUOUS
  0
ARC
  8
WHITE
 10
8.783123
 20
4.174932
 30
0.000000
 40
0.020490
 50
139.024988
 51
220.975012
  6
CONTINUOUS
  0
ARC
  8
WHITE
 10
8.801759
 20
4.183200
 30
0.000000
 40
0.040427
 50
-147.528937
 51
-94.398593
  6
CONTINUOUS
  0
ARC
  8
WHITE
 10
8.739815
 20
4.054805
 30
0.000000
 40
0.105934
 50
24.946041
 51
56.256536
  6
CONTINUOUS
  0
ARC
  8
WHITE
 10
8.971784
 20
4.086049
 30
0.000000
 40
0.136581
 50
174.354939
 51
202.427446
  6
CONTINUOUS
  0
ARC
  8
WHITE
 10
8.959747
 20
4.117517
 30
0.000000
 40
0.141525
 50
-143.805358
 51
-90.157553
  6
CONTINUOUS
  0
ARC
  8
WHITE
 10
8.952190
 20
3.933081
 30
0.000000
 40
0.043505
 50
-2.584346
 51
80.516173
  6
CONTINUOUS
  0
ARC
  8
WHITE
 10
9.496127
 20
3.809471
 30
0.000000
 40
0.515049
 50
166.338231
 51
175.557095
  6
CONTINUOUS
  0
ARC
  8
WHITE
 10
8.888161
 20
3.865865
 30
0.000000
 40
0.095894
 50
-115.196336
 51
-9.905418
  6
CONTINUOUS
  0
ARC
  8
WHITE
 10
8.738376
 20
3.529336
 30
0.000000
 40
0.272492
 50
66.430041
 51
89.928963
  6
CONTINUOUS
  0
ARC
  8
WHITE
 10
8.734875
 20
3.768782
 30
0.000000
 40
0.033268
 50
83.373729
 51
217.810141
  6
CONTINUOUS
  0
ARC
  8
WHITE
 10
9.369006
 20
4.277363
 30
0.000000
 40
0.846147
 50
-141.306104
 51
-133.066495
  6
CONTINUOUS
  0
ARC
  8
WHITE
 10
8.917757
 20
3.817066
 30
0.000000
 40
0.202320
 50
-128.714340
 51
-89.624355
  6
CONTINUOUS
  0
ARC
  8
WHITE
 10
8.959911
 20
3.525448
 30
0.000000
 40
0.098193
 50
71.015810
 51
114.569595
  6
CONTINUOUS
  0
ARC
  8
WHITE
 10
8.972669
 20
3.556954
 30
0.000000
 40
0.064276
 50
-16.170119
 51
72.633066
  6
CONTINUOUS
  0
ARC
  8
WHITE
 10
9.006840
 20
3.539054
 30
0.000000
 40
0.027561
 50
-125.348400
 51
0.000000
  6
CONTINUOUS
  0
ARC
  8
WHITE
 10
8.950588
 20
3.387879
 30
0.000000
 40
0.134859
 50
72.609253
 51
107.390747
  6
CONTINUOUS
  0
ARC
  8
WHITE
 10
8.922444
 20
3.497282
 30
0.000000
 40
0.022807
 50
122.232994
 51
237.767008
  6
CONTINUOUS
  0
ARC
  8
WHITE
 10
8.804388
 20
3.386652
 30
0.000000
 40
0.139841
 50
11.775876
 51
40.779291
  6
CONTINUOUS
  0
ARC
  8
WHITE
 10
8.851876
 20
3.407546
 30
0.000000
 40
0.089736
 50
-68.011463
 51
4.887695
  6
CONTINUOUS
  0
ARC
  8
WHITE
 10
8.840843
 20
3.377296
 30
0.000000
 40
0.069258
 50
-93.714225
 51
-49.877020
  6
CONTINUOUS
  0
ARC
  8
WHITE
 10
8.819008
 20
3.271667
 30
0.000000
 40
0.040429
 50
64.587726
 51
131.048475
  6
CONTINUOUS
  0
ARC
  8
WHITE
 10
8.806085
 20
3.287283
 30
0.000000
 40
0.020172
 50
132.495709
 51
248.399798
  6
CONTINUOUS
  0
LINE
  8
WHITE
 10
8.798659
 20
3.268527
 30
0.000000
 11
8.832145
 21
3.268527
 31
0.000000
  6
CONTINUOUS
  0
ARC
  8
WHITE
 10
8.831987
 20
3.227239
 30
0.000000
 40
0.041288
 50
5.672542
 51
89.780896
  6
CONTINUOUS
  0
ARC
  8
WHITE
 10
8.988433
 20
3.219954
 30
0.000000
 40
0.115918
 50
174.373088
 51
206.871652
  6
CONTINUOUS
  0
ARC
  8
WHITE
 10
8.892759
 20
3.169097
 30
0.000000
 40
0.007879
 50
-168.746968
 51
-49.486138
  6
CONTINUOUS
  0
ARC
  8
WHITE
 10
8.910723
 20
3.130575
 30
0.000000
 40
0.034977
 50
68.452640
 51
111.547361
  6
CONTINUOUS
  0
ARC
  8
WHITE
 10
8.978936
 20
3.227332
 30
0.000000
 40
0.084796
 50
-130.763843
 51
-77.633741
  6
CONTINUOUS
  0
ARC
  8
WHITE
 10
8.982080
 20
3.093952
 30
0.000000
 40
0.052735
 50
-7.986085
 51
73.455628
  6
CONTINUOUS
  0
ARC
  8
WHITE
 10
8.826889
 20
3.104818
 30
0.000000
 40
0.208211
 50
-78.052771
 51
-5.012697
  6
CONTINUOUS
  0
ARC
  8
WHITE
 10
8.831672
 20
3.144195
 30
0.000000
 40
0.246080
 50
-144.961054
 51
-81.041759
  6
CONTINUOUS
  0
ARC
  8
WHITE
 10
8.775836
 20
3.153550
 30
0.000000
 40
0.209533
 50
163.833975
 51
225.965459
  6
CONTINUOUS
  0
ARC
  8
WHITE
 10
8.715695
 20
3.107623
 30
0.000000
 40
0.175449
 50
107.741105
 51
143.538805
  6
CONTINUOUS
  0
ARC
  8
WHITE
 10
8.660570
 20
3.308694
 30
0.000000
 40
0.034006
 50
-87.196259
 51
16.120934
  6
CONTINUOUS
  0
ARC
  8
WHITE
 10
8.655830
 20
3.307601
 30
0.000000
 40
0.038864
 50
15.729248
 51
74.270752
  6
CONTINUOUS
  0
ARC
  8
WHITE
 10
8.675261
 20
3.362521
 30
0.000000
 40
0.019642
 50
131.551423
 51
243.072266
  6
CONTINUOUS
  0
ARC
  8
WHITE
 10
8.484146
 20
3.526817
 30
0.000000
 40
0.232582
 50
-40.030918
 51
-10.370767
  6
CONTINUOUS
  0
ARC
  8
WHITE
 10
8.637346
 20
3.465641
 30
0.000000
 40
0.078009
 50
14.329697
 51
76.141053
  6
CONTINUOUS
  0
ARC
  8
WHITE
 10
8.795664
 20
3.963831
 30
0.000000
 40
0.444930
 50
-138.659163
 51
-108.290137
  6
CONTINUOUS
  0
ARC
  8
WHITE
 10
8.731677
 20
3.820902
 30
0.000000
 40
0.309394
 50
162.730423
 51
209.204957
  6
CONTINUOUS
  0
ARC
  8
WHITE
 10
8.528443
 20
3.894880
 30
0.000000
 40
0.093928
 50
83.790271
 51
169.031671
  6
CONTINUOUS
  0
ARC
  8
WHITE
 10
8.534819
 20
4.009856
 30
0.000000
 40
0.021929
 50
-80.063844
 51
43.930628
  6
CONTINUOUS
  0
ARC
  8
WHITE
 10
8.396320
 20
3.897439
 30
0.000000
 40
0.200239
 50
39.597694
 51
67.240266
  6
CONTINUOUS
  0
ARC
  8
WHITE
 10
8.561003
 20
4.184547
 30
0.000000
 40
0.134555
 50
140.221842
 51
229.594615
  6
CONTINUOUS
  0
ARC
  8
WHITE
 10
8.451542
 20
4.278863
 30
0.000000
 40
0.010213
 50
-53.654130
 51
53.654130
  6
CONTINUOUS
  0
ARC
  8
WHITE
 10
8.688412
 20
4.517796
 30
0.000000
 40
0.326347
 50
-154.740388
 51
-135.013822
  6
CONTINUOUS
  0
ARC
  8
WHITE
 10
9.157012
 20
4.615431
 30
0.000000
 40
0.799639
 50
-179.021733
 51
-162.767377
  6
CONTINUOUS
  0
ARC
  8
WHITE
 10
8.320289
 20
4.600792
 30
0.000000
 40
0.037214
 50
1.519113
 51
167.467961
  6
CONTINUOUS
  0
ARC
  8
WHITE
 10
6.365252
 20
4.681987
 30
0.000000
 40
1.920103
 50
-15.559739
 51
-2.182425
  6
CONTINUOUS
  0
ARC
  8
WHITE
 10
7.943653
 20
4.309455
 30
0.000000
 40
0.306486
 50
-60.471837
 51
-27.711384
  6
CONTINUOUS
  0
ARC
  8
WHITE
 10
8.109104
 20
4.012397
 30
0.000000
 40
0.033620
 50
115.359091
 51
293.911473
  6
CONTINUOUS
  0
ARC
  8
WHITE
 10
8.156838
 20
3.889678
 30
0.000000
 40
0.098104
 50
48.416578
 51
110.344107
  6
CONTINUOUS
  0
ARC
  8
WHITE
 10
8.180533
 20
3.912848
 30
0.000000
 40
0.065088
 50
-34.222190
 51
50.482422
  6
CONTINUOUS
  0
ARC
  8
WHITE
 10
8.382626
 20
3.733364
 30
0.000000
 40
0.205911
 50
136.061844
 51
155.618951
  6
CONTINUOUS
  0
ARC
  8
WHITE
 10
7.874281
 20
4.073016
 30
0.000000
 40
0.409583
 50
-62.276186
 51
-38.442782
  6
CONTINUOUS
  0
ARC
  8
WHITE
 10
8.077524
 20
3.683127
 30
0.000000
 40
0.030133
 50
114.928040
 51
271.152699
  6
CONTINUOUS
  0
ARC
  8
WHITE
 10
8.027885
 20
3.161257
 30
0.000000
 40
0.494303
 50
66.779070
 51
84.165965
  6
CONTINUOUS
  0
ARC
  8
WHITE
 10
8.205967
 20
3.580473
 30
0.000000
 40
0.038868
 50
-27.147856
 51
64.373363
  6
CONTINUOUS
  0
ARC
  8
WHITE
 10
8.157990
 20
3.563655
 30
0.000000
 40
0.082569
 50
-77.357271
 51
-0.636481
  6
CONTINUOUS
  0
ARC
  8
WHITE
 10
8.201459
 20
3.369050
 30
0.000000
 40
0.116832
 50
102.555162
 51
141.261336
  6
CONTINUOUS
  0
ARC
  8
WHITE
 10
7.894851
 20
3.564620
 30
0.000000
 40
0.247845
 50
-60.389588
 51
-29.610412
  6
CONTINUOUS
  0
ARC
  8
WHITE
 10
8.029414
 20
3.325164
 30
0.000000
 40
0.026860
 50
116.781478
 51
299.822119
  6
CONTINUOUS
  0
ARC
  8
WHITE
 10
8.111052
 20
3.216500
 30
0.000000
 40
0.109310
 50
80.585566
 51
128.656392
  6
CONTINUOUS
  0
ARC
  8
WHITE
 10
8.115566
 20
3.126285
 30
0.000000
 40
0.198503
 50
46.201184
 51
86.139135
  6
CONTINUOUS
  0
ARC
  8
WHITE
 10
8.198502
 20
3.244878
 30
0.000000
 40
0.059786
 50
-31.540309
 51
24.383012
  6
CONTINUOUS
  0
ARC
  8
WHITE
 10
7.807251
 20
3.443163
 30
0.000000
 40
0.498239
 50
-63.480863
 51
-27.434893
  6
CONTINUOUS
  0
ARC
  8
WHITE
 10
8.049004
 20
2.980490
 30
0.000000
 40
0.025617
 50
138.855489
 51
221.144509
  6
CONTINUOUS
  0
ARC
  8
WHITE
 10
8.199150
 20
3.135894
 30
0.000000
 40
0.241623
 50
-134.526844
 51
-112.605059
  6
CONTINUOUS
  0
ARC
  8
WHITE
 10
8.049569
 20
2.820590
 30
0.000000
 40
0.108279
 50
-15.839202
 51
58.418467
  6
CONTINUOUS
  0
ARC
  8
WHITE
 10
8.052367
 20
2.813974
 30
0.000000
 40
0.103933
 50
-159.057390
 51
-12.749890
  6
CONTINUOUS
  0
ARC
  8
WHITE
 10
5.466821
 20
3.981969
 30
0.000000
 40
0.022428
 50
54.664775
 51
125.335223
  6
CONTINUOUS
  0
ARC
  8
WHITE
 10
7.010048
 20
2.185002
 30
0.000000
 40
2.391011
 50
130.606012
 51
155.820605
  6
CONTINUOUS
  0
ARC
  8
WHITE
 10
4.878057
 20
3.125941
 30
0.000000
 40
0.062456
 50
142.050838
 51
216.218731
  6
CONTINUOUS
  0
ARC
  8
WHITE
 10
5.818046
 20
3.563747
 30
0.000000
 40
1.098269
 50
-154.390579
 51
-122.956661
  6
CONTINUOUS
  0
ARC
  8
WHITE
 10
5.206278
 20
2.618355
 30
0.000000
 40
0.027814
 50
-112.180358
 51
59.050230
  6
CONTINUOUS
  0
ARC
  8
WHITE
 10
5.165250
 20
2.535678
 30
0.000000
 40
0.064591
 50
61.793964
 51
104.529869
  6
CONTINUOUS
  0
ARC
  8
WHITE
 10
5.150635
 20
2.567842
 30
0.000000
 40
0.030403
 50
92.997753
 51
164.312925
  6
CONTINUOUS
  0
ARC
  8
WHITE
 10
5.300170
 20
2.576262
 30
0.000000
 40
0.178806
 50
-179.936028
 51
-135.766063
  6
CONTINUOUS
  0
ARC
  8
WHITE
 10
5.135124
 20
2.419393
 30
0.000000
 40
0.048956
 50
-30.801439
 51
41.027850
  6
CONTINUOUS
  0
ARC
  8
WHITE
 10
4.848406
 20
2.720364
 30
0.000000
 40
0.463024
 50
-96.106630
 51
-44.761268
  6
CONTINUOUS
  0
ARC
  8
WHITE
 10
4.800836
 20
2.241445
 30
0.000000
 40
0.018599
 50
95.200886
 51
152.179144
  6
CONTINUOUS
  0
ARC
  8
WHITE
 10
4.918537
 20
2.207674
 30
0.000000
 40
0.140708
 50
162.440270
 51
229.026367
  6
CONTINUOUS
  0
ARC
  8
WHITE
 10
5.649409
 20
3.160126
 30
0.000000
 40
1.341034
 50
-127.865245
 51
-113.366410
  6
CONTINUOUS
  0
ARC
  8
WHITE
 10
5.098525
 20
1.773034
 30
0.000000
 40
0.157194
 50
45.767274
 51
83.051669
  6
CONTINUOUS
  0
ARC
  8
WHITE
 10
5.168356
 20
1.855211
 30
0.000000
 40
0.050134
 50
-70.616557
 51
37.406398
  6
CONTINUOUS
  0
ARC
  8
WHITE
 10
5.269398
 20
1.625774
 30
0.000000
 40
0.200749
 50
114.862263
 51
134.952231
  6
CONTINUOUS
  0
ARC
  8
WHITE
 10
5.022376
 20
1.821817
 30
0.000000
 40
0.118228
 50
-78.822316
 51
-27.162746
  6
CONTINUOUS
  0
ARC
  8
WHITE
 10
4.991346
 20
2.107690
 30
0.000000
 40
0.405463
 50
-115.927978
 51
-82.353806
  6
CONTINUOUS
  0
ARC
  8
WHITE
 10
4.787321
 20
1.675402
 30
0.000000
 40
0.072731
 50
68.429421
 51
149.757845
  6
CONTINUOUS
  0
ARC
  8
WHITE
 10
4.824742
 20
1.675424
 30
0.000000
 40
0.106728
 50
159.939819
 51
229.547330
  6
CONTINUOUS
  0
ARC
  8
WHITE
 10
4.774763
 20
1.614461
 30
0.000000
 40
0.027952
 50
-133.575043
 51
-46.424957
  6
CONTINUOUS
  0
ARC
  8
WHITE
 10
5.178485
 20
1.430097
 30
0.000000
 40
0.418018
 50
149.986204
 51
156.883693
  6
CONTINUOUS
  0
ARC
  8
WHITE
 10
4.844914
 20
1.610143
 30
0.000000
 40
0.040621
 50
31.583707
 51
134.343398
  6
CONTINUOUS
  0
ARC
  8
WHITE
 10
4.847003
 20
1.613917
 30
0.000000
 40
0.036925
 50
-5.615576
 51
28.290172
  6
CONTINUOUS
  0
ARC
  8
WHITE
 10
4.910682
 20
1.593641
 30
0.000000
 40
0.031669
 50
148.253851
 51
190.244030
  6
CONTINUOUS
  0
ARC
  8
WHITE
 10
4.930387
 20
1.605295
 30
0.000000
 40
0.053726
 50
-161.231567
 51
-64.008150
  6
CONTINUOUS
  0
ARC
  8
WHITE
 10
4.953778
 20
1.538246
 30
0.000000
 40
0.018758
 50
0.470175
 51
89.529825
  6
CONTINUOUS
  0
ARC
  8
WHITE
 10
5.091371
 20
1.563639
 30
0.000000
 40
0.121486
 50
-168.009407
 51
-145.593421
  6
CONTINUOUS
  0
ARC
  8
WHITE
 10
5.013133
 20
1.511789
 30
0.000000
 40
0.027675
 50
-142.630034
 51
3.742132
  6
CONTINUOUS
  0
ARC
  8
WHITE
 10
4.878907
 20
1.544601
 30
0.000000
 40
0.164784
 50
-10.845428
 51
10.845428
  6
CONTINUOUS
  0
ARC
  8
WHITE
 10
5.050499
 20
1.578259
 30
0.000000
 40
0.010104
 50
74.781525
 51
195.218340
  6
CONTINUOUS
  0
ARC
  8
WHITE
 10
5.080022
 20
1.680661
 30
0.000000
 40
0.096469
 50
-106.173539
 51
-53.043393
  6
CONTINUOUS
  0
ARC
  8
WHITE
 10
5.520072
 20
1.374747
 30
0.000000
 40
0.445336
 50
131.974071
 51
149.080974
  6
CONTINUOUS
  0
ARC
  8
WHITE
 10
5.241969
 20
1.679285
 30
0.000000
 40
0.033079
 50
41.239908
 51
126.628104
  6
CONTINUOUS
  0
ARC
  8
WHITE
 10
5.251637
 20
1.691539
 30
0.000000
 40
0.017958
 50
-37.504532
 51
32.136983
  6
CONTINUOUS
  0
ARC
  8
WHITE
 10
5.276685
 20
1.670292
 30
0.000000
 40
0.014935
 50
136.323608
 51
211.793032
  6
CONTINUOUS
  0
ARC
  8
WHITE
 10
5.290862
 20
1.681025
 30
0.000000
 40
0.032682
 50
-145.306583
 51
-108.436523
  6
CONTINUOUS
  0
ARC
  8
WHITE
 10
5.302851
 20
1.692725
 30
0.000000
 40
0.048187
 50
-117.599612
 51
-62.400388
  6
CONTINUOUS
  0
ARC
  8
WHITE
 10
5.394270
 20
1.585637
 30
0.000000
 40
0.094443
 50
109.200837
 51
137.021047
  6
CONTINUOUS
  0
ARC
  8
WHITE
 10
5.376258
 20
1.628059
 30
0.000000
 40
0.048553
 50
28.269911
 51
105.590175
  6
CONTINUOUS
  0
ARC
  8
WHITE
 10
5.366644
 20
1.619532
 30
0.000000
 40
0.061130
 50
-79.206956
 51
31.042073
  6
CONTINUOUS
  0
ARC
  8
WHITE
 10
5.408644
 20
1.507199
 30
0.000000
 40
0.060557
 50
120.299664
 51
211.495583
  6
CONTINUOUS
  0
ARC
  8
WHITE
 10
5.419491
 20
1.506508
 30
0.000000
 40
0.069726
 50
-153.651641
 51
-19.428146
  6
CONTINUOUS
  0
ARC
  8
WHITE
 10
4.771181
 20
1.691031
 30
0.000000
 40
0.743663
 50
-16.219240
 51
18.668697
  6
CONTINUOUS
  0
ARC
  8
WHITE
 10
5.614766
 20
1.997432
 30
0.000000
 40
0.154944
 50
157.828958
 51
206.178992
  6
CONTINUOUS
  0
ARC
  8
WHITE
 10
5.335189
 20
2.150068
 30
0.000000
 40
0.165491
 50
-34.680553
 51
28.203750
  6
CONTINUOUS
  0
ARC
  8
WHITE
 10
6.335746
 20
2.441689
 30
0.000000
 40
0.880954
 50
176.729348
 51
194.019217
  6
CONTINUOUS
  0
ARC
  8
WHITE
 10
6.043554
 20
2.497913
 30
0.000000
 40
0.587358
 50
145.131550
 51
180.581681
  6
CONTINUOUS
  0
ARC
  8
WHITE
 10
5.491374
 20
2.876286
 30
0.000000
 40
0.082169
 50
-31.214873
 51
30.103626
  6
CONTINUOUS
  0
ARC
  8
WHITE
 10
5.852293
 20
3.097414
 30
0.000000
 40
0.341134
 50
175.841471
 51
211.830132
  6
CONTINUOUS
  0
ARC
  8
WHITE
 10
3.812650
 20
3.393097
 30
0.000000
 40
1.720870
 50
-9.058728
 51
9.062709
  6
CONTINUOUS
  0
ARC
  8
WHITE
 10
5.690650
 20
3.732994
 30
0.000000
 40
0.191417
 50
158.924383
 51
201.075617
  6
CONTINUOUS
  0
ARC
  8
WHITE
 10
5.292391
 20
3.867974
 30
0.000000
 40
0.229391
 50
-16.759630
 51
35.219228
  6
CONTINUOUS
  0
ARC
  8
WHITE
 10
4.297427
 20
4.718428
 30
0.000000
 40
0.078282
 50
-170.282433
 51
-112.725426
  6
CONTINUOUS
  0
ARC
  8
WHITE
 10
4.257574
 20
4.603027
 30
0.000000
 40
0.044253
 50
19.289499
 51
77.455847
  6
CONTINUOUS
  0
ARC
  8
WHITE
 10
3.294846
 20
4.356215
 30
0.000000
 40
1.037959
 50
-33.584473
 51
14.588190
  6
CONTINUOUS
  0
ARC
  8
WHITE
 10
5.569745
 20
2.503458
 30
0.000000
 40
1.903544
 50
137.802279
 51
150.718605
  6
CONTINUOUS
  0
ARC
  8
WHITE
 10
3.461265
 20
3.600240
 30
0.000000
 40
0.477828
 50
-40.368716
 51
-20.298099
  6
CONTINUOUS
  0
ARC
  8
WHITE
 10
3.978796
 20
3.196124
 30
0.000000
 40
0.180302
 50
148.344513
 51
199.537180
  6
CONTINUOUS
  0
ARC
  8
WHITE
 10
3.574479
 20
2.956590
 30
0.000000
 40
0.295072
 50
4.282047
 51
37.404477
  6
CONTINUOUS
  0
ARC
  8
WHITE
 10
2.863558
 20
2.808051
 30
0.000000
 40
1.019539
 50
-8.343964
 51
9.630995
  6
CONTINUOUS
  0
ARC
  8
WHITE
 10
4.921387
 20
2.363123
 30
0.000000
 40
1.090307
 50
164.194083
 51
181.627840
  6
CONTINUOUS
  0
ARC
  8
WHITE
 10
3.682350
 20
2.320197
 30
0.000000
 40
0.149648
 50
-45.307827
 51
4.581186
  6
CONTINUOUS
  0
ARC
  8
WHITE
 10
3.884997
 20
2.176408
 30
0.000000
 40
0.104336
 50
158.991444
 51
208.161204
  6
CONTINUOUS
  0
ARC
  8
WHITE
 10
3.003172
 20
1.649049
 30
0.000000
 40
0.923279
 50
10.594845
 51
31.187961
  6
CONTINUOUS
  0
ARC
  8
WHITE
 10
4.081862
 20
1.834556
 30
0.000000
 40
0.171874
 50
-174.741981
 51
-147.478138
  6
CONTINUOUS
  0
ARC
  8
WHITE
 10
3.908463
 20
1.725861
 30
0.000000
 40
0.032808
 50
-151.196916
 51
29.774296
  6
CONTINUOUS
  0
ARC
  8
WHITE
 10
5.957372
 20
2.941441
 30
0.000000
 40
2.415155
 50
-164.233432
 51
-149.345619
  6
CONTINUOUS
  0
ARC
  8
WHITE
 10
3.879517
 20
2.368618
 30
0.000000
 40
0.260171
 50
161.298501
 51
198.701498
  6
CONTINUOUS
  0
ARC
  8
WHITE
 10
4.389729
 20
2.196660
 30
0.000000
 40
0.798581
 50
144.634745
 51
161.349690
  6
CONTINUOUS
  0
ARC
  8
WHITE
 10
3.184328
 20
2.868612
 30
0.000000
 40
0.592539
 50
-20.730735
 51
20.730735
  6
CONTINUOUS
  0
ARC
  8
WHITE
 10
10.921492
 20
4.375798
 30
0.000000
 40
7.299226
 50
178.276044
 51
190.238761
  6
CONTINUOUS
  0
ARC
  8
WHITE
 10
3.787318
 20
4.615015
 30
0.000000
 40
0.162934
 50
160.055878
 51
186.918269
  6
CONTINUOUS
  0
ARC
  8
WHITE
 10
3.303580
 20
4.923658
 30
0.000000
 40
0.416320
 50
-37.435009
 51
0.123852
  6
CONTINUOUS
  0
ARC
  8
WHITE
 10
3.902076
 20
4.845813
 30
0.000000
 40
0.198468
 50
129.636415
 51
156.623790
  6
CONTINUOUS
  0
ARC
  8
WHITE
 10
3.793672
 20
4.971235
 30
0.000000
 40
0.032910
 50
36.860057
 51
123.576839
  6
CONTINUOUS
  0
ARC
  8
WHITE
 10
3.866809
 20
4.998980
 30
0.000000
 40
0.047485
 50
-170.297068
 51
-127.775403
  6
CONTINUOUS
  0
ARC
  8
WHITE
 10
3.852410
 20
4.971649
 30
0.000000
 40
0.017884
 50
-145.217996
 51
-34.782004
  6
CONTINUOUS
  0
ARC
  8
WHITE
 10
3.953012
 20
4.931861
 30
0.000000
 40
0.090865
 50
116.630179
 51
160.997718
  6
CONTINUOUS
  0
ARC
  8
WHITE
 10
3.926158
 20
4.933477
 30
0.000000
 40
0.080809
 50
61.548984
 51
99.885827
  6
CONTINUOUS
  0
ARC
  8
WHITE
 10
3.957260
 20
4.990200
 30
0.000000
 40
0.016123
 50
-26.574591
 51
62.695533
  6
CONTINUOUS
  0
ARC
  8
WHITE
 10
4.001226
 20
4.969642
 30
0.000000
 40
0.032421
 50
155.693017
 51
190.401067
  6
CONTINUOUS
  0
ARC
  8
WHITE
 10
3.988402
 20
4.968104
 30
0.000000
 40
0.019546
 50
-167.244444
 51
-102.808224
  6
CONTINUOUS
  0
ARC
  8
WHITE
 10
4.000812
 20
5.012090
 30
0.000000
 40
0.065231
 50
-104.872963
 51
-42.945482
  6
CONTINUOUS
  0
ARC
  8
WHITE
 10
4.067895
 20
4.954128
 30
0.000000
 40
0.023592
 50
17.436244
 51
145.034369
  6
CONTINUOUS
  0
ARC
  8
WHITE
 10
4.146389
 20
4.961868
 30
0.000000
 40
0.055990
 50
-179.313094
 51
-116.675816
  6
CONTINUOUS
  0
ARC
  8
WHITE
 10
4.134929
 20
4.955912
 30
0.000000
 40
0.046148
 50
-107.240115
 51
-33.500276
  6
CONTINUOUS
  0
ARC
  8
WHITE
 10
4.183799
 20
4.892047
 30
0.000000
 40
0.039775
 50
-15.139709
 51
105.139709
  6
CONTINUOUS
  0
ARC
  8
WHITE
 10
4.429032
 20
4.791169
 30
0.000000
 40
0.225766
 50
156.371055
 51
202.378318
  6
CONTINUOUS
  0
ARC
  8
WHITE
 10
8.524731
 20
1.359702
 30
0.000000
 40
0.054229
 50
175.966936
 51
268.142168
  6
CONTINUOUS
  0
ARC
  8
WHITE
 10
8.805807
 20
2.029660
 30
0.000000
 40
0.777432
 50
-111.334047
 51
-81.873147
  6
CONTINUOUS
  0
ARC
  8
WHITE
 10
8.932697
 20
2.502831
 30
0.000000
 40
1.242911
 50
-90.783168
 51
-65.839982
  6
CONTINUOUS
  0
ARC
  8
WHITE
 10
9.579690
 20
1.125058
 30
0.000000
 40
0.280230
 50
64.551980
 51
119.569171
  6
CONTINUOUS
  0
ARC
  8
WHITE
 10
9.654195
 20
1.338251
 30
0.000000
 40
0.060790
 50
-51.992302
 51
40.958441
  6
CONTINUOUS
  0
ARC
  8
WHITE
 10
9.663722
 20
1.353481
 30
0.000000
 40
0.069020
 50
-143.474265
 51
-66.152331
  6
CONTINUOUS
  0
ARC
  8
WHITE
 10
9.585059
 20
1.288571
 30
0.000000
 40
0.033258
 50
45.767880
 51
158.514906
  6
CONTINUOUS
  0
ARC
  8
WHITE
 10
9.474294
 20
1.346513
 30
0.000000
 40
0.092005
 50
-61.641714
 51
-29.826149
  6
CONTINUOUS
  0
ARC
  8
WHITE
 10
9.568858
 20
1.218831
 30
0.000000
 40
0.069062
 50
137.432486
 51
203.642841
  6
CONTINUOUS
  0
ARC
  8
WHITE
 10
9.471799
 20
1.179955
 30
0.000000
 40
0.035594
 50
-118.377577
 51
18.305820
  6
CONTINUOUS
  0
ARC
  8
WHITE
 10
9.499722
 20
1.307525
 30
0.000000
 40
0.165093
 50
-138.973619
 51
-105.759657
  6
CONTINUOUS
  0
ARC
  8
WHITE
 10
9.342039
 20
1.150020
 30
0.000000
 40
0.059265
 50
56.006664
 51
117.633675
  6
CONTINUOUS
  0
ARC
  8
WHITE
 10
9.335472
 20
1.178102
 30
0.000000
 40
0.032158
 50
130.583174
 51
226.550300
  6
CONTINUOUS
  0
ARC
  8
WHITE
 10
9.275489
 20
1.106976
 30
0.000000
 40
0.060965
 50
22.138347
 51
51.601492
  6
CONTINUOUS
  0
ARC
  8
WHITE
 10
9.265722
 20
1.108544
 30
0.000000
 40
0.069611
 50
-59.593828
 51
17.909697
  6
CONTINUOUS
  0
ARC
  8
WHITE
 10
9.328142
 20
0.956514
 30
0.000000
 40
0.095927
 50
106.464905
 51
156.786698
  6
CONTINUOUS
  0
ARC
  8
WHITE
 10
9.200252
 20
1.021096
 30
0.000000
 40
0.047907
 50
-101.152626
 51
-33.974389
  6
CONTINUOUS
  0
ARC
  8
WHITE
 10
9.190743
 20
0.999451
 30
0.000000
 40
0.025359
 50
-172.782964
 51
-89.451124
  6
CONTINUOUS
  0
ARC
  8
WHITE
 10
9.126674
 20
0.996327
 30
0.000000
 40
0.038911
 50
-0.090507
 51
59.645950
  6
CONTINUOUS
  0
ARC
  8
WHITE
 10
9.106531
 20
0.913975
 30
0.000000
 40
0.122573
 50
71.049010
 51
153.228917
  6
CONTINUOUS
  0
ARC
  8
WHITE
 10
9.178661
 20
0.933001
 30
0.000000
 40
0.185135
 50
168.729069
 51
213.969149
  6
CONTINUOUS
  0
ARC
  8
WHITE
 10
8.935099
 20
0.779018
 30
0.000000
 40
0.103239
 50
-43.891206
 51
29.310300
  6
CONTINUOUS
  0
ARC
  8
WHITE
 10
8.960783
 20
0.773925
 30
0.000000
 40
0.082420
 50
-116.886228
 51
-53.767032
  6
CONTINUOUS
  0
ARC
  8
WHITE
 10
8.949417
 20
0.746580
 30
0.000000
 40
0.052938
 50
178.771962
 51
240.700877
  6
CONTINUOUS
  0
ARC
  8
WHITE
 10
8.810056
 20
0.719689
 30
0.000000
 40
0.090865
 50
17.964372
 51
57.149813
  6
CONTINUOUS
  0
ARC
  8
WHITE
 10
8.896018
 20
0.866519
 30
0.000000
 40
0.079463
 50
-153.825113
 51
-117.484561
  6
CONTINUOUS
  0
ARC
  8
WHITE
 10
8.812104
 20
0.818067
 30
0.000000
 40
0.018392
 50
46.763040
 51
133.236960
  6
CONTINUOUS
  0
ARC
  8
WHITE
 10
8.684363
 20
0.842951
 30
0.000000
 40
0.115713
 50
-73.078174
 51
-5.695825
  6
CONTINUOUS
  0
ARC
  8
WHITE
 10
8.702541
 20
0.770075
 30
0.000000
 40
0.040881
 50
-170.394802
 51
-67.714392
  6
CONTINUOUS
  0
ARC
  8
WHITE
 10
8.967394
 20
0.841672
 30
0.000000
 40
0.315076
 50
165.927410
 51
194.411664
  6
CONTINUOUS
  0
ARC
  8
WHITE
 10
8.621739
 20
0.920992
 30
0.000000
 40
0.040127
 50
-3.870475
 51
118.303459
  6
CONTINUOUS
  0
ARC
  8
WHITE
 10
8.657498
 20
0.859300
 30
0.000000
 40
0.111420
 50
119.452262
 51
157.280262
  6
CONTINUOUS
  0
ARC
  8
WHITE
 10
8.519287
 20
0.922774
 30
0.000000
 40
0.040909
 50
-130.658016
 51
-29.977431
  6
CONTINUOUS
  0
ARC
  8
WHITE
 10
8.443439
 20
0.845486
 30
0.000000
 40
0.067524
 50
43.235584
 51
80.564749
  6
CONTINUOUS
  0
ARC
  8
WHITE
 10
8.454508
 20
0.884207
 30
0.000000
 40
0.027889
 50
90.000000
 51
204.150302
  6
CONTINUOUS
  0
ARC
  8
WHITE
 10
8.374677
 20
0.853254
 30
0.000000
 40
0.057788
 50
-52.692599
 51
19.765913
  6
CONTINUOUS
  0
ARC
  8
WHITE
 10
8.341945
 20
0.848737
 30
0.000000
 40
0.079428
 50
-113.059673
 51
-31.454559
  6
CONTINUOUS
  0
ARC
  8
WHITE
 10
8.324549
 20
0.845231
 30
0.000000
 40
0.070914
 50
-157.699601
 51
-101.151624
  6
CONTINUOUS
  0
ARC
  8
WHITE
 10
8.112472
 20
0.804315
 30
0.000000
 40
0.147136
 50
5.462628
 51
47.090695
  6
CONTINUOUS
  0
ARC
  8
WHITE
 10
8.195245
 20
0.887983
 30
0.000000
 40
0.029725
 50
54.164868
 51
145.700755
  6
CONTINUOUS
  0
ARC
  8
WHITE
 10
8.081472
 20
0.943160
 30
0.000000
 40
0.097140
 50
-57.051438
 51
-23.301856
  6
CONTINUOUS
  0
ARC
  8
WHITE
 10
8.101044
 20
0.900936
 30
0.000000
 40
0.051480
 50
-119.816503
 51
-49.751570
  6
CONTINUOUS
  0
ARC
  8
WHITE
 10
8.110359
 20
0.926327
 30
0.000000
 40
0.078273
 50
-163.836057
 51
-116.489304
  6
CONTINUOUS
  0
ARC
  8
WHITE
 10
8.017815
 20
0.898929
 30
0.000000
 40
0.018249
 50
17.897034
 51
141.024208
  6
CONTINUOUS
  0
ARC
  8
WHITE
 10
8.143538
 20
0.810790
 30
0.000000
 40
0.171751
 50
144.548698
 51
181.377143
  6
CONTINUOUS
  0
ARC
  8
WHITE
 10
7.947450
 20
0.800004
 30
0.000000
 40
0.025279
 50
-144.612154
 51
15.270666
  6
CONTINUOUS
  0
ARC
  8
WHITE
 10
8.164703
 20
0.973865
 30
0.000000
 40
0.303496
 50
-153.335871
 51
-141.603981
  6
CONTINUOUS
  0
ARC
  8
WHITE
 10
8.400920
 20
1.007469
 30
0.000000
 40
0.535093
 50
154.306188
 51
198.501520
  6
CONTINUOUS
  0
ARC
  8
WHITE
 10
7.609618
 20
1.477601
 30
0.000000
 40
0.390208
 50
-37.609886
 51
-25.606731
  6
CONTINUOUS
  0
ARC
  8
WHITE
 10
8.054742
 20
1.316425
 30
0.000000
 40
0.093540
 50
147.269047
 51
184.579684
  6
CONTINUOUS
  0
ARC
  8
WHITE
 10
8.003634
 20
1.353826
 30
0.000000
 40
0.030565
 50
52.654449
 51
154.463759
  6
CONTINUOUS
  0
ARC
  8
WHITE
 10
8.071340
 20
1.396553
 30
0.000000
 40
0.052505
 50
-159.452531
 51
-106.320187
  6
CONTINUOUS
  0
ARC
  8
WHITE
 10
8.071469
 20
1.390267
 30
0.000000
 40
0.046546
 50
-108.647524
 51
-71.352475
  6
CONTINUOUS
  0
ARC
  8
WHITE
 10
8.000155
 20
1.472137
 30
0.000000
 40
0.152641
 50
-55.618276
 51
-14.509505
  6
CONTINUOUS
  0
ARC
  8
WHITE
 10
8.185149
 20
1.420946
 30
0.000000
 40
0.039409
 50
20.965327
 51
160.818112
  6
CONTINUOUS
  0
ARC
  8
WHITE
 10
8.397946
 20
1.410450
 30
0.000000
 40
0.177707
 50
172.044097
 51
202.703612
  6
CONTINUOUS
  0
ARC
  8
WHITE
 10
8.291268
 20
1.388180
 30
0.000000
 40
0.073647
 50
-141.029411
 51
-82.530124
  6
CONTINUOUS
  0
ARC
  8
WHITE
 10
8.310010
 20
1.350191
 30
0.000000
 40
0.036213
 50
-104.664499
 51
6.726986
  6
CONTINUOUS
  0
ARC
  8
WHITE
 10
8.421347
 20
1.367662
 30
0.000000
 40
0.076526
 50
136.822810
 51
189.954695
  6
CONTINUOUS
  0
ARC
  8
WHITE
 10
8.412590
 20
1.381051
 30
0.000000
 40
0.061095
 50
33.057006
 51
140.362436
  6
CONTINUOUS
  0
ARC
  8
WHITE
 10
8.412266
 20
1.381555
 30
0.000000
 40
0.061095
 50
-17.173111
 51
32.494832
  6
CONTINUOUS
  0
ARC
  8
WHITE
 10
10.520233
 20
10.392759
 30
0.000000
 40
0.694073
 50
83.237754
 51
104.156646
  6
CONTINUOUS
  0
ARC
  8
WHITE
 10
10.289399
 20
11.169204
 30
0.000000
 40
0.120138
 50
-129.191764
 51
-59.440291
  6
CONTINUOUS
  0
ARC
  8
WHITE
 10
10.064828
 20
10.889517
 30
0.000000
 40
0.238555
 50
51.454120
 51
74.149182
  6
CONTINUOUS
  0
ARC
  8
WHITE
 10
10.014514
 20
9.409346
 30
0.000000
 40
1.713551
 50
86.136066
 51
93.434241
  6
CONTINUOUS
  0
ARC
  8
WHITE
 10
9.916487
 20
11.144802
 30
0.000000
 40
0.025407
 50
166.589529
 51
259.522116
  6
CONTINUOUS
  0
ARC
  8
WHITE
 10
9.960600
 20
11.123402
 30
0.000000
 40
0.074041
 50
126.467598
 51
158.369405
  6
CONTINUOUS
  0
ARC
  8
WHITE
 10
9.812092
 20
11.511746
 30
0.000000
 40
0.345008
 50
-72.368482
 51
2.703862
  6
CONTINUOUS
  0
ARC
  8
WHITE
 10
10.218395
 20
11.557072
 30
0.000000
 40
0.068178
 50
125.541568
 51
205.220151
  6
CONTINUOUS
  0
ARC
  8
WHITE
 10
10.239629
 20
11.388195
 30
0.000000
 40
0.232463
 50
89.071294
 51
105.178726
  6
CONTINUOUS
  0
ARC
  8
WHITE
 10
10.141256
 20
11.086171
 30
0.000000
 40
0.544129
 50
4.353964
 51
79.180548
  6
CONTINUOUS
  0
ARC
  8
WHITE
 10
10.646703
 20
11.124205
 30
0.000000
 40
0.037257
 50
-62.206732
 51
5.042170
  6
CONTINUOUS
  0
ARC
  8
WHITE
 10
10.605804
 20
11.269498
 30
0.000000
 40
0.187533
 50
-91.174537
 51
-71.897242
  6
CONTINUOUS
  0
ARC
  8
WHITE
 10
4.112015
 20
7.907596
 30
0.000000
 40
0.395177
 50
113.549399
 51
172.863962
  6
CONTINUOUS
  0
ARC
  8
WHITE
 10
3.765719
 20
7.944611
 30
0.000000
 40
0.047385
 50
165.235290
 51
224.016486
  6
CONTINUOUS
  0
ARC
  8
WHITE
 10
3.755937
 20
7.952398
 30
0.000000
 40
0.047410
 50
-120.824802
 51
-74.364486
  6
CONTINUOUS
  0
ARC
  8
WHITE
 10
3.768783
 20
7.893767
 30
0.000000
 40
0.012975
 50
-31.587642
 51
90.303149
  6
CONTINUOUS
  0
ARC
  8
WHITE
 10
3.996043
 20
7.709544
 30
0.000000
 40
0.279689
 50
140.626616
 51
189.131333
  6
CONTINUOUS
  0
ARC
  8
WHITE
 10
3.744017
 20
7.671952
 30
0.000000
 40
0.025057
 50
-164.268527
 51
-84.435539
  6
CONTINUOUS
  0
ARC
  8
WHITE
 10
3.748342
 20
7.667405
 30
0.000000
 40
0.020480
 50
-95.307949
 51
-53.821555
  6
CONTINUOUS
  0
ARC
  8
WHITE
 10
3.771363
 20
7.646006
 30
0.000000
 40
0.011967
 50
-28.186559
 51
155.995697
  6
CONTINUOUS
  0
ARC
  8
WHITE
 10
4.286245
 20
7.581919
 30
0.000000
 40
0.507708
 50
173.390979
 51
232.068486
  6
CONTINUOUS
  0
ARC
  8
WHITE
 10
3.898861
 20
7.129184
 30
0.000000
 40
0.091660
 50
-0.805631
 51
34.778123
  6
CONTINUOUS
  0
ARC
  8
WHITE
 10
2.638949
 20
7.051847
 30
0.000000
 40
1.353700
 50
-19.453234
 51
3.220458
  6
CONTINUOUS
  0
ARC
  8
WHITE
 10
3.978597
 20
6.552353
 30
0.000000
 40
0.079784
 50
142.416746
 51
222.451742
  6
CONTINUOUS
  0
ARC
  8
WHITE
 10
3.806299
 20
6.327626
 30
0.000000
 40
0.205097
 50
16.431193
 51
56.423172
  6
CONTINUOUS
  0
ARC
  8
WHITE
 10
2.539073
 20
6.078814
 30
0.000000
 40
1.495756
 50
-5.427494
 51
11.837215
  6
CONTINUOUS
  0
ARC
  8
WHITE
 10
4.080017
 20
5.911482
 30
0.000000
 40
0.057978
 50
153.517511
 51
256.695756
  6
CONTINUOUS
  0
ARC
  8
WHITE
 10
4.113761
 20
5.937999
 30
0.000000
 40
0.095373
 50
-119.584460
 51
-86.408881
  6
CONTINUOUS
  0
ARC
  8
WHITE
 10
4.124209
 20
5.808256
 30
0.000000
 40
0.034846
 50
-7.376255
 51
97.376254
  6
CONTINUOUS
  0
ARC
  8
WHITE
 10
4.892096
 20
5.794623
 30
0.000000
 40
0.733387
 50
179.284454
 51
218.956864
  6
CONTINUOUS
  0
ARC
  8
WHITE
 10
4.343409
 20
5.348004
 30
0.000000
 40
0.026016
 50
-146.161116
 51
54.219465
  6
CONTINUOUS
  0
ARC
  8
WHITE
 10
4.963580
 20
5.828203
 30
0.000000
 40
0.759437
 50
-179.732652
 51
-142.805799
  6
CONTINUOUS
  0
ARC
  8
WHITE
 10
4.141604
 20
5.827707
 30
0.000000
 40
0.062622
 50
-2.789418
 51
84.253632
  6
CONTINUOUS
  0
ARC
  8
WHITE
 10
4.158855
 20
6.056654
 30
0.000000
 40
0.167001
 50
-115.118017
 51
-93.770055
  6
CONTINUOUS
  0
ARC
  8
WHITE
 10
4.099312
 20
5.925869
 30
0.000000
 40
0.023364
 50
150.945396
 51
240.945394
  6
CONTINUOUS
  0
ARC
  8
WHITE
 10
3.804030
 20
5.978948
 30
0.000000
 40
0.278008
 50
-8.633420
 51
-1.803082
  6
CONTINUOUS
  0
ARC
  8
WHITE
 10
1.351818
 20
5.996851
 30
0.000000
 40
2.730213
 50
-0.559306
 51
8.865802
  6
CONTINUOUS
  0
ARC
  8
WHITE
 10
3.908222
 20
6.405230
 30
0.000000
 40
0.141732
 50
5.020648
 51
60.029133
  6
CONTINUOUS
  0
ARC
  8
WHITE
 10
4.004923
 20
6.559423
 30
0.000000
 40
0.040712
 50
151.468881
 51
230.497963
  6
CONTINUOUS
  0
ARC
  8
WHITE
 10
2.523805
 20
7.034145
 30
0.000000
 40
1.515359
 50
-17.484106
 51
1.327417
  6
CONTINUOUS
  0
ARC
  8
WHITE
 10
4.239632
 20
7.049747
 30
0.000000
 40
0.201819
 50
131.800269
 51
174.454784
  6
CONTINUOUS
  0
ARC
  8
WHITE
 10
3.824585
 20
7.464779
 30
0.000000
 40
0.385615
 50
-43.324437
 51
-14.610885
  6
CONTINUOUS
  0
ARC
  8
WHITE
 10
4.387339
 20
7.362269
 30
0.000000
 40
0.189681
 50
145.726394
 51
178.417766
  6
CONTINUOUS
  0
ARC
  8
WHITE
 10
4.093156
 20
7.714602
 30
0.000000
 40
0.281366
 50
-60.759980
 51
9.056255
  6
CONTINUOUS
  0
ARC
  8
WHITE
 10
4.324307
 20
7.754890
 30
0.000000
 40
0.046878
 50
4.895808
 51
37.127992
  6
CONTINUOUS
  0
ARC
  8
WHITE
 10
4.368819
 20
7.792407
 30
0.000000
 40
0.011660
 50
112.871273
 51
232.265913
  6
CONTINUOUS
  0
ARC
  8
WHITE
 10
4.373655
 20
7.830722
 30
0.000000
 40
0.029120
 50
-108.766135
 51
-8.164282
  6
CONTINUOUS
  0
ARC
  8
WHITE
 10
4.078927
 20
7.992830
 30
0.000000
 40
0.363763
 50
-27.194339
 51
32.398345
  6
CONTINUOUS
  0
ARC
  8
WHITE
 10
4.358210
 20
8.172719
 30
0.000000
 40
0.031647
 50
28.325234
 51
210.390273
  6
CONTINUOUS
  0
ARC
  8
WHITE
 10
3.994390
 20
7.943668
 30
0.000000
 40
0.398288
 50
-11.806430
 51
32.336665
  6
CONTINUOUS
  0
ARC
  8
WHITE
 10
4.346332
 20
7.875742
 30
0.000000
 40
0.040274
 50
-113.249884
 51
-19.685417
  6
CONTINUOUS
  0
ARC
  8
WHITE
 10
4.332065
 20
7.820679
 30
0.000000
 40
0.018133
 50
95.159455
 51
201.659797
  6
CONTINUOUS
  0
ARC
  8
WHITE
 10
4.107445
 20
7.733568
 30
0.000000
 40
0.222787
 50
-56.655445
 51
21.159487
  6
CONTINUOUS
  0
ARC
  8
WHITE
 10
4.260008
 20
7.462478
 30
0.000000
 40
0.090153
 50
109.506697
 51
175.356119
  6
CONTINUOUS
  0
ARC
  8
WHITE
 10
3.882391
 20
7.515903
 30
0.000000
 40
0.291434
 50
-52.548713
 51
-9.106611
  6
CONTINUOUS
  0
ARC
  8
WHITE
 10
4.018476
 20
7.342662
 30
0.000000
 40
0.071203
 50
-120.882255
 51
-54.712549
  6
CONTINUOUS
  0
ARC
  8
WHITE
 10
4.211350
 20
7.595096
 30
0.000000
 40
0.388513
 50
176.448893
 51
233.806755
  6
CONTINUOUS
  0
ARC
  8
WHITE
 10
3.713096
 20
7.639994
 30
0.000000
 40
0.112434
 50
-10.678513
 51
31.317564
  6
CONTINUOUS
  0
ARC
  8
WHITE
 10
3.794776
 20
7.692733
 30
0.000000
 40
0.015462
 50
21.639080
 51
125.982507
  6
CONTINUOUS
  0
ARC
  8
WHITE
 10
3.779893
 20
7.711900
 30
0.000000
 40
0.008828
 50
156.082403
 51
311.064759
  6
CONTINUOUS
  0
ARC
  8
WHITE
 10
4.024720
 20
7.706043
 30
0.000000
 40
0.253073
 50
137.638899
 51
177.863055
  6
CONTINUOUS
  0
ARC
  8
WHITE
 10
3.813265
 20
7.911201
 30
0.000000
 40
0.042401
 50
-54.775548
 51
86.156058
  6
CONTINUOUS
  0
ARC
  8
WHITE
 10
3.806971
 20
7.965556
 30
0.000000
 40
0.015122
 50
147.237571
 51
307.172205
  6
CONTINUOUS
  0
ARC
  8
WHITE
 10
4.232404
 20
7.853076
 30
0.000000
 40
0.454461
 50
126.262277
 51
164.602785
  6
CONTINUOUS
  0
ARC
  8
WHITE
 10
3.950668
 20
8.243147
 30
0.000000
 40
0.026937
 50
-61.314381
 51
82.625098
  6
CONTINUOUS
  0
ARC
  8
WHITE
 10
6.623868
 20
1.144148
 30
0.000000
 40
0.474586
 50
-47.497617
 51
-19.930184
  6
CONTINUOUS
  0
ARC
  8
WHITE
 10
7.095749
 20
0.977515
 30
0.000000
 40
0.026174
 50
33.441262
 51
169.302066
  6
CONTINUOUS
  0
ARC
  8
WHITE
 10
7.325448
 20
1.078823
 30
0.000000
 40
0.225286
 50
-157.315036
 51
-132.257266
  6
CONTINUOUS
  0
ARC
  8
WHITE
 10
7.191522
 20
0.952247
 30
0.000000
 40
0.043840
 50
-113.627122
 51
-66.372876
  6
CONTINUOUS
  0
ARC
  8
WHITE
 10
7.009016
 20
1.269954
 30
0.000000
 40
0.410004
 50
-60.791627
 51
-40.613329
  6
CONTINUOUS
  0
ARC
  8
WHITE
 10
7.488013
 20
0.918282
 30
0.000000
 40
0.187962
 50
116.588324
 51
153.188976
  6
CONTINUOUS
  0
ARC
  8
WHITE
 10
7.360336
 20
1.201123
 30
0.000000
 40
0.122744
 50
-69.218488
 51
-45.124428
  6
CONTINUOUS
  0
ARC
  8
WHITE
 10
7.540324
 20
1.003959
 30
0.000000
 40
0.144433
 50
114.560968
 51
130.282501
  6
CONTINUOUS
  0
ARC
  8
WHITE
 10
7.489259
 20
1.110112
 30
0.000000
 40
0.026760
 50
-13.406286
 51
109.585735
  6
CONTINUOUS
  0
ARC
  8
WHITE
 10
8.457076
 20
1.174541
 30
0.000000
 40
0.944431
 50
-175.710905
 51
-159.112461
  6
CONTINUOUS
  0
ARC
  8
WHITE
 10
7.549538
 20
0.837818
 30
0.000000
 40
0.025173
 50
-82.453633
 51
0.000000
  6
CONTINUOUS
  0
ARC
  8
WHITE
 10
7.535599
 20
0.874215
 30
0.000000
 40
0.063730
 50
-145.006884
 51
-74.300102
  6
CONTINUOUS
  0
ARC
  8
WHITE
 10
7.457552
 20
0.806374
 30
0.000000
 40
0.040582
 50
50.454919
 51
165.882451
  6
CONTINUOUS
  0
ARC
  8
WHITE
 10
7.353050
 20
0.804219
 30
0.000000
 40
0.066251
 50
-42.391017
 51
10.482512
  6
CONTINUOUS
  0
ARC
  8
WHITE
 10
7.519082
 20
0.707481
 30
0.000000
 40
0.128157
 50
156.026391
 51
181.865163
  6
CONTINUOUS
  0
ARC
  8
WHITE
 10
7.335182
 20
0.715493
 30
0.000000
 40
0.057125
 50
-115.735591
 51
-12.314467
  6
CONTINUOUS
  0
ARC
  8
WHITE
 10
7.084863
 20
0.486061
 30
0.000000
 40
0.287283
 50
38.280072
 51
51.719928
  6
CONTINUOUS
  0
ARC
  8
WHITE
 10
7.238454
 20
0.660479
 30
0.000000
 40
0.056617
 50
64.490877
 51
156.958405
  6
CONTINUOUS
  0
ARC
  8
WHITE
 10
7.273297
 20
0.665843
 30
0.000000
 40
0.088550
 50
169.066078
 51
212.670783
  6
CONTINUOUS
  0
ARC
  8
WHITE
 10
7.162842
 20
0.600731
 30
0.000000
 40
0.039869
 50
-64.265436
 51
25.734563
  6
CONTINUOUS
  0
ARC
  8
WHITE
 10
7.160774
 20
0.588009
 30
0.000000
 40
0.030223
 50
-129.879840
 51
-50.120162
  6
CONTINUOUS
  0
ARC
  8
WHITE
 10
7.015055
 20
0.496267
 30
0.000000
 40
0.143739
 50
28.483193
 51
59.902969
  6
CONTINUOUS
  0
ARC
  8
WHITE
 10
7.080004
 20
0.613238
 30
0.000000
 40
0.010269
 50
46.015457
 51
133.984547
  6
CONTINUOUS
  0
ARC
  8
WHITE
 10
6.896887
 20
0.709454
 30
0.000000
 40
0.197132
 50
-46.481538
 51
-26.781917
  6
CONTINUOUS
  0
ARC
  8
WHITE
 10
6.983782
 20
0.628976
 30
0.000000
 40
0.079303
 50
-105.108359
 51
-51.978208
  6
CONTINUOUS
  0
ARC
  8
WHITE
 10
6.968030
 20
0.577649
 30
0.000000
 40
0.025710
 50
132.350607
 51
258.972712
  6
CONTINUOUS
  0
ARC
  8
WHITE
 10
6.864699
 20
0.689470
 30
0.000000
 40
0.126543
 50
-47.180680
 51
-22.375317
  6
CONTINUOUS
  0
ARC
  8
WHITE
 10
6.945539
 20
0.655359
 30
0.000000
 40
0.038813
 50
-21.239345
 51
120.388399
  6
CONTINUOUS
  0
ARC
  8
WHITE
 10
6.829572
 20
0.793726
 30
0.000000
 40
0.142412
 50
-86.168542
 51
-47.434272
  6
CONTINUOUS
  0
ARC
  8
WHITE
 10
6.835826
 20
0.681538
 30
0.000000
 40
0.030082
 50
135.734019
 51
276.225944
  6
CONTINUOUS
  0
ARC
  8
WHITE
 10
6.760511
 20
0.772168
 30
0.000000
 40
0.087979
 50
-52.323539
 51
-18.983938
  6
CONTINUOUS
  0
ARC
  8
WHITE
 10
6.775458
 20
0.760180
 30
0.000000
 40
0.070244
 50
-13.696443
 51
67.903304
  6
CONTINUOUS
  0
ARC
  8
WHITE
 10
6.806958
 20
0.884203
 30
0.000000
 40
0.059156
 50
-157.583018
 51
-94.922666
  6
CONTINUOUS
  0
ARC
  8
WHITE
 10
6.797543
 20
0.883183
 30
0.000000
 40
0.050134
 50
51.496749
 51
205.443729
  6
CONTINUOUS
  0
ARC
  8
WHITE
 10
6.759294
 20
0.830219
 30
0.000000
 40
0.115434
 50
2.970911
 51
53.006001
  6
CONTINUOUS
  0
ARC
  8
WHITE
 10
6.925905
 20
0.842517
 30
0.000000
 40
0.051719
 50
-172.986808
 51
-68.918093
  6
CONTINUOUS
  0
ARC
  8
WHITE
 10
7.962586
 20
1.784129
 30
0.000000
 40
0.210123
 50
-97.077647
 51
-82.922353
  6
CONTINUOUS
  0
ARC
  8
WHITE
 10
7.970145
 20
1.641889
 30
0.000000
 40
0.068770
 50
-74.540454
 51
16.986825
  6
CONTINUOUS
  0
ARC
  8
WHITE
 10
7.973223
 20
1.624577
 30
0.000000
 40
0.073002
 50
30.821031
 51
69.567845
  6
CONTINUOUS
  0
ARC
  8
WHITE
 10
8.016411
 20
1.709545
 30
0.000000
 40
0.024241
 50
136.912521
 51
223.087476
  6
CONTINUOUS
  0
ARC
  8
WHITE
 10
8.107182
 20
1.656668
 30
0.000000
 40
0.128795
 50
106.364416
 51
147.375766
  6
CONTINUOUS
  0
ARC
  8
WHITE
 10
8.073639
 20
1.824810
 30
0.000000
 40
0.044649
 50
-93.523697
 51
-34.404743
  6
CONTINUOUS
  0
ARC
  8
WHITE
 10
7.913536
 20
1.848844
 30
0.000000
 40
0.203008
 50
-14.043568
 51
-0.692444
  6
CONTINUOUS
  0
ARC
  8
WHITE
 10
7.928193
 20
1.791528
 30
0.000000
 40
0.196165
 50
16.240914
 51
62.979990
  6
CONTINUOUS
  0
ARC
  8
WHITE
 10
8.024375
 20
1.978686
 30
0.000000
 40
0.014275
 50
96.562830
 51
240.341279
  6
CONTINUOUS
  0
ARC
  8
WHITE
 10
7.834553
 20
2.540796
 30
0.000000
 40
0.579346
 50
-71.044530
 51
-42.869693
  6
CONTINUOUS
  0
ARC
  8
WHITE
 10
8.222216
 20
2.171186
 30
0.000000
 40
0.044348
 50
-33.594534
 51
56.405333
  6
CONTINUOUS
  0
ARC
  8
WHITE
 10
8.222650
 20
2.084087
 30
0.000000
 40
0.126360
 50
79.002965
 51
136.592362
  6
CONTINUOUS
  0
ARC
  8
WHITE
 10
8.098886
 20
2.205666
 30
0.000000
 40
0.047214
 50
-160.006596
 51
-47.386813
  6
CONTINUOUS
  0
ARC
  8
WHITE
 10
8.135094
 20
2.204016
 30
0.000000
 40
0.081868
 50
136.562483
 51
190.196238
  6
CONTINUOUS
  0
ARC
  8
WHITE
 10
7.338258
 20
3.079778
 30
0.000000
 40
1.102396
 50
-48.018063
 51
-32.160650
  6
CONTINUOUS
  0
ARC
  8
WHITE
 10
8.229427
 20
2.530389
 30
0.000000
 40
0.056301
 50
-41.642055
 51
44.755236
  6
CONTINUOUS
  0
ARC
  8
WHITE
 10
8.139710
 20
2.401725
 30
0.000000
 40
0.212481
 50
52.381564
 51
95.299420
  6
CONTINUOUS
  0
ARC
  8
WHITE
 10
8.117350
 20
2.486645
 30
0.000000
 40
0.126682
 50
88.762936
 51
142.997779
  6
CONTINUOUS
  0
ARC
  8
WHITE
 10
8.425183
 20
2.446519
 30
0.000000
 40
0.425236
 50
164.117974
 51
192.398712
  6
CONTINUOUS
  0
ARC
  8
WHITE
 10
7.585167
 20
2.312512
 30
0.000000
 40
0.426841
 50
-33.894791
 51
5.741764
  6
CONTINUOUS
  0
ARC
  8
WHITE
 10
8.022743
 20
1.992867
 30
0.000000
 40
0.116594
 50
135.578166
 51
194.735141
  6
CONTINUOUS
  0
ARC
  8
WHITE
 10
7.814563
 20
1.928530
 30
0.000000
 40
0.101528
 50
-26.161278
 51
19.974317
  6
CONTINUOUS
  0
ARC
  8
WHITE
 10
8.258381
 20
1.698950
 30
0.000000
 40
0.398181
 50
152.344752
 51
185.860890
  6
CONTINUOUS
  0
ARC
  8
WHITE
 10
7.961784
 20
1.673014
 30
0.000000
 40
0.100586
 50
-171.583042
 51
-104.443215
  6
CONTINUOUS
  0
ARC
  8
WHITE
 10
5.880104
 20
1.030177
 30
0.000000
 40
0.036677
 50
-92.139778
 51
15.085047
  6
CONTINUOUS
  0
ARC
  8
WHITE
 10
6.036211
 20
1.013970
 30
0.000000
 40
0.123410
 50
138.311189
 51
167.955886
  6
CONTINUOUS
  0
ARC
  8
WHITE
 10
5.978826
 20
1.052783
 30
0.000000
 40
0.055509
 50
68.188920
 51
128.790541
  6
CONTINUOUS
  0
ARC
  8
WHITE
 10
5.829612
 20
0.815411
 30
0.000000
 40
0.335130
 50
47.100426
 51
59.550292
  6
CONTINUOUS
  0
ARC
  8
WHITE
 10
6.076758
 20
1.110783
 30
0.000000
 40
0.053376
 50
-110.872317
 51
-69.127683
  6
CONTINUOUS
  0
ARC
  8
WHITE
 10
6.031301
 20
1.165970
 30
0.000000
 40
0.123266
 50
-58.462838
 51
-7.177708
  6
CONTINUOUS
  0
ARC
  8
WHITE
 10
6.202325
 20
1.125186
 30
0.000000
 40
0.054939
 50
55.500816
 51
152.483462
  6
CONTINUOUS
  0
ARC
  8
WHITE
 10
6.478675
 20
1.384278
 30
0.000000
 40
0.325356
 50
-138.915239
 51
-118.413732
  6
CONTINUOUS
  0
ARC
  8
WHITE
 10
6.340353
 20
1.143909
 30
0.000000
 40
0.048672
 50
-109.809087
 51
0.239568
  6
CONTINUOUS
  0
ARC
  8
WHITE
 10
6.426789
 20
1.116713
 30
0.000000
 40
0.046656
 50
41.660794
 51
144.036986
  6
CONTINUOUS
  0
ARC
  8
WHITE
 10
6.487939
 20
1.174433
 30
0.000000
 40
0.037478
 50
-134.553541
 51
-23.064413
  6
CONTINUOUS
  0
ARC
  8
WHITE
 10
6.684012
 20
1.126622
 30
0.000000
 40
0.164952
 50
127.697615
 51
168.414039
  6
CONTINUOUS
  0
ARC
  8
WHITE
 10
6.637965
 20
1.196962
 30
0.000000
 40
0.081404
 50
50.028255
 51
132.332845
  6
CONTINUOUS
  0
ARC
  8
WHITE
 10
6.681861
 20
1.245912
 30
0.000000
 40
0.015845
 50
-57.988798
 51
57.988798
  6
CONTINUOUS
  0
ARC
  8
WHITE
 10
6.717629
 20
1.115230
 30
0.000000
 40
0.120398
 50
103.139090
 51
179.192066
  6
CONTINUOUS
  0
ARC
  8
WHITE
 10
6.395200
 20
1.108274
 30
0.000000
 40
0.202228
 50
-33.601313
 51
2.452478
  6
CONTINUOUS
  0
ARC
  8
WHITE
 10
6.525226
 20
1.048521
 30
0.000000
 40
0.064779
 50
-121.899212
 51
-53.632320
  6
CONTINUOUS
  0
ARC
  8
WHITE
 10
6.543344
 20
1.121844
 30
0.000000
 40
0.138586
 50
-131.157275
 51
-112.193408
  6
CONTINUOUS
  0
ARC
  8
WHITE
 10
6.440354
 20
1.002974
 30
0.000000
 40
0.018705
 50
50.956405
 51
129.043595
  6
CONTINUOUS
  0
ARC
  8
WHITE
 10
6.280907
 20
1.071090
 30
0.000000
 40
0.157088
 50
-44.140528
 51
-19.946208
  6
CONTINUOUS
  0
ARC
  8
WHITE
 10
6.359015
 20
0.999235
 30
0.000000
 40
0.051072
 50
-132.682324
 51
-47.317676
  6
CONTINUOUS
  0
ARC
  8
WHITE
 10
6.238396
 20
0.921551
 30
0.000000
 40
0.094902
 50
25.021760
 51
54.589364
  6
CONTINUOUS
  0
ARC
  8
WHITE
 10
6.274083
 20
0.974923
 30
0.000000
 40
0.030780
 50
51.163178
 51
169.948920
  6
CONTINUOUS
  0
ARC
  8
WHITE
 10
6.108045
 20
0.977934
 30
0.000000
 40
0.135752
 50
-35.201684
 51
0.996217
  6
CONTINUOUS
  0
ARC
  8
WHITE
 10
6.188390
 20
0.927900
 30
0.000000
 40
0.041613
 50
-160.112277
 51
-42.700531
  6
CONTINUOUS
  0
ARC
  8
WHITE
 10
6.099898
 20
0.887695
 30
0.000000
 40
0.055813
 50
27.822137
 51
82.968519
  6
CONTINUOUS
  0
ARC
  8
WHITE
 10
6.118186
 20
0.907222
 30
0.000000
 40
0.037650
 50
107.714220
 51
188.585582
  6
CONTINUOUS
  0
ARC
  8
WHITE
 10
5.942576
 20
0.865750
 30
0.000000
 40
0.142950
 50
-21.417014
 51
14.524707
  6
CONTINUOUS
  0
ARC
  8
WHITE
 10
5.980436
 20
0.860967
 30
0.000000
 40
0.106372
 50
-101.767372
 51
-26.471948
  6
CONTINUOUS
  0
ARC
  8
WHITE
 10
5.967219
 20
0.794060
 30
0.000000
 40
0.038181
 50
-175.105198
 51
-102.825556
  6
CONTINUOUS
  0
ARC
  8
WHITE
 10
5.885020
 20
0.781873
 30
0.000000
 40
0.045050
 50
11.431420
 51
74.406449
  6
CONTINUOUS
  0
ARC
  8
WHITE
 10
5.903507
 20
0.784798
 30
0.000000
 40
0.040967
 50
98.955110
 51
225.869410
  6
CONTINUOUS
  0
ARC
  8
WHITE
 10
5.800896
 20
0.704197
 30
0.000000
 40
0.090055
 50
1.276716
 51
34.646649
  6
CONTINUOUS
  0
ARC
  8
WHITE
 10
5.844221
 20
0.713182
 30
0.000000
 40
0.047227
 50
-163.183684
 51
-8.497831
  6
CONTINUOUS
  0
ARC
  8
WHITE
 10
6.220509
 20
0.792672
 30
0.000000
 40
0.431666
 50
156.557298
 51
192.462392
  6
CONTINUOUS
  0
ARC
  8
WHITE
 10
5.886187
 20
0.914528
 30
0.000000
 40
0.079348
 50
95.389719
 51
141.056179
  6
CONTINUOUS
  0
ARC
  8
WHITE
 10
4.283071
 20
6.774860
 30
0.000000
 40
1.305889
 50
167.781348
 51
204.628277
  6
CONTINUOUS
  0
ARC
  8
WHITE
 10
2.941047
 20
6.167902
 30
0.000000
 40
0.167158
 50
-30.279822
 51
22.050765
  6
CONTINUOUS
  0
ARC
  8
WHITE
 10
3.150154
 20
6.043116
 30
0.000000
 40
0.076376
 50
147.975512
 51
229.962361
  6
CONTINUOUS
  0
ARC
  8
WHITE
 10
3.137685
 20
6.048427
 30
0.000000
 40
0.073572
 50
-119.889043
 51
-62.590540
  6
CONTINUOUS
  0
ARC
  8
WHITE
 10
3.138723
 20
6.043794
 30
0.000000
 40
0.068992
 50
-61.584777
 51
-32.110443
  6
CONTINUOUS
  0
ARC
  8
WHITE
 10
3.203210
 20
6.000988
 30
0.000000
 40
0.008614
 50
-19.952742
 51
134.602484
  6
CONTINUOUS
  0
ARC
  8
WHITE
 10
3.487601
 20
5.906556
 30
0.000000
 40
0.291049
 50
161.678257
 51
198.909387
  6
CONTINUOUS
  0
ARC
  8
WHITE
 10
2.417363
 20
5.555998
 30
0.000000
 40
0.835176
 50
0.099142
 51
17.866889
  6
CONTINUOUS
  0
ARC
  8
WHITE
 10
3.349243
 20
5.540744
 30
0.000000
 40
0.098137
 50
170.202658
 51
225.830333
  6
CONTINUOUS
  0
ARC
  8
WHITE
 10
3.153249
 20
5.351914
 30
0.000000
 40
0.174106
 50
-0.917394
 51
42.864381
  6
CONTINUOUS
  0
ARC
  8
WHITE
 10
3.520458
 20
5.272578
 30
0.000000
 40
0.207743
 50
158.378289
 51
200.209519
  6
CONTINUOUS
  0
ARC
  8
WHITE
 10
3.378173
 20
5.215349
 30
0.000000
 40
0.054638
 50
-164.570057
 51
-93.725735
  6
CONTINUOUS
  0
ARC
  8
WHITE
 10
3.383323
 20
5.143027
 30
0.000000
 40
0.019812
 50
-7.724444
 51
116.049140
  6
CONTINUOUS
  0
ARC
  8
WHITE
 10
3.170093
 20
5.167215
 30
0.000000
 40
0.234405
 50
-27.627837
 51
-6.577621
  6
CONTINUOUS
  0
ARC
  8
WHITE
 10
3.447494
 20
5.017761
 30
0.000000
 40
0.080760
 50
149.693296
 51
225.845339
  6
CONTINUOUS
  0
ARC
  8
WHITE
 10
3.364084
 20
4.864188
 30
0.000000
 40
0.099411
 50
33.923989
 51
74.149215
  6
CONTINUOUS
  0
ARC
  8
WHITE
 10
3.170824
 20
4.852853
 30
0.000000
 40
0.283729
 50
-20.937324
 51
13.620401
  6
CONTINUOUS
  0
ARC
  8
WHITE
 10
3.497938
 20
4.709163
 30
0.000000
 40
0.075154
 50
145.746798
 51
234.414398
  6
CONTINUOUS
  0
ARC
  8
WHITE
 10
3.478373
 20
4.681954
 30
0.000000
 40
0.041641
 50
-125.478731
 51
-75.971682
  6
CONTINUOUS
  0
ARC
  8
WHITE
 10
3.497717
 20
4.622359
 30
0.000000
 40
0.021309
 50
11.139915
 51
115.729981
  6
CONTINUOUS
  0
ARC
  8
WHITE
 10
3.290609
 20
4.574860
 30
0.000000
 40
0.233784
 50
-9.099260
 51
12.755196
  6
CONTINUOUS
  0
ARC
  8
WHITE
 10
3.538509
 20
4.537950
 30
0.000000
 40
0.017057
 50
-179.791712
 51
-17.578962
  6
CONTINUOUS
  0
ARC
  8
WHITE
 10
3.324439
 20
4.605612
 30
0.000000
 40
0.241565
 50
-17.543169
 51
12.390449
  6
CONTINUOUS
  0
ARC
  8
WHITE
 10
3.533708
 20
4.657445
 30
0.000000
 40
0.026670
 50
0.000000
 51
96.095862
  6
CONTINUOUS
  0
ARC
  8
WHITE
 10
3.517482
 20
4.750091
 30
0.000000
 40
0.067470
 50
-111.026536
 51
-78.549742
  6
CONTINUOUS
  0
ARC
  8
WHITE
 10
3.536508
 20
4.734315
 30
0.000000
 40
0.064009
 50
157.937023
 51
227.511688
  6
CONTINUOUS
  0
ARC
  8
WHITE
 10
2.921600
 20
4.896689
 30
0.000000
 40
0.572549
 50
-13.981308
 51
2.577043
  6
CONTINUOUS
  0
ARC
  8
WHITE
 10
3.444388
 20
4.925437
 30
0.000000
 40
0.049273
 50
-3.495905
 51
87.868514
  6
CONTINUOUS
  0
ARC
  8
WHITE
 10
3.456163
 20
5.014728
 30
0.000000
 40
0.041268
 50
-166.059259
 51
-103.940741
  6
CONTINUOUS
  0
ARC
  8
WHITE
 10
3.536357
 20
5.021011
 30
0.000000
 40
0.121336
 50
147.139355
 51
187.684473
  6
CONTINUOUS
  0
ARC
  8
WHITE
 10
3.220162
 20
5.182904
 30
0.000000
 40
0.234819
 50
-24.146178
 51
1.526313
  6
CONTINUOUS
  0
ARC
  8
WHITE
 10
3.425779
 20
5.182076
 30
0.000000
 40
0.029968
 50
13.671306
 51
107.636970
  6
CONTINUOUS
  0
ARC
  8
WHITE
 10
3.408121
 20
5.245090
 30
0.000000
 40
0.035506
 50
-165.136202
 51
-76.019344
  6
CONTINUOUS
  0
ARC
  8
WHITE
 10
3.499194
 20
5.275449
 30
0.000000
 40
0.131456
 50
159.800461
 51
197.471684
  6
CONTINUOUS
  0
ARC
  8
WHITE
 10
3.158978
 20
5.366774
 30
0.000000
 40
0.221656
 50
-11.960184
 51
34.580049
  6
CONTINUOUS
  0
ARC
  8
WHITE
 10
3.420590
 20
5.577291
 30
0.000000
 40
0.115912
 50
176.175929
 51
226.957483
  6
CONTINUOUS
  0
ARC
  8
WHITE
 10
2.950674
 20
5.628134
 30
0.000000
 40
0.356876
 50
-6.938606
 51
32.314090
  6
CONTINUOUS
  0
ARC
  8
WHITE
 10
3.471116
 20
5.910125
 30
0.000000
 40
0.237086
 50
169.516616
 51
202.628296
  6
CONTINUOUS
  0
ARC
  8
WHITE
 10
3.492512
 20
5.958874
 30
0.000000
 40
0.254586
 50
166.185273
 51
181.262991
  6
CONTINUOUS
  0
ARC
  8
WHITE
 10
3.211768
 20
6.027421
 30
0.000000
 40
0.034408
 50
-13.027538
 51
152.832253
  6
CONTINUOUS
  0
ARC
  8
WHITE
 10
3.152714
 20
6.056733
 30
0.000000
 40
0.031527
 50
-97.494431
 51
-25.557687
  6
CONTINUOUS
  0
ARC
  8
WHITE
 10
3.153536
 20
6.049287
 30
0.000000
 40
0.024321
 50
159.597488
 51
258.293542
  6
CONTINUOUS
  0
ARC
  8
WHITE
 10
3.004865
 20
6.144108
 30
0.000000
 40
0.152642
 50
-34.447577
 51
-7.545374
  6
CONTINUOUS
  0
ARC
  8
WHITE
 10
2.902724
 20
6.167041
 30
0.000000
 40
0.257079
 50
-9.623437
 51
23.250864
  6
CONTINUOUS
  0
ARC
  8
WHITE
 10
4.632207
 20
6.816367
 30
0.000000
 40
1.590604
 50
172.185391
 51
200.146618
  6
CONTINUOUS
  0
ARC
  8
WHITE
 10
3.030734
 20
7.039713
 30
0.000000
 40
0.026598
 50
-15.426106
 51
154.314008
  6
CONTINUOUS
  0
ARC
  8
WHITE
 10
6.676613
 20
4.966036
 30
0.000000
 40
0.736414
 50
147.812101
 51
187.152009
  6
CONTINUOUS
  0
ARC
  8
WHITE
 10
5.907931
 20
4.858376
 30
0.000000
 40
0.041220
 50
-17.787875
 51
22.802072
  6
CONTINUOUS
  0
ARC
  8
WHITE
 10
5.930124
 20
4.857832
 30
0.000000
 40
0.020883
 50
-165.638694
 51
-35.236256
  6
CONTINUOUS
  0
ARC
  8
WHITE
 10
5.858268
 20
4.832471
 30
0.000000
 40
0.055430
 50
21.351819
 51
171.182104
  6
CONTINUOUS
  0
ARC
  8
WHITE
 10
5.438781
 20
4.813491
 30
0.000000
 40
0.365745
 50
-24.160913
 51
4.308498
  6
CONTINUOUS
  0
ARC
  8
WHITE
 10
5.752839
 20
4.676195
 30
0.000000
 40
0.023236
 50
-129.288656
 51
-32.265798
  6
CONTINUOUS
  0
ARC
  8
WHITE
 10
5.727121
 20
4.645712
 30
0.000000
 40
0.016654
 50
48.638307
 51
181.805162
  6
CONTINUOUS
  0
ARC
  8
WHITE
 10
5.314750
 20
4.522258
 30
0.000000
 40
0.414379
 50
-31.763474
 51
17.257092
  6
CONTINUOUS
  0
ARC
  8
WHITE
 10
5.388154
 20
4.510752
 30
0.000000
 40
0.347114
 50
-49.548526
 51
-36.532465
  6
CONTINUOUS
  0
ARC
  8
WHITE
 10
5.626740
 20
4.226767
 30
0.000000
 40
0.023934
 50
123.980718
 51
306.454467
  6
CONTINUOUS
  0
ARC
  8
WHITE
 10
5.465153
 20
4.444030
 30
0.000000
 40
0.294698
 50
-53.375468
 51
-16.308640
  6
CONTINUOUS
  0
ARC
  8
WHITE
 10
5.753093
 20
4.360128
 30
0.000000
 40
0.005226
 50
0.000000
 51
167.315148
  6
CONTINUOUS
  0
ARC
  8
WHITE
 10
6.192224
 20
4.455725
 30
0.000000
 40
0.444312
 50
-167.575223
 51
-149.423489
  6
CONTINUOUS
  0
ARC
  8
WHITE
 10
5.841320
 20
4.248095
 30
0.000000
 40
0.036582
 50
-149.827785
 51
-30.172215
  6
CONTINUOUS
  0
ARC
  8
WHITE
 10
6.166947
 20
4.130591
 30
0.000000
 40
0.310260
 50
120.782603
 51
161.369403
  6
CONTINUOUS
  0
ARC
  8
WHITE
 10
6.020493
 20
4.382007
 30
0.000000
 40
0.019521
 50
-1.341643
 51
129.175319
  6
CONTINUOUS
  0
ARC
  8
WHITE
 10
6.104809
 20
4.359167
 30
0.000000
 40
0.068557
 50
160.944474
 51
233.408458
  6
CONTINUOUS
  0
ARC
  8
WHITE
 10
6.091847
 20
4.337052
 30
0.000000
 40
0.043163
 50
-130.279389
 51
-49.720612
  6
CONTINUOUS
  0
ARC
  8
WHITE
 10
5.927787
 20
4.510956
 30
0.000000
 40
0.282190
 50
-47.135031
 51
-14.927298
  6
CONTINUOUS
  0
ARC
  8
WHITE
 10
6.171512
 20
4.447160
 30
0.000000
 40
0.030277
 50
-17.082576
 51
24.235245
  6
CONTINUOUS
  0
ARC
  8
WHITE
 10
6.210448
 20
4.460254
 30
0.000000
 40
0.011347
 50
86.633540
 51
183.366460
  6
CONTINUOUS
  0
ARC
  8
WHITE
 10
6.194729
 20
4.424107
 30
0.000000
 40
0.050223
 50
24.493998
 51
70.958624
  6
CONTINUOUS
  0
ARC
  8
WHITE
 10
6.262396
 20
4.452221
 30
0.000000
 40
0.023142
 50
-161.634815
 51
33.276798
  6
CONTINUOUS
  0
ARC
  8
WHITE
 10
6.309951
 20
4.492089
 30
0.000000
 40
0.039165
 50
172.942153
 51
223.927744
  6
CONTINUOUS
  0
ARC
  8
WHITE
 10
6.222156
 20
4.507563
 30
0.000000
 40
0.050074
 50
-12.292537
 51
37.741248
  6
CONTINUOUS
  0
ARC
  8
WHITE
 10
6.216099
 20
4.496914
 30
0.000000
 40
0.061563
 50
42.131783
 51
93.370922
  6
CONTINUOUS
  0
ARC
  8
WHITE
 10
6.220484
 20
4.498188
 30
0.000000
 40
0.060713
 50
97.576500
 51
199.176714
  6
CONTINUOUS
  0
ARC
  8
WHITE
 10
6.047582
 20
4.475098
 30
0.000000
 40
0.115601
 50
-62.740652
 51
1.559761
  6
CONTINUOUS
  0
ARC
  8
WHITE
 10
6.101889
 20
4.392089
 30
0.000000
 40
0.019800
 50
167.679565
 51
266.060229
  6
CONTINUOUS
  0
ARC
  8
WHITE
 10
5.872062
 20
4.446336
 30
0.000000
 40
0.216346
 50
-13.368681
 51
13.368681
  6
CONTINUOUS
  0
ARC
  8
WHITE
 10
6.060088
 20
4.492700
 30
0.000000
 40
0.022754
 50
9.254169
 51
151.958761
  6
CONTINUOUS
  0
ARC
  8
WHITE
 10
5.930572
 20
4.549848
 30
0.000000
 40
0.118884
 50
-54.593104
 51
-22.999819
  6
CONTINUOUS
  0
ARC
  8
WHITE
 10
6.136269
 20
4.179437
 30
0.000000
 40
0.305825
 50
116.575371
 51
157.220277
  6
CONTINUOUS
  0
ARC
  8
WHITE
 10
5.840566
 20
4.302427
 30
0.000000
 40
0.014475
 50
-108.434948
 51
-18.434946
  6
CONTINUOUS
  0
ARC
  8
WHITE
 10
5.850013
 20
4.301556
 30
0.000000
 40
0.019029
 50
163.758574
 51
222.522486
  6
CONTINUOUS
  0
ARC
  8
WHITE
 10
5.696164
 20
4.300767
 30
0.000000
 40
0.135717
 50
2.580841
 51
47.524931
  6
CONTINUOUS
  0
ARC
  8
WHITE
 10
5.807678
 20
4.435755
 30
0.000000
 40
0.040148
 50
167.369470
 51
240.338025
  6
CONTINUOUS
  0
ARC
  8
WHITE
 10
5.545698
 20
4.501415
 30
0.000000
 40
0.229950
 50
-14.321627
 51
16.503762
  6
CONTINUOUS
  0
ARC
  8
WHITE
 10
5.839112
 20
4.595190
 30
0.000000
 40
0.078291
 50
178.348723
 51
201.309419
  6
CONTINUOUS
  0
ARC
  8
WHITE
 10
5.779614
 20
4.589824
 30
0.000000
 40
0.020250
 50
69.062831
 51
157.888253
  6
CONTINUOUS
  0
ARC
  8
WHITE
 10
5.799612
 20
4.630751
 30
0.000000
 40
0.025445
 50
-120.101842
 51
-33.855222
  6
CONTINUOUS
  0
ARC
  8
WHITE
 10
5.395548
 20
4.747839
 30
0.000000
 40
0.444996
 50
-17.156198
 51
-1.514798
  6
CONTINUOUS
  0
ARC
  8
WHITE
 10
5.946101
 20
4.736075
 30
0.000000
 40
0.105713
 50
140.307156
 51
180.000000
  6
CONTINUOUS
  0
ARC
  8
WHITE
 10
5.879966
 20
4.792920
 30
0.000000
 40
0.018579
 50
35.053996
 51
144.946004
  6
CONTINUOUS
  0
ARC
  8
WHITE
 10
5.939681
 20
4.841614
 30
0.000000
 40
0.058536
 50
-139.491718
 51
-99.998044
  6
CONTINUOUS
  0
ARC
  8
WHITE
 10
5.952392
 20
4.839534
 30
0.000000
 40
0.060091
 50
-112.373994
 51
-40.325167
  6
CONTINUOUS
  0
ARC
  8
WHITE
 10
5.928483
 20
4.832435
 30
0.000000
 40
0.076626
 50
-24.509660
 51
26.185352
  6
CONTINUOUS
  0
ARC
  8
WHITE
 10
6.763236
 20
4.938876
 30
0.000000
 40
0.769427
 50
150.771579
 51
185.416317
  6
CONTINUOUS
  0
ARC
  8
WHITE
 10
6.068081
 20
5.332505
 30
0.000000
 40
0.029708
 50
-37.109310
 51
119.655308
  6
CONTINUOUS
  0
ARC
  8
WHITE
 10
4.442041
 20
1.056992
 30
0.000000
 40
0.032059
 50
-172.287573
 51
-10.934319
  6
CONTINUOUS
  0
ARC
  8
WHITE
 10
5.258118
 20
1.096222
 30
0.000000
 40
0.785907
 50
170.866853
 51
183.305182
  6
CONTINUOUS
  0
ARC
  8
WHITE
 10
3.408766
 20
1.557381
 30
0.000000
 40
1.124891
 50
-17.401275
 51
-2.863075
  6
CONTINUOUS
  0
ARC
  8
WHITE
 10
5.327537
 20
1.565346
 30
0.000000
 40
0.797867
 50
170.098228
 51
184.611840
  6
CONTINUOUS
  0
ARC
  8
WHITE
 10
3.398397
 20
2.053922
 30
0.000000
 40
1.195941
 50
-17.086007
 51
-0.633703
  6
CONTINUOUS
  0
ARC
  8
WHITE
 10
10.376118
 20
1.500733
 30
0.000000
 40
5.807013
 50
168.410441
 51
174.664678
  6
CONTINUOUS
  0
ARC
  8
WHITE
 10
4.458377
 20
2.747498
 30
0.000000
 40
0.242734
 50
-19.278000
 51
-0.057028
  6
CONTINUOUS
  0
ARC
  8
WHITE
 10
4.664934
 20
2.743525
 30
0.000000
 40
0.036368
 50
5.888385
 51
105.118664
  6
CONTINUOUS
  0
ARC
  8
WHITE
 10
4.682390
 20
2.713166
 30
0.000000
 40
0.070795
 50
112.367608
 51
190.554687
  6
CONTINUOUS
  0
ARC
  8
WHITE
 10
3.395676
 20
2.704012
 30
0.000000
 40
1.217122
 50
-15.598602
 51
-0.179538
  6
CONTINUOUS
  0
ARC
  8
WHITE
 10
7.936757
 20
1.662373
 30
0.000000
 40
3.443695
 50
168.027649
 51
175.815662
  6
CONTINUOUS
  0
ARC
  8
WHITE
 10
-1.698673
 20
2.319096
 30
0.000000
 40
6.214156
 50
-8.688194
 51
-3.741007
  6
CONTINUOUS
  0
ARC
  8
WHITE
 10
5.312680
 20
1.124941
 30
0.000000
 40
0.905296
 50
163.609209
 51
184.577603
  6
CONTINUOUS
  0
ARC
  8
WHITE
 10
10.941780
 20
3.909656
 30
0.000000
 40
0.151557
 50
-121.749095
 51
-48.456613
  6
CONTINUOUS
  0
ARC
  8
WHITE
 10
11.057403
 20
3.774684
 30
0.000000
 40
0.026312
 50
-14.419301
 51
125.055347
  6
CONTINUOUS
  0
ARC
  8
WHITE
 10
11.159814
 20
3.731137
 30
0.000000
 40
0.085361
 50
154.316596
 51
178.336310
  6
CONTINUOUS
  0
ARC
  8
WHITE
 10
10.987765
 20
3.725634
 30
0.000000
 40
0.087091
 50
-96.603842
 51
5.257645
  6
CONTINUOUS
  0
ARC
  8
WHITE
 10
10.964696
 20
3.435491
 30
0.000000
 40
0.204049
 50
86.332410
 51
131.938422
  6
CONTINUOUS
  0
ARC
  8
WHITE
 10
10.838161
 20
3.567922
 30
0.000000
 40
0.021709
 50
116.944138
 51
237.328747
  6
CONTINUOUS
  0
ARC
  8
WHITE
 10
10.776761
 20
3.448685
 30
0.000000
 40
0.112524
 50
32.171883
 51
63.799315
  6
CONTINUOUS
  0
ARC
  8
WHITE
 10
10.899203
 20
3.531918
 30
0.000000
 40
0.035823
 50
-139.388798
 51
-84.601588
  6
CONTINUOUS
  0
ARC
  8
WHITE
 10
10.924077
 20
3.378171
 30
0.000000
 40
0.120025
 50
8.185896
 51
100.321215
  6
CONTINUOUS
  0
ARC
  8
WHITE
 10
10.897199
 20
3.395260
 30
0.000000
 40
0.145681
 50
-112.633996
 51
0.000000
  6
CONTINUOUS
  0
ARC
  8
WHITE
 10
10.858737
 20
3.312905
 30
0.000000
 40
0.054998
 50
129.499126
 51
251.333958
  6
CONTINUOUS
  0
ARC
  8
WHITE
 10
10.816523
 20
3.391773
 30
0.000000
 40
0.037141
 50
-78.771961
 51
20.784273
  6
CONTINUOUS
  0
ARC
  8
WHITE
 10
10.798197
 20
3.407713
 30
0.000000
 40
0.053122
 50
-2.978846
 51
92.978846
  6
CONTINUOUS
  0
ARC
  8
WHITE
 10
10.802106
 20
3.562716
 30
0.000000
 40
0.102171
 50
-172.097906
 51
-93.743292
  6
CONTINUOUS
  0
ARC
  8
WHITE
 10
10.930043
 20
3.598585
 30
0.000000
 40
0.234511
 50
134.971962
 51
192.289451
  6
CONTINUOUS
  0
ARC
  8
WHITE
 10
10.829995
 20
3.671652
 30
0.000000
 40
0.113732
 50
73.639877
 51
125.284193
  6
CONTINUOUS
  0
ARC
  8
WHITE
 10
2.879997
 20
7.773792
 30
0.000000
 40
0.105382
 50
76.604600
 51
104.103392
  6
CONTINUOUS
  0
ARC
  8
WHITE
 10
2.863912
 20
7.747849
 30
0.000000
 40
0.128507
 50
94.281367
 51
213.159264
  6
CONTINUOUS
  0
LINE
  8
WHITE
 10
2.756332
 20
7.677560
 30
0.000000
 11
2.881384
 21
7.494034
 31
0.000000
  6
CONTINUOUS
  0
ARC
  8
WHITE
 10
2.998044
 20
7.600253
 30
0.000000
 40
0.157772
 50
-137.682507
 51
-105.361069
  6
CONTINUOUS
  0
LINE
  8
WHITE
 10
2.956250
 20
7.448117
 30
0.000000
 11
3.056374
 21
7.448117
 31
0.000000
  6
CONTINUOUS
  0
ARC
  8
WHITE
 10
3.040871
 20
7.488425
 30
0.000000
 40
0.043186
 50
-68.962498
 51
21.037502
  6
CONTINUOUS
  0
LINE
  8
WHITE
 10
3.081178
 20
7.503927
 30
0.000000
 11
3.043048
 21
7.542058
 31
0.000000
  6
CONTINUOUS
  0
ARC
  8
WHITE
 10
3.052349
 20
7.550436
 30
0.000000
 40
0.012519
 50
132.009593
 51
222.009590
  6
CONTINUOUS
  0
LINE
  8
WHITE
 10
3.043971
 20
7.559738
 30
0.000000
 11
3.073591
 21
7.589358
 31
0.000000
  6
CONTINUOUS
  0
ARC
  8
WHITE
 10
3.033255
 20
7.656114
 30
0.000000
 40
0.077996
 50
-58.858328
 51
82.102700
  6
CONTINUOUS
  0
ARC
  8
WHITE
 10
3.043847
 20
7.747777
 30
0.000000
 40
0.014407
 50
148.457743
 51
270.492563
  6
CONTINUOUS
  0
ARC
  8
WHITE
 10
2.981467
 20
7.804174
 30
0.000000
 40
0.069982
 50
-44.280614
 51
110.328675
  6
CONTINUOUS
  0
ARC
  8
WHITE
 10
2.940561
 20
7.952263
 30
0.000000
 40
0.084119
 50
-115.451313
 51
-78.622618
  6
CONTINUOUS
  0
ARC
  8
WHITE
 10
11.900311
 20
11.541944
 30
0.000000
 40
0.030821
 50
-39.627619
 51
103.638377
  6
CONTINUOUS
  0
ARC
  8
WHITE
 10
11.343602
 20
12.012485
 30
0.000000
 40
0.704276
 50
-67.631046
 51
-38.725589
  6
CONTINUOUS
  0
ARC
  8
WHITE
 10
11.606483
 20
11.362263
 30
0.000000
 40
0.005253
 50
138.502741
 51
348.367011
  6
CONTINUOUS
  0
ARC
  8
WHITE
 10
9.866065
 20
12.180089
 30
0.000000
 40
1.917950
 50
-25.124829
 51
-2.979641
  6
CONTINUOUS
  0
ARC
  8
WHITE
 10
11.724981
 20
12.058029
 30
0.000000
 40
0.060710
 50
21.614652
 51
79.017973
  6
CONTINUOUS
  0
ARC
  8
WHITE
 10
11.728565
 20
12.002558
 30
0.000000
 40
0.115346
 50
86.031975
 51
151.243849
  6
CONTINUOUS
  0
ARC
  8
WHITE
 10
0.911945
 20
18.152797
 30
0.000000
 40
12.327525
 50
-33.352217
 51
-29.630297
  6
CONTINUOUS
  0
ARC
  8
WHITE
 10
11.224583
 20
11.359193
 30
0.000000
 40
0.022279
 50
133.635527
 51
311.291959
  6
CONTINUOUS
  0
ARC
  8
WHITE
 10
4.021068
 20
16.581464
 30
0.000000
 40
8.919075
 50
-35.972297
 51
-30.743036
  6
CONTINUOUS
  0
ARC
  8
WHITE
 10
11.712387
 20
12.013166
 30
0.000000
 40
0.027178
 50
-19.447277
 51
160.732002
  6
CONTINUOUS
  0
ARC
  8
WHITE
 10
8.501760
 20
12.541878
 30
0.000000
 40
3.280629
 50
-21.305443
 51
-9.434503
  6
CONTINUOUS
  0
ARC
  8
WHITE
 10
11.584315
 20
11.336872
 30
0.000000
 40
0.029199
 50
153.512337
 51
270.000000
  6
CONTINUOUS
  0
ARC
  8
WHITE
 10
11.283787
 20
12.159617
 30
0.000000
 40
0.903397
 50
-70.569469
 51
-44.868532
  6
CONTINUOUS
  0
ARC
  8
WHITE
 10
4.961469
 20
1.162771
 30
0.000000
 40
0.134337
 50
-139.151192
 51
-109.455480
  6
CONTINUOUS
  0
ARC
  8
WHITE
 10
4.928130
 20
1.259837
 30
0.000000
 40
0.224023
 50
-92.918162
 51
-56.368538
  6
CONTINUOUS
  0
ARC
  8
WHITE
 10
5.065080
 20
1.063043
 30
0.000000
 40
0.016469
 50
39.893068
 51
141.425166
  6
CONTINUOUS
  0
ARC
  8
WHITE
 10
4.972266
 20
0.987254
 30
0.000000
 40
0.136295
 50
32.107917
 51
39.313593
  6
CONTINUOUS
  0
ARC
  8
WHITE
 10
5.103979
 20
1.070743
 30
0.000000
 40
0.019661
 50
-145.817832
 51
-99.420651
  6
CONTINUOUS
  0
ARC
  8
WHITE
 10
5.121899
 20
1.186606
 30
0.000000
 40
0.136900
 50
-98.882308
 51
-74.462169
  6
CONTINUOUS
  0
ARC
  8
WHITE
 10
5.140995
 20
1.094051
 30
0.000000
 40
0.043090
 50
-65.927644
 51
-26.490737
  6
CONTINUOUS
  0
ARC
  8
WHITE
 10
5.203222
 20
1.055098
 30
0.000000
 40
0.030809
 50
28.498636
 51
140.172561
  6
CONTINUOUS
  0
ARC
  8
WHITE
 10
5.312263
 20
1.103780
 30
0.000000
 40
0.088730
 50
-157.481974
 51
-62.871421
  6
CONTINUOUS
  0
ARC
  8
WHITE
 10
5.354948
 20
1.006058
 30
0.000000
 40
0.018885
 50
30.106460
 51
96.765391
  6
CONTINUOUS
  0
ARC
  8
WHITE
 10
5.420713
 20
1.034469
 30
0.000000
 40
0.052932
 50
-159.035289
 51
-105.762531
  6
CONTINUOUS
  0
ARC
  8
WHITE
 10
5.402987
 20
0.966883
 30
0.000000
 40
0.016978
 50
-19.205447
 51
78.629711
  6
CONTINUOUS
  0
ARC
  8
WHITE
 10
5.308104
 20
0.956105
 30
0.000000
 40
0.111037
 50
-43.972985
 51
2.680566
  6
CONTINUOUS
  0
ARC
  8
WHITE
 10
5.426828
 20
0.850070
 30
0.000000
 40
0.048415
 50
143.292020
 51
216.707979
  6
CONTINUOUS
  0
ARC
  8
WHITE
 10
5.466968
 20
0.854492
 30
0.000000
 40
0.085713
 50
-157.093954
 51
-97.198900
  6
CONTINUOUS
  0
ARC
  8
WHITE
 10
5.454307
 20
0.792562
 30
0.000000
 40
0.023187
 50
-85.250463
 51
51.852374
  6
CONTINUOUS
  0
ARC
  8
WHITE
 10
5.498934
 20
0.842149
 30
0.000000
 40
0.043605
 50
146.846538
 51
225.973148
  6
CONTINUOUS
  0
ARC
  8
WHITE
 10
5.325456
 20
0.958192
 30
0.000000
 40
0.165111
 50
-33.944550
 51
25.992955
  6
CONTINUOUS
  0
ARC
  8
WHITE
 10
5.548200
 20
1.051102
 30
0.000000
 40
0.077122
 50
151.694541
 51
195.452436
  6
CONTINUOUS
  0
ARC
  8
WHITE
 10
5.393633
 20
1.106552
 30
0.000000
 40
0.088699
 50
-12.290237
 51
107.523942
  6
CONTINUOUS
  0
ARC
  8
WHITE
 10
5.257016
 20
1.354719
 30
0.000000
 40
0.197078
 50
-99.113788
 51
-56.103651
  6
CONTINUOUS
  0
ARC
  8
WHITE
 10
5.302488
 20
1.297496
 30
0.000000
 40
0.157324
 50
-155.951486
 51
-119.173537
  6
CONTINUOUS
  0
ARC
  8
WHITE
 10
5.109258
 20
1.205461
 30
0.000000
 40
0.056887
 50
29.396863
 51
159.022472
  6
CONTINUOUS
  0
ARC
  8
WHITE
 10
4.894409
 20
1.246059
 30
0.000000
 40
0.162992
 50
-56.260515
 51
-7.130540
  6
CONTINUOUS
  0
ARC
  8
WHITE
 10
4.966981
 20
1.164746
 30
0.000000
 40
0.057122
 50
-148.998299
 51
-71.677337
  6
CONTINUOUS
  0
ARC
  8
WHITE
 10
4.895579
 20
1.116408
 30
0.000000
 40
0.029349
 50
40.130745
 51
103.895067
  6
CONTINUOUS
  0
ARC
  8
WHITE
 10
4.905925
 20
1.096899
 30
0.000000
 40
0.051053
 50
109.919876
 51
205.517499
  6
CONTINUOUS
  0
ARC
  8
WHITE
 10
5.725584
 20
8.612938
 30
0.000000
 40
0.538366
 50
46.679094
 51
82.018769
  6
CONTINUOUS
  0
ARC
  8
WHITE
 10
5.793016
 20
9.126007
 30
0.000000
 40
0.021374
 50
69.975290
 51
247.026616
  6
CONTINUOUS
  0
ARC
  8
WHITE
 10
5.731487
 20
8.693258
 30
0.000000
 40
0.416480
 50
45.926851
 51
82.662972
  6
CONTINUOUS
  0
ARC
  8
WHITE
 10
5.995413
 20
8.979222
 30
0.000000
 40
0.028977
 50
-51.599866
 51
27.226213
  6
CONTINUOUS
  0
ARC
  8
WHITE
 10
6.023937
 20
8.931814
 30
0.000000
 40
0.026847
 50
113.078463
 51
249.039416
  6
CONTINUOUS
  0
ARC
  8
WHITE
 10
6.110704
 20
9.013473
 30
0.000000
 40
0.143801
 50
-132.080640
 51
-106.650615
  6
CONTINUOUS
  0
ARC
  8
WHITE
 10
6.042569
 20
8.590407
 30
0.000000
 40
0.286563
 50
41.656037
 51
84.607299
  6
CONTINUOUS
  0
ARC
  8
WHITE
 10
6.227177
 20
8.763111
 30
0.000000
 40
0.034432
 50
-54.830883
 51
31.055205
  6
CONTINUOUS
  0
ARC
  8
WHITE
 10
6.250406
 20
8.717865
 30
0.000000
 40
0.017434
 50
101.232742
 51
224.284340
  6
CONTINUOUS
  0
ARC
  8
WHITE
 10
5.882825
 20
8.278605
 30
0.000000
 40
0.555427
 50
17.103928
 51
50.258271
  6
CONTINUOUS
  0
ARC
  8
WHITE
 10
6.380144
 20
8.429239
 30
0.000000
 40
0.035874
 50
-74.779762
 51
20.768370
  6
CONTINUOUS
  0
ARC
  8
WHITE
 10
6.377111
 20
8.419174
 30
0.000000
 40
0.027528
 50
-131.597502
 51
-63.107257
  6
CONTINUOUS
  0
ARC
  8
WHITE
 10
6.346426
 20
8.361589
 30
0.000000
 40
0.039024
 50
71.459065
 51
235.621672
  6
CONTINUOUS
  0
ARC
  8
WHITE
 10
5.484796
 20
7.888568
 30
0.000000
 40
0.948281
 50
-2.401588
 51
27.700870
  6
CONTINUOUS
  0
ARC
  8
WHITE
 10
6.458861
 20
7.853561
 30
0.000000
 40
0.027034
 50
-169.926632
 51
8.152748
  6
CONTINUOUS
  0
ARC
  8
WHITE
 10
5.600390
 20
7.914137
 30
0.000000
 40
0.887048
 50
-3.667580
 51
26.603011
  6
CONTINUOUS
  0
ARC
  8
WHITE
 10
6.408077
 20
8.327193
 30
0.000000
 40
0.021501
 50
75.799877
 51
227.414085
  6
CONTINUOUS
  0
ARC
  8
WHITE
 10
6.427724
 20
8.404040
 30
0.000000
 40
0.057818
 50
-104.393593
 51
-51.263491
  6
CONTINUOUS
  0
ARC
  8
WHITE
 10
6.440216
 20
8.401346
 30
0.000000
 40
0.048574
 50
-60.813707
 51
20.806234
  6
CONTINUOUS
  0
ARC
  8
WHITE
 10
5.859275
 20
8.214517
 30
0.000000
 40
0.658756
 50
18.047231
 51
47.948679
  6
CONTINUOUS
  0
ARC
  8
WHITE
 10
6.318045
 20
8.714002
 30
0.000000
 40
0.020353
 50
111.451940
 51
210.496848
  6
CONTINUOUS
  0
ARC
  8
WHITE
 10
6.306030
 20
8.757349
 30
0.000000
 40
0.024828
 50
-79.388762
 51
4.251579
  6
CONTINUOUS
  0
ARC
  8
WHITE
 10
6.272798
 20
8.772817
 30
0.000000
 40
0.059571
 50
-13.223380
 51
29.993295
  6
CONTINUOUS
  0
ARC
  8
WHITE
 10
6.062406
 20
8.553292
 30
0.000000
 40
0.361647
 50
43.579187
 51
81.637090
  6
CONTINUOUS
  0
ARC
  8
WHITE
 10
6.111937
 20
8.952450
 30
0.000000
 40
0.041469
 50
-154.471372
 51
-85.756960
  6
CONTINUOUS
  0
ARC
  8
WHITE
 10
6.095585
 20
8.946443
 30
0.000000
 40
0.024181
 50
91.663085
 51
209.385137
  6
CONTINUOUS
  0
ARC
  8
WHITE
 10
6.087685
 20
8.987626
 30
0.000000
 40
0.018473
 50
-67.065831
 51
66.849069
  6
CONTINUOUS
  0
ARC
  8
WHITE
 10
9.799316
 20
8.633844
 30
0.000000
 40
0.017263
 50
-31.341115
 51
118.674163
  6
CONTINUOUS
  0
ARC
  8
WHITE
 10
9.705661
 20
8.711394
 30
0.000000
 40
0.105747
 50
-79.648975
 51
-36.165843
  6
CONTINUOUS
  0
ARC
  8
WHITE
 10
9.718122
 20
8.635266
 30
0.000000
 40
0.028654
 50
-171.421113
 51
-76.807836
  6
CONTINUOUS
  0
ARC
  8
WHITE
 10
9.620302
 20
8.611196
 30
0.000000
 40
0.072252
 50
15.901574
 51
63.665471
  6
CONTINUOUS
  0
ARC
  8
WHITE
 10
9.619557
 20
8.611570
 30
0.000000
 40
0.072252
 50
63.004009
 51
135.190602
  6
CONTINUOUS
  0
ARC
  8
WHITE
 10
9.512846
 20
8.699951
 30
0.000000
 40
0.066920
 50
-94.537898
 51
-34.042194
  6
CONTINUOUS
  0
ARC
  8
WHITE
 10
9.519363
 20
8.691175
 30
0.000000
 40
0.059125
 50
-145.856414
 51
-101.523721
  6
CONTINUOUS
  0
ARC
  8
WHITE
 10
9.303405
 20
8.563480
 30
0.000000
 40
0.191910
 50
29.502996
 51
43.077745
  6
CONTINUOUS
  0
ARC
  8
WHITE
 10
9.421877
 20
8.665969
 30
0.000000
 40
0.035890
 50
52.790003
 51
127.209996
  6
CONTINUOUS
  0
ARC
  8
WHITE
 10
9.371350
 20
8.742712
 30
0.000000
 40
0.056125
 50
-104.407261
 51
-59.099840
  6
CONTINUOUS
  0
ARC
  8
WHITE
 10
9.360669
 20
8.724844
 30
0.000000
 40
0.036641
 50
-163.826273
 51
-95.142833
  6
CONTINUOUS
  0
ARC
  8
WHITE
 10
9.280132
 20
8.706632
 30
0.000000
 40
0.046049
 50
10.012579
 51
49.683601
  6
CONTINUOUS
  0
ARC
  8
WHITE
 10
9.270910
 20
8.680838
 30
0.000000
 40
0.072331
 50
57.356552
 51
127.838073
  6
CONTINUOUS
  0
ARC
  8
WHITE
 10
9.198684
 20
8.779287
 30
0.000000
 40
0.049837
 50
-110.344779
 51
-56.018620
  6
CONTINUOUS
  0
ARC
  8
WHITE
 10
9.208244
 20
8.770771
 30
0.000000
 40
0.046724
 50
177.453288
 51
234.869846
  6
CONTINUOUS
  0
ARC
  8
WHITE
 10
9.122893
 20
8.764469
 30
0.000000
 40
0.039570
 50
12.223782
 51
51.712616
  6
CONTINUOUS
  0
ARC
  8
WHITE
 10
9.115747
 20
8.764914
 30
0.000000
 40
0.044044
 50
44.033753
 51
125.577389
  6
CONTINUOUS
  0
ARC
  8
WHITE
 10
9.051030
 20
8.826201
 30
0.000000
 40
0.046654
 50
-77.528892
 51
-33.080801
  6
CONTINUOUS
  0
ARC
  8
WHITE
 10
9.057863
 20
8.789523
 30
0.000000
 40
0.009449
 50
156.462886
 51
290.065707
  6
CONTINUOUS
  0
ARC
  8
WHITE
 10
9.003412
 20
8.799248
 30
0.000000
 40
0.046174
 50
-7.406486
 51
20.136361
  6
CONTINUOUS
  0
ARC
  8
WHITE
 10
12.325840
 20
10.431437
 30
0.000000
 40
3.655783
 50
-159.600400
 51
-153.760796
  6
CONTINUOUS
  0
ARC
  8
WHITE
 10
8.851878
 20
9.134402
 30
0.000000
 40
0.052628
 50
25.619662
 51
83.304982
  6
CONTINUOUS
  0
ARC
  8
WHITE
 10
8.870114
 20
9.254845
 30
0.000000
 40
0.069240
 50
-148.952478
 51
-100.064568
  6
CONTINUOUS
  0
ARC
  8
WHITE
 10
9.559475
 20
9.650327
 30
0.000000
 40
0.863974
 50
177.996048
 51
209.939144
  6
CONTINUOUS
  0
ARC
  8
WHITE
 10
8.679454
 20
9.676857
 30
0.000000
 40
0.016979
 50
12.523935
 51
167.476065
  6
CONTINUOUS
  0
ARC
  8
WHITE
 10
9.502580
 20
9.610335
 30
0.000000
 40
0.842630
 50
175.220882
 51
211.812924
  6
CONTINUOUS
  0
ARC
  8
WHITE
 10
8.816204
 20
9.182092
 30
0.000000
 40
0.033683
 50
-151.742719
 51
-81.586102
  6
CONTINUOUS
  0
ARC
  8
WHITE
 10
8.824827
 20
9.107750
 30
0.000000
 40
0.041187
 50
13.778349
 51
95.146294
  6
CONTINUOUS
  0
ARC
  8
WHITE
 10
14.364359
 20
11.249689
 30
0.000000
 40
5.898374
 50
-158.809034
 51
-155.354483
  6
CONTINUOUS
  0
ARC
  8
WHITE
 10
8.964770
 20
8.771402
 30
0.000000
 40
0.042804
 50
-24.189032
 51
25.827737
  6
CONTINUOUS
  0
ARC
  8
WHITE
 10
9.034713
 20
8.737427
 30
0.000000
 40
0.034998
 50
151.989114
 51
223.907780
  6
CONTINUOUS
  0
ARC
  8
WHITE
 10
9.030169
 20
8.749546
 30
0.000000
 40
0.041851
 50
-119.598114
 51
-60.401886
  6
CONTINUOUS
  0
ARC
  8
WHITE
 10
9.022992
 20
8.786585
 30
0.000000
 40
0.078532
 50
-69.230417
 51
-32.697125
  6
CONTINUOUS
  0
ARC
  8
WHITE
 10
9.101999
 20
8.733242
 30
0.000000
 40
0.016916
 50
40.204644
 51
139.795354
  6
CONTINUOUS
  0
ARC
  8
WHITE
 10
9.253480
 20
8.780462
 30
0.000000
 40
0.143237
 50
-165.319533
 51
-125.290147
  6
CONTINUOUS
  0
ARC
  8
WHITE
 10
9.192359
 20
8.738135
 30
0.000000
 40
0.077661
 50
-106.171911
 51
-39.868931
  6
CONTINUOUS
  0
ARC
  8
WHITE
 10
9.268535
 20
8.663142
 30
0.000000
 40
0.030167
 50
56.682216
 51
123.317782
  6
CONTINUOUS
  0
ARC
  8
WHITE
 10
9.233481
 20
8.636110
 30
0.000000
 40
0.073446
 50
17.727025
 51
45.340289
  6
CONTINUOUS
  0
ARC
  8
WHITE
 10
9.329761
 20
8.664671
 30
0.000000
 40
0.027042
 50
-166.749359
 51
-105.848639
  6
CONTINUOUS
  0
ARC
  8
WHITE
 10
9.365574
 20
8.756561
 30
0.000000
 40
0.125568
 50
-110.122065
 51
-71.991520
  6
CONTINUOUS
  0
ARC
  8
WHITE
 10
9.418745
 20
8.622664
 30
0.000000
 40
0.020386
 50
37.277691
 51
134.740483
  6
CONTINUOUS
  0
ARC
  8
WHITE
 10
9.578684
 20
8.757516
 30
0.000000
 40
0.188845
 50
-139.555669
 51
-116.918252
  6
CONTINUOUS
  0
ARC
  8
WHITE
 10
9.524196
 20
8.639503
 30
0.000000
 40
0.059148
 50
-121.614696
 51
-58.385304
  6
CONTINUOUS
  0
ARC
  8
WHITE
 10
10.442599
 20
7.620632
 30
0.000000
 40
1.313570
 50
129.720544
 51
132.497747
  6
CONTINUOUS
  0
ARC
  8
WHITE
 10
9.616521
 20
8.606510
 30
0.000000
 40
0.027886
 50
39.486269
 51
118.605604
  6
CONTINUOUS
  0
ARC
  8
WHITE
 10
9.780531
 20
8.695697
 30
0.000000
 40
0.159401
 50
-153.367264
 51
-123.236467
  6
CONTINUOUS
  0
ARC
  8
WHITE
 10
9.722796
 20
8.658466
 30
0.000000
 40
0.100560
 50
-107.137593
 51
-37.512714
  6
CONTINUOUS
  0
ARC
  8
WHITE
 10
9.751719
 20
8.634596
 30
0.000000
 40
0.063095
 50
-36.312819
 51
-8.871880
  6
CONTINUOUS
  0
ARC
  8
WHITE
 10
5.613419
 20
7.668957
 30
0.000000
 40
2.810075
 50
25.564096
 51
43.591164
  6
CONTINUOUS
  0
ARC
  8
WHITE
 10
7.662821
 20
9.632036
 30
0.000000
 40
0.029160
 50
61.888876
 51
241.025720
  6
CONTINUOUS
  0
ARC
  8
WHITE
 10
5.164223
 20
7.376359
 30
0.000000
 40
3.393614
 50
30.077495
 51
42.241890
  6
CONTINUOUS
  0
ARC
  8
WHITE
 10
11.697072
 20
10.840124
 30
0.000000
 40
4.005085
 50
-153.884212
 51
-149.514277
  6
CONTINUOUS
  0
ARC
  8
WHITE
 10
8.198008
 20
8.761150
 30
0.000000
 40
0.067006
 50
-15.636887
 51
44.661089
  6
CONTINUOUS
  0
ARC
  8
WHITE
 10
8.645514
 20
8.679163
 30
0.000000
 40
0.388279
 50
170.523632
 51
206.707665
  6
CONTINUOUS
  0
ARC
  8
WHITE
 10
8.122599
 20
8.378541
 30
0.000000
 40
0.216570
 50
18.134263
 51
35.614428
  6
CONTINUOUS
  0
ARC
  8
WHITE
 10
7.600825
 20
8.330343
 30
0.000000
 40
0.736714
 50
-3.980461
 51
9.028077
  6
CONTINUOUS
  0
ARC
  8
WHITE
 10
8.247375
 20
8.279145
 30
0.000000
 40
0.088382
 50
-52.103832
 51
0.037729
  6
CONTINUOUS
  0
ARC
  8
WHITE
 10
8.298578
 20
8.191436
 30
0.000000
 40
0.018228
 50
80.257252
 51
184.763639
  6
CONTINUOUS
  0
ARC
  8
WHITE
 10
11.115184
 20
8.908177
 30
0.000000
 40
2.924349
 50
-165.782002
 51
-161.148323
  6
CONTINUOUS
  0
ARC
  8
WHITE
 10
8.165924
 20
7.883411
 30
0.000000
 40
0.198544
 50
-14.831236
 51
23.715004
  6
CONTINUOUS
  0
ARC
  8
WHITE
 10
8.334646
 20
7.832690
 30
0.000000
 40
0.023207
 50
147.989242
 51
359.751615
  6
CONTINUOUS
  0
ARC
  8
WHITE
 10
8.074970
 20
7.881132
 30
0.000000
 40
0.242703
 50
-8.563451
 51
15.570440
  6
CONTINUOUS
  0
ARC
  8
WHITE
 10
9.705606
 20
8.470769
 30
0.000000
 40
1.492062
 50
-169.147358
 51
-159.419685
  6
CONTINUOUS
  0
ARC
  8
WHITE
 10
8.288488
 20
8.197128
 30
0.000000
 40
0.048807
 50
109.946528
 51
188.590657
  6
CONTINUOUS
  0
ARC
  8
WHITE
 10
8.275424
 20
8.270506
 30
0.000000
 40
0.027732
 50
-97.428212
 51
-11.851288
  6
CONTINUOUS
  0
ARC
  8
WHITE
 10
7.736081
 20
8.338089
 30
0.000000
 40
0.571203
 50
-7.370601
 51
7.370601
  6
CONTINUOUS
  0
ARC
  8
WHITE
 10
8.185241
 20
8.406148
 30
0.000000
 40
0.117441
 50
2.546847
 51
42.692871
  6
CONTINUOUS
  0
ARC
  8
WHITE
 10
8.705360
 20
8.689591
 30
0.000000
 40
0.479293
 50
174.654909
 51
205.165334
  6
CONTINUOUS
  0
ARC
  8
WHITE
 10
8.149607
 20
8.736751
 30
0.000000
 40
0.078584
 50
-1.831278
 51
40.292218
  6
CONTINUOUS
  0
ARC
  8
WHITE
 10
8.763180
 20
9.214652
 30
0.000000
 40
0.699219
 50
-151.551146
 51
-142.352753
  6
CONTINUOUS
  0
ARC
  8
WHITE
 10
8.823803
 20
10.507147
 30
0.000000
 40
0.023883
 50
106.360528
 51
263.635539
  6
CONTINUOUS
  0
ARC
  8
WHITE
 10
8.817800
 20
10.423586
 30
0.000000
 40
0.059919
 50
54.255102
 51
86.789372
  6
CONTINUOUS
  0
ARC
  8
WHITE
 10
8.894206
 20
10.547062
 30
0.000000
 40
0.085532
 50
-118.950916
 51
-84.762440
  6
CONTINUOUS
  0
ARC
  8
WHITE
 10
8.829542
 20
11.416741
 30
0.000000
 40
0.957601
 50
-85.659657
 51
7.553546
  6
CONTINUOUS
  0
ARC
  8
WHITE
 10
9.706095
 20
11.533619
 30
0.000000
 40
0.073294
 50
7.054542
 51
83.428059
  6
CONTINUOUS
  0
ARC
  8
WHITE
 10
9.713589
 20
11.561027
 30
0.000000
 40
0.045413
 50
88.871457
 51
146.234167
  6
CONTINUOUS
  0
ARC
  8
WHITE
 10
9.688390
 20
11.574505
 30
0.000000
 40
0.017203
 50
136.865209
 51
282.382290
  6
CONTINUOUS
  0
ARC
  8
WHITE
 10
9.703453
 20
11.549743
 30
0.000000
 40
0.013882
 50
55.056957
 51
145.017143
  6
CONTINUOUS
  0
ARC
  8
WHITE
 10
9.694223
 20
11.532192
 30
0.000000
 40
0.033648
 50
20.527947
 51
59.295608
  6
CONTINUOUS
  0
ARC
  8
WHITE
 10
8.841828
 20
11.410552
 30
0.000000
 40
0.893921
 50
-87.201349
 51
8.584841
  6
CONTINUOUS
  0
ARC
  8
WHITE
 10
8.880250
 20
10.572411
 30
0.000000
 40
0.054963
 50
-125.222244
 51
-84.544551
  6
CONTINUOUS
  0
ARC
  8
WHITE
 10
8.830481
 20
10.500026
 30
0.000000
 40
0.032893
 50
56.678387
 51
114.050684
  6
CONTINUOUS
  0
ARC
  8
WHITE
 10
10.165091
 20
10.782489
 30
0.000000
 40
0.200371
 50
-144.637565
 51
-119.580588
  6
CONTINUOUS
  0
ARC
  8
WHITE
 10
9.833637
 20
10.037257
 30
0.000000
 40
0.616514
 50
14.847413
 51
67.840499
  6
CONTINUOUS
  0
ARC
  8
WHITE
 10
10.406277
 20
10.190124
 30
0.000000
 40
0.023844
 50
-162.195785
 51
12.378579
  6
CONTINUOUS
  0
ARC
  8
WHITE
 10
9.856389
 20
10.041805
 30
0.000000
 40
0.545723
 50
14.976697
 51
67.179255
  6
CONTINUOUS
  0
ARC
  8
WHITE
 10
10.063577
 20
10.541173
 30
0.000000
 40
0.005763
 50
39.124352
 51
210.754948
  6
CONTINUOUS
  0
ARC
  8
WHITE
 10
11.484836
 20
11.157965
 30
0.000000
 40
1.555041
 50
-156.513376
 51
-134.864021
  6
CONTINUOUS
  0
ARC
  8
WHITE
 10
10.371921
 20
10.037732
 30
0.000000
 40
0.024083
 50
-137.952396
 51
48.532096
  6
CONTINUOUS
  0
ARC
  8
WHITE
 10
11.215971
 20
10.996900
 30
0.000000
 40
1.301589
 50
-159.667007
 51
-131.469126
  6
CONTINUOUS
  0
ARC
  8
WHITE
 10
10.231148
 20
10.585771
 30
0.000000
 40
0.239227
 50
179.568982
 51
189.902677
  6
CONTINUOUS
  0
ARC
  8
WHITE
 10
9.909447
 20
10.560125
 30
0.000000
 40
0.086927
 50
18.404859
 51
45.217039
  6
CONTINUOUS
  0
ARC
  8
WHITE
 10
9.988504
 20
10.642565
 30
0.000000
 40
0.027347
 50
61.182175
 51
229.324961
  6
CONTINUOUS
  0
ARC
  8
WHITE
 10
7.049876
 20
7.985081
 30
0.000000
 40
0.770621
 50
22.260496
 51
53.939553
  6
CONTINUOUS
  0
ARC
  8
WHITE
 10
7.483101
 20
8.594796
 30
0.000000
 40
0.024319
 50
33.018084
 51
236.801497
  6
CONTINUOUS
  0
ARC
  8
WHITE
 10
7.101392
 20
8.044111
 30
0.000000
 40
0.645732
 50
20.239542
 51
55.214525
  6
CONTINUOUS
  0
ARC
  8
WHITE
 10
7.694437
 20
8.260884
 30
0.000000
 40
0.014422
 50
-62.699986
 51
27.300018
  6
CONTINUOUS
  0
ARC
  8
WHITE
 10
7.686582
 20
8.292567
 30
0.000000
 40
0.046793
 50
-108.012774
 51
-71.987226
  6
CONTINUOUS
  0
ARC
  8
WHITE
 10
7.668240
 20
8.220436
 30
0.000000
 40
0.027902
 50
82.023104
 51
214.483026
  6
CONTINUOUS
  0
ARC
  8
WHITE
 10
6.015479
 20
7.068768
 30
0.000000
 40
1.986536
 50
17.578331
 51
34.874770
  6
CONTINUOUS
  0
ARC
  8
WHITE
 10
7.887258
 20
7.665696
 30
0.000000
 40
0.022203
 50
-125.342979
 51
7.830851
  6
CONTINUOUS
  0
ARC
  8
WHITE
 10
7.864106
 20
7.626357
 30
0.000000
 40
0.023598
 50
64.099585
 51
210.042618
  6
CONTINUOUS
  0
ARC
  8
WHITE
 10
7.977472
 20
7.654487
 30
0.000000
 40
0.139629
 50
-163.376872
 51
-144.589106
  6
CONTINUOUS
  0
ARC
  8
WHITE
 10
7.544515
 20
7.366840
 30
0.000000
 40
0.380267
 50
2.903999
 51
32.934097
  6
CONTINUOUS
  0
ARC
  8
WHITE
 10
7.943152
 20
7.391540
 30
0.000000
 40
0.019626
 50
-163.923168
 51
20.793119
  6
CONTINUOUS
  0
ARC
  8
WHITE
 10
7.517149
 20
7.357765
 30
0.000000
 40
0.446215
 50
5.238838
 51
31.305031
  6
CONTINUOUS
  0
ARC
  8
WHITE
 10
7.903453
 20
7.600178
 30
0.000000
 40
0.011708
 50
53.632456
 51
244.440035
  6
CONTINUOUS
  0
ARC
  8
WHITE
 10
7.911819
 20
7.645677
 30
0.000000
 40
0.036100
 50
-92.259871
 51
-37.706343
  6
CONTINUOUS
  0
ARC
  8
WHITE
 10
7.880060
 20
7.663693
 30
0.000000
 40
0.072430
 50
-33.613047
 51
25.973035
  6
CONTINUOUS
  0
ARC
  8
WHITE
 10
6.640614
 20
7.344869
 30
0.000000
 40
1.350836
 50
15.040513
 51
37.920636
  6
CONTINUOUS
  0
ARC
  8
WHITE
 10
7.719158
 20
8.183558
 30
0.000000
 40
0.015468
 50
66.167679
 51
213.359607
  6
CONTINUOUS
  0
ARC
  8
WHITE
 10
7.732524
 20
8.235029
 30
0.000000
 40
0.037994
 50
-100.794542
 51
-45.000000
  6
CONTINUOUS
  0
ARC
  8
WHITE
 10
7.692696
 20
8.246241
 30
0.000000
 40
0.076799
 50
-29.723632
 51
23.615530
  6
CONTINUOUS
  0
ARC
  8
WHITE
 10
6.492745
 20
6.833148
 30
0.000000
 40
1.468745
 50
-33.892661
 51
7.891723
  6
CONTINUOUS
  0
ARC
  8
WHITE
 10
7.973144
 20
7.030434
 30
0.000000
 40
0.025936
 50
9.711002
 51
170.288998
  6
CONTINUOUS
  0
ARC
  8
WHITE
 10
6.477932
 20
6.818848
 30
0.000000
 40
1.536033
 50
-33.010037
 51
8.082365
  6
CONTINUOUS
  0
ARC
  8
WHITE
 10
7.740751
 20
6.001083
 30
0.000000
 40
0.031635
 50
155.666685
 51
322.985654
  6
CONTINUOUS
  0
ARC
  8
WHITE
 10
6.498547
 20
6.295290
 30
0.000000
 40
0.102377
 50
137.051688
 51
218.117767
  6
CONTINUOUS
  0
ARC
  8
WHITE
 10
5.319978
 20
5.974004
 30
0.000000
 40
1.127949
 50
-10.999410
 51
13.227279
  6
CONTINUOUS
  0
ARC
  8
WHITE
 10
6.387514
 20
5.792704
 30
0.000000
 40
0.052205
 50
-131.281373
 51
-40.510666
  6
CONTINUOUS
  0
ARC
  8
WHITE
 10
6.338551
 20
5.735513
 30
0.000000
 40
0.023096
 50
51.045735
 51
190.881777
  6
CONTINUOUS
  0
ARC
  8
WHITE
 10
5.982575
 20
5.765080
 30
0.000000
 40
0.335018
 50
-42.042943
 51
-5.812278
  6
CONTINUOUS
  0
ARC
  8
WHITE
 10
6.240951
 20
5.526446
 30
0.000000
 40
0.017191
 50
123.855507
 51
223.879697
  6
CONTINUOUS
  0
ARC
  8
WHITE
 10
6.046832
 20
5.410287
 30
0.000000
 40
0.209503
 50
11.956004
 51
29.839527
  6
CONTINUOUS
  0
ARC
  8
WHITE
 10
6.236260
 20
5.442724
 30
0.000000
 40
0.019011
 50
-145.329079
 51
35.219875
  6
CONTINUOUS
  0
ARC
  8
WHITE
 10
7.163879
 20
5.921106
 30
0.000000
 40
1.062564
 50
-156.595977
 51
-152.587551
  6
CONTINUOUS
  0
ARC
  8
WHITE
 10
6.276236
 20
5.539657
 30
0.000000
 40
0.096467
 50
147.974276
 51
204.898836
  6
CONTINUOUS
  0
ARC
  8
WHITE
 10
5.859713
 20
5.860468
 30
0.000000
 40
0.429841
 50
-38.853926
 51
-5.665913
  6
CONTINUOUS
  0
ARC
  8
WHITE
 10
6.318497
 20
5.804881
 30
0.000000
 40
0.033714
 50
43.005100
 51
157.041931
  6
CONTINUOUS
  0
ARC
  8
WHITE
 10
6.367148
 20
5.830758
 30
0.000000
 40
0.024169
 50
-173.150411
 51
21.606731
  6
CONTINUOUS
  0
ARC
  8
WHITE
 10
5.184832
 20
5.956881
 30
0.000000
 40
1.210476
 50
-5.557292
 51
12.938606
  6
CONTINUOUS
  0
ARC
  8
WHITE
 10
6.518097
 20
6.302938
 30
0.000000
 40
0.170873
 50
148.334106
 51
206.043725
  6
CONTINUOUS
  0
ARC
  8
WHITE
 10
6.399490
 20
6.381340
 30
0.000000
 40
0.029110
 50
-34.043984
 51
157.156325
  6
CONTINUOUS
  0
ARC
  8
WHITE
 10
10.610490
 20
8.766666
 30
0.000000
 40
0.024179
 50
7.426961
 51
171.812856
  6
CONTINUOUS
  0
ARC
  8
WHITE
 10
10.452518
 20
8.744590
 30
0.000000
 40
0.136448
 50
-28.707214
 51
10.779404
  6
CONTINUOUS
  0
ARC
  8
WHITE
 10
10.717707
 20
8.631145
 30
0.000000
 40
0.153196
 50
161.777864
 51
229.802147
  6
CONTINUOUS
  0
ARC
  8
WHITE
 10
10.562971
 20
8.460441
 30
0.000000
 40
0.077478
 50
-23.158990
 51
43.865636
  6
CONTINUOUS
  0
ARC
  8
WHITE
 10
10.914978
 20
8.329237
 30
0.000000
 40
0.298295
 50
160.263373
 51
186.672441
  6
CONTINUOUS
  0
ARC
  8
WHITE
 10
10.600210
 20
8.302938
 30
0.000000
 40
0.020295
 50
-151.900141
 51
-24.328246
  6
CONTINUOUS
  0
ARC
  8
WHITE
 10
10.564116
 20
8.278339
 30
0.000000
 40
0.023603
 50
39.581591
 51
188.388404
  6
CONTINUOUS
  0
ARC
  8
WHITE
 10
11.012570
 20
8.405482
 30
0.000000
 40
0.489542
 50
-164.528965
 51
-131.215101
  6
CONTINUOUS
  0
ARC
  8
WHITE
 10
10.708620
 20
8.063612
 30
0.000000
 40
0.032283
 50
-125.187736
 51
-54.812262
  6
CONTINUOUS
  0
ARC
  8
WHITE
 10
10.710318
 20
8.062329
 30
0.000000
 40
0.030263
 50
-56.040078
 51
27.934242
  6
CONTINUOUS
  0
ARC
  8
WHITE
 10
11.077259
 20
8.321926
 30
0.000000
 40
0.419488
 50
-172.221604
 51
-144.193675
  6
CONTINUOUS
  0
ARC
  8
WHITE
 10
11.462340
 20
8.292182
 30
0.000000
 40
0.801165
 50
167.971762
 51
181.933447
  6
CONTINUOUS
  0
ARC
  8
WHITE
 10
10.622799
 20
8.487715
 30
0.000000
 40
0.062838
 50
-27.048482
 51
29.271629
  6
CONTINUOUS
  0
ARC
  8
WHITE
 10
10.751129
 20
8.631853
 30
0.000000
 40
0.135156
 50
163.109862
 51
237.048549
  6
CONTINUOUS
  0
ARC
  8
WHITE
 10
10.182539
 20
8.777641
 30
0.000000
 40
0.451995
 50
-13.630928
 51
-0.995060
  6
CONTINUOUS
  0
ARC
  8
WHITE
 10
7.609008
 20
5.595655
 30
0.000000
 40
0.020091
 50
-27.274487
 51
167.020978
  6
CONTINUOUS
  0
ARC
  8
WHITE
 10
6.004397
 20
5.806979
 30
0.000000
 40
1.598468
 50
-17.186031
 51
-7.433821
  6
CONTINUOUS
  0
ARC
  8
WHITE
 10
7.517556
 20
5.340553
 30
0.000000
 40
0.015128
 50
-160.230119
 51
-22.877930
  6
CONTINUOUS
  0
ARC
  8
WHITE
 10
7.477097
 20
5.312168
 30
0.000000
 40
0.035058
 50
41.583411
 51
101.546691
  6
CONTINUOUS
  0
ARC
  8
WHITE
 10
7.490138
 20
5.292407
 30
0.000000
 40
0.057707
 50
110.340024
 51
155.617246
  6
CONTINUOUS
  0
ARC
  8
WHITE
 10
7.045954
 20
5.383147
 30
0.000000
 40
0.397300
 50
-36.458833
 51
-9.696404
  6
CONTINUOUS
  0
ARC
  8
WHITE
 10
7.350526
 20
5.153675
 30
0.000000
 40
0.016369
 50
-154.287265
 51
-23.861059
  6
CONTINUOUS
  0
ARC
  8
WHITE
 10
7.308117
 20
5.128355
 30
0.000000
 40
0.033121
 50
33.369892
 51
107.831186
  6
CONTINUOUS
  0
ARC
  8
WHITE
 10
7.378287
 20
5.103169
 30
0.000000
 40
0.098319
 50
144.770230
 51
173.835392
  6
CONTINUOUS
  0
ARC
  8
WHITE
 10
7.099722
 20
5.091550
 30
0.000000
 40
0.182170
 50
-42.287115
 51
6.992439
  6
CONTINUOUS
  0
ARC
  8
WHITE
 10
7.149729
 20
5.032802
 30
0.000000
 40
0.106101
 50
-75.859333
 51
-36.980215
  6
CONTINUOUS
  0
ARC
  8
WHITE
 10
7.180417
 20
4.910027
 30
0.000000
 40
0.020451
 50
103.478585
 51
266.363666
  6
CONTINUOUS
  0
ARC
  8
WHITE
 10
7.164458
 20
5.041045
 30
0.000000
 40
0.152136
 50
-84.469686
 51
-43.636290
  6
CONTINUOUS
  0
ARC
  8
WHITE
 10
7.151123
 20
5.041307
 30
0.000000
 40
0.162218
 50
-40.451452
 51
7.672371
  6
CONTINUOUS
  0
ARC
  8
WHITE
 10
7.370424
 20
5.069288
 30
0.000000
 40
0.058875
 50
153.224725
 51
186.165582
  6
CONTINUOUS
  0
ARC
  8
WHITE
 10
7.325666
 20
5.081898
 30
0.000000
 40
0.015952
 50
23.838743
 51
119.291361
  6
CONTINUOUS
  0
ARC
  8
WHITE
 10
7.357529
 20
5.110277
 30
0.000000
 40
0.027917
 50
-128.222509
 51
-63.198679
  6
CONTINUOUS
  0
ARC
  8
WHITE
 10
7.325776
 20
5.180600
 30
0.000000
 40
0.105056
 50
-65.034780
 51
-28.950384
  6
CONTINUOUS
  0
ARC
  8
WHITE
 10
6.889349
 20
5.410794
 30
0.000000
 40
0.598453
 50
-28.009777
 51
-15.861358
  6
CONTINUOUS
  0
ARC
  8
WHITE
 10
7.489532
 20
5.247230
 30
0.000000
 40
0.024515
 50
125.399398
 51
180.000000
  6
CONTINUOUS
  0
ARC
  8
WHITE
 10
7.485873
 20
5.251757
 30
0.000000
 40
0.018710
 50
31.238639
 51
124.295328
  6
CONTINUOUS
  0
ARC
  8
WHITE
 10
7.526869
 20
5.275617
 30
0.000000
 40
0.028730
 50
-150.475971
 51
-68.104122
  6
CONTINUOUS
  0
ARC
  8
WHITE
 10
7.530896
 20
5.298236
 30
0.000000
 40
0.049728
 50
-82.272293
 51
4.952676
  6
CONTINUOUS
  0
ARC
  8
WHITE
 10
3.555620
 20
6.106431
 30
0.000000
 40
4.104318
 50
-11.295396
 51
-7.278459
  6
CONTINUOUS
  0
ARC
  8
WHITE
 10
12.060746
 20
11.997488
 30
0.000000
 40
0.037780
 50
-171.358126
 51
-26.840955
  6
CONTINUOUS
  0
ARC
  8
WHITE
 10
11.731610
 20
12.300720
 30
0.000000
 40
0.483988
 50
-41.435390
 51
-1.123312
  6
CONTINUOUS
  0
ARC
  8
WHITE
 10
12.171406
 20
12.272087
 30
0.000000
 40
0.048075
 50
23.467878
 51
109.009425
  6
CONTINUOUS
  0
ARC
  8
WHITE
 10
12.464375
 20
12.002383
 30
0.000000
 40
0.441107
 50
134.400301
 51
181.373359
  6
CONTINUOUS
  0
ARC
  8
WHITE
 10
8.505821
 20
10.970004
 30
0.000000
 40
0.025823
 50
-108.930997
 51
47.316215
  6
CONTINUOUS
  0
ARC
  8
WHITE
 10
8.974387
 20
11.534514
 30
0.000000
 40
0.707853
 50
178.592363
 51
230.414998
  6
CONTINUOUS
  0
ARC
  8
WHITE
 10
8.243181
 20
11.548330
 30
0.000000
 40
0.023836
 50
8.621654
 51
181.783604
  6
CONTINUOUS
  0
ARC
  8
WHITE
 10
8.922138
 20
11.506990
 30
0.000000
 40
0.703952
 50
176.693787
 51
232.893364
  6
CONTINUOUS
  0
ARC
  8
WHITE
 10
9.808215
 20
8.905594
 30
0.000000
 40
0.030447
 50
-124.783704
 51
31.213824
  6
CONTINUOUS
  0
ARC
  8
WHITE
 10
9.953875
 20
9.099041
 30
0.000000
 40
0.214185
 50
-154.219948
 51
-123.951547
  6
CONTINUOUS
  0
ARC
  8
WHITE
 10
9.676348
 20
8.925486
 30
0.000000
 40
0.116755
 50
43.522301
 51
92.216127
  6
CONTINUOUS
  0
ARC
  8
WHITE
 10
9.600304
 20
9.187419
 30
0.000000
 40
0.161920
 50
-90.347848
 51
-63.784276
  6
CONTINUOUS
  0
ARC
  8
WHITE
 10
9.544906
 20
9.021469
 30
0.000000
 40
0.054564
 50
4.237969
 51
124.153676
  6
CONTINUOUS
  0
ARC
  8
WHITE
 10
9.494430
 20
9.097103
 30
0.000000
 40
0.036370
 50
-123.065505
 51
-56.934496
  6
CONTINUOUS
  0
ARC
  8
WHITE
 10
9.604239
 20
9.269123
 30
0.000000
 40
0.240450
 50
-145.923445
 51
-122.629671
  6
CONTINUOUS
  0
ARC
  8
WHITE
 10
9.333611
 20
9.028492
 30
0.000000
 40
0.127764
 50
55.988718
 51
91.407866
  6
CONTINUOUS
  0
ARC
  8
WHITE
 10
9.363577
 20
9.244239
 30
0.000000
 40
0.094041
 50
-149.738659
 51
-110.611318
  6
CONTINUOUS
  0
ARC
  8
WHITE
 10
9.268790
 20
9.173368
 30
0.000000
 40
0.027114
 50
59.991805
 51
229.953009
  6
CONTINUOUS
  0
ARC
  8
WHITE
 10
9.373257
 20
9.237788
 30
0.000000
 40
0.148720
 50
-145.059421
 51
-109.535407
  6
CONTINUOUS
  0
ARC
  8
WHITE
 10
9.334331
 20
9.023570
 30
0.000000
 40
0.074843
 50
49.176035
 51
98.299985
  6
CONTINUOUS
  0
ARC
  8
WHITE
 10
9.593976
 20
9.242823
 30
0.000000
 40
0.266170
 50
-142.341425
 51
-124.404687
  6
CONTINUOUS
  0
ARC
  8
WHITE
 10
9.486312
 20
9.079037
 30
0.000000
 40
0.070300
 50
-127.433607
 51
-61.482543
  6
CONTINUOUS
  0
ARC
  8
WHITE
 10
9.544631
 20
8.996940
 30
0.000000
 40
0.032032
 50
55.110758
 51
140.612779
  6
CONTINUOUS
  0
ARC
  8
WHITE
 10
9.540474
 20
8.996472
 30
0.000000
 40
0.034935
 50
-17.429872
 51
49.950310
  6
CONTINUOUS
  0
ARC
  8
WHITE
 10
9.578350
 20
8.984351
 30
0.000000
 40
0.004837
 50
159.968268
 51
290.031732
  6
CONTINUOUS
  0
ARC
  8
WHITE
 10
9.575368
 20
9.423064
 30
0.000000
 40
0.443282
 50
-89.400440
 51
-77.045599
  6
CONTINUOUS
  0
ARC
  8
WHITE
 10
9.676785
 20
8.925028
 30
0.000000
 40
0.066068
 50
27.187125
 51
91.773276
  6
CONTINUOUS
  0
ARC
  8
WHITE
 10
9.888902
 20
9.011036
 30
0.000000
 40
0.163193
 50
-159.997446
 51
-126.931576
  6
CONTINUOUS
  0
ARC
  8
WHITE
 10
9.316045
 20
10.089574
 30
0.000000
 40
0.031445
 50
96.419724
 51
308.637161
  6
CONTINUOUS
  0
ARC
  8
WHITE
 10
9.391570
 20
9.954112
 30
0.000000
 40
0.124187
 50
44.728171
 51
116.747142
  6
CONTINUOUS
  0
ARC
  8
WHITE
 10
8.618591
 20
9.346620
 30
0.000000
 40
1.106593
 50
28.206084
 51
38.899214
  6
CONTINUOUS
  0
ARC
  8
WHITE
 10
9.780939
 20
9.977209
 30
0.000000
 40
0.215867
 50
-150.113291
 51
-113.838151
  6
CONTINUOUS
  0
ARC
  8
WHITE
 10
9.675095
 20
9.654715
 30
0.000000
 40
0.126419
 50
40.221773
 51
81.539053
  6
CONTINUOUS
  0
ARC
  8
WHITE
 10
9.796809
 20
9.760361
 30
0.000000
 40
0.034799
 50
-136.367618
 51
51.890508
  6
CONTINUOUS
  0
ARC
  8
WHITE
 10
9.652812
 20
9.544639
 30
0.000000
 40
0.294076
 50
55.758111
 51
81.611146
  6
CONTINUOUS
  0
ARC
  8
WHITE
 10
9.788698
 20
9.998647
 30
0.000000
 40
0.187724
 50
-154.104751
 51
-119.690486
  6
CONTINUOUS
  0
ARC
  8
WHITE
 10
9.025557
 20
9.619662
 30
0.000000
 40
0.664350
 50
26.554867
 51
45.843946
  6
CONTINUOUS
  0
ARC
  8
WHITE
 10
9.374258
 20
9.920856
 30
0.000000
 40
0.209277
 50
56.962732
 51
107.155300
  6
CONTINUOUS
  0
ARC
  8
WHITE
 10
6.813321
 20
5.276939
 30
0.000000
 40
0.015904
 50
59.968935
 51
151.073946
  6
CONTINUOUS
  0
ARC
  8
WHITE
 10
7.016400
 20
5.266666
 30
0.000000
 40
0.217740
 50
175.267270
 51
229.950771
  6
CONTINUOUS
  0
ARC
  8
WHITE
 10
6.855827
 20
5.089468
 30
0.000000
 40
0.023014
 50
-100.859601
 51
27.199425
  6
CONTINUOUS
  0
ARC
  8
WHITE
 10
6.842809
 20
5.024699
 30
0.000000
 40
0.043052
 50
78.366161
 51
131.496196
  6
CONTINUOUS
  0
ARC
  8
WHITE
 10
6.850106
 20
5.034272
 30
0.000000
 40
0.042395
 50
147.669589
 51
214.762788
  6
CONTINUOUS
  0
ARC
  8
WHITE
 10
6.794340
 20
4.979136
 30
0.000000
 40
0.037379
 50
10.276343
 51
55.932461
  6
CONTINUOUS
  0
ARC
  8
WHITE
 10
6.409157
 20
4.961071
 30
0.000000
 40
0.422686
 50
-10.088030
 51
3.354547
  6
CONTINUOUS
  0
ARC
  8
WHITE
 10
6.803884
 20
4.890259
 30
0.000000
 40
0.021666
 50
161.997737
 51
351.438105
  6
CONTINUOUS
  0
ARC
  8
WHITE
 10
6.698114
 20
4.924034
 30
0.000000
 40
0.089365
 50
-17.638786
 51
35.491371
  6
CONTINUOUS
  0
ARC
  8
WHITE
 10
6.945634
 20
5.034208
 30
0.000000
 40
0.184223
 50
161.553824
 51
198.446176
  6
CONTINUOUS
  0
ARC
  8
WHITE
 10
6.857721
 20
5.065237
 30
0.000000
 40
0.091024
 50
150.152447
 51
162.572243
  6
CONTINUOUS
  0
ARC
  8
WHITE
 10
6.733399
 20
5.132326
 30
0.000000
 40
0.050332
 50
-25.650102
 51
21.015832
  6
CONTINUOUS
  0
ARC
  8
WHITE
 10
6.533806
 20
5.093699
 30
0.000000
 40
0.253007
 50
12.945053
 51
35.466232
  6
CONTINUOUS
  0
ARC
  8
WHITE
 10
6.855228
 20
5.308127
 30
0.000000
 40
0.133720
 50
157.863771
 51
210.380252
  6
CONTINUOUS
  0
ARC
  8
WHITE
 10
6.756393
 20
5.349694
 30
0.000000
 40
0.026536
 50
92.607841
 51
160.586699
  6
CONTINUOUS
  0
ARC
  8
WHITE
 10
6.755185
 20
5.291363
 30
0.000000
 40
0.084839
 50
44.799669
 51
90.000000
  6
CONTINUOUS
  0
ARC
  8
WHITE
 10
6.958741
 20
5.489777
 30
0.000000
 40
0.199425
 50
-135.959556
 51
-122.533885
  6
CONTINUOUS
  0
ARC
  8
WHITE
 10
6.843241
 20
5.306891
 30
0.000000
 40
0.016906
 50
-83.040483
 51
60.792672
  6
CONTINUOUS
  0
ARC
  8
WHITE
 10
6.834207
 20
5.327350
 30
0.000000
 40
0.038855
 50
-109.430925
 51
-73.427496
  6
CONTINUOUS
  0
ARC
  8
WHITE
 10
11.182005
 20
9.322491
 30
0.000000
 40
0.021659
 50
-40.348101
 51
72.250272
  6
CONTINUOUS
  0
ARC
  8
WHITE
 10
11.250559
 20
9.193736
 30
0.000000
 40
0.161720
 50
112.524230
 51
141.588827
  6
CONTINUOUS
  0
ARC
  8
WHITE
 10
11.059628
 20
9.401855
 30
0.000000
 40
0.125340
 50
-109.444299
 51
-59.182471
  6
CONTINUOUS
  0
ARC
  8
WHITE
 10
10.989456
 20
9.201113
 30
0.000000
 40
0.087315
 50
70.985862
 51
173.952233
  6
CONTINUOUS
  0
ARC
  8
WHITE
 10
10.821658
 20
9.350337
 30
0.000000
 40
0.161749
 50
-108.389180
 51
-59.961434
  6
CONTINUOUS
  0
ARC
  8
WHITE
 10
10.809528
 20
9.119184
 30
0.000000
 40
0.086859
 50
116.603582
 51
198.636162
  6
CONTINUOUS
  0
ARC
  8
WHITE
 10
10.748351
 20
9.102678
 30
0.000000
 40
0.023937
 50
-151.965808
 51
-31.453011
  6
CONTINUOUS
  0
ARC
  8
WHITE
 10
10.812881
 20
9.090658
 30
0.000000
 40
0.044113
 50
103.076712
 51
180.610950
  6
CONTINUOUS
  0
ARC
  8
WHITE
 10
10.820167
 20
9.350461
 30
0.000000
 40
0.217521
 50
-94.552844
 51
-55.242918
  6
CONTINUOUS
  0
ARC
  8
WHITE
 10
11.023742
 20
9.159927
 30
0.000000
 40
0.080441
 50
67.148290
 51
171.547136
  6
CONTINUOUS
  0
ARC
  8
WHITE
 10
11.085221
 20
9.301582
 30
0.000000
 40
0.073989
 50
-114.123358
 51
-39.460404
  6
CONTINUOUS
  0
ARC
  8
WHITE
 10
11.347655
 20
9.096867
 30
0.000000
 40
0.258880
 50
125.177182
 51
142.473330
  6
CONTINUOUS
  0
ARC
  8
WHITE
 10
8.934739
 20
11.027151
 30
0.000000
 40
0.252043
 50
-64.912275
 51
17.429464
  6
CONTINUOUS
  0
ARC
  8
WHITE
 10
9.160211
 20
11.100854
 30
0.000000
 40
0.015105
 50
6.812435
 51
173.187565
  6
CONTINUOUS
  0
ARC
  8
WHITE
 10
8.933937
 20
11.050160
 30
0.000000
 40
0.217698
 50
-73.289028
 51
13.951028
  6
CONTINUOUS
  0
ARC
  8
WHITE
 10
8.979998
 20
10.990005
 30
0.000000
 40
0.149267
 50
-152.826422
 51
-83.639297
  6
CONTINUOUS
  0
ARC
  8
WHITE
 10
8.836154
 20
10.900879
 30
0.000000
 40
0.023693
 50
62.196837
 51
226.237589
  6
CONTINUOUS
  0
ARC
  8
WHITE
 10
8.988710
 20
10.992969
 30
0.000000
 40
0.201163
 50
-147.122179
 51
-74.754439
  6
CONTINUOUS
  0
ARC
  8
WHITE
 10
6.589352
 20
5.495321
 30
0.000000
 40
0.006892
 50
40.780904
 51
143.461295
  6
CONTINUOUS
  0
ARC
  8
WHITE
 10
6.614356
 20
5.486588
 30
0.000000
 40
0.033129
 50
157.203570
 51
179.243242
  6
CONTINUOUS
  0
ARC
  8
WHITE
 10
7.019254
 20
5.461210
 30
0.000000
 40
0.438784
 50
176.627207
 51
197.334886
  6
CONTINUOUS
  0
ARC
  8
WHITE
 10
6.575196
 20
5.324811
 30
0.000000
 40
0.025831
 50
-165.812309
 51
12.658913
  6
CONTINUOUS
  0
ARC
  8
WHITE
 10
7.103357
 20
5.487045
 30
0.000000
 40
0.578316
 50
173.497134
 51
196.946318
  6
CONTINUOUS
  0
ARC
  8
WHITE
 10
6.579540
 20
5.550565
 30
0.000000
 40
0.050817
 50
101.027016
 51
177.771319
  6
CONTINUOUS
  0
ARC
  8
WHITE
 10
6.562648
 20
5.544642
 30
0.000000
 40
0.056261
 50
16.302913
 51
82.675651
  6
CONTINUOUS
  0
ARC
  8
WHITE
 10
6.766659
 20
5.646989
 30
0.000000
 40
0.173192
 50
-150.015952
 51
-121.075364
  6
CONTINUOUS
  0
ARC
  8
WHITE
 10
6.663310
 20
5.471628
 30
0.000000
 40
0.030414
 50
-138.159039
 51
62.690461
  6
CONTINUOUS
  0
ARC
  8
WHITE
 10
6.725022
 20
5.577671
 30
0.000000
 40
0.151915
 50
-149.172616
 51
-123.737047
  6
CONTINUOUS
  0
ARC
  8
WHITE
 10
8.016114
 20
11.650847
 30
0.000000
 40
0.027165
 50
16.830259
 51
146.295221
  6
CONTINUOUS
  0
ARC
  8
WHITE
 10
6.839507
 20
11.643473
 30
0.000000
 40
1.154226
 50
-18.232828
 51
1.114419
  6
CONTINUOUS
  0
ARC
  8
WHITE
 10
7.956352
 20
11.277128
 30
0.000000
 40
0.021220
 50
165.781459
 51
330.396241
  6
CONTINUOUS
  0
ARC
  8
WHITE
 10
7.258761
 20
11.591394
 30
0.000000
 40
0.786242
 50
-24.395875
 51
4.911743
  6
CONTINUOUS
  0
ARC
  8
WHITE
 10
9.430042
 20
10.922634
 30
0.000000
 40
0.026195
 50
-10.139213
 51
72.768197
  6
CONTINUOUS
  0
ARC
  8
WHITE
 10
9.445038
 20
10.881564
 30
0.000000
 40
0.066484
 50
96.248141
 51
150.232609
  6
CONTINUOUS
  0
ARC
  8
WHITE
 10
9.368945
 20
10.942380
 30
0.000000
 40
0.033334
 50
-123.465984
 51
-56.534016
  6
CONTINUOUS
  0
ARC
  8
WHITE
 10
9.469568
 20
11.007528
 30
0.000000
 40
0.151006
 50
168.025364
 51
217.994008
  6
CONTINUOUS
  0
ARC
  8
WHITE
 10
9.223987
 20
11.076056
 30
0.000000
 40
0.104691
 50
-20.811828
 51
13.562870
  6
CONTINUOUS
  0
ARC
  8
WHITE
 10
9.297853
 20
11.096464
 30
0.000000
 40
0.028211
 50
8.445335
 51
171.554665
  6
CONTINUOUS
  0
ARC
  8
WHITE
 10
9.314220
 20
11.094958
 30
0.000000
 40
0.044631
 50
172.728002
 51
208.530983
  6
CONTINUOUS
  0
ARC
  8
WHITE
 10
9.234283
 20
11.047919
 30
0.000000
 40
0.048168
 50
-3.716473
 51
32.275720
  6
CONTINUOUS
  0
ARC
  8
WHITE
 10
9.573038
 20
10.987952
 30
0.000000
 40
0.296194
 50
168.935330
 51
191.064670
  6
CONTINUOUS
  0
ARC
  8
WHITE
 10
9.409765
 20
10.959283
 30
0.000000
 40
0.130493
 50
-167.530523
 51
-134.236299
  6
CONTINUOUS
  0
ARC
  8
WHITE
 10
9.363107
 20
10.949757
 30
0.000000
 40
0.094973
 50
-117.855999
 51
-59.403277
  6
CONTINUOUS
  0
ARC
  8
WHITE
 10
9.398287
 20
10.924384
 30
0.000000
 40
0.057892
 50
-76.860795
 51
-6.308662
  6
CONTINUOUS
  0
ARC
  8
WHITE
 10
9.919792
 20
10.633061
 30
0.000000
 40
0.013693
 50
10.510550
 51
140.772187
  6
CONTINUOUS
  0
ARC
  8
WHITE
 10
9.510897
 20
10.766168
 30
0.000000
 40
0.417278
 50
-54.273503
 51
-17.351775
  6
CONTINUOUS
  0
ARC
  8
WHITE
 10
9.830600
 20
10.366634
 30
0.000000
 40
0.097354
 50
141.365636
 51
191.003983
  6
CONTINUOUS
  0
ARC
  8
WHITE
 10
9.754509
 20
10.351357
 30
0.000000
 40
0.019752
 50
-170.362833
 51
-28.561766
  6
CONTINUOUS
  0
ARC
  8
WHITE
 10
9.829727
 20
10.346190
 30
0.000000
 40
0.058028
 50
122.644756
 51
184.225496
  6
CONTINUOUS
  0
ARC
  8
WHITE
 10
9.670647
 20
10.624731
 30
0.000000
 40
0.262831
 50
-60.911475
 51
2.360980
  6
CONTINUOUS
  0
ARC
  8
WHITE
 10
9.526181
 20
10.339485
 30
0.000000
 40
0.020920
 50
109.938734
 51
241.190336
  6
CONTINUOUS
  0
ARC
  8
WHITE
 10
9.482271
 20
10.157670
 30
0.000000
 40
0.166948
 50
-6.273785
 51
78.309339
  6
CONTINUOUS
  0
ARC
  8
WHITE
 10
9.670854
 20
10.146737
 30
0.000000
 40
0.023786
 50
-162.097635
 51
-17.902365
  6
CONTINUOUS
  0
ARC
  8
WHITE
 10
9.519047
 20
10.180043
 30
0.000000
 40
0.179108
 50
-13.107299
 51
90.000000
  6
CONTINUOUS
  0
ARC
  8
WHITE
 10
9.477252
 20
9.932964
 30
0.000000
 40
0.032863
 50
-62.623924
 51
30.415379
  6
CONTINUOUS
  0
ARC
  8
WHITE
 10
9.484798
 20
9.911302
 30
0.000000
 40
0.043580
 50
61.500870
 51
124.020273
  6
CONTINUOUS
  0
ARC
  8
WHITE
 10
9.399642
 20
9.999475
 30
0.000000
 40
0.080019
 50
-62.363793
 51
-40.579658
  6
CONTINUOUS
  0
ARC
  8
WHITE
 10
9.402963
 20
10.047809
 30
0.000000
 40
0.123921
 50
-105.826383
 51
-74.173617
  6
CONTINUOUS
  0
ARC
  8
WHITE
 10
9.497637
 20
10.220586
 30
0.000000
 40
0.319012
 50
-132.959379
 51
-113.747895
  6
CONTINUOUS
  0
ARC
  8
WHITE
 10
9.274992
 20
9.970405
 30
0.000000
 40
0.017519
 50
72.580826
 51
174.798011
  6
CONTINUOUS
  0
ARC
  8
WHITE
 10
9.301817
 20
9.956077
 30
0.000000
 40
0.047046
 50
160.225141
 51
233.965857
  6
CONTINUOUS
  0
ARC
  8
WHITE
 10
9.394570
 20
10.084205
 30
0.000000
 40
0.205223
 50
-125.931679
 51
-61.541456
  6
CONTINUOUS
  0
ARC
  8
WHITE
 10
10.200124
 20
11.951082
 30
0.000000
 40
0.018626
 50
-177.185817
 51
-2.814183
  6
CONTINUOUS
  0
ARC
  8
WHITE
 10
10.084549
 20
11.983848
 30
0.000000
 40
0.138340
 50
-14.090776
 51
67.220887
  6
CONTINUOUS
  0
ARC
  8
WHITE
 10
10.098247
 20
11.958893
 30
0.000000
 40
0.157629
 50
75.350746
 51
119.640967
  6
CONTINUOUS
  0
ARC
  8
WHITE
 10
10.028900
 20
12.086617
 30
0.000000
 40
0.012658
 50
132.864278
 51
313.597686
  6
CONTINUOUS
  0
ARC
  8
WHITE
 10
10.064966
 20
11.963380
 30
0.000000
 40
0.117301
 50
-6.467137
 51
103.476563
  6
CONTINUOUS
  0
ARC
  8
WHITE
 10
11.015785
 20
8.256957
 30
0.000000
 40
0.067931
 50
-35.964092
 51
17.166146
  6
CONTINUOUS
  0
ARC
  8
WHITE
 10
11.164682
 20
8.328063
 30
0.000000
 40
0.098293
 50
168.721299
 51
211.294404
  6
CONTINUOUS
  0
ARC
  8
WHITE
 10
11.025644
 20
8.333487
 30
0.000000
 40
0.044821
 50
17.932014
 51
170.239234
  6
CONTINUOUS
  0
ARC
  8
WHITE
 10
11.052441
 20
8.322679
 30
0.000000
 40
0.073318
 50
165.460472
 51
247.831943
  6
CONTINUOUS
  0
ARC
  8
WHITE
 10
11.016909
 20
8.241032
 30
0.000000
 40
0.015841
 50
-54.238566
 51
60.219132
  6
CONTINUOUS
  0
ARC
  8
WHITE
 10
11.032077
 20
8.222973
 30
0.000000
 40
0.007876
 50
138.634208
 51
311.366065
  6
CONTINUOUS
  0
ARC
  8
WHITE
 10
11.047726
 20
8.195872
 30
0.000000
 40
0.023625
 50
51.247340
 51
116.237448
  6
CONTINUOUS
  0
ARC
  8
WHITE
 10
11.063861
 20
8.223971
 30
0.000000
 40
0.009769
 50
-97.926175
 51
-45.008776
  6
CONTINUOUS
  0
ARC
  8
WHITE
 10
9.168200
 20
9.886331
 30
0.000000
 40
0.017428
 50
51.005661
 51
202.733040
  6
CONTINUOUS
  0
ARC
  8
WHITE
 10
9.261143
 20
9.876073
 30
0.000000
 40
0.109074
 50
178.149014
 51
274.630365
  6
CONTINUOUS
  0
ARC
  8
WHITE
 10
9.265896
 20
9.783809
 30
0.000000
 40
0.016945
 50
-76.166764
 51
50.707575
  6
CONTINUOUS
  0
ARC
  8
WHITE
 10
9.344075
 20
9.958381
 30
0.000000
 40
0.174979
 50
-160.466955
 51
-112.672373
  6
CONTINUOUS
  0
ARC
  8
WHITE
 10
9.197246
 20
10.307823
 30
0.000000
 40
0.021223
 50
131.687191
 51
228.312809
  6
CONTINUOUS
  0
ARC
  8
WHITE
 10
9.211669
 20
10.322752
 30
0.000000
 40
0.041972
 50
-132.836788
 51
-100.294975
  6
CONTINUOUS
  0
ARC
  8
WHITE
 10
9.228940
 20
10.382749
 30
0.000000
 40
0.104279
 50
-103.742248
 51
-19.672359
  6
CONTINUOUS
  0
ARC
  8
WHITE
 10
9.306737
 20
10.351151
 30
0.000000
 40
0.020694
 50
-9.755311
 51
121.112040
  6
CONTINUOUS
  0
ARC
  8
WHITE
 10
9.198989
 20
10.447696
 30
0.000000
 40
0.125034
 50
-97.286126
 51
-39.083119
  6
CONTINUOUS
  0
ARC
  8
WHITE
 10
8.123482
 20
11.516932
 30
0.000000
 40
0.036384
 50
87.927845
 51
150.788393
  6
CONTINUOUS
  0
ARC
  8
WHITE
 10
8.147308
 20
11.505161
 30
0.000000
 40
0.062939
 50
152.020232
 51
294.466158
  6
CONTINUOUS
  0
ARC
  8
WHITE
 10
8.165063
 20
11.466165
 30
0.000000
 40
0.020092
 50
-65.563868
 51
47.866937
  6
CONTINUOUS
  0
ARC
  8
WHITE
 10
8.210505
 20
11.532903
 30
0.000000
 40
0.060900
 50
-164.168426
 51
-121.657883
  6
CONTINUOUS
  0
ARC
  8
WHITE
 10
8.090791
 20
11.499934
 30
0.000000
 40
0.063274
 50
14.979251
 51
57.489795
  6
CONTINUOUS
  0
ARC
  8
WHITE
 10
12.375370
 20
12.711141
 30
0.000000
 40
0.056989
 50
38.219388
 51
197.180030
  6
CONTINUOUS
  0
ARC
  8
WHITE
 10
12.342419
 20
12.695979
 30
0.000000
 40
0.021559
 50
-175.556249
 51
-40.748601
  6
CONTINUOUS
  0
ARC
  8
WHITE
 10
12.402608
 20
12.666818
 30
0.000000
 40
0.046379
 50
83.646347
 51
161.014648
  6
CONTINUOUS
  0
ARC
  8
WHITE
 10
12.407085
 20
12.732195
 30
0.000000
 40
0.019294
 50
-88.051845
 51
47.406100
  6
CONTINUOUS
  0
ARC
  8
WHITE
 10
11.326360
 20
8.370865
 30
0.000000
 40
0.050590
 50
-73.013879
 51
-3.893034
  6
CONTINUOUS
  0
ARC
  8
WHITE
 10
11.439536
 20
8.380932
 30
0.000000
 40
0.064140
 50
153.751729
 51
192.151331
  6
CONTINUOUS
  0
ARC
  8
WHITE
 10
11.398533
 20
8.391036
 30
0.000000
 40
0.024628
 50
19.869845
 51
132.136944
  6
CONTINUOUS
  0
ARC
  8
WHITE
 10
11.725021
 20
8.305108
 30
0.000000
 40
0.317645
 50
162.730431
 51
178.345689
  6
CONTINUOUS
  0
ARC
  8
WHITE
 10
11.370233
 20
8.340922
 30
0.000000
 40
0.045818
 50
-109.296687
 51
-35.556823
  6
CONTINUOUS
  0
ARC
  8
WHITE
 10
11.352250
 20
8.312405
 30
0.000000
 40
0.015000
 50
137.792692
 51
280.922795
  6
CONTINUOUS
  0
ARC
  8
WHITE
 10
11.027234
 20
8.638109
 30
0.000000
 40
0.233051
 50
-165.468733
 51
-146.072571
  6
CONTINUOUS
  0
ARC
  8
WHITE
 10
10.851618
 20
8.531788
 30
0.000000
 40
0.029658
 50
-126.780804
 51
-77.684157
  6
CONTINUOUS
  0
ARC
  8
WHITE
 10
10.842440
 20
8.530221
 30
0.000000
 40
0.031491
 50
-60.504412
 51
29.491783
  6
CONTINUOUS
  0
ARC
  8
WHITE
 10
10.922664
 20
8.594370
 30
0.000000
 40
0.071803
 50
176.457359
 51
222.647103
  6
CONTINUOUS
  0
ARC
  8
WHITE
 10
10.826560
 20
8.588596
 30
0.000000
 40
0.026485
 50
22.675773
 51
199.776132
  6
CONTINUOUS
  0
CIRCLE
  8
WHITE
 10
9.409567
 20
9.996758
 30
0.000000
 40
0.037500
  6
CONTINUOUS
  0
ENDSEC
  0
EOF
