  0
SECTION
  2
HEADER
  9
$ACADVER
  1
AC1015
  9
$ACADMAINTVER
 70
     6
  9
$DWGCODEPAGE
  3
ANSI_1252
  9
$INSBASE
 10
0.0
 20
0.0
 30
0.0
  9
$EXTMIN
 10
-0.939693
 20
-0.984808
 30
0.0
  9
$EXTMAX
 10
13.0
 20
12.984808
 30
0.0
  9
$LIMMIN
 10
0.0
 20
0.0
  9
$LIMMAX
 10
0.0
 20
0.0
  9
$ORTHOMODE
 70
     0
  9
$REGENMODE
 70
     1
  9
$FILLMODE
 70
     1
  9
$QTEXTMODE
 70
     0
  9
$MIRRTEXT
 70
     1
  9
$LTSCALE
 40
1.0
  9
$ATTMODE
 70
     1
  9
$TEXTSIZE
 40
0.2
  9
$TRACEWID
 40
0.05
  9
$TEXTSTYLE
  7
Standard
  9
$CLAYER
  8
0
  9
$CELTYPE
  6
Continuous
  9
$CECOLOR
 62
   256
  9
$CELTSCALE
 40
1.0
  9
$DISPSILH
 70
     0
  9
$DIMSCALE
 40
1.0
  9
$DIMASZ
 40
0.18
  9
$DIMEXO
 40
0.0625
  9
$DIMDLI
 40
0.38
  9
$DIMRND
 40
0.0
  9
$DIMDLE
 40
0.0
  9
$DIMEXE
 40
0.18
  9
$DIMTP
 40
0.0
  9
$DIMTM
 40
0.0
  9
$DIMTXT
 40
0.18
  9
$DIMCEN
 40
0.09
  9
$DIMTSZ
 40
0.0
  9
$DIMTOL
 70
     0
  9
$DIMLIM
 70
     0
  9
$DIMTIH
 70
     1
  9
$DIMTOH
 70
     1
  9
$DIMSE1
 70
     0
  9
$DIMSE2
 70
     0
  9
$DIMTAD
 70
     0
  9
$DIMZIN
 70
     0
  9
$DIMBLK
  1

  9
$DIMASO
 70
     1
  9
$DIMSHO
 70
     1
  9
$DIMPOST
  1

  9
$DIMAPOST
  1

  9
$DIMALT
 70
     0
  9
$DIMALTD
 70
     2
  9
$DIMALTF
 40
25.4
  9
$DIMLFAC
 40
1.0
  9
$DIMTOFL
 70
     0
  9
$DIMTVP
 40
0.0
  9
$DIMTIX
 70
     0
  9
$DIMSOXD
 70
     0
  9
$DIMSAH
 70
     0
  9
$DIMBLK1
  1

  9
$DIMBLK2
  1

  9
$DIMSTYLE
  2
Standard
  9
$DIMCLRD
 70
     0
  9
$DIMCLRE
 70
     0
  9
$DIMCLRT
 70
     0
  9
$DIMTFAC
 40
1.0
  9
$DIMGAP
 40
0.09
  9
$DIMJUST
 70
     0
  9
$DIMSD1
 70
     0
  9
$DIMSD2
 70
     0
  9
$DIMTOLJ
 70
     1
  9
$DIMTZIN
 70
     0
  9
$DIMALTZ
 70
     0
  9
$DIMALTTZ
 70
     0
  9
$DIMUPT
 70
     0
  9
$DIMDEC
 70
     4
  9
$DIMTDEC
 70
     4
  9
$DIMALTU
 70
     2
  9
$DIMALTTD
 70
     2
  9
$DIMTXSTY
  7
Standard
  9
$DIMAUNIT
 70
     0
  9
$DIMADEC
 70
     0
  9
$DIMALTRND
 40
0.0
  9
$DIMAZIN
 70
     0
  9
$DIMDSEP
 70
    46
  9
$DIMATFIT
 70
     3
  9
$DIMFRAC
 70
     0
  9
$DIMLDRBLK
  1

  9
$DIMLUNIT
 70
     2
  9
$DIMLWD
 70
    -2
  9
$DIMLWE
 70
    -2
  9
$DIMTMOVE
 70
     0
  9
$LUNITS
 70
     2
  9
$LUPREC
 70
     4
  9
$SKETCHINC
 40
0.1
  9
$FILLETRAD
 40
0.0
  9
$AUNITS
 70
     0
  9
$AUPREC
 70
     0
  9
$MENU
  1
acad
  9
$ELEVATION
 40
0.0
  9
$PELEVATION
 40
0.0
  9
$THICKNESS
 40
0.0
  9
$LIMCHECK
 70
     0
  9
$CHAMFERA
 40
0.0
  9
$CHAMFERB
 40
0.0
  9
$CHAMFERC
 40
0.0
  9
$CHAMFERD
 40
0.0
  9
$SKPOLY
 70
     0
  9
$TDCREATE
 40
2454251.560648148
  9
$TDUCREATE
 40
0.000000000
  9
$TDUPDATE
 40
2454251.560648148
  9
$TDUUPDATE
 40
0.000000000
  9
$TDINDWG
 40
0.0000000000
  9
$TDUSRTIMER
 40
0.0000000000
  9
$USRTIMER
 70
     1
  9
$ANGBASE
 50
0.0
  9
$ANGDIR
 70
     0
  9
$PDMODE
 70
     0
  9
$PDSIZE
 40
0.0
  9
$PLINEWID
 40
0.0
  9
$SPLFRAME
 70
     0
  9
$SPLINETYPE
 70
     6
  9
$SPLINESEGS
 70
     8
  9
$HANDSEED
  5
241
  9
$SURFTAB1
 70
     6
  9
$SURFTAB2
 70
     6
  9
$SURFTYPE
 70
     6
  9
$SURFU
 70
     6
  9
$SURFV
 70
     6
  9
$UCSBASE
  2

  9
$UCSNAME
  2

  9
$UCSORG
 10
0.0
 20
0.0
 30
0.0
  9
$UCSXDIR
 10
1.0
 20
0.0
 30
0.0
  9
$UCSYDIR
 10
0.0
 20
1.0
 30
0.0
  9
$UCSORTHOREF
  2

  9
$UCSORTHOVIEW
 70
     0
  9
$UCSORGTOP
 10
0.0
 20
0.0
 30
0.0
  9
$UCSORGBOTTOM
 10
0.0
 20
0.0
 30
0.0
  9
$UCSORGLEFT
 10
0.0
 20
0.0
 30
0.0
  9
$UCSORGRIGHT
 10
0.0
 20
0.0
 30
0.0
  9
$UCSORGFRONT
 10
0.0
 20
0.0
 30
0.0
  9
$UCSORGBACK
 10
0.0
 20
0.0
 30
0.0
  9
$PUCSBASE
  2

  9
$PUCSNAME
  2

  9
$PUCSORG
 10
0.0
 20
0.0
 30
0.0
  9
$PUCSXDIR
 10
1.0
 20
0.0
 30
0.0
  9
$PUCSYDIR
 10
0.0
 20
1.0
 30
0.0
  9
$PUCSORTHOREF
  2

  9
$PUCSORTHOVIEW
 70
     0
  9
$PUCSORGTOP
 10
0.0
 20
0.0
 30
0.0
  9
$PUCSORGBOTTOM
 10
0.0
 20
0.0
 30
0.0
  9
$PUCSORGLEFT
 10
0.0
 20
0.0
 30
0.0
  9
$PUCSORGRIGHT
 10
0.0
 20
0.0
 30
0.0
  9
$PUCSORGFRONT
 10
0.0
 20
0.0
 30
0.0
  9
$PUCSORGBACK
 10
0.0
 20
0.0
 30
0.0
  9
$USERI1
 70
     0
  9
$USERI2
 70
     0
  9
$USERI3
 70
     0
  9
$USERI4
 70
     0
  9
$USERI5
 70
     0
  9
$USERR1
 40
0.0
  9
$USERR2
 40
0.0
  9
$USERR3
 40
0.0
  9
$USERR4
 40
0.0
  9
$USERR5
 40
0.0
  9
$WORLDVIEW
 70
     1
  9
$SHADEDGE
 70
     3
  9
$SHADEDIF
 70
    70
  9
$TILEMODE
 70
     1
  9
$MAXACTVP
 70
    16
  9
$PINSBASE
 10
0.0
 20
0.0
 30
0.0
  9
$PLIMCHECK
 70
     0
  9
$PEXTMIN
 10
1.000000E+20
 20
1.000000E+20
 30
1.000000E+20
  9
$PEXTMAX
 10
-1.000000E+20
 20
-1.000000E+20
 30
-1.000000E+20
  9
$PLIMMIN
 10
0.0
 20
0.0
  9
$PLIMMAX
 10
12.0
 20
9.0
  9
$UNITMODE
 70
     0
  9
$VISRETAIN
 70
     0
  9
$PLINEGEN
 70
     1
  9
$PSLTSCALE
 70
     0
  9
$TREEDEPTH
 70
  3020
  9
$CMLSTYLE
  2
Standard
  9
$CMLJUST
 70
     0
  9
$CMLSCALE
 40
1.0
  9
$PROXYGRAPHICS
 70
     0
  9
$MEASUREMENT
 70
     0
  9
$CELWEIGHT
370
     0
  9
$ENDCAPS
280
     0
  9
$JOINSTYLE
280
     0
  9
$LWDISPLAY
290
     0
  9
$INSUNITS
 70
     0
  9
$HYPERLINKBASE
  1

  9
$STYLESHEET
  1

  9
$XEDIT
290
     1
  9
$CEPSNTYPE
380
     0
  9
$PSTYLEMODE
290
     1
  9
$FINGERPRINTGUID
  2

  9
$VERSIONGUID
  2

  9
$EXTNAMES
290
     1
  9
$PSVPSCALE
 40
0.0
  0
ENDSEC
  0
SECTION
  2
CLASSES
  0
CLASS
  1
LWPOLYLINE
  2
AcDbPolyline
  3
AutoCAD 2000
 90
        0
280
     0
281
     1
  0
CLASS
  1
IMAGE
  2
AcDbRasterImage
  3
ISM
 90
      127
280
     0
281
     1
  0
CLASS
  1
OLE2FRAME
  2
AcDbOle2Frame
  3
AutoCAD 2000
 90
        0
280
     0
281
     1
  0
CLASS
  1
HATCH
  2
AcDbHatch
  3
AutoCAD 2000
 90
        0
280
     0
281
     1
  0
CLASS
  1
DICTIONARYVAR
  2
AcDbDictionaryVar
  3
AutoCAD 2000
 90
        0
280
     0
281
     0
  0
CLASS
  1
RASTERVARIABLES
  2
AcDbRasterVariables
  3
ISM
 90
        0
280
     0
281
     0
  0
CLASS
  1
IMAGEDEF
  2
AcDbRasterImageDef
  3
ISM
 90
        0
280
     0
281
     0
  0
CLASS
  1
IMAGEDEF_REACTOR
  2
AcDbRasterImageDefReactor
  3
ISM
 90
        1
280
     0
281
     0
  0
CLASS
  1
IDBUFFER
  2
AcDbIdBuffer
  3
AutoCAD 2000
 90
        0
280
     0
281
     0
  0
CLASS
  1
SPATIAL_FILTER
  2
AcDbSpatialFilter
  3
AutoCAD 2000
 90
        0
280
     0
281
     0
  0
CLASS
  1
XRECORD
  2
AcDbXrecord
  3
AutoCAD 2000
 90
        0
280
     0
281
     0
  0
CLASS
  1
SORTENTSTABLE
  2
AcDbSortentsTable
  3
AutoCAD 2000
 90
        0
280
     0
281
     0
  0
CLASS
  1
LAYER_INDEX
  2
AcDbLayerIndex
  3
AutoCAD 2000
 90
        0
280
     0
281
     0
  0
CLASS
  1
SPATIAL_INDEX
  2
AcDbSpatialIndex
  3
AutoCAD 2000
 90
        0
280
     0
281
     0
  0
CLASS
  1
OBJECT_PTR
  2
CAseDLPNTableRecord
  3
\"ASE-LPNTableRecord\"
 90
        1
280
     0
281
     0
  0
CLASS
  1
LAYOUT
  2
AcDbLayout
  3
AutoCAD 2000
 90
        0
280
     0
281
     0
  0
CLASS
  1
PLOTSETTINGS
  2
AcDbPlotSettings
  3
AutoCAD 2000
 90
        0
280
     0
281
     0
  0
CLASS
  1
ACDBDICTIONARYWDFLT
  2
AcDbDictionaryWithDefault
  3
AutoCAD 2000
 90
        0
280
     0
281
     0
  0
CLASS
  1
ACDBPLACEHOLDER
  2
AcDbPlaceHolder
  3
AutoCAD 2000
 90
        0
280
     0
281
     0
  0
CLASS
  1
VBA_PROJECT
  2
AcDbVbaProject
  3
acadvba
 90
        0
280
     0
281
     0
  0
CLASS
  1
WIPEOUT
  2
AcDbWipeout
  3
WipeOut|AutoCAD Express Tool|expresstools@autodesk.com
 90
      127
280
     0
281
     1
  0
CLASS
  1
WIPEOUTVARIABLES
  2
AcDbWipeoutVariables
  3
WipeOut|AutoCAD Express Tool|expresstools@autodesk.com
 90
        0
280
     0
281
     0
  0
CLASS
  1
RTEXT
  2
RText
  3
RText|AutoCAD Express Tool|expresstools@autodesk.com
 90
        0
280
     0
281
     1
  0
CLASS
  1
ARCALIGNEDTEXT
  2
AcDbArcAlignedText
  3
ATEXT|AutoCAD Express Tool|expresstools@autodesk.com
 90
        0
280
     0
281
     1
  0
ENDSEC
  0
SECTION
  2
TABLES
  0
TABLE
  2
VPORT
  5
7
100
AcDbSymbolTable
 70
     1
  0
VPORT
  5
15
100
AcDbSymbolTableRecord
100
AcDbViewportTableRecord
  2
*ACTIVE
 70
     0
 10
0.0
 20
0.0
 11
1.0
 21
1.0
 12
6.591288
 22
4.579184
 13
0.0
 23
0.0
 14
1.0
 24
1.0
 15
0.0
 25
0.0
 16
0.0
 26
0.0
 36
1.0
 17
0.0
 27
0.0
 37
0.0
 40
9.158369
 41
0.688564
 42
50.0
 43
0.0
 44
0.0
 50
0.0
 51
0.0
 71
     0
 72
   100
 73
     1
 74
     1
 75
     0
 76
     0
 77
     0
 78
     0
281
     0
 65
     0
110
0.0
120
0.0
130
0.0
111
1.0
121
0.0
131
0.0
112
0.0
122
1.0
132
0.0
345
0
346
0
 79
     0
146
0.0
  0
ENDTAB
  0
TABLE
  2
LTYPE
  5
4
100
AcDbSymbolTable
 70
     6
  0
LTYPE
  5
11
100
AcDbSymbolTableRecord
100
AcDbLinetypeTableRecord
  2
ByBlock
 70
    64
  3

 72
    65
 73
     0
 40
0.0
  0
LTYPE
  5
12
100
AcDbSymbolTableRecord
100
AcDbLinetypeTableRecord
  2
ByLayer
 70
    64
  3

 72
    65
 73
     0
 40
0.0
  0
LTYPE
  5
13
100
AcDbSymbolTableRecord
100
AcDbLinetypeTableRecord
  2
Continuous
 70
    64
  3
Solid line
 72
    65
 73
     0
 40
0.0
  0
LTYPE
  5
24
100
AcDbSymbolTableRecord
100
AcDbLinetypeTableRecord
  2
solid
 70
    64
  3

 72
    65
 73
     0
 40
0.0
  0
LTYPE
  5
25
100
AcDbSymbolTableRecord
100
AcDbLinetypeTableRecord
  2
dashed
 70
    64
  3

 72
    65
 73
     0
 40
0.0
  0
LTYPE
  5
26
100
AcDbSymbolTableRecord
100
AcDbLinetypeTableRecord
  2
center
 70
    64
  3

 72
    65
 73
     0
 40
0.0
  0
ENDTAB
  0
TABLE
  2
LAYER
  5
2
100
AcDbSymbolTable
 70
     2
  0
LAYER
  5
14
100
AcDbSymbolTableRecord
100
AcDbLayerTableRecord
  2
0
 70
     0
 62
     7
  6
Continuous
290
     1
370
    -3
390
1D
  0
LAYER
  5
27
100
AcDbSymbolTableRecord
100
AcDbLayerTableRecord
  2
1
 70
     0
 62
     1
  6
solid
290
     1
370
    -3
390
1D
  0
ENDTAB
  0
TABLE
  2
STYLE
  5
3
100
AcDbSymbolTable
 70
     1
  0
STYLE
  5
17
100
AcDbSymbolTableRecord
100
AcDbTextStyleTableRecord
  2
Standard
 70
     0
 40
0.0
 41
1.0
 50
0.0
 71
     0
 42
0.0
  3
txt
  4

  0
ENDTAB
  0
TABLE
  2
VIEW
  5
5
100
AcDbSymbolTable
 70
     0
  0
ENDTAB
  0
TABLE
  2
UCS
  5
6
100
AcDbSymbolTable
 70
     0
  0
ENDTAB
  0
TABLE
  2
APPID
  5
8
100
AcDbSymbolTable
 70
     1
  0
APPID
  5
16
100
AcDbSymbolTableRecord
100
AcDbRegAppTableRecord
  2
ACAD
 70
     0
  0
ENDTAB
  0
TABLE
  2
DIMSTYLE
  5
9
100
AcDbSymbolTable
 70
     1
100
AcDbDimStyleTable
 71
     0
  0
DIMSTYLE
105
18
100
AcDbSymbolTableRecord
100
AcDbDimStyleTableRecord
  2
Standard
 70
     0
  3

  4

 40
1.0
 41
0.18
 42
0.0625
 43
0.38
 44
0.18
 45
0.0
 46
0.0
 47
0.0
 48
0.0
 71
     0
 72
     0
 73
     1
 74
     1
 75
     0
 76
     0
 77
     0
 78
     0
 79
     0
140
0.18
141
0.09
142
0.0
143
25.4
144
1.0
145
0.0
146
1.0
147
0.09
148
0.0
170
     0
171
     2
172
     0
173
     0
174
     0
175
     0
176
     0
177
     0
178
     0
179
     0
271
     4
272
     4
273
     2
274
     2
275
     0
276
     0
277
     2
278
    46
279
     0
280
     0
281
     0
282
     0
283
     1
284
     0
285
     0
286
     0
288
     0
289
     3
340
17
341
0
342
0
343
0
344
0
371
    -2
372
    -2
  0
ENDTAB
  0
TABLE
  2
BLOCK_RECORD
  5
1
100
AcDbSymbolTable
 70
     0
  0
BLOCK_RECORD
  5
A
100
AcDbSymbolTableRecord
100
AcDbBlockTableRecord
  2
*MODEL_SPACE
340
20
  0
BLOCK_RECORD
  5
B
100
AcDbSymbolTableRecord
100
AcDbBlockTableRecord
  2
*PAPER_SPACE
340
21
  0
ENDTAB
  0
ENDSEC
  0
SECTION
  2
BLOCKS
  0
BLOCK
  5
D
100
AcDbEntity
  8
0
390
0
100
AcDbBlockBegin
  2
*MODEL_SPACE
 70
     0
 10
0.0
 20
0.0
 30
0.0
  3
*MODEL_SPACE
  1

  0
ENDBLK
  5
E
100
AcDbEntity
  8
0
390
0
100
AcDbBlockEnd
  0
BLOCK
  5
F
100
AcDbEntity
 67
     1
  8
0
390
0
100
AcDbBlockBegin
  2
*PAPER_SPACE
 70
     0
 10
0.0
 20
0.0
 30
0.0
  3
*PAPER_SPACE
  1

  0
ENDBLK
  5
10
100
AcDbEntity
 67
     1
  8
0
390
0
100
AcDbBlockEnd
  0
ENDSEC
  0
SECTION
  2
ENTITIES
  0
ARC
  5
28
100
AcDbEntity
  8
1
390
0
  6
solid
 62
     3
100
AcDbCircle
 10
4.064495
 20
4.142932
 30
0.0
 40
2.978121
210
0.0
220
0.0
230
1.0
100
AcDbArc
 50
271.071029
 51
279.655549
  0
ARC
  5
29
100
AcDbEntity
  8
1
390
0
  6
solid
 62
     3
100
AcDbCircle
 10
4.526469
 20
1.426945
 30
0.0
 40
0.223124
210
0.0
220
0.0
230
1.0
100
AcDbArc
 50
279.683679
 51
338.453229
  0
ARC
  5
2A
100
AcDbEntity
  8
1
390
0
  6
solid
 62
     3
100
AcDbCircle
 10
5.711723
 20
1.397105
 30
0.0
 40
0.979111
210
0.0
220
0.0
230
1.0
100
AcDbArc
 50
160.99207
 51
183.050559
  0
ARC
  5
2B
100
AcDbEntity
  8
1
390
0
  6
solid
 62
     3
100
AcDbCircle
 10
4.163712
 20
2.028378
 30
0.0
 40
0.696292
210
0.0
220
0.0
230
1.0
100
AcDbArc
 50
333.344131
 51
359.804185
  0
ARC
  5
2C
100
AcDbEntity
  8
1
390
0
  6
solid
 62
     3
100
AcDbCircle
 10
4.801647
 20
2.029853
 30
0.0
 40
0.05848
210
0.0
220
0.0
230
1.0
100
AcDbArc
 50
356.222506
 51
433.761156
  0
ARC
  5
2D
100
AcDbEntity
  8
1
390
0
  6
solid
 62
     3
100
AcDbCircle
 10
0.92936
 20
7.823051
 30
0.0
 40
6.930749
210
0.0
220
0.0
230
1.0
100
AcDbArc
 50
298.392568
 51
304.129882
  0
ARC
  5
2E
100
AcDbEntity
  8
1
390
0
  6
solid
 62
     3
100
AcDbCircle
 10
4.136333
 20
1.911483
 30
0.0
 40
0.205586
210
0.0
220
0.0
230
1.0
100
AcDbArc
 50
233.136507
 51
295.549334
  0
ARC
  5
2F
100
AcDbEntity
  8
1
390
0
  6
solid
 62
     3
100
AcDbCircle
 10
4.197559
 20
1.526918
 30
0.0
 40
0.287225
210
0.0
220
0.0
230
1.0
100
AcDbArc
 50
129.982871
 51
193.267559
  0
ARC
  5
30
100
AcDbEntity
  8
1
390
0
  6
solid
 62
     3
100
AcDbCircle
 10
3.572263
 20
1.602475
 30
0.0
 40
0.373564
210
0.0
220
0.0
230
1.0
100
AcDbArc
 50
289.343769
 51
337.745724
  0
ARC
  5
31
100
AcDbEntity
  8
1
390
0
  6
solid
 62
     3
100
AcDbCircle
 10
3.64618
 20
1.38934
 30
0.0
 40
0.147979
210
0.0
220
0.0
230
1.0
100
AcDbArc
 50
197.435928
 51
289.674142
  0
ARC
  5
32
100
AcDbEntity
  8
1
390
0
  6
solid
 62
     3
100
AcDbCircle
 10
3.571078
 20
1.62212
 30
0.0
 40
0.284889
210
0.0
220
0.0
230
1.0
100
AcDbArc
 50
256.588487
 51
311.271702
  0
ARC
  5
33
100
AcDbEntity
  8
1
390
0
  6
solid
 62
     3
100
AcDbCircle
 10
2.553924
 20
1.5035
 30
0.0
 40
1.208855
210
0.0
220
0.0
230
1.0
100
AcDbArc
 50
355.46889
 51
371.620627
  0
ARC
  5
34
100
AcDbEntity
  8
1
390
0
  6
solid
 62
     3
100
AcDbCircle
 10
3.725894
 20
1.492945
 30
0.0
 40
0.254343
210
0.0
220
0.0
230
1.0
100
AcDbArc
 50
87.271868
 51
147.661047
  0
ARC
  5
35
100
AcDbEntity
  8
1
390
0
  6
solid
 62
     3
100
AcDbCircle
 10
3.232093
 20
1.656788
 30
0.0
 40
0.280288
210
0.0
220
0.0
230
1.0
100
AcDbArc
 50
321.681464
 51
354.310326
  0
ARC
  5
36
100
AcDbEntity
  8
1
390
0
  6
solid
 62
     3
100
AcDbCircle
 10
3.441305
 20
1.523949
 30
0.0
 40
0.042322
210
0.0
220
0.0
230
1.0
100
AcDbArc
 50
178.349592
 51
284.637861
  0
LINE
  5
37
100
AcDbEntity
  8
1
390
0
  6
solid
 62
     3
100
AcDbLine
 10
3.399
 20
1.525168
 30
0.0
 11
3.399
 21
1.525
 31
0.0
  0
ARC
  5
38
100
AcDbEntity
  8
1
390
0
  6
solid
 62
     3
100
AcDbCircle
 10
3.839788
 20
1.6855
 30
0.0
 40
0.469099
210
0.0
220
0.0
230
1.0
100
AcDbArc
 50
169.870729
 51
200.007637
  0
ARC
  5
39
100
AcDbEntity
  8
1
390
0
  6
solid
 62
     3
100
AcDbCircle
 10
3.282494
 20
2.01749
 30
0.0
 40
0.267145
210
0.0
220
0.0
230
1.0
100
AcDbArc
 50
230.619664
 51
290.947043
  0
ARC
  5
3A
100
AcDbEntity
  8
1
390
0
  6
solid
 62
     3
100
AcDbCircle
 10
3.175615
 20
1.719327
 30
0.0
 40
0.111016
210
0.0
220
0.0
230
1.0
100
AcDbArc
 50
124.333936
 51
147.485173
  0
LINE
  5
3B
100
AcDbEntity
  8
1
390
0
  6
solid
 62
     3
100
AcDbLine
 10
3.082
 20
1.779
 30
0.0
 11
3.018
 21
1.641
 31
0.0
  0
LINE
  5
3C
100
AcDbEntity
  8
1
390
0
  6
solid
 62
     3
100
AcDbLine
 10
3.018
 20
1.641
 30
0.0
 11
2.997
 21
1.641
 31
0.0
  0
ARC
  5
3D
100
AcDbEntity
  8
1
390
0
  6
solid
 62
     3
100
AcDbCircle
 10
3.36835
 20
1.83
 30
0.0
 40
0.416679
210
0.0
220
0.0
230
1.0
100
AcDbArc
 50
173.938475
 51
206.974034
  0
ARC
  5
3E
100
AcDbEntity
  8
1
390
0
  6
solid
 62
     3
100
AcDbCircle
 10
3.128845
 20
1.802972
 30
0.0
 40
0.188721
210
0.0
220
0.0
230
1.0
100
AcDbArc
 50
85.089178
 51
157.891215
  0
ARC
  5
3F
100
AcDbEntity
  8
1
390
0
  6
solid
 62
     3
100
AcDbCircle
 10
1.43782
 20
38.330117
 30
0.0
 40
36.379196
210
0.0
220
0.0
230
1.0
100
AcDbArc
 50
272.689729
 51
273.754538
  0
ARC
  5
40
100
AcDbEntity
  8
1
390
0
  6
solid
 62
     3
100
AcDbCircle
 10
3.808654
 20
2.231624
 30
0.0
 40
0.202941
210
0.0
220
0.0
230
1.0
100
AcDbArc
 50
273.205108
 51
314.146201
  0
ARC
  5
41
100
AcDbEntity
  8
1
390
0
  6
solid
 62
     3
100
AcDbCircle
 10
5.574606
 20
1.646517
 30
0.0
 40
1.683
210
0.0
220
0.0
230
1.0
100
AcDbArc
 50
149.131993
 51
164.86283
  0
ARC
  5
42
100
AcDbEntity
  8
1
390
0
  6
solid
 62
     3
100
AcDbCircle
 10
4.68713
 20
2.015868
 30
0.0
 40
0.744688
210
0.0
220
0.0
230
1.0
100
AcDbArc
 50
120.426088
 51
138.429411
  0
ARC
  5
43
100
AcDbEntity
  8
1
390
0
  6
solid
 62
     3
100
AcDbCircle
 10
4.188802
 20
2.8752
 30
0.0
 40
0.248727
210
0.0
220
0.0
230
1.0
100
AcDbArc
 50
299.161739
 51
356.265409
  0
ARC
  5
44
100
AcDbEntity
  8
1
390
0
  6
solid
 62
     3
100
AcDbCircle
 10
4.05604
 20
2.788283
 30
0.0
 40
0.387468
210
0.0
220
0.0
230
1.0
100
AcDbArc
 50
10.516103
 51
63.15701
  0
ARC
  5
45
100
AcDbEntity
  8
1
390
0
  6
solid
 62
     3
100
AcDbCircle
 10
3.003326
 20
0.80878
 30
0.0
 40
2.629417
210
0.0
220
0.0
230
1.0
100
AcDbArc
 50
62.166756
 51
70.870449
  0
ARC
  5
46
100
AcDbEntity
  8
1
390
0
  6
solid
 62
     3
100
AcDbCircle
 10
5.238274
 20
1.884109
 30
0.0
 40
1.967449
210
0.0
220
0.0
230
1.0
100
AcDbArc
 50
134.266534
 51
149.217883
  0
ARC
  5
47
100
AcDbEntity
  8
1
390
0
  6
solid
 62
     3
100
AcDbCircle
 10
3.727349
 20
3.19113
 30
0.0
 40
0.349634
210
0.0
220
0.0
230
1.0
100
AcDbArc
 50
182.316126
 51
239.138747
  0
ARC
  5
48
100
AcDbEntity
  8
1
390
0
  6
solid
 62
     3
100
AcDbCircle
 10
5.548724
 20
3.320802
 30
0.0
 40
2.175482
210
0.0
220
0.0
230
1.0
100
AcDbArc
 50
167.356003
 51
183.790077
  0
ARC
  5
49
100
AcDbEntity
  8
1
390
0
  6
solid
 62
     3
100
AcDbCircle
 10
4.329161
 20
3.381258
 30
0.0
 40
0.994254
210
0.0
220
0.0
230
1.0
100
AcDbArc
 50
107.209139
 51
155.282479
  0
LINE
  5
4A
100
AcDbEntity
  8
1
390
0
  6
solid
 62
     3
100
AcDbLine
 10
4.035
 20
4.331
 30
0.0
 11
4.077
 21
4.374
 31
0.0
  0
ARC
  5
4B
100
AcDbEntity
  8
1
390
0
  6
solid
 62
     3
100
AcDbCircle
 10
0.174619
 20
3.292609
 30
0.0
 40
4.049442
210
0.0
220
0.0
230
1.0
100
AcDbArc
 50
15.488613
 51
22.787227
  0
ARC
  5
4C
100
AcDbEntity
  8
1
390
0
  6
solid
 62
     3
100
AcDbCircle
 10
5.298052
 20
5.271508
 30
0.0
 40
1.4494
210
0.0
220
0.0
230
1.0
100
AcDbArc
 50
185.364535
 51
196.452838
  0
ARC
  5
4D
100
AcDbEntity
  8
1
390
0
  6
solid
 62
     3
100
AcDbCircle
 10
2.50312
 20
4.689526
 30
0.0
 40
1.423699
210
0.0
220
0.0
230
1.0
100
AcDbArc
 50
18.276408
 51
67.410504
  0
ARC
  5
4E
100
AcDbEntity
  8
1
390
0
  6
solid
 62
     3
100
AcDbCircle
 10
3.25141
 20
6.408354
 30
0.0
 40
0.451738
210
0.0
220
0.0
230
1.0
100
AcDbArc
 50
189.602244
 51
243.522007
  0
LINE
  5
4F
100
AcDbEntity
  8
1
390
0
  6
solid
 62
     3
100
AcDbLine
 10
2.806
 20
6.333
 30
0.0
 11
2.822
 21
6.379
 31
0.0
  0
ARC
  5
50
100
AcDbEntity
  8
1
390
0
  6
solid
 62
     3
100
AcDbCircle
 10
2.83772
 20
6.439281
 30
0.0
 40
0.062296
210
0.0
220
0.0
230
1.0
100
AcDbArc
 50
255.384161
 51
328.789987
  0
ARC
  5
51
100
AcDbEntity
  8
1
390
0
  6
solid
 62
     3
100
AcDbCircle
 10
4.323732
 20
7.539393
 30
0.0
 40
1.826208
210
0.0
220
0.0
230
1.0
100
AcDbArc
 50
182.303244
 51
218.321874
  0
ARC
  5
52
100
AcDbEntity
  8
1
390
0
  6
solid
 62
     3
100
AcDbCircle
 10
2.59018
 20
7.388065
 30
0.0
 40
0.119949
210
0.0
220
0.0
230
1.0
100
AcDbArc
 50
55.569333
 51
139.478187
  0
ARC
  5
53
100
AcDbEntity
  8
1
390
0
  6
solid
 62
     3
100
AcDbCircle
 10
2.218277
 20
7.217306
 30
0.0
 40
0.515841
210
0.0
220
0.0
230
1.0
100
AcDbArc
 50
5.193655
 51
31.521996
  0
ARC
  5
54
100
AcDbEntity
  8
1
390
0
  6
solid
 62
     3
100
AcDbCircle
 10
3.401579
 20
7.303
 30
0.0
 40
0.670714
210
0.0
220
0.0
230
1.0
100
AcDbArc
 50
183.333424
 51
217.574867
  0
ARC
  5
55
100
AcDbEntity
  8
1
390
0
  6
solid
 62
     3
100
AcDbCircle
 10
4.262522
 20
6.970822
 30
0.0
 40
1.394639
210
0.0
220
0.0
230
1.0
100
AcDbArc
 50
162.422407
 51
183.157642
  0
ARC
  5
56
100
AcDbEntity
  8
1
390
0
  6
solid
 62
     3
100
AcDbCircle
 10
3.041895
 20
7.377134
 30
0.0
 40
0.109905
210
0.0
220
0.0
230
1.0
100
AcDbArc
 50
91.509351
 51
172.225993
  0
LINE
  5
57
100
AcDbEntity
  8
1
390
0
  6
solid
 62
     3
100
AcDbLine
 10
3.039
 20
7.487
 30
0.0
 11
3.06
 21
7.466001
 31
0.0
  0
ARC
  5
58
100
AcDbEntity
  8
1
390
0
  6
solid
 62
     3
100
AcDbCircle
 10
4.954189
 20
7.339389
 30
0.0
 40
1.898416
210
0.0
220
0.0
230
1.0
100
AcDbArc
 50
176.175919
 51
194.470782
  0
LINE
  5
59
100
AcDbEntity
  8
1
390
0
  6
solid
 62
     3
100
AcDbLine
 10
3.116
 20
6.865
 30
0.0
 11
3.124
 21
6.851
 31
0.0
  0
ARC
  5
5A
100
AcDbEntity
  8
1
390
0
  6
solid
 62
     3
100
AcDbCircle
 10
3.003207
 20
6.987327
 30
0.0
 40
0.182143
210
0.0
220
0.0
230
1.0
100
AcDbArc
 50
311.542659
 51
375.173145
  0
ARC
  5
5B
100
AcDbEntity
  8
1
390
0
  6
solid
 62
     3
100
AcDbCircle
 10
3.342606
 20
7.040667
 30
0.0
 40
0.163704
210
0.0
220
0.0
230
1.0
100
AcDbArc
 50
120.305033
 51
181.98356
  0
ARC
  5
5C
100
AcDbEntity
  8
1
390
0
  6
solid
 62
     3
100
AcDbCircle
 10
3.223422
 20
7.061344
 30
0.0
 40
0.126079
210
0.0
220
0.0
230
1.0
100
AcDbArc
 50
43.418095
 51
73.134647
  0
ARC
  5
5D
100
AcDbEntity
  8
1
390
0
  6
solid
 62
     3
100
AcDbCircle
 10
5.677679
 20
7.021
 30
0.0
 40
2.366089
210
0.0
220
0.0
230
1.0
100
AcDbArc
 50
176.923169
 51
188.237387
  0
ARC
  5
5E
100
AcDbEntity
  8
1
390
0
  6
solid
 62
     3
100
AcDbCircle
 10
3.671502
 20
6.558499
 30
0.0
 40
0.357511
210
0.0
220
0.0
230
1.0
100
AcDbArc
 50
110.209245
 51
159.790882
  0
LINE
  5
5F
100
AcDbEntity
  8
1
390
0
  6
solid
 62
     3
100
AcDbLine
 10
3.548
 20
6.894001
 30
0.0
 11
3.59
 21
6.873
 31
0.0
  0
ARC
  5
60
100
AcDbEntity
  8
1
390
0
  6
solid
 62
     3
100
AcDbCircle
 10
3.785195
 20
6.814857
 30
0.0
 40
0.203671
210
0.0
220
0.0
230
1.0
100
AcDbArc
 50
163.412686
 51
216.748523
  0
ARC
  5
61
100
AcDbEntity
  8
1
390
0
  6
solid
 62
     3
100
AcDbCircle
 10
3.632696
 20
6.73395
 30
0.0
 40
0.042324
210
0.0
220
0.0
230
1.0
100
AcDbArc
 50
255.362222
 51
361.717147
  0
LINE
  5
62
100
AcDbEntity
  8
1
390
0
  6
solid
 62
     3
100
AcDbLine
 10
3.675
 20
6.735218
 30
0.0
 11
3.675
 21
6.735
 31
0.0
  0
ARC
  5
63
100
AcDbEntity
  8
1
390
0
  6
solid
 62
     3
100
AcDbCircle
 10
3.749873
 20
6.7094
 30
0.0
 40
0.079128
210
0.0
220
0.0
230
1.0
100
AcDbArc
 50
58.683968
 51
161.123725
  0
ARC
  5
64
100
AcDbEntity
  8
1
390
0
  6
solid
 62
     3
100
AcDbCircle
 10
3.518236
 20
6.695124
 30
0.0
 40
0.284788
210
0.0
220
0.0
230
1.0
100
AcDbArc
 50
-48.752569
 51
16.708422
  0
ARC
  5
65
100
AcDbEntity
  8
1
390
0
  6
solid
 62
     3
100
AcDbCircle
 10
4.247118
 20
6.195816
 30
0.0
 40
0.611669
210
0.0
220
0.0
230
1.0
100
AcDbArc
 50
152.209468
 51
189.012259
  0
ARC
  5
66
100
AcDbEntity
  8
1
390
0
  6
solid
 62
     3
100
AcDbCircle
 10
3.738
 20
5.92
 30
0.0
 40
0.203532
210
0.0
220
0.0
230
1.0
100
AcDbArc
 50
80.954219
 51
117.824001
  0
ARC
  5
67
100
AcDbEntity
  8
1
390
0
  6
solid
 62
     3
100
AcDbCircle
 10
3.39503
 20
5.780399
 30
0.0
 40
0.506569
210
0.0
220
0.0
230
1.0
100
AcDbArc
 50
27.588558
 51
42.250225
  0
ARC
  5
68
100
AcDbEntity
  8
1
390
0
  6
solid
 62
     3
100
AcDbCircle
 10
4.0133
 20
6.162889
 30
0.0
 40
0.224797
210
0.0
220
0.0
230
1.0
100
AcDbArc
 50
221.138139
 51
255.759012
  0
ARC
  5
69
100
AcDbEntity
  8
1
390
0
  6
solid
 62
     3
100
AcDbCircle
 10
4.170119
 20
5.95031
 30
0.0
 40
0.212185
210
0.0
220
0.0
230
1.0
100
AcDbArc
 50
181.433949
 51
212.917934
  0
ARC
  5
6A
100
AcDbEntity
  8
1
390
0
  6
solid
 62
     3
100
AcDbCircle
 10
4.37018
 20
5.614403
 30
0.0
 40
0.437817
210
0.0
220
0.0
230
1.0
100
AcDbArc
 50
100.419343
 51
149.744384
  0
ARC
  5
6B
100
AcDbEntity
  8
1
390
0
  6
solid
 62
     3
100
AcDbCircle
 10
4.280753
 20
5.973553
 30
0.0
 40
0.072178
210
0.0
220
0.0
230
1.0
100
AcDbArc
 50
-9.210011
 51
81.837674
  0
ARC
  5
6C
100
AcDbEntity
  8
1
390
0
  6
solid
 62
     3
100
AcDbCircle
 10
3.71004
 20
6.174562
 30
0.0
 40
0.676237
210
0.0
220
0.0
230
1.0
100
AcDbArc
 50
312.626737
 51
341.679612
  0
LINE
  5
6D
100
AcDbEntity
  8
1
390
0
  6
solid
 62
     3
100
AcDbLine
 10
4.168
 20
5.677
 30
0.0
 11
4.141
 21
5.623
 31
0.0
  0
LINE
  5
6E
100
AcDbEntity
  8
1
390
0
  6
solid
 62
     3
100
AcDbLine
 10
4.141
 20
5.623
 30
0.0
 11
4.162
 21
5.581
 31
0.0
  0
ARC
  5
6F
100
AcDbEntity
  8
1
390
0
  6
solid
 62
     3
100
AcDbCircle
 10
4.519309
 20
5.246572
 30
0.0
 40
0.489399
210
0.0
220
0.0
230
1.0
100
AcDbArc
 50
99.682161
 51
136.894435
  0
LINE
  5
70
100
AcDbEntity
  8
1
390
0
  6
solid
 62
     3
100
AcDbLine
 10
4.437
 20
5.729
 30
0.0
 11
4.522
 21
5.708
 31
0.0
  0
ARC
  5
71
100
AcDbEntity
  8
1
390
0
  6
solid
 62
     3
100
AcDbCircle
 10
4.954757
 20
5.737086
 30
0.0
 40
0.433733
210
0.0
220
0.0
230
1.0
100
AcDbArc
 50
183.84506
 51
240.927721
  0
LINE
  5
72
100
AcDbEntity
  8
1
390
0
  6
solid
 62
     3
100
AcDbLine
 10
4.744
 20
5.358
 30
0.0
 11
5.051
 21
5.157
 31
0.0
  0
ARC
  5
73
100
AcDbEntity
  8
1
390
0
  6
solid
 62
     3
100
AcDbCircle
 10
4.955548
 20
5.045675
 30
0.0
 40
0.146644
210
0.0
220
0.0
230
1.0
100
AcDbArc
 50
-15.291445
 51
49.389614
  0
ARC
  5
74
100
AcDbEntity
  8
1
390
0
  6
solid
 62
     3
100
AcDbCircle
 10
7.35958
 20
5.719765
 30
0.0
 40
2.372193
210
0.0
220
0.0
230
1.0
100
AcDbArc
 50
197.485617
 51
207.320663
  0
ARC
  5
75
100
AcDbEntity
  8
1
390
0
  6
solid
 62
     3
100
AcDbCircle
 10
7.447743
 20
4.713504
 30
0.0
 40
2.197293
210
0.0
220
0.0
230
1.0
100
AcDbArc
 50
182.151856
 51
190.025162
  0
ARC
  5
76
100
AcDbEntity
  8
1
390
0
  6
solid
 62
     3
100
AcDbCircle
 10
4.483302
 20
6.298269
 30
0.0
 40
2.123974
210
0.0
220
0.0
230
1.0
100
AcDbArc
 50
292.146807
 51
310.616742
  0
ARC
  5
77
100
AcDbEntity
  8
1
390
0
  6
solid
 62
     3
100
AcDbCircle
 10
6.736526
 20
3.652412
 30
0.0
 40
1.351341
210
0.0
220
0.0
230
1.0
100
AcDbArc
 50
108.622524
 51
130.105309
  0
ARC
  5
78
100
AcDbEntity
  8
1
390
0
  6
solid
 62
     3
100
AcDbCircle
 10
5.715898
 20
6.251464
 30
0.0
 40
1.444088
210
0.0
220
0.0
230
1.0
100
AcDbArc
 50
294.075543
 51
330.118107
  0
ARC
  5
79
100
AcDbEntity
  8
1
390
0
  6
solid
 62
     3
100
AcDbCircle
 10
3.840733
 20
6.639898
 30
0.0
 40
3.317716
210
0.0
220
0.0
230
1.0
100
AcDbArc
 50
340.492279
 51
347.839196
  0
ARC
  5
7A
100
AcDbEntity
  8
1
390
0
  6
solid
 62
     3
100
AcDbCircle
 10
7.897869
 20
5.707512
 30
0.0
 40
0.846699
210
0.0
220
0.0
230
1.0
100
AcDbArc
 50
134.443985
 51
163.992487
  0
ARC
  5
7B
100
AcDbEntity
  8
1
390
0
  6
solid
 62
     3
100
AcDbCircle
 10
7.344798
 20
6.239491
 30
0.0
 40
0.082712
210
0.0
220
0.0
230
1.0
100
AcDbArc
 50
94.019197
 51
118.760693
  0
LINE
  5
7C
100
AcDbEntity
  8
1
390
0
  6
solid
 62
     3
100
AcDbLine
 10
7.339
 20
6.322001
 30
0.0
 11
7.36
 21
6.301
 31
0.0
  0
LINE
  5
7D
100
AcDbEntity
  8
1
390
0
  6
solid
 62
     3
100
AcDbLine
 10
7.36
 20
6.301
 30
0.0
 11
7.36
 21
5.983
 31
0.0
  0
LINE
  5
7E
100
AcDbEntity
  8
1
390
0
  6
solid
 62
     3
100
AcDbLine
 10
7.36
 20
5.983
 30
0.0
 11
7.593
 21
6.460001
 31
0.0
  0
LINE
  5
7F
100
AcDbEntity
  8
1
390
0
  6
solid
 62
     3
100
AcDbLine
 10
7.593
 20
6.460001
 30
0.0
 11
7.612
 21
6.542
 31
0.0
  0
ARC
  5
80
100
AcDbEntity
  8
1
390
0
  6
solid
 62
     3
100
AcDbCircle
 10
35.130368
 20
5.453942
 30
0.0
 40
27.539869
210
0.0
220
0.0
230
1.0
100
AcDbArc
 50
174.682884
 51
177.735743
  0
ARC
  5
81
100
AcDbEntity
  8
1
390
0
  6
solid
 62
     3
100
AcDbCircle
 10
7.783611
 20
8.024204
 30
0.0
 40
0.076799
210
0.0
220
0.0
230
1.0
100
AcDbArc
 50
90.455358
 51
193.711405
  0
ARC
  5
82
100
AcDbEntity
  8
1
390
0
  6
solid
 62
     3
100
AcDbCircle
 10
7.561438
 20
7.922763
 30
0.0
 40
0.284356
210
0.0
220
0.0
230
1.0
100
AcDbArc
 50
4.282856
 51
38.815183
  0
ARC
  5
83
100
AcDbEntity
  8
1
390
0
  6
solid
 62
     3
100
AcDbCircle
 10
13.3309
 20
8.126412
 30
0.0
 40
5.488932
210
0.0
220
0.0
230
1.0
100
AcDbArc
 50
181.904439
 51
191.064608
  0
ARC
  5
84
100
AcDbEntity
  8
1
390
0
  6
solid
 62
     3
100
AcDbCircle
 10
8.158355
 20
7.118428
 30
0.0
 40
0.219115
210
0.0
220
0.0
230
1.0
100
AcDbArc
 50
191.965445
 51
212.716225
  0
ARC
  5
85
100
AcDbEntity
  8
1
390
0
  6
solid
 62
     3
100
AcDbCircle
 10
7.429075
 20
7.502243
 30
0.0
 40
0.741074
210
0.0
220
0.0
230
1.0
100
AcDbArc
 50
317.334113
 51
356.809612
  0
ARC
  5
86
100
AcDbEntity
  8
1
390
0
  6
solid
 62
     3
100
AcDbCircle
 10
-6.71721
 20
10.191221
 30
0.0
 40
15.134509
210
0.0
220
0.0
230
1.0
100
AcDbArc
 50
349.607112
 51
350.928463
  0
ARC
  5
87
100
AcDbEntity
  8
1
390
0
  6
solid
 62
     3
100
AcDbCircle
 10
9.983962
 20
8.079996
 30
0.0
 40
1.777364
210
0.0
220
0.0
230
1.0
100
AcDbArc
 50
168.708654
 51
188.900616
  0
ARC
  5
88
100
AcDbEntity
  8
1
390
0
  6
solid
 62
     3
100
AcDbCircle
 10
8.311926
 20
8.437507
 30
0.0
 40
0.07156
210
0.0
220
0.0
230
1.0
100
AcDbArc
 50
76.19578
 51
187.633903
  0
ARC
  5
89
100
AcDbEntity
  8
1
390
0
  6
solid
 62
     3
100
AcDbCircle
 10
8.261717
 20
8.388067
 30
0.0
 40
0.136646
210
0.0
220
0.0
230
1.0
100
AcDbArc
 50
4.171186
 51
60.501925
  0
ARC
  5
8A
100
AcDbEntity
  8
1
390
0
  6
solid
 62
     3
100
AcDbCircle
 10
5.603274
 20
7.8895
 30
0.0
 40
2.840611
210
0.0
220
0.0
230
1.0
100
AcDbArc
 50
-10.312156
 51
10.312156
  0
LINE
  5
8B
100
AcDbEntity
  8
1
390
0
  6
solid
 62
     3
100
AcDbLine
 10
8.398001
 20
7.381001
 30
0.0
 11
8.419001
 21
7.339
 31
0.0
  0
ARC
  5
8C
100
AcDbEntity
  8
1
390
0
  6
solid
 62
     3
100
AcDbCircle
 10
5.967115
 20
8.841753
 30
0.0
 40
2.875762
210
0.0
220
0.0
230
1.0
100
AcDbArc
 50
328.496008
 51
347.901269
  0
ARC
  5
8D
100
AcDbEntity
  8
1
390
0
  6
solid
 62
     3
100
AcDbCircle
 10
9.03359
 20
8.256144
 30
0.0
 40
0.255167
210
0.0
220
0.0
230
1.0
100
AcDbArc
 50
104.662629
 51
183.852286
  0
ARC
  5
8E
100
AcDbEntity
  8
1
390
0
  6
solid
 62
     3
100
AcDbCircle
 10
7.372334
 20
8.389722
 30
0.0
 40
1.600681
210
0.0
220
0.0
230
1.0
100
AcDbArc
 50
-26.001208
 51
4.058158
  0
ARC
  5
8F
100
AcDbEntity
  8
1
390
0
  6
solid
 62
     3
100
AcDbCircle
 10
9.438432
 20
7.395552
 30
0.0
 40
0.69224
210
0.0
220
0.0
230
1.0
100
AcDbArc
 50
155.009545
 51
177.230428
  0
ARC
  5
90
100
AcDbEntity
  8
1
390
0
  6
solid
 62
     3
100
AcDbCircle
 10
8.792999
 20
7.432
 30
0.0
 40
0.046096
210
0.0
220
0.0
230
1.0
100
AcDbArc
 50
183.730668
 51
220.601269
  0
ARC
  5
91
100
AcDbEntity
  8
1
390
0
  6
solid
 62
     3
100
AcDbCircle
 10
8.259591
 20
7.990543
 30
0.0
 40
0.771229
210
0.0
220
0.0
230
1.0
100
AcDbArc
 50
310.259704
 51
336.903135
  0
ARC
  5
92
100
AcDbEntity
  8
1
390
0
  6
solid
 62
     3
100
AcDbCircle
 10
9.301262
 20
7.602636
 30
0.0
 40
0.343052
210
0.0
220
0.0
230
1.0
100
AcDbArc
 50
117.473206
 51
165.591243
  0
LINE
  5
93
100
AcDbEntity
  8
1
390
0
  6
solid
 62
     3
100
AcDbLine
 10
9.143001
 20
7.907001
 30
0.0
 11
9.160001
 21
7.91
 31
0.0
  0
LINE
  5
94
100
AcDbEntity
  8
1
390
0
  6
solid
 62
     3
100
AcDbLine
 10
9.160001
 20
7.91
 30
0.0
 11
9.181001
 21
7.889
 31
0.0
  0
ARC
  5
95
100
AcDbEntity
  8
1
390
0
  6
solid
 62
     3
100
AcDbCircle
 10
8.556158
 20
7.806266
 30
0.0
 40
0.630296
210
0.0
220
0.0
230
1.0
100
AcDbArc
 50
-37.679631
 51
7.542543
  0
ARC
  5
96
100
AcDbEntity
  8
1
390
0
  6
solid
 62
     3
100
AcDbCircle
 10
9.093702
 20
7.399911
 30
0.0
 40
0.044075
210
0.0
220
0.0
230
1.0
100
AcDbArc
 50
151.413082
 51
244.892942
  0
ARC
  5
97
100
AcDbEntity
  8
1
390
0
  6
solid
 62
     3
100
AcDbCircle
 10
10.554863
 20
5.960574
 30
0.0
 40
2.036758
210
0.0
220
0.0
230
1.0
100
AcDbArc
 50
126.302618
 51
136.600204
  0
ARC
  5
98
100
AcDbEntity
  8
1
390
0
  6
solid
 62
     3
100
AcDbCircle
 10
9.706515
 20
6.970023
 30
0.0
 40
0.726094
210
0.0
220
0.0
230
1.0
100
AcDbArc
 50
103.176554
 51
119.497247
  0
ARC
  5
99
100
AcDbEntity
  8
1
390
0
  6
solid
 62
     3
100
AcDbCircle
 10
9.175529
 20
7.656975
 30
0.0
 40
0.366019
210
0.0
220
0.0
230
1.0
100
AcDbArc
 50
-39.735188
 51
3.136376
  0
LINE
  5
9A
100
AcDbEntity
  8
1
390
0
  6
solid
 62
     3
100
AcDbLine
 10
9.457001
 20
7.423
 30
0.0
 11
9.393001
 21
7.317
 31
0.0
  0
ARC
  5
9B
100
AcDbEntity
  8
1
390
0
  6
solid
 62
     3
100
AcDbCircle
 10
9.457132
 20
7.067656
 30
0.0
 40
0.25746
210
0.0
220
0.0
230
1.0
100
AcDbArc
 50
54.401497
 51
104.4239
  0
ARC
  5
9C
100
AcDbEntity
  8
1
390
0
  6
solid
 62
     3
100
AcDbCircle
 10
9.450603
 20
7.226737
 30
0.0
 40
0.164276
210
0.0
220
0.0
230
1.0
100
AcDbArc
 50
-47.303747
 51
17.816622
  0
ARC
  5
9D
100
AcDbEntity
  8
1
390
0
  6
solid
 62
     3
100
AcDbCircle
 10
9.647561
 20
7.074
 30
0.0
 40
0.091349
210
0.0
220
0.0
230
1.0
100
AcDbArc
 50
159.494001
 51
234.103334
  0
ARC
  5
9E
100
AcDbEntity
  8
1
390
0
  6
solid
 62
     3
100
AcDbCircle
 10
9.434952
 20
6.8595
 30
0.0
 40
0.212219
210
0.0
220
0.0
230
1.0
100
AcDbArc
 50
-2.296108
 51
41.456602
  0
ARC
  5
9F
100
AcDbEntity
  8
1
390
0
  6
solid
 62
     3
100
AcDbCircle
 10
9.366662
 20
7.089339
 30
0.0
 40
0.36796
210
0.0
220
0.0
230
1.0
100
AcDbArc
 50
291.078965
 51
319.629412
  0
LINE
  5
A0
100
AcDbEntity
  8
1
390
0
  6
solid
 62
     3
100
AcDbLine
 10
9.499001
 20
6.746
 30
0.0
 11
9.393001
 21
6.661
 31
0.0
  0
ARC
  5
A1
100
AcDbEntity
  8
1
390
0
  6
solid
 62
     3
100
AcDbCircle
 10
9.455313
 20
6.498249
 30
0.0
 40
0.174272
210
0.0
220
0.0
230
1.0
100
AcDbArc
 50
44.31745
 51
110.950214
  0
ARC
  5
A2
100
AcDbEntity
  8
1
390
0
  6
solid
 62
     3
100
AcDbCircle
 10
9.416681
 20
6.59672
 30
0.0
 40
0.16497
210
0.0
220
0.0
230
1.0
100
AcDbArc
 50
-55.971015
 51
8.112491
  0
ARC
  5
A3
100
AcDbEntity
  8
1
390
0
  6
solid
 62
     3
100
AcDbCircle
 10
9.58953
 20
6.491801
 30
0.0
 40
0.086581
210
0.0
220
0.0
230
1.0
100
AcDbArc
 50
201.548623
 51
281.64115
  0
ARC
  5
A4
100
AcDbEntity
  8
1
390
0
  6
solid
 62
     3
100
AcDbCircle
 10
9.635167
 20
6.346391
 30
0.0
 40
0.066835
210
0.0
220
0.0
230
1.0
100
AcDbArc
 50
-40.483747
 51
114.925542
  0
ARC
  5
A5
100
AcDbEntity
  8
1
390
0
  6
solid
 62
     3
100
AcDbCircle
 10
10.03984
 20
6.167802
 30
0.0
 40
0.378788
210
0.0
220
0.0
230
1.0
100
AcDbArc
 50
159.088602
 51
202.147655
  0
LINE
  5
A6
100
AcDbEntity
  8
1
390
0
  6
solid
 62
     3
100
AcDbLine
 10
9.689
 20
6.025
 30
0.0
 11
9.668
 21
5.941
 31
0.0
  0
LINE
  5
A7
100
AcDbEntity
  8
1
390
0
  6
solid
 62
     3
100
AcDbLine
 10
9.668
 20
5.941
 30
0.0
 11
9.457001
 21
5.771
 31
0.0
  0
LINE
  5
A8
100
AcDbEntity
  8
1
390
0
  6
solid
 62
     3
100
AcDbLine
 10
9.457001
 20
5.771
 30
0.0
 11
9.499001
 21
5.761
 31
0.0
  0
ARC
  5
A9
100
AcDbEntity
  8
1
390
0
  6
solid
 62
     3
100
AcDbCircle
 10
9.512737
 20
5.669537
 30
0.0
 40
0.092489
210
0.0
220
0.0
230
1.0
100
AcDbArc
 50
-45.119943
 51
98.541297
  0
ARC
  5
AA
100
AcDbEntity
  8
1
390
0
  6
solid
 62
     3
100
AcDbCircle
 10
10.03248
 20
5.38951
 30
0.0
 40
0.502552
210
0.0
220
0.0
230
1.0
100
AcDbArc
 50
154.735231
 51
180.970763
  0
LINE
  5
AB
100
AcDbEntity
  8
1
390
0
  6
solid
 62
     3
100
AcDbLine
 10
9.530001
 20
5.381
 30
0.0
 11
9.450001
 21
5.211
 31
0.0
  0
ARC
  5
AC
100
AcDbEntity
  8
1
390
0
  6
solid
 62
     3
100
AcDbCircle
 10
9.493998
 20
5.18925
 30
0.0
 40
0.04908
210
0.0
220
0.0
230
1.0
100
AcDbArc
 50
153.693859
 51
221.078163
  0
ARC
  5
AD
100
AcDbEntity
  8
1
390
0
  6
solid
 62
     3
100
AcDbCircle
 10
8.868776
 20
5.47108
 30
0.0
 40
0.637578
210
0.0
220
0.0
230
1.0
100
AcDbArc
 50
286.888644
 51
332.633764
  0
ARC
  5
AE
100
AcDbEntity
  8
1
390
0
  6
solid
 62
     3
100
AcDbCircle
 10
8.932373
 20
4.496649
 30
0.0
 40
0.384116
210
0.0
220
0.0
230
1.0
100
AcDbArc
 50
35.005665
 51
71.539948
  0
ARC
  5
AF
100
AcDbEntity
  8
1
390
0
  6
solid
 62
     3
100
AcDbCircle
 10
9.183579
 20
4.662625
 30
0.0
 40
0.08354
210
0.0
220
0.0
230
1.0
100
AcDbArc
 50
-42.672993
 51
40.608637
  0
ARC
  5
B0
100
AcDbEntity
  8
1
390
0
  6
solid
 62
     3
100
AcDbCircle
 10
10.789959
 20
3.678308
 30
0.0
 40
1.802084
210
0.0
220
0.0
230
1.0
100
AcDbArc
 50
149.016682
 51
164.430517
  0
ARC
  5
B1
100
AcDbEntity
  8
1
390
0
  6
solid
 62
     3
100
AcDbCircle
 10
8.112936
 20
4.805304
 30
0.0
 40
1.139931
210
0.0
220
0.0
230
1.0
100
AcDbArc
 50
309.759642
 51
325.643831
  0
ARC
  5
B2
100
AcDbEntity
  8
1
390
0
  6
solid
 62
     3
100
AcDbCircle
 10
8.972235
 20
3.764729
 30
0.0
 40
0.209633
210
0.0
220
0.0
230
1.0
100
AcDbArc
 50
128.407461
 51
166.967987
  0
ARC
  5
B3
100
AcDbEntity
  8
1
390
0
  6
solid
 62
     3
100
AcDbCircle
 10
8.784861
 20
3.487791
 30
0.0
 40
0.324647
210
0.0
220
0.0
230
1.0
100
AcDbArc
 50
92.976899
 51
153.627702
  0
LINE
  5
B4
100
AcDbEntity
  8
1
390
0
  6
solid
 62
     3
100
AcDbLine
 10
8.494
 20
3.632
 30
0.0
 11
8.461
 21
3.6
 31
0.0
  0
ARC
  5
B5
100
AcDbEntity
  8
1
390
0
  6
solid
 62
     3
100
AcDbCircle
 10
7.765804
 20
5.125725
 30
0.0
 40
1.676644
210
0.0
220
0.0
230
1.0
100
AcDbArc
 50
272.741574
 51
294.496392
  0
ARC
  5
B6
100
AcDbEntity
  8
1
390
0
  6
solid
 62
     3
100
AcDbCircle
 10
7.871857
 20
3.376899
 30
0.0
 40
0.078483
210
0.0
220
0.0
230
1.0
100
AcDbArc
 50
109.235543
 51
187.24549
  0
ARC
  5
B7
100
AcDbEntity
  8
1
390
0
  6
solid
 62
     3
100
AcDbCircle
 10
7.705371
 20
3.413629
 30
0.0
 40
0.100147
210
0.0
220
0.0
230
1.0
100
AcDbArc
 50
260.011389
 51
332.250591
  0
ARC
  5
B8
100
AcDbEntity
  8
1
390
0
  6
solid
 62
     3
100
AcDbCircle
 10
6.943249
 20
4.363939
 30
0.0
 40
1.28644
210
0.0
220
0.0
230
1.0
100
AcDbArc
 50
285.452146
 51
305.374916
  0
ARC
  5
B9
100
AcDbEntity
  8
1
390
0
  6
solid
 62
     3
100
AcDbCircle
 10
7.28378
 20
3.30178
 30
0.0
 40
0.177794
210
0.0
220
0.0
230
1.0
100
AcDbArc
 50
220.209032
 51
270.715477
  0
ARC
  5
BA
100
AcDbEntity
  8
1
390
0
  6
solid
 62
     3
100
AcDbCircle
 10
6.102083
 20
3.403854
 30
0.0
 40
1.068161
210
0.0
220
0.0
230
1.0
100
AcDbArc
 50
340.027325
 51
348.286618
  0
ARC
  5
BB
100
AcDbEntity
  8
1
390
0
  6
solid
 62
     3
100
AcDbCircle
 10
7.739835
 20
4.851513
 30
0.0
 40
1.920143
210
0.0
220
0.0
230
1.0
100
AcDbArc
 50
241.81792
 51
250.725289
  0
ARC
  5
BC
100
AcDbEntity
  8
1
390
0
  6
solid
 62
     3
100
AcDbCircle
 10
6.791699
 20
2.993941
 30
0.0
 40
0.170148
210
0.0
220
0.0
230
1.0
100
AcDbArc
 50
75.95182
 51
140.187925
  0
LINE
  5
BD
100
AcDbEntity
  8
1
390
0
  6
solid
 62
     3
100
AcDbLine
 10
6.661
 20
3.102882
 30
0.0
 11
6.661
 21
3.103
 31
0.0
  0
ARC
  5
BE
100
AcDbEntity
  8
1
390
0
  6
solid
 62
     3
100
AcDbCircle
 10
6.312996
 20
3.0815
 30
0.0
 40
0.348668
210
0.0
220
0.0
230
1.0
100
AcDbArc
 50
-17.785148
 51
3.535295
  0
ARC
  5
BF
100
AcDbEntity
  8
1
390
0
  6
solid
 62
     3
100
AcDbCircle
 10
7.642173
 20
1.259106
 30
0.0
 40
1.984602
210
0.0
220
0.0
230
1.0
100
AcDbArc
 50
120.162521
 51
122.49474
  0
ARC
  5
C0
100
AcDbEntity
  8
1
390
0
  6
solid
 62
     3
100
AcDbCircle
 10
7.303166
 20
3.255213
 30
0.0
 40
0.795356
210
0.0
220
0.0
230
1.0
100
AcDbArc
 50
203.898536
 51
245.235562
  0
LINE
  5
C1
100
AcDbEntity
  8
1
390
0
  6
solid
 62
     3
100
AcDbLine
 10
6.97
 20
2.533
 30
0.0
 11
8.122001
 21
1.98
 31
0.0
  0
ARC
  5
C2
100
AcDbEntity
  8
1
390
0
  6
solid
 62
     3
100
AcDbCircle
 10
7.878256
 20
1.706332
 30
0.0
 40
0.366477
210
0.0
220
0.0
230
1.0
100
AcDbArc
 50
18.398259
 51
48.309826
  0
ARC
  5
C3
100
AcDbEntity
  8
1
390
0
  6
solid
 62
     3
100
AcDbCircle
 10
8.050846
 20
1.641931
 30
0.0
 40
0.251205
210
0.0
220
0.0
230
1.0
100
AcDbArc
 50
-10.303439
 51
45.7926
  0
ARC
  5
C4
100
AcDbEntity
  8
1
390
0
  6
solid
 62
     3
100
AcDbCircle
 10
8.213989
 20
1.609674
 30
0.0
 40
0.084962
210
0.0
220
0.0
230
1.0
100
AcDbArc
 50
265.281808
 51
351.420992
  0
ARC
  5
C5
100
AcDbEntity
  8
1
390
0
  6
solid
 62
     3
100
AcDbCircle
 10
3.087924
 20
3.370071
 30
0.0
 40
5.441437
210
0.0
220
0.0
230
1.0
100
AcDbArc
 50
336.817628
 51
340.179293
  0
ARC
  5
C6
100
AcDbEntity
  8
1
390
0
  6
solid
 62
     3
100
AcDbCircle
 10
9.118102
 20
-1.014392
 30
0.0
 40
2.466844
210
0.0
220
0.0
230
1.0
100
AcDbArc
 50
114.630723
 51
120.367573
  0
ARC
  5
C7
100
AcDbEntity
  8
1
390
0
  6
solid
 62
     3
100
AcDbCircle
 10
7.868376
 20
1.573128
 30
0.0
 40
0.459135
210
0.0
220
0.0
230
1.0
100
AcDbArc
 50
243.846622
 51
270.327522
  0
ARC
  5
C8
100
AcDbEntity
  8
1
390
0
  6
solid
 62
     3
100
AcDbCircle
 10
7.514532
 20
1.304188
 30
0.0
 40
0.208436
210
0.0
220
0.0
230
1.0
100
AcDbArc
 50
226.099417
 51
316.609867
  0
ARC
  5
C9
100
AcDbEntity
  8
1
390
0
  6
solid
 62
     3
100
AcDbCircle
 10
7.149346
 20
1.221411
 30
0.0
 40
0.230722
210
0.0
220
0.0
230
1.0
100
AcDbArc
 50
306.938664
 51
343.011745
  0
ARC
  5
CA
100
AcDbEntity
  8
1
390
0
  6
solid
 62
     3
100
AcDbCircle
 10
7.182292
 20
1.333611
 30
0.0
 40
0.314884
210
0.0
220
0.0
230
1.0
100
AcDbArc
 50
264.845055
 51
289.615402
  0
ARC
  5
CB
100
AcDbEntity
  8
1
390
0
  6
solid
 62
     3
100
AcDbCircle
 10
7.037086
 20
1.111783
 30
0.0
 40
0.148637
210
0.0
220
0.0
230
1.0
100
AcDbArc
 50
214.778188
 51
321.866572
  0
LINE
  5
CC
100
AcDbEntity
  8
1
390
0
  6
solid
 62
     3
100
AcDbLine
 10
6.915
 20
1.027
 30
0.0
 11
6.873
 21
1.048
 31
0.0
  0
ARC
  5
CD
100
AcDbEntity
  8
1
390
0
  6
solid
 62
     3
100
AcDbCircle
 10
6.753587
 20
1.028551
 30
0.0
 40
0.120987
210
0.0
220
0.0
230
1.0
100
AcDbArc
 50
-98.837063
 51
9.25077
  0
ARC
  5
CE
100
AcDbEntity
  8
1
390
0
  6
solid
 62
     3
100
AcDbCircle
 10
6.755837
 20
1.337005
 30
0.0
 40
0.428512
210
0.0
220
0.0
230
1.0
100
AcDbArc
 50
226.339645
 51
267.212764
  0
ARC
  5
CF
100
AcDbEntity
  8
1
390
0
  6
solid
 62
     3
100
AcDbCircle
 10
6.341191
 20
0.561074
 30
0.0
 40
0.480836
210
0.0
220
0.0
230
1.0
100
AcDbArc
 50
75.694622
 51
97.311225
  0
ARC
  5
D0
100
AcDbEntity
  8
1
390
0
  6
solid
 62
     3
100
AcDbCircle
 10
6.407456
 20
1.402959
 30
0.0
 40
0.386574
210
0.0
220
0.0
230
1.0
100
AcDbArc
 50
208.584569
 51
250.749085
  0
ARC
  5
D1
100
AcDbEntity
  8
1
390
0
  6
solid
 62
     3
100
AcDbCircle
 10
6.008101
 20
1.149874
 30
0.0
 40
0.090714
210
0.0
220
0.0
230
1.0
100
AcDbArc
 50
48.677023
 51
120.544117
  0
ARC
  5
D2
100
AcDbEntity
  8
1
390
0
  6
solid
 62
     3
100
AcDbCircle
 10
5.900023
 20
1.369058
 30
0.0
 40
0.154073
210
0.0
220
0.0
230
1.0
100
AcDbArc
 50
203.751776
 51
293.719281
  0
ARC
  5
D3
100
AcDbEntity
  8
1
390
0
  6
solid
 62
     3
100
AcDbCircle
 10
5.822277
 20
1.588524
 30
0.0
 40
0.288547
210
0.0
220
0.0
230
1.0
100
AcDbArc
 50
199.332562
 51
257.332404
  0
ARC
  5
D4
100
AcDbEntity
  8
1
390
0
  6
solid
 62
     3
100
AcDbCircle
 10
5.523067
 20
1.45718
 30
0.0
 40
0.044816
210
0.0
220
0.0
230
1.0
100
AcDbArc
 50
53.060055
 51
127.152287
  0
LINE
  5
D5
100
AcDbEntity
  8
1
390
0
  6
solid
 62
     3
100
AcDbLine
 10
5.496
 20
1.4929
 30
0.0
 11
5.496
 21
1.493
 31
0.0
  0
ARC
  5
D6
100
AcDbEntity
  8
1
390
0
  6
solid
 62
     3
100
AcDbCircle
 10
5.015962
 20
1.477949
 30
0.0
 40
0.480275
210
0.0
220
0.0
230
1.0
100
AcDbArc
 50
-49.637105
 51
1.795804
  0
ARC
  5
D7
100
AcDbEntity
  8
1
390
0
  6
solid
 62
     3
100
AcDbCircle
 10
5.206429
 20
0.072168
 30
0.0
 40
1.046799
210
0.0
220
0.0
230
1.0
100
AcDbArc
 50
83.385975
 51
106.278758
  0
ARC
  5
D8
100
AcDbEntity
  8
1
390
0
  6
solid
 62
     3
100
AcDbCircle
 10
4.875237
 20
1.059664
 30
0.0
 40
0.041553
210
0.0
220
0.0
230
1.0
100
AcDbArc
 50
24.658581
 51
149.541805
  0
LINE
  5
D9
100
AcDbEntity
  8
1
390
0
  6
solid
 62
     3
100
AcDbLine
 10
6.153
 20
0.498
 30
0.0
 11
6.28
 21
0.434
 31
0.0
  0
ARC
  5
DA
100
AcDbEntity
  8
1
390
0
  6
solid
 62
     3
100
AcDbCircle
 10
4.648968
 20
0.931387
 30
0.0
 40
0.135421
210
0.0
220
0.0
230
1.0
100
AcDbArc
 50
244.655867
 51
330.644403
  0
LINE
  5
DB
100
AcDbEntity
  8
1
390
0
  6
solid
 62
     3
100
AcDbLine
 10
4.591
 20
0.809
 30
0.0
 11
4.564
 21
0.837
 31
0.0
  0
ARC
  5
DC
100
AcDbEntity
  8
1
390
0
  6
solid
 62
     3
100
AcDbCircle
 10
4.008238
 20
1.086559
 30
0.0
 40
0.609222
210
0.0
220
0.0
230
1.0
100
AcDbArc
 50
301.659447
 51
335.818026
  0
ARC
  5
DD
100
AcDbEntity
  8
1
390
0
  6
solid
 62
     3
100
AcDbCircle
 10
4.250096
 20
0.996809
 30
0.0
 40
0.435828
210
0.0
220
0.0
230
1.0
100
AcDbArc
 50
269.461553
 51
280.296948
  0
LINE
  5
DE
100
AcDbEntity
  8
1
390
0
  6
solid
 62
     3
100
AcDbLine
 10
4.246
 20
0.561
 30
0.0
 11
4.225
 21
0.582
 31
0.0
  0
ARC
  5
DF
100
AcDbEntity
  8
1
390
0
  6
solid
 62
     3
100
AcDbCircle
 10
4.027826
 20
0.849079
 30
0.0
 40
0.331978
210
0.0
220
0.0
230
1.0
100
AcDbArc
 50
306.437065
 51
356.013567
  0
ARC
  5
E0
100
AcDbEntity
  8
1
390
0
  6
solid
 62
     3
100
AcDbCircle
 10
4.497185
 20
0.775211
 30
0.0
 40
0.147223
210
0.0
220
0.0
230
1.0
100
AcDbArc
 50
128.76721
 51
159.819419
  0
LINE
  5
E1
100
AcDbEntity
  8
1
390
0
  6
solid
 62
     3
100
AcDbLine
 10
4.405
 20
0.89
 30
0.0
 11
4.401
 21
0.897
 31
0.0
  0
ARC
  5
E2
100
AcDbEntity
  8
1
390
0
  6
solid
 62
     3
100
AcDbCircle
 10
4.34385
 20
0.441172
 30
0.0
 40
0.459396
210
0.0
220
0.0
230
1.0
100
AcDbArc
 50
82.853767
 51
118.733717
  0
ARC
  5
E3
100
AcDbEntity
  8
1
390
0
  6
solid
 62
     3
100
AcDbCircle
 10
4.113314
 20
1.066688
 30
0.0
 40
0.222899
210
0.0
220
0.0
230
1.0
100
AcDbArc
 50
249.430548
 51
272.490561
  0
LINE
  5
E4
100
AcDbEntity
  8
1
390
0
  6
solid
 62
     3
100
AcDbLine
 10
4.035
 20
0.858
 30
0.0
 11
3.992
 21
0.837
 31
0.0
  0
ARC
  5
E5
100
AcDbEntity
  8
1
390
0
  6
solid
 62
     3
100
AcDbCircle
 10
3.529314
 20
0.8105
 30
0.0
 40
0.463445
210
0.0
220
0.0
230
1.0
100
AcDbArc
 50
-15.455069
 51
3.277993
  0
ARC
  5
E6
100
AcDbEntity
  8
1
390
0
  6
solid
 62
     3
100
AcDbCircle
 10
3.931433
 20
0.726507
 30
0.0
 40
0.059556
210
0.0
220
0.0
230
1.0
100
AcDbArc
 50
220.282856
 51
318.444183
  0
ARC
  5
E7
100
AcDbEntity
  8
1
390
0
  6
solid
 62
     3
100
AcDbCircle
 10
4.196126
 20
0.808864
 30
0.0
 40
0.332846
210
0.0
220
0.0
230
1.0
100
AcDbArc
 50
150.651259
 51
201.292205
  0
ARC
  5
E8
100
AcDbEntity
  8
1
390
0
  6
solid
 62
     3
100
AcDbCircle
 10
4.076226
 20
0.771186
 30
0.0
 40
0.263255
210
0.0
220
0.0
230
1.0
100
AcDbArc
 50
91.126475
 51
130.287183
  0
LINE
  5
E9
100
AcDbEntity
  8
1
390
0
  6
solid
 62
     3
100
AcDbLine
 10
4.061
 20
1.034
 30
0.0
 11
4.066
 21
1.038
 31
0.0
  0
ARC
  5
EA
100
AcDbEntity
  8
1
390
0
  6
solid
 62
     3
100
AcDbCircle
 10
9.191661
 20
8.135001
 30
0.0
 40
0.96426
210
0.0
220
0.0
230
1.0
100
AcDbArc
 50
158.908354
 51
182.020413
  0
ARC
  5
EB
100
AcDbEntity
  8
1
390
0
  6
solid
 62
     3
100
AcDbCircle
 10
6.846829
 20
7.869309
 30
0.0
 40
1.397149
210
0.0
220
0.0
230
1.0
100
AcDbArc
 50
-13.211352
 51
8.673329
  0
ARC
  5
EC
100
AcDbEntity
  8
1
390
0
  6
solid
 62
     3
100
AcDbCircle
 10
7.405338
 20
7.505698
 30
0.0
 40
0.78101
210
0.0
220
0.0
230
1.0
100
AcDbArc
 50
-41.42025
 51
1.70972
  0
LINE
  5
ED
100
AcDbEntity
  8
1
390
0
  6
solid
 62
     3
100
AcDbLine
 10
7.991
 20
6.989
 30
0.0
 11
7.974
 21
6.979001
 31
0.0
  0
LINE
  5
EE
100
AcDbEntity
  8
1
390
0
  6
solid
 62
     3
100
AcDbLine
 10
7.974
 20
6.979001
 30
0.0
 11
7.953001
 21
7.0
 31
0.0
  0
ARC
  5
EF
100
AcDbEntity
  8
1
390
0
  6
solid
 62
     3
100
AcDbCircle
 10
12.40446
 20
8.127968
 30
0.0
 40
4.592146
210
0.0
220
0.0
230
1.0
100
AcDbArc
 50
182.295908
 51
194.219052
  0
ARC
  5
F0
100
AcDbEntity
  8
1
390
0
  6
solid
 62
     3
100
AcDbCircle
 10
7.626294
 20
7.947396
 30
0.0
 40
0.189737
210
0.0
220
0.0
230
1.0
100
AcDbArc
 50
358.974553
 51
404.337442
  0
LINE
  5
F1
100
AcDbEntity
  8
1
390
0
  6
solid
 62
     3
100
AcDbLine
 10
7.762001
 20
8.08
 30
0.0
 11
7.741
 21
8.059
 31
0.0
  0
LINE
  5
F2
100
AcDbEntity
  8
1
390
0
  6
solid
 62
     3
100
AcDbLine
 10
7.741
 20
8.059
 30
0.0
 11
7.72
 21
7.783
 31
0.0
  0
LINE
  5
F3
100
AcDbEntity
  8
1
390
0
  6
solid
 62
     3
100
AcDbLine
 10
7.699
 20
7.762001
 30
0.0
 11
7.677001
 21
7.190001
 31
0.0
  0
LINE
  5
F4
100
AcDbEntity
  8
1
390
0
  6
solid
 62
     3
100
AcDbLine
 10
7.656
 20
7.169
 30
0.0
 11
7.656
 21
6.682
 31
0.0
  0
ARC
  5
F5
100
AcDbEntity
  8
1
390
0
  6
solid
 62
     3
100
AcDbCircle
 10
6.989481
 20
6.606584
 30
0.0
 40
0.647809
210
0.0
220
0.0
230
1.0
100
AcDbArc
 50
-38.989086
 51
4.818532
  0
LINE
  5
F6
100
AcDbEntity
  8
1
390
0
  6
solid
 62
     3
100
AcDbLine
 10
7.493001
 20
6.199
 30
0.0
 11
7.296
 21
5.793
 31
0.0
  0
ARC
  5
F7
100
AcDbEntity
  8
1
390
0
  6
solid
 62
     3
100
AcDbCircle
 10
8.207602
 20
5.8455
 30
0.0
 40
0.913112
210
0.0
220
0.0
230
1.0
100
AcDbArc
 50
167.251365
 51
183.296036
  0
ARC
  5
F8
100
AcDbEntity
  8
1
390
0
  6
solid
 62
     3
100
AcDbCircle
 10
6.766679
 20
6.1315
 30
0.0
 40
0.575833
210
0.0
220
0.0
230
1.0
100
AcDbArc
 50
353.668862
 51
377.118896
  0
ARC
  5
F9
100
AcDbEntity
  8
1
390
0
  6
solid
 62
     3
100
AcDbCircle
 10
7.936842
 20
5.687095
 30
0.0
 40
0.872401
210
0.0
220
0.0
230
1.0
100
AcDbArc
 50
135.275694
 51
171.967535
  0
ARC
  5
FA
100
AcDbEntity
  8
1
390
0
  6
solid
 62
     3
100
AcDbCircle
 10
6.119083
 20
5.937736
 30
0.0
 40
0.962565
210
0.0
220
0.0
230
1.0
100
AcDbArc
 50
308.935347
 51
352.31408
  0
ARC
  5
FB
100
AcDbEntity
  8
1
390
0
  6
solid
 62
     3
100
AcDbCircle
 10
5.236727
 20
6.930783
 30
0.0
 40
2.290369
210
0.0
220
0.0
230
1.0
100
AcDbArc
 50
292.710998
 51
310.493351
  0
ARC
  5
FC
100
AcDbEntity
  8
1
390
0
  6
solid
 62
     3
100
AcDbCircle
 10
-0.836243
 20
14.778166
 30
0.0
 40
12.149408
210
0.0
220
0.0
230
1.0
100
AcDbArc
 50
300.889112
 51
304.93456
  0
LINE
  5
FD
100
AcDbEntity
  8
1
390
0
  6
solid
 62
     3
100
AcDbLine
 10
5.401
 20
4.352
 30
0.0
 11
5.255
 21
4.318
 31
0.0
  0
ARC
  5
FE
100
AcDbEntity
  8
1
390
0
  6
solid
 62
     3
100
AcDbCircle
 10
5.294074
 20
4.352426
 30
0.0
 40
0.052075
210
0.0
220
0.0
230
1.0
100
AcDbArc
 50
180.475594
 51
221.381307
  0
ARC
  5
FF
100
AcDbEntity
  8
1
390
0
  6
solid
 62
     3
100
AcDbCircle
 10
4.237876
 20
4.365564
 30
0.0
 40
1.025159
210
0.0
220
0.0
230
1.0
100
AcDbArc
 50
0.471469
 51
32.342235
  0
ARC
  5
100
100
AcDbEntity
  8
1
390
0
  6
solid
 62
     3
100
AcDbCircle
 10
5.609296
 20
5.129295
 30
0.0
 40
0.549251
210
0.0
220
0.0
230
1.0
100
AcDbArc
 50
184.835004
 51
203.077712
  0
ARC
  5
101
100
AcDbEntity
  8
1
390
0
  6
solid
 62
     3
100
AcDbCircle
 10
4.447705
 20
4.5844
 30
0.0
 40
0.791177
210
0.0
220
0.0
230
1.0
100
AcDbArc
 50
39.06496
 51
68.00664
  0
ARC
  5
102
100
AcDbEntity
  8
1
390
0
  6
solid
 62
     3
100
AcDbCircle
 10
5.526858
 20
6.342307
 30
0.0
 40
1.289213
210
0.0
220
0.0
230
1.0
100
AcDbArc
 50
221.681156
 51
232.610043
  0
ARC
  5
103
100
AcDbEntity
  8
1
390
0
  6
solid
 62
     3
100
AcDbCircle
 10
5.263962
 20
5.814128
 30
0.0
 40
0.77348
210
0.0
220
0.0
230
1.0
100
AcDbArc
 50
189.459916
 51
205.183295
  0
ARC
  5
104
100
AcDbEntity
  8
1
390
0
  6
solid
 62
     3
100
AcDbCircle
 10
4.420575
 20
5.512934
 30
0.0
 40
0.191748
210
0.0
220
0.0
230
1.0
100
AcDbArc
 50
65.201293
 51
123.407653
  0
LINE
  5
105
100
AcDbEntity
  8
1
390
0
  6
solid
 62
     3
100
AcDbLine
 10
4.315
 20
5.673
 30
0.0
 11
4.141
 21
5.538
 31
0.0
  0
ARC
  5
106
100
AcDbEntity
  8
1
390
0
  6
solid
 62
     3
100
AcDbCircle
 10
4.26287
 20
5.606688
 30
0.0
 40
0.139894
210
0.0
220
0.0
230
1.0
100
AcDbArc
 50
142.422264
 51
209.406401
  0
ARC
  5
107
100
AcDbEntity
  8
1
390
0
  6
solid
 62
     3
100
AcDbCircle
 10
3.822044
 20
6.105084
 30
0.0
 40
0.528686
210
0.0
220
0.0
230
1.0
100
AcDbArc
 50
308.616579
 51
344.297689
  0
ARC
  5
108
100
AcDbEntity
  8
1
390
0
  6
solid
 62
     3
100
AcDbCircle
 10
4.268678
 20
5.962334
 30
0.0
 40
0.062323
210
0.0
220
0.0
230
1.0
100
AcDbArc
 50
359.693526
 51
509.46142
  0
ARC
  5
109
100
AcDbEntity
  8
1
390
0
  6
solid
 62
     3
100
AcDbCircle
 10
4.491152
 20
5.456454
 30
0.0
 40
0.604331
210
0.0
220
0.0
230
1.0
100
AcDbArc
 50
117.190801
 51
147.405656
  0
ARC
  5
10A
100
AcDbEntity
  8
1
390
0
  6
solid
 62
     3
100
AcDbCircle
 10
3.971384
 20
5.80625
 30
0.0
 40
0.026472
210
0.0
220
0.0
230
1.0
100
AcDbArc
 50
143.881637
 51
293.642154
  0
LINE
  5
10B
100
AcDbEntity
  8
1
390
0
  6
solid
 62
     3
100
AcDbLine
 10
3.95
 20
5.821854
 30
0.0
 11
3.95
 21
5.822001
 31
0.0
  0
LINE
  5
10C
100
AcDbEntity
  8
1
390
0
  6
solid
 62
     3
100
AcDbLine
 10
3.95
 20
5.822001
 30
0.0
 11
3.95
 21
5.856
 31
0.0
  0
ARC
  5
10D
100
AcDbEntity
  8
1
390
0
  6
solid
 62
     3
100
AcDbCircle
 10
3.787394
 20
5.786637
 30
0.0
 40
0.204638
210
0.0
220
0.0
230
1.0
100
AcDbArc
 50
26.204574
 51
78.269122
  0
ARC
  5
10E
100
AcDbEntity
  8
1
390
0
  6
solid
 62
     3
100
AcDbCircle
 10
3.452242
 20
5.853534
 30
0.0
 40
0.3997
210
0.0
220
0.0
230
1.0
100
AcDbArc
 50
19.506658
 51
37.345511
  0
ARC
  5
10F
100
AcDbEntity
  8
1
390
0
  6
solid
 62
     3
100
AcDbCircle
 10
3.76281
 20
5.777363
 30
0.0
 40
0.318718
210
0.0
220
0.0
230
1.0
100
AcDbArc
 50
88.707348
 51
114.231584
  0
ARC
  5
110
100
AcDbEntity
  8
1
390
0
  6
solid
 62
     3
100
AcDbCircle
 10
4.466217
 20
6.191756
 30
0.0
 40
0.843346
210
0.0
220
0.0
230
1.0
100
AcDbArc
 50
144.457357
 51
188.438267
  0
LINE
  5
111
100
AcDbEntity
  8
1
390
0
  6
solid
 62
     3
100
AcDbLine
 10
3.802
 20
6.703001
 30
0.0
 11
3.759
 21
6.767
 31
0.0
  0
LINE
  5
112
100
AcDbEntity
  8
1
390
0
  6
solid
 62
     3
100
AcDbLine
 10
3.759
 20
6.767
 30
0.0
 11
3.738
 21
6.767
 31
0.0
  0
ARC
  5
113
100
AcDbEntity
  8
1
390
0
  6
solid
 62
     3
100
AcDbCircle
 10
3.173334
 20
7.11967
 30
0.0
 40
0.665751
210
0.0
220
0.0
230
1.0
100
AcDbArc
 50
311.102074
 51
328.012622
  0
ARC
  5
114
100
AcDbEntity
  8
1
390
0
  6
solid
 62
     3
100
AcDbCircle
 10
5.160477
 20
7.161868
 30
0.0
 40
1.642155
210
0.0
220
0.0
230
1.0
100
AcDbArc
 50
191.623761
 51
199.34112
  0
ARC
  5
115
100
AcDbEntity
  8
1
390
0
  6
solid
 62
     3
100
AcDbCircle
 10
3.501792
 20
6.796043
 30
0.0
 40
0.061179
210
0.0
220
0.0
230
1.0
100
AcDbArc
 50
34.846963
 51
167.77385
  0
ARC
  5
116
100
AcDbEntity
  8
1
390
0
  6
solid
 62
     3
100
AcDbCircle
 10
3.036477
 20
6.981524
 30
0.0
 40
0.440697
210
0.0
220
0.0
230
1.0
100
AcDbArc
 50
309.198309
 51
336.953449
  0
LINE
  5
117
100
AcDbEntity
  8
1
390
0
  6
solid
 62
     3
100
AcDbLine
 10
3.315
 20
6.64
 30
0.0
 11
3.272
 21
7.169
 31
0.0
  0
ARC
  5
118
100
AcDbEntity
  8
1
390
0
  6
solid
 62
     3
100
AcDbCircle
 10
3.674949
 20
6.857721
 30
0.0
 40
0.509179
210
0.0
220
0.0
230
1.0
100
AcDbArc
 50
142.313835
 51
178.28001
  0
LINE
  5
119
100
AcDbEntity
  8
1
390
0
  6
solid
 62
     3
100
AcDbLine
 10
3.166
 20
6.873
 30
0.0
 11
3.124
 21
6.767
 31
0.0
  0
ARC
  5
11A
100
AcDbEntity
  8
1
390
0
  6
solid
 62
     3
100
AcDbCircle
 10
3.594727
 20
7.019061
 30
0.0
 40
0.533965
210
0.0
220
0.0
230
1.0
100
AcDbArc
 50
178.289237
 51
208.167773
  0
ARC
  5
11B
100
AcDbEntity
  8
1
390
0
  6
solid
 62
     3
100
AcDbCircle
 10
1.670725
 20
7.137177
 30
0.0
 40
1.394025
210
0.0
220
0.0
230
1.0
100
AcDbArc
 50
355.796684
 51
372.251761
  0
ARC
  5
11C
100
AcDbEntity
  8
1
390
0
  6
solid
 62
     3
100
AcDbCircle
 10
2.949938
 20
7.415154
 30
0.0
 40
0.084958
210
0.0
220
0.0
230
1.0
100
AcDbArc
 50
12.126114
 51
36.762043
  0
ARC
  5
11D
100
AcDbEntity
  8
1
390
0
  6
solid
 62
     3
100
AcDbCircle
 10
3.194393
 20
7.266629
 30
0.0
 40
0.266202
210
0.0
220
0.0
230
1.0
100
AcDbArc
 50
131.500567
 51
169.09249
  0
LINE
  5
11E
100
AcDbEntity
  8
1
390
0
  6
solid
 62
     3
100
AcDbLine
 10
2.912
 20
7.296
 30
0.0
 11
2.912
 21
7.106
 31
0.0
  0
ARC
  5
11F
100
AcDbEntity
  8
1
390
0
  6
solid
 62
     3
100
AcDbCircle
 10
0.617341
 20
6.521742
 30
0.0
 40
2.342149
210
0.0
220
0.0
230
1.0
100
AcDbArc
 50
3.923455
 51
13.890132
  0
ARC
  5
120
100
AcDbEntity
  8
1
390
0
  6
solid
 62
     3
100
AcDbCircle
 10
4.208106
 20
7.552397
 30
0.0
 40
1.526555
210
0.0
220
0.0
230
1.0
100
AcDbArc
 50
186.031257
 51
214.76213
  0
ARC
  5
121
100
AcDbEntity
  8
1
390
0
  6
solid
 62
     3
100
AcDbCircle
 10
2.538071
 20
7.334477
 30
0.0
 40
0.162454
210
0.0
220
0.0
230
1.0
100
AcDbArc
 50
20.73746
 51
69.862349
  0
ARC
  5
122
100
AcDbEntity
  8
1
390
0
  6
solid
 62
     3
100
AcDbCircle
 10
2.614847
 20
7.384197
 30
0.0
 40
0.104896
210
0.0
220
0.0
230
1.0
100
AcDbArc
 50
101.463225
 51
181.749893
  0
ARC
  5
123
100
AcDbEntity
  8
1
390
0
  6
solid
 62
     3
100
AcDbCircle
 10
4.617882
 20
7.7144
 30
0.0
 40
2.137467
210
0.0
220
0.0
230
1.0
100
AcDbArc
 50
189.543924
 51
215.60433
  0
ARC
  5
124
100
AcDbEntity
  8
1
390
0
  6
solid
 62
     3
100
AcDbCircle
 10
2.509545
 20
6.059654
 30
0.0
 40
0.55283
210
0.0
220
0.0
230
1.0
100
AcDbArc
 50
14.813717
 51
47.924709
  0
ARC
  5
125
100
AcDbEntity
  8
1
390
0
  6
solid
 62
     3
100
AcDbCircle
 10
3.020051
 20
6.191473
 30
0.0
 40
0.025775
210
0.0
220
0.0
230
1.0
100
AcDbArc
 50
-42.67802
 51
21.694327
  0
ARC
  5
126
100
AcDbEntity
  8
1
390
0
  6
solid
 62
     3
100
AcDbCircle
 10
2.441097
 20
5.781971
 30
0.0
 40
0.714965
210
0.0
220
0.0
230
1.0
100
AcDbArc
 50
33.251772
 51
53.137687
  0
ARC
  5
127
100
AcDbEntity
  8
1
390
0
  6
solid
 62
     3
100
AcDbCircle
 10
2.854085
 20
6.326902
 30
0.0
 40
0.031426
210
0.0
220
0.0
230
1.0
100
AcDbArc
 50
59.572848
 51
210.474335
  0
ARC
  5
128
100
AcDbEntity
  8
1
390
0
  6
solid
 62
     3
100
AcDbCircle
 10
3.44571
 20
6.57876
 30
0.0
 40
0.674164
210
0.0
220
0.0
230
1.0
100
AcDbArc
 50
203.401585
 51
238.653377
  0
ARC
  5
129
100
AcDbEntity
  8
1
390
0
  6
solid
 62
     3
100
AcDbCircle
 10
2.627713
 20
4.804278
 30
0.0
 40
1.286581
210
0.0
220
0.0
230
1.0
100
AcDbArc
 50
15.911578
 51
68.703131
  0
ARC
  5
12A
100
AcDbEntity
  8
1
390
0
  6
solid
 62
     3
100
AcDbCircle
 10
4.894763
 20
5.204125
 30
0.0
 40
1.032014
210
0.0
220
0.0
230
1.0
100
AcDbArc
 50
183.784913
 51
206.47779
  0
ARC
  5
12B
100
AcDbEntity
  8
1
390
0
  6
solid
 62
     3
100
AcDbCircle
 10
6.002587
 20
5.342033
 30
0.0
 40
2.117779
210
0.0
220
0.0
230
1.0
100
AcDbArc
 50
196.402691
 51
207.200001
  0
ARC
  5
12C
100
AcDbEntity
  8
1
390
0
  6
solid
 62
     3
100
AcDbCircle
 10
4.450499
 20
3.536066
 30
0.0
 40
0.901124
210
0.0
220
0.0
230
1.0
100
AcDbArc
 50
72.398096
 51
111.584459
  0
ARC
  5
12D
100
AcDbEntity
  8
1
390
0
  6
solid
 62
     3
100
AcDbCircle
 10
4.612683
 20
4.14319
 30
0.0
 40
0.274914
210
0.0
220
0.0
230
1.0
100
AcDbArc
 50
-11.581098
 51
66.34188
  0
ARC
  5
12E
100
AcDbEntity
  8
1
390
0
  6
solid
 62
     3
100
AcDbCircle
 10
5.221695
 20
4.214013
 30
0.0
 40
0.362315
210
0.0
220
0.0
230
1.0
100
AcDbArc
 50
200.352767
 51
231.873034
  0
ARC
  5
12F
100
AcDbEntity
  8
1
390
0
  6
solid
 62
     3
100
AcDbCircle
 10
4.931697
 20
3.85641
 30
0.0
 40
0.098313
210
0.0
220
0.0
230
1.0
100
AcDbArc
 50
-82.223176
 51
47.59185
  0
LINE
  5
130
100
AcDbEntity
  8
1
390
0
  6
solid
 62
     3
100
AcDbLine
 10
4.945
 20
3.759
 30
0.0
 11
4.882
 21
3.717
 31
0.0
  0
ARC
  5
131
100
AcDbEntity
  8
1
390
0
  6
solid
 62
     3
100
AcDbCircle
 10
4.645847
 20
3.348174
 30
0.0
 40
0.437951
210
0.0
220
0.0
230
1.0
100
AcDbArc
 50
25.541113
 51
57.369286
  0
ARC
  5
132
100
AcDbEntity
  8
1
390
0
  6
solid
 62
     3
100
AcDbCircle
 10
4.946493
 20
3.505
 30
0.0
 40
0.099778
210
0.0
220
0.0
230
1.0
100
AcDbArc
 50
-72.196486
 51
18.705969
  0
ARC
  5
133
100
AcDbEntity
  8
1
390
0
  6
solid
 62
     3
100
AcDbCircle
 10
5.091301
 20
3.432449
 30
0.0
 40
0.116485
210
0.0
220
0.0
230
1.0
100
AcDbArc
 50
191.111466
 51
246.041633
  0
ARC
  5
134
100
AcDbEntity
  8
1
390
0
  6
solid
 62
     3
100
AcDbCircle
 10
5.008107
 20
3.293894
 30
0.0
 40
0.048158
210
0.0
220
0.0
230
1.0
100
AcDbArc
 50
-62.959526
 51
41.812591
  0
ARC
  5
135
100
AcDbEntity
  8
1
390
0
  6
solid
 62
     3
100
AcDbCircle
 10
4.935653
 20
3.041884
 30
0.0
 40
0.229414
210
0.0
220
0.0
230
1.0
100
AcDbArc
 50
65.716365
 51
117.703212
  0
LINE
  5
136
100
AcDbEntity
  8
1
390
0
  6
solid
 62
     3
100
AcDbLine
 10
4.829
 20
3.245
 30
0.0
 11
4.823
 21
3.215
 31
0.0
  0
ARC
  5
137
100
AcDbEntity
  8
1
390
0
  6
solid
 62
     3
100
AcDbCircle
 10
4.813454
 20
2.934862
 30
0.0
 40
0.280301
210
0.0
220
0.0
230
1.0
100
AcDbArc
 50
88.048187
 51
115.904058
  0
ARC
  5
138
100
AcDbEntity
  8
1
390
0
  6
solid
 62
     3
100
AcDbCircle
 10
4.508106
 20
2.887984
 30
0.0
 40
0.350515
210
0.0
220
0.0
230
1.0
100
AcDbArc
 50
33.021926
 51
58.54791
  0
ARC
  5
139
100
AcDbEntity
  8
1
390
0
  6
solid
 62
     3
100
AcDbCircle
 10
4.692643
 20
3.114652
 30
0.0
 40
0.115022
210
0.0
220
0.0
230
1.0
100
AcDbArc
 50
221.12594
 51
341.94323
  0
LINE
  5
13A
100
AcDbEntity
  8
1
390
0
  6
solid
 62
     3
100
AcDbLine
 10
4.606
 20
3.039
 30
0.0
 11
4.543
 21
3.039
 31
0.0
  0
ARC
  5
13B
100
AcDbEntity
  8
1
390
0
  6
solid
 62
     3
100
AcDbCircle
 10
4.976165
 20
2.734187
 30
0.0
 40
0.529663
210
0.0
220
0.0
230
1.0
100
AcDbArc
 50
144.866386
 51
175.689237
  0
ARC
  5
13C
100
AcDbEntity
  8
1
390
0
  6
solid
 62
     3
100
AcDbCircle
 10
2.583378
 20
4.354612
 30
0.0
 40
2.444412
210
0.0
220
0.0
230
1.0
100
AcDbArc
 50
308.288856
 51
319.712576
  0
ARC
  5
13D
100
AcDbEntity
  8
1
390
0
  6
solid
 62
     3
100
AcDbCircle
 10
4.684956
 20
2.098682
 30
0.0
 40
0.676979
210
0.0
220
0.0
230
1.0
100
AcDbArc
 50
150.114389
 51
180.480109
  0
ARC
  5
13E
100
AcDbEntity
  8
1
390
0
  6
solid
 62
     3
100
AcDbCircle
 10
3.166997
 20
1.8
 30
0.0
 40
0.890581
210
0.0
220
0.0
230
1.0
100
AcDbArc
 50
-3.411806
 51
19.208008
  0
ARC
  5
13F
100
AcDbEntity
  8
1
390
0
  6
solid
 62
     3
100
AcDbCircle
 10
4.136027
 20
1.956725
 30
0.0
 40
0.224475
210
0.0
220
0.0
230
1.0
100
AcDbArc
 50
249.114129
 51
302.307243
  0
ARC
  5
140
100
AcDbEntity
  8
1
390
0
  6
solid
 62
     3
100
AcDbCircle
 10
8.49081
 20
-4.759896
 30
0.0
 40
7.780359
210
0.0
220
0.0
230
1.0
100
AcDbArc
 50
118.168219
 51
122.97649
  0
ARC
  5
141
100
AcDbEntity
  8
1
390
0
  6
solid
 62
     3
100
AcDbCircle
 10
4.851907
 20
2.036314
 30
0.0
 40
0.071268
210
0.0
220
0.0
230
1.0
100
AcDbArc
 50
44.19939
 51
118.408692
  0
ARC
  5
142
100
AcDbEntity
  8
1
390
0
  6
solid
 62
     3
100
AcDbCircle
 10
0.81127
 20
2.768332
 30
0.0
 40
4.148233
210
0.0
220
0.0
230
1.0
100
AcDbArc
 50
341.978819
 51
350.532548
  0
ARC
  5
143
100
AcDbEntity
  8
1
390
0
  6
solid
 62
     3
100
AcDbCircle
 10
4.941051
 20
1.4325
 30
0.0
 40
0.192354
210
0.0
220
0.0
230
1.0
100
AcDbArc
 50
164.161056
 51
203.759825
  0
ARC
  5
144
100
AcDbEntity
  8
1
390
0
  6
solid
 62
     3
100
AcDbCircle
 10
4.716114
 20
1.19648
 30
0.0
 40
0.165887
210
0.0
220
0.0
230
1.0
100
AcDbArc
 50
0.180228
 51
72.860688
  0
LINE
  5
145
100
AcDbEntity
  8
1
390
0
  6
solid
 62
     3
100
AcDbLine
 10
4.882
 20
1.197
 30
0.0
 11
4.924
 21
1.091
 31
0.0
  0
ARC
  5
146
100
AcDbEntity
  8
1
390
0
  6
solid
 62
     3
100
AcDbCircle
 10
5.132521
 20
0.737059
 30
0.0
 40
0.410798
210
0.0
220
0.0
230
1.0
100
AcDbArc
 50
74.543663
 51
120.503962
  0
LINE
  5
147
100
AcDbEntity
  8
1
390
0
  6
solid
 62
     3
100
AcDbLine
 10
5.242
 20
1.133
 30
0.0
 11
5.348
 21
1.154
 31
0.0
  0
ARC
  5
148
100
AcDbEntity
  8
1
390
0
  6
solid
 62
     3
100
AcDbCircle
 10
4.484767
 20
1.725945
 30
0.0
 40
1.035516
210
0.0
220
0.0
230
1.0
100
AcDbArc
 50
326.47307
 51
348.641334
  0
ARC
  5
149
100
AcDbEntity
  8
1
390
0
  6
solid
 62
     3
100
AcDbCircle
 10
5.446502
 20
1.693246
 30
0.0
 40
0.179408
210
0.0
220
0.0
230
1.0
100
AcDbArc
 50
287.349255
 51
304.841926
  0
ARC
  5
14A
100
AcDbEntity
  8
1
390
0
  6
solid
 62
     3
100
AcDbCircle
 10
4.350524
 20
2.006048
 30
0.0
 40
1.283741
210
0.0
220
0.0
230
1.0
100
AcDbArc
 50
339.000156
 51
358.837358
  0
ARC
  5
14B
100
AcDbEntity
  8
1
390
0
  6
solid
 62
     3
100
AcDbCircle
 10
5.916118
 20
1.894402
 30
0.0
 40
0.294818
210
0.0
220
0.0
230
1.0
100
AcDbArc
 50
136.858252
 51
163.121569
  0
ARC
  5
14C
100
AcDbEntity
  8
1
390
0
  6
solid
 62
     3
100
AcDbCircle
 10
5.82208
 20
2.122526
 30
0.0
 40
0.123951
210
0.0
220
0.0
230
1.0
100
AcDbArc
 50
98.854673
 51
192.35691
  0
ARC
  5
14D
100
AcDbEntity
  8
1
390
0
  6
solid
 62
     3
100
AcDbCircle
 10
5.862525
 20
1.747809
 30
0.0
 40
0.500741
210
0.0
220
0.0
230
1.0
100
AcDbArc
 50
65.648189
 51
96.827111
  0
ARC
  5
14E
100
AcDbEntity
  8
1
390
0
  6
solid
 62
     3
100
AcDbCircle
 10
5.821942
 20
1.112891
 30
0.0
 40
1.11873
210
0.0
220
0.0
230
1.0
100
AcDbArc
 50
61.602142
 51
77.241728
  0
ARC
  5
14F
100
AcDbEntity
  8
1
390
0
  6
solid
 62
     3
100
AcDbCircle
 10
6.355465
 20
2.161526
 30
0.0
 40
0.064542
210
0.0
220
0.0
230
1.0
100
AcDbArc
 50
268.699096
 51
377.560051
  0
ARC
  5
150
100
AcDbEntity
  8
1
390
0
  6
solid
 62
     3
100
AcDbCircle
 10
6.744134
 20
1.890271
 30
0.0
 40
0.437653
210
0.0
220
0.0
230
1.0
100
AcDbArc
 50
110.201786
 51
138.371983
  0
ARC
  5
151
100
AcDbEntity
  8
1
390
0
  6
solid
 62
     3
100
AcDbCircle
 10
6.371131
 20
2.554184
 30
0.0
 40
0.336642
210
0.0
220
0.0
230
1.0
100
AcDbArc
 50
311.228662
 51
337.434359
  0
ARC
  5
152
100
AcDbEntity
  8
1
390
0
  6
solid
 62
     3
100
AcDbCircle
 10
6.971182
 20
2.800631
 30
0.0
 40
0.474051
210
0.0
220
0.0
230
1.0
100
AcDbArc
 50
194.867063
 51
232.408852
  0
LINE
  5
153
100
AcDbEntity
  8
1
390
0
  6
solid
 62
     3
100
AcDbLine
 10
6.513
 20
2.679
 30
0.0
 11
6.534
 21
2.7
 31
0.0
  0
ARC
  5
154
100
AcDbEntity
  8
1
390
0
  6
solid
 62
     3
100
AcDbCircle
 10
6.62608
 20
2.787639
 30
0.0
 40
0.127119
210
0.0
220
0.0
230
1.0
100
AcDbArc
 50
223.584753
 51
297.613848
  0
LINE
  5
155
100
AcDbEntity
  8
1
390
0
  6
solid
 62
     3
100
AcDbLine
 10
6.685
 20
2.675
 30
0.0
 11
6.703001
 21
2.7
 31
0.0
  0
ARC
  5
156
100
AcDbEntity
  8
1
390
0
  6
solid
 62
     3
100
AcDbCircle
 10
3.55362
 20
0.500327
 30
0.0
 40
3.841504
210
0.0
220
0.0
230
1.0
100
AcDbArc
 50
34.932227
 51
40.124738
  0
ARC
  5
157
100
AcDbEntity
  8
1
390
0
  6
solid
 62
     3
100
AcDbCircle
 10
6.533778
 20
3.21249
 30
0.0
 40
0.240327
210
0.0
220
0.0
230
1.0
100
AcDbArc
 50
259.746767
 51
296.230888
  0
LINE
  5
158
100
AcDbEntity
  8
1
390
0
  6
solid
 62
     3
100
AcDbLine
 10
6.64
 20
2.996911
 30
0.0
 11
6.64
 21
2.997
 31
0.0
  0
ARC
  5
159
100
AcDbEntity
  8
1
390
0
  6
solid
 62
     3
100
AcDbCircle
 10
6.872501
 20
3.0395
 30
0.0
 40
0.236354
210
0.0
220
0.0
230
1.0
100
AcDbArc
 50
153.489271
 51
190.358998
  0
ARC
  5
15A
100
AcDbEntity
  8
1
390
0
  6
solid
 62
     3
100
AcDbCircle
 10
6.90114
 20
2.766013
 30
0.0
 40
0.448663
210
0.0
220
0.0
230
1.0
100
AcDbArc
 50
99.123301
 51
122.359806
  0
ARC
  5
15B
100
AcDbEntity
  8
1
390
0
  6
solid
 62
     3
100
AcDbCircle
 10
7.559504
 20
4.161586
 30
0.0
 40
1.199832
210
0.0
220
0.0
230
1.0
100
AcDbArc
 50
232.554609
 51
246.652375
  0
ARC
  5
15C
100
AcDbEntity
  8
1
390
0
  6
solid
 62
     3
100
AcDbCircle
 10
7.85848
 20
2.95454
 30
0.0
 40
0.781627
210
0.0
220
0.0
230
1.0
100
AcDbArc
 50
159.364627
 51
172.245773
  0
ARC
  5
15D
100
AcDbEntity
  8
1
390
0
  6
solid
 62
     3
100
AcDbCircle
 10
7.276181
 20
3.340046
 30
0.0
 40
0.185378
210
0.0
220
0.0
230
1.0
100
AcDbArc
 50
216.415008
 51
290.137072
  0
ARC
  5
15E
100
AcDbEntity
  8
1
390
0
  6
solid
 62
     3
100
AcDbCircle
 10
6.437568
 20
5.226177
 30
0.0
 40
2.249158
210
0.0
220
0.0
230
1.0
100
AcDbArc
 50
293.655159
 51
303.47067
  0
ARC
  5
15F
100
AcDbEntity
  8
1
390
0
  6
solid
 62
     3
100
AcDbCircle
 10
7.71087
 20
3.408345
 30
0.0
 40
0.066966
210
0.0
220
0.0
230
1.0
100
AcDbArc
 50
240.604123
 51
340.511957
  0
ARC
  5
160
100
AcDbEntity
  8
1
390
0
  6
solid
 62
     3
100
AcDbCircle
 10
7.479992
 20
3.585336
 30
0.0
 40
0.355212
210
0.0
220
0.0
230
1.0
100
AcDbArc
 50
325.86297
 51
346.928732
  0
ARC
  5
161
100
AcDbEntity
  8
1
390
0
  6
solid
 62
     3
100
AcDbCircle
 10
7.982272
 20
4.251048
 30
0.0
 40
0.762239
210
0.0
220
0.0
230
1.0
100
AcDbArc
 50
258.169512
 51
317.694754
  0
ARC
  5
162
100
AcDbEntity
  8
1
390
0
  6
solid
 62
     3
100
AcDbCircle
 10
8.942263
 20
3.160645
 30
0.0
 40
0.700259
210
0.0
220
0.0
230
1.0
100
AcDbArc
 50
108.937737
 51
124.463368
  0
ARC
  5
163
100
AcDbEntity
  8
1
390
0
  6
solid
 62
     3
100
AcDbCircle
 10
8.521767
 20
4.099174
 30
0.0
 40
0.337062
210
0.0
220
0.0
230
1.0
100
AcDbArc
 50
304.979776
 51
334.110598
  0
LINE
  5
164
100
AcDbEntity
  8
1
390
0
  6
solid
 62
     3
100
AcDbLine
 10
8.825001
 20
3.952
 30
0.0
 11
9.007
 21
4.122
 31
0.0
  0
ARC
  5
165
100
AcDbEntity
  8
1
390
0
  6
solid
 62
     3
100
AcDbCircle
 10
8.667028
 20
4.378933
 30
0.0
 40
0.42614
210
0.0
220
0.0
230
1.0
100
AcDbArc
 50
322.920033
 51
358.394543
  0
ARC
  5
166
100
AcDbEntity
  8
1
390
0
  6
solid
 62
     3
100
AcDbCircle
 10
6.252989
 20
5.89701
 30
0.0
 40
3.225925
210
0.0
220
0.0
230
1.0
100
AcDbArc
 50
331.687155
 51
338.046808
  0
ARC
  5
167
100
AcDbEntity
  8
1
390
0
  6
solid
 62
     3
100
AcDbCircle
 10
8.648999
 20
4.147999
 30
0.0
 40
0.806268
210
0.0
220
0.0
230
1.0
100
AcDbArc
 50
42.335814
 51
60.828015
  0
LINE
  5
168
100
AcDbEntity
  8
1
390
0
  6
solid
 62
     3
100
AcDbLine
 10
9.042001
 20
4.852
 30
0.0
 11
9.033
 21
4.861
 31
0.0
  0
ARC
  5
169
100
AcDbEntity
  8
1
390
0
  6
solid
 62
     3
100
AcDbCircle
 10
9.117804
 20
4.844847
 30
0.0
 40
0.086328
210
0.0
220
0.0
230
1.0
100
AcDbArc
 50
74.412541
 51
169.215847
  0
ARC
  5
16A
100
AcDbEntity
  8
1
390
0
  6
solid
 62
     3
100
AcDbCircle
 10
8.905433
 20
5.472956
 30
0.0
 40
0.593691
210
0.0
220
0.0
230
1.0
100
AcDbArc
 50
293.377389
 51
344.670344
  0
ARC
  5
16B
100
AcDbEntity
  8
1
390
0
  6
solid
 62
     3
100
AcDbCircle
 10
9.168444
 20
5.485604
 30
0.0
 40
0.352974
210
0.0
220
0.0
230
1.0
100
AcDbArc
 50
331.282015
 51
354.863117
  0
ARC
  5
16C
100
AcDbEntity
  8
1
390
0
  6
solid
 62
     3
100
AcDbCircle
 10
9.735425
 20
5.542951
 30
0.0
 40
0.194488
210
0.0
220
0.0
230
1.0
100
AcDbArc
 50
141.130823
 51
181.458701
  0
ARC
  5
16D
100
AcDbEntity
  8
1
390
0
  6
solid
 62
     3
100
AcDbCircle
 10
9.503054
 20
5.650713
 30
0.0
 40
0.082198
210
0.0
220
0.0
230
1.0
100
AcDbArc
 50
10.009836
 51
107.745424
  0
LINE
  5
16E
100
AcDbEntity
  8
1
390
0
  6
solid
 62
     3
100
AcDbLine
 10
9.478001
 20
5.729
 30
0.0
 11
9.414001
 21
5.75
 31
0.0
  0
LINE
  5
16F
100
AcDbEntity
  8
1
390
0
  6
solid
 62
     3
100
AcDbLine
 10
9.414001
 20
5.75
 30
0.0
 11
9.653001
 21
5.969
 31
0.0
  0
ARC
  5
170
100
AcDbEntity
  8
1
390
0
  6
solid
 62
     3
100
AcDbCircle
 10
9.631332
 20
5.999001
 30
0.0
 40
0.037007
210
0.0
220
0.0
230
1.0
100
AcDbArc
 50
305.83967
 51
367.765566
  0
ARC
  5
171
100
AcDbEntity
  8
1
390
0
  6
solid
 62
     3
100
AcDbCircle
 10
10.322697
 20
6.390098
 30
0.0
 40
0.720616
210
0.0
220
0.0
230
1.0
100
AcDbArc
 50
197.117296
 51
208.432143
  0
ARC
  5
172
100
AcDbEntity
  8
1
390
0
  6
solid
 62
     3
100
AcDbCircle
 10
9.371997
 20
6.322
 30
0.0
 40
0.298968
210
0.0
220
0.0
230
1.0
100
AcDbArc
 50
331.206419
 51
368.075698
  0
ARC
  5
173
100
AcDbEntity
  8
1
390
0
  6
solid
 62
     3
100
AcDbCircle
 10
9.742574
 20
6.989677
 30
0.0
 40
0.630105
210
0.0
220
0.0
230
1.0
100
AcDbArc
 50
243.049867
 51
263.203061
  0
ARC
  5
174
100
AcDbEntity
  8
1
390
0
  6
solid
 62
     3
100
AcDbCircle
 10
9.231594
 20
6.70845
 30
0.0
 40
0.359806
210
0.0
220
0.0
230
1.0
100
AcDbArc
 50
308.790011
 51
336.67752
  0
LINE
  5
175
100
AcDbEntity
  8
1
390
0
  6
solid
 62
     3
100
AcDbLine
 10
9.562
 20
6.566
 30
0.0
 11
9.562
 21
6.576
 31
0.0
  0
ARC
  5
176
100
AcDbEntity
  8
1
390
0
  6
solid
 62
     3
100
AcDbCircle
 10
9.486725
 20
6.50813
 30
0.0
 40
0.131759
210
0.0
220
0.0
230
1.0
100
AcDbArc
 50
42.414635
 51
123.500762
  0
LINE
  5
177
100
AcDbEntity
  8
1
390
0
  6
solid
 62
     3
100
AcDbLine
 10
9.414001
 20
6.618001
 30
0.0
 11
9.351001
 21
6.64
 31
0.0
  0
ARC
  5
178
100
AcDbEntity
  8
1
390
0
  6
solid
 62
     3
100
AcDbCircle
 10
9.911504
 20
6.209766
 30
0.0
 40
0.706587
210
0.0
220
0.0
230
1.0
100
AcDbArc
 50
116.701804
 51
142.490641
  0
ARC
  5
179
100
AcDbEntity
  8
1
390
0
  6
solid
 62
     3
100
AcDbCircle
 10
9.571886
 20
6.890513
 30
0.0
 40
0.054227
210
0.0
220
0.0
230
1.0
100
AcDbArc
 50
294.067975
 51
402.289604
  0
ARC
  5
17A
100
AcDbEntity
  8
1
390
0
  6
solid
 62
     3
100
AcDbCircle
 10
9.66525
 20
7.040733
 30
0.0
 40
0.125581
210
0.0
220
0.0
230
1.0
100
AcDbArc
 50
154.396747
 51
244.911049
  0
ARC
  5
17B
100
AcDbEntity
  8
1
390
0
  6
solid
 62
     3
100
AcDbCircle
 10
9.401664
 20
7.20758
 30
0.0
 40
0.187817
210
0.0
220
0.0
230
1.0
100
AcDbArc
 50
323.172176
 51
369.321077
  0
ARC
  5
17C
100
AcDbEntity
  8
1
390
0
  6
solid
 62
     3
100
AcDbCircle
 10
9.473063
 20
7.160889
 30
0.0
 40
0.137579
210
0.0
220
0.0
230
1.0
100
AcDbArc
 50
34.089761
 51
79.133284
  0
ARC
  5
17D
100
AcDbEntity
  8
1
390
0
  6
solid
 62
     3
100
AcDbCircle
 10
9.226902
 20
7.787698
 30
0.0
 40
0.561964
210
0.0
220
0.0
230
1.0
100
AcDbArc
 50
283.385768
 51
298.959538
  0
ARC
  5
17E
100
AcDbEntity
  8
1
390
0
  6
solid
 62
     3
100
AcDbCircle
 10
9.356689
 20
7.269274
 30
0.0
 40
0.028275
210
0.0
220
0.0
230
1.0
100
AcDbArc
 50
168.3117
 51
270.62999
  0
ARC
  5
17F
100
AcDbEntity
  8
1
390
0
  6
solid
 62
     3
100
AcDbCircle
 10
8.700621
 20
7.839059
 30
0.0
 40
0.844407
210
0.0
220
0.0
230
1.0
100
AcDbArc
 50
318.087592
 51
346.015481
  0
LINE
  5
180
100
AcDbEntity
  8
1
390
0
  6
solid
 62
     3
100
AcDbLine
 10
9.52
 20
7.635
 30
0.0
 11
9.499001
 21
7.656
 31
0.0
  0
ARC
  5
181
100
AcDbEntity
  8
1
390
0
  6
solid
 62
     3
100
AcDbCircle
 10
10.262256
 20
6.234178
 30
0.0
 40
1.613734
210
0.0
220
0.0
230
1.0
100
AcDbArc
 50
118.227556
 51
132.549762
  0
ARC
  5
182
100
AcDbEntity
  8
1
390
0
  6
solid
 62
     3
100
AcDbCircle
 10
9.041961
 20
7.48006
 30
0.0
 40
0.141092
210
0.0
220
0.0
230
1.0
100
AcDbArc
 50
271.234346
 51
336.145766
  0
ARC
  5
183
100
AcDbEntity
  8
1
390
0
  6
solid
 62
     3
100
AcDbCircle
 10
9.071515
 20
7.395216
 30
0.0
 40
0.062156
210
0.0
220
0.0
230
1.0
100
AcDbArc
 50
128.291074
 51
244.748573
  0
ARC
  5
184
100
AcDbEntity
  8
1
390
0
  6
solid
 62
     3
100
AcDbCircle
 10
8.634626
 20
7.790003
 30
0.0
 40
0.527655
210
0.0
220
0.0
230
1.0
100
AcDbArc
 50
319.024421
 51
354.671243
  0
ARC
  5
185
100
AcDbEntity
  8
1
390
0
  6
solid
 62
     3
100
AcDbCircle
 10
8.877944
 20
7.732222
 30
0.0
 40
0.304516
210
0.0
220
0.0
230
1.0
100
AcDbArc
 50
5.611888
 51
30.987008
  0
LINE
  5
186
100
AcDbEntity
  8
1
390
0
  6
solid
 62
     3
100
AcDbLine
 10
9.139001
 20
7.889
 30
0.0
 11
8.853001
 21
7.466001
 31
0.0
  0
LINE
  5
187
100
AcDbEntity
  8
1
390
0
  6
solid
 62
     3
100
AcDbLine
 10
8.853001
 20
7.466001
 30
0.0
 11
8.776
 21
7.395
 31
0.0
  0
LINE
  5
188
100
AcDbEntity
  8
1
390
0
  6
solid
 62
     3
100
AcDbLine
 10
8.776
 20
7.395
 30
0.0
 11
8.747001
 21
7.392
 31
0.0
  0
LINE
  5
189
100
AcDbEntity
  8
1
390
0
  6
solid
 62
     3
100
AcDbLine
 10
8.747001
 20
7.392
 30
0.0
 11
8.715
 21
7.402
 31
0.0
  0
LINE
  5
18A
100
AcDbEntity
  8
1
390
0
  6
solid
 62
     3
100
AcDbLine
 10
8.715
 20
7.402
 30
0.0
 11
8.715
 21
7.423
 31
0.0
  0
ARC
  5
18B
100
AcDbEntity
  8
1
390
0
  6
solid
 62
     3
100
AcDbCircle
 10
11.512866
 20
6.8615
 30
0.0
 40
2.853653
210
0.0
220
0.0
230
1.0
100
AcDbArc
 50
157.054753
 51
168.652124
  0
ARC
  5
18C
100
AcDbEntity
  8
1
390
0
  6
solid
 62
     3
100
AcDbCircle
 10
7.003041
 20
8.531422
 30
0.0
 40
1.962776
210
0.0
220
0.0
230
1.0
100
AcDbArc
 50
343.501114
 51
355.985235
  0
ARC
  5
18D
100
AcDbEntity
  8
1
390
0
  6
solid
 62
     3
100
AcDbCircle
 10
8.870732
 20
8.409692
 30
0.0
 40
0.091622
210
0.0
220
0.0
230
1.0
100
AcDbArc
 50
350.138528
 51
412.111273
  0
ARC
  5
18E
100
AcDbEntity
  8
1
390
0
  6
solid
 62
     3
100
AcDbCircle
 10
9.238655
 20
8.120239
 30
0.0
 40
0.477493
210
0.0
220
0.0
230
1.0
100
AcDbArc
 50
130.744711
 51
147.043027
  0
ARC
  5
18F
100
AcDbEntity
  8
1
390
0
  6
solid
 62
     3
100
AcDbCircle
 10
5.678713
 20
8.994926
 30
0.0
 40
3.218576
210
0.0
220
0.0
230
1.0
100
AcDbArc
 50
326.190427
 51
348.98562
  0
LINE
  5
190
100
AcDbEntity
  8
1
390
0
  6
solid
 62
     3
100
AcDbLine
 10
8.353001
 20
7.204
 30
0.0
 11
8.334001
 21
7.190001
 31
0.0
  0
ARC
  5
191
100
AcDbEntity
  8
1
390
0
  6
solid
 62
     3
100
AcDbCircle
 10
5.594523
 20
7.882002
 30
0.0
 40
2.825527
210
0.0
220
0.0
230
1.0
100
AcDbArc
 50
345.823461
 51
371.431303
  0
ARC
  5
192
100
AcDbEntity
  8
1
390
0
  6
solid
 62
     3
100
AcDbCircle
 10
8.229673
 20
8.390005
 30
0.0
 40
0.144039
210
0.0
220
0.0
230
1.0
100
AcDbArc
 50
21.160431
 51
51.672372
  0
LINE
  5
193
100
AcDbEntity
  8
1
390
0
  6
solid
 62
     3
100
AcDbLine
 10
8.319
 20
8.503
 30
0.0
 11
8.292001
 21
8.482
 31
0.0
  0
ARC
  5
194
100
AcDbEntity
  8
1
390
0
  6
solid
 62
     3
100
AcDbCircle
 10
8.410002
 20
7.341001
 30
0.0
 40
0.03406
210
0.0
220
0.0
230
1.0
100
AcDbArc
 50
183.368422
 51
266.63073
  0
LINE
  5
195
100
AcDbEntity
  8
1
390
0
  6
solid
 62
     3
100
AcDbLine
 10
8.408
 20
7.307
 30
0.0
 11
8.419001
 21
7.317
 31
0.0
  0
LINE
  5
196
100
AcDbEntity
  8
1
390
0
  6
solid
 62
     3
100
AcDbLine
 10
2.87
 20
6.873
 30
0.0
 11
2.891
 21
6.873
 31
0.0
  0
LINE
  5
197
100
AcDbEntity
  8
1
390
0
  6
solid
 62
     3
100
AcDbLine
 10
2.891
 20
6.873
 30
0.0
 11
2.897
 21
6.886
 31
0.0
  0
ARC
  5
198
100
AcDbEntity
  8
1
390
0
  6
solid
 62
     3
100
AcDbCircle
 10
2.893174
 20
6.859407
 30
0.0
 40
0.026867
210
0.0
220
0.0
230
1.0
100
AcDbArc
 50
81.813522
 51
149.606572
  0
ARC
  5
199
100
AcDbEntity
  8
1
390
0
  6
solid
 62
     3
100
AcDbCircle
 10
4.422676
 20
3.504951
 30
0.0
 40
0.900032
210
0.0
220
0.0
230
1.0
100
AcDbArc
 50
98.541352
 51
124.801172
  0
ARC
  5
19A
100
AcDbEntity
  8
1
390
0
  6
solid
 62
     3
100
AcDbCircle
 10
4.92984
 20
2.422509
 30
0.0
 40
2.088048
210
0.0
220
0.0
230
1.0
100
AcDbArc
 50
119.268094
 51
129.91656
  0
ARC
  5
19B
100
AcDbEntity
  8
1
390
0
  6
solid
 62
     3
100
AcDbCircle
 10
4.144542
 20
3.516875
 30
0.0
 40
0.75146
210
0.0
220
0.0
230
1.0
100
AcDbArc
 50
137.557305
 51
172.804507
  0
LINE
  5
19C
100
AcDbEntity
  8
1
390
0
  6
solid
 62
     3
100
AcDbLine
 10
3.399
 20
3.611
 30
0.0
 11
3.42
 21
3.569
 31
0.0
  0
ARC
  5
19D
100
AcDbEntity
  8
1
390
0
  6
solid
 62
     3
100
AcDbCircle
 10
3.53268
 20
3.087682
 30
0.0
 40
0.494332
210
0.0
220
0.0
230
1.0
100
AcDbArc
 50
77.342409
 51
103.176079
  0
ARC
  5
19E
100
AcDbEntity
  8
1
390
0
  6
solid
 62
     3
100
AcDbCircle
 10
3.755754
 20
5.291377
 30
0.0
 40
1.725197
210
0.0
220
0.0
230
1.0
100
AcDbArc
 50
266.186078
 51
275.763407
  0
LINE
  5
19F
100
AcDbEntity
  8
1
390
0
  6
solid
 62
     3
100
AcDbLine
 10
3.929
 20
3.5749
 30
0.0
 11
3.929
 21
3.575
 31
0.0
  0
LINE
  5
1A0
100
AcDbEntity
  8
1
390
0
  6
solid
 62
     3
100
AcDbLine
 10
3.929
 20
3.575
 30
0.0
 11
3.939
 21
3.579
 31
0.0
  0
LINE
  5
1A1
100
AcDbEntity
  8
1
390
0
  6
solid
 62
     3
100
AcDbLine
 10
3.939
 20
3.579
 30
0.0
 11
3.933
 21
3.605
 31
0.0
  0
ARC
  5
1A2
100
AcDbEntity
  8
1
390
0
  6
solid
 62
     3
100
AcDbCircle
 10
3.944111
 20
3.732112
 30
0.0
 40
0.127596
210
0.0
220
0.0
230
1.0
100
AcDbArc
 50
218.31726
 51
265.004592
  0
ARC
  5
1A3
100
AcDbEntity
  8
1
390
0
  6
solid
 62
     3
100
AcDbCircle
 10
4.038608
 20
3.532617
 30
0.0
 40
0.228833
210
0.0
220
0.0
230
1.0
100
AcDbArc
 50
81.609265
 51
148.259324
  0
LINE
  5
1A4
100
AcDbEntity
  8
1
390
0
  6
solid
 62
     3
100
AcDbLine
 10
4.072
 20
3.759
 30
0.0
 11
4.204
 21
3.759
 31
0.0
  0
ARC
  5
1A5
100
AcDbEntity
  8
1
390
0
  6
solid
 62
     3
100
AcDbCircle
 10
4.308697
 20
3.506758
 30
0.0
 40
0.273107
210
0.0
220
0.0
230
1.0
100
AcDbArc
 50
112.541642
 51
160.037094
  0
ARC
  5
1A6
100
AcDbEntity
  8
1
390
0
  6
solid
 62
     3
100
AcDbCircle
 10
4.092219
 20
3.590092
 30
0.0
 40
0.041422
210
0.0
220
0.0
230
1.0
100
AcDbArc
 50
166.160525
 51
262.761728
  0
ARC
  5
1A7
100
AcDbEntity
  8
1
390
0
  6
solid
 62
     3
100
AcDbCircle
 10
3.239548
 20
4.073613
 30
0.0
 40
0.996691
210
0.0
220
0.0
230
1.0
100
AcDbArc
 50
310.435967
 51
328.240532
  0
ARC
  5
1A8
100
AcDbEntity
  8
1
390
0
  6
solid
 62
     3
100
AcDbCircle
 10
3.429771
 20
1.829521
 30
0.0
 40
1.553961
210
0.0
220
0.0
230
1.0
100
AcDbArc
 50
52.721004
 51
72.926927
  0
ARC
  5
1A9
100
AcDbEntity
  8
1
390
0
  6
solid
 62
     3
100
AcDbCircle
 10
4.489152
 20
3.079804
 30
0.0
 40
0.118956
210
0.0
220
0.0
230
1.0
100
AcDbArc
 50
186.663879
 51
254.8183
  0
LINE
  5
1AA
100
AcDbEntity
  8
1
390
0
  6
solid
 62
     3
100
AcDbLine
 10
4.458
 20
2.965
 30
0.0
 11
4.543
 21
3.06
 31
0.0
  0
LINE
  5
1AB
100
AcDbEntity
  8
1
390
0
  6
solid
 62
     3
100
AcDbLine
 10
4.543
 20
3.06
 30
0.0
 11
4.585
 21
3.06
 31
0.0
  0
ARC
  5
1AC
100
AcDbEntity
  8
1
390
0
  6
solid
 62
     3
100
AcDbCircle
 10
4.691052
 20
3.170998
 30
0.0
 40
0.153517
210
0.0
220
0.0
230
1.0
100
AcDbArc
 50
226.305204
 51
313.640927
  0
LINE
  5
1AD
100
AcDbEntity
  8
1
390
0
  6
solid
 62
     3
100
AcDbLine
 10
4.797
 20
3.059901
 30
0.0
 11
4.797
 21
3.06
 31
0.0
  0
ARC
  5
1AE
100
AcDbEntity
  8
1
390
0
  6
solid
 62
     3
100
AcDbCircle
 10
4.852783
 20
3.245488
 30
0.0
 40
0.193694
210
0.0
220
0.0
230
1.0
100
AcDbArc
 50
194.19197
 51
253.262103
  0
ARC
  5
1AF
100
AcDbEntity
  8
1
390
0
  6
solid
 62
     3
100
AcDbCircle
 10
4.755624
 20
3.122278
 30
0.0
 40
0.118095
210
0.0
220
0.0
230
1.0
100
AcDbArc
 50
85.446025
 51
140.118776
  0
ARC
  5
1B0
100
AcDbEntity
  8
1
390
0
  6
solid
 62
     3
100
AcDbCircle
 10
4.70934
 20
3.262875
 30
0.0
 40
0.060178
210
0.0
220
0.0
230
1.0
100
AcDbArc
 50
337.658461
 51
388.945839
  0
ARC
  5
1B1
100
AcDbEntity
  8
1
390
0
  6
solid
 62
     3
100
AcDbCircle
 10
4.833523
 20
2.604599
 30
0.0
 40
0.691112
210
0.0
220
0.0
230
1.0
100
AcDbArc
 50
77.339212
 51
95.940177
  0
LINE
  5
1B2
100
AcDbEntity
  8
1
390
0
  6
solid
 62
     3
100
AcDbLine
 10
4.985
 20
3.278906
 30
0.0
 11
4.985
 21
3.279
 31
0.0
  0
LINE
  5
1B3
100
AcDbEntity
  8
1
390
0
  6
solid
 62
     3
100
AcDbLine
 10
4.985
 20
3.279
 30
0.0
 11
5.009
 21
3.283
 31
0.0
  0
ARC
  5
1B4
100
AcDbEntity
  8
1
390
0
  6
solid
 62
     3
100
AcDbCircle
 10
4.940296
 20
3.312341
 30
0.0
 40
0.074708
210
0.0
220
0.0
230
1.0
100
AcDbArc
 50
336.874601
 51
447.925281
  0
ARC
  5
1B5
100
AcDbEntity
  8
1
390
0
  6
solid
 62
     3
100
AcDbCircle
 10
4.987045
 20
3.541295
 30
0.0
 40
0.160458
210
0.0
220
0.0
230
1.0
100
AcDbArc
 50
218.23008
 51
254.068093
  0
ARC
  5
1B6
100
AcDbEntity
  8
1
390
0
  6
solid
 62
     3
100
AcDbCircle
 10
4.910239
 20
3.568088
 30
0.0
 40
0.135361
210
0.0
220
0.0
230
1.0
100
AcDbArc
 50
248.668637
 51
332.220927
  0
ARC
  5
1B7
100
AcDbEntity
  8
1
390
0
  6
solid
 62
     3
100
AcDbCircle
 10
4.726603
 20
3.383458
 30
0.0
 40
0.326837
210
0.0
220
0.0
230
1.0
100
AcDbArc
 50
21.831248
 51
56.499222
  0
ARC
  5
1B8
100
AcDbEntity
  8
1
390
0
  6
solid
 62
     3
100
AcDbCircle
 10
4.923851
 20
3.7123
 30
0.0
 40
0.058768
210
0.0
220
0.0
230
1.0
100
AcDbArc
 50
79.06306
 51
253.337727
  0
ARC
  5
1B9
100
AcDbEntity
  8
1
390
0
  6
solid
 62
     3
100
AcDbCircle
 10
4.918628
 20
3.851
 30
0.0
 40
0.082638
210
0.0
220
0.0
230
1.0
100
AcDbArc
 50
281.427426
 51
414.171962
  0
LINE
  5
1BA
100
AcDbEntity
  8
1
390
0
  6
solid
 62
     3
100
AcDbLine
 10
4.967
 20
3.918
 30
0.0
 11
4.839
 21
4.066
 31
0.0
  0
LINE
  5
1BB
100
AcDbEntity
  8
1
390
0
  6
solid
 62
     3
100
AcDbLine
 10
4.839
 20
4.066
 30
0.0
 11
4.833
 21
4.096
 31
0.0
  0
LINE
  5
1BC
100
AcDbEntity
  8
1
390
0
  6
solid
 62
     3
100
AcDbLine
 10
4.833
 20
4.096
 30
0.0
 11
4.834
 21
4.109
 31
0.0
  0
ARC
  5
1BD
100
AcDbEntity
  8
1
390
0
  6
solid
 62
     3
100
AcDbCircle
 10
4.748121
 20
4.186127
 30
0.0
 40
0.115429
210
0.0
220
0.0
230
1.0
100
AcDbArc
 50
318.07344
 51
412.743065
  0
ARC
  5
1BE
100
AcDbEntity
  8
1
390
0
  6
solid
 62
     3
100
AcDbCircle
 10
4.623597
 20
4.181729
 30
0.0
 40
0.216935
210
0.0
220
0.0
230
1.0
100
AcDbArc
 50
26.345336
 51
68.813031
  0
ARC
  5
1BF
100
AcDbEntity
  8
1
390
0
  6
solid
 62
     3
100
AcDbCircle
 10
4.467005
 20
3.597117
 30
0.0
 40
0.821224
210
0.0
220
0.0
230
1.0
100
AcDbArc
 50
73.372276
 51
101.44868
  0
LINE
  5
1C0
100
AcDbEntity
  8
1
390
0
  6
solid
 62
     3
100
AcDbLine
 10
4.304
 20
4.402
 30
0.0
 11
4.289
 21
4.395
 31
0.0
  0
ARC
  5
1C1
100
AcDbEntity
  8
1
390
0
  6
solid
 62
     3
100
AcDbCircle
 10
4.088501
 20
3.472499
 30
0.0
 40
0.27127
210
0.0
220
0.0
230
1.0
100
AcDbArc
 50
115.667778
 51
138.287517
  0
ARC
  5
1C2
100
AcDbEntity
  8
1
390
0
  6
solid
 62
     3
100
AcDbCircle
 10
3.95681
 20
3.801565
 30
0.0
 40
0.164577
210
0.0
220
0.0
230
1.0
100
AcDbArc
 50
244.51621
 51
329.081226
  0
ARC
  5
1C3
100
AcDbEntity
  8
1
390
0
  6
solid
 62
     3
100
AcDbCircle
 10
4.034542
 20
3.66436
 30
0.0
 40
0.08245
210
0.0
220
0.0
230
1.0
100
AcDbArc
 50
39.67634
 51
140.414069
  0
LINE
  5
1C4
100
AcDbEntity
  8
1
390
0
  6
solid
 62
     3
100
AcDbLine
 10
3.971
 20
3.7169
 30
0.0
 11
3.971
 21
3.717
 31
0.0
  0
ARC
  5
1C5
100
AcDbEntity
  8
1
390
0
  6
solid
 62
     3
100
AcDbCircle
 10
3.972774
 20
3.272146
 30
0.0
 40
0.579625
210
0.0
220
0.0
230
1.0
100
AcDbArc
 50
151.580831
 51
196.141897
  0
ARC
  5
1C6
100
AcDbEntity
  8
1
390
0
  6
solid
 62
     3
100
AcDbCircle
 10
3.691524
 20
3.177377
 30
0.0
 40
0.283406
210
0.0
220
0.0
230
1.0
100
AcDbArc
 50
193.545158
 51
239.574114
  0
ARC
  5
1C7
100
AcDbEntity
  8
1
390
0
  6
solid
 62
     3
100
AcDbCircle
 10
6.675643
 20
0.777732
 30
0.0
 40
3.798333
210
0.0
220
0.0
230
1.0
100
AcDbArc
 50
133.169062
 51
145.429153
  0
LINE
  5
1C8
100
AcDbEntity
  8
1
390
0
  6
solid
 62
     3
100
AcDbLine
 10
4.056
 20
3.569
 30
0.0
 11
3.95
 21
3.569
 31
0.0
  0
ARC
  5
1C9
100
AcDbEntity
  8
1
390
0
  6
solid
 62
     3
100
AcDbCircle
 10
3.581886
 20
5.269488
 30
0.0
 40
1.735554
210
0.0
220
0.0
230
1.0
100
AcDbArc
 50
270.498949
 51
281.537064
  0
ARC
  5
1CA
100
AcDbEntity
  8
1
390
0
  6
solid
 62
     3
100
AcDbCircle
 10
3.519634
 20
3.441781
 30
0.0
 40
0.120374
210
0.0
220
0.0
230
1.0
100
AcDbArc
 50
50.005512
 51
118.065649
  0
LINE
  5
1CB
100
AcDbEntity
  8
1
390
0
  6
solid
 62
     3
100
AcDbLine
 10
6.534
 20
2.658
 30
0.0
 11
6.555
 21
2.658
 31
0.0
  0
LINE
  5
1CC
100
AcDbEntity
  8
1
390
0
  6
solid
 62
     3
100
AcDbLine
 10
6.555
 20
2.658
 30
0.0
 11
6.561
 21
2.672
 31
0.0
  0
ARC
  5
1CD
100
AcDbEntity
  8
1
390
0
  6
solid
 62
     3
100
AcDbCircle
 10
6.560027
 20
2.640843
 30
0.0
 40
0.031172
210
0.0
220
0.0
230
1.0
100
AcDbArc
 50
88.209994
 51
146.607955
  0
LINE
  5
1CE
100
AcDbEntity
  8
1
390
0
  6
solid
 62
     3
100
AcDbLine
 10
6.64
 20
2.637
 30
0.0
 11
6.597
 21
2.658
 31
0.0
  0
ARC
  5
1CF
100
AcDbEntity
  8
1
390
0
  6
solid
 62
     3
100
AcDbCircle
 10
6.301438
 20
2.336659
 30
0.0
 40
0.393063
210
0.0
220
0.0
230
1.0
100
AcDbArc
 50
7.652278
 51
49.82734
  0
ARC
  5
1D0
100
AcDbEntity
  8
1
390
0
  6
solid
 62
     3
100
AcDbCircle
 10
6.499247
 20
2.408705
 30
0.0
 40
0.192764
210
0.0
220
0.0
230
1.0
100
AcDbArc
 50
271.413051
 51
354.132741
  0
ARC
  5
1D1
100
AcDbEntity
  8
1
390
0
  6
solid
 62
     3
100
AcDbCircle
 10
6.558248
 20
2.085584
 30
0.0
 40
0.141248
210
0.0
220
0.0
230
1.0
100
AcDbArc
 50
112.585416
 51
179.841722
  0
ARC
  5
1D2
100
AcDbEntity
  8
1
390
0
  6
solid
 62
     3
100
AcDbCircle
 10
6.367141
 20
2.133218
 30
0.0
 40
0.068669
210
0.0
220
0.0
230
1.0
100
AcDbArc
 50
232.143725
 51
316.558614
  0
ARC
  5
1D3
100
AcDbEntity
  8
1
390
0
  6
solid
 62
     3
100
AcDbCircle
 10
5.765694
 20
1.162887
 30
0.0
 40
1.073353
210
0.0
220
0.0
230
1.0
100
AcDbArc
 50
58.595045
 51
86.297811
  0
ARC
  5
1D4
100
AcDbEntity
  8
1
390
0
  6
solid
 62
     3
100
AcDbCircle
 10
5.874783
 20
2.087645
 30
0.0
 40
0.158475
210
0.0
220
0.0
230
1.0
100
AcDbArc
 50
112.553492
 51
148.265611
  0
ARC
  5
1D5
100
AcDbEntity
  8
1
390
0
  6
solid
 62
     3
100
AcDbCircle
 10
5.532616
 20
2.148878
 30
0.0
 40
0.208561
210
0.0
220
0.0
230
1.0
100
AcDbArc
 50
-54.069518
 51
6.088821
  0
ARC
  5
1D6
100
AcDbEntity
  8
1
390
0
  6
solid
 62
     3
100
AcDbCircle
 10
7.058157
 20
1.736333
 30
0.0
 40
1.424157
210
0.0
220
0.0
230
1.0
100
AcDbArc
 50
170.148468
 51
179.980208
  0
LINE
  5
1D7
100
AcDbEntity
  8
1
390
0
  6
solid
 62
     3
100
AcDbLine
 10
5.634
 20
1.736825
 30
0.0
 11
5.634
 21
1.737
 31
0.0
  0
ARC
  5
1D8
100
AcDbEntity
  8
1
390
0
  6
solid
 62
     3
100
AcDbCircle
 10
6.233889
 20
1.456714
 30
0.0
 40
0.662138
210
0.0
220
0.0
230
1.0
100
AcDbArc
 50
154.956638
 51
170.412165
  0
ARC
  5
1D9
100
AcDbEntity
  8
1
390
0
  6
solid
 62
     3
100
AcDbCircle
 10
5.850382
 20
1.565728
 30
0.0
 40
0.269385
210
0.0
220
0.0
230
1.0
100
AcDbArc
 50
179.729475
 51
215.838755
  0
ARC
  5
1DA
100
AcDbEntity
  8
1
390
0
  6
solid
 62
     3
100
AcDbCircle
 10
5.659577
 20
1.450102
 30
0.0
 40
0.050329
210
0.0
220
0.0
230
1.0
100
AcDbArc
 50
236.775611
 51
303.01635
  0
LINE
  5
1DB
100
AcDbEntity
  8
1
390
0
  6
solid
 62
     3
100
AcDbLine
 10
5.687
 20
1.4079
 30
0.0
 11
5.687
 21
1.408
 31
0.0
  0
ARC
  5
1DC
100
AcDbEntity
  8
1
390
0
  6
solid
 62
     3
100
AcDbCircle
 10
5.290165
 20
1.419
 30
0.0
 40
0.396988
210
0.0
220
0.0
230
1.0
100
AcDbArc
 50
358.412182
 51
386.962966
  0
ARC
  5
1DD
100
AcDbEntity
  8
1
390
0
  6
solid
 62
     3
100
AcDbCircle
 10
6.322652
 20
1.756229
 30
0.0
 40
0.696627
210
0.0
220
0.0
230
1.0
100
AcDbArc
 50
193.044054
 51
227.942752
  0
ARC
  5
1DE
100
AcDbEntity
  8
1
390
0
  6
solid
 62
     3
100
AcDbCircle
 10
5.898773
 20
1.47075
 30
0.0
 40
0.235664
210
0.0
220
0.0
230
1.0
100
AcDbArc
 50
259.542926
 51
296.520187
  0
LINE
  5
1DF
100
AcDbEntity
  8
1
390
0
  6
solid
 62
     3
100
AcDbLine
 10
6.004
 20
1.259883
 30
0.0
 11
6.004
 21
1.26
 31
0.0
  0
ARC
  5
1E0
100
AcDbEntity
  8
1
390
0
  6
solid
 62
     3
100
AcDbCircle
 10
8.957571
 20
3.514956
 30
0.0
 40
3.715967
210
0.0
220
0.0
230
1.0
100
AcDbArc
 50
212.050822
 51
217.360566
  0
ARC
  5
1E1
100
AcDbEntity
  8
1
390
0
  6
solid
 62
     3
100
AcDbCircle
 10
5.825318
 20
1.56017
 30
0.0
 40
0.024387
210
0.0
220
0.0
230
1.0
100
AcDbArc
 50
156.227334
 51
224.754027
  0
ARC
  5
1E2
100
AcDbEntity
  8
1
390
0
  6
solid
 62
     3
100
AcDbCircle
 10
5.80477
 20
1.52847
 30
0.0
 40
0.041567
210
0.0
220
0.0
230
1.0
100
AcDbArc
 50
43.343448
 51
92.440497
  0
ARC
  5
1E3
100
AcDbEntity
  8
1
390
0
  6
solid
 62
     3
100
AcDbCircle
 10
6.670536
 20
1.955184
 30
0.0
 40
0.925565
210
0.0
220
0.0
230
1.0
100
AcDbArc
 50
205.480654
 51
227.480376
  0
ARC
  5
1E4
100
AcDbEntity
  8
1
390
0
  6
solid
 62
     3
100
AcDbCircle
 10
5.947634
 20
1.058447
 30
0.0
 40
0.235612
210
0.0
220
0.0
230
1.0
100
AcDbArc
 50
23.925664
 51
65.590921
  0
ARC
  5
1E5
100
AcDbEntity
  8
1
390
0
  6
solid
 62
     3
100
AcDbCircle
 10
6.314
 20
1.22765
 30
0.0
 40
0.168004
210
0.0
220
0.0
230
1.0
100
AcDbArc
 50
206.000759
 51
283.072593
  0
LINE
  5
1E6
100
AcDbEntity
  8
1
390
0
  6
solid
 62
     3
100
AcDbLine
 10
6.352
 20
1.064
 30
0.0
 11
6.386
 21
1.091
 31
0.0
  0
LINE
  5
1E7
100
AcDbEntity
  8
1
390
0
  6
solid
 62
     3
100
AcDbLine
 10
6.386
 20
1.091
 30
0.0
 11
6.364
 21
1.112
 31
0.0
  0
ARC
  5
1E8
100
AcDbEntity
  8
1
390
0
  6
solid
 62
     3
100
AcDbCircle
 10
11.309357
 20
5.882353
 30
0.0
 40
6.871159
210
0.0
220
0.0
230
1.0
100
AcDbArc
 50
218.339882
 51
223.968077
  0
LINE
  5
1E9
100
AcDbEntity
  8
1
390
0
  6
solid
 62
     3
100
AcDbLine
 10
5.92
 20
1.62
 30
0.0
 11
6.519001
 21
1.021
 31
0.0
  0
ARC
  5
1EA
100
AcDbEntity
  8
1
390
0
  6
solid
 62
     3
100
AcDbCircle
 10
6.691703
 20
1.129921
 30
0.0
 40
0.204182
210
0.0
220
0.0
230
1.0
100
AcDbArc
 50
212.239072
 51
311.50077
  0
LINE
  5
1EB
100
AcDbEntity
  8
1
390
0
  6
solid
 62
     3
100
AcDbLine
 10
6.827
 20
0.977
 30
0.0
 11
6.83
 21
1.006
 31
0.0
  0
ARC
  5
1EC
100
AcDbEntity
  8
1
390
0
  6
solid
 62
     3
100
AcDbCircle
 10
20.619189
 20
16.88719
 30
0.0
 40
21.032211
210
0.0
220
0.0
230
1.0
100
AcDbArc
 50
226.46028
 51
229.033141
  0
ARC
  5
1ED
100
AcDbEntity
  8
1
390
0
  6
solid
 62
     3
100
AcDbCircle
 10
5.675803
 20
0.778291
 30
0.0
 40
0.975434
210
0.0
220
0.0
230
1.0
100
AcDbArc
 50
38.611671
 51
62.182172
  0
ARC
  5
1EE
100
AcDbEntity
  8
1
390
0
  6
solid
 62
     3
100
AcDbCircle
 10
7.332227
 20
2.088948
 30
0.0
 40
1.136826
210
0.0
220
0.0
230
1.0
100
AcDbArc
 50
218.131134
 51
244.956467
  0
ARC
  5
1EF
100
AcDbEntity
  8
1
390
0
  6
solid
 62
     3
100
AcDbCircle
 10
6.877337
 20
0.95468
 30
0.0
 40
0.107594
210
0.0
220
0.0
230
1.0
100
AcDbArc
 50
42.234154
 51
104.169032
  0
ARC
  5
1F0
100
AcDbEntity
  8
1
390
0
  6
solid
 62
     3
100
AcDbCircle
 10
7.036151
 20
1.084849
 30
0.0
 40
0.098038
210
0.0
220
0.0
230
1.0
100
AcDbArc
 50
216.161922
 51
337.921779
  0
ARC
  5
1F1
100
AcDbEntity
  8
1
390
0
  6
solid
 62
     3
100
AcDbCircle
 10
16.655078
 20
12.005206
 30
0.0
 40
14.52049
210
0.0
220
0.0
230
1.0
100
AcDbArc
 50
225.502592
 51
228.990698
  0
ARC
  5
1F2
100
AcDbEntity
  8
1
390
0
  6
solid
 62
     3
100
AcDbCircle
 10
6.575499
 20
1.757655
 30
0.0
 40
0.146732
210
0.0
220
0.0
230
1.0
100
AcDbArc
 50
203.562167
 51
228.358414
  0
LINE
  5
1F3
100
AcDbEntity
  8
1
390
0
  6
solid
 62
     3
100
AcDbLine
 10
6.441
 20
1.699
 30
0.0
 11
6.449
 21
1.705
 31
0.0
  0
ARC
  5
1F4
100
AcDbEntity
  8
1
390
0
  6
solid
 62
     3
100
AcDbCircle
 10
10.834207
 20
6.141604
 30
0.0
 40
6.238068
210
0.0
220
0.0
230
1.0
100
AcDbArc
 50
225.333815
 51
234.739487
  0
ARC
  5
1F5
100
AcDbEntity
  8
1
390
0
  6
solid
 62
     3
100
AcDbCircle
 10
7.195573
 20
1.191427
 30
0.0
 40
0.14823
210
0.0
220
0.0
230
1.0
100
AcDbArc
 50
284.625212
 51
345.37497
  0
ARC
  5
1F6
100
AcDbEntity
  8
1
390
0
  6
solid
 62
     3
100
AcDbCircle
 10
18.766065
 20
13.662058
 30
0.0
 40
16.94194
210
0.0
220
0.0
230
1.0
100
AcDbArc
 50
224.189284
 51
227.585919
  0
ARC
  5
1F7
100
AcDbEntity
  8
1
390
0
  6
solid
 62
     3
100
AcDbCircle
 10
11.596174
 20
6.844865
 30
0.0
 40
7.049889
210
0.0
220
0.0
230
1.0
100
AcDbArc
 50
225.07868
 51
234.227182
  0
LINE
  5
1F8
100
AcDbEntity
  8
1
390
0
  6
solid
 62
     3
100
AcDbLine
 10
7.475
 20
1.125
 30
0.0
 11
7.529
 21
1.112
 31
0.0
  0
LINE
  5
1F9
100
AcDbEntity
  8
1
390
0
  6
solid
 62
     3
100
AcDbLine
 10
7.55
 20
1.112
 30
0.0
 11
7.614
 21
1.154
 31
0.0
  0
ARC
  5
1FA
100
AcDbEntity
  8
1
390
0
  6
solid
 62
     3
100
AcDbCircle
 10
7.334572
 20
1.054286
 30
0.0
 40
0.296687
210
0.0
220
0.0
230
1.0
100
AcDbArc
 50
19.639029
 51
61.090146
  0
ARC
  5
1FB
100
AcDbEntity
  8
1
390
0
  6
solid
 62
     3
100
AcDbCircle
 10
11.672137
 20
7.527053
 30
0.0
 40
7.496187
210
0.0
220
0.0
230
1.0
100
AcDbArc
 50
228.693465
 51
235.978583
  0
ARC
  5
1FC
100
AcDbEntity
  8
1
390
0
  6
solid
 62
     3
100
AcDbCircle
 10
-6.709103
 20
-17.583634
 30
0.0
 40
23.6623
210
0.0
220
0.0
230
1.0
100
AcDbArc
 50
52.361279
 51
55.409957
  0
ARC
  5
1FD
100
AcDbEntity
  8
1
390
0
  6
solid
 62
     3
100
AcDbCircle
 10
7.814675
 20
1.35585
 30
0.0
 40
0.214875
210
0.0
220
0.0
230
1.0
100
AcDbArc
 50
249.948013
 51
327.056976
  0
ARC
  5
1FE
100
AcDbEntity
  8
1
390
0
  6
solid
 62
     3
100
AcDbCircle
 10
-12.376834
 20
-28.217665
 30
0.0
 40
35.814896
210
0.0
220
0.0
230
1.0
100
AcDbArc
 50
55.332787
 51
56.610698
  0
ARC
  5
1FF
100
AcDbEntity
  8
1
390
0
  6
solid
 62
     3
100
AcDbCircle
 10
7.221558
 20
1.622864
 30
0.0
 40
0.128084
210
0.0
220
0.0
230
1.0
100
AcDbArc
 50
29.533062
 51
104.263234
  0
ARC
  5
200
100
AcDbEntity
  8
1
390
0
  6
solid
 62
     3
100
AcDbCircle
 10
9.292506
 20
5.199322
 30
0.0
 40
4.012789
210
0.0
220
0.0
230
1.0
100
AcDbArc
 50
234.143765
 51
238.770409
  0
ARC
  5
201
100
AcDbEntity
  8
1
390
0
  6
solid
 62
     3
100
AcDbCircle
 10
6.941395
 20
1.980447
 30
0.0
 40
0.033453
210
0.0
220
0.0
230
1.0
100
AcDbArc
 50
142.09281
 51
271.037261
  0
LINE
  5
202
100
AcDbEntity
  8
1
390
0
  6
solid
 62
     3
100
AcDbLine
 10
6.915
 20
2.001
 30
0.0
 11
6.957
 21
1.98
 31
0.0
  0
ARC
  5
203
100
AcDbEntity
  8
1
390
0
  6
solid
 62
     3
100
AcDbCircle
 10
21.621237
 20
22.598406
 30
0.0
 40
25.301353
210
0.0
220
0.0
230
1.0
100
AcDbArc
 50
234.578776
 51
237.586364
  0
ARC
  5
204
100
AcDbEntity
  8
1
390
0
  6
solid
 62
     3
100
AcDbCircle
 10
9.957899
 20
0.66499
 30
0.0
 40
1.98376
210
0.0
220
0.0
230
1.0
100
AcDbArc
 50
153.278369
 51
163.180678
  0
LINE
  5
205
100
AcDbEntity
  8
1
390
0
  6
solid
 62
     3
100
AcDbLine
 10
8.186001
 20
1.557
 30
0.0
 11
7.036
 21
2.096
 31
0.0
  0
ARC
  5
206
100
AcDbEntity
  8
1
390
0
  6
solid
 62
     3
100
AcDbCircle
 10
7.220652
 20
2.499943
 30
0.0
 40
0.444147
210
0.0
220
0.0
230
1.0
100
AcDbArc
 50
233.264883
 51
245.433805
  0
LINE
  5
207
100
AcDbEntity
  8
1
390
0
  6
solid
 62
     3
100
AcDbLine
 10
6.955
 20
2.144
 30
0.0
 11
6.957
 21
2.15
 31
0.0
  0
LINE
  5
208
100
AcDbEntity
  8
1
390
0
  6
solid
 62
     3
100
AcDbLine
 10
6.957
 20
2.15
 30
0.0
 11
6.979001
 21
2.15
 31
0.0
  0
LINE
  5
209
100
AcDbEntity
  8
1
390
0
  6
solid
 62
     3
100
AcDbLine
 10
6.979001
 20
2.15
 30
0.0
 11
8.048
 21
1.654
 31
0.0
  0
ARC
  5
20A
100
AcDbEntity
  8
1
390
0
  6
solid
 62
     3
100
AcDbCircle
 10
8.239
 20
1.98003
 30
0.0
 40
0.377857
210
0.0
220
0.0
230
1.0
100
AcDbArc
 50
239.636668
 51
273.793553
  0
LINE
  5
20B
100
AcDbEntity
  8
1
390
0
  6
solid
 62
     3
100
AcDbLine
 10
8.264
 20
1.603
 30
0.0
 11
8.292001
 21
1.62
 31
0.0
  0
ARC
  5
20C
100
AcDbEntity
  8
1
390
0
  6
solid
 62
     3
100
AcDbCircle
 10
8.111467
 20
1.6415
 30
0.0
 40
0.181809
210
0.0
220
0.0
230
1.0
100
AcDbArc
 50
353.208589
 51
419.405594
  0
ARC
  5
20D
100
AcDbEntity
  8
1
390
0
  6
solid
 62
     3
100
AcDbCircle
 10
7.348022
 20
0.681333
 30
0.0
 40
1.406998
210
0.0
220
0.0
230
1.0
100
AcDbArc
 50
52.52812
 51
69.70693
  0
ARC
  5
20E
100
AcDbEntity
  8
1
390
0
  6
solid
 62
     3
100
AcDbCircle
 10
12.734066
 20
14.826558
 30
0.0
 40
13.72902
210
0.0
220
0.0
230
1.0
100
AcDbArc
 50
245.21654
 51
249.098201
  0
LINE
  5
20F
100
AcDbEntity
  8
1
390
0
  6
solid
 62
     3
100
AcDbLine
 10
6.979001
 20
2.362
 30
0.0
 11
6.954
 21
2.378
 31
0.0
  0
LINE
  5
210
100
AcDbEntity
  8
1
390
0
  6
solid
 62
     3
100
AcDbLine
 10
6.954
 20
2.378
 30
0.0
 11
6.957
 21
2.383
 31
0.0
  0
LINE
  5
211
100
AcDbEntity
  8
1
390
0
  6
solid
 62
     3
100
AcDbLine
 10
6.957
 20
2.383
 30
0.0
 11
7.0
 21
2.383
 31
0.0
  0
LINE
  5
212
100
AcDbEntity
  8
1
390
0
  6
solid
 62
     3
100
AcDbLine
 10
7.0
 20
2.383
 30
0.0
 11
7.926001
 21
1.992
 31
0.0
  0
ARC
  5
213
100
AcDbEntity
  8
1
390
0
  6
solid
 62
     3
100
AcDbCircle
 10
8.129118
 20
2.346537
 30
0.0
 40
0.408599
210
0.0
220
0.0
230
1.0
100
AcDbArc
 50
240.191225
 51
269.001929
  0
ARC
  5
214
100
AcDbEntity
  8
1
390
0
  6
solid
 62
     3
100
AcDbCircle
 10
7.777731
 20
1.614733
 30
0.0
 40
0.472253
210
0.0
220
0.0
230
1.0
100
AcDbArc
 50
43.197969
 51
77.617488
  0
LINE
  5
215
100
AcDbEntity
  8
1
390
0
  6
solid
 62
     3
100
AcDbLine
 10
7.879
 20
2.076
 30
0.0
 11
6.745
 21
2.594
 31
0.0
  0
LINE
  5
216
100
AcDbEntity
  8
1
390
0
  6
solid
 62
     3
100
AcDbLine
 10
6.745
 20
2.594
 30
0.0
 11
6.64
 21
2.637
 31
0.0
  0
ARC
  5
217
100
AcDbEntity
  8
1
390
0
  6
solid
 62
     3
100
AcDbCircle
 10
3.363608
 20
4.488944
 30
0.0
 40
2.51428
210
0.0
220
0.0
230
1.0
100
AcDbArc
 50
266.634346
 51
283.487002
  0
ARC
  5
218
100
AcDbEntity
  8
1
390
0
  6
solid
 62
     3
100
AcDbCircle
 10
3.227268
 20
1.618849
 30
0.0
 40
0.360327
210
0.0
220
0.0
230
1.0
100
AcDbArc
 50
91.79193
 51
129.721019
  0
ARC
  5
219
100
AcDbEntity
  8
1
390
0
  6
solid
 62
     3
100
AcDbCircle
 10
3.131127
 20
1.816184
 30
0.0
 40
0.156079
210
0.0
220
0.0
230
1.0
100
AcDbArc
 50
149.243882
 51
213.516788
  0
LINE
  5
21A
100
AcDbEntity
  8
1
390
0
  6
solid
 62
     3
100
AcDbLine
 10
3.001
 20
1.73
 30
0.0
 11
3.01
 21
1.729
 31
0.0
  0
ARC
  5
21B
100
AcDbEntity
  8
1
390
0
  6
solid
 62
     3
100
AcDbCircle
 10
3.119148
 20
1.704053
 30
0.0
 40
0.111962
210
0.0
220
0.0
230
1.0
100
AcDbArc
 50
89.051959
 51
167.125672
  0
ARC
  5
21C
100
AcDbEntity
  8
1
390
0
  6
solid
 62
     3
100
AcDbCircle
 10
3.274541
 20
2.055162
 30
0.0
 40
0.284207
210
0.0
220
0.0
230
1.0
100
AcDbArc
 50
237.299705
 51
300.784271
  0
ARC
  5
21D
100
AcDbEntity
  8
1
390
0
  6
solid
 62
     3
100
AcDbCircle
 10
3.86055
 20
1.673
 30
0.0
 40
0.461658
210
0.0
220
0.0
230
1.0
100
AcDbArc
 50
162.607092
 51
197.392901
  0
ARC
  5
21E
100
AcDbEntity
  8
1
390
0
  6
solid
 62
     3
100
AcDbCircle
 10
3.751148
 20
1.417967
 30
0.0
 40
0.35122
210
0.0
220
0.0
230
1.0
100
AcDbArc
 50
85.287882
 51
160.535783
  0
ARC
  5
21F
100
AcDbEntity
  8
1
390
0
  6
solid
 62
     3
100
AcDbCircle
 10
2.881853
 20
1.643593
 30
0.0
 40
0.906723
210
0.0
220
0.0
230
1.0
100
AcDbArc
 50
-19.22689
 51
7.886153
  0
ARC
  5
220
100
AcDbEntity
  8
1
390
0
  6
solid
 62
     3
100
AcDbCircle
 10
3.660337
 20
1.43592
 30
0.0
 40
0.119574
210
0.0
220
0.0
230
1.0
100
AcDbArc
 50
255.798005
 51
310.503869
  0
LINE
  5
221
100
AcDbEntity
  8
1
390
0
  6
solid
 62
     3
100
AcDbLine
 10
3.631
 20
1.32
 30
0.0
 11
3.611
 21
1.313
 31
0.0
  0
ARC
  5
222
100
AcDbEntity
  8
1
390
0
  6
solid
 62
     3
100
AcDbCircle
 10
3.678097
 20
1.328882
 30
0.0
 40
0.068951
210
0.0
220
0.0
230
1.0
100
AcDbArc
 50
193.316784
 51
267.425409
  0
ARC
  5
223
100
AcDbEntity
  8
1
390
0
  6
solid
 62
     3
100
AcDbCircle
 10
3.562576
 20
1.594424
 30
0.0
 40
0.360057
210
0.0
220
0.0
230
1.0
100
AcDbArc
 50
291.750328
 51
369.201566
  0
ARC
  5
224
100
AcDbEntity
  8
1
390
0
  6
solid
 62
     3
100
AcDbCircle
 10
4.157244
 20
1.589003
 30
0.0
 40
0.247399
210
0.0
220
0.0
230
1.0
100
AcDbArc
 50
125.664747
 51
165.247862
  0
ARC
  5
225
100
AcDbEntity
  8
1
390
0
  6
solid
 62
     3
100
AcDbCircle
 10
3.795981
 20
1.893
 30
0.0
 40
0.240222
210
0.0
220
0.0
230
1.0
100
AcDbArc
 50
334.610421
 51
365.733879
  0
ARC
  5
226
100
AcDbEntity
  8
1
390
0
  6
solid
 62
     3
100
AcDbCircle
 10
3.91811
 20
1.960543
 30
0.0
 40
0.119044
210
0.0
220
0.0
230
1.0
100
AcDbArc
 50
349.084439
 51
420.350503
  0
LINE
  5
227
100
AcDbEntity
  8
1
390
0
  6
solid
 62
     3
100
AcDbLine
 10
3.977
 20
2.064
 30
0.0
 11
3.95
 21
2.044
 31
0.0
  0
ARC
  5
228
100
AcDbEntity
  8
1
390
0
  6
solid
 62
     3
100
AcDbCircle
 10
4.311555
 20
1.851754
 30
0.0
 40
0.705531
210
0.0
220
0.0
230
1.0
100
AcDbArc
 50
262.052136
 51
308.941477
  0
ARC
  5
229
100
AcDbEntity
  8
1
390
0
  6
solid
 62
     3
100
AcDbCircle
 10
4.187141
 20
0.990603
 30
0.0
 40
0.164603
210
0.0
220
0.0
230
1.0
100
AcDbArc
 50
80.608854
 51
127.03519
  0
ARC
  5
22A
100
AcDbEntity
  8
1
390
0
  6
solid
 62
     3
100
AcDbCircle
 10
4.201873
 20
1.12621
 30
0.0
 40
0.113951
210
0.0
220
0.0
230
1.0
100
AcDbArc
 50
182.117377
 51
223.341732
  0
ARC
  5
22B
100
AcDbEntity
  8
1
390
0
  6
solid
 62
     3
100
AcDbCircle
 10
3.557942
 20
2.108693
 30
0.0
 40
1.19994
210
0.0
220
0.0
230
1.0
100
AcDbArc
 50
289.272708
 51
297.876789
  0
LINE
  5
22C
100
AcDbEntity
  8
1
390
0
  6
solid
 62
     3
100
AcDbLine
 10
3.954
 20
0.976
 30
0.0
 11
3.886
 21
0.921
 31
0.0
  0
ARC
  5
22D
100
AcDbEntity
  8
1
390
0
  6
solid
 62
     3
100
AcDbCircle
 10
4.121655
 20
0.85148
 30
0.0
 40
0.245695
210
0.0
220
0.0
230
1.0
100
AcDbArc
 50
163.563578
 51
218.360584
  0
ARC
  5
22E
100
AcDbEntity
  8
1
390
0
  6
solid
 62
     3
100
AcDbCircle
 10
3.945076
 20
0.723249
 30
0.0
 40
0.029094
210
0.0
220
0.0
230
1.0
100
AcDbArc
 50
236.457297
 51
303.184044
  0
LINE
  5
22F
100
AcDbEntity
  8
1
390
0
  6
solid
 62
     3
100
AcDbLine
 10
3.961
 20
0.6989
 30
0.0
 11
3.961
 21
0.699
 31
0.0
  0
ARC
  5
230
100
AcDbEntity
  8
1
390
0
  6
solid
 62
     3
100
AcDbCircle
 10
4.377147
 20
0.72
 30
0.0
 40
0.416676
210
0.0
220
0.0
230
1.0
100
AcDbArc
 50
157.5677
 51
182.888861
  0
ARC
  5
231
100
AcDbEntity
  8
1
390
0
  6
solid
 62
     3
100
AcDbCircle
 10
4.116334
 20
1.385999
 30
0.0
 40
0.522022
210
0.0
220
0.0
230
1.0
100
AcDbArc
 50
256.220968
 51
299.576916
  0
ARC
  5
232
100
AcDbEntity
  8
1
390
0
  6
solid
 62
     3
100
AcDbCircle
 10
4.394394
 20
0.9
 30
0.0
 40
0.037946
210
0.0
220
0.0
230
1.0
100
AcDbArc
 50
-33.601157
 51
122.510521
  0
ARC
  5
233
100
AcDbEntity
  8
1
390
0
  6
solid
 62
     3
100
AcDbCircle
 10
4.554058
 20
0.737081
 30
0.0
 40
0.191154
210
0.0
220
0.0
230
1.0
100
AcDbArc
 50
132.060765
 51
181.82231
  0
ARC
  5
234
100
AcDbEntity
  8
1
390
0
  6
solid
 62
     3
100
AcDbCircle
 10
4.398368
 20
0.660165
 30
0.0
 40
0.079174
210
0.0
220
0.0
230
1.0
100
AcDbArc
 50
116.532658
 51
208.818766
  0
LINE
  5
235
100
AcDbEntity
  8
1
390
0
  6
solid
 62
     3
100
AcDbLine
 10
4.329
 20
0.622
 30
0.0
 11
4.352
 21
0.604
 31
0.0
  0
ARC
  5
236
100
AcDbEntity
  8
1
390
0
  6
solid
 62
     3
100
AcDbCircle
 10
3.766606
 20
1.243001
 30
0.0
 40
0.866608
210
0.0
220
0.0
230
1.0
100
AcDbArc
 50
312.493094
 51
333.328323
  0
ARC
  5
237
100
AcDbEntity
  8
1
390
0
  6
solid
 62
     3
100
AcDbCircle
 10
4.612305
 20
0.831668
 30
0.0
 40
0.07472
210
0.0
220
0.0
230
1.0
100
AcDbArc
 50
9.501244
 51
162.609701
  0
ARC
  5
238
100
AcDbEntity
  8
1
390
0
  6
solid
 62
     3
100
AcDbCircle
 10
4.694549
 20
0.903975
 30
0.0
 40
0.060582
210
0.0
220
0.0
230
1.0
100
AcDbArc
 50
261.88784
 51
356.237867
  0
ARC
  5
239
100
AcDbEntity
  8
1
390
0
  6
solid
 62
     3
100
AcDbCircle
 10
5.507991
 20
0.767685
 30
0.0
 40
0.764528
210
0.0
220
0.0
230
1.0
100
AcDbArc
 50
147.807455
 51
170.033803
  0
ARC
  5
23A
100
AcDbEntity
  8
1
390
0
  6
solid
 62
     3
100
AcDbCircle
 10
4.322228
 20
0.966392
 30
0.0
 40
0.577748
210
0.0
220
0.0
230
1.0
100
AcDbArc
 50
21.166012
 51
38.240921
  0
LINE
  5
23B
100
AcDbEntity
  8
1
390
0
  6
solid
 62
     3
100
AcDbLine
 10
4.776
 20
1.324
 30
0.0
 11
4.755
 21
1.303
 31
0.0
  0
LINE
  5
23C
100
AcDbEntity
  8
1
390
0
  6
solid
 62
     3
100
AcDbLine
 10
4.585
 20
0.858
 30
0.0
 11
4.606
 21
0.858
 31
0.0
  0
LINE
  5
23D
100
AcDbEntity
  8
1
390
0
  6
solid
 62
     3
100
AcDbLine
 10
4.606
 20
0.858
 30
0.0
 11
4.612
 21
0.871
 31
0.0
  0
ARC
  5
23E
100
AcDbEntity
  8
1
390
0
  6
solid
 62
     3
100
AcDbCircle
 10
4.609035
 20
0.842622
 30
0.0
 40
0.028532
210
0.0
220
0.0
230
1.0
100
AcDbArc
 50
84.03431
 51
147.390114
  0
ARC
  5
23F
100
AcDbEntity
  8
1
390
0
  6
solid
 62
     3
100
AcDbCircle
 10
4.110141
 20
1.09441
 30
0.0
 40
0.071627
210
0.0
220
0.0
230
1.0
100
AcDbArc
 50
81.957136
 51
236.924262
  0
ARC
  5
240
100
AcDbEntity
  8
1
390
0
  6
solid
 62
     3
100
AcDbCircle
 10
5.339929
 20
0.792691
 30
0.0
 40
0.577474
210
0.0
220
0.0
230
1.0
100
AcDbArc
 50
150.08027
 51
172.806779
  0
ENDSEC
  0
SECTION
  2
OBJECTS
  0
DICTIONARY
  5
19
100
AcDbDictionary
280
     0
281
     1
  3
ACAD_GROUP
350
1A
  3
ACAD_MLINESTYLE
350
1B
  3
ACAD_LAYOUT
350
1E
  3
ACAD_PLOTSETTINGS
350
22
  3
ACAD_PLOTSTYLENAME
350
1F
  3
ACAD_WIPEOUT_VARS
350
23
  0
DICTIONARY
  5
1A
102
{ACAD_REACTORS
330
19
102
}
100
AcDbDictionary
280
     0
281
     1
  0
DICTIONARY
  5
1B
102
{ACAD_REACTORS
330
19
102
}
100
AcDbDictionary
280
     0
281
     1
  3
Standard
350
1C
  0
MLINESTYLE
  5
1C
102
{ACAD_REACTORS
330
1B
102
}
100
AcDbMlineStyle
  2
Standard
 70
     0
  3

 62
     0
 51
90.0
 52
90.0
 71
     2
 49
0.5
 62
   256
  6
ByLayer
 49
-0.5
 62
   256
  6
ByLayer
  0
ACDBDICTIONARYWDFLT
  5
1F
102
{ACAD_REACTORS
330
19
102
}
100
AcDbDictionary
281
     1
  3
Normal
350
1D
100
AcDbDictionaryWithDefault
340
1D
  0
ACDBPLACEHOLDER
  5
1D
102
{ACAD_REACTORS
330
1F
102
}
  0
LAYOUT
  5
20
102
{ACAD_REACTORS
330
1E
102
}
100
AcDbPlotSettings
  1

  2

  4

  6

 40
0.0
 41
0.0
 42
0.0
 43
0.0
 44
0.0
 45
0.0
 46
0.0
 47
0.0
 48
0.0
 49
0.0
140
0.0
141
0.0
142
1.0
143
1.0
 70
  1024
 72
     0
 73
     0
 74
     0
  7

 75
     0
147
1.0
148
0.0
149
0.0
100
AcDbLayout
  1
Model
 70
     0
 71
     0
 10
0.0
 20
0.0
 11
0.0
 21
0.0
 12
0.0
 22
0.0
 32
0.0
 14
0.0
 24
0.0
 34
0.0
 15
0.0
 25
0.0
 35
0.0
146
0.0
 13
0.0
 23
0.0
 33
0.0
 16
0.0
 26
0.0
 36
0.0
 17
0.0
 27
0.0
 37
0.0
 76
     0
330
A
331
0
345
0
346
0
  0
LAYOUT
  5
21
102
{ACAD_REACTORS
330
1E
102
}
100
AcDbPlotSettings
  1

  2

  4

  6

 40
0.0
 41
0.0
 42
0.0
 43
0.0
 44
0.0
 45
0.0
 46
0.0
 47
0.0
 48
0.0
 49
0.0
140
0.0
141
0.0
142
1.0
143
1.0
 70
     0
 72
     0
 73
     0
 74
     0
  7

 75
     0
147
1.0
148
0.0
149
0.0
100
AcDbLayout
  1
Layout1
 70
     0
 71
     0
 10
0.0
 20
0.0
 11
0.0
 21
0.0
 12
0.0
 22
0.0
 32
0.0
 14
0.0
 24
0.0
 34
0.0
 15
0.0
 25
0.0
 35
0.0
146
0.0
 13
0.0
 23
0.0
 33
0.0
 16
0.0
 26
0.0
 36
0.0
 17
0.0
 27
0.0
 37
0.0
 76
     0
330
B
331
0
345
0
346
0
  0
DICTIONARY
  5
1E
102
{ACAD_REACTORS
330
19
102
}
100
AcDbDictionary
280
     0
281
     1
  3
Layout1
350
21
  3
Model
350
20
  0
DICTIONARY
  5
22
102
{ACAD_REACTORS
330
19
102
}
100
AcDbDictionary
280
     0
281
     1
  0
WIPEOUTVARIABLES
  5
23
100
AcDbWipeoutVariables
 70
     1
  0
ENDSEC
  0
EOF
