  0
SECTION
  2
HEADER
  9
$ACADVER
  1
AC1009
  9
$LIMMIN
 10
0.000000
 20
0.000000
  9
$LIMMAX
 10
14.949212
 20
7.396474
  0
ENDSEC
  0
SECTION
  2
TABLES
  0
TABLE
  2
LTYPE
 70
     4
  0
LTYPE
  2
CONTINUOUS
 70
     0
  3
Solid line
 72
     65
 73
     0
 40
0.000000
  0
LTYPE
  2
HIDDEN
 70
     0
  3
 _ _ _ _ _ _ _ _ _ _ _
 72
     65
 73
     2
 40
0.375000
 49
0.250000
 49
-0.125000
  0
LTYPE
  2
DASHED
 70
     0
  3
 ___ ___ ___ ___ ___ ___ ___ 
 72
     65
 73
     2
 40
0.750000
 49
0.500000
 49
-0.250000
  0
LTYPE
  2
CENTER
 70
     0
  3
___ _ ___ _ ___ _ ___
 72
     65
 73
     4
 40
2.000000
 49
1.250000
 49
-0.250000
 49
0.250000
 49
-0.250000
  0
LTYPE
  2
BORDER
 70
     0
  3
___ ___ . ___ ___ . ___ ___
 72
     65
 73
     6
 40
1.750000
 49
0.500000
 49
-0.250000
 49
0.500000
 49
-0.250000
 49
0.000000
 49
-0.250000
  0
LTYPE
  2
DOT
 70
     0
  3
.................
 72
     65
 73
     2
 40
0.250000
 49
0.000000
 49
-0.250000
  0
LTYPE
  2
DASHDOT
 70
     0
  3
__ . __ . __ . __
 72
     65
 73
     4
 40
1.000000
 49
0.500000
 49
-0.250000
 49
0.000000
 49
-0.250000
  0
LTYPE
  2
DIVIDE
 70
     0
  3
___ .. ___ .. ___ .. ___
 72
     65
 73
     6
 40
1.250000
 49
0.500000
 49
-0.250000
 49
0.000000
 49
-0.250000
 49
0.000000
 49
-0.250000
  0
ENDTAB
  0
TABLE
  2
LAYER
 70
     8
  0
LAYER
  2
BLACK
 70
     0
 62
     1
  6
CONTINUOUS
  0
LAYER
  2
WHITE
 70
     0
 62
     7
  6
CONTINUOUS
  0
LAYER
  2
RED
 70
     0
 62
     1
  6
CONTINUOUS
  0
LAYER
  2
YELLOW
 70
     0
 62
     2
  6
CONTINUOUS
  0
LAYER
  2
GREEN
 70
     0
 62
     3
  6
CONTINUOUS
  0
LAYER
  2
CYAN
 70
     0
 62
     4
  6
CONTINUOUS
  0
LAYER
  2
BLUE
 70
     0
 62
     5
  6
CONTINUOUS
  0
LAYER
  2
MAGENTA
 70
     0
 62
     6
  6
CONTINUOUS
  0
ENDTAB
  0
TABLE
  2
APPID
 70
     1
  0
APPID
  2
TC_BEND_DATA
 70
     0
  0
ENDTAB
  0
ENDSEC
  0
SECTION
  2
BLOCKS
  0
ENDSEC
  0
SECTION
  2
ENTITIES
  0
LINE
  8
WHITE
 10
0.000000
 20
6.896474
 30
0.000000
 11
0.000000
 21
0.500000
 31
0.000000
  6
CONTINUOUS
  0
ARC
  8
WHITE
 10
0.500000
 20
0.500000
 30
0.000000
 40
0.500000
 50
180.000000
 51
270.000000
  6
CONTINUOUS
  0
LINE
  8
WHITE
 10
0.500000
 20
0.000000
 30
0.000000
 11
14.449212
 21
0.000000
 31
0.000000
  6
CONTINUOUS
  0
ARC
  8
WHITE
 10
14.449212
 20
0.500000
 30
0.000000
 40
0.500000
 50
-90.000000
 51
0.000000
  6
CONTINUOUS
  0
LINE
  8
WHITE
 10
14.949212
 20
0.500000
 30
0.000000
 11
14.949212
 21
6.896474
 31
0.000000
  6
CONTINUOUS
  0
ARC
  8
WHITE
 10
14.449212
 20
6.896474
 30
0.000000
 40
0.500000
 50
0.000000
 51
90.000000
  6
CONTINUOUS
  0
LINE
  8
WHITE
 10
14.449212
 20
7.396474
 30
0.000000
 11
0.500000
 21
7.396474
 31
0.000000
  6
CONTINUOUS
  0
ARC
  8
WHITE
 10
0.500000
 20
6.896474
 30
0.000000
 40
0.500000
 50
90.000000
 51
180.000000
  6
CONTINUOUS
  0
ARC
  8
WHITE
 10
4.624044
 20
4.554644
 30
0.000000
 40
0.208285
 50
159.225935
 51
164.498645
  6
CONTINUOUS
  0
ARC
  8
WHITE
 10
4.430799
 20
4.610249
 30
0.000000
 40
0.007464
 50
179.524925
 51
234.567754
  6
CONTINUOUS
  0
ARC
  8
WHITE
 10
4.476604
 20
4.655590
 30
0.000000
 40
0.071816
 50
-134.272341
 51
-114.150154
  6
CONTINUOUS
  0
ARC
  8
WHITE
 10
4.444168
 20
4.580258
 30
0.000000
 40
0.010266
 50
1.813308
 51
72.690839
  6
CONTINUOUS
  0
ARC
  8
WHITE
 10
4.399036
 20
4.566743
 30
0.000000
 40
0.057095
 50
1.366489
 51
14.028150
  6
CONTINUOUS
  0
ARC
  8
WHITE
 10
4.345545
 20
4.954713
 30
0.000000
 40
0.402109
 50
-83.997249
 51
-74.039372
  6
CONTINUOUS
  0
ARC
  8
WHITE
 10
4.390225
 20
4.545132
 30
0.000000
 40
0.010027
 50
105.201224
 51
234.604357
  6
CONTINUOUS
  0
ARC
  8
WHITE
 10
4.483398
 20
4.633518
 30
0.000000
 40
0.138280
 50
-135.709209
 51
-119.830901
  6
CONTINUOUS
  0
ARC
  8
WHITE
 10
3.501366
 20
2.891097
 30
0.000000
 40
1.861829
 50
58.163995
 51
60.625875
  6
CONTINUOUS
  0
ARC
  8
WHITE
 10
3.507768
 20
3.512050
 30
0.000000
 40
1.369338
 50
39.796217
 51
44.558919
  6
CONTINUOUS
  0
LINE
  8
WHITE
 10
4.559866
 20
4.388507
 30
0.000000
 11
4.557787
 21
4.363557
 31
0.000000
  6
CONTINUOUS
  0
ARC
  8
WHITE
 10
4.335163
 20
3.271339
 30
0.000000
 40
1.114676
 50
78.479395
 51
82.652803
  6
CONTINUOUS
  0
ARC
  8
WHITE
 10
4.475698
 20
4.352019
 30
0.000000
 40
0.024925
 50
85.370862
 51
109.942254
  6
CONTINUOUS
  0
LINE
  8
WHITE
 10
4.467197
 20
4.375450
 30
0.000000
 11
4.466468
 21
4.370764
 31
0.000000
  6
CONTINUOUS
  0
ARC
  8
WHITE
 10
4.543253
 20
4.439141
 30
0.000000
 40
0.102817
 50
-138.315497
 51
-122.382762
  6
CONTINUOUS
  0
ARC
  8
WHITE
 10
3.886587
 20
3.433658
 30
0.000000
 40
1.098111
 50
50.766313
 51
56.780375
  6
CONTINUOUS
  0
ARC
  8
WHITE
 10
4.496623
 20
4.374153
 30
0.000000
 40
0.123401
 50
-82.738759
 51
-46.780998
  6
CONTINUOUS
  0
ARC
  8
WHITE
 10
4.596009
 20
4.554322
 30
0.000000
 40
0.313968
 50
-121.031177
 51
-105.478200
  6
CONTINUOUS
  0
ARC
  8
WHITE
 10
4.377215
 20
4.194733
 30
0.000000
 40
0.106970
 50
57.837725
 51
72.882833
  6
CONTINUOUS
  0
ARC
  8
WHITE
 10
4.419271
 20
4.344330
 30
0.000000
 40
0.048531
 50
-113.552042
 51
-102.582394
  6
CONTINUOUS
  0
LINE
  8
WHITE
 10
4.399879
 20
4.299842
 30
0.000000
 11
4.396050
 21
4.300317
 31
0.000000
  6
CONTINUOUS
  0
ARC
  8
WHITE
 10
4.432200
 20
4.276950
 30
0.000000
 40
0.043045
 50
147.122717
 51
163.140812
  6
CONTINUOUS
  0
ARC
  8
WHITE
 10
4.581403
 20
4.446438
 30
0.000000
 40
0.246781
 50
-140.490629
 51
-115.073371
  6
CONTINUOUS
  0
ARC
  8
WHITE
 10
-14.250463
 20
-34.103512
 30
0.000000
 40
42.657074
 50
63.701224
 51
63.958665
  6
CONTINUOUS
  0
ARC
  8
WHITE
 10
4.580154
 20
4.170092
 30
0.000000
 40
0.075653
 50
-80.495568
 51
-24.782694
  6
CONTINUOUS
  0
ARC
  8
WHITE
 10
4.603684
 20
4.252911
 30
0.000000
 40
0.157820
 50
-105.397242
 51
-94.010486
  6
CONTINUOUS
  0
ARC
  8
WHITE
 10
4.563931
 20
4.093850
 30
0.000000
 40
0.007232
 50
107.290117
 51
193.957374
  6
CONTINUOUS
  0
ARC
  8
WHITE
 10
4.593140
 20
4.101842
 30
0.000000
 40
0.037513
 50
-164.956615
 51
-143.004912
  6
CONTINUOUS
  0
ARC
  8
WHITE
 10
3.517849
 20
3.266600
 30
0.000000
 40
1.324064
 50
36.623118
 51
37.862492
  6
CONTINUOUS
  0
LINE
  8
WHITE
 10
4.580512
 20
4.056469
 30
0.000000
 11
4.580327
 21
4.051306
 31
0.000000
  6
CONTINUOUS
  0
ARC
  8
WHITE
 10
4.567297
 20
4.059381
 30
0.000000
 40
0.015328
 50
-57.812221
 51
-31.786722
  6
CONTINUOUS
  0
ARC
  8
WHITE
 10
4.539881
 20
4.106166
 30
0.000000
 40
0.069549
 50
-77.062846
 51
-59.229021
  6
CONTINUOUS
  0
ARC
  8
WHITE
 10
4.523073
 20
4.164966
 30
0.000000
 40
0.130659
 50
-99.914424
 51
-75.652112
  6
CONTINUOUS
  0
ARC
  8
WHITE
 10
4.019996
 20
2.659034
 30
0.000000
 40
1.458665
 50
70.763616
 51
73.533571
  6
CONTINUOUS
  0
ARC
  8
WHITE
 10
4.430635
 20
4.046497
 30
0.000000
 40
0.011723
 50
76.055395
 51
163.588364
  6
CONTINUOUS
  0
ARC
  8
WHITE
 10
4.354676
 20
4.060491
 30
0.000000
 40
0.065589
 50
-36.203353
 51
-9.373279
  6
CONTINUOUS
  0
ARC
  8
WHITE
 10
4.396577
 20
4.031105
 30
0.000000
 40
0.014459
 50
-111.613891
 51
-40.315582
  6
CONTINUOUS
  0
ARC
  8
WHITE
 10
4.458448
 20
4.130077
 30
0.000000
 40
0.130967
 50
-146.421977
 51
-120.869215
  6
CONTINUOUS
  0
ARC
  8
WHITE
 10
4.931621
 20
3.849116
 30
0.000000
 40
0.618498
 50
160.296631
 51
164.164897
  6
CONTINUOUS
  0
ARC
  8
WHITE
 10
4.378051
 20
4.005015
 30
0.000000
 40
0.043409
 50
162.752246
 51
199.384026
  6
CONTINUOUS
  0
ARC
  8
WHITE
 10
4.392540
 20
4.031018
 30
0.000000
 40
0.068603
 50
-143.909991
 51
-102.136479
  6
CONTINUOUS
  0
ARC
  8
WHITE
 10
4.480208
 20
4.306396
 30
0.000000
 40
0.357342
 50
-106.600451
 51
-28.453607
  6
CONTINUOUS
  0
ARC
  8
WHITE
 10
5.176859
 20
3.557876
 30
0.000000
 40
0.693310
 50
104.170776
 51
123.481345
  6
CONTINUOUS
  0
ARC
  8
WHITE
 10
4.815417
 20
4.635512
 30
0.000000
 40
0.448465
 50
-64.692152
 51
-57.093936
  6
CONTINUOUS
  0
ARC
  8
WHITE
 10
5.122997
 20
4.160824
 30
0.000000
 40
0.117162
 50
93.712610
 51
123.077961
  6
CONTINUOUS
  0
ARC
  8
WHITE
 10
5.127700
 20
3.990053
 30
0.000000
 40
0.287950
 50
37.842783
 51
92.446105
  6
CONTINUOUS
  0
ARC
  8
WHITE
 10
5.518072
 20
4.198597
 30
0.000000
 40
0.166070
 50
-168.929615
 51
-125.836283
  6
CONTINUOUS
  0
ARC
  8
WHITE
 10
5.364379
 20
4.023815
 30
0.000000
 40
0.069284
 50
14.327399
 51
35.415801
  6
CONTINUOUS
  0
ARC
  8
WHITE
 10
5.459733
 20
4.047029
 30
0.000000
 40
0.028870
 50
-167.864656
 51
-121.603411
  6
CONTINUOUS
  0
ARC
  8
WHITE
 10
5.447139
 20
4.029946
 30
0.000000
 40
0.007922
 50
-108.664911
 51
-39.349813
  6
CONTINUOUS
  0
ARC
  8
WHITE
 10
5.416367
 20
4.057154
 30
0.000000
 40
0.048993
 50
-41.136929
 51
-25.638132
  6
CONTINUOUS
  0
ARC
  8
WHITE
 10
5.550830
 20
3.997661
 30
0.000000
 40
0.098079
 50
140.840696
 51
157.017752
  6
CONTINUOUS
  0
ARC
  8
WHITE
 10
5.503824
 20
4.016461
 30
0.000000
 40
0.052001
 50
102.124658
 51
123.953583
  6
CONTINUOUS
  0
ARC
  8
WHITE
 10
5.398255
 20
4.481566
 30
0.000000
 40
0.424938
 50
-77.130523
 51
-74.319454
  6
CONTINUOUS
  0
ARC
  8
WHITE
 10
5.509641
 20
4.091171
 30
0.000000
 40
0.019046
 50
-79.523563
 51
-12.865888
  6
CONTINUOUS
  0
ARC
  8
WHITE
 10
5.759559
 20
4.084309
 30
0.000000
 40
0.231364
 50
164.748580
 51
179.350890
  6
CONTINUOUS
  0
ARC
  8
WHITE
 10
5.550675
 20
4.139592
 30
0.000000
 40
0.015379
 50
105.493060
 51
158.732256
  6
CONTINUOUS
  0
ARC
  8
WHITE
 10
5.567207
 20
4.068652
 30
0.000000
 40
0.088210
 50
94.236348
 51
103.532207
  6
CONTINUOUS
  0
ARC
  8
WHITE
 10
5.562041
 20
4.173769
 30
0.000000
 40
0.017202
 50
-94.500865
 51
-18.727331
  6
CONTINUOUS
  0
ARC
  8
WHITE
 10
4.585176
 20
4.421807
 30
0.000000
 40
1.025013
 50
-14.322158
 51
-7.798791
  6
CONTINUOUS
  0
ARC
  8
WHITE
 10
5.698611
 20
4.245491
 30
0.000000
 40
0.104742
 50
140.546509
 51
159.180648
  6
CONTINUOUS
  0
ARC
  8
WHITE
 10
5.643402
 20
4.293838
 30
0.000000
 40
0.031472
 50
78.310664
 51
144.643061
  6
CONTINUOUS
  0
ARC
  8
WHITE
 10
5.648459
 20
4.312890
 30
0.000000
 40
0.011840
 50
3.060233
 51
83.598854
  6
CONTINUOUS
  0
ARC
  8
WHITE
 10
5.326484
 20
4.293287
 30
0.000000
 40
0.334411
 50
-1.989877
 51
3.469095
  6
CONTINUOUS
  0
ARC
  8
WHITE
 10
6.339944
 20
4.280646
 30
0.000000
 40
0.679252
 50
179.913156
 51
187.127978
  6
CONTINUOUS
  0
ARC
  8
WHITE
 10
5.635863
 20
4.201276
 30
0.000000
 40
0.030478
 50
-29.423587
 51
-9.282103
  6
CONTINUOUS
  0
ARC
  8
WHITE
 10
5.923251
 20
4.054856
 30
0.000000
 40
0.292090
 50
153.254781
 51
157.140685
  6
CONTINUOUS
  0
ARC
  8
WHITE
 10
5.889806
 20
4.075060
 30
0.000000
 40
0.253485
 50
158.412141
 51
175.261069
  6
CONTINUOUS
  0
ARC
  8
WHITE
 10
5.660299
 20
4.095314
 30
0.000000
 40
0.023122
 50
178.295452
 51
269.035853
  6
CONTINUOUS
  0
ARC
  8
WHITE
 10
5.709089
 20
4.461816
 30
0.000000
 40
0.392712
 50
-97.194097
 51
-92.524237
  6
CONTINUOUS
  0
ARC
  8
WHITE
 10
5.682264
 20
4.063390
 30
0.000000
 40
0.011312
 50
-19.495909
 51
32.600532
  6
CONTINUOUS
  0
ARC
  8
WHITE
 10
5.927875
 20
4.030215
 30
0.000000
 40
0.236780
 50
172.867286
 51
179.543671
  6
CONTINUOUS
  0
ARC
  8
WHITE
 10
6.003381
 20
4.041013
 30
0.000000
 40
0.312406
 50
-178.365130
 51
-156.612814
  6
CONTINUOUS
  0
ARC
  8
WHITE
 10
5.560021
 20
4.056348
 30
0.000000
 40
0.209633
 50
-74.332619
 51
-41.658928
  6
CONTINUOUS
  0
ARC
  8
WHITE
 10
5.602250
 20
3.905501
 30
0.000000
 40
0.052987
 50
-107.305772
 51
-74.249592
  6
CONTINUOUS
  0
ARC
  8
WHITE
 10
5.564036
 20
3.782170
 30
0.000000
 40
0.076129
 50
72.847485
 51
95.891183
  6
CONTINUOUS
  0
ARC
  8
WHITE
 10
5.239199
 20
4.705397
 30
0.000000
 40
0.904854
 50
-86.316334
 51
-69.490764
  6
CONTINUOUS
  0
ARC
  8
WHITE
 10
5.338368
 20
3.767831
 30
0.000000
 40
0.053663
 50
139.877206
 51
170.614034
  6
CONTINUOUS
  0
ARC
  8
WHITE
 10
6.223086
 20
3.711978
 30
0.000000
 40
0.939885
 50
176.058545
 51
178.899205
  6
CONTINUOUS
  0
ARC
  8
WHITE
 10
5.259957
 20
3.731616
 30
0.000000
 40
0.023471
 50
-67.084117
 51
-3.864080
  6
CONTINUOUS
  0
ARC
  8
WHITE
 10
5.229183
 20
3.803626
 30
0.000000
 40
0.101781
 50
-86.455259
 51
-66.911714
  6
CONTINUOUS
  0
ARC
  8
WHITE
 10
5.175191
 20
4.818795
 30
0.000000
 40
1.118382
 50
-91.214421
 51
-86.910086
  6
CONTINUOUS
  0
LINE
  8
WHITE
 10
5.151488
 20
3.700665
 30
0.000000
 11
5.151488
 21
3.672193
 31
0.000000
  6
CONTINUOUS
  0
ARC
  8
WHITE
 10
4.992147
 20
2.997562
 30
0.000000
 40
0.693193
 50
70.247562
 51
76.710889
  6
CONTINUOUS
  0
ARC
  8
WHITE
 10
5.214272
 20
3.605663
 30
0.000000
 40
0.045940
 50
9.328752
 51
74.671845
  6
CONTINUOUS
  0
LINE
  8
WHITE
 10
5.259605
 20
3.613109
 30
0.000000
 11
5.257094
 21
3.609337
 31
0.000000
  6
CONTINUOUS
  0
ARC
  8
WHITE
 10
5.230455
 20
3.643337
 30
0.000000
 40
0.043194
 50
-63.338541
 51
-51.921747
  6
CONTINUOUS
  0
ARC
  8
WHITE
 10
5.145425
 20
3.818174
 30
0.000000
 40
0.237608
 50
-71.007377
 51
-63.932666
  6
CONTINUOUS
  0
ARC
  8
WHITE
 10
4.832874
 20
4.740075
 30
0.000000
 40
1.211047
 50
-75.797600
 51
-71.219976
  6
CONTINUOUS
  0
ARC
  8
WHITE
 10
4.562292
 20
5.744571
 30
0.000000
 40
2.251284
 50
-81.793385
 51
-75.393918
  6
CONTINUOUS
  0
LINE
  8
WHITE
 10
4.883647
 20
3.516341
 30
0.000000
 11
4.865005
 21
3.497699
 31
0.000000
  6
CONTINUOUS
  0
LINE
  8
WHITE
 10
4.865005
 20
3.497699
 30
0.000000
 11
5.036141
 21
3.497699
 31
0.000000
  6
CONTINUOUS
  0
ARC
  8
WHITE
 10
4.976949
 20
3.421593
 30
0.000000
 40
0.096415
 50
23.956071
 51
52.126010
  6
CONTINUOUS
  0
ARC
  8
WHITE
 10
5.050847
 20
3.452740
 30
0.000000
 40
0.016309
 50
-57.861276
 51
29.378688
  6
CONTINUOUS
  0
ARC
  8
WHITE
 10
4.995680
 20
3.569225
 30
0.000000
 40
0.145096
 50
-92.332990
 51
-63.895863
  6
CONTINUOUS
  0
ARC
  8
WHITE
 10
4.980305
 20
3.205778
 30
0.000000
 40
0.218676
 50
87.518267
 51
107.298244
  6
CONTINUOUS
  0
ARC
  8
WHITE
 10
4.976672
 20
3.250447
 30
0.000000
 40
0.175223
 50
110.508897
 51
126.293777
  6
CONTINUOUS
  0
ARC
  8
WHITE
 10
4.788760
 20
3.510758
 30
0.000000
 40
0.145840
 50
-73.442355
 51
-54.739130
  6
CONTINUOUS
  0
ARC
  8
WHITE
 10
4.899645
 20
2.468976
 30
0.000000
 40
0.904650
 50
94.394921
 51
107.220484
  6
CONTINUOUS
  0
ARC
  8
WHITE
 10
4.863672
 20
2.840727
 30
0.000000
 40
0.544205
 50
115.216000
 51
125.157315
  6
CONTINUOUS
  0
ARC
  8
WHITE
 10
4.408370
 20
3.510254
 30
0.000000
 40
0.265690
 50
-81.355280
 51
-57.709003
  6
CONTINUOUS
  0
ARC
  8
WHITE
 10
4.338075
 20
4.077172
 30
0.000000
 40
0.836881
 50
-95.197419
 51
-82.431273
  6
CONTINUOUS
  0
ARC
  8
WHITE
 10
4.225550
 20
3.008482
 30
0.000000
 40
0.238097
 50
81.129856
 51
109.113738
  6
CONTINUOUS
  0
ARC
  8
WHITE
 10
4.148968
 20
3.227864
 30
0.000000
 40
0.005758
 50
103.881627
 51
254.471922
  6
CONTINUOUS
  0
ARC
  8
WHITE
 10
4.179773
 20
3.329003
 30
0.000000
 40
0.111483
 50
-106.866970
 51
-92.807305
  6
CONTINUOUS
  0
ARC
  8
WHITE
 10
4.162178
 20
2.864042
 30
0.000000
 40
0.353820
 50
76.869498
 51
88.034552
  6
CONTINUOUS
  0
ARC
  8
WHITE
 10
4.199973
 20
3.213146
 30
0.000000
 40
0.042823
 50
-44.824227
 51
-6.078625
  6
CONTINUOUS
  0
ARC
  8
WHITE
 10
4.133296
 20
3.278557
 30
0.000000
 40
0.136227
 50
-60.980309
 51
-44.567970
  6
CONTINUOUS
  0
ARC
  8
WHITE
 10
3.911351
 20
3.704152
 30
0.000000
 40
0.616182
 50
-72.263144
 51
-62.131544
  6
CONTINUOUS
  0
ARC
  8
WHITE
 10
5.751049
 20
-2.289001
 30
0.000000
 40
5.653025
 50
106.991485
 51
109.434461
  6
CONTINUOUS
  0
ARC
  8
WHITE
 10
3.908034
 20
3.068917
 30
0.000000
 40
0.046532
 50
-144.551945
 51
-100.360462
  6
CONTINUOUS
  0
ARC
  8
WHITE
 10
3.929876
 20
3.186516
 30
0.000000
 40
0.166142
 50
-100.476510
 51
-85.031660
  6
CONTINUOUS
  0
ARC
  8
WHITE
 10
4.254829
 20
0.146504
 30
0.000000
 40
2.891223
 50
94.126518
 51
96.166403
  6
CONTINUOUS
  0
ARC
  8
WHITE
 10
4.049081
 20
3.003526
 30
0.000000
 40
0.026804
 50
36.364883
 51
94.925260
  6
CONTINUOUS
  0
ARC
  8
WHITE
 10
3.985267
 20
2.988422
 30
0.000000
 40
0.090849
 50
4.184697
 51
19.949558
  6
CONTINUOUS
  0
ARC
  8
WHITE
 10
3.893197
 20
3.279697
 30
0.000000
 40
0.338221
 50
-81.077544
 51
-57.308858
  6
CONTINUOUS
  0
ARC
  8
WHITE
 10
3.964884
 20
2.950157
 30
0.000000
 40
0.019770
 50
-166.577688
 51
-106.637648
  6
CONTINUOUS
  0
ARC
  8
WHITE
 10
3.995718
 20
3.036019
 30
0.000000
 40
0.110977
 50
-109.198406
 51
-93.883541
  6
CONTINUOUS
  0
ARC
  8
WHITE
 10
4.281528
 20
8.217682
 30
0.000000
 40
5.300507
 50
-93.172332
 51
-92.477155
  6
CONTINUOUS
  0
ARC
  8
WHITE
 10
4.000595
 20
2.926539
 30
0.000000
 40
0.052027
 50
-61.813992
 51
-4.863823
  6
CONTINUOUS
  0
ARC
  8
WHITE
 10
3.877656
 20
3.144802
 30
0.000000
 40
0.302521
 50
-72.102545
 51
-60.816300
  6
CONTINUOUS
  0
ARC
  8
WHITE
 10
3.997269
 20
2.737199
 30
0.000000
 40
0.122650
 50
102.546620
 51
147.143194
  6
CONTINUOUS
  0
LINE
  8
WHITE
 10
3.894240
 20
2.803742
 30
0.000000
 11
3.897254
 21
2.802184
 31
0.000000
  6
CONTINUOUS
  0
ARC
  8
WHITE
 10
3.918410
 20
2.899961
 30
0.000000
 40
0.100039
 50
-102.208861
 51
-96.669678
  6
CONTINUOUS
  0
ARC
  8
WHITE
 10
3.991903
 20
3.541766
 30
0.000000
 40
0.746038
 50
-96.550814
 51
-93.852484
  6
CONTINUOUS
  0
ARC
  8
WHITE
 10
4.246902
 20
7.371337
 30
0.000000
 40
4.584090
 50
-93.816518
 51
-92.463987
  6
CONTINUOUS
  0
ARC
  8
WHITE
 10
4.531735
 20
13.524254
 30
0.000000
 40
10.743582
 50
-92.570897
 51
-91.696819
  6
CONTINUOUS
  0
ARC
  8
WHITE
 10
4.180167
 20
3.046586
 30
0.000000
 40
0.263334
 50
-82.704128
 51
-67.755305
  6
CONTINUOUS
  0
ARC
  8
WHITE
 10
4.313456
 20
2.727470
 30
0.000000
 40
0.082529
 50
69.182424
 51
114.024295
  6
CONTINUOUS
  0
ARC
  8
WHITE
 10
4.292340
 20
2.701236
 30
0.000000
 40
0.115027
 50
41.292869
 51
63.987917
  6
CONTINUOUS
  0
ARC
  8
WHITE
 10
4.369046
 20
2.768915
 30
0.000000
 40
0.012735
 50
-56.357776
 51
40.251081
  6
CONTINUOUS
  0
ARC
  8
WHITE
 10
4.300886
 20
2.897085
 30
0.000000
 40
0.157844
 50
-83.462062
 51
-61.541854
  6
CONTINUOUS
  0
ARC
  8
WHITE
 10
4.445315
 20
1.574062
 30
0.000000
 40
1.173042
 50
96.188682
 51
105.696335
  6
CONTINUOUS
  0
ARC
  8
WHITE
 10
4.201969
 20
2.718749
 30
0.000000
 40
0.075590
 50
-168.252535
 51
-134.419444
  6
CONTINUOUS
  0
ARC
  8
WHITE
 10
3.991641
 20
2.508179
 30
0.000000
 40
0.222034
 50
34.546656
 51
44.846661
  6
CONTINUOUS
  0
ARC
  8
WHITE
 10
4.127298
 20
2.616917
 30
0.000000
 40
0.050251
 50
-45.699590
 51
19.982611
  6
CONTINUOUS
  0
LINE
  8
WHITE
 10
4.162394
 20
2.580953
 30
0.000000
 11
3.870127
 21
2.580953
 31
0.000000
  6
CONTINUOUS
  0
LINE
  8
WHITE
 10
3.870127
 20
2.580953
 30
0.000000
 11
3.859300
 21
2.567000
 31
0.000000
  6
CONTINUOUS
  0
ARC
  8
WHITE
 10
3.869160
 20
2.558559
 30
0.000000
 40
0.012979
 50
139.432967
 51
189.635733
  6
CONTINUOUS
  0
ARC
  8
WHITE
 10
3.895201
 20
2.577167
 30
0.000000
 40
0.044047
 50
-151.849862
 51
-120.671634
  6
CONTINUOUS
  0
LINE
  8
WHITE
 10
3.872732
 20
2.539283
 30
0.000000
 11
4.529000
 21
2.539283
 31
0.000000
  6
CONTINUOUS
  0
ARC
  8
WHITE
 10
4.504371
 20
2.509392
 30
0.000000
 40
0.038730
 50
-16.090655
 51
50.512111
  6
CONTINUOUS
  0
ARC
  8
WHITE
 10
4.472637
 20
2.533460
 30
0.000000
 40
0.077232
 50
-63.096098
 51
-26.783353
  6
CONTINUOUS
  0
ARC
  8
WHITE
 10
4.360482
 20
2.750769
 30
0.000000
 40
0.321775
 50
-87.362250
 51
-62.796159
  6
CONTINUOUS
  0
ARC
  8
WHITE
 10
4.371289
 20
2.267812
 30
0.000000
 40
0.161573
 50
88.580738
 51
93.258898
  6
CONTINUOUS
  0
ARC
  8
WHITE
 10
4.362398
 20
2.415353
 30
0.000000
 40
0.013773
 50
91.223654
 51
144.181545
  6
CONTINUOUS
  0
ARC
  8
WHITE
 10
4.361339
 20
2.418084
 30
0.000000
 40
0.011428
 50
152.203547
 51
211.672586
  6
CONTINUOUS
  0
ARC
  8
WHITE
 10
4.389302
 20
2.431926
 30
0.000000
 40
0.042593
 50
-152.234675
 51
-133.928126
  6
CONTINUOUS
  0
LINE
  8
WHITE
 10
4.359753
 20
2.401250
 30
0.000000
 11
4.630486
 21
2.414142
 31
0.000000
  6
CONTINUOUS
  0
ARC
  8
WHITE
 10
4.487796
 20
2.510655
 30
0.000000
 40
0.172265
 50
-34.073820
 51
-14.037497
  6
CONTINUOUS
  0
ARC
  8
WHITE
 10
4.709534
 20
2.456902
 30
0.000000
 40
0.055914
 50
106.317559
 51
167.639064
  6
CONTINUOUS
  0
ARC
  8
WHITE
 10
4.825418
 20
1.731284
 30
0.000000
 40
0.790311
 50
95.162242
 51
99.584905
  6
CONTINUOUS
  0
ARC
  8
WHITE
 10
4.676774
 20
2.744691
 30
0.000000
 40
0.239215
 50
-71.087447
 51
-56.814504
  6
CONTINUOUS
  0
ARC
  8
WHITE
 10
4.666963
 20
-1.317623
 30
0.000000
 40
3.864678
 50
85.543543
 51
87.912917
  6
CONTINUOUS
  0
ARC
  8
WHITE
 10
4.954039
 20
2.655538
 30
0.000000
 40
0.120892
 50
-83.724400
 51
-71.974180
  6
CONTINUOUS
  0
ARC
  8
WHITE
 10
4.976915
 20
2.607205
 30
0.000000
 40
0.068192
 50
-77.693989
 51
-67.252130
  6
CONTINUOUS
  0
ARC
  8
WHITE
 10
5.000715
 20
2.552895
 30
0.000000
 40
0.008954
 50
-73.334323
 51
-8.006235
  6
CONTINUOUS
  0
ARC
  8
WHITE
 10
4.996112
 20
2.538048
 30
0.000000
 40
0.019142
 50
45.276208
 51
73.875376
  6
CONTINUOUS
  0
ARC
  8
WHITE
 10
4.875300
 20
2.236784
 30
0.000000
 40
0.343637
 50
68.466980
 51
72.232464
  6
CONTINUOUS
  0
ARC
  8
WHITE
 10
4.419044
 20
0.805334
 30
0.000000
 40
1.846040
 50
72.304517
 51
74.410051
  6
CONTINUOUS
  0
ARC
  8
WHITE
 10
4.300058
 20
0.440068
 30
0.000000
 40
2.229906
 50
73.987560
 51
76.690763
  6
CONTINUOUS
  0
ARC
  8
WHITE
 10
4.815949
 20
2.644158
 30
0.000000
 40
0.034170
 50
-143.483948
 51
-94.281607
  6
CONTINUOUS
  0
ARC
  8
WHITE
 10
4.867663
 20
2.658925
 30
0.000000
 40
0.086608
 50
-173.197663
 51
-156.091527
  6
CONTINUOUS
  0
ARC
  8
WHITE
 10
4.903455
 20
2.556529
 30
0.000000
 40
0.152716
 50
78.570397
 51
142.891416
  6
CONTINUOUS
  0
ARC
  8
WHITE
 10
4.925876
 20
2.714976
 30
0.000000
 40
0.011756
 50
-48.162675
 51
57.294732
  6
CONTINUOUS
  0
ARC
  8
WHITE
 10
4.820688
 20
2.616986
 30
0.000000
 40
0.155176
 50
44.044687
 51
58.124691
  6
CONTINUOUS
  0
ARC
  8
WHITE
 10
5.375913
 20
3.521019
 30
0.000000
 40
0.905746
 50
-125.120652
 51
-121.502210
  6
CONTINUOUS
  0
ARC
  8
WHITE
 10
4.857087
 20
2.786455
 30
0.000000
 40
0.006675
 50
-170.533578
 51
-109.696758
  6
CONTINUOUS
  0
ARC
  8
WHITE
 10
4.898078
 20
2.795347
 30
0.000000
 40
0.048612
 50
132.870145
 51
191.858148
  6
CONTINUOUS
  0
ARC
  8
WHITE
 10
4.964887
 20
4.583571
 30
0.000000
 40
1.755440
 50
-93.261814
 51
-81.926940
  6
CONTINUOUS
  0
ARC
  8
WHITE
 10
5.226214
 20
2.252050
 30
0.000000
 40
0.593662
 50
77.492055
 51
91.428541
  6
CONTINUOUS
  0
ARC
  8
WHITE
 10
5.321715
 20
3.212717
 30
0.000000
 40
0.382527
 50
-85.040304
 51
-64.197703
  6
CONTINUOUS
  0
ARC
  8
WHITE
 10
5.384887
 20
3.196666
 30
0.000000
 40
0.344214
 50
-72.530998
 51
-65.189358
  6
CONTINUOUS
  0
ARC
  8
WHITE
 10
5.506085
 20
2.937819
 30
0.000000
 40
0.058418
 50
-66.556995
 51
-24.357207
  6
CONTINUOUS
  0
ARC
  8
WHITE
 10
5.540250
 20
2.924762
 30
0.000000
 40
0.022019
 50
-30.080035
 51
78.191784
  6
CONTINUOUS
  0
ARC
  8
WHITE
 10
5.482193
 20
2.736311
 30
0.000000
 40
0.219125
 50
73.410499
 51
90.817640
  6
CONTINUOUS
  0
ARC
  8
WHITE
 10
5.429648
 20
5.256265
 30
0.000000
 40
2.301382
 50
-92.907437
 51
-88.769596
  6
CONTINUOUS
  0
ARC
  8
WHITE
 10
5.475605
 20
4.571098
 30
0.000000
 40
1.621435
 50
-105.445381
 51
-95.758539
  6
CONTINUOUS
  0
ARC
  8
WHITE
 10
5.056781
 20
3.028840
 30
0.000000
 40
0.024373
 50
-171.851737
 51
-122.223532
  6
CONTINUOUS
  0
ARC
  8
WHITE
 10
5.097924
 20
3.035673
 30
0.000000
 40
0.066074
 50
165.756861
 51
188.956627
  6
CONTINUOUS
  0
ARC
  8
WHITE
 10
5.117380
 20
3.033519
 30
0.000000
 40
0.085505
 50
127.711335
 51
167.566004
  6
CONTINUOUS
  0
ARC
  8
WHITE
 10
5.102544
 20
3.043566
 30
0.000000
 40
0.068710
 50
86.801705
 51
123.044056
  6
CONTINUOUS
  0
ARC
  8
WHITE
 10
5.114021
 20
3.261093
 30
0.000000
 40
0.149120
 50
-92.937971
 51
-74.411772
  6
CONTINUOUS
  0
ARC
  8
WHITE
 10
4.347836
 20
2.657015
 30
0.000000
 40
0.928470
 50
29.730159
 51
34.167960
  6
CONTINUOUS
  0
ARC
  8
WHITE
 10
5.129707
 20
3.181914
 30
0.000000
 40
0.014088
 50
125.108410
 51
194.181691
  6
CONTINUOUS
  0
ARC
  8
WHITE
 10
5.151842
 20
3.148056
 30
0.000000
 40
0.054534
 50
99.232258
 51
123.675166
  6
CONTINUOUS
  0
ARC
  8
WHITE
 10
5.193473
 20
2.863009
 30
0.000000
 40
0.342599
 50
86.582045
 51
98.456028
  6
CONTINUOUS
  0
ARC
  8
WHITE
 10
4.075803
 20
-13.441748
 30
0.000000
 40
16.685606
 50
85.699518
 51
86.088922
  6
CONTINUOUS
  0
ARC
  8
WHITE
 10
5.307524
 20
3.255274
 30
0.000000
 40
0.061559
 50
-71.547488
 51
-49.915337
  6
CONTINUOUS
  0
ARC
  8
WHITE
 10
5.343155
 20
3.212890
 30
0.000000
 40
0.006188
 50
-49.635279
 51
44.383854
  6
CONTINUOUS
  0
ARC
  8
WHITE
 10
5.281873
 20
3.130781
 30
0.000000
 40
0.108576
 50
52.760103
 51
68.218569
  6
CONTINUOUS
  0
ARC
  8
WHITE
 10
5.334420
 20
3.267610
 30
0.000000
 40
0.038035
 50
-150.998478
 51
-108.801149
  6
CONTINUOUS
  0
ARC
  8
WHITE
 10
5.331341
 20
3.256228
 30
0.000000
 40
0.031001
 50
136.415448
 51
193.159994
  6
CONTINUOUS
  0
ARC
  8
WHITE
 10
5.376951
 20
3.201116
 30
0.000000
 40
0.102385
 50
111.407177
 51
131.666732
  6
CONTINUOUS
  0
ARC
  8
WHITE
 10
5.209992
 20
3.663691
 30
0.000000
 40
0.389446
 50
-70.564129
 51
-54.498194
  6
CONTINUOUS
  0
LINE
  8
WHITE
 10
5.436154
 20
3.346644
 30
0.000000
 11
5.607257
 21
3.346644
 31
0.000000
  6
CONTINUOUS
  0
ARC
  8
WHITE
 10
5.650731
 20
3.411098
 30
0.000000
 40
0.077745
 50
-123.999221
 51
-38.011537
  6
CONTINUOUS
  0
ARC
  8
WHITE
 10
5.731903
 20
3.342896
 30
0.000000
 40
0.028458
 50
89.009756
 51
134.420036
  6
CONTINUOUS
  0
ARC
  8
WHITE
 10
5.719123
 20
3.346872
 30
0.000000
 40
0.027845
 50
14.195051
 51
61.531656
  6
CONTINUOUS
  0
LINE
  8
WHITE
 10
5.746117
 20
3.353700
 30
0.000000
 11
5.751523
 21
3.335413
 31
0.000000
  6
CONTINUOUS
  0
ARC
  8
WHITE
 10
5.773980
 20
3.341103
 30
0.000000
 40
0.023167
 50
-165.782119
 51
-119.122330
  6
CONTINUOUS
  0
ARC
  8
WHITE
 10
5.799047
 20
3.384022
 30
0.000000
 40
0.072867
 50
-119.917078
 51
-106.169343
  6
CONTINUOUS
  0
ARC
  8
WHITE
 10
5.780398
 20
3.321526
 30
0.000000
 40
0.007667
 50
-102.375516
 51
-32.113847
  6
CONTINUOUS
  0
ARC
  8
WHITE
 10
6.264917
 20
3.069778
 30
0.000000
 40
0.538377
 50
147.642697
 51
152.610632
  6
CONTINUOUS
  0
ARC
  8
WHITE
 10
5.955221
 20
3.243397
 30
0.000000
 40
0.184836
 50
132.030647
 51
141.715036
  6
CONTINUOUS
  0
ARC
  8
WHITE
 10
5.801794
 20
3.408429
 30
0.000000
 40
0.040620
 50
-43.069690
 51
-31.472168
  6
CONTINUOUS
  0
ARC
  8
WHITE
 10
5.842030
 20
3.384287
 30
0.000000
 40
0.006316
 50
101.438137
 51
152.298185
  6
CONTINUOUS
  0
ARC
  8
WHITE
 10
5.834566
 20
3.369031
 30
0.000000
 40
0.022327
 50
38.769799
 51
73.845989
  6
CONTINUOUS
  0
ARC
  8
WHITE
 10
5.310340
 20
2.881414
 30
0.000000
 40
0.738219
 50
40.508247
 51
42.802257
  6
CONTINUOUS
  0
ARC
  8
WHITE
 10
5.893658
 20
3.394663
 30
0.000000
 40
0.040295
 50
-123.159744
 51
-86.177345
  6
CONTINUOUS
  0
ARC
  8
WHITE
 10
5.402953
 20
3.378942
 30
0.000000
 40
0.493998
 50
-2.840922
 51
9.900301
  6
CONTINUOUS
  0
ARC
  8
WHITE
 10
6.215103
 20
3.526003
 30
0.000000
 40
0.331384
 50
174.128714
 51
190.805428
  6
CONTINUOUS
  0
ARC
  8
WHITE
 10
5.990817
 20
3.525418
 30
0.000000
 40
0.110859
 50
128.758049
 51
161.876838
  6
CONTINUOUS
  0
ARC
  8
WHITE
 10
1.167775
 20
9.291818
 30
0.000000
 40
7.406684
 50
-50.073513
 51
-49.548845
  6
CONTINUOUS
  0
ARC
  8
WHITE
 10
5.939012
 20
3.702378
 30
0.000000
 40
0.057930
 50
-53.797502
 51
12.799130
  6
CONTINUOUS
  0
ARC
  8
WHITE
 10
4.329860
 20
3.064033
 30
0.000000
 40
1.788407
 50
21.352878
 51
32.354021
  6
CONTINUOUS
  0
ARC
  8
WHITE
 10
6.380823
 20
4.367618
 30
0.000000
 40
0.641782
 50
-176.738470
 51
-147.320830
  6
CONTINUOUS
  0
ARC
  8
WHITE
 10
6.317459
 20
4.070932
 30
0.000000
 40
0.633290
 50
114.095767
 51
155.743157
  6
CONTINUOUS
  0
ARC
  8
WHITE
 10
6.487710
 20
2.252728
 30
0.000000
 40
2.434373
 50
85.953460
 51
100.145225
  6
CONTINUOUS
  0
ARC
  8
WHITE
 10
6.697199
 20
5.871961
 30
0.000000
 40
1.191525
 50
-91.813290
 51
-84.454848
  6
CONTINUOUS
  0
ARC
  8
WHITE
 10
6.495246
 20
5.780449
 30
0.000000
 40
1.139446
 50
-73.842180
 51
-64.351417
  6
CONTINUOUS
  0
ARC
  8
WHITE
 10
7.202779
 20
3.990822
 30
0.000000
 40
0.792005
 50
85.621581
 51
105.700491
  6
CONTINUOUS
  0
ARC
  8
WHITE
 10
7.069966
 20
3.858640
 30
0.000000
 40
0.941920
 50
68.956761
 51
78.159043
  6
CONTINUOUS
  0
ARC
  8
WHITE
 10
7.426129
 20
4.937992
 30
0.000000
 40
0.201052
 50
-95.120947
 51
-80.600610
  6
CONTINUOUS
  0
ARC
  8
WHITE
 10
7.220023
 20
6.590920
 30
0.000000
 40
1.866636
 50
-82.645615
 51
-79.996494
  6
CONTINUOUS
  0
ARC
  8
WHITE
 10
6.749321
 20
9.305706
 30
0.000000
 40
4.621922
 50
-80.096101
 51
-78.549022
  6
CONTINUOUS
  0
ARC
  8
WHITE
 10
7.653363
 20
4.864959
 30
0.000000
 40
0.090198
 50
-81.363238
 51
-64.579111
  6
CONTINUOUS
  0
ARC
  8
WHITE
 10
7.667513
 20
4.815315
 30
0.000000
 40
0.040203
 50
-52.328251
 51
-14.713779
  6
CONTINUOUS
  0
ARC
  8
WHITE
 10
8.165834
 20
5.345452
 30
0.000000
 40
0.709266
 50
-139.764862
 51
-130.373220
  6
CONTINUOUS
  0
ARC
  8
WHITE
 10
7.630723
 20
4.891952
 30
0.000000
 40
0.007854
 50
88.960958
 51
216.145825
  6
CONTINUOUS
  0
ARC
  8
WHITE
 10
7.651090
 20
4.548167
 30
0.000000
 40
0.352219
 50
79.910848
 51
93.291842
  6
CONTINUOUS
  0
ARC
  8
WHITE
 10
7.659549
 20
5.816351
 30
0.000000
 40
0.922949
 50
-86.692903
 51
-76.290539
  6
CONTINUOUS
  0
ARC
  8
WHITE
 10
7.802734
 20
4.907050
 30
0.000000
 40
0.076604
 50
9.503216
 51
25.554951
  6
CONTINUOUS
  0
ARC
  8
WHITE
 10
7.827615
 20
4.872786
 30
0.000000
 40
0.080540
 50
56.691230
 51
76.048060
  6
CONTINUOUS
  0
ARC
  8
WHITE
 10
7.699104
 20
5.394073
 30
0.000000
 40
0.467163
 50
-129.129812
 51
-71.539198
  6
CONTINUOUS
  0
ARC
  8
WHITE
 10
7.068901
 20
5.159182
 30
0.000000
 40
0.358802
 50
-53.720136
 51
-20.814053
  6
CONTINUOUS
  0
ARC
  8
WHITE
 10
7.249411
 20
4.960257
 30
0.000000
 40
0.095755
 50
-78.218583
 51
-70.601109
  6
CONTINUOUS
  0
ARC
  8
WHITE
 10
7.265399
 20
4.879933
 30
0.000000
 40
0.013879
 50
-127.055951
 51
-75.125097
  6
CONTINUOUS
  0
ARC
  8
WHITE
 10
7.265398
 20
4.879821
 30
0.000000
 40
0.013789
 50
179.147053
 51
232.667445
  6
CONTINUOUS
  0
ARC
  8
WHITE
 10
7.017055
 20
4.872160
 30
0.000000
 40
0.234687
 50
1.920822
 51
4.956837
  6
CONTINUOUS
  0
LINE
  8
WHITE
 10
7.250864
 20
4.892438
 30
0.000000
 11
7.331164
 21
5.005361
 31
0.000000
  6
CONTINUOUS
  0
ARC
  8
WHITE
 10
7.185940
 20
4.919890
 30
0.000000
 40
0.168509
 50
30.478593
 51
70.863498
  6
CONTINUOUS
  0
ARC
  8
WHITE
 10
7.469032
 20
5.651550
 30
0.000000
 40
0.616141
 50
-127.373519
 51
-111.703531
  6
CONTINUOUS
  0
LINE
  8
WHITE
 10
7.095029
 20
5.161906
 30
0.000000
 11
6.886274
 21
5.161906
 31
0.000000
  6
CONTINUOUS
  0
ARC
  8
WHITE
 10
16.967991
 20
-4.020171
 30
0.000000
 40
13.636405
 50
137.673831
 51
139.577359
  6
CONTINUOUS
  0
ARC
  8
WHITE
 10
6.582691
 20
4.835565
 30
0.000000
 40
0.014226
 50
-138.000092
 51
-73.044892
  6
CONTINUOUS
  0
ARC
  8
WHITE
 10
6.596660
 20
4.838277
 30
0.000000
 40
0.027420
 50
167.802082
 51
206.490971
  6
CONTINUOUS
  0
ARC
  8
WHITE
 10
6.829337
 20
4.785140
 30
0.000000
 40
0.266086
 50
151.826657
 51
167.204542
  6
CONTINUOUS
  0
ARC
  8
WHITE
 10
7.758701
 20
4.302427
 30
0.000000
 40
1.313317
 50
143.224817
 51
152.405496
  6
CONTINUOUS
  0
ARC
  8
WHITE
 10
5.903582
 20
5.823324
 30
0.000000
 40
1.088474
 50
-42.448810
 51
-35.913194
  6
CONTINUOUS
  0
ARC
  8
WHITE
 10
6.737492
 20
5.223927
 30
0.000000
 40
0.061613
 50
-39.338426
 51
26.598751
  6
CONTINUOUS
  0
ARC
  8
WHITE
 10
10.603578
 20
7.872226
 30
0.000000
 40
4.625128
 50
-148.886297
 51
-145.484803
  6
CONTINUOUS
  0
ARC
  8
WHITE
 10
6.674943
 20
5.482460
 30
0.000000
 40
0.031138
 50
94.584946
 51
180.394010
  6
CONTINUOUS
  0
ARC
  8
WHITE
 10
1.944101
 20
1.523029
 30
0.000000
 40
6.187178
 50
37.244813
 51
40.162523
  6
CONTINUOUS
  0
ARC
  8
WHITE
 10
6.919053
 20
5.316145
 30
0.000000
 40
0.069378
 50
-135.646839
 51
-85.715890
  6
CONTINUOUS
  0
ARC
  8
WHITE
 10
6.877789
 20
7.581427
 30
0.000000
 40
2.334927
 50
-88.860188
 51
-85.704051
  6
CONTINUOUS
  0
ARC
  8
WHITE
 10
6.884577
 20
5.315759
 30
0.000000
 40
0.179429
 50
-20.453012
 51
7.473666
  6
CONTINUOUS
  0
ARC
  8
WHITE
 10
5.838119
 20
5.243854
 30
0.000000
 40
1.228061
 50
4.448094
 51
11.227239
  6
CONTINUOUS
  0
ARC
  8
WHITE
 10
4.704374
 20
5.034786
 30
0.000000
 40
2.380867
 50
10.850043
 51
18.172838
  6
CONTINUOUS
  0
ARC
  8
WHITE
 10
7.009771
 20
5.796461
 30
0.000000
 40
0.047322
 50
173.003650
 51
203.830511
  6
CONTINUOUS
  0
ARC
  8
WHITE
 10
7.003541
 20
5.803602
 30
0.000000
 40
0.040763
 50
160.972124
 51
181.935086
  6
CONTINUOUS
  0
ARC
  8
WHITE
 10
6.976974
 20
5.812372
 30
0.000000
 40
0.012793
 50
103.980313
 51
159.309744
  6
CONTINUOUS
  0
ARC
  8
WHITE
 10
6.980776
 20
5.791051
 30
0.000000
 40
0.034432
 50
42.013805
 51
101.547512
  6
CONTINUOUS
  0
ARC
  8
WHITE
 10
6.890850
 20
5.706726
 30
0.000000
 40
0.157704
 50
23.590647
 51
42.909036
  6
CONTINUOUS
  0
ARC
  8
WHITE
 10
6.194351
 20
5.416624
 30
0.000000
 40
0.912185
 50
12.763630
 51
22.781552
  6
CONTINUOUS
  0
ARC
  8
WHITE
 10
20.108407
 20
8.410357
 30
0.000000
 40
13.320349
 50
-167.899949
 51
-166.606293
  6
CONTINUOUS
  0
ARC
  8
WHITE
 10
7.438281
 20
5.446968
 30
0.000000
 40
0.312767
 50
-157.011330
 51
-100.740252
  6
CONTINUOUS
  0
ARC
  8
WHITE
 10
7.375833
 20
5.193568
 30
0.000000
 40
0.054048
 50
-85.583284
 51
-52.249018
  6
CONTINUOUS
  0
ARC
  8
WHITE
 10
7.384238
 20
5.171181
 30
0.000000
 40
0.031990
 50
-39.499938
 51
7.024335
  6
CONTINUOUS
  0
ARC
  8
WHITE
 10
4.746133
 20
4.740569
 30
0.000000
 40
2.704984
 50
9.243948
 51
11.603919
  6
CONTINUOUS
  0
ARC
  8
WHITE
 10
7.713934
 20
5.326901
 30
0.000000
 40
0.320895
 50
177.121846
 51
187.563571
  6
CONTINUOUS
  0
ARC
  8
WHITE
 10
7.273583
 20
5.349635
 30
0.000000
 40
0.120043
 50
-3.161719
 51
23.729416
  6
CONTINUOUS
  0
ARC
  8
WHITE
 10
7.097119
 20
5.218878
 30
0.000000
 40
0.337736
 50
32.018396
 51
47.981993
  6
CONTINUOUS
  0
ARC
  8
WHITE
 10
7.401859
 20
5.559246
 30
0.000000
 40
0.119126
 50
-175.210030
 51
-131.331206
  6
CONTINUOUS
  0
ARC
  8
WHITE
 10
7.314041
 20
5.548828
 30
0.000000
 40
0.030895
 50
129.065562
 51
179.127514
  6
CONTINUOUS
  0
ARC
  8
WHITE
 10
7.303170
 20
5.561714
 30
0.000000
 40
0.014043
 50
77.830982
 51
127.762120
  6
CONTINUOUS
  0
LINE
  8
WHITE
 10
7.306130
 20
5.575441
 30
0.000000
 11
7.318343
 21
5.573400
 31
0.000000
  6
CONTINUOUS
  0
ARC
  8
WHITE
 10
9.756391
 20
7.672126
 30
0.000000
 40
3.216945
 50
-139.277407
 51
-132.351744
  6
CONTINUOUS
  0
ARC
  8
WHITE
 10
7.641522
 20
5.647636
 30
0.000000
 40
0.356763
 50
-98.433276
 51
-80.484419
  6
CONTINUOUS
  0
ARC
  8
WHITE
 10
7.688585
 20
5.402914
 30
0.000000
 40
0.107794
 50
-83.653903
 51
-21.569778
  6
CONTINUOUS
  0
ARC
  8
WHITE
 10
7.536856
 20
5.392737
 30
0.000000
 40
0.253690
 50
-6.666667
 51
12.352720
  6
CONTINUOUS
  0
ARC
  8
WHITE
 10
6.529248
 20
5.206431
 30
0.000000
 40
1.278268
 50
10.848128
 51
16.704726
  6
CONTINUOUS
  0
ARC
  8
WHITE
 10
4.953758
 20
4.737874
 30
0.000000
 40
2.921955
 50
16.624813
 51
22.581204
  6
CONTINUOUS
  0
ARC
  8
WHITE
 10
7.673087
 20
5.854089
 30
0.000000
 40
0.022153
 50
115.908992
 51
164.839132
  6
CONTINUOUS
  0
ARC
  8
WHITE
 10
7.667648
 20
5.853957
 30
0.000000
 40
0.020502
 50
54.284840
 51
101.937087
  6
CONTINUOUS
  0
ARC
  8
WHITE
 10
7.573157
 20
5.733623
 30
0.000000
 40
0.173485
 50
32.295040
 51
52.146006
  6
CONTINUOUS
  0
ARC
  8
WHITE
 10
7.036559
 20
5.372940
 30
0.000000
 40
0.819983
 50
23.055687
 51
33.566592
  6
CONTINUOUS
  0
ARC
  8
WHITE
 10
6.128477
 20
5.057580
 30
0.000000
 40
1.780238
 50
11.273201
 51
20.948493
  6
CONTINUOUS
  0
ARC
  8
WHITE
 10
8.778598
 20
5.885454
 30
0.000000
 40
1.023669
 50
-152.045837
 51
-137.048641
  6
CONTINUOUS
  0
ARC
  8
WHITE
 10
7.955458
 20
5.294772
 30
0.000000
 40
0.129884
 50
-55.330370
 51
10.109413
  6
CONTINUOUS
  0
ARC
  8
WHITE
 10
7.591488
 20
5.240446
 30
0.000000
 40
0.497848
 50
8.911957
 51
18.749354
  6
CONTINUOUS
  0
ARC
  8
WHITE
 10
8.081487
 20
5.397926
 30
0.000000
 40
0.018743
 50
127.940351
 51
172.203137
  6
CONTINUOUS
  0
ARC
  8
WHITE
 10
8.071164
 20
5.403593
 30
0.000000
 40
0.009193
 50
32.163650
 51
97.511932
  6
CONTINUOUS
  0
ARC
  8
WHITE
 10
7.941303
 20
5.313230
 30
0.000000
 40
0.167391
 50
19.273552
 51
34.685333
  6
CONTINUOUS
  0
ARC
  8
WHITE
 10
7.217852
 20
5.038217
 30
0.000000
 40
0.941301
 50
15.319931
 51
20.539965
  6
CONTINUOUS
  0
ARC
  8
WHITE
 10
7.995958
 20
5.360924
 30
0.000000
 40
0.149369
 50
-29.700497
 51
39.344278
  6
CONTINUOUS
  0
ARC
  8
WHITE
 10
8.173672
 20
5.499445
 30
0.000000
 40
0.076088
 50
-167.242376
 51
-144.832295
  6
CONTINUOUS
  0
ARC
  8
WHITE
 10
8.118263
 20
5.488605
 30
0.000000
 40
0.019723
 50
126.666974
 51
197.596209
  6
CONTINUOUS
  0
ARC
  8
WHITE
 10
8.115004
 20
5.464194
 30
0.000000
 40
0.041123
 50
45.256848
 51
101.955688
  6
CONTINUOUS
  0
ARC
  8
WHITE
 10
8.047434
 20
5.390481
 30
0.000000
 40
0.141097
 50
24.791195
 51
46.839097
  6
CONTINUOUS
  0
ARC
  8
WHITE
 10
8.013747
 20
5.366549
 30
0.000000
 40
0.181873
 50
-9.440161
 51
27.186503
  6
CONTINUOUS
  0
ARC
  8
WHITE
 10
6.986746
 20
5.761446
 30
0.000000
 40
1.278993
 50
-27.821824
 51
-19.395052
  6
CONTINUOUS
  0
ARC
  8
WHITE
 10
8.116852
 20
5.200168
 30
0.000000
 40
0.035673
 50
-88.331206
 51
-36.649558
  6
CONTINUOUS
  0
ARC
  8
WHITE
 10
7.918634
 20
5.387156
 30
0.000000
 40
0.307956
 50
-42.558070
 51
-32.081647
  6
CONTINUOUS
  0
ARC
  8
WHITE
 10
7.052667
 20
5.915253
 30
0.000000
 40
1.322229
 50
-31.540550
 51
-24.218013
  6
CONTINUOUS
  0
ARC
  8
WHITE
 10
8.229707
 20
5.336241
 30
0.000000
 40
0.046602
 50
-8.654646
 51
51.796426
  6
CONTINUOUS
  0
ARC
  8
WHITE
 10
8.089350
 20
5.357516
 30
0.000000
 40
0.188562
 50
-28.200278
 51
-8.627853
  6
CONTINUOUS
  0
ARC
  8
WHITE
 10
6.594891
 20
6.178715
 30
0.000000
 40
1.893773
 50
-33.314840
 51
-28.730024
  6
CONTINUOUS
  0
LINE
  8
WHITE
 10
8.177451
 20
5.138580
 30
0.000000
 11
8.195372
 21
5.132606
 31
0.000000
  6
CONTINUOUS
  0
LINE
  8
WHITE
 10
8.195372
 20
5.132606
 30
0.000000
 11
8.278688
 21
5.215922
 31
0.000000
  6
CONTINUOUS
  0
LINE
  8
WHITE
 10
8.278688
 20
5.215922
 30
0.000000
 11
8.289998
 21
5.212152
 31
0.000000
  6
CONTINUOUS
  0
ARC
  8
WHITE
 10
8.287429
 20
5.203766
 30
0.000000
 40
0.008771
 50
29.598254
 51
72.969914
  6
CONTINUOUS
  0
ARC
  8
WHITE
 10
8.126221
 20
5.160656
 30
0.000000
 40
0.175374
 50
7.234565
 51
15.695306
  6
CONTINUOUS
  0
ARC
  8
WHITE
 10
7.627006
 20
5.785291
 30
0.000000
 40
0.903469
 50
-49.941023
 51
-41.830554
  6
CONTINUOUS
  0
ARC
  8
WHITE
 10
8.320341
 20
4.952565
 30
0.000000
 40
0.180176
 50
128.387535
 51
160.564822
  6
CONTINUOUS
  0
ARC
  8
WHITE
 10
8.194075
 20
5.006224
 30
0.000000
 40
0.044094
 50
171.795638
 51
247.327629
  6
CONTINUOUS
  0
ARC
  8
WHITE
 10
8.277061
 20
5.189690
 30
0.000000
 40
0.245440
 50
-114.039191
 51
-94.626799
  6
CONTINUOUS
  0
ARC
  8
WHITE
 10
8.439962
 20
7.271326
 30
0.000000
 40
2.333440
 50
-94.490628
 51
-89.658793
  6
CONTINUOUS
  0
ARC
  8
WHITE
 10
8.381191
 20
4.796742
 30
0.000000
 40
0.158789
 50
22.244972
 51
62.765512
  6
CONTINUOUS
  0
LINE
  8
WHITE
 10
8.528161
 20
4.856855
 30
0.000000
 11
8.528526
 21
4.842991
 31
0.000000
  6
CONTINUOUS
  0
ARC
  8
WHITE
 10
8.506452
 20
4.842601
 30
0.000000
 40
0.022078
 50
-34.317044
 51
1.012185
  6
CONTINUOUS
  0
ARC
  8
WHITE
 10
8.395382
 20
4.920615
 30
0.000000
 40
0.157806
 50
-48.771926
 51
-34.976247
  6
CONTINUOUS
  0
ARC
  8
WHITE
 10
8.510197
 20
4.785237
 30
0.000000
 40
0.019889
 50
122.931504
 51
169.722104
  6
CONTINUOUS
  0
ARC
  8
WHITE
 10
8.704070
 20
4.818067
 30
0.000000
 40
0.215442
 50
-172.188596
 51
-160.765001
  6
CONTINUOUS
  0
ARC
  8
WHITE
 10
8.416499
 20
4.732945
 30
0.000000
 40
0.085337
 50
-50.381875
 51
9.541451
  6
CONTINUOUS
  0
ARC
  8
WHITE
 10
8.005728
 20
5.163429
 30
0.000000
 40
0.680172
 50
-55.354366
 51
-46.848747
  6
CONTINUOUS
  0
ARC
  8
WHITE
 10
8.162545
 20
4.904317
 30
0.000000
 40
0.378296
 50
-59.667598
 51
-52.582480
  6
CONTINUOUS
  0
ARC
  8
WHITE
 10
8.375959
 20
4.536999
 30
0.000000
 40
0.046535
 50
118.730109
 51
155.150534
  6
CONTINUOUS
  0
ARC
  8
WHITE
 10
5.736349
 20
5.392636
 30
0.000000
 40
2.728632
 50
-18.977436
 51
-17.843032
  6
CONTINUOUS
  0
ARC
  8
WHITE
 10
8.242258
 20
4.528818
 30
0.000000
 40
0.078042
 50
-58.740691
 51
-17.542018
  6
CONTINUOUS
  0
ARC
  8
WHITE
 10
8.206203
 20
4.626918
 30
0.000000
 40
0.181723
 50
-80.507706
 51
-65.086083
  6
CONTINUOUS
  0
ARC
  8
WHITE
 10
8.240506
 20
4.417299
 30
0.000000
 40
0.030692
 50
98.117753
 51
158.348876
  6
CONTINUOUS
  0
ARC
  8
WHITE
 10
7.922529
 20
4.560129
 30
0.000000
 40
0.317923
 50
-43.025444
 51
-24.433765
  6
CONTINUOUS
  0
ARC
  8
WHITE
 10
8.082248
 20
4.405061
 30
0.000000
 40
0.095455
 50
-96.759773
 51
-40.393614
  6
CONTINUOUS
  0
ARC
  8
WHITE
 10
6.177449
 20
5.423118
 30
0.000000
 40
2.196363
 50
-38.925515
 51
-30.442783
  6
CONTINUOUS
  0
ARC
  8
WHITE
 10
7.842700
 20
3.466520
 30
0.000000
 40
0.578235
 50
85.691608
 51
110.131774
  6
CONTINUOUS
  0
ARC
  8
WHITE
 10
7.909483
 20
3.674008
 30
0.000000
 40
0.427968
 50
128.394791
 51
171.938554
  6
CONTINUOUS
  0
ARC
  8
WHITE
 10
7.579908
 20
3.713666
 30
0.000000
 40
0.096339
 50
167.800747
 51
182.684751
  6
CONTINUOUS
  0
ARC
  8
WHITE
 10
7.503457
 20
3.707473
 30
0.000000
 40
0.019854
 50
175.143387
 51
249.474161
  6
CONTINUOUS
  0
ARC
  8
WHITE
 10
7.489268
 20
3.827955
 30
0.000000
 40
0.139263
 50
-87.024838
 51
-68.500285
  6
CONTINUOUS
  0
ARC
  8
WHITE
 10
7.123594
 20
4.906613
 30
0.000000
 40
1.278074
 50
-70.970921
 51
-67.632047
  6
CONTINUOUS
  0
ARC
  8
WHITE
 10
11.502446
 20
-5.537973
 30
0.000000
 40
10.047315
 50
112.179699
 51
112.793725
  6
CONTINUOUS
  0
ARC
  8
WHITE
 10
7.641377
 20
4.502312
 30
0.000000
 40
0.739567
 50
-84.718218
 51
-45.966125
  6
CONTINUOUS
  0
ARC
  8
WHITE
 10
7.895861
 20
4.508028
 30
0.000000
 40
0.596819
 50
-64.218948
 51
-47.262619
  6
CONTINUOUS
  0
ARC
  8
WHITE
 10
7.814875
 20
4.396775
 30
0.000000
 40
0.585830
 50
-33.941204
 51
-11.464656
  6
CONTINUOUS
  0
ARC
  8
WHITE
 10
8.598336
 20
4.161909
 30
0.000000
 40
0.240498
 50
128.591501
 51
150.500752
  6
CONTINUOUS
  0
ARC
  8
WHITE
 10
8.341010
 20
4.496959
 30
0.000000
 40
0.182062
 50
-53.883586
 51
-33.925848
  6
CONTINUOUS
  0
ARC
  8
WHITE
 10
8.326992
 20
4.443182
 30
0.000000
 40
0.171877
 50
-16.159680
 51
-1.604243
  6
CONTINUOUS
  0
ARC
  8
WHITE
 10
8.895028
 20
4.422155
 30
0.000000
 40
0.396558
 50
171.340233
 51
177.656506
  6
CONTINUOUS
  0
ARC
  8
WHITE
 10
8.642613
 20
4.435296
 30
0.000000
 40
0.147184
 50
89.540564
 51
161.555009
  6
CONTINUOUS
  0
ARC
  8
WHITE
 10
8.583534
 20
4.070840
 30
0.000000
 40
0.515171
 50
30.123214
 51
83.282767
  6
CONTINUOUS
  0
ARC
  8
WHITE
 10
8.973027
 20
4.303863
 30
0.000000
 40
0.061635
 50
1.818478
 51
24.460602
  6
CONTINUOUS
  0
ARC
  8
WHITE
 10
8.711103
 20
4.286680
 30
0.000000
 40
0.324094
 50
-2.497318
 51
3.385511
  6
CONTINUOUS
  0
ARC
  8
WHITE
 10
9.769610
 20
4.224132
 30
0.000000
 40
0.736315
 50
176.229007
 51
180.514267
  6
CONTINUOUS
  0
ARC
  8
WHITE
 10
9.106402
 20
4.234861
 30
0.000000
 40
0.075106
 50
-166.653163
 51
-139.862397
  6
CONTINUOUS
  0
ARC
  8
WHITE
 10
9.286877
 20
4.378703
 30
0.000000
 40
0.305869
 50
-141.056036
 51
-132.164645
  6
CONTINUOUS
  0
ARC
  8
WHITE
 10
10.419084
 20
5.652425
 30
0.000000
 40
2.010048
 50
-131.714563
 51
-128.799334
  6
CONTINUOUS
  0
ARC
  8
WHITE
 10
8.734248
 20
3.653640
 30
0.000000
 40
0.606445
 50
33.302333
 51
45.461922
  6
CONTINUOUS
  0
ARC
  8
WHITE
 10
8.931894
 20
2.955821
 30
0.000000
 40
1.076170
 50
60.715266
 51
73.302070
  6
CONTINUOUS
  0
ARC
  8
WHITE
 10
9.287257
 20
3.578183
 30
0.000000
 40
0.359564
 50
42.602597
 51
61.594783
  6
CONTINUOUS
  0
ARC
  8
WHITE
 10
9.623700
 20
4.054873
 30
0.000000
 40
0.244091
 50
-107.101796
 51
-85.813009
  6
CONTINUOUS
  0
ARC
  8
WHITE
 10
9.636921
 20
3.845946
 30
0.000000
 40
0.034818
 50
-82.407707
 51
-22.048742
  6
CONTINUOUS
  0
ARC
  8
WHITE
 10
9.547406
 20
3.893225
 30
0.000000
 40
0.135919
 50
-26.359926
 51
-8.460188
  6
CONTINUOUS
  0
ARC
  8
WHITE
 10
9.662596
 20
3.879944
 30
0.000000
 40
0.020389
 50
-19.232456
 51
98.462115
  6
CONTINUOUS
  0
ARC
  8
WHITE
 10
9.684484
 20
3.807495
 30
0.000000
 40
0.095902
 50
105.041739
 51
112.432322
  6
CONTINUOUS
  0
ARC
  8
WHITE
 10
9.630343
 20
3.943378
 30
0.000000
 40
0.050391
 50
-93.609993
 51
-69.623321
  6
CONTINUOUS
  0
ARC
  8
WHITE
 10
9.645838
 20
3.970417
 30
0.000000
 40
0.079551
 50
-159.878417
 51
-103.571422
  6
CONTINUOUS
  0
ARC
  8
WHITE
 10
9.705244
 20
3.619305
 30
0.000000
 40
0.350420
 50
112.500378
 51
121.435999
  6
CONTINUOUS
  0
ARC
  8
WHITE
 10
9.516168
 20
3.925368
 30
0.000000
 40
0.009486
 50
-129.370337
 51
-48.249684
  6
CONTINUOUS
  0
ARC
  8
WHITE
 10
9.554308
 20
3.936264
 30
0.000000
 40
0.047771
 50
178.509744
 51
202.431280
  6
CONTINUOUS
  0
ARC
  8
WHITE
 10
9.140137
 20
3.934255
 30
0.000000
 40
0.366430
 50
0.508410
 51
7.505131
  6
CONTINUOUS
  0
ARC
  8
WHITE
 10
9.530450
 20
3.889329
 30
0.000000
 40
0.096641
 50
106.237344
 51
129.317944
  6
CONTINUOUS
  0
ARC
  8
WHITE
 10
9.427999
 20
4.013947
 30
0.000000
 40
0.064683
 50
-84.677987
 51
-50.416330
  6
CONTINUOUS
  0
ARC
  8
WHITE
 10
9.432446
 20
3.961067
 30
0.000000
 40
0.011629
 50
-145.467194
 51
-82.326975
  6
CONTINUOUS
  0
ARC
  8
WHITE
 10
9.440931
 20
3.958623
 30
0.000000
 40
0.018535
 50
151.225880
 51
192.931452
  6
CONTINUOUS
  0
ARC
  8
WHITE
 10
9.651758
 20
3.843938
 30
0.000000
 40
0.258536
 50
139.923615
 51
151.438562
  6
CONTINUOUS
  0
ARC
  8
WHITE
 10
9.088484
 20
4.336269
 30
0.000000
 40
0.489643
 50
-41.724730
 51
-27.668728
  6
CONTINUOUS
  0
ARC
  8
WHITE
 10
9.506137
 20
4.116269
 30
0.000000
 40
0.017614
 50
-24.734532
 51
58.229937
  6
CONTINUOUS
  0
ARC
  8
WHITE
 10
9.532712
 20
4.173970
 30
0.000000
 40
0.046096
 50
-157.738281
 51
-112.043862
  6
CONTINUOUS
  0
ARC
  8
WHITE
 10
9.523642
 20
4.160496
 30
0.000000
 40
0.033826
 50
139.357448
 51
186.771900
  6
CONTINUOUS
  0
ARC
  8
WHITE
 10
7.239787
 20
6.374617
 30
0.000000
 40
3.147168
 50
-44.149044
 51
-42.795782
  6
CONTINUOUS
  0
ARC
  8
WHITE
 10
9.524847
 20
4.261133
 30
0.000000
 40
0.034601
 50
-45.460501
 51
27.732615
  6
CONTINUOUS
  0
ARC
  8
WHITE
 10
9.717859
 20
4.418735
 30
0.000000
 40
0.215388
 50
-147.258877
 51
-138.931639
  6
CONTINUOUS
  0
ARC
  8
WHITE
 10
9.551436
 20
4.310954
 30
0.000000
 40
0.017125
 50
104.622959
 51
210.573009
  6
CONTINUOUS
  0
ARC
  8
WHITE
 10
9.595288
 20
4.230562
 30
0.000000
 40
0.108271
 50
106.167547
 51
116.420381
  6
CONTINUOUS
  0
ARC
  8
WHITE
 10
9.558618
 20
4.359958
 30
0.000000
 40
0.026231
 50
-75.602769
 51
-46.126095
  6
CONTINUOUS
  0
ARC
  8
WHITE
 10
9.530435
 20
4.366273
 30
0.000000
 40
0.052780
 50
-28.548429
 51
6.220686
  6
CONTINUOUS
  0
ARC
  8
WHITE
 10
9.570212
 20
4.374177
 30
0.000000
 40
0.012880
 50
-9.768294
 51
53.425463
  6
CONTINUOUS
  0
ARC
  8
WHITE
 10
9.574136
 20
4.364790
 30
0.000000
 40
0.020084
 50
79.237074
 51
116.473452
  6
CONTINUOUS
  0
ARC
  8
WHITE
 10
9.511705
 20
4.487899
 30
0.000000
 40
0.117950
 50
-80.877086
 51
-63.038569
  6
CONTINUOUS
  0
ARC
  8
WHITE
 10
9.528547
 20
4.382475
 30
0.000000
 40
0.011190
 50
149.787262
 51
279.566932
  6
CONTINUOUS
  0
ARC
  8
WHITE
 10
9.707070
 20
4.319991
 30
0.000000
 40
0.200142
 50
147.494778
 51
160.102707
  6
CONTINUOUS
  0
ARC
  8
WHITE
 10
9.317428
 20
4.581708
 30
0.000000
 40
0.269340
 50
-34.916570
 51
-12.575503
  6
CONTINUOUS
  0
ARC
  8
WHITE
 10
9.546091
 20
4.524809
 30
0.000000
 40
0.034259
 50
-2.917551
 51
13.911316
  6
CONTINUOUS
  0
ARC
  8
WHITE
 10
9.575233
 20
4.530842
 30
0.000000
 40
0.004665
 50
28.196611
 51
100.907227
  6
CONTINUOUS
  0
ARC
  8
WHITE
 10
9.537133
 20
4.812386
 30
0.000000
 40
0.279453
 50
-89.789989
 51
-82.346675
  6
CONTINUOUS
  0
ARC
  8
WHITE
 10
9.536869
 20
4.547286
 30
0.000000
 40
0.014409
 50
-133.806051
 51
-84.868864
  6
CONTINUOUS
  0
ARC
  8
WHITE
 10
9.538292
 20
4.543652
 30
0.000000
 40
0.013253
 50
163.289741
 51
210.688774
  6
CONTINUOUS
  0
ARC
  8
WHITE
 10
9.665697
 20
4.500813
 30
0.000000
 40
0.147660
 50
146.472616
 51
161.583697
  6
CONTINUOUS
  0
ARC
  8
WHITE
 10
9.317155
 20
4.743958
 30
0.000000
 40
0.277376
 50
-35.630370
 51
-16.649065
  6
CONTINUOUS
  0
ARC
  8
WHITE
 10
9.219167
 20
4.690711
 30
0.000000
 40
0.364680
 50
-4.123658
 51
-1.528978
  6
CONTINUOUS
  0
ARC
  8
WHITE
 10
9.574082
 20
4.681641
 30
0.000000
 40
0.009657
 50
-3.918486
 51
49.792151
  6
CONTINUOUS
  0
ARC
  8
WHITE
 10
9.518531
 20
4.535503
 30
0.000000
 40
0.165480
 50
68.076248
 51
80.469864
  6
CONTINUOUS
  0
ARC
  8
WHITE
 10
9.547483
 20
4.711023
 30
0.000000
 40
0.012421
 50
148.686218
 51
262.810322
  6
CONTINUOUS
  0
ARC
  8
WHITE
 10
9.684339
 20
4.648440
 30
0.000000
 40
0.162828
 50
139.954432
 51
154.912876
  6
CONTINUOUS
  0
ARC
  8
WHITE
 10
9.087021
 20
5.162078
 30
0.000000
 40
0.624976
 50
-40.860995
 51
-30.863377
  6
CONTINUOUS
  0
ARC
  8
WHITE
 10
9.592458
 20
4.860692
 30
0.000000
 40
0.036507
 50
-31.769718
 51
33.144168
  6
CONTINUOUS
  0
ARC
  8
WHITE
 10
9.726695
 20
4.992812
 30
0.000000
 40
0.152733
 50
-158.939983
 51
-132.747355
  6
CONTINUOUS
  0
ARC
  8
WHITE
 10
9.668360
 20
4.894700
 30
0.000000
 40
0.094644
 50
126.340206
 51
152.823290
  6
CONTINUOUS
  0
ARC
  8
WHITE
 10
9.523379
 20
5.108182
 30
0.000000
 40
0.163519
 50
-57.067763
 51
-41.830454
  6
CONTINUOUS
  0
ARC
  8
WHITE
 10
9.534964
 20
5.073127
 30
0.000000
 40
0.132788
 50
-33.868118
 51
-6.510665
  6
CONTINUOUS
  0
ARC
  8
WHITE
 10
10.135998
 20
4.994800
 30
0.000000
 40
0.473350
 50
164.405614
 51
172.318607
  6
CONTINUOUS
  0
ARC
  8
WHITE
 10
9.709331
 20
5.115218
 30
0.000000
 40
0.030045
 50
96.325381
 51
166.860279
  6
CONTINUOUS
  0
ARC
  8
WHITE
 10
9.704897
 20
5.123176
 30
0.000000
 40
0.021933
 50
0.273618
 51
87.065285
  6
CONTINUOUS
  0
ARC
  8
WHITE
 10
9.514218
 20
5.103115
 30
0.000000
 40
0.213566
 50
-8.249662
 51
5.418137
  6
CONTINUOUS
  0
ARC
  8
WHITE
 10
9.942253
 20
5.024088
 30
0.000000
 40
0.222014
 50
167.412516
 51
192.750882
  6
CONTINUOUS
  0
ARC
  8
WHITE
 10
8.982523
 20
4.389946
 30
0.000000
 40
0.945898
 50
32.716746
 51
38.214595
  6
CONTINUOUS
  0
ARC
  8
WHITE
 10
9.769890
 20
4.899039
 30
0.000000
 40
0.008735
 50
-80.551382
 51
14.259161
  6
CONTINUOUS
  0
ARC
  8
WHITE
 10
8.526418
 20
8.502072
 30
0.000000
 40
3.820183
 50
-71.536978
 51
-70.981348
  6
CONTINUOUS
  0
ARC
  8
WHITE
 10
9.737625
 20
4.867720
 30
0.000000
 40
0.010889
 50
97.298308
 51
221.048640
  6
CONTINUOUS
  0
ARC
  8
WHITE
 10
9.855719
 20
4.951208
 30
0.000000
 40
0.155463
 50
-144.336178
 51
-129.888747
  6
CONTINUOUS
  0
ARC
  8
WHITE
 10
9.582189
 20
4.608883
 30
0.000000
 40
0.282780
 50
32.757717
 51
52.068076
  6
CONTINUOUS
  0
ARC
  8
WHITE
 10
9.803833
 20
4.755221
 30
0.000000
 40
0.017488
 50
-51.395043
 51
22.424816
  6
CONTINUOUS
  0
ARC
  8
WHITE
 10
9.802245
 20
4.759530
 30
0.000000
 40
0.021893
 50
-89.390754
 51
-55.188034
  6
CONTINUOUS
  0
LINE
  8
WHITE
 10
9.802478
 20
4.737637
 30
0.000000
 11
9.789332
 21
4.737325
 31
0.000000
  6
CONTINUOUS
  0
ARC
  8
WHITE
 10
9.789123
 20
4.628732
 30
0.000000
 40
0.108593
 50
89.889860
 51
96.535980
  6
CONTINUOUS
  0
ARC
  8
WHITE
 10
9.777774
 20
4.723726
 30
0.000000
 40
0.012933
 50
94.484404
 51
148.662953
  6
CONTINUOUS
  0
ARC
  8
WHITE
 10
9.830123
 20
4.703432
 30
0.000000
 40
0.068913
 50
156.915884
 51
177.750577
  6
CONTINUOUS
  0
ARC
  8
WHITE
 10
9.198016
 20
4.085619
 30
0.000000
 40
0.838027
 50
40.486127
 51
47.769837
  6
CONTINUOUS
  0
ARC
  8
WHITE
 10
9.823588
 20
4.619593
 30
0.000000
 40
0.015550
 50
-62.574493
 51
40.635087
  6
CONTINUOUS
  0
ARC
  8
WHITE
 10
9.636392
 20
4.920298
 30
0.000000
 40
0.369716
 50
-60.482647
 51
-58.284811
  6
CONTINUOUS
  0
ARC
  8
WHITE
 10
9.826429
 20
4.583980
 30
0.000000
 40
0.016582
 50
118.385910
 51
148.792805
  6
CONTINUOUS
  0
ARC
  8
WHITE
 10
9.916178
 20
4.562106
 30
0.000000
 40
0.108305
 50
163.662454
 51
180.355520
  6
CONTINUOUS
  0
LINE
  8
WHITE
 10
9.807876
 20
4.561434
 30
0.000000
 11
9.889345
 21
4.510516
 31
0.000000
  6
CONTINUOUS
  0
ARC
  8
WHITE
 10
9.735208
 20
4.697033
 30
0.000000
 40
0.241965
 50
-64.073209
 51
-50.429890
  6
CONTINUOUS
  0
ARC
  8
WHITE
 10
9.800280
 20
4.563361
 30
0.000000
 40
0.093295
 50
-74.968267
 51
-64.121027
  6
CONTINUOUS
  0
ARC
  8
WHITE
 10
9.826613
 20
4.459185
 30
0.000000
 40
0.014234
 50
98.631368
 51
129.574834
  6
CONTINUOUS
  0
ARC
  8
WHITE
 10
9.901592
 20
4.432027
 30
0.000000
 40
0.092292
 50
155.597800
 51
169.843077
  6
CONTINUOUS
  0
ARC
  8
WHITE
 10
9.508093
 20
4.036560
 30
0.000000
 40
0.511009
 50
40.413276
 51
53.682060
  6
CONTINUOUS
  0
ARC
  8
WHITE
 10
9.878538
 20
4.353673
 30
0.000000
 40
0.023409
 50
-39.849802
 51
37.260771
  6
CONTINUOUS
  0
ARC
  8
WHITE
 10
10.131163
 20
4.094580
 30
0.000000
 40
0.338590
 50
133.870388
 51
139.411668
  6
CONTINUOUS
  0
ARC
  8
WHITE
 10
9.930901
 20
4.278437
 30
0.000000
 40
0.067536
 50
147.349870
 51
168.059143
  6
CONTINUOUS
  0
LINE
  8
WHITE
 10
9.864826
 20
4.292411
 30
0.000000
 11
9.941864
 21
4.245637
 31
0.000000
  6
CONTINUOUS
  0
ARC
  8
WHITE
 10
9.874237
 20
4.282353
 30
0.000000
 40
0.076951
 50
-68.014490
 51
-28.498075
  6
CONTINUOUS
  0
ARC
  8
WHITE
 10
9.893916
 20
4.246256
 30
0.000000
 40
0.036421
 50
-112.087721
 51
-75.483745
  6
CONTINUOUS
  0
ARC
  8
WHITE
 10
9.812710
 20
4.093482
 30
0.000000
 40
0.136839
 50
60.438296
 51
78.705831
  6
CONTINUOUS
  0
ARC
  8
WHITE
 10
9.836909
 20
4.214666
 30
0.000000
 40
0.013262
 50
78.690411
 51
159.564305
  6
CONTINUOUS
  0
ARC
  8
WHITE
 10
9.847449
 20
4.222086
 30
0.000000
 40
0.023137
 50
-173.074705
 51
-128.853066
  6
CONTINUOUS
  0
ARC
  8
WHITE
 10
10.095654
 20
4.502488
 30
0.000000
 40
0.397587
 50
-131.359721
 51
-121.689702
  6
CONTINUOUS
  0
ARC
  8
WHITE
 10
9.277585
 20
3.139370
 30
0.000000
 40
1.192211
 50
49.595626
 51
59.270136
  6
CONTINUOUS
  0
ARC
  8
WHITE
 10
10.005989
 20
4.057068
 30
0.000000
 40
0.045440
 50
-45.954660
 51
-12.509368
  6
CONTINUOUS
  0
ARC
  8
WHITE
 10
10.661184
 20
3.322210
 30
0.000000
 40
0.939128
 50
131.607546
 51
134.341901
  6
CONTINUOUS
  0
LINE
  8
WHITE
 10
10.004791
 20
3.993857
 30
0.000000
 11
10.090770
 21
3.910484
 31
0.000000
  6
CONTINUOUS
  0
ARC
  8
WHITE
 10
10.043402
 20
3.961776
 30
0.000000
 40
0.069818
 50
-112.147097
 51
-47.277840
  6
CONTINUOUS
  0
ARC
  8
WHITE
 10
10.233179
 20
4.519795
 30
0.000000
 40
0.659117
 50
-113.514499
 51
-109.138835
  6
CONTINUOUS
  0
ARC
  8
WHITE
 10
10.038064
 20
3.451972
 30
0.000000
 40
0.468382
 50
98.330510
 51
102.067723
  6
CONTINUOUS
  0
ARC
  8
WHITE
 10
9.930005
 20
3.956173
 30
0.000000
 40
0.047270
 50
-113.349059
 51
-77.618190
  6
CONTINUOUS
  0
ARC
  8
WHITE
 10
10.018942
 20
4.100799
 30
0.000000
 40
0.216671
 50
-129.556087
 51
-119.797316
  6
CONTINUOUS
  0
ARC
  8
WHITE
 10
9.844941
 20
3.892920
 30
0.000000
 40
0.054442
 50
48.580368
 51
86.814152
  6
CONTINUOUS
  0
ARC
  8
WHITE
 10
9.847269
 20
3.941621
 30
0.000000
 40
0.005699
 50
82.967654
 51
196.584200
  6
CONTINUOUS
  0
ARC
  8
WHITE
 10
9.917031
 20
3.953754
 30
0.000000
 40
0.076473
 50
-169.634432
 51
-155.376591
  6
CONTINUOUS
  0
ARC
  8
WHITE
 10
9.707462
 20
3.852386
 30
0.000000
 40
0.156349
 50
9.629364
 51
26.394648
  6
CONTINUOUS
  0
ARC
  8
WHITE
 10
9.852556
 20
3.876974
 30
0.000000
 40
0.009187
 50
-97.421689
 51
9.808542
  6
CONTINUOUS
  0
ARC
  8
WHITE
 10
9.863500
 20
3.946138
 30
0.000000
 40
0.079208
 50
-117.001443
 51
-98.809340
  6
CONTINUOUS
  0
ARC
  8
WHITE
 10
9.747139
 20
3.734318
 30
0.000000
 40
0.162525
 50
60.350935
 51
79.861769
  6
CONTINUOUS
  0
ARC
  8
WHITE
 10
9.777778
 20
3.882339
 30
0.000000
 40
0.012138
 50
99.632649
 51
164.968198
  6
CONTINUOUS
  0
ARC
  8
WHITE
 10
9.816873
 20
3.871260
 30
0.000000
 40
0.052771
 50
164.359481
 51
184.705813
  6
CONTINUOUS
  0
ARC
  8
WHITE
 10
10.007528
 20
3.886705
 30
0.000000
 40
0.244051
 50
-175.352420
 51
-165.113859
  6
CONTINUOUS
  0
ARC
  8
WHITE
 10
9.820233
 20
3.832628
 30
0.000000
 40
0.049324
 50
-169.936393
 51
-147.337573
  6
CONTINUOUS
  0
ARC
  8
WHITE
 10
9.790564
 20
3.816551
 30
0.000000
 40
0.015865
 50
-138.350928
 51
-88.287495
  6
CONTINUOUS
  0
ARC
  8
WHITE
 10
11.410507
 20
-13.601858
 30
0.000000
 40
17.477742
 50
95.113102
 51
95.316593
  6
CONTINUOUS
  0
ARC
  8
WHITE
 10
9.934977
 20
3.135960
 30
0.000000
 40
0.675386
 50
70.796268
 51
96.984009
  6
CONTINUOUS
  0
ARC
  8
WHITE
 10
10.365052
 20
3.631832
 30
0.000000
 40
0.251746
 50
145.681600
 51
153.614148
  6
CONTINUOUS
  0
ARC
  8
WHITE
 10
10.159526
 20
3.738040
 30
0.000000
 40
0.020783
 50
164.162661
 51
231.937133
  6
CONTINUOUS
  0
ARC
  8
WHITE
 10
10.193003
 20
3.540493
 30
0.000000
 40
0.187003
 50
60.620488
 51
104.331834
  6
CONTINUOUS
  0
ARC
  8
WHITE
 10
10.564758
 20
6.074334
 30
0.000000
 40
2.387366
 50
-96.735688
 51
-88.469432
  6
CONTINUOUS
  0
ARC
  8
WHITE
 10
3.338044
 20
3.329677
 30
0.000000
 40
7.299273
 50
2.812377
 51
3.362575
  6
CONTINUOUS
  0
ARC
  8
WHITE
 10
10.576436
 20
3.760784
 30
0.000000
 40
0.048405
 50
-3.521221
 51
56.974149
  6
CONTINUOUS
  0
ARC
  8
WHITE
 10
10.589669
 20
3.744619
 30
0.000000
 40
0.058253
 50
76.954935
 51
118.778022
  6
CONTINUOUS
  0
ARC
  8
WHITE
 10
9.321938
 20
5.948182
 30
0.000000
 40
2.483970
 50
-61.913189
 51
-60.061181
  6
CONTINUOUS
  0
ARC
  8
WHITE
 10
10.492468
 20
3.773097
 30
0.000000
 40
0.016394
 50
-168.245685
 51
-93.686494
  6
CONTINUOUS
  0
ARC
  8
WHITE
 10
10.542368
 20
3.783520
 30
0.000000
 40
0.067372
 50
169.502925
 51
191.787816
  6
CONTINUOUS
  0
ARC
  8
WHITE
 10
10.954833
 20
3.704020
 30
0.000000
 40
0.487427
 50
163.842084
 51
169.147350
  6
CONTINUOUS
  0
ARC
  8
WHITE
 10
10.178134
 20
3.851567
 30
0.000000
 40
0.308755
 50
-2.209348
 51
2.309819
  6
CONTINUOUS
  0
ARC
  8
WHITE
 10
10.475644
 20
3.863053
 30
0.000000
 40
0.011036
 50
4.975661
 51
60.939086
  6
CONTINUOUS
  0
ARC
  8
WHITE
 10
10.466084
 20
3.848735
 30
0.000000
 40
0.028230
 50
58.093901
 51
82.300616
  6
CONTINUOUS
  0
ARC
  8
WHITE
 10
10.468020
 20
3.860743
 30
0.000000
 40
0.016074
 50
83.403462
 51
134.348971
  6
CONTINUOUS
  0
ARC
  8
WHITE
 10
10.495392
 20
3.833565
 30
0.000000
 40
0.054646
 50
134.952613
 51
154.821211
  6
CONTINUOUS
  0
ARC
  8
WHITE
 10
10.832760
 20
3.685599
 30
0.000000
 40
0.423020
 50
156.124847
 51
163.467591
  6
CONTINUOUS
  0
ARC
  8
WHITE
 10
10.396212
 20
3.814838
 30
0.000000
 40
0.032258
 50
-68.613662
 51
-15.952261
  6
CONTINUOUS
  0
ARC
  8
WHITE
 10
10.394141
 20
3.813749
 30
0.000000
 40
0.032084
 50
-105.778113
 51
-64.455962
  6
CONTINUOUS
  0
ARC
  8
WHITE
 10
10.394753
 20
3.808767
 30
0.000000
 40
0.027525
 50
165.343360
 51
250.171589
  6
CONTINUOUS
  0
ARC
  8
WHITE
 10
10.581022
 20
3.780472
 30
0.000000
 40
0.215798
 50
152.564959
 51
170.596273
  6
CONTINUOUS
  0
ARC
  8
WHITE
 10
11.088944
 20
3.527098
 30
0.000000
 40
0.783390
 50
140.405536
 51
153.233707
  6
CONTINUOUS
  0
ARC
  8
WHITE
 10
10.448673
 20
4.012957
 30
0.000000
 40
0.038997
 50
20.149367
 51
38.607130
  6
CONTINUOUS
  0
ARC
  8
WHITE
 10
10.469995
 20
4.029835
 30
0.000000
 40
0.011805
 50
39.167258
 51
79.577418
  6
CONTINUOUS
  0
ARC
  8
WHITE
 10
10.474007
 20
4.013662
 30
0.000000
 40
0.027846
 50
93.864699
 51
135.310539
  6
CONTINUOUS
  0
ARC
  8
WHITE
 10
9.278348
 20
5.227010
 30
0.000000
 40
1.675627
 50
-48.249439
 51
-45.432861
  6
CONTINUOUS
  0
ARC
  8
WHITE
 10
10.405773
 20
4.000735
 30
0.000000
 40
0.026520
 50
172.608778
 51
243.958076
  6
CONTINUOUS
  0
ARC
  8
WHITE
 10
10.461933
 20
3.996355
 30
0.000000
 40
0.082827
 50
148.038018
 51
174.602547
  6
CONTINUOUS
  0
ARC
  8
WHITE
 10
10.619512
 20
3.826608
 30
0.000000
 40
0.312310
 50
132.309927
 51
136.849792
  6
CONTINUOUS
  0
ARC
  8
WHITE
 10
10.328792
 20
4.145215
 30
0.000000
 40
0.119002
 50
-47.437889
 51
-30.704765
  6
CONTINUOUS
  0
ARC
  8
WHITE
 10
10.418077
 20
4.093181
 30
0.000000
 40
0.015688
 50
-33.810498
 51
42.763814
  6
CONTINUOUS
  0
ARC
  8
WHITE
 10
10.526219
 20
4.206127
 30
0.000000
 40
0.140715
 50
-160.186266
 51
-133.367545
  6
CONTINUOUS
  0
ARC
  8
WHITE
 10
10.437877
 20
4.179726
 30
0.000000
 40
0.048920
 50
142.363075
 51
205.805733
  6
CONTINUOUS
  0
ARC
  8
WHITE
 10
10.275090
 20
4.327008
 30
0.000000
 40
0.170799
 50
-43.425103
 51
-11.925223
  6
CONTINUOUS
  0
ARC
  8
WHITE
 10
10.606414
 20
4.231775
 30
0.000000
 40
0.174808
 50
148.316357
 51
159.946981
  6
CONTINUOUS
  0
ARC
  8
WHITE
 10
10.446607
 20
4.332177
 30
0.000000
 40
0.013996
 50
-37.848151
 51
11.738525
  6
CONTINUOUS
  0
ARC
  8
WHITE
 10
10.449089
 20
4.331753
 30
0.000000
 40
0.011688
 50
16.252601
 51
104.970833
  6
CONTINUOUS
  0
ARC
  8
WHITE
 10
10.462575
 20
4.258797
 30
0.000000
 40
0.085849
 50
101.084475
 51
118.791942
  6
CONTINUOUS
  0
ARC
  8
WHITE
 10
9.822390
 20
5.374118
 30
0.000000
 40
1.200160
 50
-62.296662
 51
-60.068469
  6
CONTINUOUS
  0
ARC
  8
WHITE
 10
10.376433
 20
4.325122
 30
0.000000
 40
0.014135
 50
-140.020362
 51
-73.968181
  6
CONTINUOUS
  0
ARC
  8
WHITE
 10
10.389951
 20
4.326413
 30
0.000000
 40
0.026467
 50
164.391127
 51
203.073059
  6
CONTINUOUS
  0
ARC
  8
WHITE
 10
10.608099
 20
4.264537
 30
0.000000
 40
0.253220
 50
149.957098
 51
164.188205
  6
CONTINUOUS
  0
ARC
  8
WHITE
 10
11.734436
 20
3.630335
 30
0.000000
 40
1.545819
 50
146.445112
 51
150.509409
  6
CONTINUOUS
  0
ARC
  8
WHITE
 10
10.478855
 20
4.531062
 30
0.000000
 40
0.056645
 50
162.972735
 51
234.819003
  6
CONTINUOUS
  0
ARC
  8
WHITE
 10
10.407868
 20
4.553110
 30
0.000000
 40
0.017689
 50
-17.982211
 51
72.316843
  6
CONTINUOUS
  0
ARC
  8
WHITE
 10
11.299263
 20
6.580352
 30
0.000000
 40
2.196975
 50
-114.828503
 51
-113.784125
  6
CONTINUOUS
  0
ARC
  8
WHITE
 10
10.395711
 20
4.623084
 30
0.000000
 40
0.041256
 50
-149.203459
 51
-117.369431
  6
CONTINUOUS
  0
ARC
  8
WHITE
 10
9.678787
 20
5.180012
 30
0.000000
 40
0.893625
 50
-40.305295
 51
-32.530057
  6
CONTINUOUS
  0
ARC
  8
WHITE
 10
10.385125
 20
4.744536
 30
0.000000
 40
0.065174
 50
-43.743187
 51
-16.612018
  6
CONTINUOUS
  0
ARC
  8
WHITE
 10
10.399657
 20
4.745561
 30
0.000000
 40
0.051798
 50
-22.303431
 51
-9.688841
  6
CONTINUOUS
  0
ARC
  8
WHITE
 10
10.440079
 20
4.739058
 30
0.000000
 40
0.010865
 50
-11.758516
 51
44.229983
  6
CONTINUOUS
  0
ARC
  8
WHITE
 10
10.435560
 20
4.726901
 30
0.000000
 40
0.023257
 50
58.056292
 51
120.882273
  6
CONTINUOUS
  0
ARC
  8
WHITE
 10
10.461237
 20
4.667459
 30
0.000000
 40
0.087861
 50
115.348207
 51
130.228399
  6
CONTINUOUS
  0
ARC
  8
WHITE
 10
10.382126
 20
4.758094
 30
0.000000
 40
0.032484
 50
-90.474243
 51
-46.481221
  6
CONTINUOUS
  0
ARC
  8
WHITE
 10
10.381788
 20
4.742569
 30
0.000000
 40
0.016957
 50
-125.350687
 51
-89.767052
  6
CONTINUOUS
  0
ARC
  8
WHITE
 10
10.482692
 20
4.834092
 30
0.000000
 40
0.152832
 50
-143.226215
 51
-136.421270
  6
CONTINUOUS
  0
ARC
  8
WHITE
 10
9.717574
 20
5.338475
 30
0.000000
 40
0.876430
 50
-42.835051
 51
-34.318390
  6
CONTINUOUS
  0
ARC
  8
WHITE
 10
10.424874
 20
4.852932
 30
0.000000
 40
0.018651
 50
-27.393635
 51
57.237947
  6
CONTINUOUS
  0
ARC
  8
WHITE
 10
10.369053
 20
4.757497
 30
0.000000
 40
0.129198
 50
59.324311
 51
64.196192
  6
CONTINUOUS
  0
LINE
  8
WHITE
 10
10.425291
 20
4.873813
 30
0.000000
 11
10.421762
 21
4.877597
 31
0.000000
  6
CONTINUOUS
  0
ARC
  8
WHITE
 10
10.470274
 20
4.866187
 30
0.000000
 40
0.049836
 50
147.952870
 51
166.764233
  6
CONTINUOUS
  0
ARC
  8
WHITE
 10
10.125656
 20
5.111569
 30
0.000000
 40
0.373317
 50
-35.906774
 51
-24.038731
  6
CONTINUOUS
  0
ARC
  8
WHITE
 10
10.450598
 20
4.968526
 30
0.000000
 40
0.018370
 50
-29.440173
 51
88.493577
  6
CONTINUOUS
  0
ARC
  8
WHITE
 10
10.460971
 20
5.060082
 30
0.000000
 40
0.073858
 50
-123.675781
 51
-97.695757
  6
CONTINUOUS
  0
ARC
  8
WHITE
 10
10.430184
 20
5.011383
 30
0.000000
 40
0.016319
 50
114.687042
 51
231.463318
  6
CONTINUOUS
  0
ARC
  8
WHITE
 10
9.667186
 20
5.903890
 30
0.000000
 40
1.158505
 50
-49.252800
 51
-45.799217
  6
CONTINUOUS
  0
ARC
  8
WHITE
 10
10.554519
 20
5.182024
 30
0.000000
 40
0.134734
 50
-142.861694
 51
-126.241196
  6
CONTINUOUS
  0
ARC
  8
WHITE
 10
10.466999
 20
5.116039
 30
0.000000
 40
0.025128
 50
170.128698
 51
217.679774
  6
CONTINUOUS
  0
ARC
  8
WHITE
 10
10.495362
 20
5.094644
 30
0.000000
 40
0.059011
 50
120.612490
 51
154.178926
  6
CONTINUOUS
  0
ARC
  8
WHITE
 10
10.423869
 20
5.232774
 30
0.000000
 40
0.096677
 50
-64.616566
 51
-2.203301
  6
CONTINUOUS
  0
ARC
  8
WHITE
 10
10.459368
 20
5.231355
 30
0.000000
 40
0.061149
 50
-2.153711
 51
4.881507
  6
CONTINUOUS
  0
ARC
  8
WHITE
 10
10.512730
 20
5.235674
 30
0.000000
 40
0.007618
 50
6.667586
 51
53.570411
  6
CONTINUOUS
  0
ARC
  8
WHITE
 10
10.488999
 20
5.183243
 30
0.000000
 40
0.065020
 50
64.243591
 51
86.729221
  6
CONTINUOUS
  0
ARC
  8
WHITE
 10
10.258096
 20
3.636251
 30
0.000000
 40
1.628891
 50
81.718732
 51
91.216482
  6
CONTINUOUS
  0
ARC
  8
WHITE
 10
10.297394
 20
5.452100
 30
0.000000
 40
0.201368
 50
-130.592903
 51
-111.523911
  6
CONTINUOUS
  0
ARC
  8
WHITE
 10
10.041419
 20
5.153478
 30
0.000000
 40
0.191950
 50
49.386917
 51
69.355697
  6
CONTINUOUS
  0
ARC
  8
WHITE
 10
10.045163
 20
4.933951
 30
0.000000
 40
0.404239
 50
80.900454
 51
91.421545
  6
CONTINUOUS
  0
ARC
  8
WHITE
 10
10.030201
 20
5.393338
 30
0.000000
 40
0.055494
 50
-148.525276
 51
-84.898910
  6
CONTINUOUS
  0
ARC
  8
WHITE
 10
10.022536
 20
5.373494
 30
0.000000
 40
0.040701
 50
135.492363
 51
192.962538
  6
CONTINUOUS
  0
ARC
  8
WHITE
 10
10.038832
 20
5.366311
 30
0.000000
 40
0.057703
 50
96.333306
 51
141.762102
  6
CONTINUOUS
  0
ARC
  8
WHITE
 10
10.031956
 20
5.315081
 30
0.000000
 40
0.108583
 50
69.444016
 51
89.730432
  6
CONTINUOUS
  0
ARC
  8
WHITE
 10
10.135918
 20
5.601264
 30
0.000000
 40
0.195907
 50
-109.636924
 51
-96.760586
  6
CONTINUOUS
  0
ARC
  8
WHITE
 10
10.005762
 20
5.452728
 30
0.000000
 40
0.116558
 50
-23.249168
 51
5.059501
  6
CONTINUOUS
  0
ARC
  8
WHITE
 10
10.146222
 20
5.461912
 30
0.000000
 40
0.024380
 50
85.388060
 51
177.424530
  6
CONTINUOUS
  0
ARC
  8
WHITE
 10
10.142553
 20
5.286612
 30
0.000000
 40
0.199680
 50
70.017104
 51
88.384587
  6
CONTINUOUS
  0
ARC
  8
WHITE
 10
8.283667
 20
0.331143
 30
0.000000
 40
5.492320
 50
67.535168
 51
69.459069
  6
CONTINUOUS
  0
ARC
  8
WHITE
 10
10.467291
 20
5.776846
 30
0.000000
 40
0.379788
 50
-102.920357
 51
-82.643096
  6
CONTINUOUS
  0
ARC
  8
WHITE
 10
10.505992
 20
5.453587
 30
0.000000
 40
0.054318
 50
-79.465441
 51
-21.286751
  6
CONTINUOUS
  0
ARC
  8
WHITE
 10
10.428459
 20
5.493961
 30
0.000000
 40
0.141535
 50
-25.124471
 51
0.370300
  6
CONTINUOUS
  0
ARC
  8
WHITE
 10
10.555422
 20
5.493894
 30
0.000000
 40
0.014602
 50
3.856929
 51
32.852281
  6
CONTINUOUS
  0
ARC
  8
WHITE
 10
10.400836
 20
5.396704
 30
0.000000
 40
0.197201
 50
32.209512
 51
35.482079
  6
CONTINUOUS
  0
ARC
  8
WHITE
 10
10.747812
 20
5.639514
 30
0.000000
 40
0.226308
 50
-156.689444
 51
-145.450091
  6
CONTINUOUS
  0
LINE
  8
WHITE
 10
10.539976
 20
5.549960
 30
0.000000
 11
10.623903
 21
5.611671
 31
0.000000
  6
CONTINUOUS
  0
ARC
  8
WHITE
 10
10.497177
 20
5.589683
 30
0.000000
 40
0.128620
 50
9.843464
 51
35.133526
  6
CONTINUOUS
  0
ARC
  8
WHITE
 10
10.622227
 20
5.679740
 30
0.000000
 40
0.025531
 50
163.155430
 51
218.917523
  6
CONTINUOUS
  0
ARC
  8
WHITE
 10
10.697503
 20
5.631210
 30
0.000000
 40
0.114324
 50
131.925279
 51
150.711759
  6
CONTINUOUS
  0
ARC
  8
WHITE
 10
10.588521
 20
5.753367
 30
0.000000
 40
0.049382
 50
-48.696767
 51
-5.789360
  6
CONTINUOUS
  0
ARC
  8
WHITE
 10
10.265145
 20
5.714527
 30
0.000000
 40
0.374042
 50
5.193491
 51
18.729238
  6
CONTINUOUS
  0
ARC
  8
WHITE
 10
10.637617
 20
5.830347
 30
0.000000
 40
0.018733
 50
84.412410
 51
166.779365
  6
CONTINUOUS
  0
LINE
  8
WHITE
 10
10.639441
 20
5.848990
 30
0.000000
 11
10.664987
 21
5.852070
 31
0.000000
  6
CONTINUOUS
  0
ARC
  8
WHITE
 10
9.130709
 20
4.782651
 30
0.000000
 40
1.870205
 50
31.751437
 51
34.877165
  6
CONTINUOUS
  0
ARC
  8
WHITE
 10
10.676935
 20
5.750282
 30
0.000000
 40
0.047081
 50
-31.154391
 51
20.562838
  6
CONTINUOUS
  0
ARC
  8
WHITE
 10
10.783723
 20
5.685808
 30
0.000000
 40
0.077661
 50
148.898088
 51
178.024303
  6
CONTINUOUS
  0
ARC
  8
WHITE
 10
10.748603
 20
5.702000
 30
0.000000
 40
0.044592
 50
-162.357925
 51
-140.141557
  6
CONTINUOUS
  0
ARC
  8
WHITE
 10
10.488971
 20
5.490333
 30
0.000000
 40
0.290393
 50
35.541466
 51
39.086024
  6
CONTINUOUS
  0
ARC
  8
WHITE
 10
10.715228
 20
5.650316
 30
0.000000
 40
0.013359
 50
-29.470643
 51
41.317503
  6
CONTINUOUS
  0
ARC
  8
WHITE
 10
11.001401
 20
5.397902
 30
0.000000
 40
0.368527
 50
138.156864
 51
142.711150
  6
CONTINUOUS
  0
ARC
  8
WHITE
 10
10.729222
 20
5.609631
 30
0.000000
 40
0.023975
 50
151.236365
 51
222.607709
  6
CONTINUOUS
  0
ARC
  8
WHITE
 10
10.555323
 20
5.473365
 30
0.000000
 40
0.197037
 50
18.921808
 51
37.531972
  6
CONTINUOUS
  0
ARC
  8
WHITE
 10
10.724953
 20
5.531257
 30
0.000000
 40
0.017802
 50
-52.381952
 51
19.702931
  6
CONTINUOUS
  0
ARC
  8
WHITE
 10
10.758468
 20
5.468243
 30
0.000000
 40
0.053903
 50
114.846828
 51
160.115361
  6
CONTINUOUS
  0
ARC
  8
WHITE
 10
10.742869
 20
5.483933
 30
0.000000
 40
0.035189
 50
175.690562
 51
231.152346
  6
CONTINUOUS
  0
ARC
  8
WHITE
 10
10.660991
 20
5.383639
 30
0.000000
 40
0.094283
 50
26.789939
 51
50.630685
  6
CONTINUOUS
  0
ARC
  8
WHITE
 10
10.424060
 20
5.322336
 30
0.000000
 40
0.337455
 50
8.155959
 51
17.914175
  6
CONTINUOUS
  0
ARC
  8
WHITE
 10
10.969934
 20
5.398931
 30
0.000000
 40
0.213771
 50
-172.278639
 51
-157.333858
  6
CONTINUOUS
  0
ARC
  8
WHITE
 10
10.791848
 20
5.323689
 30
0.000000
 40
0.020459
 50
-159.585371
 51
-67.079952
  6
CONTINUOUS
  0
ARC
  8
WHITE
 10
10.883079
 20
5.133371
 30
0.000000
 40
0.190620
 50
75.146135
 51
115.900195
  6
CONTINUOUS
  0
ARC
  8
WHITE
 10
10.923941
 20
5.279351
 30
0.000000
 40
0.039099
 50
-14.452571
 51
78.185767
  6
CONTINUOUS
  0
ARC
  8
WHITE
 10
10.804881
 20
5.324097
 30
0.000000
 40
0.166117
 50
-32.967978
 51
-19.154013
  6
CONTINUOUS
  0
ARC
  8
WHITE
 10
10.951824
 20
5.235739
 30
0.000000
 40
0.007844
 50
-164.940006
 51
-92.223520
  6
CONTINUOUS
  0
ARC
  8
WHITE
 10
10.983896
 20
5.361575
 30
0.000000
 40
0.137539
 50
-103.614841
 51
-94.011231
  6
CONTINUOUS
  0
ARC
  8
WHITE
 10
11.061622
 20
6.537040
 30
0.000000
 40
1.315570
 50
-93.806947
 51
-90.358280
  6
CONTINUOUS
  0
ARC
  8
WHITE
 10
11.053671
 20
2.484420
 30
0.000000
 40
2.737076
 50
85.756873
 51
90.005760
  6
CONTINUOUS
  0
ARC
  8
WHITE
 10
11.082037
 20
4.777679
 30
0.000000
 40
0.469785
 50
58.460062
 51
68.241506
  6
CONTINUOUS
  0
ARC
  8
WHITE
 10
11.292761
 20
5.112525
 30
0.000000
 40
0.074308
 50
4.017812
 51
61.885336
  6
CONTINUOUS
  0
ARC
  8
WHITE
 10
10.809577
 20
5.190580
 30
0.000000
 40
0.562051
 50
-13.914513
 51
-7.447160
  6
CONTINUOUS
  0
ARC
  8
WHITE
 10
11.449977
 20
5.029604
 30
0.000000
 40
0.098294
 50
164.772307
 51
202.101963
  6
CONTINUOUS
  0
LINE
  8
WHITE
 10
11.358906
 20
4.992620
 30
0.000000
 11
11.618194
 21
4.992620
 31
0.000000
  6
CONTINUOUS
  0
ARC
  8
WHITE
 10
8.142351
 20
-17.292382
 30
0.000000
 40
22.554441
 50
80.638965
 51
81.134872
  6
CONTINUOUS
  0
ARC
  8
WHITE
 10
12.045690
 20
5.541812
 30
0.000000
 40
0.625807
 50
-112.031197
 51
-89.561375
  6
CONTINUOUS
  0
ARC
  8
WHITE
 10
12.058968
 20
5.044616
 30
0.000000
 40
0.128873
 50
-93.775858
 51
-82.446381
  6
CONTINUOUS
  0
ARC
  8
WHITE
 10
12.073037
 20
4.930144
 30
0.000000
 40
0.013589
 50
-77.798702
 51
-27.286474
  6
CONTINUOUS
  0
ARC
  8
WHITE
 10
12.043347
 20
4.946882
 30
0.000000
 40
0.047665
 50
-28.806350
 51
-14.033553
  6
CONTINUOUS
  0
ARC
  8
WHITE
 10
12.099106
 20
5.034099
 30
0.000000
 40
0.099233
 50
-135.195736
 51
-95.503067
  6
CONTINUOUS
  0
ARC
  8
WHITE
 10
12.056878
 20
4.966330
 30
0.000000
 40
0.028263
 50
122.138302
 51
184.380310
  6
CONTINUOUS
  0
ARC
  8
WHITE
 10
11.798672
 20
5.304962
 30
0.000000
 40
0.397704
 50
-52.306442
 51
-46.637657
  6
CONTINUOUS
  0
ARC
  8
WHITE
 10
12.038092
 20
5.053390
 30
0.000000
 40
0.050434
 50
-48.152800
 51
-4.399317
  6
CONTINUOUS
  0
ARC
  8
WHITE
 10
12.058698
 20
5.052919
 30
0.000000
 40
0.029873
 50
-6.530154
 51
23.108918
  6
CONTINUOUS
  0
ARC
  8
WHITE
 10
12.078799
 20
5.060471
 30
0.000000
 40
0.008475
 50
29.500927
 51
94.512562
  6
CONTINUOUS
  0
ARC
  8
WHITE
 10
12.094297
 20
4.996366
 30
0.000000
 40
0.074332
 50
102.560143
 51
126.587712
  6
CONTINUOUS
  0
ARC
  8
WHITE
 10
11.938634
 20
5.193750
 30
0.000000
 40
0.177092
 50
-75.253264
 51
-51.037755
  6
CONTINUOUS
  0
ARC
  8
WHITE
 10
11.985995
 20
5.045912
 30
0.000000
 40
0.023531
 50
-167.072355
 51
-95.566393
  6
CONTINUOUS
  0
ARC
  8
WHITE
 10
11.994600
 20
5.043807
 30
0.000000
 40
0.031698
 50
145.333738
 51
185.721572
  6
CONTINUOUS
  0
LINE
  8
WHITE
 10
11.968529
 20
5.061837
 30
0.000000
 11
12.115633
 21
5.190554
 31
0.000000
  6
CONTINUOUS
  0
LINE
  8
WHITE
 10
12.115633
 20
5.190554
 30
0.000000
 11
12.107820
 21
5.219202
 31
0.000000
  6
CONTINUOUS
  0
ARC
  8
WHITE
 10
12.353353
 20
4.338677
 30
0.000000
 40
0.914118
 50
105.581017
 51
110.112200
  6
CONTINUOUS
  0
ARC
  8
WHITE
 10
12.003392
 20
5.357720
 30
0.000000
 40
0.164571
 50
-89.285967
 51
-77.495427
  6
CONTINUOUS
  0
ARC
  8
WHITE
 10
12.003753
 20
5.199288
 30
0.000000
 40
0.006356
 50
173.959169
 51
285.420045
  6
CONTINUOUS
  0
ARC
  8
WHITE
 10
12.078258
 20
5.158555
 30
0.000000
 40
0.090813
 50
133.549899
 51
152.876396
  6
CONTINUOUS
  0
ARC
  8
WHITE
 10
11.455041
 20
5.799338
 30
0.000000
 40
0.803063
 50
-45.722218
 51
-32.296764
  6
CONTINUOUS
  0
ARC
  8
WHITE
 10
12.153245
 20
5.495014
 30
0.000000
 40
0.126253
 50
-120.536824
 51
-98.830452
  6
CONTINUOUS
  0
ARC
  8
WHITE
 10
12.094795
 20
5.396509
 30
0.000000
 40
0.011716
 50
148.282907
 51
240.898838
  6
CONTINUOUS
  0
ARC
  8
WHITE
 10
12.278268
 20
5.254673
 30
0.000000
 40
0.243560
 50
118.523671
 51
142.581436
  6
CONTINUOUS
  0
ARC
  8
WHITE
 10
12.018279
 20
5.736568
 30
0.000000
 40
0.303998
 50
-61.793683
 51
-43.705410
  6
CONTINUOUS
  0
ARC
  8
WHITE
 10
12.210455
 20
5.470016
 30
0.000000
 40
0.062879
 50
63.978855
 51
109.592092
  6
CONTINUOUS
  0
ARC
  8
WHITE
 10
12.163347
 20
5.602157
 30
0.000000
 40
0.077408
 50
-107.542036
 51
-70.355545
  6
CONTINUOUS
  0
ARC
  8
WHITE
 10
12.145811
 20
5.540567
 30
0.000000
 40
0.013524
 50
148.817056
 51
244.627411
  6
CONTINUOUS
  0
ARC
  8
WHITE
 10
12.259951
 20
5.491600
 30
0.000000
 40
0.137607
 50
139.899186
 51
156.000028
  6
CONTINUOUS
  0
ARC
  8
WHITE
 10
13.018749
 20
4.858418
 30
0.000000
 40
1.125884
 50
135.481111
 51
140.125132
  6
CONTINUOUS
  0
LINE
  8
WHITE
 10
12.215973
 20
5.647825
 30
0.000000
 11
12.209928
 21
5.667973
 31
0.000000
  6
CONTINUOUS
  0
ARC
  8
WHITE
 10
12.106615
 20
5.999188
 30
0.000000
 40
0.346954
 50
-82.321950
 51
-72.676136
  6
CONTINUOUS
  0
ARC
  8
WHITE
 10
12.184273
 20
5.734068
 30
0.000000
 40
0.084718
 50
-158.936229
 51
-111.684579
  6
CONTINUOUS
  0
ARC
  8
WHITE
 10
12.410391
 20
5.533873
 30
0.000000
 40
0.349207
 50
119.083988
 51
150.916017
  6
CONTINUOUS
  0
ARC
  8
WHITE
 10
12.227201
 20
5.828336
 30
0.000000
 40
0.017189
 50
38.548608
 51
75.568234
  6
CONTINUOUS
  0
ARC
  8
WHITE
 10
12.196439
 20
5.733608
 30
0.000000
 40
0.116759
 50
72.533026
 51
82.355080
  6
CONTINUOUS
  0
ARC
  8
WHITE
 10
12.136693
 20
5.247949
 30
0.000000
 40
0.606073
 50
82.865013
 51
88.944087
  6
CONTINUOUS
  0
ARC
  8
WHITE
 10
12.098298
 20
2.671344
 30
0.000000
 40
3.182961
 50
89.107766
 51
92.469527
  6
CONTINUOUS
  0
ARC
  8
WHITE
 10
12.391751
 20
-4.525880
 30
0.000000
 40
10.386159
 50
92.376113
 51
93.882421
  6
CONTINUOUS
  0
ARC
  8
WHITE
 10
11.539478
 20
5.028041
 30
0.000000
 40
0.822025
 50
79.554394
 51
100.953555
  6
CONTINUOUS
  0
ARC
  8
WHITE
 10
11.340400
 20
7.420103
 30
0.000000
 40
1.585593
 50
-93.498256
 51
-88.450253
  6
CONTINUOUS
  0
ARC
  8
WHITE
 10
9.375099
 20
-7.690881
 30
0.000000
 40
13.656779
 50
82.135995
 51
83.746759
  6
CONTINUOUS
  0
ARC
  8
WHITE
 10
10.745660
 20
6.691861
 30
0.000000
 40
0.815649
 50
-92.171458
 51
-81.754387
  6
CONTINUOUS
  0
ARC
  8
WHITE
 10
9.763175
 20
-1.202498
 30
0.000000
 40
7.142963
 50
82.344344
 51
84.326613
  6
CONTINUOUS
  0
ARC
  8
WHITE
 10
10.445159
 20
4.526263
 30
0.000000
 40
1.379424
 50
88.996779
 51
104.639904
  6
CONTINUOUS
  0
ARC
  8
WHITE
 10
7.174787
 20
29.805611
 30
0.000000
 40
24.122305
 50
-84.063524
 51
-83.043162
  6
CONTINUOUS
  0
ARC
  8
WHITE
 10
9.640245
 20
6.122420
 30
0.000000
 40
0.311144
 50
-101.901014
 51
-84.576213
  6
CONTINUOUS
  0
ARC
  8
WHITE
 10
9.525459
 20
5.603356
 30
0.000000
 40
0.220498
 50
76.727712
 51
101.349470
  6
CONTINUOUS
  0
ARC
  8
WHITE
 10
9.485312
 20
5.807409
 30
0.000000
 40
0.012560
 50
104.974018
 51
162.714028
  6
CONTINUOUS
  0
ARC
  8
WHITE
 10
9.514175
 20
5.799083
 30
0.000000
 40
0.042598
 50
163.557577
 51
187.091730
  6
CONTINUOUS
  0
ARC
  8
WHITE
 10
9.664971
 20
5.821616
 30
0.000000
 40
0.195058
 50
-171.808710
 51
-155.881222
  6
CONTINUOUS
  0
ARC
  8
WHITE
 10
9.778210
 20
5.862212
 30
0.000000
 40
0.315135
 50
-157.557939
 51
-133.913985
  6
CONTINUOUS
  0
ARC
  8
WHITE
 10
15.923120
 20
13.535745
 30
0.000000
 40
10.144584
 50
-128.849627
 51
-126.299062
  6
CONTINUOUS
  0
ARC
  8
WHITE
 10
9.881850
 20
5.358638
 30
0.000000
 40
0.035696
 50
-68.273595
 51
1.929047
  6
CONTINUOUS
  0
ARC
  8
WHITE
 10
9.866207
 20
5.418967
 30
0.000000
 40
0.097842
 50
-100.333928
 51
-72.846058
  6
CONTINUOUS
  0
ARC
  8
WHITE
 10
9.897118
 20
5.620068
 30
0.000000
 40
0.301280
 50
-112.443527
 51
-99.256646
  6
CONTINUOUS
  0
LINE
  8
WHITE
 10
9.782098
 20
5.341609
 30
0.000000
 11
9.282054
 21
5.674971
 31
0.000000
  6
CONTINUOUS
  0
ARC
  8
WHITE
 10
-19.383044
 20
-9.699702
 30
0.000000
 40
32.527964
 50
28.207113
 51
29.159089
  6
CONTINUOUS
  0
LINE
  8
WHITE
 10
9.022658
 20
6.149101
 30
0.000000
 11
8.992967
 21
6.151575
 31
0.000000
  6
CONTINUOUS
  0
ARC
  8
WHITE
 10
9.239743
 20
5.271892
 30
0.000000
 40
0.913641
 50
105.670331
 51
117.641652
  6
CONTINUOUS
  0
ARC
  8
WHITE
 10
19.938433
 20
-0.795770
 30
0.000000
 40
13.076886
 50
148.271706
 51
150.052629
  6
CONTINUOUS
  0
ARC
  8
WHITE
 10
8.582690
 20
5.806657
 30
0.000000
 40
0.078423
 50
-126.118385
 51
-71.543751
  6
CONTINUOUS
  0
ARC
  8
WHITE
 10
3.601137
 20
-0.884673
 30
0.000000
 40
8.263629
 50
53.327898
 51
54.164552
  6
CONTINUOUS
  0
ARC
  8
WHITE
 10
16.352035
 20
17.472488
 30
0.000000
 40
14.089658
 50
-125.435727
 51
-124.167144
  6
CONTINUOUS
  0
ARC
  8
WHITE
 10
2.268665
 20
0.841782
 30
0.000000
 40
7.842920
 50
41.053318
 51
44.608169
  6
CONTINUOUS
  0
LINE
  8
WHITE
 10
7.852243
 20
6.349509
 30
0.000000
 11
7.525384
 21
6.502626
 31
0.000000
  6
CONTINUOUS
  0
ARC
  8
WHITE
 10
7.104525
 20
5.903228
 30
0.000000
 40
0.732393
 50
54.925942
 51
78.284998
  6
CONTINUOUS
  0
ARC
  8
WHITE
 10
-0.461653
 20
28.485726
 30
0.000000
 40
23.186493
 50
-71.823094
 51
-70.565326
  6
CONTINUOUS
  0
LINE
  8
WHITE
 10
6.771420
 20
6.456289
 30
0.000000
 11
6.399324
 21
6.094268
 31
0.000000
  6
CONTINUOUS
  0
ARC
  8
WHITE
 10
6.718402
 20
5.783386
 30
0.000000
 40
0.445487
 50
135.745475
 51
145.982013
  6
CONTINUOUS
  0
ARC
  8
WHITE
 10
6.271738
 20
6.083685
 30
0.000000
 40
0.092745
 50
-72.775016
 51
-33.411528
  6
CONTINUOUS
  0
ARC
  8
WHITE
 10
6.233855
 20
6.397877
 30
0.000000
 40
0.408043
 50
-118.721852
 51
-80.784584
  6
CONTINUOUS
  0
ARC
  8
WHITE
 10
7.168360
 20
8.331603
 30
0.000000
 40
2.555292
 50
-122.655356
 51
-116.260429
  6
CONTINUOUS
  0
ARC
  8
WHITE
 10
5.805676
 20
5.647903
 30
0.000000
 40
0.532564
 50
91.733625
 51
98.205838
  6
CONTINUOUS
  0
ARC
  8
WHITE
 10
2.248670
 20
9.885628
 30
0.000000
 40
5.087825
 50
-53.223451
 51
-46.828771
  6
CONTINUOUS
  0
ARC
  8
WHITE
 10
4.734493
 20
7.065016
 30
0.000000
 40
1.374019
 50
-75.268830
 51
-65.937323
  6
CONTINUOUS
  0
LINE
  8
WHITE
 10
5.083884
 20
5.736161
 30
0.000000
 11
5.070896
 21
5.735054
 31
0.000000
  6
CONTINUOUS
  0
ARC
  8
WHITE
 10
5.068932
 20
5.750652
 30
0.000000
 40
0.015722
 50
-130.079439
 51
-82.824554
  6
CONTINUOUS
  0
ARC
  8
WHITE
 10
5.074865
 20
5.754625
 30
0.000000
 40
0.022669
 50
-169.067904
 51
-135.095074
  6
CONTINUOUS
  0
LINE
  8
WHITE
 10
5.052608
 20
5.750326
 30
0.000000
 11
5.049917
 21
5.763520
 31
0.000000
  6
CONTINUOUS
  0
ARC
  8
WHITE
 10
5.710399
 20
5.180762
 30
0.000000
 40
0.880821
 50
128.036766
 51
138.577306
  6
CONTINUOUS
  0
ARC
  8
WHITE
 10
5.137531
 20
5.915023
 30
0.000000
 40
0.050492
 50
-53.356523
 51
12.477272
  6
CONTINUOUS
  0
ARC
  8
WHITE
 10
5.180392
 20
5.923278
 30
0.000000
 40
0.006964
 50
22.395083
 51
79.352465
  6
CONTINUOUS
  0
ARC
  8
WHITE
 10
5.170917
 20
5.883121
 30
0.000000
 40
0.048218
 50
77.104039
 51
91.898975
  6
CONTINUOUS
  0
ARC
  8
WHITE
 10
5.198849
 20
5.249190
 30
0.000000
 40
0.682761
 50
92.478814
 51
96.552020
  6
CONTINUOUS
  0
ARC
  8
WHITE
 10
4.875832
 20
8.205133
 30
0.000000
 40
2.290792
 50
-89.013178
 51
-83.857706
  6
CONTINUOUS
  0
LINE
  8
WHITE
 10
4.915285
 20
5.914681
 30
0.000000
 11
4.900574
 21
5.903982
 31
0.000000
  6
CONTINUOUS
  0
ARC
  8
WHITE
 10
3.983048
 20
-29.616032
 30
0.000000
 40
35.531862
 50
88.520308
 51
89.311834
  6
CONTINUOUS
  0
ARC
  8
WHITE
 10
4.190809
 20
5.099127
 30
0.000000
 40
0.843080
 50
74.944561
 51
93.029434
  6
CONTINUOUS
  0
ARC
  8
WHITE
 10
3.360722
 20
9.797161
 30
0.000000
 40
3.935329
 50
-88.953597
 51
-78.485839
  6
CONTINUOUS
  0
ARC
  8
WHITE
 10
3.113973
 20
7.409325
 30
0.000000
 40
1.579311
 50
-95.171730
 51
-78.361044
  6
CONTINUOUS
  0
ARC
  8
WHITE
 10
2.792734
 20
5.265109
 30
0.000000
 40
0.598682
 50
72.615265
 51
90.268688
  6
CONTINUOUS
  0
ARC
  8
WHITE
 10
2.643432
 20
5.236516
 30
0.000000
 40
0.644147
 50
76.854533
 51
94.098244
  6
CONTINUOUS
  0
ARC
  8
WHITE
 10
2.629147
 20
5.700793
 30
0.000000
 40
0.181030
 50
100.101333
 51
132.758917
  6
CONTINUOUS
  0
ARC
  8
WHITE
 10
2.461442
 20
5.878839
 30
0.000000
 40
0.063592
 50
-89.839977
 51
-45.210006
  6
CONTINUOUS
  0
ARC
  8
WHITE
 10
1.958415
 20
3.777225
 30
0.000000
 40
2.099226
 50
76.130610
 51
77.785147
  6
CONTINUOUS
  0
ARC
  8
WHITE
 10
2.381161
 20
5.742051
 30
0.000000
 40
0.089474
 50
76.158795
 51
114.572742
  6
CONTINUOUS
  0
ARC
  8
WHITE
 10
3.838473
 20
6.325241
 30
0.000000
 40
1.576519
 50
-161.439327
 51
-155.710327
  6
CONTINUOUS
  0
ARC
  8
WHITE
 10
2.471202
 20
5.721636
 30
0.000000
 40
0.082900
 50
-147.209560
 51
-120.039307
  6
CONTINUOUS
  0
ARC
  8
WHITE
 10
7.809013
 20
14.621427
 30
0.000000
 40
10.460679
 50
-120.946739
 51
-120.716913
  6
CONTINUOUS
  0
ARC
  8
WHITE
 10
2.446635
 20
5.588052
 30
0.000000
 40
0.044608
 50
-0.653345
 51
64.651786
  6
CONTINUOUS
  0
ARC
  8
WHITE
 10
2.471402
 20
5.594163
 30
0.000000
 40
0.020913
 50
-90.949378
 51
-18.453743
  6
CONTINUOUS
  0
ARC
  8
WHITE
 10
2.457545
 20
5.731588
 30
0.000000
 40
0.158911
 50
-99.677724
 51
-85.122680
  6
CONTINUOUS
  0
ARC
  8
WHITE
 10
2.593167
 20
6.512934
 30
0.000000
 40
0.951939
 50
-103.673031
 51
-99.818708
  6
CONTINUOUS
  0
ARC
  8
WHITE
 10
2.367959
 20
5.583186
 30
0.000000
 40
0.004790
 50
87.759767
 51
177.372201
  6
CONTINUOUS
  0
ARC
  8
WHITE
 10
2.394353
 20
5.580549
 30
0.000000
 40
0.031310
 50
174.765451
 51
195.649433
  6
CONTINUOUS
  0
ARC
  8
WHITE
 10
2.466153
 20
5.598638
 30
0.000000
 40
0.105344
 50
-165.411185
 51
-150.455230
  6
CONTINUOUS
  0
ARC
  8
WHITE
 10
3.289831
 20
6.088501
 30
0.000000
 40
1.063662
 50
-149.377391
 51
-132.360712
  6
CONTINUOUS
  0
ARC
  8
WHITE
 10
2.521323
 20
5.367020
 30
0.000000
 40
0.082717
 50
-147.657039
 51
-51.213231
  6
CONTINUOUS
  0
ARC
  8
WHITE
 10
2.428429
 20
5.300618
 30
0.000000
 40
0.031938
 50
43.908480
 51
92.762523
  6
CONTINUOUS
  0
ARC
  8
WHITE
 10
2.433326
 20
5.319192
 30
0.000000
 40
0.014800
 50
115.777502
 51
177.586285
  6
CONTINUOUS
  0
ARC
  8
WHITE
 10
2.450593
 20
5.315131
 30
0.000000
 40
0.032394
 50
171.686313
 51
205.508177
  6
CONTINUOUS
  0
ARC
  8
WHITE
 10
2.945925
 20
5.651524
 30
0.000000
 40
0.630803
 50
-146.262280
 51
-135.122941
  6
CONTINUOUS
  0
ARC
  8
WHITE
 10
2.328543
 20
5.125828
 30
0.000000
 40
0.188486
 50
9.548717
 51
25.319322
  6
CONTINUOUS
  0
ARC
  8
WHITE
 10
2.609232
 20
5.172628
 30
0.000000
 40
0.096077
 50
-170.696385
 51
-140.185389
  6
CONTINUOUS
  0
ARC
  8
WHITE
 10
2.746684
 20
5.340687
 30
0.000000
 40
0.311983
 50
-132.619427
 51
-118.229704
  6
CONTINUOUS
  0
ARC
  8
WHITE
 10
2.545811
 20
4.964434
 30
0.000000
 40
0.114537
 50
24.425679
 51
62.265497
  6
CONTINUOUS
  0
ARC
  8
WHITE
 10
2.581196
 20
4.981375
 30
0.000000
 40
0.075318
 50
3.613373
 51
23.822757
  6
CONTINUOUS
  0
ARC
  8
WHITE
 10
2.635760
 20
4.985017
 30
0.000000
 40
0.020634
 50
-42.914459
 51
3.069617
  6
CONTINUOUS
  0
ARC
  8
WHITE
 10
2.624735
 20
5.011304
 30
0.000000
 40
0.048065
 50
-99.302728
 51
-57.058556
  6
CONTINUOUS
  0
ARC
  8
WHITE
 10
3.101225
 20
7.867682
 30
0.000000
 40
2.943912
 50
-101.935304
 51
-99.467923
  6
CONTINUOUS
  0
ARC
  8
WHITE
 10
2.545802
 20
4.973568
 30
0.000000
 40
0.055164
 50
165.466165
 51
230.651750
  6
CONTINUOUS
  0
ARC
  8
WHITE
 10
2.949651
 20
5.366983
 30
0.000000
 40
0.618649
 50
-135.180108
 51
-128.136799
  6
CONTINUOUS
  0
ARC
  8
WHITE
 10
2.492800
 20
4.811209
 30
0.000000
 40
0.101895
 50
-0.169882
 51
42.762338
  6
CONTINUOUS
  0
ARC
  8
WHITE
 10
2.603796
 20
4.810114
 30
0.000000
 40
0.009136
 50
175.019029
 51
249.095984
  6
CONTINUOUS
  0
ARC
  8
WHITE
 10
2.590849
 20
4.824092
 30
0.000000
 40
0.024507
 50
-66.718234
 51
-35.846403
  6
CONTINUOUS
  0
ARC
  8
WHITE
 10
2.656398
 20
4.766640
 30
0.000000
 40
0.062805
 50
67.013669
 51
136.666459
  6
CONTINUOUS
  0
ARC
  8
WHITE
 10
2.693114
 20
4.860533
 30
0.000000
 40
0.038079
 50
-108.670592
 51
-32.444461
  6
CONTINUOUS
  0
ARC
  8
WHITE
 10
2.939537
 20
4.698681
 30
0.000000
 40
0.256749
 50
84.055400
 51
146.576313
  6
CONTINUOUS
  0
ARC
  8
WHITE
 10
2.967767
 20
5.044846
 30
0.000000
 40
0.090812
 50
-91.034529
 51
-77.740999
  6
CONTINUOUS
  0
ARC
  8
WHITE
 10
2.954754
 20
5.012566
 30
0.000000
 40
0.065045
 50
-60.230185
 51
-34.125122
  6
CONTINUOUS
  0
ARC
  8
WHITE
 10
3.251606
 20
4.850420
 30
0.000000
 40
0.273572
 50
130.930624
 51
152.657089
  6
CONTINUOUS
  0
ARC
  8
WHITE
 10
3.215938
 20
4.827582
 30
0.000000
 40
0.270722
 50
64.749372
 51
122.025065
  6
CONTINUOUS
  0
ARC
  8
WHITE
 10
3.110908
 20
4.522424
 30
0.000000
 40
0.592571
 50
53.288021
 51
68.152844
  6
CONTINUOUS
  0
ARC
  8
WHITE
 10
3.606267
 20
5.248273
 30
0.000000
 40
0.287792
 50
-119.365059
 51
-97.063519
  6
CONTINUOUS
  0
ARC
  8
WHITE
 10
3.575670
 20
5.178977
 30
0.000000
 40
0.216364
 50
-91.269279
 51
-47.945144
  6
CONTINUOUS
  0
ARC
  8
WHITE
 10
3.827839
 20
4.916181
 30
0.000000
 40
0.148101
 50
100.781972
 51
136.393725
  6
CONTINUOUS
  0
ARC
  8
WHITE
 10
3.798772
 20
4.815888
 30
0.000000
 40
0.245782
 50
65.262789
 51
89.682571
  6
CONTINUOUS
  0
ARC
  8
WHITE
 10
4.021506
 20
5.279315
 30
0.000000
 40
0.268454
 50
-116.524112
 51
-96.231245
  6
CONTINUOUS
  0
ARC
  8
WHITE
 10
3.990647
 20
5.085047
 30
0.000000
 40
0.072621
 50
-88.641822
 51
-42.456862
  6
CONTINUOUS
  0
ARC
  8
WHITE
 10
5.177649
 20
3.942135
 30
0.000000
 40
1.575198
 50
133.855576
 51
136.016862
  6
CONTINUOUS
  0
ARC
  8
WHITE
 10
3.873706
 20
5.390156
 30
0.000000
 40
0.377672
 50
-55.745706
 51
-43.095967
  6
CONTINUOUS
  0
ARC
  8
WHITE
 10
4.138854
 20
5.141766
 30
0.000000
 40
0.014354
 50
-42.212182
 51
65.082983
  6
CONTINUOUS
  0
ARC
  8
WHITE
 10
5.296203
 20
7.087326
 30
0.000000
 40
2.249492
 50
-122.052733
 51
-120.784145
  6
CONTINUOUS
  0
ARC
  8
WHITE
 10
4.115497
 20
5.193187
 30
0.000000
 40
0.018065
 50
158.471758
 51
223.526504
  6
CONTINUOUS
  0
ARC
  8
WHITE
 10
4.156097
 20
5.184486
 30
0.000000
 40
0.059416
 50
140.693891
 51
165.047911
  6
CONTINUOUS
  0
ARC
  8
WHITE
 10
3.847361
 20
5.458073
 30
0.000000
 40
0.353151
 50
-41.922494
 51
-26.795978
  6
CONTINUOUS
  0
ARC
  8
WHITE
 10
4.100047
 20
5.337102
 30
0.000000
 40
0.073304
 50
-31.439256
 51
30.364983
  6
CONTINUOUS
  0
ARC
  8
WHITE
 10
4.174350
 20
5.380475
 30
0.000000
 40
0.012733
 50
168.519407
 51
209.744793
  6
CONTINUOUS
  0
ARC
  8
WHITE
 10
4.507157
 20
5.334618
 30
0.000000
 40
0.348659
 50
169.134016
 51
172.022147
  6
CONTINUOUS
  0
ARC
  8
WHITE
 10
3.756920
 20
5.471622
 30
0.000000
 40
0.414011
 50
-9.913532
 51
0.306201
  6
CONTINUOUS
  0
ARC
  8
WHITE
 10
4.208659
 20
5.468136
 30
0.000000
 40
0.038163
 50
153.516376
 51
171.412384
  6
CONTINUOUS
  0
ARC
  8
WHITE
 10
3.692375
 20
5.700362
 30
0.000000
 40
0.527978
 50
-24.054651
 51
-21.536632
  6
CONTINUOUS
  0
ARC
  8
WHITE
 10
3.736116
 20
5.673727
 30
0.000000
 40
0.477592
 50
-20.490614
 51
-9.285623
  6
CONTINUOUS
  0
ARC
  8
WHITE
 10
4.259835
 20
5.594284
 30
0.000000
 40
0.052439
 50
148.577689
 51
177.398634
  6
CONTINUOUS
  0
ARC
  8
WHITE
 10
4.227157
 20
5.610192
 30
0.000000
 40
0.016624
 50
92.731804
 51
136.558598
  6
CONTINUOUS
  0
ARC
  8
WHITE
 10
4.233768
 20
5.526383
 30
0.000000
 40
0.100687
 50
86.875713
 51
94.216994
  6
CONTINUOUS
  0
ARC
  8
WHITE
 10
4.239941
 20
5.611341
 30
0.000000
 40
0.015594
 50
38.386069
 51
92.516015
  6
CONTINUOUS
  0
ARC
  8
WHITE
 10
4.215126
 20
5.596206
 30
0.000000
 40
0.044584
 50
9.397219
 51
33.825054
  6
CONTINUOUS
  0
ARC
  8
WHITE
 10
3.261926
 20
5.460548
 30
0.000000
 40
1.007378
 50
4.222830
 51
8.157259
  6
CONTINUOUS
  0
ARC
  8
WHITE
 10
4.341844
 20
5.548294
 30
0.000000
 40
0.076487
 50
-169.783027
 51
-144.460044
  6
CONTINUOUS
  0
ARC
  8
WHITE
 10
2.810895
 20
4.489105
 30
0.000000
 40
1.785157
 50
33.487968
 51
34.640516
  6
CONTINUOUS
  0
ARC
  8
WHITE
 10
4.273108
 20
5.452578
 30
0.000000
 40
0.034217
 50
-27.711933
 51
38.947348
  6
CONTINUOUS
  0
ARC
  8
WHITE
 10
4.421210
 20
5.336125
 30
0.000000
 40
0.154880
 50
139.522029
 51
159.212472
  6
CONTINUOUS
  0
ARC
  8
WHITE
 10
6.170572
 20
6.806793
 30
0.000000
 40
2.364751
 50
-143.225447
 51
-140.369636
  6
CONTINUOUS
  0
ARC
  8
WHITE
 10
4.332186
 20
5.284459
 30
0.000000
 40
0.022122
 50
-19.259600
 51
39.324866
  6
CONTINUOUS
  0
ARC
  8
WHITE
 10
4.310562
 20
5.314354
 30
0.000000
 40
0.056482
 50
-76.499821
 51
-41.183688
  6
CONTINUOUS
  0
ARC
  8
WHITE
 10
4.327461
 20
5.240068
 30
0.000000
 40
0.019718
 50
100.855502
 51
143.662186
  6
CONTINUOUS
  0
LINE
  8
WHITE
 10
4.311577
 20
5.251752
 30
0.000000
 11
4.335709
 21
5.227620
 31
0.000000
  6
CONTINUOUS
  0
ARC
  8
WHITE
 10
4.222683
 20
5.377098
 30
0.000000
 40
0.187399
 50
-52.905878
 51
-43.695813
  6
CONTINUOUS
  0
ARC
  8
WHITE
 10
4.489473
 20
5.117607
 30
0.000000
 40
0.184788
 50
122.246012
 51
135.277661
  6
CONTINUOUS
  0
ARC
  8
WHITE
 10
4.481372
 20
5.108868
 30
0.000000
 40
0.188210
 50
78.006908
 51
118.738463
  6
CONTINUOUS
  0
ARC
  8
WHITE
 10
3.457540
 20
1.765263
 30
0.000000
 40
3.684367
 50
71.008118
 51
73.231815
  6
CONTINUOUS
  0
ARC
  8
WHITE
 10
4.660374
 20
5.278552
 30
0.000000
 40
0.029728
 50
-97.373056
 51
-79.159700
  6
CONTINUOUS
  0
ARC
  8
WHITE
 10
4.646221
 20
5.277259
 30
0.000000
 40
0.034183
 50
-54.718842
 51
-27.467188
  6
CONTINUOUS
  0
ARC
  8
WHITE
 10
5.006047
 20
5.099649
 30
0.000000
 40
0.367098
 50
127.773524
 51
153.840403
  6
CONTINUOUS
  0
ARC
  8
WHITE
 10
4.860078
 20
5.230581
 30
0.000000
 40
0.177709
 50
90.668027
 51
116.356279
  6
CONTINUOUS
  0
ARC
  8
WHITE
 10
4.861344
 20
5.503059
 30
0.000000
 40
0.094840
 50
-92.017096
 51
-56.876184
  6
CONTINUOUS
  0
ARC
  8
WHITE
 10
5.225908
 20
5.200952
 30
0.000000
 40
0.383916
 50
83.659382
 51
144.547941
  6
CONTINUOUS
  0
ARC
  8
WHITE
 10
5.158532
 20
5.016256
 30
0.000000
 40
0.576806
 50
48.830236
 51
79.028738
  6
CONTINUOUS
  0
ARC
  8
WHITE
 10
2.602223
 20
-1.187711
 30
0.000000
 40
7.258472
 50
65.149871
 51
66.140510
  6
CONTINUOUS
  0
ARC
  8
WHITE
 10
5.607367
 20
5.287433
 30
0.000000
 40
0.120099
 50
9.355172
 51
67.891607
  6
CONTINUOUS
  0
ARC
  8
WHITE
 10
5.654622
 20
5.295863
 30
0.000000
 40
0.072105
 50
-59.720528
 51
8.848667
  6
CONTINUOUS
  0
ARC
  8
WHITE
 10
5.547905
 20
5.467926
 30
0.000000
 40
0.274556
 50
-80.056047
 51
-58.593414
  6
CONTINUOUS
  0
ARC
  8
WHITE
 10
5.422675
 20
6.159780
 30
0.000000
 40
0.977649
 50
-88.774089
 51
-79.828882
  6
CONTINUOUS
  0
ARC
  8
WHITE
 10
5.248909
 20
5.822096
 30
0.000000
 40
0.668708
 50
-88.960233
 51
-73.074195
  6
CONTINUOUS
  0
ARC
  8
WHITE
 10
4.979851
 20
5.392006
 30
0.000000
 40
0.368721
 50
-64.177887
 51
-40.304681
  6
CONTINUOUS
  0
ARC
  8
WHITE
 10
5.113129
 20
5.219642
 30
0.000000
 40
0.161864
 50
-108.554894
 51
-80.279580
  6
CONTINUOUS
  0
ARC
  8
WHITE
 10
5.025426
 20
4.973335
 30
0.000000
 40
0.099662
 50
68.704144
 51
107.036072
  6
CONTINUOUS
  0
ARC
  8
WHITE
 10
4.883246
 20
5.221536
 30
0.000000
 40
0.190124
 50
-88.591337
 51
-53.540545
  6
CONTINUOUS
  0
ARC
  8
WHITE
 10
5.100276
 20
6.004615
 30
0.000000
 40
0.996045
 50
-112.011104
 51
-102.309921
  6
CONTINUOUS
  0
ARC
  8
WHITE
 10
4.779394
 20
5.021851
 30
0.000000
 40
0.079163
 50
131.468515
 51
226.807137
  6
CONTINUOUS
  0
ARC
  8
WHITE
 10
4.712424
 20
4.950997
 30
0.000000
 40
0.018335
 50
12.134185
 51
45.782042
  6
CONTINUOUS
  0
ARC
  8
WHITE
 10
4.653313
 20
4.979322
 30
0.000000
 40
0.080830
 50
-85.971007
 51
-17.622632
  6
CONTINUOUS
  0
ARC
  8
WHITE
 10
4.633491
 20
5.096097
 30
0.000000
 40
0.199046
 50
-115.860522
 51
-82.639053
  6
CONTINUOUS
  0
ARC
  8
WHITE
 10
4.423379
 20
4.734243
 30
0.000000
 40
0.220442
 50
55.993297
 51
78.151169
  6
CONTINUOUS
  0
ARC
  8
WHITE
 10
4.453509
 20
4.878129
 30
0.000000
 40
0.073436
 50
78.107384
 51
88.178403
  6
CONTINUOUS
  0
ARC
  8
WHITE
 10
4.454833
 20
4.940499
 30
0.000000
 40
0.011075
 50
84.763016
 51
144.136192
  6
CONTINUOUS
  0
ARC
  8
WHITE
 10
4.451535
 20
4.942266
 30
0.000000
 40
0.007385
 50
140.257651
 51
216.235277
  6
CONTINUOUS
  0
ARC
  8
WHITE
 10
4.403297
 20
4.910800
 30
0.000000
 40
0.050221
 50
11.769613
 51
32.658696
  6
CONTINUOUS
  0
ARC
  8
WHITE
 10
4.444102
 20
4.917523
 30
0.000000
 40
0.009071
 50
-82.883380
 51
22.836216
  6
CONTINUOUS
  0
ARC
  8
WHITE
 10
4.438210
 20
4.974229
 30
0.000000
 40
0.066080
 50
-104.337895
 51
-83.904633
  6
CONTINUOUS
  0
ARC
  8
WHITE
 10
4.324968
 20
4.571933
 30
0.000000
 40
0.351873
 50
74.018896
 51
81.104106
  6
CONTINUOUS
  0
ARC
  8
WHITE
 10
4.382214
 20
4.910708
 30
0.000000
 40
0.009306
 50
107.723913
 51
210.169342
  6
CONTINUOUS
  0
ARC
  8
WHITE
 10
4.470545
 20
4.951124
 30
0.000000
 40
0.106404
 50
-154.926112
 51
-140.371921
  6
CONTINUOUS
  0
ARC
  8
WHITE
 10
4.228678
 20
4.741515
 30
0.000000
 40
0.213692
 50
24.418538
 51
41.552857
  6
CONTINUOUS
  0
ARC
  8
WHITE
 10
4.346267
 20
4.808955
 30
0.000000
 40
0.079775
 50
0.765349
 51
15.188133
  6
CONTINUOUS
  0
ARC
  8
WHITE
 10
4.412312
 20
4.809409
 30
0.000000
 40
0.013736
 50
-40.151762
 51
2.551609
  6
CONTINUOUS
  0
ARC
  8
WHITE
 10
4.415977
 20
4.813188
 30
0.000000
 40
0.014366
 50
-119.839433
 51
-61.592415
  6
CONTINUOUS
  0
ARC
  8
WHITE
 10
4.154128
 20
4.346130
 30
0.000000
 40
0.521086
 50
60.739100
 51
64.658387
  6
CONTINUOUS
  0
ARC
  8
WHITE
 10
4.384475
 20
4.796317
 30
0.000000
 40
0.022006
 50
109.411963
 51
218.811957
  6
CONTINUOUS
  0
ARC
  8
WHITE
 10
4.595758
 20
4.918267
 30
0.000000
 40
0.265719
 50
-149.279671
 51
-134.283967
  6
CONTINUOUS
  0
ARC
  8
WHITE
 10
3.961746
 20
4.230302
 30
0.000000
 40
0.669987
 50
36.887835
 51
47.979870
  6
CONTINUOUS
  0
LINE
  8
WHITE
 10
4.497609
 20
4.632462
 30
0.000000
 11
4.502868
 21
4.606437
 31
0.000000
  6
CONTINUOUS
  0
ARC
  8
WHITE
 10
4.471837
 20
4.597359
 30
0.000000
 40
0.032331
 50
-5.534787
 51
16.306348
  6
CONTINUOUS
  0
ARC
  8
WHITE
 10
4.454960
 20
4.616007
 30
0.000000
 40
0.053669
 50
-37.773987
 51
-23.926002
  6
CONTINUOUS
  0
LINE
  8
WHITE
 10
4.497382
 20
4.583131
 30
0.000000
 11
4.429300
 21
4.628519
 31
0.000000
  6
CONTINUOUS
  0
ARC
  8
WHITE
 10
13.552242
 20
1.335906
 30
0.000000
 40
1.156931
 50
141.907369
 51
158.519270
  6
CONTINUOUS
  0
ARC
  8
WHITE
 10
12.258973
 20
1.971381
 30
0.000000
 40
0.303028
 50
-76.313478
 51
-44.347913
  6
CONTINUOUS
  0
ARC
  8
WHITE
 10
10.060180
 20
7.671320
 30
0.000000
 40
6.409954
 50
-70.943637
 51
-69.254748
  6
CONTINUOUS
  0
ARC
  8
WHITE
 10
12.437200
 20
1.166929
 30
0.000000
 40
0.528604
 50
122.521002
 51
128.548761
  6
CONTINUOUS
  0
ARC
  8
WHITE
 10
11.909691
 20
1.868730
 30
0.000000
 40
0.349872
 50
-73.213900
 51
-55.515210
  6
CONTINUOUS
  0
ARC
  8
WHITE
 10
11.305313
 20
4.818548
 30
0.000000
 40
3.359675
 50
-80.972358
 51
-77.879581
  6
CONTINUOUS
  0
ARC
  8
WHITE
 10
12.157115
 20
0.730444
 30
0.000000
 40
0.835679
 50
112.859036
 51
133.691378
  6
CONTINUOUS
  0
ARC
  8
WHITE
 10
10.933214
 20
4.530740
 30
0.000000
 40
3.260800
 50
-85.785650
 51
-78.562083
  6
CONTINUOUS
  0
ARC
  8
WHITE
 10
10.924720
 20
2.127836
 30
0.000000
 40
0.884591
 50
-97.944728
 51
-73.710272
  6
CONTINUOUS
  0
ARC
  8
WHITE
 10
10.493113
 20
-0.923270
 30
0.000000
 40
2.196894
 50
81.905382
 51
90.475902
  6
CONTINUOUS
  0
ARC
  8
WHITE
 10
9.137031
 20
3.413022
 30
0.000000
 40
2.523322
 50
-71.247894
 51
-57.981841
  6
CONTINUOUS
  0
ARC
  8
WHITE
 10
9.859893
 20
1.535281
 30
0.000000
 40
0.519206
 50
-101.515509
 51
-80.205885
  6
CONTINUOUS
  0
ARC
  8
WHITE
 10
9.652948
 20
0.534136
 30
0.000000
 40
0.503109
 50
78.152182
 51
99.286403
  6
CONTINUOUS
  0
ARC
  8
WHITE
 10
9.950388
 20
-0.482481
 30
0.000000
 40
1.559784
 50
104.048480
 51
114.656523
  6
CONTINUOUS
  0
ARC
  8
WHITE
 10
9.269639
 20
1.067941
 30
0.000000
 40
0.136206
 50
-113.600800
 51
-77.257848
  6
CONTINUOUS
  0
ARC
  8
WHITE
 10
9.135569
 20
0.716721
 30
0.000000
 40
0.239972
 50
70.643315
 51
97.198712
  6
CONTINUOUS
  0
ARC
  8
WHITE
 10
12.378013
 20
-12.065680
 30
0.000000
 40
13.425435
 50
104.108264
 51
105.734475
  6
CONTINUOUS
  0
ARC
  8
WHITE
 10
8.689454
 20
1.234563
 30
0.000000
 40
0.380894
 50
-106.116283
 51
-82.782412
  6
CONTINUOUS
  0
ARC
  8
WHITE
 10
8.433396
 20
0.346191
 30
0.000000
 40
0.543644
 50
73.947550
 51
90.280340
  6
CONTINUOUS
  0
ARC
  8
WHITE
 10
7.320236
 20
5.730490
 30
0.000000
 40
4.966409
 50
-85.600757
 51
-77.079303
  6
CONTINUOUS
  0
ARC
  8
WHITE
 10
7.377111
 20
-2.058412
 30
0.000000
 40
2.855575
 50
83.483493
 51
90.708869
  6
CONTINUOUS
  0
LINE
  8
WHITE
 10
7.341782
 20
0.796944
 30
0.000000
 11
7.310529
 21
0.783922
 31
0.000000
  6
CONTINUOUS
  0
ARC
  8
WHITE
 10
6.617529
 20
-5.363850
 30
0.000000
 40
6.186708
 50
83.568553
 51
87.343819
  6
CONTINUOUS
  0
ARC
  8
WHITE
 10
6.931686
 20
0.259557
 30
0.000000
 40
0.557330
 50
92.823051
 51
107.358330
  6
CONTINUOUS
  0
ARC
  8
WHITE
 10
6.715255
 20
1.119543
 30
0.000000
 40
0.331850
 50
-115.126783
 51
-81.307305
  6
CONTINUOUS
  0
ARC
  8
WHITE
 10
6.609208
 20
0.948377
 30
0.000000
 40
0.133900
 50
-136.088816
 51
-105.092555
  6
CONTINUOUS
  0
ARC
  8
WHITE
 10
6.600114
 20
0.910505
 30
0.000000
 40
0.103236
 50
-161.550678
 51
-147.812265
  6
CONTINUOUS
  0
ARC
  8
WHITE
 10
6.510096
 20
0.881352
 30
0.000000
 40
0.008658
 50
129.355551
 51
203.968193
  6
CONTINUOUS
  0
ARC
  8
WHITE
 10
6.515366
 20
0.855097
 30
0.000000
 40
0.034662
 50
77.695282
 51
108.085001
  6
CONTINUOUS
  0
ARC
  8
WHITE
 10
6.720480
 20
1.811802
 30
0.000000
 40
0.943785
 50
-102.093358
 51
-94.476893
  6
CONTINUOUS
  0
ARC
  8
WHITE
 10
6.747084
 20
2.029908
 30
0.000000
 40
1.163340
 50
-94.944680
 51
-78.687090
  6
CONTINUOUS
  0
ARC
  8
WHITE
 10
6.975742
 20
2.810004
 30
0.000000
 40
1.920834
 50
-90.013385
 51
-86.462231
  6
CONTINUOUS
  0
ARC
  8
WHITE
 10
8.146756
 20
-2.573373
 30
0.000000
 40
3.622472
 50
102.455354
 51
106.890507
  6
CONTINUOUS
  0
ARC
  8
WHITE
 10
7.430295
 20
0.214617
 30
0.000000
 40
0.752024
 50
89.223873
 51
94.945435
  6
CONTINUOUS
  0
ARC
  8
WHITE
 10
7.446811
 20
1.121478
 30
0.000000
 40
0.155036
 50
-92.339640
 51
-62.839014
  6
CONTINUOUS
  0
ARC
  8
WHITE
 10
7.458155
 20
1.066800
 30
0.000000
 40
0.102295
 50
-54.482206
 51
-33.078870
  6
CONTINUOUS
  0
ARC
  8
WHITE
 10
7.524734
 20
1.022333
 30
0.000000
 40
0.022256
 50
-30.707955
 51
22.107275
  6
CONTINUOUS
  0
ARC
  8
WHITE
 10
9.460291
 20
2.355588
 30
0.000000
 40
2.328580
 50
-146.385940
 51
-145.321964
  6
CONTINUOUS
  0
ARC
  8
WHITE
 10
7.526431
 20
1.065710
 30
0.000000
 40
0.005405
 50
105.462927
 51
171.640065
  6
CONTINUOUS
  0
ARC
  8
WHITE
 10
7.573648
 20
0.976517
 30
0.000000
 40
0.106205
 50
108.819505
 51
117.268036
  6
CONTINUOUS
  0
ARC
  8
WHITE
 10
7.777574
 20
0.370238
 30
0.000000
 40
0.745861
 50
104.251567
 51
108.623306
  6
CONTINUOUS
  0
ARC
  8
WHITE
 10
8.402687
 20
-2.094227
 30
0.000000
 40
3.288369
 50
101.158540
 51
104.237155
  6
CONTINUOUS
  0
ARC
  8
WHITE
 10
8.050155
 20
-0.033692
 30
0.000000
 40
1.199730
 50
90.261216
 51
103.685550
  6
CONTINUOUS
  0
ARC
  8
WHITE
 10
8.093917
 20
1.240660
 30
0.000000
 40
0.089409
 50
-123.410625
 51
-73.324025
  6
CONTINUOUS
  0
ARC
  8
WHITE
 10
8.044602
 20
1.431410
 30
0.000000
 40
0.286385
 50
-74.824077
 51
-58.878945
  6
CONTINUOUS
  0
ARC
  8
WHITE
 10
8.174434
 20
1.215992
 30
0.000000
 40
0.034868
 50
-58.562769
 51
-5.880382
  6
CONTINUOUS
  0
ARC
  8
WHITE
 10
8.105284
 20
1.223763
 30
0.000000
 40
0.104452
 50
-6.234838
 51
16.098490
  6
CONTINUOUS
  0
ARC
  8
WHITE
 10
8.019759
 20
1.202419
 30
0.000000
 40
0.192569
 50
15.144020
 51
42.575088
  6
CONTINUOUS
  0
ARC
  8
WHITE
 10
8.060975
 20
1.190133
 30
0.000000
 40
0.174483
 50
54.794938
 51
86.368619
  6
CONTINUOUS
  0
ARC
  8
WHITE
 10
8.076076
 20
1.460178
 30
0.000000
 40
0.095998
 50
-148.284119
 51
-92.417563
  6
CONTINUOUS
  0
ARC
  8
WHITE
 10
7.677036
 20
1.239861
 30
0.000000
 40
0.359969
 50
28.154359
 51
62.580215
  6
CONTINUOUS
  0
LINE
  8
WHITE
 10
7.842804
 20
1.559390
 30
0.000000
 11
7.849073
 21
1.588645
 31
0.000000
  6
CONTINUOUS
  0
ARC
  8
WHITE
 10
7.740274
 20
4.554043
 30
0.000000
 40
2.967394
 50
-87.898788
 51
-77.519084
  6
CONTINUOUS
  0
ARC
  8
WHITE
 10
8.330962
 20
2.054198
 30
0.000000
 40
0.400633
 50
-82.742940
 51
-53.887840
  6
CONTINUOUS
  0
ARC
  8
WHITE
 10
8.537078
 20
1.759949
 30
0.000000
 40
0.042013
 50
-44.424889
 51
19.145547
  6
CONTINUOUS
  0
ARC
  8
WHITE
 10
8.504624
 20
1.729878
 30
0.000000
 40
0.084424
 50
31.292444
 51
67.287378
  6
CONTINUOUS
  0
ARC
  8
WHITE
 10
8.264541
 20
1.127126
 30
0.000000
 40
0.733219
 50
68.167486
 51
82.594224
  6
CONTINUOUS
  0
ARC
  8
WHITE
 10
6.597207
 20
-11.505643
 30
0.000000
 40
13.475543
 50
82.487430
 51
84.252700
  6
CONTINUOUS
  0
ARC
  8
WHITE
 10
15.862135
 20
32.521840
 30
0.000000
 40
31.626246
 50
-105.115223
 51
-104.494184
  6
CONTINUOUS
  0
ARC
  8
WHITE
 10
7.641834
 20
1.995378
 30
0.000000
 40
0.027179
 50
112.330711
 51
191.938102
  6
CONTINUOUS
  0
ARC
  8
WHITE
 10
7.691279
 20
1.883198
 30
0.000000
 40
0.149765
 50
91.720335
 51
113.522154
  6
CONTINUOUS
  0
ARC
  8
WHITE
 10
7.707398
 20
1.371189
 30
0.000000
 40
0.662027
 50
77.998205
 51
91.784421
  6
CONTINUOUS
  0
ARC
  8
WHITE
 10
7.870287
 20
2.427031
 30
0.000000
 40
0.409065
 50
-93.535473
 51
-79.320904
  6
CONTINUOUS
  0
ARC
  8
WHITE
 10
8.159252
 20
0.802342
 30
0.000000
 40
1.241151
 50
95.415799
 51
99.889289
  6
CONTINUOUS
  0
ARC
  8
WHITE
 10
8.020128
 20
1.784904
 30
0.000000
 40
0.254002
 50
73.132224
 51
85.035686
  6
CONTINUOUS
  0
ARC
  8
WHITE
 10
8.227163
 20
2.486551
 30
0.000000
 40
0.477565
 50
-106.212082
 51
-99.077838
  6
CONTINUOUS
  0
ARC
  8
WHITE
 10
7.109083
 20
11.154878
 30
0.000000
 40
9.199198
 50
-83.491515
 51
-81.337783
  6
CONTINUOUS
  0
ARC
  8
WHITE
 10
8.421592
 20
2.226427
 30
0.000000
 40
0.181162
 50
-66.246820
 51
-40.972090
  6
CONTINUOUS
  0
ARC
  8
WHITE
 10
8.713486
 20
1.975333
 30
0.000000
 40
0.203875
 50
121.785635
 51
139.536407
  6
CONTINUOUS
  0
ARC
  8
WHITE
 10
8.370150
 20
2.854729
 30
0.000000
 40
0.744475
 50
-71.522643
 51
-56.924009
  6
CONTINUOUS
  0
ARC
  8
WHITE
 10
8.652705
 20
2.484039
 30
0.000000
 40
0.281768
 50
-63.949135
 51
-47.769095
  6
CONTINUOUS
  0
ARC
  8
WHITE
 10
8.780109
 20
2.302994
 30
0.000000
 40
0.067840
 50
-23.995548
 51
66.268850
  6
CONTINUOUS
  0
ARC
  8
WHITE
 10
8.390582
 20
1.690975
 30
0.000000
 40
0.792584
 50
58.270324
 51
64.756735
  6
CONTINUOUS
  0
ARC
  8
WHITE
 10
8.825898
 20
2.509783
 30
0.000000
 40
0.140908
 50
-147.491772
 51
-133.676497
  6
CONTINUOUS
  0
ARC
  8
WHITE
 10
8.717096
 20
2.437869
 30
0.000000
 40
0.010728
 50
137.727609
 51
200.821104
  6
CONTINUOUS
  0
ARC
  8
WHITE
 10
8.740018
 20
2.422144
 30
0.000000
 40
0.038454
 50
122.232981
 51
143.373284
  6
CONTINUOUS
  0
ARC
  8
WHITE
 10
8.821718
 20
2.280063
 30
0.000000
 40
0.202324
 50
86.686790
 51
120.343052
  6
CONTINUOUS
  0
ARC
  8
WHITE
 10
8.869951
 20
3.161627
 30
0.000000
 40
0.680561
 50
-93.077800
 51
-82.692471
  6
CONTINUOUS
  0
ARC
  8
WHITE
 10
9.424469
 20
0.559795
 30
0.000000
 40
1.982810
 50
97.058487
 51
103.650885
  6
CONTINUOUS
  0
ARC
  8
WHITE
 10
9.594102
 20
7.157158
 30
0.000000
 40
4.647991
 50
-95.101307
 51
-89.514861
  6
CONTINUOUS
  0
ARC
  8
WHITE
 10
9.349793
 20
0.003720
 30
0.000000
 40
2.521620
 50
79.949090
 51
83.540966
  6
CONTINUOUS
  0
ARC
  8
WHITE
 10
9.772443
 20
2.190409
 30
0.000000
 40
0.296744
 50
50.590513
 51
86.632444
  6
CONTINUOUS
  0
ARC
  8
WHITE
 10
9.946099
 20
2.404426
 30
0.000000
 40
0.021209
 50
15.120538
 51
45.996236
  6
CONTINUOUS
  0
ARC
  8
WHITE
 10
9.961530
 20
2.409588
 30
0.000000
 40
0.005058
 50
-71.251621
 51
4.200880
  6
CONTINUOUS
  0
ARC
  8
WHITE
 10
9.944937
 20
2.475851
 30
0.000000
 40
0.073351
 50
-94.565733
 51
-75.618894
  6
CONTINUOUS
  0
ARC
  8
WHITE
 10
9.927022
 20
2.317910
 30
0.000000
 40
0.085678
 50
81.897368
 51
111.601779
  6
CONTINUOUS
  0
ARC
  8
WHITE
 10
9.918568
 20
2.378486
 30
0.000000
 40
0.029956
 50
140.423196
 51
227.483640
  6
CONTINUOUS
  0
ARC
  8
WHITE
 10
10.027265
 20
2.485468
 30
0.000000
 40
0.182436
 50
-134.973032
 51
-113.414289
  6
CONTINUOUS
  0
ARC
  8
WHITE
 10
10.164807
 20
2.773527
 30
0.000000
 40
0.501569
 50
-114.756419
 51
-95.899242
  6
CONTINUOUS
  0
ARC
  8
WHITE
 10
10.102477
 20
1.048857
 30
0.000000
 40
1.225805
 50
78.397303
 51
89.496164
  6
CONTINUOUS
  0
ARC
  8
WHITE
 10
10.333539
 20
2.132728
 30
0.000000
 40
0.117906
 50
27.404239
 51
82.457579
  6
CONTINUOUS
  0
ARC
  8
WHITE
 10
11.057595
 20
2.326381
 30
0.000000
 40
0.634871
 50
-167.317456
 51
-157.907942
  6
CONTINUOUS
  0
ARC
  8
WHITE
 10
10.564314
 20
2.126523
 30
0.000000
 40
0.102641
 50
-157.720493
 51
-121.766248
  6
CONTINUOUS
  0
ARC
  8
WHITE
 10
10.682516
 20
2.539714
 30
0.000000
 40
0.529267
 50
-108.991513
 51
-91.333881
  6
CONTINUOUS
  0
ARC
  8
WHITE
 10
10.593252
 20
1.995988
 30
0.000000
 40
0.078318
 50
-33.850663
 51
10.746041
  6
CONTINUOUS
  0
ARC
  8
WHITE
 10
10.697275
 20
1.925521
 30
0.000000
 40
0.047329
 50
145.449815
 51
198.110652
  6
CONTINUOUS
  0
ARC
  8
WHITE
 10
10.703795
 20
1.941432
 30
0.000000
 40
0.059920
 50
-149.265413
 51
-97.472167
  6
CONTINUOUS
  0
ARC
  8
WHITE
 10
10.744077
 20
2.181227
 30
0.000000
 40
0.303044
 50
-99.127824
 51
-84.863994
  6
CONTINUOUS
  0
ARC
  8
WHITE
 10
11.276563
 20
-2.878551
 30
0.000000
 40
4.784714
 50
93.962510
 51
96.062847
  6
CONTINUOUS
  0
ARC
  8
WHITE
 10
11.409745
 20
3.620564
 30
0.000000
 40
1.787080
 50
-105.042917
 51
-89.829847
  6
CONTINUOUS
  0
ARC
  8
WHITE
 10
11.386806
 20
1.888375
 30
0.000000
 40
0.061725
 50
-62.767245
 51
20.997376
  6
CONTINUOUS
  0
ARC
  8
WHITE
 10
11.314764
 20
1.805718
 30
0.000000
 40
0.166708
 50
38.939050
 51
82.599338
  6
CONTINUOUS
  0
LINE
  8
WHITE
 10
11.336237
 20
1.971037
 30
0.000000
 11
11.310833
 21
1.976873
 31
0.000000
  6
CONTINUOUS
  0
ARC
  8
WHITE
 10
11.334838
 20
2.106088
 30
0.000000
 40
0.131425
 50
-112.363640
 51
-100.523806
  6
CONTINUOUS
  0
ARC
  8
WHITE
 10
11.922490
 20
-0.622148
 30
0.000000
 40
2.683555
 50
82.461442
 51
103.745922
  6
CONTINUOUS
  0
ARC
  8
WHITE
 10
12.343230
 20
5.730412
 30
0.000000
 40
3.692838
 50
-91.065585
 51
-85.363747
  6
CONTINUOUS
  0
ARC
  8
WHITE
 10
15.927609
 20
8.543258
 30
0.000000
 40
3.677859
 50
-156.002517
 51
-146.359031
  6
CONTINUOUS
  0
LINE
  8
WHITE
 10
12.865698
 20
6.505772
 30
0.000000
 11
13.124585
 21
6.200656
 31
0.000000
  6
CONTINUOUS
  0
ARC
  8
WHITE
 10
10.833094
 20
9.373034
 30
0.000000
 40
3.913427
 50
-57.723756
 51
-54.158446
  6
CONTINUOUS
  0
ARC
  8
WHITE
 10
12.955839
 20
6.363837
 30
0.000000
 40
0.301349
 50
-108.296043
 51
-96.280716
  6
CONTINUOUS
  0
ARC
  8
WHITE
 10
12.835603
 20
6.011102
 30
0.000000
 40
0.071382
 50
68.954183
 51
118.510580
  6
CONTINUOUS
  0
ARC
  8
WHITE
 10
13.004481
 20
5.764884
 30
0.000000
 40
0.369641
 50
123.301540
 51
137.307488
  6
CONTINUOUS
  0
ARC
  8
WHITE
 10
12.601255
 20
6.134332
 30
0.000000
 40
0.177251
 50
-66.368012
 51
-42.088692
  6
CONTINUOUS
  0
ARC
  8
WHITE
 10
12.657767
 20
6.023753
 30
0.000000
 40
0.053810
 50
-130.019048
 51
-74.322761
  6
CONTINUOUS
  0
ARC
  8
WHITE
 10
15.790219
 20
9.911307
 30
0.000000
 40
5.046327
 50
-129.939787
 51
-128.872970
  6
CONTINUOUS
  0
ARC
  8
WHITE
 10
12.754947
 20
5.997709
 30
0.000000
 40
0.209164
 50
153.098752
 51
167.721578
  6
CONTINUOUS
  0
ARC
  8
WHITE
 10
12.519886
 20
6.118343
 30
0.000000
 40
0.055055
 50
-28.177349
 51
26.170807
  6
CONTINUOUS
  0
ARC
  8
WHITE
 10
12.455592
 20
6.064336
 30
0.000000
 40
0.138052
 50
34.548643
 51
51.247851
  6
CONTINUOUS
  0
ARC
  8
WHITE
 10
12.659940
 20
6.318969
 30
0.000000
 40
0.188439
 50
-140.904398
 51
-128.744572
  6
CONTINUOUS
  0
ARC
  8
WHITE
 10
12.778168
 20
6.340154
 30
0.000000
 40
0.299253
 50
-171.142855
 51
-152.102357
  6
CONTINUOUS
  0
ARC
  8
WHITE
 10
13.979339
 20
6.579884
 30
0.000000
 40
1.523896
 50
-173.947958
 51
-169.190185
  6
CONTINUOUS
  0
ARC
  8
WHITE
 10
12.410801
 20
6.409468
 30
0.000000
 40
0.054022
 50
10.396607
 51
40.117315
  6
CONTINUOUS
  0
ARC
  8
WHITE
 10
12.295406
 20
6.340580
 30
0.000000
 40
0.187911
 50
33.493871
 51
38.402021
  6
CONTINUOUS
  0
ARC
  8
WHITE
 10
12.433534
 20
6.451521
 30
0.000000
 40
0.010810
 50
32.349012
 51
98.963316
  6
CONTINUOUS
  0
ARC
  8
WHITE
 10
12.448178
 20
6.396532
 30
0.000000
 40
0.067667
 50
103.963304
 51
153.449081
  6
CONTINUOUS
  0
ARC
  8
WHITE
 10
3.664407
 20
9.501855
 30
0.000000
 40
9.249379
 50
-20.023380
 51
-19.418339
  6
CONTINUOUS
  0
ARC
  8
WHITE
 10
12.952838
 20
5.962211
 30
0.000000
 40
0.704720
 50
148.078685
 51
166.817347
  6
CONTINUOUS
  0
ARC
  8
WHITE
 10
12.335817
 20
6.158476
 30
0.000000
 40
0.077733
 50
-152.785577
 51
-111.753138
  6
CONTINUOUS
  0
ARC
  8
WHITE
 10
12.222091
 20
5.889494
 30
0.000000
 40
0.214323
 50
60.060366
 51
66.658653
  6
CONTINUOUS
  0
ARC
  8
WHITE
 10
12.325713
 20
6.065958
 30
0.000000
 40
0.009844
 50
-10.256248
 51
70.138538
  6
CONTINUOUS
  0
ARC
  8
WHITE
 10
12.267349
 20
6.111611
 30
0.000000
 40
0.082934
 50
-66.532639
 51
-34.862093
  6
CONTINUOUS
  0
ARC
  8
WHITE
 10
12.187285
 20
6.277651
 30
0.000000
 40
0.267225
 50
-78.860833
 51
-64.962885
  6
CONTINUOUS
  0
ARC
  8
WHITE
 10
12.165026
 20
6.365199
 30
0.000000
 40
0.357458
 50
-102.111048
 51
-78.071167
  6
CONTINUOUS
  0
ARC
  8
WHITE
 10
11.156152
 20
4.070131
 30
0.000000
 40
2.158090
 50
64.358881
 51
65.887371
  6
CONTINUOUS
  0
ARC
  8
WHITE
 10
11.674408
 20
5.167770
 30
0.000000
 40
0.944824
 50
67.380230
 51
76.504061
  6
CONTINUOUS
  0
ARC
  8
WHITE
 10
11.498682
 20
4.008398
 30
0.000000
 40
2.115542
 50
79.205161
 51
91.684620
  6
CONTINUOUS
  0
ARC
  8
WHITE
 10
11.526957
 20
6.397783
 30
0.000000
 40
0.289269
 50
-123.041185
 51
-108.224906
  6
CONTINUOUS
  0
ARC
  8
WHITE
 10
11.258935
 20
5.992960
 30
0.000000
 40
0.196263
 50
55.805268
 51
77.998696
  6
CONTINUOUS
  0
ARC
  8
WHITE
 10
10.194494
 20
-0.436056
 30
0.000000
 40
6.712606
 50
80.522923
 51
82.867752
  6
CONTINUOUS
  0
ARC
  8
WHITE
 10
10.686508
 20
5.667244
 30
0.000000
 40
0.653625
 50
58.509826
 51
90.288452
  6
CONTINUOUS
  0
ARC
  8
WHITE
 10
10.257646
 20
5.983704
 30
0.000000
 40
0.542942
 50
38.387785
 51
86.070107
  6
CONTINUOUS
  0
ARC
  8
WHITE
 10
10.254508
 20
5.908664
 30
0.000000
 40
0.618024
 50
86.256710
 51
102.643335
  6
CONTINUOUS
  0
ARC
  8
WHITE
 10
10.571205
 20
4.860556
 30
0.000000
 40
1.711887
 50
105.308659
 51
114.960203
  6
CONTINUOUS
  0
ARC
  8
WHITE
 10
9.789933
 20
6.640358
 30
0.000000
 40
0.235288
 50
-91.565879
 51
-75.509324
  6
CONTINUOUS
  0
ARC
  8
WHITE
 10
9.777289
 20
6.225129
 30
0.000000
 40
0.180137
 50
88.022870
 51
108.325247
  6
CONTINUOUS
  0
ARC
  8
WHITE
 10
9.039465
 20
7.549477
 30
0.000000
 40
1.339487
 50
-65.070798
 51
-59.433132
  6
CONTINUOUS
  0
ARC
  8
WHITE
 10
8.999702
 20
10.923118
 30
0.000000
 40
4.627957
 50
-83.971414
 51
-82.496457
  6
CONTINUOUS
  0
ARC
  8
WHITE
 10
9.549254
 20
6.156128
 30
0.000000
 40
0.176450
 50
111.093161
 51
131.251162
  6
CONTINUOUS
  0
ARC
  8
WHITE
 10
9.338263
 20
6.400927
 30
0.000000
 40
0.146742
 50
-78.692691
 51
-49.835127
  6
CONTINUOUS
  0
ARC
  8
WHITE
 10
9.358218
 20
6.287243
 30
0.000000
 40
0.031471
 50
-124.174855
 51
-73.730081
  6
CONTINUOUS
  0
ARC
  8
WHITE
 10
9.387694
 20
6.304337
 30
0.000000
 40
0.063904
 50
-166.307283
 51
-137.551941
  6
CONTINUOUS
  0
ARC
  8
WHITE
 10
7.779978
 20
5.900144
 30
0.000000
 40
1.593843
 50
14.128973
 51
19.323614
  6
CONTINUOUS
  0
LINE
  8
WHITE
 10
9.284032
 20
6.427552
 30
0.000000
 11
9.181788
 21
6.691460
 31
0.000000
  6
CONTINUOUS
  0
ARC
  8
WHITE
 10
9.136836
 20
6.677494
 30
0.000000
 40
0.047072
 50
17.259670
 51
53.870928
  6
CONTINUOUS
  0
ARC
  8
WHITE
 10
9.131476
 20
6.664771
 30
0.000000
 40
0.060591
 50
56.871994
 51
80.556931
  6
CONTINUOUS
  0
ARC
  8
WHITE
 10
7.711469
 20
8.062172
 30
0.000000
 40
1.958062
 50
-66.145444
 51
-43.089501
  6
CONTINUOUS
  0
ARC
  8
WHITE
 10
9.982203
 20
9.781141
 30
0.000000
 40
3.808606
 50
-117.503732
 51
-112.848447
  6
CONTINUOUS
  0
ARC
  8
WHITE
 10
1.139202
 20
1.090648
 30
0.000000
 40
8.854730
 50
36.865809
 51
40.472142
  6
CONTINUOUS
  0
ARC
  8
WHITE
 10
7.197698
 20
5.912857
 30
0.000000
 40
1.146732
 50
53.786219
 51
64.020035
  6
CONTINUOUS
  0
ARC
  8
WHITE
 10
8.948435
 20
9.445628
 30
0.000000
 40
2.796088
 50
-120.314698
 51
-116.518194
  6
CONTINUOUS
  0
ARC
  8
WHITE
 10
7.800185
 20
-3.847135
 30
0.000000
 40
10.882175
 50
89.410514
 51
91.385244
  6
CONTINUOUS
  0
LINE
  8
WHITE
 10
7.912144
 20
7.034464
 30
0.000000
 11
7.948606
 21
7.047486
 31
0.000000
  6
CONTINUOUS
  0
LINE
  8
WHITE
 10
7.948606
 20
7.047486
 30
0.000000
 11
12.567652
 21
7.047486
 31
0.000000
  6
CONTINUOUS
  0
ARC
  8
WHITE
 10
6.284280
 20
6.193107
 30
0.000000
 40
0.032170
 50
-48.991775
 51
-20.843933
  6
CONTINUOUS
  0
LINE
  8
WHITE
 10
6.314344
 20
6.181660
 30
0.000000
 11
6.551038
 21
6.620752
 31
0.000000
  6
CONTINUOUS
  0
LINE
  8
WHITE
 10
6.551038
 20
6.620752
 30
0.000000
 11
6.786495
 21
7.060508
 31
0.000000
  6
CONTINUOUS
  0
LINE
  8
WHITE
 10
6.786495
 20
7.060508
 30
0.000000
 11
2.583557
 21
7.060508
 31
0.000000
  6
CONTINUOUS
  0
ARC
  8
WHITE
 10
0.662673
 20
7.826835
 30
0.000000
 40
2.068104
 50
-58.867524
 51
-21.749277
  6
CONTINUOUS
  0
LINE
  8
WHITE
 10
1.731921
 20
6.056591
 30
0.000000
 11
1.731921
 21
6.040942
 31
0.000000
  6
CONTINUOUS
  0
ARC
  8
WHITE
 10
3.131544
 20
8.556136
 30
0.000000
 40
2.878393
 50
-119.094500
 51
-114.086865
  6
CONTINUOUS
  0
ARC
  8
WHITE
 10
2.043937
 20
6.200476
 30
0.000000
 40
0.285714
 50
-107.754725
 51
-76.029700
  6
CONTINUOUS
  0
ARC
  8
WHITE
 10
2.174057
 20
5.587453
 30
0.000000
 40
0.341283
 50
90.974890
 51
100.320678
  6
CONTINUOUS
  0
ARC
  8
WHITE
 10
2.165689
 20
5.978412
 30
0.000000
 40
0.049792
 50
-87.051933
 51
-49.378174
  6
CONTINUOUS
  0
ARC
  8
WHITE
 10
5.455535
 20
6.006899
 30
0.000000
 40
3.258102
 50
176.822308
 51
181.165657
  6
CONTINUOUS
  0
ARC
  8
WHITE
 10
2.512588
 20
6.171512
 30
0.000000
 40
0.310557
 50
158.193081
 51
177.048130
  6
CONTINUOUS
  0
ARC
  8
WHITE
 10
2.260620
 20
6.274715
 30
0.000000
 40
0.038346
 50
64.307228
 51
161.507977
  6
CONTINUOUS
  0
ARC
  8
WHITE
 10
2.248057
 20
6.237924
 30
0.000000
 40
0.077085
 50
-13.102262
 51
67.750744
  6
CONTINUOUS
  0
ARC
  8
WHITE
 10
2.672508
 20
6.139817
 30
0.000000
 40
0.358556
 50
167.004025
 51
187.325274
  6
CONTINUOUS
  0
ARC
  8
WHITE
 10
2.536966
 20
6.119854
 30
0.000000
 40
0.221590
 50
-173.325883
 51
-159.458042
  6
CONTINUOUS
  0
ARC
  8
WHITE
 10
2.381088
 20
6.059139
 30
0.000000
 40
0.054362
 50
-161.732502
 51
-123.823734
  6
CONTINUOUS
  0
ARC
  8
WHITE
 10
2.396673
 20
6.149191
 30
0.000000
 40
0.142773
 50
-108.729593
 51
-50.321310
  6
CONTINUOUS
  0
ARC
  8
WHITE
 10
2.681285
 20
5.793543
 30
0.000000
 40
0.312770
 50
100.733678
 51
128.208175
  6
CONTINUOUS
  0
ARC
  8
WHITE
 10
2.643139
 20
5.331058
 30
0.000000
 40
0.770045
 50
76.751573
 51
91.496119
  6
CONTINUOUS
  0
ARC
  8
WHITE
 10
3.015345
 20
6.685808
 30
0.000000
 40
0.636064
 50
-107.922075
 51
-99.841384
  6
CONTINUOUS
  0
ARC
  8
WHITE
 10
3.210577
 20
3.712609
 30
0.000000
 40
2.366098
 50
89.606143
 51
97.380627
  6
CONTINUOUS
  0
ARC
  8
WHITE
 10
3.469747
 20
5.790447
 30
0.000000
 40
0.376914
 50
103.154468
 51
130.124823
  6
CONTINUOUS
  0
ARC
  8
WHITE
 10
3.689740
 20
5.992352
 30
0.000000
 40
0.347506
 50
129.539646
 51
151.630422
  6
CONTINUOUS
  0
ARC
  8
WHITE
 10
3.989596
 20
5.092618
 30
0.000000
 40
1.278713
 50
104.827554
 51
114.048226
  6
CONTINUOUS
  0
ARC
  8
WHITE
 10
3.738722
 20
6.055196
 30
0.000000
 40
0.284013
 50
67.703431
 51
105.596976
  6
CONTINUOUS
  0
ARC
  8
WHITE
 10
3.950975
 20
6.530307
 30
0.000000
 40
0.236655
 50
-116.203796
 51
-82.732193
  6
CONTINUOUS
  0
ARC
  8
WHITE
 10
3.882823
 20
6.496333
 30
0.000000
 40
0.223459
 50
-63.962042
 51
-48.794209
  6
CONTINUOUS
  0
ARC
  8
WHITE
 10
4.143178
 20
6.199872
 30
0.000000
 40
0.171097
 50
110.988699
 51
131.400047
  6
CONTINUOUS
  0
ARC
  8
WHITE
 10
4.223483
 20
5.165881
 30
0.000000
 40
1.202104
 50
88.842589
 51
96.764209
  6
CONTINUOUS
  0
ARC
  8
WHITE
 10
4.683238
 20
6.250717
 30
0.000000
 40
0.450923
 50
115.310361
 51
164.958511
  6
CONTINUOUS
  0
ARC
  8
WHITE
 10
4.774102
 20
6.126930
 30
0.000000
 40
0.602382
 50
72.809936
 51
118.090740
  6
CONTINUOUS
  0
ARC
  8
WHITE
 10
4.665917
 20
5.826341
 30
0.000000
 40
0.921632
 50
64.494597
 51
71.907544
  6
CONTINUOUS
  0
ARC
  8
WHITE
 10
5.277997
 20
7.098991
 30
0.000000
 40
0.490571
 50
-116.022958
 51
-105.206233
  6
CONTINUOUS
  0
ARC
  8
WHITE
 10
5.166247
 20
6.779339
 30
0.000000
 40
0.154672
 50
-96.281398
 51
-65.695295
  6
CONTINUOUS
  0
ARC
  8
WHITE
 10
5.689886
 20
5.607789
 30
0.000000
 40
1.128578
 50
109.880684
 51
114.052454
  6
CONTINUOUS
  0
ARC
  8
WHITE
 10
5.350347
 20
6.378767
 30
0.000000
 40
0.293692
 50
44.333844
 51
98.665272
  6
CONTINUOUS
  0
ARC
  8
WHITE
 10
5.394834
 20
6.373777
 30
0.000000
 40
0.267612
 50
29.270523
 51
51.775093
  6
CONTINUOUS
  0
ARC
  8
WHITE
 10
5.410253
 20
6.400735
 30
0.000000
 40
0.241511
 50
6.229562
 51
25.477327
  6
CONTINUOUS
  0
ARC
  8
WHITE
 10
5.670401
 20
6.428618
 30
0.000000
 40
0.020133
 50
-175.224310
 51
-142.426148
  6
CONTINUOUS
  0
ARC
  8
WHITE
 10
5.657235
 20
6.422682
 30
0.000000
 40
0.006928
 50
-113.755426
 51
-48.455578
  6
CONTINUOUS
  0
ARC
  8
WHITE
 10
5.602438
 20
6.502379
 30
0.000000
 40
0.103597
 50
-55.019762
 51
-44.866635
  6
CONTINUOUS
  0
ARC
  8
WHITE
 10
5.219578
 20
6.864024
 30
0.000000
 40
0.630225
 50
-43.614189
 51
-37.217956
  6
CONTINUOUS
  0
ARC
  8
WHITE
 10
5.798233
 20
6.425388
 30
0.000000
 40
0.095892
 50
103.073118
 51
143.196803
  6
CONTINUOUS
  0
ARC
  8
WHITE
 10
7.412456
 20
8.073725
 30
0.000000
 40
2.256995
 50
-136.453831
 51
-128.751183
  6
CONTINUOUS
  0
ARC
  8
WHITE
 10
7.344249
 20
9.686975
 30
0.000000
 40
3.631489
 50
-111.730645
 51
-107.807300
  6
CONTINUOUS
  0
ARC
  8
WHITE
 10
6.157592
 20
6.098782
 30
0.000000
 40
0.151224
 50
34.112676
 51
59.791701
  6
CONTINUOUS
  0
ARC
  8
WHITE
 10
6.330599
 20
6.218881
 30
0.000000
 40
0.059418
 50
-143.564003
 51
-122.376075
  6
CONTINUOUS
  0
ARC
  8
WHITE
 10
6.301954
 20
6.175334
 30
0.000000
 40
0.007354
 50
-115.552505
 51
-62.159458
  6
CONTINUOUS
  0
ARC
  8
WHITE
 10
6.769514
 20
1.566814
 30
0.000000
 40
0.041003
 50
-2.200663
 51
42.689148
  6
CONTINUOUS
  0
ARC
  8
WHITE
 10
6.788689
 20
1.577022
 30
0.000000
 40
0.020729
 50
58.070455
 51
90.277191
  6
CONTINUOUS
  0
ARC
  8
WHITE
 10
6.784953
 20
1.850865
 30
0.000000
 40
0.253140
 50
-91.991612
 51
-89.177148
  6
CONTINUOUS
  0
ARC
  8
WHITE
 10
5.427747
 20
-5.984207
 30
0.000000
 40
7.701053
 50
79.915865
 51
86.436518
  6
CONTINUOUS
  0
ARC
  8
WHITE
 10
5.562775
 20
3.457983
 30
0.000000
 40
1.789331
 50
-88.325240
 51
-78.928038
  6
CONTINUOUS
  0
ARC
  8
WHITE
 10
5.420865
 20
1.241115
 30
0.000000
 40
0.470273
 50
65.609014
 51
91.158648
  6
CONTINUOUS
  0
ARC
  8
WHITE
 10
5.278832
 20
3.449683
 30
0.000000
 40
1.743435
 50
-91.514300
 51
-85.640568
  6
CONTINUOUS
  0
ARC
  8
WHITE
 10
5.263621
 20
1.913504
 30
0.000000
 40
0.208939
 50
-118.912884
 51
-98.493904
  6
CONTINUOUS
  0
ARC
  8
WHITE
 10
4.976247
 20
1.387095
 30
0.000000
 40
0.390807
 50
61.520121
 51
72.875966
  6
CONTINUOUS
  0
ARC
  8
WHITE
 10
5.071745
 20
1.626473
 30
0.000000
 40
0.135525
 50
81.696975
 51
106.009272
  6
CONTINUOUS
  0
ARC
  8
WHITE
 10
4.994910
 20
1.894097
 30
0.000000
 40
0.142911
 50
-96.946561
 51
-73.972167
  6
CONTINUOUS
  0
ARC
  8
WHITE
 10
4.871319
 20
1.441882
 30
0.000000
 40
0.328056
 50
71.091861
 51
82.474955
  6
CONTINUOUS
  0
ARC
  8
WHITE
 10
4.791523
 20
2.530444
 30
0.000000
 40
0.773139
 50
-88.056072
 51
-80.864014
  6
CONTINUOUS
  0
ARC
  8
WHITE
 10
4.810118
 20
1.954553
 30
0.000000
 40
0.196952
 50
-105.947469
 51
-87.779395
  6
CONTINUOUS
  0
ARC
  8
WHITE
 10
4.764122
 20
1.800216
 30
0.000000
 40
0.035963
 50
-175.992355
 51
-103.044404
  6
CONTINUOUS
  0
ARC
  8
WHITE
 10
4.903745
 20
1.771642
 30
0.000000
 40
0.177423
 50
123.189206
 51
171.553581
  6
CONTINUOUS
  0
ARC
  8
WHITE
 10
7.695317
 20
-1.714228
 30
0.000000
 40
4.642526
 50
124.915798
 51
128.478782
  6
CONTINUOUS
  0
ARC
  8
WHITE
 10
4.818358
 20
2.231356
 30
0.000000
 40
0.259847
 50
-32.271330
 51
-14.244519
  6
CONTINUOUS
  0
ARC
  8
WHITE
 10
5.138495
 20
2.153569
 30
0.000000
 40
0.069670
 50
106.727044
 51
168.533993
  6
CONTINUOUS
  0
ARC
  8
WHITE
 10
5.060886
 20
3.021289
 30
0.000000
 40
0.803064
 50
-85.889970
 51
-79.559116
  6
CONTINUOUS
  0
ARC
  8
WHITE
 10
5.166959
 20
2.451519
 30
0.000000
 40
0.223507
 50
-79.831551
 51
-65.126686
  6
CONTINUOUS
  0
ARC
  8
WHITE
 10
5.249816
 20
2.279692
 30
0.000000
 40
0.032896
 50
-70.181943
 51
-2.735624
  6
CONTINUOUS
  0
ARC
  8
WHITE
 10
5.260808
 20
2.277595
 30
0.000000
 40
0.021873
 50
1.380984
 51
72.163207
  6
CONTINUOUS
  0
ARC
  8
WHITE
 10
5.258010
 20
2.197844
 30
0.000000
 40
0.101020
 50
84.605014
 51
98.770368
  6
CONTINUOUS
  0
ARC
  8
WHITE
 10
5.262123
 20
2.041144
 30
0.000000
 40
0.257280
 50
94.350441
 51
102.636285
  6
CONTINUOUS
  0
ARC
  8
WHITE
 10
5.528395
 20
1.714579
 30
0.000000
 40
0.661573
 50
119.180170
 51
122.743192
  6
CONTINUOUS
  0
LINE
  8
WHITE
 10
5.170567
 20
2.271030
 30
0.000000
 11
4.956159
 21
2.271030
 31
0.000000
  6
CONTINUOUS
  0
ARC
  8
WHITE
 10
4.870019
 20
2.429646
 30
0.000000
 40
0.180497
 50
-89.782271
 51
-61.494906
  6
CONTINUOUS
  0
ARC
  8
WHITE
 10
4.875791
 20
1.587150
 30
0.000000
 40
0.662020
 50
90.440153
 51
98.782759
  6
CONTINUOUS
  0
ARC
  8
WHITE
 10
4.447329
 20
2.842084
 30
0.000000
 40
0.684097
 50
-76.527300
 51
-61.408870
  6
CONTINUOUS
  0
ARC
  8
WHITE
 10
4.524654
 20
7.284178
 30
0.000000
 40
5.108024
 50
-94.220262
 51
-89.079541
  6
CONTINUOUS
  0
ARC
  8
WHITE
 10
4.061017
 20
5.136237
 30
0.000000
 40
2.947540
 50
-92.807408
 51
-88.294346
  6
CONTINUOUS
  0
ARC
  8
WHITE
 10
3.944493
 20
2.659282
 30
0.000000
 40
0.467876
 50
-107.354681
 51
-93.411675
  6
CONTINUOUS
  0
ARC
  8
WHITE
 10
3.838743
 20
2.329588
 30
0.000000
 40
0.121675
 50
-147.405848
 51
-106.133619
  6
CONTINUOUS
  0
ARC
  8
WHITE
 10
3.772985
 20
2.280782
 30
0.000000
 40
0.040387
 50
169.137782
 51
204.485406
  6
CONTINUOUS
  0
ARC
  8
WHITE
 10
3.770847
 20
2.277155
 30
0.000000
 40
0.039171
 50
122.355888
 51
163.327816
  6
CONTINUOUS
  0
ARC
  8
WHITE
 10
3.971872
 20
1.939011
 30
0.000000
 40
0.432543
 50
105.744750
 51
120.878453
  6
CONTINUOUS
  0
LINE
  8
WHITE
 10
3.854501
 20
2.355325
 30
0.000000
 11
3.854501
 21
2.368469
 31
0.000000
  6
CONTINUOUS
  0
ARC
  8
WHITE
 10
3.638667
 20
1.653202
 30
0.000000
 40
0.747122
 50
73.208727
 51
85.731123
  6
CONTINUOUS
  0
ARC
  8
WHITE
 10
3.710472
 20
2.639690
 30
0.000000
 40
0.241981
 50
-131.990958
 51
-93.836563
  6
CONTINUOUS
  0
ARC
  8
WHITE
 10
3.603269
 20
2.499690
 30
0.000000
 40
0.067667
 50
153.564861
 51
216.083140
  6
CONTINUOUS
  0
ARC
  8
WHITE
 10
2.171307
 20
3.100619
 30
0.000000
 40
1.485421
 50
-22.598501
 51
-19.302648
  6
CONTINUOUS
  0
ARC
  8
WHITE
 10
3.365328
 20
2.464005
 30
0.000000
 40
0.253811
 50
35.004567
 51
91.809422
  6
CONTINUOUS
  0
ARC
  8
WHITE
 10
3.428309
 20
-3.593782
 30
0.000000
 40
6.311871
 50
90.644471
 51
91.771262
  6
CONTINUOUS
  0
ARC
  8
WHITE
 10
3.236882
 20
2.606648
 30
0.000000
 40
0.108486
 50
91.938178
 51
107.822202
  6
CONTINUOUS
  0
ARC
  8
WHITE
 10
3.207188
 20
2.697488
 30
0.000000
 40
0.012926
 50
105.753917
 51
178.310372
  6
CONTINUOUS
  0
ARC
  8
WHITE
 10
3.207185
 20
2.697391
 30
0.000000
 40
0.012926
 50
177.879781
 51
225.431265
  6
CONTINUOUS
  0
ARC
  8
WHITE
 10
3.069530
 20
2.558828
 30
0.000000
 40
0.182391
 50
37.753180
 51
45.171204
  6
CONTINUOUS
  0
ARC
  8
WHITE
 10
3.194576
 20
2.659625
 30
0.000000
 40
0.022032
 50
-47.019888
 51
29.573627
  6
CONTINUOUS
  0
ARC
  8
WHITE
 10
3.138010
 20
2.707165
 30
0.000000
 40
0.095797
 50
-77.912774
 51
-41.645299
  6
CONTINUOUS
  0
ARC
  8
WHITE
 10
1.489289
 20
35.394520
 30
0.000000
 40
32.823477
 50
-87.799025
 51
-87.085764
  6
CONTINUOUS
  0
ARC
  8
WHITE
 10
2.717422
 20
1.455745
 30
0.000000
 40
1.139975
 50
88.369008
 51
115.821485
  6
CONTINUOUS
  0
ARC
  8
WHITE
 10
2.395726
 20
1.735322
 30
0.000000
 40
0.766778
 50
103.180611
 51
121.536029
  6
CONTINUOUS
  0
ARC
  8
WHITE
 10
2.932873
 20
0.456145
 30
0.000000
 40
2.148391
 50
115.893378
 51
119.244046
  6
CONTINUOUS
  0
ARC
  8
WHITE
 10
1.934357
 20
2.229912
 30
0.000000
 40
0.112989
 50
116.853683
 51
175.191283
  6
CONTINUOUS
  0
ARC
  8
WHITE
 10
1.938571
 20
2.241937
 30
0.000000
 40
0.116834
 50
-178.747663
 51
-120.618059
  6
CONTINUOUS
  0
ARC
  8
WHITE
 10
-0.827268
 20
-1.947389
 30
0.000000
 40
4.903303
 50
55.079746
 51
56.499724
  6
CONTINUOUS
  0
ARC
  8
WHITE
 10
1.873939
 20
1.928719
 30
0.000000
 40
0.178866
 50
25.006451
 51
53.808188
  6
CONTINUOUS
  0
ARC
  8
WHITE
 10
1.993806
 20
1.997678
 30
0.000000
 40
0.042753
 50
-62.623490
 51
8.949935
  6
CONTINUOUS
  0
ARC
  8
WHITE
 10
0.807937
 20
4.371350
 30
0.000000
 40
2.696162
 50
-68.537867
 51
-63.440480
  6
CONTINUOUS
  0
ARC
  8
WHITE
 10
1.833559
 20
1.870253
 30
0.000000
 40
0.039965
 50
-168.288918
 51
-127.863215
  6
CONTINUOUS
  0
ARC
  8
WHITE
 10
1.895318
 20
2.011360
 30
0.000000
 40
0.193020
 50
-116.554058
 51
-108.951209
  6
CONTINUOUS
  0
ARC
  8
WHITE
 10
1.783161
 20
1.705835
 30
0.000000
 40
0.132546
 50
45.160128
 51
68.084380
  6
CONTINUOUS
  0
ARC
  8
WHITE
 10
1.843593
 20
1.763468
 30
0.000000
 40
0.049117
 50
-8.128948
 51
47.742463
  6
CONTINUOUS
  0
ARC
  8
WHITE
 10
2.105799
 20
1.564730
 30
0.000000
 40
0.287057
 50
138.076848
 51
151.039738
  6
CONTINUOUS
  0
ARC
  8
WHITE
 10
1.901991
 20
1.679322
 30
0.000000
 40
0.053272
 50
152.738295
 51
197.411121
  6
CONTINUOUS
  0
ARC
  8
WHITE
 10
1.916456
 20
1.697601
 30
0.000000
 40
0.073719
 50
-152.342382
 51
-107.349309
  6
CONTINUOUS
  0
ARC
  8
WHITE
 10
1.755941
 20
0.823901
 30
0.000000
 40
0.815192
 50
51.729227
 51
80.215798
  6
CONTINUOUS
  0
ARC
  8
WHITE
 10
2.356870
 20
1.646943
 30
0.000000
 40
0.206696
 50
-117.679683
 51
-64.200354
  6
CONTINUOUS
  0
ARC
  8
WHITE
 10
2.634829
 20
1.340652
 30
0.000000
 40
0.223141
 50
117.305467
 51
147.406954
  6
CONTINUOUS
  0
ARC
  8
WHITE
 10
2.664307
 20
1.229267
 30
0.000000
 40
0.336560
 50
96.500556
 51
113.062103
  6
CONTINUOUS
  0
ARC
  8
WHITE
 10
2.590077
 20
1.881155
 30
0.000000
 40
0.319542
 50
-83.508301
 51
-66.069570
  6
CONTINUOUS
  0
ARC
  8
WHITE
 10
3.770007
 20
0.413830
 30
0.000000
 40
1.576191
 50
127.196371
 51
131.786943
  6
CONTINUOUS
  0
ARC
  8
WHITE
 10
38.962438
 20
-51.781275
 30
0.000000
 40
64.524846
 50
123.750257
 51
124.068020
  6
CONTINUOUS
  0
ARC
  8
WHITE
 10
1.855056
 20
5.484083
 30
0.000000
 40
3.828049
 50
-70.797771
 51
-66.883229
  6
CONTINUOUS
  0
ARC
  8
WHITE
 10
3.400592
 20
1.835277
 30
0.000000
 40
0.135027
 50
88.482436
 51
108.399454
  6
CONTINUOUS
  0
ARC
  8
WHITE
 10
3.409161
 20
2.106195
 30
0.000000
 40
0.136030
 50
-92.103557
 51
-70.706570
  6
CONTINUOUS
  0
ARC
  8
WHITE
 10
3.390562
 20
2.102849
 30
0.000000
 40
0.140264
 50
-63.061702
 51
-48.146168
  6
CONTINUOUS
  0
ARC
  8
WHITE
 10
3.548721
 20
1.925863
 30
0.000000
 40
0.097092
 50
109.091743
 51
131.684972
  6
CONTINUOUS
  0
ARC
  8
WHITE
 10
3.987269
 20
0.500070
 30
0.000000
 40
1.588752
 50
89.180758
 51
107.218846
  6
CONTINUOUS
  0
ARC
  8
WHITE
 10
3.871862
 20
1.760633
 30
0.000000
 40
0.355919
 50
20.104648
 51
67.165171
  6
CONTINUOUS
  0
ARC
  8
WHITE
 10
3.516537
 20
0.627410
 30
0.000000
 40
1.432457
 50
55.108005
 51
61.224415
  6
CONTINUOUS
  0
ARC
  8
WHITE
 10
3.881846
 20
1.407051
 30
0.000000
 40
0.602059
 50
6.891825
 51
41.040373
  6
CONTINUOUS
  0
ARC
  8
WHITE
 10
4.413132
 20
1.277176
 30
0.000000
 40
0.212754
 50
28.855565
 51
71.807874
  6
CONTINUOUS
  0
ARC
  8
WHITE
 10
4.637694
 20
1.422024
 30
0.000000
 40
0.056918
 50
-132.187985
 51
-72.900834
  6
CONTINUOUS
  0
ARC
  8
WHITE
 10
-1.095597
 20
18.914633
 30
0.000000
 40
18.465113
 50
-71.856411
 51
-71.191462
  6
CONTINUOUS
  0
ARC
  8
WHITE
 10
1.326146
 20
23.741156
 30
0.000000
 40
22.583455
 50
-81.003330
 51
-80.609525
  6
CONTINUOUS
  0
ARC
  8
WHITE
 10
4.879199
 20
2.390623
 30
0.000000
 40
0.939565
 50
-81.941767
 51
-70.561854
  6
CONTINUOUS
  0
ARC
  8
WHITE
 10
5.357542
 20
1.258185
 30
0.000000
 40
0.296937
 50
98.942638
 51
123.911960
  6
CONTINUOUS
  0
ARC
  8
WHITE
 10
5.260433
 20
0.190165
 30
0.000000
 40
1.362300
 50
79.598557
 51
87.856572
  6
CONTINUOUS
  0
ARC
  8
WHITE
 10
5.739239
 20
5.113204
 30
0.000000
 40
3.590683
 50
-93.718157
 51
-88.615026
  6
CONTINUOUS
  0
ARC
  8
WHITE
 10
6.043852
 20
2.374381
 30
0.000000
 40
0.878253
 50
-104.360497
 51
-78.272174
  6
CONTINUOUS
  0
ARC
  8
WHITE
 10
6.244268
 20
2.751239
 30
0.000000
 40
1.236970
 50
-91.014442
 51
-82.605260
  6
CONTINUOUS
  0
ARC
  8
WHITE
 10
6.359964
 20
1.690992
 30
0.000000
 40
0.172028
 50
-75.350409
 51
-59.746768
  6
CONTINUOUS
  0
ARC
  8
WHITE
 10
6.498303
 20
1.454395
 30
0.000000
 40
0.102045
 50
94.348483
 51
120.419059
  6
CONTINUOUS
  0
ARC
  8
WHITE
 10
6.473656
 20
-2.361858
 30
0.000000
 40
3.918041
 50
86.586288
 51
89.752712
  6
CONTINUOUS
  0
ARC
  8
WHITE
 10
6.727540
 20
1.758876
 30
0.000000
 40
0.210653
 50
-95.607490
 51
-66.811669
  6
CONTINUOUS
  0
ARC
  8
WHITE
 10
2.261046
 20
3.079042
 30
0.000000
 40
0.020302
 50
28.759458
 51
83.860512
  6
CONTINUOUS
  0
ARC
  8
WHITE
 10
1.778051
 20
3.688272
 30
0.000000
 40
0.763125
 50
-63.996263
 51
-50.523506
  6
CONTINUOUS
  0
ARC
  8
WHITE
 10
2.085984
 20
3.041897
 30
0.000000
 40
0.047642
 50
-162.906344
 51
-55.996235
  6
CONTINUOUS
  0
ARC
  8
WHITE
 10
2.337796
 20
2.916371
 30
0.000000
 40
0.317574
 50
130.513454
 51
159.441218
  6
CONTINUOUS
  0
ARC
  8
WHITE
 10
1.983777
 20
3.276443
 30
0.000000
 40
0.189456
 50
-38.769169
 51
-18.041186
  6
CONTINUOUS
  0
ARC
  8
WHITE
 10
2.095392
 20
3.242760
 30
0.000000
 40
0.072942
 50
-20.037119
 51
1.861653
  6
CONTINUOUS
  0
ARC
  8
WHITE
 10
2.159110
 20
3.245466
 30
0.000000
 40
0.009191
 50
-2.095222
 51
108.000280
  6
CONTINUOUS
  0
ARC
  8
WHITE
 10
-1.510217
 20
7.502737
 30
0.000000
 40
5.611875
 50
-51.278117
 51
-49.205764
  6
CONTINUOUS
  0
ARC
  8
WHITE
 10
1.785897
 20
3.295059
 30
0.000000
 40
0.273984
 50
-89.305470
 51
-38.526828
  6
CONTINUOUS
  0
ARC
  8
WHITE
 10
1.837054
 20
3.078119
 30
0.000000
 40
0.074431
 50
-147.410795
 51
-129.992861
  6
CONTINUOUS
  0
ARC
  8
WHITE
 10
1.807487
 20
3.049728
 30
0.000000
 40
0.035149
 50
130.638215
 51
199.440197
  6
CONTINUOUS
  0
LINE
  8
WHITE
 10
1.784595
 20
3.076400
 30
0.000000
 11
1.997569
 21
3.284139
 31
0.000000
  6
CONTINUOUS
  0
ARC
  8
WHITE
 10
1.913007
 20
3.263345
 30
0.000000
 40
0.087081
 50
13.814727
 51
23.025253
  6
CONTINUOUS
  0
ARC
  8
WHITE
 10
1.985586
 20
3.291535
 30
0.000000
 40
0.009576
 50
37.812084
 51
87.678795
  6
CONTINUOUS
  0
ARC
  8
WHITE
 10
1.977769
 20
3.260564
 30
0.000000
 40
0.041361
 50
78.558529
 51
111.049341
  6
CONTINUOUS
  0
ARC
  8
WHITE
 10
1.866125
 20
3.508389
 30
0.000000
 40
0.230527
 50
-79.695108
 51
-65.174434
  6
CONTINUOUS
  0
ARC
  8
WHITE
 10
1.895253
 20
3.338392
 30
0.000000
 40
0.058088
 50
-134.786716
 51
-77.966616
  6
CONTINUOUS
  0
LINE
  8
WHITE
 10
1.854331
 20
3.297165
 30
0.000000
 11
1.965839
 21
3.411151
 31
0.000000
  6
CONTINUOUS
  0
ARC
  8
WHITE
 10
1.937814
 20
3.412703
 30
0.000000
 40
0.028068
 50
-3.170098
 51
37.254461
  6
CONTINUOUS
  0
ARC
  8
WHITE
 10
1.942666
 20
3.412315
 30
0.000000
 40
0.024655
 50
44.819648
 51
100.529741
  6
CONTINUOUS
  0
ARC
  8
WHITE
 10
2.074391
 20
3.055194
 30
0.000000
 40
0.404963
 50
109.657768
 51
127.984468
  6
CONTINUOUS
  0
ARC
  8
WHITE
 10
1.696088
 20
3.552044
 30
0.000000
 40
0.219601
 50
-68.177597
 51
-54.002755
  6
CONTINUOUS
  0
ARC
  8
WHITE
 10
1.769632
 20
3.363710
 30
0.000000
 40
0.017511
 50
-169.979769
 51
-62.489904
  6
CONTINUOUS
  0
ARC
  8
WHITE
 10
1.806901
 20
3.369665
 30
0.000000
 40
0.055251
 50
129.232832
 51
189.376113
  6
CONTINUOUS
  0
ARC
  8
WHITE
 10
1.248709
 20
3.999985
 30
0.000000
 40
0.786748
 50
-48.311846
 51
-43.610149
  6
CONTINUOUS
  0
ARC
  8
WHITE
 10
5.241787
 20
0.951419
 30
0.000000
 40
4.242578
 50
140.704386
 51
143.796361
  6
CONTINUOUS
  0
ARC
  8
WHITE
 10
1.936257
 20
3.642690
 30
0.000000
 40
0.022668
 50
-11.073930
 51
51.856359
  6
CONTINUOUS
  0
ARC
  8
WHITE
 10
1.933359
 20
3.636561
 30
0.000000
 40
0.029317
 50
54.801857
 51
100.150405
  6
CONTINUOUS
  0
ARC
  8
WHITE
 10
1.550996
 20
6.244779
 30
0.000000
 40
2.606793
 50
-84.895451
 51
-81.680245
  6
CONTINUOUS
  0
ARC
  8
WHITE
 10
1.759746
 20
3.921020
 30
0.000000
 40
0.273680
 50
-92.648603
 51
-85.140206
  6
CONTINUOUS
  0
ARC
  8
WHITE
 10
1.749411
 20
3.686774
 30
0.000000
 40
0.039209
 50
-107.148941
 51
-93.380212
  6
CONTINUOUS
  0
LINE
  8
WHITE
 10
1.737850
 20
3.649308
 30
0.000000
 11
1.734175
 21
3.652352
 31
0.000000
  6
CONTINUOUS
  0
ARC
  8
WHITE
 10
1.772492
 20
3.659028
 30
0.000000
 40
0.038894
 50
113.750212
 51
189.883495
  6
CONTINUOUS
  0
ARC
  8
WHITE
 10
1.492805
 20
4.231048
 30
0.000000
 40
0.597875
 50
-63.793911
 51
-56.317661
  6
CONTINUOUS
  0
ARC
  8
WHITE
 10
0.190853
 20
5.527683
 30
0.000000
 40
2.426387
 50
-47.682830
 51
-42.147367
  6
CONTINUOUS
  0
ARC
  8
WHITE
 10
1.783895
 20
4.091578
 30
0.000000
 40
0.281620
 50
-43.009265
 51
-24.205804
  6
CONTINUOUS
  0
ARC
  8
WHITE
 10
2.014518
 20
3.986932
 30
0.000000
 40
0.028381
 50
-22.415117
 51
28.451860
  6
CONTINUOUS
  0
ARC
  8
WHITE
 10
2.014762
 20
3.976122
 30
0.000000
 40
0.034677
 50
44.558347
 51
92.589964
  6
CONTINUOUS
  0
LINE
  8
WHITE
 10
2.013195
 20
4.010764
 30
0.000000
 11
1.885372
 21
3.882941
 31
0.000000
  6
CONTINUOUS
  0
ARC
  8
WHITE
 10
1.886486
 20
4.139318
 30
0.000000
 40
0.256380
 50
-97.899014
 51
-90.248832
  6
CONTINUOUS
  0
ARC
  8
WHITE
 10
1.855509
 20
3.911716
 30
0.000000
 40
0.026686
 50
-155.160394
 51
-99.179256
  6
CONTINUOUS
  0
ARC
  8
WHITE
 10
1.855800
 20
3.912336
 30
0.000000
 40
0.027214
 50
155.589274
 51
205.767177
  6
CONTINUOUS
  0
ARC
  8
WHITE
 10
1.883000
 20
3.894411
 30
0.000000
 40
0.059607
 50
121.941830
 51
150.699298
  6
CONTINUOUS
  0
ARC
  8
WHITE
 10
0.507851
 20
5.219406
 30
0.000000
 40
1.851871
 50
-43.485906
 51
-28.480873
  6
CONTINUOUS
  0
ARC
  8
WHITE
 10
2.473715
 20
4.221027
 30
0.000000
 40
0.357228
 50
159.077473
 51
161.172188
  6
CONTINUOUS
  0
ARC
  8
WHITE
 10
2.109055
 20
4.360581
 30
0.000000
 40
0.033224
 50
-21.147277
 51
2.661943
  6
CONTINUOUS
  0
ARC
  8
WHITE
 10
2.127953
 20
4.359576
 30
0.000000
 40
0.014516
 50
10.110777
 51
92.276190
  6
CONTINUOUS
  0
ARC
  8
WHITE
 10
2.132663
 20
4.227728
 30
0.000000
 40
0.146448
 50
92.068973
 51
151.288636
  6
CONTINUOUS
  0
ARC
  8
WHITE
 10
1.305043
 20
4.739795
 30
0.000000
 40
0.827020
 50
-43.087987
 51
-32.283159
  6
CONTINUOUS
  0
ARC
  8
WHITE
 10
1.921596
 20
4.434892
 30
0.000000
 40
0.260355
 50
-103.978350
 51
-92.768620
  6
CONTINUOUS
  0
ARC
  8
WHITE
 10
1.865692
 20
4.197527
 30
0.000000
 40
0.016802
 50
-171.647414
 51
-114.569894
  6
CONTINUOUS
  0
ARC
  8
WHITE
 10
2.077902
 20
4.229807
 30
0.000000
 40
0.231453
 50
-178.642749
 51
-171.372613
  6
CONTINUOUS
  0
ARC
  8
WHITE
 10
1.391901
 20
4.661148
 30
0.000000
 40
0.630467
 50
-43.856815
 51
-22.249078
  6
CONTINUOUS
  0
ARC
  8
WHITE
 10
1.577365
 20
4.808777
 30
0.000000
 40
0.554721
 50
-44.144133
 51
-12.812020
  6
CONTINUOUS
  0
LINE
  8
WHITE
 10
2.118275
 20
4.685765
 30
0.000000
 11
2.091327
 21
4.693115
 31
0.000000
  6
CONTINUOUS
  0
ARC
  8
WHITE
 10
1.872474
 20
4.995906
 30
0.000000
 40
0.373603
 50
-66.866829
 51
-54.141143
  6
CONTINUOUS
  0
ARC
  8
WHITE
 10
2.154300
 20
4.335478
 30
0.000000
 40
0.344444
 50
113.083762
 51
126.767671
  6
CONTINUOUS
  0
ARC
  8
WHITE
 10
1.070217
 20
5.294000
 30
0.000000
 40
1.112054
 50
-43.818263
 51
-37.866091
  6
CONTINUOUS
  0
ARC
  8
WHITE
 10
1.732973
 20
4.655704
 30
0.000000
 40
0.191918
 50
-63.716119
 51
-43.316175
  6
CONTINUOUS
  0
ARC
  8
WHITE
 10
1.804539
 20
4.507653
 30
0.000000
 40
0.027518
 50
-161.836172
 51
-60.816664
  6
CONTINUOUS
  0
ARC
  8
WHITE
 10
1.831904
 20
4.519978
 30
0.000000
 40
0.057449
 50
153.093632
 51
201.336372
  6
CONTINUOUS
  0
ARC
  8
WHITE
 10
1.862763
 20
4.482183
 30
0.000000
 40
0.103962
 50
125.252499
 51
142.149034
  6
CONTINUOUS
  0
ARC
  8
WHITE
 10
1.741115
 20
4.646979
 30
0.000000
 40
0.100915
 50
-52.349389
 51
-30.623491
  6
CONTINUOUS
  0
ARC
  8
WHITE
 10
1.821336
 20
4.599171
 30
0.000000
 40
0.007533
 50
-28.520038
 51
69.360076
  6
CONTINUOUS
  0
ARC
  8
WHITE
 10
1.761567
 20
4.325040
 30
0.000000
 40
0.288027
 50
77.482859
 51
105.749692
  6
CONTINUOUS
  0
ARC
  8
WHITE
 10
1.624702
 20
4.763868
 30
0.000000
 40
0.171940
 50
-113.912522
 51
-70.043340
  6
CONTINUOUS
  0
ARC
  8
WHITE
 10
1.451303
 20
4.456376
 30
0.000000
 40
0.182615
 50
55.397106
 51
81.216564
  6
CONTINUOUS
  0
ARC
  8
WHITE
 10
1.471850
 20
4.173788
 30
0.000000
 40
0.463119
 50
89.092074
 51
97.996621
  6
CONTINUOUS
  0
ARC
  8
WHITE
 10
1.293143
 20
4.847176
 30
0.000000
 40
0.243285
 50
-130.384353
 51
-61.982451
  6
CONTINUOUS
  0
ARC
  8
WHITE
 10
1.145285
 20
5.745171
 30
0.000000
 40
1.083353
 50
-103.266812
 51
-90.516688
  6
CONTINUOUS
  0
ARC
  8
WHITE
 10
1.161984
 20
5.760873
 30
0.000000
 40
1.102540
 50
-107.093211
 51
-103.924224
  6
CONTINUOUS
  0
ARC
  8
WHITE
 10
0.779439
 20
4.518161
 30
0.000000
 40
0.197719
 50
72.796439
 51
77.279970
  6
CONTINUOUS
  0
ARC
  8
WHITE
 10
0.820650
 20
4.705817
 30
0.000000
 40
0.005706
 50
65.962635
 51
125.060890
  6
CONTINUOUS
  0
ARC
  8
WHITE
 10
0.603550
 20
4.682013
 30
0.000000
 40
0.215709
 50
-8.737766
 51
7.585280
  6
CONTINUOUS
  0
ARC
  8
WHITE
 10
0.761097
 20
4.659051
 30
0.000000
 40
0.056517
 50
-53.105692
 51
-9.992148
  6
CONTINUOUS
  0
ARC
  8
WHITE
 10
0.752027
 20
4.685973
 30
0.000000
 40
0.083966
 50
-99.808902
 51
-59.196602
  6
CONTINUOUS
  0
ARC
  8
WHITE
 10
0.893626
 20
5.032531
 30
0.000000
 40
0.456729
 50
-119.038211
 51
-109.959046
  6
CONTINUOUS
  0
ARC
  8
WHITE
 10
0.589895
 20
4.102672
 30
0.000000
 40
0.536847
 50
81.209891
 51
116.352423
  6
CONTINUOUS
  0
ARC
  8
WHITE
 10
22.029657
 20
4.938103
 30
0.000000
 40
21.680960
 50
-179.063468
 51
-175.873284
  6
CONTINUOUS
  0
ARC
  8
WHITE
 10
7.057297
 20
3.468092
 30
0.000000
 40
6.653001
 50
-179.223123
 51
-175.464240
  6
CONTINUOUS
  0
ARC
  8
WHITE
 10
1.699722
 20
3.043460
 30
0.000000
 40
1.278624
 50
-175.447096
 51
-167.346299
  6
CONTINUOUS
  0
ARC
  8
WHITE
 10
0.718507
 20
2.826692
 30
0.000000
 40
0.273778
 50
-166.626541
 51
-153.864097
  6
CONTINUOUS
  0
ARC
  8
WHITE
 10
0.524662
 20
2.729531
 30
0.000000
 40
0.056983
 50
-155.711266
 51
-116.679293
  6
CONTINUOUS
  0
ARC
  8
WHITE
 10
0.501511
 20
2.690321
 30
0.000000
 40
0.011957
 50
-101.749062
 51
-41.658316
  6
CONTINUOUS
  0
ARC
  8
WHITE
 10
0.483653
 20
2.710105
 30
0.000000
 40
0.038559
 50
-45.987706
 51
-24.291622
  6
CONTINUOUS
  0
ARC
  8
WHITE
 10
0.415683
 20
2.747345
 30
0.000000
 40
0.115986
 50
-27.247586
 51
-13.781813
  6
CONTINUOUS
  0
ARC
  8
WHITE
 10
-8.529746
 20
2.290011
 30
0.000000
 40
9.068261
 50
2.716002
 51
5.018000
  6
CONTINUOUS
  0
ARC
  8
WHITE
 10
-0.222105
 20
3.270613
 30
0.000000
 40
0.749668
 50
-14.477204
 51
1.246799
  6
CONTINUOUS
  0
ARC
  8
WHITE
 10
0.876877
 20
3.418407
 30
0.000000
 40
0.373405
 50
144.870848
 51
200.616822
  6
CONTINUOUS
  0
ARC
  8
WHITE
 10
0.937815
 20
3.333998
 30
0.000000
 40
0.473035
 50
98.659471
 51
140.752808
  6
CONTINUOUS
  0
ARC
  8
WHITE
 10
0.850177
 20
3.837002
 30
0.000000
 40
0.038986
 50
-65.096040
 51
-7.751090
  6
CONTINUOUS
  0
ARC
  8
WHITE
 10
2.069083
 20
3.654437
 30
0.000000
 40
1.193520
 50
166.702234
 51
171.456628
  6
CONTINUOUS
  0
ARC
  8
WHITE
 10
0.970785
 20
3.919786
 30
0.000000
 40
0.063883
 50
85.046254
 51
171.742623
  6
CONTINUOUS
  0
ARC
  8
WHITE
 10
0.965024
 20
3.890170
 30
0.000000
 40
0.093940
 50
3.339839
 51
83.105267
  6
CONTINUOUS
  0
ARC
  8
WHITE
 10
1.733955
 20
3.903924
 30
0.000000
 40
0.675202
 50
-179.297255
 51
-172.322354
  6
CONTINUOUS
  0
ARC
  8
WHITE
 10
0.418381
 20
2.864412
 30
0.000000
 40
1.148497
 50
49.569747
 51
55.747250
  6
CONTINUOUS
  0
ARC
  8
WHITE
 10
1.094268
 20
3.653976
 30
0.000000
 40
0.109184
 50
18.075684
 51
50.846926
  6
CONTINUOUS
  0
ARC
  8
WHITE
 10
1.173998
 20
3.684523
 30
0.000000
 40
0.024295
 50
-53.364128
 51
7.875900
  6
CONTINUOUS
  0
ARC
  8
WHITE
 10
1.136418
 20
3.743226
 30
0.000000
 40
0.093952
 50
-83.066157
 51
-56.337285
  6
CONTINUOUS
  0
ARC
  8
WHITE
 10
1.185753
 20
3.754965
 30
0.000000
 40
0.111666
 50
-123.363076
 51
-109.890898
  6
CONTINUOUS
  0
ARC
  8
WHITE
 10
1.093398
 20
3.611246
 30
0.000000
 40
0.059189
 50
58.479028
 51
99.698413
  6
CONTINUOUS
  0
ARC
  8
WHITE
 10
1.339421
 20
3.639669
 30
0.000000
 40
0.257736
 50
173.333703
 51
201.592362
  6
CONTINUOUS
  0
ARC
  8
WHITE
 10
0.518734
 20
3.324172
 30
0.000000
 40
0.621523
 50
9.505471
 51
20.794370
  6
CONTINUOUS
  0
ARC
  8
WHITE
 10
3.010679
 20
3.335280
 30
0.000000
 40
1.881184
 50
177.211093
 51
192.199506
  6
CONTINUOUS
  0
ARC
  8
WHITE
 10
-26.528270
 20
11.849289
 30
0.000000
 40
29.098438
 50
-17.833668
 51
-17.455608
  6
CONTINUOUS
  0
ARC
  8
WHITE
 10
2.799506
 20
2.995521
 30
0.000000
 40
1.574318
 50
171.091563
 51
175.438507
  6
CONTINUOUS
  0
ARC
  8
WHITE
 10
1.394817
 20
3.213964
 30
0.000000
 40
0.152756
 50
150.809641
 51
170.447940
  6
CONTINUOUS
  0
ARC
  8
WHITE
 10
1.296613
 20
3.268700
 30
0.000000
 40
0.040328
 50
92.443923
 51
150.652618
  6
CONTINUOUS
  0
ARC
  8
WHITE
 10
1.291750
 20
3.284619
 30
0.000000
 40
0.024574
 50
25.141518
 51
82.650778
  6
CONTINUOUS
  0
ARC
  8
WHITE
 10
1.265787
 20
3.277809
 30
0.000000
 40
0.051203
 50
-7.421891
 51
19.688529
  6
CONTINUOUS
  0
ARC
  8
WHITE
 10
2.392317
 20
3.197263
 30
0.000000
 40
1.078294
 50
176.068503
 51
178.578486
  6
CONTINUOUS
  0
ARC
  8
WHITE
 10
1.389101
 20
3.220404
 30
0.000000
 40
0.074833
 50
177.235547
 51
213.919497
  6
CONTINUOUS
  0
ARC
  8
WHITE
 10
1.275403
 20
3.091216
 30
0.000000
 40
0.101520
 50
-5.627588
 51
59.451340
  6
CONTINUOUS
  0
ARC
  8
WHITE
 10
10.193737
 20
-1.711462
 30
0.000000
 40
10.035688
 50
151.473318
 51
152.502411
  6
CONTINUOUS
  0
ARC
  8
WHITE
 10
-1.043906
 20
2.897449
 30
0.000000
 40
2.335815
 50
-5.152906
 51
0.605371
  6
CONTINUOUS
  0
ARC
  8
WHITE
 10
1.545236
 20
2.690094
 30
0.000000
 40
0.262778
 50
-179.469448
 51
-145.667181
  6
CONTINUOUS
  0
LINE
  8
WHITE
 10
1.328240
 20
2.541887
 30
0.000000
 11
1.340612
 21
2.540319
 31
0.000000
  6
CONTINUOUS
  0
ARC
  8
WHITE
 10
1.343509
 20
2.561057
 30
0.000000
 40
0.020939
 50
-97.953910
 51
-64.298122
  6
CONTINUOUS
  0
ARC
  8
WHITE
 10
1.344015
 20
2.557628
 30
0.000000
 40
0.017660
 50
-60.950793
 51
-16.301297
  6
CONTINUOUS
  0
ARC
  8
WHITE
 10
1.137382
 20
2.626216
 30
0.000000
 40
0.235368
 50
-18.208021
 51
-14.805867
  6
CONTINUOUS
  0
ARC
  8
WHITE
 10
0.075184
 20
2.941940
 30
0.000000
 40
1.343405
 50
-16.247691
 51
-2.395197
  6
CONTINUOUS
  0
ARC
  8
WHITE
 10
1.915288
 20
2.850740
 30
0.000000
 40
0.499105
 50
163.153368
 51
175.972297
  6
CONTINUOUS
  0
ARC
  8
WHITE
 10
1.481193
 20
2.986123
 30
0.000000
 40
0.044564
 50
83.316799
 51
168.001937
  6
CONTINUOUS
  0
ARC
  8
WHITE
 10
1.483811
 20
3.009593
 30
0.000000
 40
0.020948
 50
14.424671
 51
82.956245
  6
CONTINUOUS
  0
ARC
  8
WHITE
 10
1.425290
 20
3.006627
 30
0.000000
 40
0.079233
 50
-11.979143
 51
5.929358
  6
CONTINUOUS
  0
ARC
  8
WHITE
 10
1.791208
 20
2.953349
 30
0.000000
 40
0.290753
 50
172.722223
 51
195.898283
  6
CONTINUOUS
  0
ARC
  8
WHITE
 10
0.938321
 20
2.722675
 30
0.000000
 40
0.592817
 50
3.395265
 51
14.759569
  6
CONTINUOUS
  0
ARC
  8
WHITE
 10
4.563708
 20
2.651020
 30
0.000000
 40
3.035489
 50
177.984389
 51
180.784316
  6
CONTINUOUS
  0
ARC
  8
WHITE
 10
1.807241
 20
2.613745
 30
0.000000
 40
0.278770
 50
-179.121140
 51
-166.516293
  6
CONTINUOUS
  0
ARC
  8
WHITE
 10
1.585061
 20
2.561645
 30
0.000000
 40
0.050579
 50
-165.223505
 51
-142.574896
  6
CONTINUOUS
  0
ARC
  8
WHITE
 10
1.557371
 20
2.540859
 30
0.000000
 40
0.015960
 50
-141.422659
 51
-87.828400
  6
CONTINUOUS
  0
ARC
  8
WHITE
 10
1.556667
 20
2.565538
 30
0.000000
 40
0.040650
 50
-88.155750
 51
-32.838483
  6
CONTINUOUS
  0
ARC
  8
WHITE
 10
1.716622
 20
2.463047
 30
0.000000
 40
0.149325
 50
130.212235
 51
147.401439
  6
CONTINUOUS
  0
ARC
  8
WHITE
 10
1.648253
 20
2.544813
 30
0.000000
 40
0.042747
 50
100.763055
 51
130.989168
  6
CONTINUOUS
  0
ARC
  8
WHITE
 10
1.564822
 20
3.044507
 30
0.000000
 40
0.463876
 50
-80.639321
 51
-75.785442
  6
CONTINUOUS
  0
ARC
  8
WHITE
 10
1.664455
 20
2.635736
 30
0.000000
 40
0.043322
 50
-70.763496
 51
-20.473323
  6
CONTINUOUS
  0
ARC
  8
WHITE
 10
1.921762
 20
2.535607
 30
0.000000
 40
0.232786
 50
149.326661
 51
158.589775
  6
CONTINUOUS
  0
ARC
  8
WHITE
 10
1.995203
 20
2.478665
 30
0.000000
 40
0.325204
 50
110.074533
 51
147.298497
  6
CONTINUOUS
  0
ARC
  8
WHITE
 10
2.109439
 20
0.081545
 30
0.000000
 40
2.711989
 50
88.016280
 51
94.777240
  6
CONTINUOUS
  0
ARC
  8
WHITE
 10
2.126620
 20
2.923220
 30
0.000000
 40
0.152069
 50
-59.711683
 51
-1.668572
  6
CONTINUOUS
  0
ARC
  8
WHITE
 10
1.095200
 20
3.005326
 30
0.000000
 40
1.186584
 50
-4.182116
 51
4.034462
  6
CONTINUOUS
  0
ARC
  8
WHITE
 10
14.415078
 20
3.879999
 30
0.000000
 40
1.166301
 50
77.347526
 51
94.072594
  6
CONTINUOUS
  0
ARC
  8
WHITE
 10
14.690087
 20
8.081945
 30
0.000000
 40
3.059588
 50
-99.621022
 51
-96.716512
  6
CONTINUOUS
  0
ARC
  8
WHITE
 10
14.146938
 20
4.846839
 30
0.000000
 40
0.220852
 50
81.721802
 51
100.078434
  6
CONTINUOUS
  0
ARC
  8
WHITE
 10
14.118317
 20
5.008737
 30
0.000000
 40
0.056444
 50
100.232734
 51
157.304344
  6
CONTINUOUS
  0
ARC
  8
WHITE
 10
14.121184
 20
5.008781
 30
0.000000
 40
0.059083
 50
158.415960
 51
227.109043
  6
CONTINUOUS
  0
ARC
  8
WHITE
 10
14.005453
 20
4.887339
 30
0.000000
 40
0.108680
 50
11.379548
 51
45.982466
  6
CONTINUOUS
  0
ARC
  8
WHITE
 10
14.015186
 20
4.912601
 30
0.000000
 40
0.096885
 50
-46.314752
 51
-2.258613
  6
CONTINUOUS
  0
ARC
  8
WHITE
 10
14.027972
 20
4.893065
 30
0.000000
 40
0.074049
 50
-95.742872
 51
-43.026556
  6
CONTINUOUS
  0
ARC
  8
WHITE
 10
13.814553
 20
4.323328
 30
0.000000
 40
0.537136
 50
67.447315
 51
75.150958
  6
CONTINUOUS
  0
ARC
  8
WHITE
 10
13.926258
 20
4.740647
 30
0.000000
 40
0.105131
 50
75.710667
 51
100.152037
  6
CONTINUOUS
  0
ARC
  8
WHITE
 10
13.915796
 20
4.806355
 30
0.000000
 40
0.038630
 50
102.056176
 51
163.221437
  6
CONTINUOUS
  0
ARC
  8
WHITE
 10
13.952893
 20
4.803551
 30
0.000000
 40
0.075385
 50
169.331675
 51
232.859154
  6
CONTINUOUS
  0
LINE
  8
WHITE
 10
13.907377
 20
4.743458
 30
0.000000
 11
13.997119
 21
4.667324
 31
0.000000
  6
CONTINUOUS
  0
ARC
  8
WHITE
 10
13.909809
 20
4.557265
 30
0.000000
 40
0.140485
 50
6.393872
 51
51.574806
  6
CONTINUOUS
  0
ARC
  8
WHITE
 10
13.919365
 20
4.568989
 30
0.000000
 40
0.130114
 50
-57.522892
 51
1.726752
  6
CONTINUOUS
  0
ARC
  8
WHITE
 10
13.843343
 20
4.703397
 30
0.000000
 40
0.284436
 50
-86.000721
 51
-59.142549
  6
CONTINUOUS
  0
ARC
  8
WHITE
 10
13.969378
 20
4.362878
 30
0.000000
 40
0.120421
 50
151.869728
 51
159.622855
  6
CONTINUOUS
  0
ARC
  8
WHITE
 10
13.872566
 20
4.406023
 30
0.000000
 40
0.016120
 50
-175.677637
 51
-138.167923
  6
CONTINUOUS
  0
ARC
  8
WHITE
 10
13.899891
 20
4.420927
 30
0.000000
 40
0.046963
 50
-146.888186
 51
-109.251014
  6
CONTINUOUS
  0
ARC
  8
WHITE
 10
13.805384
 20
4.174002
 30
0.000000
 40
0.217455
 50
53.418017
 51
68.690771
  6
CONTINUOUS
  0
ARC
  8
WHITE
 10
13.922726
 20
4.336539
 30
0.000000
 40
0.017208
 50
-2.579889
 51
44.586969
  6
CONTINUOUS
  0
ARC
  8
WHITE
 10
13.880259
 20
4.342387
 30
0.000000
 40
0.060024
 50
-24.310273
 51
-6.334034
  6
CONTINUOUS
  0
ARC
  8
WHITE
 10
13.872315
 20
4.361975
 30
0.000000
 40
0.076726
 50
-87.669997
 51
-35.265096
  6
CONTINUOUS
  0
ARC
  8
WHITE
 10
13.839511
 20
4.551222
 30
0.000000
 40
0.268325
 50
-100.974600
 51
-82.306212
  6
CONTINUOUS
  0
ARC
  8
WHITE
 10
13.432266
 20
3.462386
 30
0.000000
 40
0.898982
 50
66.660091
 51
74.016550
  6
CONTINUOUS
  0
ARC
  8
WHITE
 10
13.322142
 20
1.519935
 30
0.000000
 40
2.829377
 50
82.737698
 51
86.530722
  6
CONTINUOUS
  0
ARC
  8
WHITE
 10
13.757068
 20
4.618296
 30
0.000000
 40
0.380411
 50
-155.212413
 51
-133.886174
  6
CONTINUOUS
  0
ARC
  8
WHITE
 10
13.845949
 20
4.673177
 30
0.000000
 40
0.484275
 50
-161.044822
 51
-153.726110
  6
CONTINUOUS
  0
ARC
  8
WHITE
 10
13.479366
 20
4.551717
 30
0.000000
 40
0.098207
 50
-178.455965
 51
-158.592018
  6
CONTINUOUS
  0
ARC
  8
WHITE
 10
13.039018
 20
4.635731
 30
0.000000
 40
0.352980
 50
-14.211991
 51
-8.462696
  6
CONTINUOUS
  0
ARC
  8
WHITE
 10
13.377151
 20
4.583610
 30
0.000000
 40
0.011005
 50
0.906818
 51
42.430315
  6
CONTINUOUS
  0
ARC
  8
WHITE
 10
13.315802
 20
4.524097
 30
0.000000
 40
0.096474
 50
43.936034
 51
51.271082
  6
CONTINUOUS
  0
ARC
  8
WHITE
 10
13.318578
 20
5.471508
 30
0.000000
 40
0.874049
 50
-102.730619
 51
-86.222671
  6
CONTINUOUS
  0
ARC
  8
WHITE
 10
13.050112
 20
5.013294
 30
0.000000
 40
0.401579
 50
-90.416639
 51
-79.111987
  6
CONTINUOUS
  0
ARC
  8
WHITE
 10
13.047172
 20
4.706883
 30
0.000000
 40
0.095157
 50
-119.549732
 51
-89.988419
  6
CONTINUOUS
  0
ARC
  8
WHITE
 10
13.023916
 20
4.656462
 30
0.000000
 40
0.040093
 50
165.984409
 51
233.810954
  6
CONTINUOUS
  0
ARC
  8
WHITE
 10
12.079111
 20
4.825016
 30
0.000000
 40
0.919727
 50
-9.945351
 51
-6.282644
  6
CONTINUOUS
  0
ARC
  8
WHITE
 10
12.962434
 20
4.610011
 30
0.000000
 40
0.118452
 50
74.888949
 51
87.611100
  6
CONTINUOUS
  0
ARC
  8
WHITE
 10
12.974771
 20
4.660004
 30
0.000000
 40
0.068756
 50
96.177849
 51
117.326405
  6
CONTINUOUS
  0
ARC
  8
WHITE
 10
13.227022
 20
3.989462
 30
0.000000
 40
0.784746
 50
111.202407
 51
115.275928
  6
CONTINUOUS
  0
ARC
  8
WHITE
 10
12.923227
 20
4.634431
 30
0.000000
 40
0.071814
 50
115.816878
 51
135.254765
  6
CONTINUOUS
  0
ARC
  8
WHITE
 10
12.884256
 20
4.672956
 30
0.000000
 40
0.017016
 50
135.012710
 51
197.251990
  6
CONTINUOUS
  0
ARC
  8
WHITE
 10
12.948122
 20
4.697868
 30
0.000000
 40
0.085533
 50
-159.497718
 51
-115.384703
  6
CONTINUOUS
  0
ARC
  8
WHITE
 10
13.832526
 20
6.417589
 30
0.000000
 40
2.019300
 50
-117.137944
 51
-115.254303
  6
CONTINUOUS
  0
ARC
  8
WHITE
 10
12.758312
 20
4.202987
 30
0.000000
 40
0.442743
 50
45.566206
 51
61.286539
  6
CONTINUOUS
  0
ARC
  8
WHITE
 10
12.998693
 20
4.448328
 30
0.000000
 40
0.099268
 50
23.483896
 51
45.500964
  6
CONTINUOUS
  0
ARC
  8
WHITE
 10
13.075647
 20
4.481111
 30
0.000000
 40
0.015635
 50
-59.365703
 51
25.676891
  6
CONTINUOUS
  0
ARC
  8
WHITE
 10
13.058217
 20
4.505582
 30
0.000000
 40
0.045643
 50
-131.044773
 51
-56.190532
  6
CONTINUOUS
  0
ARC
  8
WHITE
 10
12.603848
 20
4.013358
 30
0.000000
 40
0.624255
 50
47.168290
 51
53.133296
  6
CONTINUOUS
  0
ARC
  8
WHITE
 10
12.954704
 20
4.476057
 30
0.000000
 40
0.043692
 50
57.199844
 51
101.482838
  6
CONTINUOUS
  0
ARC
  8
WHITE
 10
12.949967
 20
4.498685
 30
0.000000
 40
0.020575
 50
101.099062
 51
134.771407
  6
CONTINUOUS
  0
ARC
  8
WHITE
 10
12.941788
 20
4.507493
 30
0.000000
 40
0.008571
 50
137.430055
 51
204.137270
  6
CONTINUOUS
  0
ARC
  8
WHITE
 10
13.298897
 20
4.772038
 30
0.000000
 40
0.452796
 50
-143.701870
 51
-116.642976
  6
CONTINUOUS
  0
ARC
  8
WHITE
 10
12.874561
 20
3.977131
 30
0.000000
 40
0.448572
 50
49.020899
 51
60.440994
  6
CONTINUOUS
  0
ARC
  8
WHITE
 10
13.147688
 20
4.292073
 30
0.000000
 40
0.031697
 50
4.740054
 51
48.412633
  6
CONTINUOUS
  0
ARC
  8
WHITE
 10
13.154622
 20
4.300689
 30
0.000000
 40
0.025373
 50
-69.587048
 51
-13.671433
  6
CONTINUOUS
  0
ARC
  8
WHITE
 10
13.150059
 20
4.356687
 30
0.000000
 40
0.080897
 50
-119.111015
 51
-80.456438
  6
CONTINUOUS
  0
ARC
  8
WHITE
 10
13.052060
 20
4.163117
 30
0.000000
 40
0.136166
 50
64.490281
 51
82.878548
  6
CONTINUOUS
  0
ARC
  8
WHITE
 10
13.068478
 20
4.279528
 30
0.000000
 40
0.018711
 50
88.580589
 51
137.716574
  6
CONTINUOUS
  0
ARC
  8
WHITE
 10
13.084963
 20
4.270996
 30
0.000000
 40
0.036957
 50
145.145303
 51
179.677533
  6
CONTINUOUS
  0
LINE
  8
WHITE
 10
13.048006
 20
4.271204
 30
0.000000
 11
13.152182
 21
4.208698
 31
0.000000
  6
CONTINUOUS
  0
ARC
  8
WHITE
 10
12.655801
 20
4.210584
 30
0.000000
 40
0.496384
 50
-4.442706
 51
-0.217687
  6
CONTINUOUS
  0
ARC
  8
WHITE
 10
13.130693
 20
4.174280
 30
0.000000
 40
0.020116
 50
-61.824330
 51
-6.127693
  6
CONTINUOUS
  0
ARC
  8
WHITE
 10
12.960874
 20
3.489234
 30
0.000000
 40
0.690987
 50
74.959082
 51
91.629408
  6
CONTINUOUS
  0
LINE
  8
WHITE
 10
12.941226
 20
4.179942
 30
0.000000
 11
12.941226
 21
4.154006
 31
0.000000
  6
CONTINUOUS
  0
ARC
  8
WHITE
 10
13.628692
 20
5.192879
 30
0.000000
 40
1.245740
 50
-123.494290
 51
-114.000347
  6
CONTINUOUS
  0
ARC
  8
WHITE
 10
13.301958
 20
4.448232
 30
0.000000
 40
0.432599
 50
-114.582280
 51
-102.098891
  6
CONTINUOUS
  0
ARC
  8
WHITE
 10
13.087665
 20
3.402976
 30
0.000000
 40
0.634427
 50
76.674803
 51
78.763869
  6
CONTINUOUS
  0
ARC
  8
WHITE
 10
13.232986
 20
4.010178
 30
0.000000
 40
0.010186
 50
26.918386
 51
84.924662
  6
CONTINUOUS
  0
ARC
  8
WHITE
 10
13.207047
 20
4.009057
 30
0.000000
 40
0.035486
 50
-46.091616
 51
9.295296
  6
CONTINUOUS
  0
ARC
  8
WHITE
 10
13.168117
 20
4.105086
 30
0.000000
 40
0.137196
 50
-115.627208
 51
-62.410518
  6
CONTINUOUS
  0
ARC
  8
WHITE
 10
12.921501
 20
3.501945
 30
0.000000
 40
0.514720
 50
68.663611
 51
76.111372
  6
CONTINUOUS
  0
ARC
  8
WHITE
 10
13.042694
 20
3.994601
 30
0.000000
 40
0.007402
 50
71.426467
 51
180.272702
  6
CONTINUOUS
  0
ARC
  8
WHITE
 10
13.114141
 20
4.011610
 30
0.000000
 40
0.080670
 50
-167.802310
 51
-145.299090
  6
CONTINUOUS
  0
ARC
  8
WHITE
 10
13.801228
 20
5.601484
 30
0.000000
 40
1.800961
 50
-114.729614
 51
-107.697443
  6
CONTINUOUS
  0
ARC
  8
WHITE
 10
13.189096
 20
3.862341
 30
0.000000
 40
0.068765
 50
-1.671342
 51
19.905935
  6
CONTINUOUS
  0
ARC
  8
WHITE
 10
13.242749
 20
3.860363
 30
0.000000
 40
0.015083
 50
-52.989583
 51
-0.105635
  6
CONTINUOUS
  0
ARC
  8
WHITE
 10
13.224162
 20
3.883342
 30
0.000000
 40
0.044633
 50
-69.981379
 51
-51.693882
  6
CONTINUOUS
  0
ARC
  8
WHITE
 10
13.023210
 20
5.581198
 30
0.000000
 40
1.753178
 50
-84.084230
 51
-82.915277
  6
CONTINUOUS
  0
ARC
  8
WHITE
 10
13.209057
 20
3.798702
 30
0.000000
 40
0.038997
 50
97.593671
 51
125.476136
  6
CONTINUOUS
  0
ARC
  8
WHITE
 10
13.196884
 20
3.818782
 30
0.000000
 40
0.015678
 50
131.849491
 51
197.455921
  6
CONTINUOUS
  0
ARC
  8
WHITE
 10
13.264646
 20
3.846700
 30
0.000000
 40
0.088918
 50
-158.477104
 51
-93.902412
  6
CONTINUOUS
  0
ARC
  8
WHITE
 10
13.833555
 20
8.210895
 30
0.000000
 40
4.489873
 50
-97.357340
 51
-95.362535
  6
CONTINUOUS
  0
ARC
  8
WHITE
 10
13.369523
 20
3.479133
 30
0.000000
 40
0.265287
 50
52.930908
 51
80.360729
  6
CONTINUOUS
  0
ARC
  8
WHITE
 10
13.505552
 20
3.660961
 30
0.000000
 40
0.038223
 50
4.929134
 51
51.336594
  6
CONTINUOUS
  0
ARC
  8
WHITE
 10
13.518472
 20
3.669191
 30
0.000000
 40
0.025644
 50
-74.346983
 51
-11.119960
  6
CONTINUOUS
  0
ARC
  8
WHITE
 10
13.525744
 20
3.770200
 30
0.000000
 40
0.125702
 50
-118.206923
 51
-90.161183
  6
CONTINUOUS
  0
ARC
  8
WHITE
 10
13.441883
 20
3.609296
 30
0.000000
 40
0.055774
 50
64.001929
 51
88.848810
  6
CONTINUOUS
  0
ARC
  8
WHITE
 10
13.444036
 20
3.659861
 30
0.000000
 40
0.005299
 50
101.243325
 51
178.429664
  6
CONTINUOUS
  0
ARC
  8
WHITE
 10
13.471075
 20
3.660266
 30
0.000000
 40
0.032337
 50
-179.540254
 51
-155.557350
  6
CONTINUOUS
  0
ARC
  8
WHITE
 10
13.550985
 20
3.701283
 30
0.000000
 40
0.122132
 50
-153.551138
 51
-117.016702
  6
CONTINUOUS
  0
ARC
  8
WHITE
 10
13.380707
 20
3.370896
 30
0.000000
 40
0.249555
 50
44.408507
 51
62.611734
  6
CONTINUOUS
  0
ARC
  8
WHITE
 10
13.301298
 20
3.336827
 30
0.000000
 40
0.331597
 50
25.436519
 51
39.004392
  6
CONTINUOUS
  0
ARC
  8
WHITE
 10
13.516774
 20
3.438547
 30
0.000000
 40
0.093321
 50
5.157533
 51
25.859860
  6
CONTINUOUS
  0
ARC
  8
WHITE
 10
13.589333
 20
3.444733
 30
0.000000
 40
0.020503
 50
-61.971873
 51
6.169334
  6
CONTINUOUS
  0
ARC
  8
WHITE
 10
13.571016
 20
3.611939
 30
0.000000
 40
0.187400
 50
-108.935981
 51
-81.421989
  6
CONTINUOUS
  0
ARC
  8
WHITE
 10
13.424933
 20
3.143263
 30
0.000000
 40
0.303636
 50
73.690412
 51
95.279419
  6
CONTINUOUS
  0
ARC
  8
WHITE
 10
13.278835
 20
3.452981
 30
0.000000
 40
0.118389
 50
-22.706197
 51
-3.569075
  6
CONTINUOUS
  0
ARC
  8
WHITE
 10
13.375334
 20
3.417022
 30
0.000000
 40
0.016017
 50
-79.712016
 51
-37.454317
  6
CONTINUOUS
  0
ARC
  8
WHITE
 10
13.362488
 20
3.492765
 30
0.000000
 40
0.092840
 50
-91.551757
 51
-80.260239
  6
CONTINUOUS
  0
ARC
  8
WHITE
 10
13.368479
 20
3.503281
 30
0.000000
 40
0.103672
 50
-117.945523
 51
-94.705743
  6
CONTINUOUS
  0
ARC
  8
WHITE
 10
13.270510
 20
3.318652
 30
0.000000
 40
0.105340
 50
62.042262
 51
84.876828
  6
CONTINUOUS
  0
ARC
  8
WHITE
 10
13.282687
 20
3.414127
 30
0.000000
 40
0.009842
 50
106.349400
 51
188.028311
  6
CONTINUOUS
  0
ARC
  8
WHITE
 10
13.319851
 20
3.410457
 30
0.000000
 40
0.046966
 50
177.198913
 51
214.117509
  6
CONTINUOUS
  0
ARC
  8
WHITE
 10
13.413849
 20
3.511044
 30
0.000000
 40
0.183762
 50
-136.312052
 51
-93.354970
  6
CONTINUOUS
  0
ARC
  8
WHITE
 10
13.304190
 20
2.073367
 30
0.000000
 40
1.258124
 50
78.984151
 51
85.491137
  6
CONTINUOUS
  0
ARC
  8
WHITE
 10
13.081627
 20
2.731913
 30
0.000000
 40
0.739304
 50
44.611670
 51
51.228317
  6
CONTINUOUS
  0
ARC
  8
WHITE
 10
12.684330
 20
2.300883
 30
0.000000
 40
1.325135
 50
43.371873
 51
45.814693
  6
CONTINUOUS
  0
ARC
  8
WHITE
 10
13.418597
 20
2.995183
 30
0.000000
 40
0.314591
 50
39.712175
 51
43.289804
  6
CONTINUOUS
  0
ARC
  8
WHITE
 10
13.640340
 20
3.177524
 30
0.000000
 40
0.027545
 50
22.907315
 51
42.645197
  6
CONTINUOUS
  0
ARC
  8
WHITE
 10
13.730058
 20
3.201555
 30
0.000000
 40
0.065707
 50
-168.314322
 51
-108.654594
  6
CONTINUOUS
  0
ARC
  8
WHITE
 10
13.600065
 20
2.863938
 30
0.000000
 40
0.296141
 50
53.457676
 51
68.408561
  6
CONTINUOUS
  0
ARC
  8
WHITE
 10
13.745525
 20
3.075022
 30
0.000000
 40
0.040906
 50
-36.057499
 51
41.008803
  6
CONTINUOUS
  0
ARC
  8
WHITE
 10
13.746185
 20
3.087157
 30
0.000000
 40
0.048597
 50
-89.944524
 51
-48.172665
  6
CONTINUOUS
  0
ARC
  8
WHITE
 10
13.726775
 20
3.591408
 30
0.000000
 40
0.553190
 50
-91.528815
 51
-87.984319
  6
CONTINUOUS
  0
ARC
  8
WHITE
 10
13.711643
 20
3.026648
 30
0.000000
 40
0.011773
 50
88.181788
 51
192.557234
  6
CONTINUOUS
  0
ARC
  8
WHITE
 10
13.941329
 20
3.074297
 30
0.000000
 40
0.246349
 50
-168.239999
 51
-154.518671
  6
CONTINUOUS
  0
ARC
  8
WHITE
 10
13.532248
 20
2.880074
 30
0.000000
 40
0.206498
 50
7.546187
 51
25.297112
  6
CONTINUOUS
  0
ARC
  8
WHITE
 10
13.723808
 20
2.905933
 30
0.000000
 40
0.013209
 50
-80.481978
 51
5.472406
  6
CONTINUOUS
  0
ARC
  8
WHITE
 10
13.687607
 20
3.102840
 30
0.000000
 40
0.213415
 50
-84.746921
 51
-79.638195
  6
CONTINUOUS
  0
LINE
  8
WHITE
 10
13.707146
 20
2.890322
 30
0.000000
 11
13.592324
 21
2.997656
 31
0.000000
  6
CONTINUOUS
  0
LINE
  8
WHITE
 10
13.592324
 20
2.997656
 30
0.000000
 11
13.527924
 21
2.989606
 31
0.000000
  6
CONTINUOUS
  0
LINE
  8
WHITE
 10
13.527924
 20
2.989606
 30
0.000000
 11
13.582977
 21
2.928758
 31
0.000000
  6
CONTINUOUS
  0
ARC
  8
WHITE
 10
13.542332
 20
2.980378
 30
0.000000
 40
0.065702
 50
-80.621814
 51
-51.783630
  6
CONTINUOUS
  0
ARC
  8
WHITE
 10
13.557032
 20
2.969734
 30
0.000000
 40
0.054326
 50
-122.066287
 51
-94.215657
  6
CONTINUOUS
  0
ARC
  8
WHITE
 10
13.692200
 20
3.192825
 30
0.000000
 40
0.315167
 50
-133.572456
 51
-121.358601
  6
CONTINUOUS
  0
ARC
  8
WHITE
 10
13.436044
 20
2.925129
 30
0.000000
 40
0.055352
 50
45.319409
 51
98.098035
  6
CONTINUOUS
  0
LINE
  8
WHITE
 10
13.428247
 20
2.979929
 30
0.000000
 11
13.428247
 21
2.906118
 31
0.000000
  6
CONTINUOUS
  0
ARC
  8
WHITE
 10
13.432749
 20
3.007489
 30
0.000000
 40
0.101471
 50
-132.015298
 51
-92.542990
  6
CONTINUOUS
  0
ARC
  8
WHITE
 10
12.790627
 20
2.427537
 30
0.000000
 40
0.764392
 50
41.306261
 51
47.169781
  6
CONTINUOUS
  0
ARC
  8
WHITE
 10
13.230950
 20
2.903795
 30
0.000000
 40
0.115776
 50
46.747821
 51
69.127639
  6
CONTINUOUS
  0
ARC
  8
WHITE
 10
13.265265
 20
2.992933
 30
0.000000
 40
0.020264
 50
69.986237
 51
165.877557
  6
CONTINUOUS
  0
LINE
  8
WHITE
 10
13.245613
 20
2.997877
 30
0.000000
 11
13.320414
 21
2.947119
 31
0.000000
  6
CONTINUOUS
  0
LINE
  8
WHITE
 10
13.320414
 20
2.947119
 30
0.000000
 11
13.299898
 21
2.926603
 31
0.000000
  6
CONTINUOUS
  0
ARC
  8
WHITE
 10
14.211951
 20
5.350374
 30
0.000000
 40
2.589693
 50
-112.418409
 51
-110.621077
  6
CONTINUOUS
  0
ARC
  8
WHITE
 10
12.052574
 20
1.578561
 30
0.000000
 40
1.808714
 50
49.621270
 51
52.136593
  6
CONTINUOUS
  0
ARC
  8
WHITE
 10
13.053647
 20
2.867303
 30
0.000000
 40
0.176845
 50
51.915563
 51
66.457794
  6
CONTINUOUS
  0
ARC
  8
WHITE
 10
13.116753
 20
3.011781
 30
0.000000
 40
0.019187
 50
66.890787
 51
105.505650
  6
CONTINUOUS
  0
ARC
  8
WHITE
 10
13.117106
 20
3.021210
 30
0.000000
 40
0.010589
 50
121.184198
 51
185.573280
  6
CONTINUOUS
  0
ARC
  8
WHITE
 10
13.180523
 20
3.032290
 30
0.000000
 40
0.074940
 50
-170.702170
 51
-123.883122
  6
CONTINUOUS
  0
ARC
  8
WHITE
 10
13.099429
 20
2.919605
 30
0.000000
 40
0.063978
 50
26.683106
 51
52.083133
  6
CONTINUOUS
  0
ARC
  8
WHITE
 10
13.131194
 20
2.942789
 30
0.000000
 40
0.025997
 50
-52.630738
 51
12.314764
  6
CONTINUOUS
  0
ARC
  8
WHITE
 10
14.098173
 20
4.283862
 30
0.000000
 40
1.661054
 50
-130.426460
 51
-124.935119
  6
CONTINUOUS
  0
ARC
  8
WHITE
 10
12.728528
 20
2.668752
 30
0.000000
 40
0.456631
 50
50.166566
 51
58.540056
  6
CONTINUOUS
  0
ARC
  8
WHITE
 10
12.948276
 20
3.028443
 30
0.000000
 40
0.035127
 50
58.086868
 51
86.147475
  6
CONTINUOUS
  0
ARC
  8
WHITE
 10
12.951955
 20
3.056450
 30
0.000000
 40
0.007163
 50
100.610551
 51
193.501542
  6
CONTINUOUS
  0
ARC
  8
WHITE
 10
13.362770
 20
3.160531
 30
0.000000
 40
0.430958
 50
-165.795034
 51
-161.419853
  6
CONTINUOUS
  0
ARC
  8
WHITE
 10
12.875031
 20
2.998288
 30
0.000000
 40
0.083071
 50
5.381897
 51
17.461417
  6
CONTINUOUS
  0
ARC
  8
WHITE
 10
12.952175
 20
3.004372
 30
0.000000
 40
0.005817
 50
-77.603276
 51
17.063239
  6
CONTINUOUS
  0
ARC
  8
WHITE
 10
12.990627
 20
3.111421
 30
0.000000
 40
0.118710
 50
-141.570764
 51
-108.263873
  6
CONTINUOUS
  0
ARC
  8
WHITE
 10
12.753640
 20
2.907350
 30
0.000000
 40
0.194186
 50
42.139350
 51
50.520901
  6
CONTINUOUS
  0
ARC
  8
WHITE
 10
12.873351
 20
3.054183
 30
0.000000
 40
0.004836
 50
39.110110
 51
212.382485
  6
CONTINUOUS
  0
ARC
  8
WHITE
 10
13.002954
 20
3.080868
 30
0.000000
 40
0.136855
 50
-167.648370
 51
-148.396870
  6
CONTINUOUS
  0
ARC
  8
WHITE
 10
12.858888
 20
2.992957
 30
0.000000
 40
0.031920
 50
0.555451
 51
30.487438
  6
CONTINUOUS
  0
ARC
  8
WHITE
 10
12.883687
 20
2.994478
 30
0.000000
 40
0.007222
 50
-60.843141
 51
-9.659398
  6
CONTINUOUS
  0
ARC
  8
WHITE
 10
12.877503
 20
3.007788
 30
0.000000
 40
0.021886
 50
-89.460647
 51
-63.684883
  6
CONTINUOUS
  0
ARC
  8
WHITE
 10
12.879974
 20
3.040511
 30
0.000000
 40
0.054654
 50
-150.359045
 51
-92.374730
  6
CONTINUOUS
  0
ARC
  8
WHITE
 10
12.663903
 20
2.911594
 30
0.000000
 40
0.196967
 50
31.149778
 51
47.676486
  6
CONTINUOUS
  0
ARC
  8
WHITE
 10
12.646631
 20
2.846424
 30
0.000000
 40
0.258659
 50
54.584340
 51
65.688476
  6
CONTINUOUS
  0
ARC
  8
WHITE
 10
12.726615
 20
3.023471
 30
0.000000
 40
0.064383
 50
65.689432
 51
87.793787
  6
CONTINUOUS
  0
ARC
  8
WHITE
 10
12.728312
 20
3.069068
 30
0.000000
 40
0.018755
 50
87.613421
 51
150.187457
  6
CONTINUOUS
  0
ARC
  8
WHITE
 10
12.076277
 20
2.515809
 30
0.000000
 40
0.848936
 50
37.065632
 51
41.505457
  6
CONTINUOUS
  0
ARC
  8
WHITE
 10
12.738267
 20
3.015620
 30
0.000000
 40
0.019454
 50
-7.065415
 51
37.591332
  6
CONTINUOUS
  0
ARC
  8
WHITE
 10
12.743100
 20
3.021726
 30
0.000000
 40
0.016784
 50
-83.512265
 51
-30.422061
  6
CONTINUOUS
  0
ARC
  8
WHITE
 10
12.736656
 20
3.073329
 30
0.000000
 40
0.068787
 50
-142.692857
 51
-83.035191
  6
CONTINUOUS
  0
ARC
  8
WHITE
 10
12.887834
 20
3.211689
 30
0.000000
 40
0.273513
 50
-156.090915
 51
-138.830537
  6
CONTINUOUS
  0
ARC
  8
WHITE
 10
12.494408
 20
3.054804
 30
0.000000
 40
0.150591
 50
17.799311
 51
29.424465
  6
CONTINUOUS
  0
ARC
  8
WHITE
 10
12.602540
 20
3.118501
 30
0.000000
 40
0.025226
 50
24.063224
 51
109.910145
  6
CONTINUOUS
  0
ARC
  8
WHITE
 10
12.612579
 20
3.116885
 30
0.000000
 40
0.031446
 50
126.330067
 51
174.494484
  6
CONTINUOUS
  0
ARC
  8
WHITE
 10
12.995306
 20
3.060710
 30
0.000000
 40
0.418237
 50
171.863768
 51
187.934059
  6
CONTINUOUS
  0
ARC
  8
WHITE
 10
11.571891
 20
2.852832
 30
0.000000
 40
1.020290
 50
-6.473322
 51
8.462489
  6
CONTINUOUS
  0
ARC
  8
WHITE
 10
12.251580
 20
2.629924
 30
0.000000
 40
0.351081
 50
-0.341428
 51
17.895260
  6
CONTINUOUS
  0
ARC
  8
WHITE
 10
13.703939
 20
3.925763
 30
0.000000
 40
1.702191
 50
-130.314336
 51
-125.892520
  6
CONTINUOUS
  0
ARC
  8
WHITE
 10
12.831343
 20
2.724418
 30
0.000000
 40
0.217401
 50
-125.208127
 51
-114.788760
  6
CONTINUOUS
  0
ARC
  8
WHITE
 10
12.757872
 20
2.562448
 30
0.000000
 40
0.039569
 50
-116.538335
 51
-82.160155
  6
CONTINUOUS
  0
ARC
  8
WHITE
 10
12.755993
 20
2.541143
 30
0.000000
 40
0.019316
 50
-67.871775
 51
-0.186402
  6
CONTINUOUS
  0
ARC
  8
WHITE
 10
12.541044
 20
2.556311
 30
0.000000
 40
0.234760
 50
-3.719816
 51
8.356584
  6
CONTINUOUS
  0
ARC
  8
WHITE
 10
12.755377
 20
2.590424
 30
0.000000
 40
0.017935
 50
0.017190
 51
68.792046
  6
CONTINUOUS
  0
ARC
  8
WHITE
 10
12.583200
 20
2.096101
 30
0.000000
 40
0.541374
 50
70.730011
 51
75.306157
  6
CONTINUOUS
  0
ARC
  8
WHITE
 10
12.728545
 20
2.641835
 30
0.000000
 40
0.023479
 50
161.282036
 51
250.019092
  6
CONTINUOUS
  0
ARC
  8
WHITE
 10
12.829001
 20
2.619651
 30
0.000000
 40
0.126241
 50
141.913630
 51
166.384065
  6
CONTINUOUS
  0
ARC
  8
WHITE
 10
12.804319
 20
2.646142
 30
0.000000
 40
0.090648
 50
115.232419
 51
145.471923
  6
CONTINUOUS
  0
ARC
  8
WHITE
 10
12.783015
 20
2.642307
 30
0.000000
 40
0.087568
 50
77.963259
 51
101.419528
  6
CONTINUOUS
  0
ARC
  8
WHITE
 10
12.834682
 20
2.907271
 30
0.000000
 40
0.182406
 50
-100.552555
 51
-85.440920
  6
CONTINUOUS
  0
ARC
  8
WHITE
 10
12.844590
 20
2.745085
 30
0.000000
 40
0.020173
 50
-76.847371
 51
-5.828268
  6
CONTINUOUS
  0
ARC
  8
WHITE
 10
12.669988
 20
2.768133
 30
0.000000
 40
0.196282
 50
-7.345938
 51
12.058760
  6
CONTINUOUS
  0
ARC
  8
WHITE
 10
12.838617
 20
2.800863
 30
0.000000
 40
0.024746
 50
19.538884
 51
70.484806
  6
CONTINUOUS
  0
ARC
  8
WHITE
 10
12.955816
 20
3.074302
 30
0.000000
 40
0.272806
 50
-122.060561
 51
-113.534573
  6
CONTINUOUS
  0
LINE
  8
WHITE
 10
12.811006
 20
2.843102
 30
0.000000
 11
12.811006
 21
2.938087
 31
0.000000
  6
CONTINUOUS
  0
ARC
  8
WHITE
 10
13.795608
 20
7.385248
 30
0.000000
 40
4.554852
 50
-102.483912
 51
-94.428903
  6
CONTINUOUS
  0
ARC
  8
WHITE
 10
13.287721
 20
2.795221
 30
0.000000
 40
0.163593
 50
-22.278853
 51
17.346628
  6
CONTINUOUS
  0
ARC
  8
WHITE
 10
13.429528
 20
2.748109
 30
0.000000
 40
0.017718
 50
-93.581231
 51
-57.295274
  6
CONTINUOUS
  0
ARC
  8
WHITE
 10
13.423806
 20
2.628465
 30
0.000000
 40
0.102066
 50
87.407822
 51
117.443626
  6
CONTINUOUS
  0
ARC
  8
WHITE
 10
13.393989
 20
2.692494
 30
0.000000
 40
0.031648
 50
122.971652
 51
175.056401
  6
CONTINUOUS
  0
ARC
  8
WHITE
 10
13.457998
 20
2.693392
 30
0.000000
 40
0.095557
 50
178.903376
 51
207.907897
  6
CONTINUOUS
  0
ARC
  8
WHITE
 10
13.286876
 20
0.980122
 30
0.000000
 40
1.670795
 50
84.703867
 51
87.026233
  6
CONTINUOUS
  0
ARC
  8
WHITE
 10
13.436378
 20
2.562943
 30
0.000000
 40
0.080979
 50
39.829036
 51
86.659342
  6
CONTINUOUS
  0
ARC
  8
WHITE
 10
8.336593
 20
5.381448
 30
0.000000
 40
5.856641
 50
-28.825122
 51
-28.189759
  6
CONTINUOUS
  0
ARC
  8
WHITE
 10
13.432243
 20
2.573386
 30
0.000000
 40
0.038636
 50
-66.643917
 51
-23.889911
  6
CONTINUOUS
  0
ARC
  8
WHITE
 10
13.389399
 20
2.810328
 30
0.000000
 40
0.278551
 50
-90.717254
 51
-77.947966
  6
CONTINUOUS
  0
ARC
  8
WHITE
 10
13.386666
 20
2.523052
 30
0.000000
 40
0.008779
 50
94.927859
 51
183.606891
  6
CONTINUOUS
  0
ARC
  8
WHITE
 10
13.630703
 20
2.521114
 30
0.000000
 40
0.252802
 50
179.685976
 51
187.495078
  6
CONTINUOUS
  0
ARC
  8
WHITE
 10
13.399390
 20
2.493832
 30
0.000000
 40
0.020150
 50
-163.587004
 51
-95.750696
  6
CONTINUOUS
  0
ARC
  8
WHITE
 10
13.409596
 20
2.521561
 30
0.000000
 40
0.049317
 50
-104.353164
 51
-75.467684
  6
CONTINUOUS
  0
ARC
  8
WHITE
 10
13.400737
 20
2.525084
 30
0.000000
 40
0.055486
 50
-67.499513
 51
-45.965661
  6
CONTINUOUS
  0
ARC
  8
WHITE
 10
13.460646
 20
2.463458
 30
0.000000
 40
0.030461
 50
95.754933
 51
134.474983
  6
CONTINUOUS
  0
ARC
  8
WHITE
 10
13.458261
 20
2.310779
 30
0.000000
 40
0.182988
 50
72.301463
 51
90.209529
  6
CONTINUOUS
  0
ARC
  8
WHITE
 10
13.514957
 20
2.495358
 30
0.000000
 40
0.010307
 50
-95.937770
 51
-26.540174
  6
CONTINUOUS
  0
ARC
  8
WHITE
 10
13.195516
 20
2.685604
 30
0.000000
 40
0.382081
 50
-30.662140
 51
-25.357779
  6
CONTINUOUS
  0
ARC
  8
WHITE
 10
13.561141
 20
2.510238
 30
0.000000
 40
0.023496
 50
66.639280
 51
150.043891
  6
CONTINUOUS
  0
ARC
  8
WHITE
 10
13.066134
 20
1.577495
 30
0.000000
 40
1.079377
 50
54.510871
 51
62.145001
  6
CONTINUOUS
  0
ARC
  8
WHITE
 10
13.712914
 20
2.501137
 30
0.000000
 40
0.049109
 50
-114.223484
 51
-39.155942
  6
CONTINUOUS
  0
ARC
  8
WHITE
 10
11.442669
 20
4.157003
 30
0.000000
 40
2.859006
 50
-36.158554
 51
-31.956262
  6
CONTINUOUS
  0
ARC
  8
WHITE
 10
13.917165
 20
2.591736
 30
0.000000
 40
0.071344
 50
69.244993
 51
133.119320
  6
CONTINUOUS
  0
ARC
  8
WHITE
 10
13.303325
 20
0.700125
 30
0.000000
 40
2.059979
 50
68.411722
 51
71.925306
  6
CONTINUOUS
  0
ARC
  8
WHITE
 10
14.114700
 20
2.757350
 30
0.000000
 40
0.151488
 50
-110.655805
 51
-91.421080
  6
CONTINUOUS
  0
ARC
  8
WHITE
 10
14.111427
 20
2.639518
 30
0.000000
 40
0.033613
 50
-90.824114
 51
-25.160693
  6
CONTINUOUS
  0
ARC
  8
WHITE
 10
14.644886
 20
3.475319
 30
0.000000
 40
0.987775
 50
-131.749055
 51
-120.614611
  6
CONTINUOUS
  0
ARC
  8
WHITE
 10
14.130120
 20
2.907449
 30
0.000000
 40
0.221418
 50
-179.076952
 51
-130.215934
  6
CONTINUOUS
  0
ARC
  8
WHITE
 10
13.999717
 20
2.912100
 30
0.000000
 40
0.091356
 50
116.638536
 51
185.160771
  6
CONTINUOUS
  0
ARC
  8
WHITE
 10
3.983372
 20
24.706832
 30
0.000000
 40
23.894891
 50
-65.325082
 51
-65.020246
  6
CONTINUOUS
  0
ARC
  8
WHITE
 10
12.039051
 20
3.589195
 30
0.000000
 40
2.106039
 50
-14.914775
 51
-13.713902
  6
CONTINUOUS
  0
ARC
  8
WHITE
 10
14.176645
 20
3.070365
 30
0.000000
 40
0.093657
 50
136.831130
 51
167.955279
  6
CONTINUOUS
  0
ARC
  8
WHITE
 10
14.406461
 20
2.148083
 30
0.000000
 40
1.030426
 50
99.942330
 51
106.817292
  6
CONTINUOUS
  0
ARC
  8
WHITE
 10
14.185024
 20
3.222996
 30
0.000000
 40
0.074094
 50
-54.023808
 51
-7.698298
  6
CONTINUOUS
  0
ARC
  8
WHITE
 10
14.090107
 20
3.253554
 30
0.000000
 40
0.173143
 50
-13.521942
 51
-2.837484
  6
CONTINUOUS
  0
ARC
  8
WHITE
 10
14.191804
 20
3.248339
 30
0.000000
 40
0.071312
 50
-2.697467
 51
6.706617
  6
CONTINUOUS
  0
ARC
  8
WHITE
 10
14.248895
 20
3.255608
 30
0.000000
 40
0.013775
 50
4.411386
 51
33.544115
  6
CONTINUOUS
  0
ARC
  8
WHITE
 10
14.230872
 20
3.237283
 30
0.000000
 40
0.039284
 50
41.318791
 51
124.552438
  6
CONTINUOUS
  0
ARC
  8
WHITE
 10
13.821678
 20
4.045856
 30
0.000000
 40
0.867305
 50
-66.023905
 51
-63.505630
  6
CONTINUOUS
  0
ARC
  8
WHITE
 10
14.156084
 20
3.294608
 30
0.000000
 40
0.044992
 50
-111.977464
 51
-66.378016
  6
CONTINUOUS
  0
LINE
  8
WHITE
 10
14.139246
 20
3.252886
 30
0.000000
 11
14.144455
 21
3.320600
 31
0.000000
  6
CONTINUOUS
  0
ARC
  8
WHITE
 10
14.129756
 20
3.235804
 30
0.000000
 40
0.086061
 50
80.165509
 51
118.939612
  6
CONTINUOUS
  0
ARC
  8
WHITE
 10
14.067361
 20
3.352271
 30
0.000000
 40
0.046088
 50
-88.043550
 51
-63.240159
  6
CONTINUOUS
  0
ARC
  8
WHITE
 10
14.070061
 20
3.318842
 30
0.000000
 40
0.012683
 50
-178.441071
 51
-95.097519
  6
CONTINUOUS
  0
ARC
  8
WHITE
 10
14.228985
 20
3.336843
 30
0.000000
 40
0.172580
 50
175.056348
 51
186.102400
  6
CONTINUOUS
  0
ARC
  8
WHITE
 10
13.915863
 20
3.363993
 30
0.000000
 40
0.141717
 50
-4.969710
 51
8.815133
  6
CONTINUOUS
  0
ARC
  8
WHITE
 10
13.682568
 20
3.964866
 30
0.000000
 40
0.689059
 50
-61.887845
 51
-57.193218
  6
CONTINUOUS
  0
ARC
  8
WHITE
 10
13.983011
 20
3.395155
 30
0.000000
 40
0.045122
 50
-119.589546
 51
-57.504572
  6
CONTINUOUS
  0
ARC
  8
WHITE
 10
13.984074
 20
3.382067
 30
0.000000
 40
0.035053
 50
163.934399
 51
228.244499
  6
CONTINUOUS
  0
ARC
  8
WHITE
 10
13.996959
 20
3.371628
 30
0.000000
 40
0.050737
 50
117.941868
 51
156.613745
  6
CONTINUOUS
  0
ARC
  8
WHITE
 10
13.938860
 20
3.478112
 30
0.000000
 40
0.070572
 50
-60.896739
 51
-31.243477
  6
CONTINUOUS
  0
ARC
  8
WHITE
 10
14.097752
 20
3.418262
 30
0.000000
 40
0.101259
 50
116.185808
 51
166.728271
  6
CONTINUOUS
  0
ARC
  8
WHITE
 10
14.052722
 20
3.521259
 30
0.000000
 40
0.012136
 50
-88.366674
 51
46.366661
  6
CONTINUOUS
  0
ARC
  8
WHITE
 10
13.975362
 20
3.453286
 30
0.000000
 40
0.115074
 50
41.837426
 51
62.232189
  6
CONTINUOUS
  0
ARC
  8
WHITE
 10
14.053898
 20
3.611377
 30
0.000000
 40
0.061542
 50
-163.083259
 51
-113.891761
  6
CONTINUOUS
  0
ARC
  8
WHITE
 10
14.054190
 20
3.583564
 30
0.000000
 40
0.059994
 50
119.601633
 51
170.496983
  6
CONTINUOUS
  0
ARC
  8
WHITE
 10
16.642198
 20
-0.204445
 30
0.000000
 40
4.647470
 50
123.482728
 51
124.280191
  6
CONTINUOUS
  0
ARC
  8
WHITE
 10
14.032422
 20
3.749226
 30
0.000000
 40
0.089986
 50
-59.379979
 51
-26.318620
  6
CONTINUOUS
  0
ARC
  8
WHITE
 10
14.079358
 20
3.718088
 30
0.000000
 40
0.034841
 50
-14.559425
 51
39.969411
  6
CONTINUOUS
  0
ARC
  8
WHITE
 10
14.150056
 20
3.775848
 30
0.000000
 40
0.056456
 50
-177.602419
 51
-141.196812
  6
CONTINUOUS
  0
ARC
  8
WHITE
 10
14.155924
 20
3.751082
 30
0.000000
 40
0.066183
 50
122.210823
 51
160.212686
  6
CONTINUOUS
  0
ARC
  8
WHITE
 10
14.048225
 20
3.905221
 30
0.000000
 40
0.121971
 50
-53.575591
 51
-39.591533
  6
CONTINUOUS
  0
ARC
  8
WHITE
 10
14.133865
 20
3.833747
 30
0.000000
 40
0.010437
 50
-36.851364
 51
13.986508
  6
CONTINUOUS
  0
ARC
  8
WHITE
 10
14.130069
 20
3.828943
 30
0.000000
 40
0.015733
 50
27.754199
 51
70.653594
  6
CONTINUOUS
  0
ARC
  8
WHITE
 10
14.133565
 20
3.711277
 30
0.000000
 40
0.132522
 50
89.257977
 51
108.667504
  6
CONTINUOUS
  0
ARC
  8
WHITE
 10
14.082033
 20
3.864501
 30
0.000000
 40
0.029136
 50
-122.065374
 51
-71.770074
  6
CONTINUOUS
  0
ARC
  8
WHITE
 10
14.081541
 20
3.852649
 30
0.000000
 40
0.019726
 50
-179.634684
 51
-139.392219
  6
CONTINUOUS
  0
ARC
  8
WHITE
 10
14.146196
 20
3.853703
 30
0.000000
 40
0.084389
 50
164.237244
 51
180.801284
  6
CONTINUOUS
  0
ARC
  8
WHITE
 10
0.744345
 20
11.721236
 30
0.000000
 40
15.458887
 50
-30.494104
 51
-30.173935
  6
CONTINUOUS
  0
ARC
  8
WHITE
 10
13.840047
 20
4.104633
 30
0.000000
 40
0.309308
 50
-29.742306
 51
-19.859927
  6
CONTINUOUS
  0
ARC
  8
WHITE
 10
14.084935
 20
4.015681
 30
0.000000
 40
0.048767
 50
-19.310071
 51
1.104652
  6
CONTINUOUS
  0
ARC
  8
WHITE
 10
14.124685
 20
4.016629
 30
0.000000
 40
0.009008
 50
-0.046698
 51
71.565307
  6
CONTINUOUS
  0
ARC
  8
WHITE
 10
14.133084
 20
4.260574
 30
0.000000
 40
0.235465
 50
-99.409124
 51
-91.350856
  6
CONTINUOUS
  0
ARC
  8
WHITE
 10
14.107770
 20
4.073804
 30
0.000000
 40
0.047396
 50
-169.856101
 51
-106.145496
  6
CONTINUOUS
  0
ARC
  8
WHITE
 10
13.349228
 20
4.740122
 30
0.000000
 40
0.980794
 50
-43.462309
 51
-36.527504
  6
CONTINUOUS
  0
ARC
  8
WHITE
 10
14.008728
 20
4.252810
 30
0.000000
 40
0.160788
 50
-36.866014
 51
-19.209311
  6
CONTINUOUS
  0
ARC
  8
WHITE
 10
14.142535
 20
4.207953
 30
0.000000
 40
0.019743
 50
-24.049258
 51
64.999129
  6
CONTINUOUS
  0
ARC
  8
WHITE
 10
14.225757
 20
4.959727
 30
0.000000
 40
0.737691
 50
-98.910123
 51
-95.825721
  6
CONTINUOUS
  0
ARC
  8
WHITE
 10
14.119824
 20
4.277848
 30
0.000000
 40
0.047643
 50
-127.446378
 51
-100.062326
  6
CONTINUOUS
  0
ARC
  8
WHITE
 10
14.103432
 20
4.253672
 30
0.000000
 40
0.018559
 50
161.301996
 51
227.342183
  6
CONTINUOUS
  0
ARC
  8
WHITE
 10
14.271873
 20
4.176208
 30
0.000000
 40
0.203866
 50
134.580216
 51
155.848058
  6
CONTINUOUS
  0
ARC
  8
WHITE
 10
14.083621
 20
4.370901
 30
0.000000
 40
0.066992
 50
-47.619065
 51
13.517907
  6
CONTINUOUS
  0
ARC
  8
WHITE
 10
14.179508
 20
4.395255
 30
0.000000
 40
0.031955
 50
113.515786
 51
195.788512
  6
CONTINUOUS
  0
ARC
  8
WHITE
 10
14.356656
 20
4.079687
 30
0.000000
 40
0.393697
 50
111.591683
 51
118.838856
  6
CONTINUOUS
  0
ARC
  8
WHITE
 10
14.204459
 20
4.463796
 30
0.000000
 40
0.019468
 50
-67.909851
 51
-33.406065
  6
CONTINUOUS
  0
ARC
  8
WHITE
 10
14.215843
 20
4.454329
 30
0.000000
 40
0.005025
 50
-14.426827
 51
52.963560
  6
CONTINUOUS
  0
ARC
  8
WHITE
 10
14.195277
 20
4.429381
 30
0.000000
 40
0.037354
 50
50.829856
 51
69.107607
  6
CONTINUOUS
  0
ARC
  8
WHITE
 10
14.232435
 20
4.535676
 30
0.000000
 40
0.075271
 50
-133.905633
 51
-108.462679
  6
CONTINUOUS
  0
ARC
  8
WHITE
 10
14.190328
 20
4.488530
 30
0.000000
 40
0.012330
 50
169.817353
 51
215.072617
  6
CONTINUOUS
  0
ARC
  8
WHITE
 10
14.323153
 20
4.462878
 30
0.000000
 40
0.147608
 50
164.519339
 51
169.131863
  6
CONTINUOUS
  0
ARC
  8
WHITE
 10
14.438008
 20
4.445612
 30
0.000000
 40
0.263279
 50
142.616801
 51
167.571052
  6
CONTINUOUS
  0
ARC
  8
WHITE
 10
14.395848
 20
4.471151
 30
0.000000
 40
0.214338
 50
132.648388
 51
141.198901
  6
CONTINUOUS
  0
LINE
  8
WHITE
 10
14.250634
 20
4.628802
 30
0.000000
 11
14.257886
 21
4.635581
 31
0.000000
  6
CONTINUOUS
  0
ARC
  8
WHITE
 10
14.245063
 20
4.649944
 30
0.000000
 40
0.019254
 50
-48.243441
 51
-31.360337
  6
CONTINUOUS
  0
ARC
  8
WHITE
 10
13.172871
 20
4.795627
 30
0.000000
 40
1.099712
 50
-8.139579
 51
-3.458962
  6
CONTINUOUS
  0
ARC
  8
WHITE
 10
14.429168
 20
4.715150
 30
0.000000
 40
0.159216
 50
157.181971
 51
174.909442
  6
CONTINUOUS
  0
ARC
  8
WHITE
 10
14.306714
 20
4.767911
 30
0.000000
 40
0.025910
 50
81.834375
 51
159.712125
  6
CONTINUOUS
  0
ARC
  8
WHITE
 10
14.288040
 20
4.756216
 30
0.000000
 40
0.043522
 50
15.258797
 51
59.093474
  6
CONTINUOUS
  0
ARC
  8
WHITE
 10
14.048276
 20
4.662071
 30
0.000000
 40
0.300890
 50
2.357314
 51
20.545723
  6
CONTINUOUS
  0
ARC
  8
WHITE
 10
14.143025
 20
4.663597
 30
0.000000
 40
0.206172
 50
-7.267226
 51
3.016646
  6
CONTINUOUS
  0
ARC
  8
WHITE
 10
14.847203
 20
4.435486
 30
0.000000
 40
0.538961
 50
157.984738
 51
161.578384
  6
CONTINUOUS
  0
ARC
  8
WHITE
 10
14.387997
 20
4.605197
 30
0.000000
 40
0.052140
 50
179.336523
 51
223.287930
  6
CONTINUOUS
  0
ARC
  8
WHITE
 10
14.174215
 20
4.420514
 30
0.000000
 40
0.230427
 50
23.605702
 51
40.265744
  6
CONTINUOUS
  0
ARC
  8
WHITE
 10
14.354738
 20
4.503161
 30
0.000000
 40
0.032100
 50
-33.876041
 51
17.448248
  6
CONTINUOUS
  0
ARC
  8
WHITE
 10
14.322252
 20
4.534040
 30
0.000000
 40
0.076653
 50
-71.867830
 51
-39.513533
  6
CONTINUOUS
  0
ARC
  8
WHITE
 10
14.350307
 20
4.447303
 30
0.000000
 40
0.014511
 50
106.821697
 51
214.031868
  6
CONTINUOUS
  0
ARC
  8
WHITE
 10
14.566502
 20
4.584951
 30
0.000000
 40
0.270801
 50
-147.432750
 51
-131.511461
  6
CONTINUOUS
  0
ARC
  8
WHITE
 10
14.073960
 20
4.037513
 30
0.000000
 40
0.465614
 50
37.999607
 51
47.750061
  6
CONTINUOUS
  0
ARC
  8
WHITE
 10
14.421627
 20
4.307347
 30
0.000000
 40
0.025561
 50
-17.939141
 51
41.162059
  6
CONTINUOUS
  0
ARC
  8
WHITE
 10
14.427697
 20
4.314334
 30
0.000000
 40
0.023534
 50
-79.783230
 51
-39.155633
  6
CONTINUOUS
  0
ARC
  8
WHITE
 10
14.363583
 20
4.600068
 30
0.000000
 40
0.316353
 50
-80.608544
 51
-77.533947
  6
CONTINUOUS
  0
ARC
  8
WHITE
 10
14.418148
 20
4.264183
 30
0.000000
 40
0.023953
 50
97.059424
 51
202.827116
  6
CONTINUOUS
  0
ARC
  8
WHITE
 10
14.695662
 20
4.362718
 30
0.000000
 40
0.318404
 50
-160.205324
 51
-141.905432
  6
CONTINUOUS
  0
ARC
  8
WHITE
 10
14.404629
 20
4.148219
 30
0.000000
 40
0.044298
 50
-28.161664
 51
24.054587
  6
CONTINUOUS
  0
ARC
  8
WHITE
 10
14.505340
 20
4.095427
 30
0.000000
 40
0.069414
 50
152.654262
 51
203.919017
  6
CONTINUOUS
  0
ARC
  8
WHITE
 10
14.654392
 20
4.254849
 30
0.000000
 40
0.283442
 50
-138.566954
 51
-123.148101
  6
CONTINUOUS
  0
ARC
  8
WHITE
 10
14.479097
 20
3.987814
 30
0.000000
 40
0.035996
 50
16.498246
 51
55.656198
  6
CONTINUOUS
  0
ARC
  8
WHITE
 10
14.499490
 20
3.998430
 30
0.000000
 40
0.014126
 50
-58.574784
 51
-1.597046
  6
CONTINUOUS
  0
ARC
  8
WHITE
 10
14.460836
 20
4.058232
 30
0.000000
 40
0.085329
 50
-75.691289
 51
-57.363231
  6
CONTINUOUS
  0
ARC
  8
WHITE
 10
14.507426
 20
3.852767
 30
0.000000
 40
0.125404
 50
101.733064
 51
127.658257
  6
CONTINUOUS
  0
ARC
  8
WHITE
 10
14.443418
 20
3.942659
 30
0.000000
 40
0.015718
 50
143.333265
 51
223.013652
  6
CONTINUOUS
  0
ARC
  8
WHITE
 10
14.168802
 20
3.612605
 30
0.000000
 40
0.413771
 50
27.711578
 51
50.512139
  6
CONTINUOUS
  0
ARC
  8
WHITE
 10
14.410894
 20
4.107969
 30
0.000000
 40
0.327430
 50
-75.235116
 51
-67.704840
  6
CONTINUOUS
  0
ARC
  8
WHITE
 10
14.495072
 20
3.777598
 30
0.000000
 40
0.013773
 50
93.044755
 51
221.505149
  6
CONTINUOUS
  0
ARC
  8
WHITE
 10
14.666189
 20
3.899879
 30
0.000000
 40
0.224021
 50
-144.084674
 51
-130.680644
  6
CONTINUOUS
  0
ARC
  8
WHITE
 10
14.322907
 20
3.503405
 30
0.000000
 40
0.300418
 50
38.604752
 51
48.958738
  6
CONTINUOUS
  0
ARC
  8
WHITE
 10
14.539589
 20
3.684107
 30
0.000000
 40
0.019301
 50
-46.250140
 51
20.444473
  6
CONTINUOUS
  0
ARC
  8
WHITE
 10
14.505993
 20
3.707139
 30
0.000000
 40
0.059756
 50
-90.690515
 51
-38.225177
  6
CONTINUOUS
  0
ARC
  8
WHITE
 10
14.387113
 20
3.299635
 30
0.000000
 40
0.367278
 50
71.233235
 51
76.584219
  6
CONTINUOUS
  0
ARC
  8
WHITE
 10
14.458142
 20
3.595280
 30
0.000000
 40
0.063223
 50
77.033629
 51
95.264036
  6
CONTINUOUS
  0
ARC
  8
WHITE
 10
14.453351
 20
3.643383
 30
0.000000
 40
0.014888
 50
93.890508
 51
154.340259
  6
CONTINUOUS
  0
ARC
  8
WHITE
 10
14.460251
 20
3.645998
 30
0.000000
 40
0.020678
 50
169.319268
 51
242.427184
  6
CONTINUOUS
  0
ARC
  8
WHITE
 10
14.576407
 20
3.862931
 30
0.000000
 40
0.266750
 50
-118.120607
 51
-112.240592
  6
CONTINUOUS
  0
ARC
  8
WHITE
 10
14.197932
 20
3.205938
 30
0.000000
 40
0.495162
 50
40.063321
 51
55.913349
  6
CONTINUOUS
  0
ARC
  8
WHITE
 10
14.722261
 20
3.656972
 30
0.000000
 40
0.196577
 50
-137.687326
 51
-120.205281
  6
CONTINUOUS
  0
ARC
  8
WHITE
 10
14.644116
 20
3.522341
 30
0.000000
 40
0.040912
 50
-120.482452
 51
-54.383792
  6
CONTINUOUS
  0
LINE
  8
WHITE
 10
14.667941
 20
3.489083
 30
0.000000
 11
14.670541
 21
5.017978
 31
0.000000
  6
CONTINUOUS
  0
ARC
  8
WHITE
 10
10.931969
 20
4.188052
 30
0.000000
 40
0.040472
 50
158.188239
 51
176.578487
  6
CONTINUOUS
  0
ARC
  8
WHITE
 10
21.390171
 20
13.276661
 30
0.000000
 40
13.884507
 50
-139.124893
 51
-138.417430
  6
CONTINUOUS
  0
ARC
  8
WHITE
 10
10.914423
 20
3.981101
 30
0.000000
 40
0.120804
 50
19.680406
 51
41.743444
  6
CONTINUOUS
  0
ARC
  8
WHITE
 10
11.013120
 20
4.017883
 30
0.000000
 40
0.015547
 50
-34.324593
 51
14.531287
  6
CONTINUOUS
  0
ARC
  8
WHITE
 10
11.007982
 20
4.025816
 30
0.000000
 40
0.024537
 50
-80.105017
 51
-42.888513
  6
CONTINUOUS
  0
ARC
  8
WHITE
 10
11.021041
 20
4.134533
 30
0.000000
 40
0.133184
 50
-114.991286
 51
-93.806983
  6
CONTINUOUS
  0
ARC
  8
WHITE
 10
10.926030
 20
3.918242
 30
0.000000
 40
0.103132
 50
67.933885
 51
80.574946
  6
CONTINUOUS
  0
ARC
  8
WHITE
 10
10.940828
 20
4.013927
 30
0.000000
 40
0.006405
 50
70.954079
 51
187.193009
  6
CONTINUOUS
  0
ARC
  8
WHITE
 10
10.971523
 20
4.026428
 30
0.000000
 40
0.039366
 50
-160.249533
 51
-119.109532
  6
CONTINUOUS
  0
ARC
  8
WHITE
 10
10.629639
 20
3.480811
 30
0.000000
 40
0.604571
 50
55.329445
 51
57.735926
  6
CONTINUOUS
  0
ARC
  8
WHITE
 10
19.779286
 20
13.121705
 30
0.000000
 40
12.694396
 50
-133.921397
 51
-133.323781
  6
CONTINUOUS
  0
ARC
  8
WHITE
 10
11.008566
 20
3.821150
 30
0.000000
 40
0.089420
 50
-7.017060
 51
47.128784
  6
CONTINUOUS
  0
ARC
  8
WHITE
 10
11.095043
 20
4.261548
 30
0.000000
 40
0.451328
 50
-108.548871
 51
-89.711495
  6
CONTINUOUS
  0
ARC
  8
WHITE
 10
10.706692
 20
3.999623
 30
0.000000
 40
0.295733
 50
-38.604102
 51
-34.136977
  6
CONTINUOUS
  0
ARC
  8
WHITE
 10
10.927335
 20
3.827469
 30
0.000000
 40
0.016199
 50
-97.360780
 51
-49.755433
  6
CONTINUOUS
  0
ARC
  8
WHITE
 10
10.947893
 20
3.912564
 30
0.000000
 40
0.103661
 50
-123.747713
 51
-102.611634
  6
CONTINUOUS
  0
ARC
  8
WHITE
 10
10.851597
 20
3.763505
 30
0.000000
 40
0.073828
 50
58.377896
 51
70.475900
  6
CONTINUOUS
  0
ARC
  8
WHITE
 10
10.874697
 20
3.830158
 30
0.000000
 40
0.003325
 50
61.749226
 51
209.309020
  6
CONTINUOUS
  0
ARC
  8
WHITE
 10
10.802324
 20
3.816765
 30
0.000000
 40
0.070462
 50
-16.970870
 51
9.612520
  6
CONTINUOUS
  0
ARC
  8
WHITE
 10
10.839978
 20
3.803828
 30
0.000000
 40
0.030703
 50
-69.595055
 51
-14.389442
  6
CONTINUOUS
  0
ARC
  8
WHITE
 10
10.924031
 20
4.556791
 30
0.000000
 40
0.785173
 50
-101.601478
 51
-95.360184
  6
CONTINUOUS
  0
ARC
  8
WHITE
 10
10.765662
 20
3.771833
 30
0.000000
 40
0.015833
 50
88.303109
 51
167.333919
  6
CONTINUOUS
  0
ARC
  8
WHITE
 10
10.847007
 20
3.747013
 30
0.000000
 40
0.100842
 50
163.706668
 51
208.926089
  6
CONTINUOUS
  0
ARC
  8
WHITE
 10
10.719390
 20
3.009070
 30
0.000000
 40
0.690290
 50
68.506852
 51
86.731638
  6
CONTINUOUS
  0
ARC
  8
WHITE
 10
10.927271
 20
3.641475
 30
0.000000
 40
0.046106
 50
-18.133839
 51
12.377857
  6
CONTINUOUS
  0
ARC
  8
WHITE
 10
10.946397
 20
3.633171
 30
0.000000
 40
0.025419
 50
-80.698311
 51
-13.758978
  6
CONTINUOUS
  0
ARC
  8
WHITE
 10
10.305439
 20
10.836534
 30
0.000000
 40
7.257174
 50
-91.232686
 51
-84.900434
  6
CONTINUOUS
  0
ARC
  8
WHITE
 10
10.127293
 20
3.633592
 30
0.000000
 40
0.056981
 50
-116.732483
 51
-67.261878
  6
CONTINUOUS
  0
ARC
  8
WHITE
 10
10.001037
 20
3.375415
 30
0.000000
 40
0.230419
 50
64.106477
 51
77.191121
  6
CONTINUOUS
  0
ARC
  8
WHITE
 10
10.018864
 20
3.064040
 30
0.000000
 40
0.537091
 50
86.449905
 51
100.210202
  6
CONTINUOUS
  0
ARC
  8
WHITE
 10
10.018772
 20
2.972888
 30
0.000000
 40
0.626993
 50
98.725239
 51
104.381803
  6
CONTINUOUS
  0
ARC
  8
WHITE
 10
9.897958
 20
3.445489
 30
0.000000
 40
0.139195
 50
104.529000
 51
112.573024
  6
CONTINUOUS
  0
ARC
  8
WHITE
 10
9.847019
 20
3.564421
 30
0.000000
 40
0.009918
 50
104.555805
 51
154.977664
  6
CONTINUOUS
  0
ARC
  8
WHITE
 10
9.856796
 20
3.573373
 30
0.000000
 40
0.019358
 50
-165.774784
 51
-96.493737
  6
CONTINUOUS
  0
ARC
  8
WHITE
 10
10.075177
 20
5.023354
 30
0.000000
 40
1.485680
 50
-98.537933
 51
-96.525087
  6
CONTINUOUS
  0
ARC
  8
WHITE
 10
9.902683
 20
3.522117
 30
0.000000
 40
0.025446
 50
-20.476684
 51
81.721245
  6
CONTINUOUS
  0
ARC
  8
WHITE
 10
9.854798
 20
3.537238
 30
0.000000
 40
0.075640
 50
-56.368045
 51
-18.517665
  6
CONTINUOUS
  0
ARC
  8
WHITE
 10
9.868322
 20
1.789106
 30
0.000000
 40
1.685393
 50
89.035548
 51
95.555796
  6
CONTINUOUS
  0
ARC
  8
WHITE
 10
9.712723
 20
3.375920
 30
0.000000
 40
0.090976
 50
94.774072
 51
127.726684
  6
CONTINUOUS
  0
ARC
  8
WHITE
 10
9.670581
 20
3.436202
 30
0.000000
 40
0.017867
 50
139.200256
 51
198.734545
  6
CONTINUOUS
  0
ARC
  8
WHITE
 10
9.713530
 20
3.454022
 30
0.000000
 40
0.064339
 50
-158.520244
 51
-132.444970
  6
CONTINUOUS
  0
ARC
  8
WHITE
 10
5.510859
 20
-63.054303
 30
0.000000
 40
66.590868
 50
86.043953
 51
86.418988
  6
CONTINUOUS
  0
ARC
  8
WHITE
 10
10.078824
 20
3.336546
 30
0.000000
 40
0.048963
 50
26.448579
 51
57.623147
  6
CONTINUOUS
  0
ARC
  8
WHITE
 10
10.083231
 20
3.343407
 30
0.000000
 40
0.042168
 50
-10.791296
 51
20.760008
  6
CONTINUOUS
  0
ARC
  8
WHITE
 10
10.002505
 20
3.434821
 30
0.000000
 40
0.157425
 50
-77.923297
 51
-39.111645
  6
CONTINUOUS
  0
ARC
  8
WHITE
 10
26.655975
 20
-52.219684
 30
0.000000
 40
57.935781
 50
106.671172
 51
106.838681
  6
CONTINUOUS
  0
ARC
  8
WHITE
 10
9.942851
 20
3.233929
 30
0.000000
 40
0.069624
 50
-178.454548
 51
-162.555507
  6
CONTINUOUS
  0
ARC
  8
WHITE
 10
9.957874
 20
3.286268
 30
0.000000
 40
0.109515
 50
-138.047673
 51
-130.828791
  6
CONTINUOUS
  0
ARC
  8
WHITE
 10
9.411315
 20
-1.699146
 30
0.000000
 40
4.925502
 50
81.384087
 51
84.466457
  6
CONTINUOUS
  0
ARC
  8
WHITE
 10
10.138890
 20
3.227966
 30
0.000000
 40
0.058118
 50
-79.777308
 51
-35.667738
  6
CONTINUOUS
  0
ARC
  8
WHITE
 10
10.445158
 20
2.992747
 30
0.000000
 40
0.328089
 50
132.152949
 51
142.146280
  6
CONTINUOUS
  0
ARC
  8
WHITE
 10
10.245559
 20
3.195894
 30
0.000000
 40
0.045061
 50
77.688663
 51
117.183031
  6
CONTINUOUS
  0
ARC
  8
WHITE
 10
10.262144
 20
3.296481
 30
0.000000
 40
0.056991
 50
-97.031203
 51
-81.749063
  6
CONTINUOUS
  0
ARC
  8
WHITE
 10
10.267831
 20
3.255072
 30
0.000000
 40
0.015198
 50
-80.564247
 51
-28.377646
  6
CONTINUOUS
  0
ARC
  8
WHITE
 10
10.468163
 20
3.125517
 30
0.000000
 40
0.223427
 50
127.669903
 51
146.802687
  6
CONTINUOUS
  0
ARC
  8
WHITE
 10
9.797801
 20
-21.665486
 30
0.000000
 40
24.973562
 50
87.358225
 51
88.775177
  6
CONTINUOUS
  0
ARC
  8
WHITE
 10
11.339370
 20
4.027831
 30
0.000000
 40
0.842290
 50
-117.621098
 51
-104.432688
  6
CONTINUOUS
  0
ARC
  8
WHITE
 10
11.085726
 20
3.035981
 30
0.000000
 40
0.181484
 50
60.557743
 51
76.063561
  6
CONTINUOUS
  0
ARC
  8
WHITE
 10
11.159785
 20
3.170535
 30
0.000000
 40
0.027953
 50
-11.464041
 51
57.183774
  6
CONTINUOUS
  0
ARC
  8
WHITE
 10
9.721071
 20
3.492595
 30
0.000000
 40
1.502267
 50
-14.130678
 51
-12.596347
  6
CONTINUOUS
  0
ARC
  8
WHITE
 10
11.229839
 20
3.113662
 30
0.000000
 40
0.053366
 50
166.808322
 51
185.496248
  6
CONTINUOUS
  0
ARC
  8
WHITE
 10
11.188187
 20
3.109600
 30
0.000000
 40
0.011516
 50
-174.769388
 51
-109.797728
  6
CONTINUOUS
  0
ARC
  8
WHITE
 10
11.526744
 20
5.588226
 30
0.000000
 40
2.512905
 50
-97.832608
 51
-96.615565
  6
CONTINUOUS
  0
ARC
  8
WHITE
 10
11.235371
 20
3.062959
 30
0.000000
 40
0.029154
 50
-19.423674
 51
86.325907
  6
CONTINUOUS
  0
ARC
  8
WHITE
 10
11.224889
 20
3.071763
 30
0.000000
 40
0.042243
 50
-76.870885
 51
-25.971141
  6
CONTINUOUS
  0
ARC
  8
WHITE
 10
11.010663
 20
4.007691
 30
0.000000
 40
1.002375
 50
-90.258126
 51
-77.097565
  6
CONTINUOUS
  0
ARC
  8
WHITE
 10
10.985041
 20
4.513839
 30
0.000000
 40
1.508661
 50
-97.753029
 51
-89.198411
  6
CONTINUOUS
  0
ARC
  8
WHITE
 10
10.754819
 20
2.835800
 30
0.000000
 40
0.185104
 50
81.707115
 51
98.331702
  6
CONTINUOUS
  0
ARC
  8
WHITE
 10
10.734471
 20
2.988520
 30
0.000000
 40
0.031112
 50
102.011158
 51
167.882201
  6
CONTINUOUS
  0
ARC
  8
WHITE
 10
10.885926
 20
3.832263
 30
0.000000
 40
0.856739
 50
-102.256312
 51
-94.740973
  6
CONTINUOUS
  0
ARC
  8
WHITE
 10
9.861679
 20
-0.201641
 30
0.000000
 40
3.319948
 50
70.108366
 51
73.310557
  6
CONTINUOUS
  0
ARC
  8
WHITE
 10
10.837953
 20
2.225960
 30
0.000000
 40
0.710998
 50
66.590770
 51
77.547492
  6
CONTINUOUS
  0
ARC
  8
WHITE
 10
11.111341
 20
2.860445
 30
0.000000
 40
0.020156
 50
-38.976468
 51
63.199426
  6
CONTINUOUS
  0
ARC
  8
WHITE
 10
10.901834
 20
3.019303
 30
0.000000
 40
0.283071
 50
-52.571547
 51
-37.299720
  6
CONTINUOUS
  0
ARC
  8
WHITE
 10
11.231004
 20
0.391441
 30
0.000000
 40
2.408204
 50
93.741031
 51
105.578758
  6
CONTINUOUS
  0
ARC
  8
WHITE
 10
10.631557
 20
2.725405
 30
0.000000
 40
0.049401
 50
-163.255425
 51
-102.728670
  6
CONTINUOUS
  0
ARC
  8
WHITE
 10
17.541513
 20
26.722025
 30
0.000000
 40
25.021007
 50
-106.057459
 51
-105.923822
  6
CONTINUOUS
  0
ARC
  8
WHITE
 10
10.825415
 20
2.868981
 30
0.000000
 40
0.255523
 50
-125.571565
 51
-90.932836
  6
CONTINUOUS
  0
ARC
  8
WHITE
 10
10.865800
 20
-1.146096
 30
0.000000
 40
3.759852
 50
84.120062
 51
90.678825
  6
CONTINUOUS
  0
ARC
  8
WHITE
 10
11.159113
 20
2.655003
 30
0.000000
 40
0.110287
 50
-33.598037
 51
15.325474
  6
CONTINUOUS
  0
ARC
  8
WHITE
 10
11.241470
 20
2.673507
 30
0.000000
 40
0.026262
 50
23.912947
 51
80.605589
  6
CONTINUOUS
  0
ARC
  8
WHITE
 10
11.168140
 20
2.254277
 30
0.000000
 40
0.451857
 50
80.109120
 51
96.351684
  6
CONTINUOUS
  0
ARC
  8
WHITE
 10
11.154619
 20
2.752167
 30
0.000000
 40
0.060927
 50
-156.943517
 51
-126.765792
  6
CONTINUOUS
  0
ARC
  8
WHITE
 10
11.133876
 20
2.736195
 30
0.000000
 40
0.036187
 50
155.708141
 51
192.591662
  6
CONTINUOUS
  0
ARC
  8
WHITE
 10
11.402642
 20
2.496808
 30
0.000000
 40
0.394598
 50
121.410800
 51
139.880346
  6
CONTINUOUS
  0
LINE
  8
WHITE
 10
11.196989
 20
2.833579
 30
0.000000
 11
11.857798
 21
2.830974
 31
0.000000
  6
CONTINUOUS
  0
ARC
  8
WHITE
 10
12.190740
 20
3.784564
 30
0.000000
 40
1.010042
 50
-109.246391
 51
-98.407197
  6
CONTINUOUS
  0
ARC
  8
WHITE
 10
11.959569
 20
3.932295
 30
0.000000
 40
1.149953
 50
-85.836215
 51
-80.269560
  6
CONTINUOUS
  0
ARC
  8
WHITE
 10
12.175440
 20
2.660519
 30
0.000000
 40
0.140028
 50
80.018809
 51
98.838155
  6
CONTINUOUS
  0
ARC
  8
WHITE
 10
12.196472
 20
2.776519
 30
0.000000
 40
0.022148
 50
-2.397865
 51
81.591821
  6
CONTINUOUS
  0
ARC
  8
WHITE
 10
12.123939
 20
2.803671
 30
0.000000
 40
0.098738
 50
-63.493840
 51
-16.521403
  6
CONTINUOUS
  0
ARC
  8
WHITE
 10
13.023380
 20
1.221825
 30
0.000000
 40
1.721095
 50
119.801374
 51
124.000623
  6
CONTINUOUS
  0
ARC
  8
WHITE
 10
13.363661
 20
2.725233
 30
0.000000
 40
1.304968
 50
-176.636377
 51
-174.572843
  6
CONTINUOUS
  0
ARC
  8
WHITE
 10
12.103996
 20
2.606021
 30
0.000000
 40
0.039677
 50
-173.906333
 51
-157.357618
  6
CONTINUOUS
  0
ARC
  8
WHITE
 10
12.075680
 20
2.594407
 30
0.000000
 40
0.009075
 50
-156.206736
 51
-109.441218
  6
CONTINUOUS
  0
ARC
  8
WHITE
 10
12.149354
 20
2.895756
 30
0.000000
 40
0.319255
 50
-103.899978
 51
-80.786059
  6
CONTINUOUS
  0
ARC
  8
WHITE
 10
12.162254
 20
2.866959
 30
0.000000
 40
0.288879
 50
-82.397430
 51
-70.634810
  6
CONTINUOUS
  0
ARC
  8
WHITE
 10
12.224646
 20
2.686123
 30
0.000000
 40
0.097591
 50
-69.988093
 51
-57.297810
  6
CONTINUOUS
  0
ARC
  8
WHITE
 10
12.262936
 20
2.627437
 30
0.000000
 40
0.027525
 50
-58.368885
 51
-27.291736
  6
CONTINUOUS
  0
ARC
  8
WHITE
 10
15.020581
 20
2.494801
 30
0.000000
 40
2.735817
 50
167.459908
 51
177.485744
  6
CONTINUOUS
  0
ARC
  8
WHITE
 10
12.459158
 20
2.838605
 30
0.000000
 40
0.272968
 50
113.564927
 51
151.132161
  6
CONTINUOUS
  0
ARC
  8
WHITE
 10
11.710434
 20
3.197154
 30
0.000000
 40
0.557845
 50
-29.449849
 51
-23.985056
  6
CONTINUOUS
  0
ARC
  8
WHITE
 10
12.183767
 20
2.931686
 30
0.000000
 40
0.015232
 50
-82.538712
 51
-35.303559
  6
CONTINUOUS
  0
ARC
  8
WHITE
 10
12.184633
 20
2.965605
 30
0.000000
 40
0.049034
 50
-108.859181
 51
-88.700088
  6
CONTINUOUS
  0
ARC
  8
WHITE
 10
12.186420
 20
2.951366
 30
0.000000
 40
0.036682
 50
-174.733371
 51
-118.739103
  6
CONTINUOUS
  0
ARC
  8
WHITE
 10
12.288131
 20
2.974459
 30
0.000000
 40
0.140747
 50
173.979742
 51
190.835711
  6
CONTINUOUS
  0
ARC
  8
WHITE
 10
13.700677
 20
2.357504
 30
0.000000
 40
1.676119
 50
156.114420
 51
157.858698
  6
CONTINUOUS
  0
ARC
  8
WHITE
 10
12.003971
 20
3.106088
 30
0.000000
 40
0.178402
 50
-23.068416
 51
-13.255682
  6
CONTINUOUS
  0
ARC
  8
WHITE
 10
12.150041
 20
3.071367
 30
0.000000
 40
0.028265
 50
-12.642286
 51
7.627903
  6
CONTINUOUS
  0
ARC
  8
WHITE
 10
12.172665
 20
3.074496
 30
0.000000
 40
0.005426
 50
6.584420
 51
75.672398
  6
CONTINUOUS
  0
ARC
  8
WHITE
 10
12.183189
 20
3.007440
 30
0.000000
 40
0.072894
 50
97.235948
 51
138.105129
  6
CONTINUOUS
  0
ARC
  8
WHITE
 10
15.329346
 20
-0.231395
 30
0.000000
 40
4.588072
 50
134.230904
 51
136.221514
  6
CONTINUOUS
  0
LINE
  8
WHITE
 10
12.016667
 20
2.942963
 30
0.000000
 11
11.991062
 21
2.943992
 31
0.000000
  6
CONTINUOUS
  0
ARC
  8
WHITE
 10
11.989871
 20
2.970694
 30
0.000000
 40
0.026728
 50
-118.082595
 51
-87.445310
  6
CONTINUOUS
  0
ARC
  8
WHITE
 10
11.996493
 20
2.966739
 30
0.000000
 40
0.027459
 50
-160.851961
 51
-134.376569
  6
CONTINUOUS
  0
ARC
  8
WHITE
 10
12.032328
 20
2.976676
 30
0.000000
 40
0.064615
 50
154.649936
 51
197.048734
  6
CONTINUOUS
  0
ARC
  8
WHITE
 10
11.260340
 20
3.313440
 30
0.000000
 40
0.777663
 50
-23.420228
 51
-19.552824
  6
CONTINUOUS
  0
ARC
  8
WHITE
 10
11.559327
 20
3.172525
 30
0.000000
 40
0.449948
 50
-15.381996
 51
-5.155950
  6
CONTINUOUS
  0
ARC
  8
WHITE
 10
11.913433
 20
3.142039
 30
0.000000
 40
0.094547
 50
-6.040471
 51
13.888786
  6
CONTINUOUS
  0
ARC
  8
WHITE
 10
11.994048
 20
3.162948
 30
0.000000
 40
0.011310
 50
9.083221
 51
114.798698
  6
CONTINUOUS
  0
ARC
  8
WHITE
 10
12.020687
 20
3.127989
 30
0.000000
 40
0.055047
 50
124.756935
 51
174.328296
  6
CONTINUOUS
  0
ARC
  8
WHITE
 10
12.992810
 20
2.962141
 30
0.000000
 40
1.041089
 50
170.530161
 51
176.281363
  6
CONTINUOUS
  0
ARC
  8
WHITE
 10
11.873580
 20
3.065480
 30
0.000000
 40
0.087957
 50
-74.364602
 51
-24.030015
  6
CONTINUOUS
  0
ARC
  8
WHITE
 10
11.858051
 20
3.083676
 30
0.000000
 40
0.110124
 50
-90.067039
 51
-69.128539
  6
CONTINUOUS
  0
ARC
  8
WHITE
 10
11.856404
 20
3.001777
 30
0.000000
 40
0.028266
 50
-145.499545
 51
-86.921480
  6
CONTINUOUS
  0
ARC
  8
WHITE
 10
11.862689
 20
2.996069
 30
0.000000
 40
0.031323
 50
134.526653
 51
199.202304
  6
CONTINUOUS
  0
ARC
  8
WHITE
 10
11.641626
 20
3.196759
 30
0.000000
 40
0.267306
 50
-41.855054
 51
-32.039594
  6
CONTINUOUS
  0
ARC
  8
WHITE
 10
11.852519
 20
2.985189
 30
0.000000
 40
0.071507
 50
77.319701
 51
96.042857
  6
CONTINUOUS
  0
ARC
  8
WHITE
 10
11.848210
 20
2.981753
 30
0.000000
 40
0.074615
 50
92.472340
 51
111.643040
  6
CONTINUOUS
  0
ARC
  8
WHITE
 10
12.119225
 20
2.518626
 30
0.000000
 40
0.610459
 50
119.277045
 51
128.188543
  6
CONTINUOUS
  0
ARC
  8
WHITE
 10
11.673823
 20
3.088657
 30
0.000000
 40
0.112969
 50
-72.727797
 51
-53.001019
  6
CONTINUOUS
  0
ARC
  8
WHITE
 10
11.701628
 20
3.000069
 30
0.000000
 40
0.020122
 50
-154.984036
 51
-73.435051
  6
CONTINUOUS
  0
ARC
  8
WHITE
 10
11.850931
 20
3.024372
 30
0.000000
 40
0.170720
 50
153.328999
 51
191.080858
  6
CONTINUOUS
  0
ARC
  8
WHITE
 10
11.398008
 20
3.224141
 30
0.000000
 40
0.324629
 50
-22.291743
 51
-13.842582
  6
CONTINUOUS
  0
ARC
  8
WHITE
 10
11.698010
 20
3.150262
 30
0.000000
 40
0.015663
 50
-14.001558
 51
27.909630
  6
CONTINUOUS
  0
LINE
  8
WHITE
 10
11.711852
 20
3.157594
 30
0.000000
 11
11.707381
 21
3.159699
 31
0.000000
  6
CONTINUOUS
  0
ARC
  8
WHITE
 10
11.706912
 20
3.138206
 30
0.000000
 40
0.021498
 50
88.747513
 51
109.631719
  6
CONTINUOUS
  0
ARC
  8
WHITE
 10
21.174180
 20
-6.328126
 30
0.000000
 40
13.407505
 50
134.963469
 51
136.144279
  6
CONTINUOUS
  0
ARC
  8
WHITE
 10
11.487428
 20
3.072786
 30
0.000000
 40
0.113161
 50
-93.590895
 51
-80.448627
  6
CONTINUOUS
  0
ARC
  8
WHITE
 10
11.478068
 20
2.982573
 30
0.000000
 40
0.022839
 50
-147.431844
 51
-84.287929
  6
CONTINUOUS
  0
ARC
  8
WHITE
 10
11.603723
 20
2.993815
 30
0.000000
 40
0.146802
 50
161.388630
 51
189.225809
  6
CONTINUOUS
  0
ARC
  8
WHITE
 10
11.337599
 20
3.076045
 30
0.000000
 40
0.131835
 50
-15.566579
 51
-2.499619
  6
CONTINUOUS
  0
ARC
  8
WHITE
 10
11.461048
 20
3.071625
 30
0.000000
 40
0.008367
 50
-9.140246
 51
114.648585
  6
CONTINUOUS
  0
ARC
  8
WHITE
 10
11.309542
 20
3.382297
 30
0.000000
 40
0.337282
 50
-83.565896
 51
-63.969264
  6
CONTINUOUS
  0
ARC
  8
WHITE
 10
11.367090
 20
3.060188
 30
0.000000
 40
0.023673
 50
149.713348
 51
213.447922
  6
CONTINUOUS
  0
LINE
  8
WHITE
 10
11.346648
 20
3.072127
 30
0.000000
 11
11.357993
 21
3.098918
 31
0.000000
  6
CONTINUOUS
  0
ARC
  8
WHITE
 10
11.541452
 20
3.020123
 30
0.000000
 40
0.199664
 50
134.741224
 51
156.756739
  6
CONTINUOUS
  0
ARC
  8
WHITE
 10
11.372819
 20
3.191739
 30
0.000000
 40
0.040947
 50
-46.690004
 51
-21.938070
  6
CONTINUOUS
  0
ARC
  8
WHITE
 10
11.402845
 20
3.178016
 30
0.000000
 40
0.008111
 50
-11.199028
 51
35.538356
  6
CONTINUOUS
  0
ARC
  8
WHITE
 10
11.388777
 20
3.166737
 30
0.000000
 40
0.026133
 50
37.734088
 51
59.389603
  6
CONTINUOUS
  0
ARC
  8
WHITE
 10
10.818460
 20
10.091006
 30
0.000000
 40
6.926409
 50
-85.498386
 51
-85.166482
  6
CONTINUOUS
  0
ARC
  8
WHITE
 10
11.361129
 20
3.206218
 30
0.000000
 40
0.020277
 50
-146.497030
 51
-87.271466
  6
CONTINUOUS
  0
ARC
  8
WHITE
 10
11.389050
 20
3.206938
 30
0.000000
 40
0.046385
 50
152.563401
 51
194.881029
  6
CONTINUOUS
  0
ARC
  8
WHITE
 10
11.499716
 20
3.168955
 30
0.000000
 40
0.163024
 50
134.416458
 51
158.648376
  6
CONTINUOUS
  0
ARC
  8
WHITE
 10
11.371565
 20
3.305902
 30
0.000000
 40
0.024858
 50
-55.567546
 51
36.249548
  6
CONTINUOUS
  0
ARC
  8
WHITE
 10
10.730417
 20
4.470276
 30
0.000000
 40
1.326248
 50
-64.172710
 51
-60.096152
  6
CONTINUOUS
  0
ARC
  8
WHITE
 10
11.294524
 20
3.304567
 30
0.000000
 40
0.031222
 50
-95.954420
 51
-64.001089
  6
CONTINUOUS
  0
ARC
  8
WHITE
 10
11.293348
 20
3.280245
 30
0.000000
 40
0.007040
 50
-164.211328
 51
-107.043892
  6
CONTINUOUS
  0
ARC
  8
WHITE
 10
11.312500
 20
3.284768
 30
0.000000
 40
0.026714
 50
171.033373
 51
193.946937
  6
CONTINUOUS
  0
ARC
  8
WHITE
 10
11.371852
 20
3.272653
 30
0.000000
 40
0.087271
 50
129.575048
 51
169.249208
  6
CONTINUOUS
  0
ARC
  8
WHITE
 10
11.111379
 20
3.590658
 30
0.000000
 40
0.323794
 50
-50.748444
 51
-38.675940
  6
CONTINUOUS
  0
LINE
  8
WHITE
 10
11.364163
 20
3.388314
 30
0.000000
 11
11.349942
 21
3.390919
 31
0.000000
  6
CONTINUOUS
  0
ARC
  8
WHITE
 10
11.181021
 20
3.695112
 30
0.000000
 40
0.347948
 50
-69.865055
 51
-60.956278
  6
CONTINUOUS
  0
ARC
  8
WHITE
 10
11.244378
 20
3.518353
 30
0.000000
 40
0.160187
 50
-84.058939
 51
-69.378128
  6
CONTINUOUS
  0
ARC
  8
WHITE
 10
11.255360
 20
3.399018
 30
0.000000
 40
0.040383
 50
-128.647232
 51
-82.030834
  6
CONTINUOUS
  0
ARC
  8
WHITE
 10
11.997409
 20
2.693666
 30
0.000000
 40
1.021140
 50
124.966896
 51
138.710515
  6
CONTINUOUS
  0
ARC
  8
WHITE
 10
11.216498
 20
3.815069
 30
0.000000
 40
0.345385
 50
-55.486998
 51
-45.426090
  6
CONTINUOUS
  0
ARC
  8
WHITE
 10
11.452545
 20
3.576060
 30
0.000000
 40
0.009472
 50
-47.865098
 51
19.595242
  6
CONTINUOUS
  0
ARC
  8
WHITE
 10
11.445592
 20
3.560198
 30
0.000000
 40
0.024790
 50
50.176471
 51
89.555565
  6
CONTINUOUS
  0
ARC
  8
WHITE
 10
11.448318
 20
2.664333
 30
0.000000
 40
0.920658
 50
90.157678
 51
94.301142
  6
CONTINUOUS
  0
ARC
  8
WHITE
 10
11.373674
 20
3.683915
 30
0.000000
 40
0.101671
 50
-104.048520
 51
-86.844990
  6
CONTINUOUS
  0
ARC
  8
WHITE
 10
11.352563
 20
3.601947
 30
0.000000
 40
0.017041
 50
-174.459693
 51
-102.089786
  6
CONTINUOUS
  0
ARC
  8
WHITE
 10
11.378469
 20
3.599850
 30
0.000000
 40
0.042869
 50
102.171907
 51
179.395487
  6
CONTINUOUS
  0
ARC
  8
WHITE
 10
11.598643
 20
2.823242
 30
0.000000
 40
0.850002
 50
100.277308
 51
105.644110
  6
CONTINUOUS
  0
ARC
  8
WHITE
 10
11.423342
 20
3.805384
 30
0.000000
 40
0.147684
 50
-80.784912
 51
-50.323255
  6
CONTINUOUS
  0
ARC
  8
WHITE
 10
11.495489
 20
3.707743
 30
0.000000
 40
0.027333
 50
-35.894595
 51
27.958411
  6
CONTINUOUS
  0
ARC
  8
WHITE
 10
12.400692
 20
4.118594
 30
0.000000
 40
0.966799
 50
-158.109489
 51
-155.687950
  6
CONTINUOUS
  0
ARC
  8
WHITE
 10
10.191443
 20
5.827922
 30
0.000000
 40
2.450667
 50
-57.626975
 51
-55.941544
  6
CONTINUOUS
  0
ARC
  8
WHITE
 10
11.509306
 20
3.875711
 30
0.000000
 40
0.095282
 50
-55.035192
 51
-35.805740
  6
CONTINUOUS
  0
ARC
  8
WHITE
 10
11.565885
 20
3.834753
 30
0.000000
 40
0.025435
 50
-35.541793
 51
21.521531
  6
CONTINUOUS
  0
ARC
  8
WHITE
 10
11.416880
 20
4.252988
 30
0.000000
 40
0.443865
 50
-76.668768
 51
-67.107399
  6
CONTINUOUS
  0
ARC
  8
WHITE
 10
11.517084
 20
3.832941
 30
0.000000
 40
0.012050
 50
160.515050
 51
280.241833
  6
CONTINUOUS
  0
ARC
  8
WHITE
 10
11.526829
 20
3.836905
 30
0.000000
 40
0.021105
 50
141.519458
 51
179.850057
  6
CONTINUOUS
  0
ARC
  8
WHITE
 10
11.671652
 20
3.740883
 30
0.000000
 40
0.194798
 50
112.686473
 51
145.920397
  6
CONTINUOUS
  0
ARC
  8
WHITE
 10
10.221816
 20
7.304530
 30
0.000000
 40
3.652496
 50
-67.890749
 51
-64.346092
  6
CONTINUOUS
  0
LINE
  8
WHITE
 10
11.803106
 20
4.012077
 30
0.000000
 11
11.803106
 21
4.031880
 31
0.000000
  6
CONTINUOUS
  0
ARC
  8
WHITE
 10
11.737410
 20
4.581920
 30
0.000000
 40
0.553949
 50
-92.436632
 51
-83.188919
  6
CONTINUOUS
  0
ARC
  8
WHITE
 10
11.716680
 20
4.132305
 30
0.000000
 40
0.103871
 50
-111.231889
 51
-91.556182
  6
CONTINUOUS
  0
ARC
  8
WHITE
 10
11.682309
 20
4.046398
 30
0.000000
 40
0.011386
 50
142.097545
 51
253.441567
  6
CONTINUOUS
  0
ARC
  8
WHITE
 10
11.749553
 20
3.980800
 30
0.000000
 40
0.105264
 50
103.298465
 51
136.399163
  6
CONTINUOUS
  0
ARC
  8
WHITE
 10
11.690672
 20
4.193878
 30
0.000000
 40
0.115942
 50
-72.601813
 51
-58.816451
  6
CONTINUOUS
  0
ARC
  8
WHITE
 10
11.742228
 20
4.109287
 30
0.000000
 40
0.016881
 50
-59.861406
 51
10.402804
  6
CONTINUOUS
  0
ARC
  8
WHITE
 10
11.755176
 20
4.539331
 30
0.000000
 40
0.427011
 50
-99.136621
 51
-89.509481
  6
CONTINUOUS
  0
ARC
  8
WHITE
 10
11.689483
 20
4.129732
 30
0.000000
 40
0.012179
 50
-165.786485
 51
-99.984629
  6
CONTINUOUS
  0
ARC
  8
WHITE
 10
11.711439
 20
4.124893
 30
0.000000
 40
0.033812
 50
144.812021
 51
176.866282
  6
CONTINUOUS
  0
ARC
  8
WHITE
 10
11.788841
 20
4.053670
 30
0.000000
 40
0.138782
 50
105.126636
 51
139.186452
  6
CONTINUOUS
  0
ARC
  8
WHITE
 10
11.733885
 20
4.216297
 30
0.000000
 40
0.034238
 50
-56.813518
 51
-3.875242
  6
CONTINUOUS
  0
ARC
  8
WHITE
 10
11.909580
 20
4.187980
 30
0.000000
 40
0.143905
 50
161.765630
 51
169.589617
  6
CONTINUOUS
  0
ARC
  8
WHITE
 10
11.799592
 20
4.224022
 30
0.000000
 40
0.028163
 50
123.872169
 51
161.392724
  6
CONTINUOUS
  0
ARC
  8
WHITE
 10
11.623595
 20
4.725928
 30
0.000000
 40
0.504659
 50
-71.479632
 51
-65.467361
  6
CONTINUOUS
  0
ARC
  8
WHITE
 10
11.813506
 20
4.312073
 30
0.000000
 40
0.049320
 50
-66.546708
 51
-35.033469
  6
CONTINUOUS
  0
ARC
  8
WHITE
 10
11.844116
 20
4.288727
 30
0.000000
 40
0.010963
 50
-26.938181
 51
25.692002
  6
CONTINUOUS
  0
ARC
  8
WHITE
 10
11.829590
 20
4.279497
 30
0.000000
 40
0.028128
 50
29.810016
 51
59.869606
  6
CONTINUOUS
  0
ARC
  8
WHITE
 10
11.771940
 20
4.138483
 30
0.000000
 40
0.180246
 50
66.535870
 51
79.372931
  6
CONTINUOUS
  0
ARC
  8
WHITE
 10
11.818604
 20
4.378506
 30
0.000000
 40
0.064286
 50
-117.162933
 51
-102.053263
  6
CONTINUOUS
  0
ARC
  8
WHITE
 10
11.791236
 20
4.326320
 30
0.000000
 40
0.005387
 50
139.617620
 51
248.435849
  6
CONTINUOUS
  0
ARC
  8
WHITE
 10
11.886538
 20
4.220525
 30
0.000000
 40
0.147732
 50
103.013912
 51
132.289351
  6
CONTINUOUS
  0
ARC
  8
WHITE
 10
11.693504
 20
4.950798
 30
0.000000
 40
0.607713
 50
-74.757959
 51
-64.958210
  6
CONTINUOUS
  0
ARC
  8
WHITE
 10
11.854555
 20
4.644252
 30
0.000000
 40
0.262311
 50
-68.489631
 51
-54.646296
  6
CONTINUOUS
  0
ARC
  8
WHITE
 10
11.981986
 20
4.465827
 30
0.000000
 40
0.043060
 50
-55.566831
 51
30.016795
  6
CONTINUOUS
  0
ARC
  8
WHITE
 10
11.318303
 20
5.753083
 30
0.000000
 40
1.446856
 50
-68.750894
 51
-61.021791
  6
CONTINUOUS
  0
ARC
  8
WHITE
 10
11.795031
 20
4.518523
 30
0.000000
 40
0.123490
 50
-97.446245
 51
-67.304947
  6
CONTINUOUS
  0
ARC
  8
WHITE
 10
11.789956
 20
4.418523
 30
0.000000
 40
0.024968
 50
159.009877
 51
244.042016
  6
CONTINUOUS
  0
ARC
  8
WHITE
 10
11.332770
 20
5.255639
 30
0.000000
 40
0.934942
 50
-62.350208
 51
-48.771830
  6
CONTINUOUS
  0
ARC
  8
WHITE
 10
11.829616
 20
4.533532
 30
0.000000
 40
0.120831
 50
9.020750
 51
14.724425
  6
CONTINUOUS
  0
ARC
  8
WHITE
 10
11.936236
 20
4.562154
 30
0.000000
 40
0.010453
 50
11.531675
 51
70.898306
  6
CONTINUOUS
  0
ARC
  8
WHITE
 10
11.931331
 20
4.531580
 30
0.000000
 40
0.041300
 50
78.369957
 51
111.254263
  6
CONTINUOUS
  0
ARC
  8
WHITE
 10
11.404306
 20
5.415953
 30
0.000000
 40
0.988795
 50
-60.990317
 51
-58.811453
  6
CONTINUOUS
  0
ARC
  8
WHITE
 10
11.855285
 20
4.604467
 30
0.000000
 40
0.060421
 50
-81.799389
 51
-61.807443
  6
CONTINUOUS
  0
ARC
  8
WHITE
 10
11.861849
 20
4.557769
 30
0.000000
 40
0.013265
 50
-151.731911
 51
-81.092297
  6
CONTINUOUS
  0
ARC
  8
WHITE
 10
11.876282
 20
4.555679
 30
0.000000
 40
0.026450
 50
144.168671
 51
189.118364
  6
CONTINUOUS
  0
ARC
  8
WHITE
 10
13.202209
 20
3.614856
 30
0.000000
 40
1.652250
 50
140.410247
 51
144.634503
  6
CONTINUOUS
  0
ARC
  8
WHITE
 10
11.848416
 20
4.736635
 30
0.000000
 40
0.105928
 50
-40.520052
 51
-18.251274
  6
CONTINUOUS
  0
ARC
  8
WHITE
 10
11.942624
 20
4.704766
 30
0.000000
 40
0.006523
 50
-11.544136
 51
84.527931
  6
CONTINUOUS
  0
ARC
  8
WHITE
 10
11.939865
 20
4.656863
 30
0.000000
 40
0.054500
 50
86.443859
 51
110.029531
  6
CONTINUOUS
  0
ARC
  8
WHITE
 10
11.873740
 20
4.862900
 30
0.000000
 40
0.161943
 50
-89.328554
 51
-72.958848
  6
CONTINUOUS
  0
ARC
  8
WHITE
 10
11.874695
 20
4.755699
 30
0.000000
 40
0.054739
 50
-110.159572
 51
-89.013155
  6
CONTINUOUS
  0
ARC
  8
WHITE
 10
11.861072
 20
4.718791
 30
0.000000
 40
0.015397
 50
-167.825203
 51
-109.905167
  6
CONTINUOUS
  0
ARC
  8
WHITE
 10
11.863382
 20
4.711708
 30
0.000000
 40
0.017779
 50
126.401063
 51
167.542720
  6
CONTINUOUS
  0
ARC
  8
WHITE
 10
12.146409
 20
4.363959
 30
0.000000
 40
0.466128
 50
119.751925
 51
129.037034
  6
CONTINUOUS
  0
ARC
  8
WHITE
 10
11.732234
 20
4.647235
 30
0.000000
 40
0.219495
 50
33.581551
 51
65.502981
  6
CONTINUOUS
  0
ARC
  8
WHITE
 10
11.691731
 20
4.541808
 30
0.000000
 40
0.332297
 50
66.685418
 51
91.295601
  6
CONTINUOUS
  0
ARC
  8
WHITE
 10
11.530118
 20
5.423812
 30
0.000000
 40
0.570980
 50
-87.735771
 51
-74.342585
  6
CONTINUOUS
  0
ARC
  8
WHITE
 10
10.958664
 20
-12.973739
 30
0.000000
 40
17.836911
 50
88.091557
 51
88.885283
  6
CONTINUOUS
  0
ARC
  8
WHITE
 10
11.209846
 20
5.073798
 30
0.000000
 40
0.234475
 50
-101.496834
 51
-65.879048
  6
CONTINUOUS
  0
ARC
  8
WHITE
 10
10.874860
 20
4.339808
 30
0.000000
 40
0.580798
 50
60.244294
 51
72.243950
  6
CONTINUOUS
  0
ARC
  8
WHITE
 10
10.252607
 20
0.052287
 30
0.000000
 40
4.906212
 50
80.622911
 51
81.335921
  6
CONTINUOUS
  0
ARC
  8
WHITE
 10
11.012773
 20
5.021139
 30
0.000000
 40
0.120488
 50
-115.416682
 51
-100.080701
  6
CONTINUOUS
  0
ARC
  8
WHITE
 10
10.975499
 20
4.943567
 30
0.000000
 40
0.034427
 50
-158.786997
 51
-114.796300
  6
CONTINUOUS
  0
ARC
  8
WHITE
 10
10.742692
 20
4.888204
 30
0.000000
 40
0.205247
 50
12.066507
 51
35.362294
  6
CONTINUOUS
  0
ARC
  8
WHITE
 10
11.182102
 20
5.360771
 30
0.000000
 40
0.446275
 50
-138.360554
 51
-127.557320
  6
CONTINUOUS
  0
ARC
  8
WHITE
 10
11.165675
 20
5.343246
 30
0.000000
 40
0.422360
 50
-151.690696
 51
-138.656648
  6
CONTINUOUS
  0
ARC
  8
WHITE
 10
10.657279
 20
5.069054
 30
0.000000
 40
0.155263
 50
28.420636
 51
38.404845
  6
CONTINUOUS
  0
ARC
  8
WHITE
 10
10.768967
 20
5.159532
 30
0.000000
 40
0.011633
 50
30.895621
 51
108.693539
  6
CONTINUOUS
  0
ARC
  8
WHITE
 10
10.767332
 20
5.159108
 30
0.000000
 40
0.011633
 50
100.369115
 51
142.201710
  6
CONTINUOUS
  0
ARC
  8
WHITE
 10
10.869673
 20
5.125164
 30
0.000000
 40
0.118855
 50
159.782985
 51
167.498848
  6
CONTINUOUS
  0
ARC
  8
WHITE
 10
10.788898
 20
5.140898
 30
0.000000
 40
0.036652
 50
164.176308
 51
202.726209
  6
CONTINUOUS
  0
ARC
  8
WHITE
 10
11.226991
 20
5.468816
 30
0.000000
 40
0.582844
 50
-144.061765
 51
-134.492038
  6
CONTINUOUS
  0
ARC
  8
WHITE
 10
10.574353
 20
4.818905
 30
0.000000
 40
0.338295
 50
35.387485
 51
43.798154
  6
CONTINUOUS
  0
ARC
  8
WHITE
 10
10.812107
 20
4.988441
 30
0.000000
 40
0.046289
 50
15.142429
 51
34.731016
  6
CONTINUOUS
  0
ARC
  8
WHITE
 10
10.848692
 20
4.998147
 30
0.000000
 40
0.008442
 50
-52.495199
 51
16.416436
  6
CONTINUOUS
  0
ARC
  8
WHITE
 10
10.798654
 20
5.202816
 30
0.000000
 40
0.218450
 50
-93.639099
 51
-75.369504
  6
CONTINUOUS
  0
ARC
  8
WHITE
 10
11.178915
 20
4.922117
 30
0.000000
 40
0.399080
 50
170.962153
 51
180.250829
  6
CONTINUOUS
  0
ARC
  8
WHITE
 10
10.832413
 20
4.919614
 30
0.000000
 40
0.052580
 50
179.176808
 51
208.240430
  6
CONTINUOUS
  0
ARC
  8
WHITE
 10
11.405312
 20
5.371145
 30
0.000000
 40
0.781282
 50
-142.426356
 51
-133.060679
  6
CONTINUOUS
  0
ARC
  8
WHITE
 10
10.705007
 20
4.627442
 30
0.000000
 40
0.240272
 50
33.987362
 51
46.012969
  6
CONTINUOUS
  0
ARC
  8
WHITE
 10
10.888979
 20
4.748480
 30
0.000000
 40
0.020220
 50
-41.047446
 51
41.037962
  6
CONTINUOUS
  0
ARC
  8
WHITE
 10
10.865049
 20
4.790741
 30
0.000000
 40
0.067968
 50
-97.433510
 51
-54.799443
  6
CONTINUOUS
  0
ARC
  8
WHITE
 10
10.825759
 20
4.467511
 30
0.000000
 40
0.257645
 50
83.202072
 51
94.482188
  6
CONTINUOUS
  0
ARC
  8
WHITE
 10
10.922855
 20
4.722516
 30
0.000000
 40
0.117245
 50
179.095152
 51
219.907899
  6
CONTINUOUS
  0
ARC
  8
WHITE
 10
12.853815
 20
6.592373
 30
0.000000
 40
2.804878
 50
-136.095225
 51
-133.842726
  6
CONTINUOUS
  0
ARC
  8
WHITE
 10
10.793695
 20
4.451772
 30
0.000000
 40
0.166052
 50
30.757335
 51
45.089246
  6
CONTINUOUS
  0
ARC
  8
WHITE
 10
10.923130
 20
4.526707
 30
0.000000
 40
0.016599
 50
-45.968724
 51
36.981717
  6
CONTINUOUS
  0
ARC
  8
WHITE
 10
10.918687
 20
4.542126
 30
0.000000
 40
0.031679
 50
-126.961246
 51
-59.705571
  6
CONTINUOUS
  0
ARC
  8
WHITE
 10
10.081077
 20
3.223724
 30
0.000000
 40
1.530399
 50
57.665011
 51
59.064562
  6
CONTINUOUS
  0
ARC
  8
WHITE
 10
10.855045
 20
4.517099
 30
0.000000
 40
0.023158
 50
56.543926
 51
132.227333
  6
CONTINUOUS
  0
ARC
  8
WHITE
 10
10.473596
 20
4.380079
 30
0.000000
 40
0.397038
 50
1.428811
 51
22.848421
  6
CONTINUOUS
  0
ARC
  8
WHITE
 10
10.918737
 20
4.392150
 30
0.000000
 40
0.048275
 50
-177.422640
 51
-152.281842
  6
CONTINUOUS
  0
ARC
  8
WHITE
 10
11.367739
 20
4.568221
 30
0.000000
 40
0.530299
 50
-158.015075
 51
-151.903727
  6
CONTINUOUS
  0
ARC
  8
WHITE
 10
11.426838
 20
4.602525
 30
0.000000
 40
0.598594
 50
-151.671254
 51
-144.452377
  6
CONTINUOUS
  0
ARC
  8
WHITE
 10
10.921801
 20
4.239127
 30
0.000000
 40
0.023682
 50
-8.238746
 51
40.523088
  6
CONTINUOUS
  0
ARC
  8
WHITE
 10
10.708075
 20
4.234238
 30
0.000000
 40
0.237168
 50
-4.821121
 51
0.361363
  6
CONTINUOUS
  0
ARC
  8
WHITE
 10
10.937912
 20
4.213734
 30
0.000000
 40
0.006516
 50
-92.748330
 51
5.026342
  6
CONTINUOUS
  0
ARC
  8
WHITE
 10
10.937207
 20
4.239067
 30
0.000000
 40
0.031844
 50
-109.803236
 51
-89.292559
  6
CONTINUOUS
  0
ARC
  8
WHITE
 10
10.903765
 20
4.127445
 30
0.000000
 40
0.084745
 50
74.495716
 51
90.893835
  6
CONTINUOUS
  0
ARC
  8
WHITE
 10
10.907381
 20
4.199699
 30
0.000000
 40
0.013422
 50
111.583419
 51
165.367329
  6
CONTINUOUS
  0
ARC
  8
WHITE
 10
4.079982
 20
5.489106
 30
0.000000
 40
0.793864
 50
-94.939902
 51
-91.988615
  6
CONTINUOUS
  0
LINE
  8
WHITE
 10
4.052434
 20
4.695719
 30
0.000000
 11
3.983683
 21
4.626968
 31
0.000000
  6
CONTINUOUS
  0
ARC
  8
WHITE
 10
4.070897
 20
4.830247
 30
0.000000
 40
0.221198
 50
-113.221116
 51
-92.895248
  6
CONTINUOUS
  0
ARC
  8
WHITE
 10
4.059737
 20
4.601728
 30
0.000000
 40
0.007602
 50
23.285742
 51
90.096082
  6
CONTINUOUS
  0
ARC
  8
WHITE
 10
4.054855
 20
4.604947
 30
0.000000
 40
0.011867
 50
-47.131695
 51
-1.032172
  6
CONTINUOUS
  0
ARC
  8
WHITE
 10
4.161472
 20
4.498131
 30
0.000000
 40
0.139061
 50
135.123606
 51
148.313320
  6
CONTINUOUS
  0
ARC
  8
WHITE
 10
4.535857
 20
4.310427
 30
0.000000
 40
0.557458
 50
152.111930
 51
157.112572
  6
CONTINUOUS
  0
ARC
  8
WHITE
 10
4.026174
 20
4.523324
 30
0.000000
 40
0.005515
 50
134.830572
 51
283.708176
  6
CONTINUOUS
  0
ARC
  8
WHITE
 10
4.227047
 20
3.744634
 30
0.000000
 40
0.798667
 50
98.635599
 51
104.469994
  6
CONTINUOUS
  0
ARC
  8
WHITE
 10
4.067488
 20
4.526743
 30
0.000000
 40
0.040343
 50
-44.717086
 51
10.719561
  6
CONTINUOUS
  0
ARC
  8
WHITE
 10
4.848032
 20
3.428817
 30
0.000000
 40
1.307378
 50
125.106826
 51
130.084289
  6
CONTINUOUS
  0
ARC
  8
WHITE
 10
4.255943
 20
4.254999
 30
0.000000
 40
0.304437
 50
145.121263
 51
167.539448
  6
CONTINUOUS
  0
ARC
  8
WHITE
 10
3.967833
 20
4.346124
 30
0.000000
 40
0.027035
 50
-109.796209
 51
-78.769140
  6
CONTINUOUS
  0
ARC
  8
WHITE
 10
3.927151
 20
4.595117
 30
0.000000
 40
0.279315
 50
-80.531877
 51
-75.243973
  6
CONTINUOUS
  0
ARC
  8
WHITE
 10
4.301507
 20
3.159507
 30
0.000000
 40
1.204302
 50
99.775913
 51
104.582612
  6
CONTINUOUS
  0
ARC
  8
WHITE
 10
4.117022
 20
4.261084
 30
0.000000
 40
0.087553
 50
95.164265
 51
103.204068
  6
CONTINUOUS
  0
ARC
  8
WHITE
 10
4.110709
 20
4.337896
 30
0.000000
 40
0.010504
 50
38.940687
 51
98.585149
  6
CONTINUOUS
  0
ARC
  8
WHITE
 10
4.108889
 20
4.340420
 30
0.000000
 40
0.010790
 50
-40.366852
 51
22.205312
  6
CONTINUOUS
  0
ARC
  8
WHITE
 10
4.726896
 20
3.894627
 30
0.000000
 40
0.751258
 50
144.261015
 51
145.551633
  6
CONTINUOUS
  0
LINE
  8
WHITE
 10
4.107381
 20
4.319586
 30
0.000000
 11
3.923630
 21
4.278752
 31
0.000000
  6
CONTINUOUS
  0
ARC
  8
WHITE
 10
4.017087
 20
4.207166
 30
0.000000
 40
0.117724
 50
142.548563
 51
165.149351
  6
CONTINUOUS
  0
ARC
  8
WHITE
 10
3.926932
 20
4.232316
 30
0.000000
 40
0.024165
 50
168.004392
 51
231.963550
  6
CONTINUOUS
  0
ARC
  8
WHITE
 10
4.030026
 20
4.438499
 30
0.000000
 40
0.254248
 50
-117.648532
 51
-99.668719
  6
CONTINUOUS
  0
ARC
  8
WHITE
 10
4.088435
 20
4.011976
 30
0.000000
 40
0.202878
 50
119.892997
 51
136.400602
  6
CONTINUOUS
  0
ARC
  8
WHITE
 10
3.952501
 20
4.139897
 30
0.000000
 40
0.016259
 50
132.503781
 51
212.897562
  6
CONTINUOUS
  0
ARC
  8
WHITE
 10
3.997503
 20
4.209178
 30
0.000000
 40
0.097683
 50
-126.902494
 51
-97.519133
  6
CONTINUOUS
  0
LINE
  8
WHITE
 10
3.984720
 20
4.112336
 30
0.000000
 11
3.922215
 21
4.068061
 31
0.000000
  6
CONTINUOUS
  0
ARC
  8
WHITE
 10
3.951818
 20
4.077070
 30
0.000000
 40
0.030943
 50
-163.072973
 51
-99.101735
  6
CONTINUOUS
  0
ARC
  8
WHITE
 10
3.969147
 20
4.181464
 30
0.000000
 40
0.136765
 50
-99.352006
 51
-80.114769
  6
CONTINUOUS
  0
ARC
  8
WHITE
 10
3.456807
 20
6.925689
 30
0.000000
 40
2.928398
 50
-79.456989
 51
-77.378106
  6
CONTINUOUS
  0
ARC
  8
WHITE
 10
4.044746
 20
4.082293
 30
0.000000
 40
0.053877
 50
-50.681347
 51
-15.316547
  6
CONTINUOUS
  0
ARC
  8
WHITE
 10
4.525349
 20
3.523025
 30
0.000000
 40
0.683540
 50
130.780728
 51
133.684382
  6
CONTINUOUS
  0
ARC
  8
WHITE
 10
4.066284
 20
4.001656
 30
0.000000
 40
0.020393
 50
129.770403
 51
201.674494
  6
CONTINUOUS
  0
ARC
  8
WHITE
 10
4.064728
 20
4.005207
 30
0.000000
 40
0.020625
 50
-147.498463
 51
-73.496206
  6
CONTINUOUS
  0
ARC
  8
WHITE
 10
4.041548
 20
4.109598
 30
0.000000
 40
0.127517
 50
-76.836644
 51
-59.189831
  6
CONTINUOUS
  0
ARC
  8
WHITE
 10
3.783284
 20
4.546397
 30
0.000000
 40
0.634954
 50
-59.362384
 51
-51.982370
  6
CONTINUOUS
  0
LINE
  8
WHITE
 10
4.174355
 20
4.046166
 30
0.000000
 11
4.190451
 21
4.038119
 31
0.000000
  6
CONTINUOUS
  0
ARC
  8
WHITE
 10
3.910755
 20
4.003221
 30
0.000000
 40
0.281865
 50
-18.646773
 51
7.112075
  6
CONTINUOUS
  0
ARC
  8
WHITE
 10
4.147441
 20
3.931354
 30
0.000000
 40
0.035444
 50
-61.037407
 51
-30.998622
  6
CONTINUOUS
  0
ARC
  8
WHITE
 10
4.077257
 20
4.047233
 30
0.000000
 40
0.170899
 50
-69.076384
 51
-59.262483
  6
CONTINUOUS
  0
ARC
  8
WHITE
 10
3.911582
 20
4.496478
 30
0.000000
 40
0.649711
 50
-76.810197
 51
-69.577800
  6
CONTINUOUS
  0
ARC
  8
WHITE
 10
3.779048
 20
5.014412
 30
0.000000
 40
1.184273
 50
-84.436442
 51
-76.284928
  6
CONTINUOUS
  0
ARC
  8
WHITE
 10
3.898150
 20
3.579917
 30
0.000000
 40
0.255837
 50
90.960022
 51
123.700567
  6
CONTINUOUS
  0
ARC
  8
WHITE
 10
3.785168
 20
3.772619
 30
0.000000
 40
0.035284
 50
145.191967
 51
196.782519
  6
CONTINUOUS
  0
ARC
  8
WHITE
 10
3.778268
 20
3.782261
 30
0.000000
 40
0.033403
 50
-143.584941
 51
-96.436283
  6
CONTINUOUS
  0
ARC
  8
WHITE
 10
3.839741
 20
4.407167
 30
0.000000
 40
0.661323
 50
-95.659497
 51
-87.610176
  6
CONTINUOUS
  0
ARC
  8
WHITE
 10
3.003917
 20
-3.087368
 30
0.000000
 40
6.888114
 50
81.141723
 51
82.799239
  6
CONTINUOUS
  0
ARC
  8
WHITE
 10
3.219919
 20
0.952482
 30
0.000000
 40
2.892207
 50
69.513823
 51
73.018537
  6
CONTINUOUS
  0
ARC
  8
WHITE
 10
4.226600
 20
3.670915
 30
0.000000
 40
0.010687
 50
-89.536858
 51
-58.787970
  6
CONTINUOUS
  0
ARC
  8
WHITE
 10
4.215922
 20
3.811905
 30
0.000000
 40
0.152058
 50
-90.398461
 51
-85.940738
  6
CONTINUOUS
  0
ARC
  8
WHITE
 10
4.204755
 20
2.416132
 30
0.000000
 40
1.243760
 50
89.534289
 51
91.554499
  6
CONTINUOUS
  0
ARC
  8
WHITE
 10
4.212543
 20
2.593231
 30
0.000000
 40
1.067012
 50
92.230541
 51
101.775687
  6
CONTINUOUS
  0
ARC
  8
WHITE
 10
3.988728
 20
3.715629
 30
0.000000
 40
0.078077
 50
-126.358407
 51
-85.549669
  6
CONTINUOUS
  0
ARC
  8
WHITE
 10
3.875118
 20
3.559760
 30
0.000000
 40
0.114804
 50
54.096578
 51
82.229430
  6
CONTINUOUS
  0
ARC
  8
WHITE
 10
3.857337
 20
2.934459
 30
0.000000
 40
0.739800
 50
87.419805
 51
97.332119
  6
CONTINUOUS
  0
ARC
  8
WHITE
 10
3.731338
 20
3.801228
 30
0.000000
 40
0.136717
 50
-86.298253
 51
-76.642690
  6
CONTINUOUS
  0
ARC
  8
WHITE
 10
3.736253
 20
3.701986
 30
0.000000
 40
0.037395
 50
-129.881008
 51
-83.995871
  6
CONTINUOUS
  0
ARC
  8
WHITE
 10
3.607369
 20
3.572428
 30
0.000000
 40
0.145529
 50
43.873804
 51
63.576654
  6
CONTINUOUS
  0
ARC
  8
WHITE
 10
3.659175
 20
3.638157
 30
0.000000
 40
0.065883
 50
78.660373
 51
123.606094
  6
CONTINUOUS
  0
ARC
  8
WHITE
 10
3.841265
 20
3.787455
 30
0.000000
 40
0.238081
 50
167.999534
 51
203.366736
  6
CONTINUOUS
  0
ARC
  8
WHITE
 10
3.576336
 20
3.842880
 30
0.000000
 40
0.032593
 50
-10.470108
 51
13.509464
  6
CONTINUOUS
  0
ARC
  8
WHITE
 10
3.600506
 20
3.848463
 30
0.000000
 40
0.007791
 50
15.107169
 51
73.320906
  6
CONTINUOUS
  0
ARC
  8
WHITE
 10
3.601499
 20
3.822178
 30
0.000000
 40
0.033771
 50
87.891658
 51
123.218179
  6
CONTINUOUS
  0
ARC
  8
WHITE
 10
3.433390
 20
4.072946
 30
0.000000
 40
0.268134
 50
-65.145266
 51
-56.084909
  6
CONTINUOUS
  0
ARC
  8
WHITE
 10
3.554747
 20
3.850414
 30
0.000000
 40
0.022498
 50
173.793176
 51
247.372544
  6
CONTINUOUS
  0
ARC
  8
WHITE
 10
3.622112
 20
3.856927
 30
0.000000
 40
0.089823
 50
164.212374
 51
182.604282
  6
CONTINUOUS
  0
ARC
  8
WHITE
 10
4.119031
 20
3.739267
 30
0.000000
 40
0.600411
 50
160.807576
 51
166.309933
  6
CONTINUOUS
  0
ARC
  8
WHITE
 10
3.528990
 20
3.948428
 30
0.000000
 40
0.025842
 50
-27.120685
 51
9.446880
  6
CONTINUOUS
  0
ARC
  8
WHITE
 10
3.448076
 20
3.950048
 30
0.000000
 40
0.106438
 50
1.411308
 51
11.504510
  6
CONTINUOUS
  0
ARC
  8
WHITE
 10
3.532542
 20
3.962807
 30
0.000000
 40
0.021566
 50
23.123609
 51
80.346551
  6
CONTINUOUS
  0
ARC
  8
WHITE
 10
3.527614
 20
3.966903
 30
0.000000
 40
0.019174
 50
63.535259
 51
136.851760
  6
CONTINUOUS
  0
ARC
  8
WHITE
 10
4.121045
 20
3.689011
 30
0.000000
 40
0.673531
 50
154.401726
 51
159.977490
  6
CONTINUOUS
  0
LINE
  8
WHITE
 10
3.488224
 20
3.919620
 30
0.000000
 11
3.474094
 21
3.950707
 31
0.000000
  6
CONTINUOUS
  0
LINE
  8
WHITE
 10
3.474094
 20
3.950707
 30
0.000000
 11
3.482036
 21
4.083072
 31
0.000000
  6
CONTINUOUS
  0
ARC
  8
WHITE
 10
3.430126
 20
4.022907
 30
0.000000
 40
0.079464
 50
49.213103
 51
75.607103
  6
CONTINUOUS
  0
ARC
  8
WHITE
 10
3.448883
 20
4.084151
 30
0.000000
 40
0.015757
 50
86.378027
 51
162.175273
  6
CONTINUOUS
  0
ARC
  8
WHITE
 10
4.249477
 20
3.880127
 30
0.000000
 40
0.841909
 50
165.637023
 51
171.432081
  6
CONTINUOUS
  0
ARC
  8
WHITE
 10
2.949930
 20
3.826190
 30
0.000000
 40
0.500292
 50
21.009493
 51
25.750480
  6
CONTINUOUS
  0
ARC
  8
WHITE
 10
3.369599
 20
4.031124
 30
0.000000
 40
0.033340
 50
21.869507
 51
83.394438
  6
CONTINUOUS
  0
ARC
  8
WHITE
 10
3.373412
 20
4.039973
 30
0.000000
 40
0.024270
 50
89.947740
 51
179.988746
  6
CONTINUOUS
  0
ARC
  8
WHITE
 10
3.564079
 20
4.027848
 30
0.000000
 40
0.215279
 50
176.770077
 51
192.353540
  6
CONTINUOUS
  0
ARC
  8
WHITE
 10
2.827797
 20
3.849822
 30
0.000000
 40
0.542290
 50
-0.513807
 51
14.084574
  6
CONTINUOUS
  0
ARC
  8
WHITE
 10
3.360153
 20
3.844214
 30
0.000000
 40
0.009940
 50
-53.280754
 51
4.299107
  6
CONTINUOUS
  0
ARC
  8
WHITE
 10
3.375071
 20
3.880691
 30
0.000000
 40
0.045342
 50
-123.448036
 51
-101.416367
  6
CONTINUOUS
  0
ARC
  8
WHITE
 10
3.394088
 20
3.907750
 30
0.000000
 40
0.078407
 50
-146.888715
 51
-124.144637
  6
CONTINUOUS
  0
ARC
  8
WHITE
 10
-0.298528
 20
3.752565
 30
0.000000
 40
3.628681
 50
1.774305
 51
3.853622
  6
CONTINUOUS
  0
ARC
  8
WHITE
 10
3.298286
 20
3.995117
 30
0.000000
 40
0.023700
 50
3.201208
 51
69.804247
  6
CONTINUOUS
  0
ARC
  8
WHITE
 10
3.297906
 20
3.977402
 30
0.000000
 40
0.040865
 50
77.906104
 51
110.963449
  6
CONTINUOUS
  0
ARC
  8
WHITE
 10
3.296548
 20
3.991888
 30
0.000000
 40
0.027136
 50
119.258426
 51
165.257737
  6
CONTINUOUS
  0
ARC
  8
WHITE
 10
3.396405
 20
3.966158
 30
0.000000
 40
0.130253
 50
165.489676
 51
180.907827
  6
CONTINUOUS
  0
ARC
  8
WHITE
 10
6.046191
 20
4.042559
 30
0.000000
 40
2.781130
 50
-178.383280
 51
-175.477141
  6
CONTINUOUS
  0
ARC
  8
WHITE
 10
3.209946
 20
3.774920
 30
0.000000
 40
0.080018
 50
-6.172325
 51
37.154699
  6
CONTINUOUS
  0
ARC
  8
WHITE
 10
3.282245
 20
3.766273
 30
0.000000
 40
0.007255
 50
-140.546038
 51
0.337760
  6
CONTINUOUS
  0
ARC
  8
WHITE
 10
3.081501
 20
3.521416
 30
0.000000
 40
0.309514
 50
50.914504
 51
56.791344
  6
CONTINUOUS
  0
ARC
  8
WHITE
 10
3.240195
 20
3.761723
 30
0.000000
 40
0.021571
 50
59.881261
 51
115.266090
  6
CONTINUOUS
  0
ARC
  8
WHITE
 10
3.240740
 20
3.759342
 30
0.000000
 40
0.023962
 50
114.016541
 51
178.868828
  6
CONTINUOUS
  0
ARC
  8
WHITE
 10
3.294306
 20
3.764375
 30
0.000000
 40
0.077657
 50
-176.633815
 51
-154.489068
  6
CONTINUOUS
  0
ARC
  8
WHITE
 10
3.105423
 20
3.662790
 30
0.000000
 40
0.136952
 50
4.155625
 51
29.837803
  6
CONTINUOUS
  0
ARC
  8
WHITE
 10
3.164532
 20
3.691953
 30
0.000000
 40
0.079836
 50
-67.823034
 51
-13.944408
  6
CONTINUOUS
  0
ARC
  8
WHITE
 10
3.208763
 20
3.606500
 30
0.000000
 40
0.018207
 50
140.734137
 51
202.545513
  6
CONTINUOUS
  0
ARC
  8
WHITE
 10
3.219559
 20
3.606468
 30
0.000000
 40
0.028471
 50
-165.874837
 51
-120.229650
  6
CONTINUOUS
  0
ARC
  8
WHITE
 10
3.264730
 20
3.715927
 30
0.000000
 40
0.146672
 50
-113.935338
 51
-91.493338
  6
CONTINUOUS
  0
ARC
  8
WHITE
 10
3.127204
 20
-2.858558
 30
0.000000
 40
6.429253
 50
82.962295
 51
88.808381
  6
CONTINUOUS
  0
ARC
  8
WHITE
 10
3.916814
 20
2.908482
 30
0.000000
 40
0.613777
 50
80.507673
 51
90.175671
  6
CONTINUOUS
  0
ARC
  8
WHITE
 10
4.014906
 20
3.491698
 30
0.000000
 40
0.022376
 50
35.371737
 51
81.962059
  6
CONTINUOUS
  0
ARC
  8
WHITE
 10
4.014167
 20
3.500392
 30
0.000000
 40
0.019457
 50
-72.033467
 51
12.643839
  6
CONTINUOUS
  0
ARC
  8
WHITE
 10
4.016699
 20
3.509917
 30
0.000000
 40
0.028247
 50
-98.258736
 51
-82.943912
  6
CONTINUOUS
  0
ARC
  8
WHITE
 10
4.091102
 20
4.233953
 30
0.000000
 40
0.756072
 50
-97.240673
 51
-95.956561
  6
CONTINUOUS
  0
ARC
  8
WHITE
 10
3.783268
 20
1.793978
 30
0.000000
 40
1.703246
 50
82.831599
 51
85.005914
  6
CONTINUOUS
  0
ARC
  8
WHITE
 10
3.731258
 20
0.952548
 30
0.000000
 40
2.546099
 50
85.488324
 51
91.563784
  6
CONTINUOUS
  0
ARC
  8
WHITE
 10
3.482784
 20
4.055081
 30
0.000000
 40
0.585417
 50
-92.982127
 51
-72.196674
  6
CONTINUOUS
  0
ARC
  8
WHITE
 10
3.465318
 20
3.454401
 30
0.000000
 40
0.020653
 50
128.975464
 51
171.815021
  6
CONTINUOUS
  0
ARC
  8
WHITE
 10
3.459995
 20
3.458228
 30
0.000000
 40
0.015145
 50
-176.645432
 51
-126.387556
  6
CONTINUOUS
  0
ARC
  8
WHITE
 10
3.518987
 20
3.551853
 30
0.000000
 40
0.125770
 50
-122.716567
 51
-100.674910
  6
CONTINUOUS
  0
ARC
  8
WHITE
 10
3.725842
 20
4.600554
 30
0.000000
 40
1.194673
 50
-101.107364
 51
-93.339978
  6
CONTINUOUS
  0
ARC
  8
WHITE
 10
6.233580
 20
12.042058
 30
0.000000
 40
9.010616
 50
-106.620655
 51
-106.230335
  6
CONTINUOUS
  0
ARC
  8
WHITE
 10
4.023319
 20
4.570675
 30
0.000000
 40
1.219704
 50
-104.636497
 51
-96.845479
  6
CONTINUOUS
  0
ARC
  8
WHITE
 10
3.571648
 20
3.373500
 30
0.000000
 40
0.306604
 50
-7.474785
 51
-2.585992
  6
CONTINUOUS
  0
ARC
  8
WHITE
 10
3.868987
 20
3.333446
 30
0.000000
 40
0.006662
 50
-82.695128
 51
1.439255
  6
CONTINUOUS
  0
ARC
  8
WHITE
 10
3.835293
 20
3.137445
 30
0.000000
 40
0.192518
 50
79.663974
 51
92.745572
  6
CONTINUOUS
  0
ARC
  8
WHITE
 10
3.828293
 20
3.181809
 30
0.000000
 40
0.147950
 50
90.860571
 51
115.032508
  6
CONTINUOUS
  0
ARC
  8
WHITE
 10
3.774099
 20
3.297909
 30
0.000000
 40
0.019823
 50
115.096548
 51
199.961696
  6
CONTINUOUS
  0
ARC
  8
WHITE
 10
3.849943
 20
3.348872
 30
0.000000
 40
0.110719
 50
-148.572994
 51
-113.939034
  6
CONTINUOUS
  0
ARC
  8
WHITE
 10
3.867429
 20
3.045904
 30
0.000000
 40
0.211205
 50
107.187665
 51
127.691947
  6
CONTINUOUS
  0
ARC
  8
WHITE
 10
3.676974
 20
3.282308
 30
0.000000
 40
0.092517
 50
-78.590199
 51
-48.485331
  6
CONTINUOUS
  0
ARC
  8
WHITE
 10
3.478525
 20
0.952287
 30
0.000000
 40
2.249798
 50
84.471415
 51
93.881725
  6
CONTINUOUS
  0
ARC
  8
WHITE
 10
3.350421
 20
3.012763
 30
0.000000
 40
0.185745
 50
97.486246
 51
149.498168
  6
CONTINUOUS
  0
ARC
  8
WHITE
 10
3.264350
 20
3.136693
 30
0.000000
 40
0.079692
 50
-158.155243
 51
-112.650136
  6
CONTINUOUS
  0
ARC
  8
WHITE
 10
3.403640
 20
3.522512
 30
0.000000
 40
0.489805
 50
-110.306037
 51
-102.902654
  6
CONTINUOUS
  0
ARC
  8
WHITE
 10
3.277558
 20
2.918381
 30
0.000000
 40
0.127791
 50
63.571223
 51
82.486246
  6
CONTINUOUS
  0
ARC
  8
WHITE
 10
3.183971
 20
2.788103
 30
0.000000
 40
0.287270
 50
53.610880
 51
58.414267
  6
CONTINUOUS
  0
ARC
  8
WHITE
 10
3.392305
 20
3.085128
 30
0.000000
 40
0.075912
 50
-119.956376
 51
-99.158077
  6
CONTINUOUS
  0
ARC
  8
WHITE
 10
3.347146
 20
2.588407
 30
0.000000
 40
0.423072
 50
81.258355
 51
85.515905
  6
CONTINUOUS
  0
ARC
  8
WHITE
 10
3.408363
 20
2.994060
 30
0.000000
 40
0.012878
 50
1.148390
 51
76.158350
  6
CONTINUOUS
  0
ARC
  8
WHITE
 10
3.411011
 20
2.990508
 30
0.000000
 40
0.010914
 50
-75.264813
 51
20.429249
  6
CONTINUOUS
  0
ARC
  8
WHITE
 10
3.221208
 20
3.403788
 30
0.000000
 40
0.465535
 50
-77.320547
 51
-65.564250
  6
CONTINUOUS
  0
ARC
  8
WHITE
 10
3.269600
 20
17.257297
 30
0.000000
 40
14.307792
 50
-90.003158
 51
-89.784591
  6
CONTINUOUS
  0
ARC
  8
WHITE
 10
3.287616
 20
-2.784795
 30
0.000000
 40
5.734331
 50
90.187890
 51
90.811373
  6
CONTINUOUS
  0
ARC
  8
WHITE
 10
3.265244
 20
-1.740318
 30
0.000000
 40
4.689648
 50
90.718778
 51
92.751473
  6
CONTINUOUS
  0
ARC
  8
WHITE
 10
3.040352
 20
2.928526
 30
0.000000
 40
0.015399
 50
90.851152
 51
170.247353
  6
CONTINUOUS
  0
ARC
  8
WHITE
 10
3.074068
 20
2.942514
 30
0.000000
 40
0.050199
 50
-166.897772
 51
-141.758792
  6
CONTINUOUS
  0
ARC
  8
WHITE
 10
3.146641
 20
2.987697
 30
0.000000
 40
0.135495
 50
-145.751198
 51
-136.076683
  6
CONTINUOUS
  0
LINE
  8
WHITE
 10
3.049048
 20
2.893705
 30
0.000000
 11
3.126582
 21
2.823526
 31
0.000000
  6
CONTINUOUS
  0
LINE
  8
WHITE
 10
3.126582
 20
2.823526
 30
0.000000
 11
3.123976
 21
2.820089
 31
0.000000
  6
CONTINUOUS
  0
ARC
  8
WHITE
 10
3.104462
 20
2.853618
 30
0.000000
 40
0.038793
 50
-72.678446
 51
-59.801019
  6
CONTINUOUS
  0
ARC
  8
WHITE
 10
3.016722
 20
3.147142
 30
0.000000
 40
0.345149
 50
-78.917491
 51
-73.281116
  6
CONTINUOUS
  0
LINE
  8
WHITE
 10
3.083067
 20
2.808430
 30
0.000000
 11
2.942456
 21
2.781004
 31
0.000000
  6
CONTINUOUS
  0
ARC
  8
WHITE
 10
2.907119
 20
2.999751
 30
0.000000
 40
0.221583
 50
-109.464507
 51
-80.823624
  6
CONTINUOUS
  0
ARC
  8
WHITE
 10
2.654333
 20
2.280047
 30
0.000000
 40
0.541225
 50
70.692426
 51
82.629294
  6
CONTINUOUS
  0
ARC
  8
WHITE
 10
2.916483
 20
7.455601
 30
0.000000
 40
4.642802
 50
-94.536864
 51
-92.378965
  6
CONTINUOUS
  0
ARC
  8
WHITE
 10
2.552564
 20
2.917389
 30
0.000000
 40
0.090104
 50
-149.664203
 51
-92.117271
  6
CONTINUOUS
  0
ARC
  8
WHITE
 10
3.447862
 20
3.043238
 30
0.000000
 40
0.988038
 50
177.184192
 51
189.987461
  6
CONTINUOUS
  0
ARC
  8
WHITE
 10
2.506749
 20
3.091258
 30
0.000000
 40
0.045736
 50
137.086846
 51
179.350987
  6
CONTINUOUS
  0
ARC
  8
WHITE
 10
2.484970
 20
3.102168
 30
0.000000
 40
0.023378
 50
26.130172
 51
120.078809
  6
CONTINUOUS
  0
ARC
  8
WHITE
 10
2.301091
 20
2.987489
 30
0.000000
 40
0.239978
 50
23.934722
 51
31.384515
  6
CONTINUOUS
  0
ARC
  8
WHITE
 10
2.636124
 20
3.202505
 30
0.000000
 40
0.165008
 50
-134.516868
 51
-114.771647
  6
CONTINUOUS
  0
ARC
  8
WHITE
 10
2.364224
 20
2.629431
 30
0.000000
 40
0.469311
 50
58.123662
 51
64.402852
  6
CONTINUOUS
  0
ARC
  8
WHITE
 10
3.696319
 20
4.074553
 30
0.000000
 40
1.506971
 50
-136.012779
 51
-133.716186
  6
CONTINUOUS
  0
ARC
  8
WHITE
 10
2.682965
 20
3.010574
 30
0.000000
 40
0.037753
 50
-138.088001
 51
-73.140136
  6
CONTINUOUS
  0
ARC
  8
WHITE
 10
2.681085
 20
2.995838
 30
0.000000
 40
0.024946
 50
-59.049717
 51
18.501505
  6
CONTINUOUS
  0
ARC
  8
WHITE
 10
2.549141
 20
2.963343
 30
0.000000
 40
0.160763
 50
14.558843
 51
31.751266
  6
CONTINUOUS
  0
ARC
  8
WHITE
 10
1.410795
 20
2.245844
 30
0.000000
 40
1.506356
 50
32.172836
 51
35.117876
  6
CONTINUOUS
  0
ARC
  8
WHITE
 10
2.648548
 20
3.113382
 30
0.000000
 40
0.005685
 50
53.681615
 51
190.030649
  6
CONTINUOUS
  0
ARC
  8
WHITE
 10
2.617298
 20
2.982672
 30
0.000000
 40
0.139650
 50
61.555578
 51
75.647551
  6
CONTINUOUS
  0
ARC
  8
WHITE
 10
2.354248
 20
2.495302
 30
0.000000
 40
0.693477
 50
50.872640
 51
61.625176
  6
CONTINUOUS
  0
ARC
  8
WHITE
 10
2.209702
 20
2.376912
 30
0.000000
 40
0.877331
 50
43.851218
 51
48.428018
  6
CONTINUOUS
  0
ARC
  8
WHITE
 10
2.883881
 20
3.020349
 30
0.000000
 40
0.054698
 50
-139.349197
 51
-80.947445
  6
CONTINUOUS
  0
ARC
  8
WHITE
 10
2.884943
 20
2.994756
 30
0.000000
 40
0.029407
 50
-75.135415
 51
-16.871045
  6
CONTINUOUS
  0
ARC
  8
WHITE
 10
2.723634
 20
3.028460
 30
0.000000
 40
0.194102
 50
-12.568656
 51
-5.256364
  6
CONTINUOUS
  0
ARC
  8
WHITE
 10
3.579443
 20
3.593827
 30
0.000000
 40
0.882610
 50
-147.639399
 51
-138.645929
  6
CONTINUOUS
  0
ARC
  8
WHITE
 10
2.916930
 20
3.157860
 30
0.000000
 40
0.090672
 50
-172.505411
 51
-156.299267
  6
CONTINUOUS
  0
ARC
  8
WHITE
 10
2.891820
 20
3.137994
 30
0.000000
 40
0.065285
 50
148.454019
 51
172.926440
  6
CONTINUOUS
  0
ARC
  8
WHITE
 10
4.632057
 20
5.634255
 30
0.000000
 40
3.047478
 50
-126.107234
 51
-123.580773
  6
CONTINUOUS
  0
ARC
  8
WHITE
 10
3.084405
 20
3.300733
 30
0.000000
 40
0.247383
 50
-123.890994
 51
-92.766249
  6
CONTINUOUS
  0
ARC
  8
WHITE
 10
3.073893
 20
3.099744
 30
0.000000
 40
0.046128
 50
-91.772582
 51
-70.089265
  6
CONTINUOUS
  0
ARC
  8
WHITE
 10
3.084327
 20
3.070103
 30
0.000000
 40
0.014709
 50
-68.981672
 51
-23.213547
  6
CONTINUOUS
  0
ARC
  8
WHITE
 10
3.055500
 20
3.071323
 30
0.000000
 40
0.042922
 50
-9.409054
 51
31.253221
  6
CONTINUOUS
  0
ARC
  8
WHITE
 10
2.238127
 20
2.589546
 30
0.000000
 40
0.991712
 50
30.547891
 51
37.860038
  6
CONTINUOUS
  0
ARC
  8
WHITE
 10
3.050240
 20
3.162812
 30
0.000000
 40
0.045840
 50
52.609140
 51
129.478726
  6
CONTINUOUS
  0
ARC
  8
WHITE
 10
3.119815
 20
3.245174
 30
0.000000
 40
0.062071
 50
-132.255324
 51
-81.491169
  6
CONTINUOUS
  0
ARC
  8
WHITE
 10
3.117337
 20
3.223429
 30
0.000000
 40
0.041322
 50
-73.606955
 51
-31.437864
  6
CONTINUOUS
  0
LINE
  8
WHITE
 10
3.152593
 20
3.201877
 30
0.000000
 11
3.169546
 21
3.226842
 31
0.000000
  6
CONTINUOUS
  0
ARC
  8
WHITE
 10
-2.794777
 20
-5.265845
 30
0.000000
 40
10.377808
 50
54.920046
 51
57.855517
  6
CONTINUOUS
  0
ARC
  8
WHITE
 10
3.154925
 20
3.661520
 30
0.000000
 40
0.450554
 50
-164.509682
 51
-161.845791
  6
CONTINUOUS
  0
ARC
  8
WHITE
 10
2.741577
 20
3.547071
 30
0.000000
 40
0.021654
 50
155.777372
 51
195.762326
  6
CONTINUOUS
  0
ARC
  8
WHITE
 10
2.736619
 20
3.549665
 30
0.000000
 40
0.016072
 50
108.561702
 51
156.961526
  6
CONTINUOUS
  0
ARC
  8
WHITE
 10
2.515328
 20
4.225242
 30
0.000000
 40
0.694825
 50
-71.873127
 51
-69.782630
  6
CONTINUOUS
  0
ARC
  8
WHITE
 10
-3.203818
 20
-7.712883
 30
0.000000
 40
12.762802
 50
61.333405
 51
62.165153
  6
CONTINUOUS
  0
ARC
  8
WHITE
 10
3.021171
 20
3.649111
 30
0.000000
 40
0.193051
 50
-122.076474
 51
-81.810647
  6
CONTINUOUS
  0
ARC
  8
WHITE
 10
3.039284
 20
3.479006
 30
0.000000
 40
0.022981
 50
-65.896133
 51
-15.031426
  6
CONTINUOUS
  0
ARC
  8
WHITE
 10
3.000136
 20
3.489419
 30
0.000000
 40
0.063491
 50
-14.944546
 51
7.967780
  6
CONTINUOUS
  0
ARC
  8
WHITE
 10
2.935756
 20
3.481705
 30
0.000000
 40
0.128326
 50
7.394507
 51
33.898554
  6
CONTINUOUS
  0
ARC
  8
WHITE
 10
2.913140
 20
3.428128
 30
0.000000
 40
0.179823
 50
44.102726
 51
56.155891
  6
CONTINUOUS
  0
ARC
  8
WHITE
 10
2.107860
 20
2.304556
 30
0.000000
 40
1.562094
 50
54.575822
 51
56.853012
  6
CONTINUOUS
  0
ARC
  8
WHITE
 10
-8.525523
 20
-14.080927
 30
0.000000
 40
21.095467
 50
57.006140
 51
57.252970
  6
CONTINUOUS
  0
ARC
  8
WHITE
 10
2.909064
 20
3.647403
 30
0.000000
 40
0.027459
 50
90.507369
 51
148.438488
  6
CONTINUOUS
  0
ARC
  8
WHITE
 10
2.910240
 20
3.564816
 30
0.000000
 40
0.110055
 50
73.074046
 51
90.738653
  6
CONTINUOUS
  0
ARC
  8
WHITE
 10
3.068852
 20
4.037623
 30
0.000000
 40
0.388704
 50
-109.003376
 51
-97.946178
  6
CONTINUOUS
  0
ARC
  8
WHITE
 10
3.016638
 20
3.725593
 30
0.000000
 40
0.072958
 50
-91.195194
 51
-76.693649
  6
CONTINUOUS
  0
ARC
  8
WHITE
 10
3.030341
 20
3.669242
 30
0.000000
 40
0.014971
 50
-78.092275
 51
-37.696088
  6
CONTINUOUS
  0
ARC
  8
WHITE
 10
3.028134
 20
3.664970
 30
0.000000
 40
0.014877
 50
-19.157632
 51
41.540901
  6
CONTINUOUS
  0
ARC
  8
WHITE
 10
2.817307
 20
3.478344
 30
0.000000
 40
0.296439
 50
41.516914
 51
57.316201
  6
CONTINUOUS
  0
ARC
  8
WHITE
 10
-2.627909
 20
-4.742771
 30
0.000000
 40
10.157297
 50
56.506043
 51
57.732872
  6
CONTINUOUS
  0
ARC
  8
WHITE
 10
2.316912
 20
3.129107
 30
0.000000
 40
0.861473
 50
56.312464
 51
62.660666
  6
CONTINUOUS
  0
ARC
  8
WHITE
 10
2.724636
 20
3.920258
 30
0.000000
 40
0.028584
 50
168.171403
 51
244.989644
  6
CONTINUOUS
  0
ARC
  8
WHITE
 10
2.711546
 20
3.923992
 30
0.000000
 40
0.015037
 50
73.351952
 51
171.874261
  6
CONTINUOUS
  0
ARC
  8
WHITE
 10
2.675166
 20
3.744762
 30
0.000000
 40
0.197866
 50
65.562024
 51
78.133406
  6
CONTINUOUS
  0
ARC
  8
WHITE
 10
2.896023
 20
4.196623
 30
0.000000
 40
0.305210
 50
-117.091927
 51
-94.018369
  6
CONTINUOUS
  0
ARC
  8
WHITE
 10
2.875793
 20
3.915171
 30
0.000000
 40
0.023037
 50
-92.880488
 51
5.883052
  6
CONTINUOUS
  0
ARC
  8
WHITE
 10
2.842055
 20
3.916289
 30
0.000000
 40
0.056667
 50
1.256395
 51
51.085033
  6
CONTINUOUS
  0
ARC
  8
WHITE
 10
2.729133
 20
3.738645
 30
0.000000
 40
0.266880
 50
56.185771
 51
74.037697
  6
CONTINUOUS
  0
ARC
  8
WHITE
 10
2.941147
 20
4.468458
 30
0.000000
 40
0.493109
 50
-115.978159
 51
-106.326882
  6
CONTINUOUS
  0
ARC
  8
WHITE
 10
2.741116
 20
4.063088
 30
0.000000
 40
0.041139
 50
173.759592
 51
247.165987
  6
CONTINUOUS
  0
ARC
  8
WHITE
 10
2.712101
 20
4.065610
 30
0.000000
 40
0.012039
 50
71.847126
 51
170.681672
  6
CONTINUOUS
  0
ARC
  8
WHITE
 10
2.684930
 20
3.948140
 30
0.000000
 40
0.132567
 50
62.142831
 51
76.511315
  6
CONTINUOUS
  0
ARC
  8
WHITE
 10
2.864456
 20
4.269006
 30
0.000000
 40
0.235167
 50
-119.999502
 51
-100.892629
  6
CONTINUOUS
  0
ARC
  8
WHITE
 10
2.820234
 20
4.083725
 30
0.000000
 40
0.045649
 50
-90.272850
 51
-18.237619
  6
CONTINUOUS
  0
ARC
  8
WHITE
 10
2.724446
 20
4.103655
 30
0.000000
 40
0.143290
 50
-13.815471
 51
3.515621
  6
CONTINUOUS
  0
ARC
  8
WHITE
 10
2.845142
 20
4.110087
 30
0.000000
 40
0.022448
 50
6.022018
 51
66.152345
  6
CONTINUOUS
  0
ARC
  8
WHITE
 10
3.370048
 20
6.128169
 30
0.000000
 40
2.063078
 50
-106.692947
 51
-104.479270
  6
CONTINUOUS
  0
ARC
  8
WHITE
 10
3.059609
 20
5.042842
 30
0.000000
 40
0.934428
 50
-120.257710
 51
-107.575694
  6
CONTINUOUS
  0
ARC
  8
WHITE
 10
2.604579
 20
4.260594
 30
0.000000
 40
0.029484
 50
-175.197324
 51
-122.447064
  6
CONTINUOUS
  0
ARC
  8
WHITE
 10
2.589754
 20
4.256855
 30
0.000000
 40
0.014612
 50
71.991628
 51
175.011748
  6
CONTINUOUS
  0
ARC
  8
WHITE
 10
2.554151
 20
4.106024
 30
0.000000
 40
0.169542
 50
62.000707
 51
76.311607
  6
CONTINUOUS
  0
ARC
  8
WHITE
 10
2.782051
 20
4.513058
 30
0.000000
 40
0.297013
 50
-119.955423
 51
-99.823806
  6
CONTINUOUS
  0
ARC
  8
WHITE
 10
2.727141
 20
4.249373
 30
0.000000
 40
0.029281
 50
-81.685896
 51
47.180658
  6
CONTINUOUS
  0
ARC
  8
WHITE
 10
2.509403
 20
3.925639
 30
0.000000
 40
0.419099
 50
55.456918
 51
69.455291
  6
CONTINUOUS
  0
ARC
  8
WHITE
 10
2.694599
 20
4.235529
 30
0.000000
 40
0.090929
 50
77.275744
 51
114.784715
  6
CONTINUOUS
  0
ARC
  8
WHITE
 10
2.739748
 20
4.448995
 30
0.000000
 40
0.127274
 50
-101.383669
 51
-76.336184
  6
CONTINUOUS
  0
ARC
  8
WHITE
 10
2.765631
 20
4.339567
 30
0.000000
 40
0.014845
 50
-73.638785
 51
-8.291098
  6
CONTINUOUS
  0
ARC
  8
WHITE
 10
2.744741
 20
4.337195
 30
0.000000
 40
0.035581
 50
0.372275
 51
32.661252
  6
CONTINUOUS
  0
ARC
  8
WHITE
 10
2.558803
 20
4.213216
 30
0.000000
 40
0.259057
 50
33.552564
 51
47.763200
  6
CONTINUOUS
  0
ARC
  8
WHITE
 10
0.191538
 20
1.590831
 30
0.000000
 40
3.791880
 50
47.915790
 51
49.529512
  6
CONTINUOUS
  0
ARC
  8
WHITE
 10
2.349307
 20
4.362647
 30
0.000000
 40
0.323673
 50
20.399396
 51
53.488672
  6
CONTINUOUS
  0
ARC
  8
WHITE
 10
2.564585
 20
4.611988
 30
0.000000
 40
0.025140
 50
88.466750
 51
154.536277
  6
CONTINUOUS
  0
ARC
  8
WHITE
 10
2.562899
 20
4.504091
 30
0.000000
 40
0.133049
 50
71.693951
 51
88.984241
  6
CONTINUOUS
  0
ARC
  8
WHITE
 10
2.852017
 20
5.286656
 30
0.000000
 40
0.701309
 50
-110.650473
 51
-102.371939
  6
CONTINUOUS
  0
ARC
  8
WHITE
 10
2.719437
 20
4.660392
 30
0.000000
 40
0.061362
 50
-106.746822
 51
-33.998520
  6
CONTINUOUS
  0
ARC
  8
WHITE
 10
0.710164
 20
5.580774
 30
0.000000
 40
2.270603
 50
-24.863520
 51
-23.509041
  6
CONTINUOUS
  0
ARC
  8
WHITE
 10
2.868074
 20
4.575303
 30
0.000000
 40
0.125260
 50
105.984997
 51
127.223662
  6
CONTINUOUS
  0
ARC
  8
WHITE
 10
3.250099
 20
5.360146
 30
0.000000
 40
0.784188
 50
-122.083046
 51
-97.365441
  6
CONTINUOUS
  0
ARC
  8
WHITE
 10
3.203509
 20
5.060799
 30
0.000000
 40
0.481402
 50
-96.433555
 51
-78.385156
  6
CONTINUOUS
  0
ARC
  8
WHITE
 10
3.280344
 20
4.723210
 30
0.000000
 40
0.135454
 50
-81.472120
 51
-23.961043
  6
CONTINUOUS
  0
ARC
  8
WHITE
 10
3.260341
 20
4.708848
 30
0.000000
 40
0.149419
 50
-15.785596
 51
11.174750
  6
CONTINUOUS
  0
ARC
  8
WHITE
 10
3.586224
 20
4.770425
 30
0.000000
 40
0.182240
 50
166.827092
 51
190.310865
  6
CONTINUOUS
  0
ARC
  8
WHITE
 10
3.422986
 20
4.808666
 30
0.000000
 40
0.014582
 50
110.240851
 51
166.964163
  6
CONTINUOUS
  0
ARC
  8
WHITE
 10
3.429682
 20
4.782556
 30
0.000000
 40
0.041488
 50
80.920328
 51
106.439468
  6
CONTINUOUS
  0
ARC
  8
WHITE
 10
3.356116
 20
4.391112
 30
0.000000
 40
0.439771
 50
71.396362
 51
79.503730
  6
CONTINUOUS
  0
ARC
  8
WHITE
 10
3.700226
 20
5.373657
 30
0.000000
 40
0.601345
 50
-109.811813
 51
-91.473010
  6
CONTINUOUS
  0
ARC
  8
WHITE
 10
3.671063
 20
4.868167
 30
0.000000
 40
0.096634
 50
-81.846692
 51
-40.815508
  6
CONTINUOUS
  0
ARC
  8
WHITE
 10
3.829873
 20
4.730245
 30
0.000000
 40
0.113707
 50
103.687489
 51
138.892253
  6
CONTINUOUS
  0
ARC
  8
WHITE
 10
3.815851
 20
4.606654
 30
0.000000
 40
0.234423
 50
75.363767
 51
93.150616
  6
CONTINUOUS
  0
ARC
  8
WHITE
 10
3.880222
 20
4.853400
 30
0.000000
 40
0.020582
 50
-104.451644
 51
-38.130383
  6
CONTINUOUS
  0
ARC
  8
WHITE
 10
3.935543
 20
4.824050
 30
0.000000
 40
0.042524
 50
66.848981
 51
156.961722
  6
CONTINUOUS
  0
ARC
  8
WHITE
 10
3.905579
 20
4.696605
 30
0.000000
 40
0.172964
 50
56.764909
 51
74.341627
  6
CONTINUOUS
  0
ARC
  8
WHITE
 10
4.068902
 20
4.945408
 30
0.000000
 40
0.124656
 50
-123.347853
 51
-99.187147
  6
CONTINUOUS
  0
ARC
  8
WHITE
 10
4.048210
 20
4.816623
 30
0.000000
 40
0.005782
 50
-13.024381
 51
82.153687
  6
CONTINUOUS
  0
ARC
  8
WHITE
 10
4.004598
 20
4.821808
 30
0.000000
 40
0.049670
 50
-28.116561
 51
-7.505470
  6
CONTINUOUS
  0
ARC
  8
WHITE
 10
3.858830
 20
4.899999
 30
0.000000
 40
0.215086
 50
-44.553644
 51
-28.187912
  6
CONTINUOUS
  0
ARC
  8
WHITE
 10
4.124923
 20
4.601891
 30
0.000000
 40
0.185472
 50
127.467166
 51
143.849992
  6
CONTINUOUS
  0
ARC
  8
WHITE
 10
3.991504
 20
4.719138
 30
0.000000
 40
0.018127
 50
-154.385964
 51
-90.350109
  6
CONTINUOUS
  0
ARC
  8
WHITE
 10
4.018904
 20
4.824371
 30
0.000000
 40
0.126391
 50
-102.571902
 51
-93.303140
  6
CONTINUOUS
  0
ARC
  8
WHITE
 10
1.449047
 20
5.945084
 30
0.000000
 40
0.765635
 50
-42.399474
 51
-19.207163
  6
CONTINUOUS
  0
ARC
  8
WHITE
 10
2.166847
 20
5.572518
 30
0.000000
 40
0.120797
 50
87.525002
 51
113.856293
  6
CONTINUOUS
  0
ARC
  8
WHITE
 10
2.100198
 20
5.717784
 30
0.000000
 40
0.039076
 50
-145.775856
 51
-62.911889
  6
CONTINUOUS
  0
ARC
  8
WHITE
 10
2.297650
 20
5.515910
 30
0.000000
 40
0.291811
 50
130.531653
 51
141.940241
  6
CONTINUOUS
  0
ARC
  8
WHITE
 10
2.084623
 20
5.766661
 30
0.000000
 40
0.037227
 50
-51.076522
 51
-31.112779
  6
CONTINUOUS
  0
ARC
  8
WHITE
 10
2.111776
 20
5.747213
 30
0.000000
 40
0.004723
 50
2.575664
 51
102.535238
  6
CONTINUOUS
  0
ARC
  8
WHITE
 10
2.177347
 20
4.973700
 30
0.000000
 40
0.780968
 50
94.891768
 51
105.280623
  6
CONTINUOUS
  0
LINE
  8
WHITE
 10
1.971525
 20
5.727059
 30
0.000000
 11
1.716295
 21
5.789564
 31
0.000000
  6
CONTINUOUS
  0
ARC
  8
WHITE
 10
1.645279
 20
8.127599
 30
0.000000
 40
2.339113
 50
-99.144200
 51
-88.260229
  6
CONTINUOUS
  0
ARC
  8
WHITE
 10
0.494359
 20
8.216663
 30
0.000000
 40
2.521845
 50
-93.059068
 51
-72.002480
  6
CONTINUOUS
  0
LINE
  8
WHITE
 10
0.359779
 20
5.698412
 30
0.000000
 11
0.348955
 21
5.685783
 31
0.000000
  6
CONTINUOUS
  0
ARC
  8
WHITE
 10
7.671933
 20
5.261360
 30
0.000000
 40
7.335267
 50
176.682978
 51
183.321563
  6
CONTINUOUS
  0
ARC
  8
WHITE
 10
0.441962
 20
4.953849
 30
0.000000
 40
0.149828
 50
-128.355054
 51
-108.270805
  6
CONTINUOUS
  0
ARC
  8
WHITE
 10
0.466214
 20
5.004527
 30
0.000000
 40
0.205679
 50
-110.260743
 51
-102.538990
  6
CONTINUOUS
  0
ARC
  8
WHITE
 10
0.433558
 20
4.849940
 30
0.000000
 40
0.047719
 50
-104.561555
 51
-82.889128
  6
CONTINUOUS
  0
ARC
  8
WHITE
 10
0.431543
 20
4.828324
 30
0.000000
 40
0.026928
 50
-72.889105
 51
-12.353000
  6
CONTINUOUS
  0
ARC
  8
WHITE
 10
1.077719
 20
4.650495
 30
0.000000
 40
0.643311
 50
161.882584
 51
164.486033
  6
CONTINUOUS
  0
ARC
  8
WHITE
 10
0.504524
 20
4.830207
 30
0.000000
 40
0.043295
 50
97.466039
 51
151.985484
  6
CONTINUOUS
  0
ARC
  8
WHITE
 10
0.453239
 20
5.208560
 30
0.000000
 40
0.338519
 50
-82.248286
 51
-74.155991
  6
CONTINUOUS
  0
ARC
  8
WHITE
 10
0.473900
 20
4.986721
 30
0.000000
 40
0.126207
 50
-55.347107
 51
-35.696775
  6
CONTINUOUS
  0
ARC
  8
WHITE
 10
0.744511
 20
4.781720
 30
0.000000
 40
0.213351
 50
126.228577
 51
141.997123
  6
CONTINUOUS
  0
ARC
  8
WHITE
 10
0.670878
 20
4.847505
 30
0.000000
 40
0.118556
 50
78.734368
 51
116.263062
  6
CONTINUOUS
  0
ARC
  8
WHITE
 10
0.338552
 20
2.924563
 30
0.000000
 40
2.069967
 50
77.205845
 51
80.111243
  6
CONTINUOUS
  0
ARC
  8
WHITE
 10
0.664766
 20
5.056482
 30
0.000000
 40
0.174121
 50
-40.613785
 51
-8.764826
  6
CONTINUOUS
  0
ARC
  8
WHITE
 10
1.084508
 20
4.977752
 30
0.000000
 40
0.253095
 50
139.854182
 51
168.097940
  6
CONTINUOUS
  0
ARC
  8
WHITE
 10
1.069024
 20
4.926136
 30
0.000000
 40
0.278954
 50
27.958951
 51
129.645890
  6
CONTINUOUS
  0
ARC
  8
WHITE
 10
0.752977
 20
4.912868
 30
0.000000
 40
0.580597
 50
1.187991
 51
14.365657
  6
CONTINUOUS
  0
ARC
  8
WHITE
 10
1.459038
 20
5.235582
 30
0.000000
 40
0.335100
 50
-112.010689
 51
-93.352553
  6
CONTINUOUS
  0
ARC
  8
WHITE
 10
1.421795
 20
4.655679
 30
0.000000
 40
0.246010
 50
56.636788
 51
85.886645
  6
CONTINUOUS
  0
ARC
  8
WHITE
 10
1.055666
 20
4.348578
 30
0.000000
 40
0.717042
 50
34.587833
 51
45.629922
  6
CONTINUOUS
  0
ARC
  8
WHITE
 10
1.885975
 20
7.969408
 30
0.000000
 40
3.222736
 50
-94.270810
 51
-88.478865
  6
CONTINUOUS
  0
ARC
  8
WHITE
 10
9.241916
 20
1.299478
 30
0.000000
 40
8.046711
 50
153.277339
 51
154.625125
  6
CONTINUOUS
  0
ARC
  8
WHITE
 10
1.533734
 20
5.262798
 30
0.000000
 40
0.624764
 50
-33.511724
 51
-22.519151
  6
CONTINUOUS
  0
ARC
  8
WHITE
 10
1.972834
 20
5.080039
 30
0.000000
 40
0.149150
 50
-22.268698
 51
-1.826768
  6
CONTINUOUS
  0
ARC
  8
WHITE
 10
2.076551
 20
5.076558
 30
0.000000
 40
0.045376
 50
-1.608410
 51
52.220698
  6
CONTINUOUS
  0
ARC
  8
WHITE
 10
2.414277
 20
4.376116
 30
0.000000
 40
0.798876
 50
112.827348
 51
126.170490
  6
CONTINUOUS
  0
ARC
  8
WHITE
 10
1.886160
 20
5.103068
 30
0.000000
 40
0.099693
 50
-86.601128
 51
-55.387019
  6
CONTINUOUS
  0
ARC
  8
WHITE
 10
1.895370
 20
5.026235
 30
0.000000
 40
0.022924
 50
-154.760333
 51
-98.275468
  6
CONTINUOUS
  0
ARC
  8
WHITE
 10
1.957023
 20
5.051872
 30
0.000000
 40
0.089676
 50
179.585295
 51
203.258714
  6
CONTINUOUS
  0
ARC
  8
WHITE
 10
-12.553141
 20
20.176489
 30
0.000000
 40
20.897008
 50
-46.364002
 51
-45.322280
  6
CONTINUOUS
  0
LINE
  8
WHITE
 10
2.139927
 20
5.317192
 30
0.000000
 11
2.143126
 21
5.339586
 31
0.000000
  6
CONTINUOUS
  0
ARC
  8
WHITE
 10
1.973168
 20
5.923709
 30
0.000000
 40
0.608346
 50
-89.352148
 51
-73.776959
  6
CONTINUOUS
  0
ARC
  8
WHITE
 10
1.979735
 20
5.358765
 30
0.000000
 40
0.043365
 50
-141.081331
 51
-89.588242
  6
CONTINUOUS
  0
ARC
  8
WHITE
 10
1.990767
 20
5.345134
 30
0.000000
 40
0.046795
 50
145.020649
 51
196.909869
  6
CONTINUOUS
  0
ARC
  8
WHITE
 10
2.195542
 20
5.169050
 30
0.000000
 40
0.316668
 50
124.882985
 51
140.151029
  6
CONTINUOUS
  0
ARC
  8
WHITE
 10
14.711718
 20
5.628246
 30
0.000000
 40
0.037246
 50
77.110842
 51
92.799292
  6
CONTINUOUS
  0
ARC
  8
WHITE
 10
14.713443
 20
4.617766
 30
0.000000
 40
1.047687
 50
90.193849
 51
91.516000
  6
CONTINUOUS
  0
ARC
  8
WHITE
 10
14.603926
 20
8.862297
 30
0.000000
 40
3.198256
 50
-90.198242
 51
-88.534428
  6
CONTINUOUS
  0
ARC
  8
WHITE
 10
14.634242
 20
9.884768
 30
0.000000
 40
4.220912
 50
-95.736166
 51
-90.561745
  6
CONTINUOUS
  0
ARC
  8
WHITE
 10
14.425657
 20
7.336936
 30
0.000000
 40
1.665656
 50
-111.152166
 51
-97.356857
  6
CONTINUOUS
  0
ARC
  8
WHITE
 10
-0.965940
 20
-25.897161
 30
0.000000
 40
34.963193
 50
64.973838
 51
65.158720
  6
CONTINUOUS
  0
ARC
  8
WHITE
 10
13.667116
 20
5.727148
 30
0.000000
 40
0.117664
 50
62.026850
 51
113.851798
  6
CONTINUOUS
  0
ARC
  8
WHITE
 10
13.295147
 20
6.284067
 30
0.000000
 40
0.554169
 50
-81.376665
 51
-54.171484
  6
CONTINUOUS
  0
ARC
  8
WHITE
 10
13.901849
 20
9.624292
 30
0.000000
 40
3.923227
 50
-105.669098
 51
-97.669823
  6
CONTINUOUS
  0
ARC
  8
WHITE
 10
13.053574
 20
4.709598
 30
0.000000
 40
1.156729
 50
100.526091
 51
111.189765
  6
CONTINUOUS
  0
ARC
  8
WHITE
 10
12.648946
 20
5.754350
 30
0.000000
 40
0.036360
 50
111.763208
 51
160.885392
  6
CONTINUOUS
  0
ARC
  8
WHITE
 10
12.637117
 20
5.769983
 30
0.000000
 40
0.022832
 50
-170.607695
 51
-113.189935
  6
CONTINUOUS
  0
ARC
  8
WHITE
 10
12.572978
 20
5.646085
 30
0.000000
 40
0.116756
 50
54.968535
 51
61.813792
  6
CONTINUOUS
  0
ARC
  8
WHITE
 10
12.628248
 20
5.724100
 30
0.000000
 40
0.021153
 50
18.791197
 51
56.252834
  6
CONTINUOUS
  0
ARC
  8
WHITE
 10
12.604643
 20
5.726485
 30
0.000000
 40
0.043855
 50
-18.367548
 51
5.795982
  6
CONTINUOUS
  0
ARC
  8
WHITE
 10
12.671356
 20
5.704358
 30
0.000000
 40
0.026432
 50
161.679858
 51
209.135955
  6
CONTINUOUS
  0
ARC
  8
WHITE
 10
12.698652
 20
5.726710
 30
0.000000
 40
0.061474
 50
-145.043971
 51
-116.603941
  6
CONTINUOUS
  0
LINE
  8
WHITE
 10
12.671122
 20
5.671744
 30
0.000000
 11
12.700026
 21
5.656835
 31
0.000000
  6
CONTINUOUS
  0
ARC
  8
WHITE
 10
12.685540
 20
5.619963
 30
0.000000
 40
0.039615
 50
-25.964360
 51
68.550507
  6
CONTINUOUS
  0
ARC
  8
WHITE
 10
12.706123
 20
5.607912
 30
0.000000
 40
0.015937
 50
-103.054867
 51
-19.393933
  6
CONTINUOUS
  0
ARC
  8
WHITE
 10
12.724129
 20
5.709315
 30
0.000000
 40
0.118908
 50
-117.216171
 51
-100.468641
  6
CONTINUOUS
  0
ARC
  8
WHITE
 10
12.403930
 20
5.113222
 30
0.000000
 40
0.557764
 50
61.538115
 51
69.820657
  6
CONTINUOUS
  0
ARC
  8
WHITE
 10
12.574184
 20
5.566262
 30
0.000000
 40
0.073887
 50
72.553265
 51
81.674412
  6
CONTINUOUS
  0
ARC
  8
WHITE
 10
12.587498
 20
5.630808
 30
0.000000
 40
0.008953
 50
106.981985
 51
183.845913
  6
CONTINUOUS
  0
ARC
  8
WHITE
 10
12.747134
 20
5.620110
 30
0.000000
 40
0.168871
 50
176.572263
 51
187.838216
  6
CONTINUOUS
  0
LINE
  8
WHITE
 10
12.579841
 20
5.597080
 30
0.000000
 11
12.677966
 21
5.525281
 31
0.000000
  6
CONTINUOUS
  0
ARC
  8
WHITE
 10
12.596592
 20
5.533331
 30
0.000000
 40
0.081772
 50
-21.673296
 51
-5.649196
  6
CONTINUOUS
  0
ARC
  8
WHITE
 10
12.829655
 20
5.393053
 30
0.000000
 40
0.191805
 50
144.976714
 51
152.708543
  6
CONTINUOUS
  0
ARC
  8
WHITE
 10
12.677900
 20
5.473677
 30
0.000000
 40
0.020082
 50
158.616888
 51
234.108754
  6
CONTINUOUS
  0
ARC
  8
WHITE
 10
12.784661
 20
5.596011
 30
0.000000
 40
0.182376
 50
-130.537005
 51
-117.161738
  6
CONTINUOUS
  0
ARC
  8
WHITE
 10
12.407156
 20
4.833562
 30
0.000000
 40
0.668435
 50
54.845212
 51
63.882929
  6
CONTINUOUS
  0
ARC
  8
WHITE
 10
12.779672
 20
5.362802
 30
0.000000
 40
0.021239
 50
20.053681
 51
54.411805
  6
CONTINUOUS
  0
ARC
  8
WHITE
 10
12.785640
 20
5.369836
 30
0.000000
 40
0.013985
 50
-52.809070
 51
1.019449
  6
CONTINUOUS
  0
ARC
  8
WHITE
 10
12.769799
 20
5.396599
 30
0.000000
 40
0.045022
 50
-90.898877
 51
-57.341861
  6
CONTINUOUS
  0
ARC
  8
WHITE
 10
12.761909
 20
5.408928
 30
0.000000
 40
0.057794
 50
-98.948248
 51
-82.859428
  6
CONTINUOUS
  0
ARC
  8
WHITE
 10
12.751269
 20
5.342980
 30
0.000000
 40
0.009010
 50
79.448695
 51
141.706353
  6
CONTINUOUS
  0
ARC
  8
WHITE
 10
12.750799
 20
5.342430
 30
0.000000
 40
0.009010
 50
137.105230
 51
220.284417
  6
CONTINUOUS
  0
ARC
  8
WHITE
 10
13.134997
 20
5.600333
 30
0.000000
 40
0.471688
 50
-146.005375
 51
-144.250094
  6
CONTINUOUS
  0
ARC
  8
WHITE
 10
12.745618
 20
5.320694
 30
0.000000
 40
0.007720
 50
-44.966791
 51
31.687691
  6
CONTINUOUS
  0
ARC
  8
WHITE
 10
12.719329
 20
5.346316
 30
0.000000
 40
0.044429
 50
-62.758716
 51
-44.386385
  6
CONTINUOUS
  0
ARC
  8
WHITE
 10
12.846996
 20
5.088924
 30
0.000000
 40
0.242892
 50
116.224273
 51
124.844849
  6
CONTINUOUS
  0
ARC
  8
WHITE
 10
12.718608
 20
5.278640
 30
0.000000
 40
0.014163
 50
137.187999
 51
207.776795
  6
CONTINUOUS
  0
ARC
  8
WHITE
 10
12.796096
 20
5.312180
 30
0.000000
 40
0.098563
 50
-155.967718
 51
-138.881530
  6
CONTINUOUS
  0
ARC
  8
WHITE
 10
13.171798
 20
5.646138
 30
0.000000
 40
0.601232
 50
-138.450816
 51
-129.943652
  6
CONTINUOUS
  0
ARC
  8
WHITE
 10
16.441292
 20
9.578586
 30
0.000000
 40
5.715301
 50
-129.761986
 51
-128.363415
  6
CONTINUOUS
  0
ARC
  8
WHITE
 10
12.803214
 20
5.020143
 30
0.000000
 40
0.119209
 50
33.926958
 51
40.318403
  6
CONTINUOUS
  0
ARC
  8
WHITE
 10
12.893595
 20
5.080033
 30
0.000000
 40
0.010815
 50
-23.350857
 51
37.907484
  6
CONTINUOUS
  0
ARC
  8
WHITE
 10
12.824412
 20
5.138653
 30
0.000000
 40
0.101073
 50
-55.730558
 51
-38.489917
  6
CONTINUOUS
  0
ARC
  8
WHITE
 10
13.726832
 20
6.819963
 30
0.000000
 40
1.956920
 50
-118.211978
 51
-115.598365
  6
CONTINUOUS
  0
ARC
  8
WHITE
 10
12.784556
 20
5.047971
 30
0.000000
 40
0.050552
 50
70.142262
 51
97.364007
  6
CONTINUOUS
  0
ARC
  8
WHITE
 10
12.778040
 20
5.080899
 30
0.000000
 40
0.017207
 50
89.880173
 51
131.551604
  6
CONTINUOUS
  0
ARC
  8
WHITE
 10
12.841830
 20
5.039127
 30
0.000000
 40
0.092962
 50
143.994832
 51
153.111730
  6
CONTINUOUS
  0
ARC
  8
WHITE
 10
10.140920
 20
2.486208
 30
0.000000
 40
3.686155
 50
43.720294
 51
44.746795
  6
CONTINUOUS
  0
ARC
  8
WHITE
 10
12.776815
 20
5.006298
 30
0.000000
 40
0.039406
 50
-14.288896
 51
44.364901
  6
CONTINUOUS
  0
ARC
  8
WHITE
 10
12.798762
 20
5.000258
 30
0.000000
 40
0.016654
 50
-90.842356
 51
-12.784683
  6
CONTINUOUS
  0
ARC
  8
WHITE
 10
12.797268
 20
5.079017
 30
0.000000
 40
0.095419
 50
-109.005852
 51
-89.250236
  6
CONTINUOUS
  0
ARC
  8
WHITE
 10
12.972369
 20
5.591171
 30
0.000000
 40
0.636679
 50
-115.945783
 51
-108.894673
  6
CONTINUOUS
  0
ARC
  8
WHITE
 10
12.703821
 20
4.989238
 30
0.000000
 40
0.031082
 50
108.790736
 51
131.897540
  6
CONTINUOUS
  0
ARC
  8
WHITE
 10
12.694892
 20
5.003651
 30
0.000000
 40
0.014698
 50
143.590383
 51
201.353023
  6
CONTINUOUS
  0
ARC
  8
WHITE
 10
12.814721
 20
5.023094
 30
0.000000
 40
0.135800
 50
-169.479771
 51
-157.436676
  6
CONTINUOUS
  0
ARC
  8
WHITE
 10
12.864003
 20
5.073210
 30
0.000000
 40
0.202399
 50
-149.664934
 51
-72.053969
  6
CONTINUOUS
  0
ARC
  8
WHITE
 10
12.937281
 20
4.742142
 30
0.000000
 40
0.138945
 50
73.117715
 51
94.505198
  6
CONTINUOUS
  0
ARC
  8
WHITE
 10
12.990046
 20
4.910768
 30
0.000000
 40
0.037768
 50
-109.190616
 51
-45.776714
  6
CONTINUOUS
  0
ARC
  8
WHITE
 10
13.138823
 20
4.802867
 30
0.000000
 40
0.146714
 50
98.294192
 51
146.565840
  6
CONTINUOUS
  0
ARC
  8
WHITE
 10
13.117323
 20
4.978138
 30
0.000000
 40
0.030095
 50
-89.360820
 51
-62.679654
  6
CONTINUOUS
  0
ARC
  8
WHITE
 10
13.297507
 20
4.848136
 30
0.000000
 40
0.195814
 50
119.766315
 51
148.172783
  6
CONTINUOUS
  0
ARC
  8
WHITE
 10
13.257522
 20
4.770190
 30
0.000000
 40
0.254444
 50
76.337552
 51
102.998233
  6
CONTINUOUS
  0
ARC
  8
WHITE
 10
13.391083
 20
5.311132
 30
0.000000
 40
0.302746
 50
-104.042964
 51
-83.006523
  6
CONTINUOUS
  0
ARC
  8
WHITE
 10
13.420010
 20
5.079112
 30
0.000000
 40
0.068932
 50
-83.390623
 51
23.168355
  6
CONTINUOUS
  0
ARC
  8
WHITE
 10
22.824576
 20
8.467612
 30
0.000000
 40
9.927576
 50
-160.871519
 51
-160.208999
  6
CONTINUOUS
  0
ARC
  8
WHITE
 10
13.555549
 20
5.203464
 30
0.000000
 40
0.110956
 50
111.190242
 51
174.308070
  6
CONTINUOUS
  0
ARC
  8
WHITE
 10
13.695593
 20
4.950526
 30
0.000000
 40
0.399336
 50
95.729913
 51
116.816004
  6
CONTINUOUS
  0
ARC
  8
WHITE
 10
13.664987
 20
5.218069
 30
0.000000
 40
0.130128
 50
64.501824
 51
94.082049
  6
CONTINUOUS
  0
ARC
  8
WHITE
 10
13.937527
 20
5.792176
 30
0.000000
 40
0.505385
 50
-115.367915
 51
-107.482414
  6
CONTINUOUS
  0
ARC
  8
WHITE
 10
13.810848
 20
5.420012
 30
0.000000
 40
0.112717
 50
-102.890254
 51
-45.945416
  6
CONTINUOUS
  0
ARC
  8
WHITE
 10
14.046057
 20
7.895463
 30
0.000000
 40
2.561265
 50
-93.510541
 51
-74.924673
  6
CONTINUOUS
  0
ARC
  8
WHITE
 10
15.261049
 20
5.525871
 30
0.000000
 40
0.558515
 50
165.622715
 51
190.682110
  6
CONTINUOUS
  0
LINE
  8
WHITE
 10
9.325577
 20
3.081007
 30
0.000000
 11
8.994126
 21
3.085243
 31
0.000000
  6
CONTINUOUS
  0
LINE
  8
WHITE
 10
8.994126
 20
3.085243
 30
0.000000
 11
8.745532
 21
3.087968
 31
0.000000
  6
CONTINUOUS
  0
ARC
  8
WHITE
 10
8.738920
 20
3.244220
 30
0.000000
 40
0.156392
 50
-104.656802
 51
-87.576727
  6
CONTINUOUS
  0
ARC
  8
WHITE
 10
9.025023
 20
4.808967
 30
0.000000
 40
1.746680
 50
-103.612886
 51
-100.745895
  6
CONTINUOUS
  0
ARC
  8
WHITE
 10
8.662477
 20
3.300214
 30
0.000000
 40
0.195000
 50
-110.035565
 51
-104.417951
  6
CONTINUOUS
  0
ARC
  8
WHITE
 10
8.601571
 20
3.143791
 30
0.000000
 40
0.027419
 50
-140.941368
 51
-102.430038
  6
CONTINUOUS
  0
ARC
  8
WHITE
 10
8.606595
 20
3.135456
 30
0.000000
 40
0.027793
 50
124.979892
 51
198.769021
  6
CONTINUOUS
  0
ARC
  8
WHITE
 10
8.627742
 20
3.083103
 30
0.000000
 40
0.083778
 50
93.338406
 51
116.270035
  6
CONTINUOUS
  0
ARC
  8
WHITE
 10
9.042483
 20
0.493848
 30
0.000000
 40
2.705628
 50
88.235555
 51
98.922101
  6
CONTINUOUS
  0
ARC
  8
WHITE
 10
9.112009
 20
3.204208
 30
0.000000
 40
0.015036
 50
-23.574948
 51
64.552193
  6
CONTINUOUS
  0
ARC
  8
WHITE
 10
9.091039
 20
3.153512
 30
0.000000
 40
0.069883
 50
66.887545
 51
87.510554
  6
CONTINUOUS
  0
ARC
  8
WHITE
 10
8.337732
 20
-13.673590
 30
0.000000
 40
16.913838
 50
87.437031
 51
89.189193
  6
CONTINUOUS
  0
ARC
  8
WHITE
 10
5.921322
 20
-22.595883
 30
0.000000
 40
25.970583
 50
84.130669
 51
84.674978
  6
CONTINUOUS
  0
ARC
  8
WHITE
 10
8.323527
 20
3.950594
 30
0.000000
 40
0.688023
 50
-98.224263
 51
-89.333245
  6
CONTINUOUS
  0
ARC
  8
WHITE
 10
8.244434
 20
3.399667
 30
0.000000
 40
0.131448
 50
-118.693613
 51
-98.454864
  6
CONTINUOUS
  0
ARC
  8
WHITE
 10
8.197795
 20
3.314553
 30
0.000000
 40
0.034395
 50
-178.156807
 51
-118.615700
  6
CONTINUOUS
  0
ARC
  8
WHITE
 10
8.244188
 20
3.307423
 30
0.000000
 40
0.080994
 50
108.320943
 51
175.734372
  6
CONTINUOUS
  0
ARC
  8
WHITE
 10
8.412383
 20
2.873833
 30
0.000000
 40
0.545977
 50
99.016997
 51
110.774784
  6
CONTINUOUS
  0
ARC
  8
WHITE
 10
9.069828
 20
-0.295835
 30
0.000000
 40
3.782590
 50
97.731200
 51
101.328277
  6
CONTINUOUS
  0
ARC
  8
WHITE
 10
8.514934
 20
4.547126
 30
0.000000
 40
1.095722
 50
-87.591906
 51
-71.061112
  6
CONTINUOUS
  0
ARC
  8
WHITE
 10
8.843250
 20
3.497375
 30
0.000000
 40
0.030397
 50
26.042994
 51
70.720301
  6
CONTINUOUS
  0
ARC
  8
WHITE
 10
8.806989
 20
3.452896
 30
0.000000
 40
0.086588
 50
57.677311
 51
75.958160
  6
CONTINUOUS
  0
ARC
  8
WHITE
 10
8.473222
 20
2.326312
 30
0.000000
 40
1.261500
 50
73.666154
 51
81.910679
  6
CONTINUOUS
  0
ARC
  8
WHITE
 10
8.662557
 20
3.664038
 30
0.000000
 40
0.089562
 50
-124.908961
 51
-97.584802
  6
CONTINUOUS
  0
ARC
  8
WHITE
 10
8.638839
 20
3.614762
 30
0.000000
 40
0.036638
 50
164.595693
 51
221.275731
  6
CONTINUOUS
  0
ARC
  8
WHITE
 10
8.641552
 20
3.611768
 30
0.000000
 40
0.040107
 50
97.467546
 51
161.501051
  6
CONTINUOUS
  0
ARC
  8
WHITE
 10
8.813093
 20
2.817601
 30
0.000000
 40
0.852460
 50
97.713875
 51
101.966840
  6
CONTINUOUS
  0
LINE
  8
WHITE
 10
8.698671
 20
3.662347
 30
0.000000
 11
8.698671
 21
3.677005
 31
0.000000
  6
CONTINUOUS
  0
ARC
  8
WHITE
 10
8.353597
 20
1.437809
 30
0.000000
 40
2.265629
 50
81.239305
 51
104.648842
  6
CONTINUOUS
  0
ARC
  8
WHITE
 10
20.519634
 20
-26.334559
 30
0.000000
 40
32.559860
 50
113.032215
 51
113.578656
  6
CONTINUOUS
  0
LINE
  8
WHITE
 10
7.495441
 20
3.506936
 30
0.000000
 11
7.495441
 21
3.376709
 31
0.000000
  6
CONTINUOUS
  0
ARC
  8
WHITE
 10
7.898578
 20
3.791308
 30
0.000000
 40
0.578284
 50
-134.196961
 51
-119.463596
  6
CONTINUOUS
  0
ARC
  8
WHITE
 10
7.262912
 20
2.704525
 30
0.000000
 40
0.680872
 50
42.276311
 51
58.945900
  6
CONTINUOUS
  0
ARC
  8
WHITE
 10
7.108718
 20
2.652408
 30
0.000000
 40
0.832575
 50
25.059310
 51
37.787185
  6
CONTINUOUS
  0
ARC
  8
WHITE
 10
7.964685
 20
3.043927
 30
0.000000
 40
0.108935
 50
-159.091691
 51
-99.394484
  6
CONTINUOUS
  0
ARC
  8
WHITE
 10
8.014899
 20
3.204898
 30
0.000000
 40
0.276923
 50
-104.213744
 51
-81.744557
  6
CONTINUOUS
  0
ARC
  8
WHITE
 10
7.988791
 20
3.159920
 30
0.000000
 40
0.238358
 50
-73.957373
 51
-56.734877
  6
CONTINUOUS
  0
ARC
  8
WHITE
 10
8.196624
 20
2.843816
 30
0.000000
 40
0.139950
 50
94.375335
 51
123.424882
  6
CONTINUOUS
  0
ARC
  8
WHITE
 10
8.938010
 20
6.278157
 30
0.000000
 40
3.379542
 50
-102.857915
 51
-93.261444
  6
CONTINUOUS
  0
LINE
  8
WHITE
 10
8.745741
 20
2.904089
 30
0.000000
 11
8.881529
 21
3.039877
 31
0.000000
  6
CONTINUOUS
  0
ARC
  8
WHITE
 10
9.012735
 20
4.539011
 30
0.000000
 40
1.504864
 50
-95.001848
 51
-77.664310
  6
CONTINUOUS
  0
LINE
  8
WHITE
 10
9.334233
 20
3.068890
 30
0.000000
 11
9.325577
 21
3.081007
 31
0.000000
  6
CONTINUOUS
  0
ARC
  8
WHITE
 10
7.160320
 20
12.717509
 30
0.000000
 40
12.852467
 50
-60.077517
 51
-57.198868
  6
CONTINUOUS
  0
LINE
  8
WHITE
 10
14.122820
 20
1.914292
 30
0.000000
 11
14.118411
 21
1.929004
 31
0.000000
  6
CONTINUOUS
  0
ARC
  8
WHITE
 10
13.046600
 20
-0.129668
 30
0.000000
 40
2.320972
 50
62.497055
 51
77.598634
  6
CONTINUOUS
  0
ARC
  8
WHITE
 10
13.322047
 20
0.911025
 30
0.000000
 40
1.246238
 50
79.691992
 51
107.965712
  6
CONTINUOUS
  0
ARC
  8
WHITE
 10
13.350849
 20
1.572369
 30
0.000000
 40
0.667418
 50
128.250761
 51
153.529827
  6
CONTINUOUS
  0
ARC
  8
WHITE
 10
11.707624
 20
2.393455
 30
0.000000
 40
1.169529
 50
-41.144966
 51
-26.596109
  6
CONTINUOUS
  0
ARC
  8
WHITE
 10
12.373463
 20
1.918735
 30
0.000000
 40
0.364790
 50
-76.752828
 51
-53.911871
  6
CONTINUOUS
  0
ARC
  8
WHITE
 10
12.586997
 20
1.031800
 30
0.000000
 40
0.547496
 50
103.729549
 51
119.022220
  6
CONTINUOUS
  0
ARC
  8
WHITE
 10
12.354778
 20
1.523827
 30
0.000000
 40
0.035941
 50
-158.315943
 51
-118.095112
  6
CONTINUOUS
  0
ARC
  8
WHITE
 10
12.396261
 20
1.598770
 30
0.000000
 40
0.121595
 50
-118.708440
 51
-102.331122
  6
CONTINUOUS
  0
ARC
  8
WHITE
 10
12.463052
 20
1.940880
 30
0.000000
 40
0.470142
 50
-101.379118
 51
-89.749441
  6
CONTINUOUS
  0
ARC
  8
WHITE
 10
12.472783
 20
2.503193
 30
0.000000
 40
1.032479
 50
-90.425967
 51
-80.191753
  6
CONTINUOUS
  0
ARC
  8
WHITE
 10
13.461071
 20
-0.810941
 30
0.000000
 40
2.436194
 50
94.308642
 51
109.479661
  6
CONTINUOUS
  0
ARC
  8
WHITE
 10
13.224142
 20
0.130412
 30
0.000000
 40
1.488932
 50
76.509420
 51
87.925452
  6
CONTINUOUS
  0
ARC
  8
WHITE
 10
7.026110
 20
1.967227
 30
0.000000
 40
0.774847
 50
-88.861413
 51
-73.558537
  6
CONTINUOUS
  0
ARC
  8
WHITE
 10
7.027198
 20
1.002028
 30
0.000000
 40
0.311321
 50
45.496559
 51
93.938351
  6
CONTINUOUS
  0
LINE
  8
WHITE
 10
7.005816
 20
1.312614
 30
0.000000
 11
6.596926
 21
1.312614
 31
0.000000
  6
CONTINUOUS
  0
LINE
  8
WHITE
 10
6.596926
 20
1.312614
 30
0.000000
 11
6.568277
 21
1.323031
 31
0.000000
  6
CONTINUOUS
  0
ARC
  8
WHITE
 10
6.595662
 20
33.298512
 30
0.000000
 40
31.975493
 50
-91.635976
 51
-90.049069
  6
CONTINUOUS
  0
ARC
  8
WHITE
 10
5.705887
 20
1.316431
 30
0.000000
 40
0.030311
 50
139.656330
 51
189.511171
  6
CONTINUOUS
  0
ARC
  8
WHITE
 10
5.706358
 20
1.323366
 30
0.000000
 40
0.032630
 50
-158.529147
 51
-106.726030
  6
CONTINUOUS
  0
ARC
  8
WHITE
 10
5.633827
 20
0.798908
 30
0.000000
 40
0.497233
 50
77.265137
 51
82.704648
  6
CONTINUOUS
  0
ARC
  8
WHITE
 10
5.724976
 20
1.204441
 30
0.000000
 40
0.081585
 50
56.903262
 51
76.921974
  6
CONTINUOUS
  0
ARC
  8
WHITE
 10
5.759543
 20
1.256938
 30
0.000000
 40
0.018731
 50
-10.804667
 51
57.798597
  6
CONTINUOUS
  0
ARC
  8
WHITE
 10
5.658227
 20
1.321258
 30
0.000000
 40
0.137597
 50
-53.310579
 51
-29.535938
  6
CONTINUOUS
  0
LINE
  8
WHITE
 10
5.740438
 20
1.210921
 30
0.000000
 11
5.368239
 21
1.190802
 31
0.000000
  6
CONTINUOUS
  0
LINE
  8
WHITE
 10
5.368239
 20
1.190802
 30
0.000000
 11
5.258268
 21
1.145933
 31
0.000000
  6
CONTINUOUS
  0
ARC
  8
WHITE
 10
5.215703
 20
-4.891699
 30
0.000000
 40
6.037782
 50
89.596074
 51
92.183165
  6
CONTINUOUS
  0
ARC
  8
WHITE
 10
5.101422
 20
0.043069
 30
0.000000
 40
1.104709
 50
96.013037
 51
111.432775
  6
CONTINUOUS
  0
LINE
  8
WHITE
 10
4.697751
 20
1.071384
 30
0.000000
 11
4.608045
 21
1.069748
 31
0.000000
  6
CONTINUOUS
  0
ARC
  8
WHITE
 10
4.605298
 20
1.016984
 30
0.000000
 40
0.052836
 50
87.019915
 51
181.378346
  6
CONTINUOUS
  0
ARC
  8
WHITE
 10
5.482057
 20
3.252865
 30
0.000000
 40
2.422595
 50
-112.563816
 51
-107.472663
  6
CONTINUOUS
  0
ARC
  8
WHITE
 10
4.674992
 20
0.691540
 30
0.000000
 40
0.262874
 50
54.572364
 51
72.355567
  6
CONTINUOUS
  0
ARC
  8
WHITE
 10
4.810619
 20
0.884175
 30
0.000000
 40
0.027311
 50
3.912781
 51
52.159614
  6
CONTINUOUS
  0
ARC
  8
WHITE
 10
4.806011
 20
0.891533
 30
0.000000
 40
0.032325
 50
-56.241951
 51
-9.786431
  6
CONTINUOUS
  0
LINE
  8
WHITE
 10
4.823974
 20
0.864658
 30
0.000000
 11
4.605264
 21
0.864658
 31
0.000000
  6
CONTINUOUS
  0
ARC
  8
WHITE
 10
4.654562
 20
0.821184
 30
0.000000
 40
0.065729
 50
138.592002
 51
162.631013
  6
CONTINUOUS
  0
ARC
  8
WHITE
 10
4.607357
 20
0.840499
 30
0.000000
 40
0.015530
 50
178.869116
 51
212.395947
  6
CONTINUOUS
  0
ARC
  8
WHITE
 10
4.827460
 20
0.976346
 30
0.000000
 40
0.274179
 50
-148.276879
 51
-145.330994
  6
CONTINUOUS
  0
ARC
  8
WHITE
 10
4.717728
 20
2.943329
 30
0.000000
 40
2.126100
 50
-93.121319
 51
-88.137388
  6
CONTINUOUS
  0
ARC
  8
WHITE
 10
4.960073
 20
5.526076
 30
0.000000
 40
4.710910
 50
-92.107487
 51
-84.777758
  6
CONTINUOUS
  0
ARC
  8
WHITE
 10
5.113681
 20
-3.570442
 30
0.000000
 40
4.413749
 50
84.000861
 51
86.425575
  6
CONTINUOUS
  0
ARC
  8
WHITE
 10
5.714900
 20
2.314122
 30
0.000000
 40
1.501521
 50
-95.346983
 51
-91.295195
  6
CONTINUOUS
  0
ARC
  8
WHITE
 10
5.685750
 20
1.092417
 30
0.000000
 40
0.279473
 50
-90.982113
 51
-83.429025
  6
CONTINUOUS
  0
ARC
  8
WHITE
 10
5.716010
 20
0.848407
 30
0.000000
 40
0.033672
 50
-87.069911
 51
-52.989072
  6
CONTINUOUS
  0
ARC
  8
WHITE
 10
5.728942
 20
0.824138
 30
0.000000
 40
0.007790
 50
-19.640133
 51
53.496357
  6
CONTINUOUS
  0
ARC
  8
WHITE
 10
5.706818
 20
0.804688
 30
0.000000
 40
0.037110
 50
43.857640
 51
64.223316
  6
CONTINUOUS
  0
ARC
  8
WHITE
 10
5.451631
 20
0.211196
 30
0.000000
 40
0.683105
 50
66.597142
 51
68.836373
  6
CONTINUOUS
  0
ARC
  8
WHITE
 10
4.098488
 20
-3.985831
 30
0.000000
 40
5.091893
 50
71.688736
 51
76.924455
  6
CONTINUOUS
  0
ARC
  8
WHITE
 10
5.350099
 20
0.992302
 30
0.000000
 40
0.101303
 50
176.037491
 51
190.383887
  6
CONTINUOUS
  0
ARC
  8
WHITE
 10
5.267892
 20
0.997466
 30
0.000000
 40
0.018943
 50
133.069371
 51
174.437898
  6
CONTINUOUS
  0
ARC
  8
WHITE
 10
5.290282
 20
0.969863
 30
0.000000
 40
0.054455
 50
113.965815
 51
130.445411
  6
CONTINUOUS
  0
ARC
  8
WHITE
 10
5.920703
 20
-2.365777
 30
0.000000
 40
3.447716
 50
92.489456
 51
100.910025
  6
CONTINUOUS
  0
ARC
  8
WHITE
 10
5.762200
 20
1.153041
 30
0.000000
 40
0.074869
 50
-83.288873
 51
-31.206511
  6
CONTINUOUS
  0
ARC
  8
WHITE
 10
5.972787
 20
1.027382
 30
0.000000
 40
0.170362
 50
129.630837
 51
149.343034
  6
CONTINUOUS
  0
ARC
  8
WHITE
 10
6.035433
 20
0.713057
 30
0.000000
 40
0.477332
 50
100.501757
 51
111.032014
  6
CONTINUOUS
  0
ARC
  8
WHITE
 10
6.424801
 20
-64.508454
 30
0.000000
 40
65.692575
 50
89.767103
 51
90.415483
  6
CONTINUOUS
  0
ARC
  8
WHITE
 10
6.690359
 20
8.072819
 30
0.000000
 40
6.889240
 50
-89.987778
 51
-87.078336
  6
CONTINUOUS
  0
ARC
  8
WHITE
 10
7.714342
 20
5.179034
 30
0.000000
 40
2.902701
 50
-89.437404
 51
-80.603930
  6
CONTINUOUS
  0
LINE
  8
WHITE
 10
8.188232
 20
2.315278
 30
0.000000
 11
8.162166
 21
2.346557
 31
0.000000
  6
CONTINUOUS
  0
ARC
  8
WHITE
 10
7.591583
 20
-1.249233
 30
0.000000
 40
3.640779
 50
80.983441
 51
88.801533
  6
CONTINUOUS
  0
ARC
  8
WHITE
 10
7.464405
 20
-3.574406
 30
0.000000
 40
5.968620
 50
88.047777
 51
90.187759
  6
CONTINUOUS
  0
ARC
  8
WHITE
 10
7.451718
 20
0.507576
 30
0.000000
 40
1.886619
 50
90.208710
 51
92.311904
  6
CONTINUOUS
  0
ARC
  8
WHITE
 10
7.390105
 20
2.051440
 30
0.000000
 40
0.341526
 50
92.431953
 51
95.720167
  6
CONTINUOUS
  0
ARC
  8
WHITE
 10
7.356799
 20
2.369782
 30
0.000000
 40
0.021497
 50
91.956681
 51
113.336581
  6
CONTINUOUS
  0
ARC
  8
WHITE
 10
7.365316
 20
2.381995
 30
0.000000
 40
0.018621
 50
156.164961
 51
239.346066
  6
CONTINUOUS
  0
ARC
  8
WHITE
 10
7.380057
 20
2.418524
 30
0.000000
 40
0.057867
 50
-114.758661
 51
-89.138979
  6
CONTINUOUS
  0
ARC
  8
WHITE
 10
7.359395
 20
2.197710
 30
0.000000
 40
0.164369
 50
71.188065
 51
82.472951
  6
CONTINUOUS
  0
ARC
  8
WHITE
 10
7.407514
 20
2.337702
 30
0.000000
 40
0.016344
 50
0.744972
 51
72.614150
  6
CONTINUOUS
  0
ARC
  8
WHITE
 10
7.366216
 20
2.339759
 30
0.000000
 40
0.057670
 50
-81.584354
 51
-1.832707
  6
CONTINUOUS
  0
ARC
  8
WHITE
 10
7.116259
 20
0.328995
 30
0.000000
 40
1.970728
 50
82.465822
 51
85.326428
  6
CONTINUOUS
  0
ARC
  8
WHITE
 10
7.267615
 20
1.614226
 30
0.000000
 40
0.679008
 50
89.222208
 51
111.729155
  6
CONTINUOUS
  0
ARC
  8
WHITE
 10
9.559710
 20
-59.506536
 30
0.000000
 40
61.803882
 50
92.358617
 51
92.933865
  6
CONTINUOUS
  0
ARC
  8
WHITE
 10
5.389522
 20
6.832836
 30
0.000000
 40
4.725022
 50
-82.835331
 51
-77.696373
  6
CONTINUOUS
  0
ARC
  8
WHITE
 10
5.845105
 20
3.020558
 30
0.000000
 40
0.886000
 50
-86.827767
 51
-81.318849
  6
CONTINUOUS
  0
ARC
  8
WHITE
 10
5.899710
 20
2.034746
 30
0.000000
 40
0.101322
 50
93.154974
 51
134.549268
  6
CONTINUOUS
  0
ARC
  8
WHITE
 10
6.141888
 20
2.611310
 30
0.000000
 40
0.593722
 50
-121.844619
 51
-102.147666
  6
CONTINUOUS
  0
ARC
  8
WHITE
 10
5.988814
 20
1.911469
 30
0.000000
 40
0.122682
 50
49.946018
 51
76.741651
  6
CONTINUOUS
  0
ARC
  8
WHITE
 10
6.051977
 20
1.992405
 30
0.000000
 40
0.020430
 50
-19.001239
 51
39.409757
  6
CONTINUOUS
  0
ARC
  8
WHITE
 10
6.000349
 20
2.014368
 30
0.000000
 40
0.076498
 50
-46.910338
 51
-21.966348
  6
CONTINUOUS
  0
ARC
  8
WHITE
 10
5.647074
 20
-1.135226
 30
0.000000
 40
3.120195
 50
82.532107
 51
85.135427
  6
CONTINUOUS
  0
ARC
  8
WHITE
 10
5.907190
 20
1.915587
 30
0.000000
 40
0.058315
 50
85.594417
 51
116.456811
  6
CONTINUOUS
  0
ARC
  8
WHITE
 10
5.898803
 20
1.945370
 30
0.000000
 40
0.028503
 50
128.116790
 51
179.776657
  6
CONTINUOUS
  0
ARC
  8
WHITE
 10
6.123973
 20
10.996193
 30
0.000000
 40
9.054267
 50
-91.605463
 51
-83.880493
  6
CONTINUOUS
  0
ARC
  8
WHITE
 10
7.116318
 20
0.595004
 30
0.000000
 40
1.398780
 50
82.701580
 51
91.111596
  6
CONTINUOUS
  0
ARC
  8
WHITE
 10
7.562863
 20
4.067206
 30
0.000000
 40
2.102019
 50
-97.348274
 51
-95.742415
  6
CONTINUOUS
  0
ARC
  8
WHITE
 10
7.363893
 20
2.099137
 30
0.000000
 40
0.123923
 50
-95.255202
 51
-87.115640
  6
CONTINUOUS
  0
ARC
  8
WHITE
 10
7.369923
 20
1.993241
 30
0.000000
 40
0.017871
 50
-89.340051
 51
-56.981897
  6
CONTINUOUS
  0
ARC
  8
WHITE
 10
7.362481
 20
1.989675
 30
0.000000
 40
0.020629
 50
-33.609169
 51
73.553687
  6
CONTINUOUS
  0
ARC
  8
WHITE
 10
7.321035
 20
1.861035
 30
0.000000
 40
0.155780
 50
72.328912
 51
77.444998
  6
CONTINUOUS
  0
ARC
  8
WHITE
 10
7.036218
 20
1.323902
 30
0.000000
 40
0.759300
 50
65.184246
 51
76.908461
  6
CONTINUOUS
  0
ARC
  8
WHITE
 10
4.202327
 20
-25.377445
 30
0.000000
 40
27.605054
 50
83.748741
 51
84.034647
  6
CONTINUOUS
  0
ARC
  8
WHITE
 10
7.092136
 20
2.255762
 30
0.000000
 40
0.178862
 50
-115.561017
 51
-96.709320
  6
CONTINUOUS
  0
ARC
  8
WHITE
 10
7.030329
 20
2.127307
 30
0.000000
 40
0.036313
 50
176.813270
 51
244.962673
  6
CONTINUOUS
  0
ARC
  8
WHITE
 10
7.043941
 20
2.101231
 30
0.000000
 40
0.057237
 50
108.432831
 51
150.604680
  6
CONTINUOUS
  0
ARC
  8
WHITE
 10
7.119339
 20
1.958162
 30
0.000000
 40
0.218395
 50
99.197876
 51
115.347324
  6
CONTINUOUS
  0
ARC
  8
WHITE
 10
7.316401
 20
-0.892449
 30
0.000000
 40
3.074960
 50
90.254988
 51
94.326432
  6
CONTINUOUS
  0
ARC
  8
WHITE
 10
7.464186
 20
1.491591
 30
0.000000
 40
0.709508
 50
91.892998
 51
103.154650
  6
CONTINUOUS
  0
ARC
  8
WHITE
 10
6.871207
 20
2.614644
 30
0.000000
 40
0.704072
 50
-36.008998
 51
-32.383077
  6
CONTINUOUS
  0
ARC
  8
WHITE
 10
7.561916
 20
2.178709
 30
0.000000
 40
0.112713
 50
125.247774
 51
148.525094
  6
CONTINUOUS
  0
ARC
  8
WHITE
 10
7.654023
 20
0.803231
 30
0.000000
 40
1.475917
 50
86.549868
 51
96.112440
  6
CONTINUOUS
  0
ARC
  8
WHITE
 10
-7.838155
 20
2.107796
 30
0.000000
 40
14.839993
 50
4.738194
 51
6.486209
  6
CONTINUOUS
  0
ARC
  8
WHITE
 10
6.655471
 20
10.211202
 30
0.000000
 40
6.431934
 50
-91.195397
 51
-87.760154
  6
CONTINUOUS
  0
ARC
  8
WHITE
 10
6.554511
 20
4.199109
 30
0.000000
 40
0.419758
 50
-118.421744
 51
-94.539640
  6
CONTINUOUS
  0
ARC
  8
WHITE
 10
6.357424
 20
3.792074
 30
0.000000
 40
0.037968
 50
94.078731
 51
136.740046
  6
CONTINUOUS
  0
ARC
  8
WHITE
 10
6.459870
 20
3.688990
 30
0.000000
 40
0.183283
 50
135.219554
 51
148.374371
  6
CONTINUOUS
  0
ARC
  8
WHITE
 10
8.009303
 20
2.773379
 30
0.000000
 40
1.983002
 50
149.323139
 51
152.767750
  6
CONTINUOUS
  0
ARC
  8
WHITE
 10
5.830550
 20
3.938459
 30
0.000000
 40
0.488949
 50
-40.224516
 51
-31.800951
  6
CONTINUOUS
  0
ARC
  8
WHITE
 10
6.303170
 20
3.534216
 30
0.000000
 40
0.133004
 50
138.294648
 51
165.415013
  6
CONTINUOUS
  0
ARC
  8
WHITE
 10
32.898848
 20
3.362192
 30
0.000000
 40
26.725186
 50
179.559392
 51
179.853961
  6
CONTINUOUS
  0
ARC
  8
WHITE
 10
6.429828
 20
3.392660
 30
0.000000
 40
0.258832
 50
171.635897
 51
187.218769
  6
CONTINUOUS
  0
ARC
  8
WHITE
 10
6.205578
 20
3.362211
 30
0.000000
 40
0.032597
 50
-176.349619
 51
-93.215417
  6
CONTINUOUS
  0
ARC
  8
WHITE
 10
6.522425
 20
1.628663
 30
0.000000
 40
1.730596
 50
95.745343
 51
100.611136
  6
CONTINUOUS
  0
ARC
  8
WHITE
 10
6.785431
 20
6.639870
 30
0.000000
 40
3.318107
 50
-97.554876
 51
-93.580210
  6
CONTINUOUS
  0
ARC
  8
WHITE
 10
17.686559
 20
-28.861083
 30
0.000000
 40
34.052129
 50
108.644828
 51
109.039229
  6
CONTINUOUS
  0
ARC
  8
WHITE
 10
7.726771
 20
4.419947
 30
0.000000
 40
1.375153
 50
-132.368042
 51
-128.843004
  6
CONTINUOUS
  0
ARC
  8
WHITE
 10
6.951314
 20
3.469465
 30
0.000000
 40
0.148703
 50
-125.818375
 51
-106.368759
  6
CONTINUOUS
  0
ARC
  8
WHITE
 10
6.924240
 20
3.366990
 30
0.000000
 40
0.042850
 50
-110.251874
 51
-51.142976
  6
CONTINUOUS
  0
ARC
  8
WHITE
 10
11.511556
 20
1.430673
 30
0.000000
 40
0.655082
 50
-32.901296
 51
-26.310546
  6
CONTINUOUS
  0
ARC
  8
WHITE
 10
11.537936
 20
1.241549
 30
0.000000
 40
0.569902
 50
-10.231807
 51
-0.448677
  6
CONTINUOUS
  0
ARC
  8
WHITE
 10
12.131306
 20
1.205722
 30
0.000000
 40
0.039183
 50
87.535427
 51
126.826261
  6
CONTINUOUS
  0
ARC
  8
WHITE
 10
12.127953
 20
1.217685
 30
0.000000
 40
0.027647
 50
28.141921
 51
79.501041
  6
CONTINUOUS
  0
ARC
  8
WHITE
 10
11.964437
 20
1.155971
 30
0.000000
 40
0.202219
 50
-7.146082
 51
21.694974
  6
CONTINUOUS
  0
ARC
  8
WHITE
 10
12.587470
 20
1.097084
 30
0.000000
 40
0.423730
 50
175.434117
 51
179.015371
  6
CONTINUOUS
  0
ARC
  8
WHITE
 10
12.198117
 20
1.104233
 30
0.000000
 40
0.034314
 50
179.778949
 51
201.309958
  6
CONTINUOUS
  0
ARC
  8
WHITE
 10
12.175885
 20
1.094639
 30
0.000000
 40
0.010152
 50
-163.542976
 51
-102.094087
  6
CONTINUOUS
  0
ARC
  8
WHITE
 10
12.174157
 20
1.095682
 30
0.000000
 40
0.010976
 50
-92.083773
 51
-26.630305
  6
CONTINUOUS
  0
ARC
  8
WHITE
 10
12.137987
 20
1.114100
 30
0.000000
 40
0.051566
 50
-26.910628
 51
-8.295098
  6
CONTINUOUS
  0
ARC
  8
WHITE
 10
13.249966
 20
0.970298
 30
0.000000
 40
1.069680
 50
170.597389
 51
172.676025
  6
CONTINUOUS
  0
ARC
  8
WHITE
 10
12.226851
 20
1.137053
 30
0.000000
 40
0.033173
 50
132.639182
 51
166.044031
  6
CONTINUOUS
  0
ARC
  8
WHITE
 10
12.212901
 20
1.151471
 30
0.000000
 40
0.013126
 50
46.469473
 51
130.477502
  6
CONTINUOUS
  0
ARC
  8
WHITE
 10
12.179281
 20
1.115952
 30
0.000000
 40
0.062033
 50
21.160810
 51
46.551580
  6
CONTINUOUS
  0
ARC
  8
WHITE
 10
13.431883
 20
1.623959
 30
0.000000
 40
1.289671
 50
-157.880417
 51
-156.688178
  6
CONTINUOUS
  0
ARC
  8
WHITE
 10
12.257769
 20
1.116109
 30
0.000000
 40
0.010579
 50
-166.228591
 51
-93.314188
  6
CONTINUOUS
  0
ARC
  8
WHITE
 10
12.246165
 20
1.124508
 30
0.000000
 40
0.021917
 50
-59.896250
 51
-25.111289
  6
CONTINUOUS
  0
ARC
  8
WHITE
 10
12.349280
 20
1.073794
 30
0.000000
 40
0.093000
 50
131.609792
 51
153.556898
  6
CONTINUOUS
  0
ARC
  8
WHITE
 10
12.799771
 20
1.573552
 30
0.000000
 40
0.668947
 50
-139.974002
 51
-136.103556
  6
CONTINUOUS
  0
ARC
  8
WHITE
 10
12.346687
 20
1.136279
 30
0.000000
 40
0.039283
 50
-137.485196
 51
-106.949771
  6
CONTINUOUS
  0
ARC
  8
WHITE
 10
12.301488
 20
0.563433
 30
0.000000
 40
0.536333
 50
78.726969
 51
86.392479
  6
CONTINUOUS
  0
ARC
  8
WHITE
 10
12.515162
 20
1.389118
 30
0.000000
 40
0.318848
 50
-109.957331
 51
-57.742682
  6
CONTINUOUS
  0
ARC
  8
WHITE
 10
6.379752
 20
14.895182
 30
0.000000
 40
15.150259
 50
-65.404888
 51
-62.234823
  6
CONTINUOUS
  0
ARC
  8
WHITE
 10
13.428430
 20
1.479763
 30
0.000000
 40
0.013120
 50
46.365329
 51
92.920591
  6
CONTINUOUS
  0
ARC
  8
WHITE
 10
13.409191
 20
1.284114
 30
0.000000
 40
0.209577
 50
84.916357
 51
91.811449
  6
CONTINUOUS
  0
ARC
  8
WHITE
 10
13.439494
 20
0.425751
 30
0.000000
 40
1.068473
 50
91.980600
 51
96.494658
  6
CONTINUOUS
  0
ARC
  8
WHITE
 10
13.501195
 20
-0.226407
 30
0.000000
 40
1.723470
 50
96.080386
 51
103.228300
  6
CONTINUOUS
  0
ARC
  8
WHITE
 10
12.928338
 20
2.251218
 30
0.000000
 40
0.819554
 50
-95.101549
 51
-77.422039
  6
CONTINUOUS
  0
ARC
  8
WHITE
 10
13.313912
 20
-0.009663
 30
0.000000
 40
1.515575
 50
107.607369
 51
113.254669
  6
CONTINUOUS
  0
ARC
  8
WHITE
 10
12.542709
 20
1.784045
 30
0.000000
 40
0.436896
 50
-86.947766
 51
-66.698173
  6
CONTINUOUS
  0
ARC
  8
WHITE
 10
12.678504
 20
3.307154
 30
0.000000
 40
1.962613
 50
-101.542332
 51
-93.286997
  6
CONTINUOUS
  0
ARC
  8
WHITE
 10
12.200360
 20
1.169434
 30
0.000000
 40
0.231166
 50
68.308462
 51
119.713540
  6
CONTINUOUS
  0
ARC
  8
WHITE
 10
12.305962
 20
1.049181
 30
0.000000
 40
0.389277
 50
124.445319
 51
155.968337
  6
CONTINUOUS
  0
ARC
  8
WHITE
 10
11.591313
 20
1.322708
 30
0.000000
 40
0.377078
 50
-37.562057
 51
-17.756290
  6
CONTINUOUS
  0
ARC
  8
WHITE
 10
11.520459
 20
1.589730
 30
0.000000
 40
0.619378
 50
-70.640485
 51
-53.345541
  6
CONTINUOUS
  0
ARC
  8
WHITE
 10
11.740815
 20
0.948300
 30
0.000000
 40
0.059020
 50
104.759496
 51
129.736348
  6
CONTINUOUS
  0
ARC
  8
WHITE
 10
11.723609
 20
0.976587
 30
0.000000
 40
0.026713
 50
140.198714
 51
193.051449
  6
CONTINUOUS
  0
ARC
  8
WHITE
 10
11.714718
 20
0.978109
 30
0.000000
 40
0.018725
 50
-156.202681
 51
-87.491928
  6
CONTINUOUS
  0
ARC
  8
WHITE
 10
11.720548
 20
1.087447
 30
0.000000
 40
0.128142
 50
-92.240533
 51
-77.428730
  6
CONTINUOUS
  0
ARC
  8
WHITE
 10
11.190209
 20
3.326110
 30
0.000000
 40
2.428756
 50
-76.712260
 51
-75.438566
  6
CONTINUOUS
  0
ARC
  8
WHITE
 10
11.834000
 20
1.380530
 30
0.000000
 40
0.406515
 50
-94.678557
 51
-90.886653
  6
CONTINUOUS
  0
ARC
  8
WHITE
 10
11.829437
 20
0.992029
 30
0.000000
 40
0.018049
 50
-95.492218
 51
-31.086622
  6
CONTINUOUS
  0
ARC
  8
WHITE
 10
11.926158
 20
0.954529
 30
0.000000
 40
0.086012
 50
122.510851
 51
160.874517
  6
CONTINUOUS
  0
ARC
  8
WHITE
 10
11.793124
 20
1.203136
 30
0.000000
 40
0.196308
 50
-63.756346
 51
-52.083817
  6
CONTINUOUS
  0
ARC
  8
WHITE
 10
12.317239
 20
0.754165
 30
0.000000
 40
0.499292
 50
124.799102
 51
143.911446
  6
CONTINUOUS
  0
ARC
  8
WHITE
 10
12.027695
 20
1.113372
 30
0.000000
 40
0.050999
 50
50.406595
 51
84.827029
  6
CONTINUOUS
  0
ARC
  8
WHITE
 10
12.049737
 20
1.146694
 30
0.000000
 40
0.012049
 50
-47.478876
 51
29.739630
  6
CONTINUOUS
  0
ARC
  8
WHITE
 10
11.885479
 20
1.310843
 30
0.000000
 40
0.244256
 50
-55.935035
 51
-45.104253
  6
CONTINUOUS
  0
ARC
  8
WHITE
 10
12.124028
 20
0.991483
 30
0.000000
 40
0.155057
 50
131.003080
 51
151.039175
  6
CONTINUOUS
  0
ARC
  8
WHITE
 10
12.029431
 20
1.040818
 30
0.000000
 40
0.048472
 50
147.918312
 51
205.246566
  6
CONTINUOUS
  0
ARC
  8
WHITE
 10
11.990955
 20
1.021746
 30
0.000000
 40
0.005601
 50
-163.380410
 51
-56.363424
  6
CONTINUOUS
  0
ARC
  8
WHITE
 10
11.960738
 20
1.052980
 30
0.000000
 40
0.048978
 50
-47.133175
 51
-26.124813
  6
CONTINUOUS
  0
ARC
  8
WHITE
 10
29.732157
 20
-7.865578
 30
0.000000
 40
19.834787
 50
153.138599
 51
153.348990
  6
CONTINUOUS
  0
ARC
  8
WHITE
 10
12.027302
 20
1.050555
 30
0.000000
 40
0.047014
 50
56.142135
 51
77.469862
  6
CONTINUOUS
  0
ARC
  8
WHITE
 10
12.037642
 20
1.071338
 30
0.000000
 40
0.024180
 50
8.319872
 51
49.033804
  6
CONTINUOUS
  0
ARC
  8
WHITE
 10
0.978892
 20
3.169841
 30
0.000000
 40
0.028634
 50
-72.829502
 51
-33.783829
  6
CONTINUOUS
  0
ARC
  8
WHITE
 10
0.646572
 20
3.204209
 30
0.000000
 40
0.359652
 50
-8.037924
 51
22.644443
  6
CONTINUOUS
  0
ARC
  8
WHITE
 10
1.356960
 20
3.586840
 30
0.000000
 40
0.450386
 50
-164.583336
 51
-147.172229
  6
CONTINUOUS
  0
ARC
  8
WHITE
 10
1.968028
 20
3.564436
 30
0.000000
 40
1.049769
 50
177.387132
 51
185.319576
  6
CONTINUOUS
  0
ARC
  8
WHITE
 10
0.855432
 20
3.560606
 30
0.000000
 40
0.082201
 50
38.959877
 51
99.985801
  6
CONTINUOUS
  0
ARC
  8
WHITE
 10
0.874871
 20
3.442684
 30
0.000000
 40
0.201712
 50
99.615422
 51
178.545591
  6
CONTINUOUS
  0
ARC
  8
WHITE
 10
-0.995103
 20
3.132148
 30
0.000000
 40
1.697925
 50
-0.140152
 51
10.713988
  6
CONTINUOUS
  0
ARC
  8
WHITE
 10
-1.056980
 20
3.151874
 30
0.000000
 40
1.759960
 50
-8.556492
 51
-0.777427
  6
CONTINUOUS
  0
ARC
  8
WHITE
 10
-1.810338
 20
3.257711
 30
0.000000
 40
2.520690
 50
-10.101962
 51
-8.387614
  6
CONTINUOUS
  0
ARC
  8
WHITE
 10
0.975686
 20
2.753511
 30
0.000000
 40
0.310675
 50
168.475430
 51
174.279111
  6
CONTINUOUS
  0
ARC
  8
WHITE
 10
1.121288
 20
2.894145
 30
0.000000
 40
0.467766
 50
-166.441192
 51
-153.896993
  6
CONTINUOUS
  0
ARC
  8
WHITE
 10
0.928543
 20
2.796797
 30
0.000000
 40
0.251862
 50
-154.491443
 51
-141.524730
  6
CONTINUOUS
  0
ARC
  8
WHITE
 10
0.784035
 20
2.679356
 30
0.000000
 40
0.065692
 50
-143.298261
 51
-105.557550
  6
CONTINUOUS
  0
ARC
  8
WHITE
 10
0.764543
 20
2.662029
 30
0.000000
 40
0.045997
 50
-87.666853
 51
-55.471062
  6
CONTINUOUS
  0
ARC
  8
WHITE
 10
0.773617
 20
2.655904
 30
0.000000
 40
0.036031
 50
-61.850315
 51
-13.335250
  6
CONTINUOUS
  0
ARC
  8
WHITE
 10
-2.422802
 20
2.781764
 30
0.000000
 40
3.234263
 50
-2.377542
 51
1.642080
  6
CONTINUOUS
  0
ARC
  8
WHITE
 10
1.328941
 20
3.108170
 30
0.000000
 40
0.569026
 50
-159.564832
 51
-155.748258
  6
CONTINUOUS
  0
ARC
  8
WHITE
 10
0.885685
 20
2.941541
 30
0.000000
 40
0.095497
 50
-175.017101
 51
-160.393093
  6
CONTINUOUS
  0
ARC
  8
WHITE
 10
0.817458
 20
2.936175
 30
0.000000
 40
0.027068
 50
143.761806
 51
186.210873
  6
CONTINUOUS
  0
ARC
  8
WHITE
 10
0.815757
 20
2.922897
 30
0.000000
 40
0.035532
 50
75.586951
 51
124.510376
  6
CONTINUOUS
  0
ARC
  8
WHITE
 10
1.328986
 20
3.718353
 30
0.000000
 40
0.913012
 50
-123.534601
 51
-120.229406
  6
CONTINUOUS
  0
ARC
  8
WHITE
 10
0.900200
 20
2.983657
 30
0.000000
 40
0.062346
 50
-119.691683
 51
-91.828928
  6
CONTINUOUS
  0
ARC
  8
WHITE
 10
0.896235
 20
2.941551
 30
0.000000
 40
0.020305
 50
-84.417496
 51
-7.536246
  6
CONTINUOUS
  0
ARC
  8
WHITE
 10
1.523099
 20
3.251293
 30
0.000000
 40
0.682440
 50
177.679035
 51
207.243739
  6
CONTINUOUS
  0
LINE
  8
WHITE
 10
0.841219
 20
3.278930
 30
0.000000
 11
0.852397
 21
3.290578
 31
0.000000
  6
CONTINUOUS
  0
ARC
  8
WHITE
 10
0.876346
 20
3.268682
 30
0.000000
 40
0.032450
 50
113.010662
 51
137.562664
  6
CONTINUOUS
  0
ARC
  8
WHITE
 10
0.871291
 20
3.275374
 30
0.000000
 40
0.024399
 50
51.740299
 51
108.223543
  6
CONTINUOUS
  0
ARC
  8
WHITE
 10
0.548216
 20
3.033907
 30
0.000000
 40
0.426959
 50
21.259422
 51
37.620070
  6
CONTINUOUS
  0
ARC
  8
WHITE
 10
1.076933
 20
3.243792
 30
0.000000
 40
0.141933
 50
-157.168473
 51
-137.024857
  6
CONTINUOUS
  0
ARC
  8
WHITE
 10
0.985105
 20
3.160065
 30
0.000000
 40
0.017723
 50
-132.696252
 51
-82.738984
  6
CONTINUOUS
  0
LINE
  8
WHITE
 10
11.836276
 20
2.269801
 30
0.000000
 11
11.227536
 21
2.271030
 31
0.000000
  6
CONTINUOUS
  0
ARC
  8
WHITE
 10
11.341734
 20
2.204543
 30
0.000000
 40
0.132143
 50
149.791597
 51
159.724235
  6
CONTINUOUS
  0
ARC
  8
WHITE
 10
11.241042
 20
2.242400
 30
0.000000
 40
0.024579
 50
161.163858
 51
196.697948
  6
CONTINUOUS
  0
ARC
  8
WHITE
 10
11.560969
 20
2.406895
 30
0.000000
 40
0.383931
 50
-153.458668
 51
-145.183608
  6
CONTINUOUS
  0
ARC
  8
WHITE
 10
10.742676
 20
6.555827
 30
0.000000
 40
4.397013
 50
-89.417297
 51
-83.430034
  6
CONTINUOUS
  0
ARC
  8
WHITE
 10
10.801786
 20
2.164014
 30
0.000000
 40
0.015227
 50
111.255240
 51
199.058583
  6
CONTINUOUS
  0
ARC
  8
WHITE
 10
10.852284
 20
2.054461
 30
0.000000
 40
0.135833
 50
99.408821
 51
114.356067
  6
CONTINUOUS
  0
ARC
  8
WHITE
 10
10.798218
 20
2.439923
 30
0.000000
 40
0.253467
 50
-82.778863
 51
-64.064662
  6
CONTINUOUS
  0
ARC
  8
WHITE
 10
10.894532
 20
2.228944
 30
0.000000
 40
0.022341
 50
-49.390930
 51
11.643725
  6
CONTINUOUS
  0
ARC
  8
WHITE
 10
10.874292
 20
2.217532
 30
0.000000
 40
0.045029
 50
20.705491
 51
53.851487
  6
CONTINUOUS
  0
LINE
  8
WHITE
 10
10.900854
 20
2.253893
 30
0.000000
 11
10.683308
 21
2.291401
 31
0.000000
  6
CONTINUOUS
  0
ARC
  8
WHITE
 10
10.725237
 20
2.302249
 30
0.000000
 40
0.043310
 50
171.650032
 51
194.506605
  6
CONTINUOUS
  0
ARC
  8
WHITE
 10
10.708279
 20
2.299319
 30
0.000000
 40
0.027485
 50
129.544011
 51
160.399872
  6
CONTINUOUS
  0
LINE
  8
WHITE
 10
10.690780
 20
2.320514
 30
0.000000
 11
11.350686
 21
2.320514
 31
0.000000
  6
CONTINUOUS
  0
LINE
  8
WHITE
 10
11.350686
 20
2.320514
 30
0.000000
 11
11.367298
 21
2.333434
 31
0.000000
  6
CONTINUOUS
  0
ARC
  8
WHITE
 10
11.891903
 20
7.045708
 30
0.000000
 40
4.741386
 50
-96.352430
 51
-90.884240
  6
CONTINUOUS
  0
LINE
  8
WHITE
 10
11.818733
 20
2.304887
 30
0.000000
 11
11.836276
 21
2.269801
 31
0.000000
  6
CONTINUOUS
  0
ARC
  8
WHITE
 10
7.256519
 20
3.691730
 30
0.000000
 40
0.059686
 50
76.450397
 51
95.249739
  6
CONTINUOUS
  0
ARC
  8
WHITE
 10
7.292545
 20
2.827966
 30
0.000000
 40
0.924131
 50
92.573065
 51
101.107632
  6
CONTINUOUS
  0
ARC
  8
WHITE
 10
7.201306
 20
3.702839
 30
0.000000
 40
0.092489
 50
159.793340
 51
175.068053
  6
CONTINUOUS
  0
ARC
  8
WHITE
 10
13.063620
 20
3.076635
 30
0.000000
 40
5.988135
 50
173.920862
 51
177.465504
  6
CONTINUOUS
  0
ARC
  8
WHITE
 10
7.132499
 20
3.500611
 30
0.000000
 40
0.167194
 50
-107.816346
 51
-77.057961
  6
CONTINUOUS
  0
ARC
  8
WHITE
 10
7.298211
 20
2.328968
 30
0.000000
 40
1.016819
 50
86.368377
 51
97.246863
  6
CONTINUOUS
  0
LINE
  8
WHITE
 10
7.362617
 20
3.343745
 30
0.000000
 11
7.362617
 21
3.382198
 31
0.000000
  6
CONTINUOUS
  0
ARC
  8
WHITE
 10
7.308433
 20
3.297374
 30
0.000000
 40
0.100653
 50
57.430357
 51
77.999116
  6
CONTINUOUS
  0
ARC
  8
WHITE
 10
7.336218
 20
3.413538
 30
0.000000
 40
0.018992
 50
160.951491
 51
248.837847
  6
CONTINUOUS
  0
ARC
  8
WHITE
 10
7.266636
 20
3.460913
 30
0.000000
 40
0.066039
 50
-38.573481
 51
19.970780
  6
CONTINUOUS
  0
ARC
  8
WHITE
 10
9.131082
 20
4.014447
 30
0.000000
 40
1.878964
 50
-166.992979
 51
-163.585095
  6
CONTINUOUS
  0
ARC
  8
WHITE
 10
4.537480
 20
3.152611
 30
0.000000
 40
2.797498
 50
9.027204
 51
12.324995
  6
CONTINUOUS
  0
ARC
  8
WHITE
 10
11.659720
 20
2.616196
 30
0.000000
 40
0.240039
 50
-2.818601
 51
17.359733
  6
CONTINUOUS
  0
ARC
  8
WHITE
 10
11.859807
 20
2.671657
 30
0.000000
 40
0.033214
 50
29.111631
 51
71.807756
  6
CONTINUOUS
  0
ARC
  8
WHITE
 10
11.805765
 20
2.493237
 30
0.000000
 40
0.219631
 50
72.946120
 51
81.991808
  6
CONTINUOUS
  0
ARC
  8
WHITE
 10
11.656065
 20
-1.800268
 30
0.000000
 40
4.514596
 50
87.711185
 51
92.894718
  6
CONTINUOUS
  0
LINE
  8
WHITE
 10
11.428074
 20
2.708568
 30
0.000000
 11
11.381195
 21
2.689265
 31
0.000000
  6
CONTINUOUS
  0
LINE
  8
WHITE
 10
11.381195
 20
2.689265
 30
0.000000
 11
11.381195
 21
2.587062
 31
0.000000
  6
CONTINUOUS
  0
ARC
  8
WHITE
 10
11.400173
 20
4.400154
 30
0.000000
 40
1.813191
 50
-90.599709
 51
-84.508012
  6
CONTINUOUS
  0
ARC
  8
WHITE
 10
11.722226
 20
3.113601
 30
0.000000
 40
0.539173
 50
-105.989185
 51
-70.808237
  6
CONTINUOUS
  0
ARC
  8
WHITE
 10
7.770847
 20
5.098715
 30
0.000000
 40
0.176115
 50
-11.992633
 51
7.165163
  6
CONTINUOUS
  0
LINE
  8
WHITE
 10
7.945587
 20
5.120682
 30
0.000000
 11
7.859232
 21
5.247515
 31
0.000000
  6
CONTINUOUS
  0
ARC
  8
WHITE
 10
7.622118
 20
5.642885
 30
0.000000
 40
0.461022
 50
-90.798606
 51
-59.047753
  6
CONTINUOUS
  0
ARC
  8
WHITE
 10
7.626524
 20
5.084347
 30
0.000000
 40
0.098160
 50
96.335268
 51
132.388778
  6
CONTINUOUS
  0
ARC
  8
WHITE
 10
8.806450
 20
3.799256
 30
0.000000
 40
1.842776
 50
132.548115
 51
135.582436
  6
CONTINUOUS
  0
ARC
  8
WHITE
 10
7.588924
 20
5.160085
 30
0.000000
 40
0.121637
 50
-144.229203
 51
-95.454615
  6
CONTINUOUS
  0
ARC
  8
WHITE
 10
7.780897
 20
7.121833
 30
0.000000
 40
2.092756
 50
-95.581242
 51
-90.114476
  6
CONTINUOUS
  0
ARC
  8
WHITE
 10
7.742216
 20
5.071332
 30
0.000000
 40
0.054546
 50
-50.766233
 51
8.438036
  6
CONTINUOUS
  0
ARC
  8
WHITE
 10
7.556776
 20
5.052550
 30
0.000000
 40
0.240889
 50
6.384124
 51
18.380898
  6
CONTINUOUS
  0
ARC
  8
WHITE
 10
7.878198
 20
5.149203
 30
0.000000
 40
0.095101
 50
177.281518
 51
192.567471
  6
CONTINUOUS
  0
ARC
  8
WHITE
 10
7.824428
 20
5.155055
 30
0.000000
 40
0.041246
 50
161.101743
 51
181.862793
  6
CONTINUOUS
  0
ARC
  8
WHITE
 10
7.797341
 20
5.163927
 30
0.000000
 40
0.012750
 50
103.958379
 51
159.399720
  6
CONTINUOUS
  0
ARC
  8
WHITE
 10
7.802147
 20
5.153543
 30
0.000000
 40
0.024084
 50
43.225800
 51
109.103450
  6
CONTINUOUS
  0
ARC
  8
WHITE
 10
7.763677
 20
5.126372
 30
0.000000
 40
0.071028
 50
12.553146
 51
37.935630
  6
CONTINUOUS
  0
ARC
  8
WHITE
 10
8.986991
 20
5.370642
 30
0.000000
 40
1.176454
 50
-168.783852
 51
-165.272710
  6
CONTINUOUS
  0
ARC
  8
WHITE
 10
7.887419
 20
5.083082
 30
0.000000
 40
0.039929
 50
-163.237631
 51
-76.810174
  6
CONTINUOUS
  0
ARC
  8
WHITE
 10
7.801804
 20
5.582651
 30
0.000000
 40
0.546714
 50
-80.022314
 51
-76.638458
  6
CONTINUOUS
  0
ARC
  8
WHITE
 10
7.923566
 20
5.072296
 30
0.000000
 40
0.022041
 50
-78.005196
 51
-27.493894
  6
CONTINUOUS
  0
ARC
  8
WHITE
 10
13.742742
 20
2.727186
 30
0.000000
 40
0.823425
 50
174.582313
 51
178.169063
  6
CONTINUOUS
  0
ARC
  8
WHITE
 10
13.121122
 20
2.739519
 30
0.000000
 40
0.201869
 50
176.030067
 51
188.809915
  6
CONTINUOUS
  0
ARC
  8
WHITE
 10
12.946728
 20
2.732118
 30
0.000000
 40
0.034391
 50
-136.857027
 51
-104.391952
  6
CONTINUOUS
  0
ARC
  8
WHITE
 10
13.017386
 20
3.205032
 30
0.000000
 40
0.512384
 50
-98.892712
 51
-94.761176
  6
CONTINUOUS
  0
ARC
  8
WHITE
 10
12.624341
 20
-0.381737
 30
0.000000
 40
3.096058
 50
78.706606
 51
83.499391
  6
CONTINUOUS
  0
ARC
  8
WHITE
 10
13.264664
 20
2.783259
 30
0.000000
 40
0.133298
 50
-104.783407
 51
-72.006775
  6
CONTINUOUS
  0
LINE
  8
WHITE
 10
13.305841
 20
2.656480
 30
0.000000
 11
13.305841
 21
2.738202
 31
0.000000
  6
CONTINUOUS
  0
ARC
  8
WHITE
 10
12.225349
 20
-2.329316
 30
0.000000
 40
5.181428
 50
77.963681
 51
82.261988
  6
CONTINUOUS
  0
ARC
  8
WHITE
 10
14.638398
 20
3.220469
 30
0.000000
 40
0.040262
 50
-103.693501
 51
-58.977604
  6
CONTINUOUS
  0
LINE
  8
WHITE
 10
14.659148
 20
3.185965
 30
0.000000
 11
14.641997
 21
3.291319
 31
0.000000
  6
CONTINUOUS
  0
ARC
  8
WHITE
 10
14.627723
 20
3.135821
 30
0.000000
 40
0.156151
 50
84.755285
 51
116.944958
  6
CONTINUOUS
  0
ARC
  8
WHITE
 10
14.547681
 20
3.327877
 30
0.000000
 40
0.053665
 50
-135.582959
 51
-80.036461
  6
CONTINUOUS
  0
ARC
  8
WHITE
 10
14.069924
 20
2.775425
 30
0.000000
 40
0.676912
 50
49.521556
 51
52.922066
  6
CONTINUOUS
  0
ARC
  8
WHITE
 10
14.464685
 20
3.301347
 30
0.000000
 40
0.019438
 50
46.624619
 51
127.543088
  6
CONTINUOUS
  0
ARC
  8
WHITE
 10
14.471741
 20
3.303510
 30
0.000000
 40
0.023081
 50
144.969140
 51
200.697025
  6
CONTINUOUS
  0
ARC
  8
WHITE
 10
14.584456
 20
3.335132
 30
0.000000
 40
0.140074
 50
-163.501831
 51
-154.746563
  6
CONTINUOUS
  0
ARC
  8
WHITE
 10
14.421456
 20
3.256043
 30
0.000000
 40
0.041137
 50
-12.795897
 51
28.026695
  6
CONTINUOUS
  0
ARC
  8
WHITE
 10
14.448932
 20
3.255926
 30
0.000000
 40
0.015512
 50
-102.627940
 51
-35.434949
  6
CONTINUOUS
  0
ARC
  8
WHITE
 10
14.491102
 20
3.451022
 30
0.000000
 40
0.215113
 50
-117.242151
 51
-102.227807
  6
CONTINUOUS
  0
ARC
  8
WHITE
 10
14.384743
 20
3.243143
 30
0.000000
 40
0.018403
 50
64.612237
 51
160.316782
  6
CONTINUOUS
  0
ARC
  8
WHITE
 10
14.465622
 20
3.208457
 30
0.000000
 40
0.106378
 50
157.397101
 51
206.621665
  6
CONTINUOUS
  0
ARC
  8
WHITE
 10
14.402600
 20
3.198413
 30
0.000000
 40
0.049442
 50
-130.450935
 51
-78.449960
  6
CONTINUOUS
  0
ARC
  8
WHITE
 10
14.266241
 20
3.994866
 30
0.000000
 40
0.857460
 50
-80.178909
 51
-67.830187
  6
CONTINUOUS
  0
ARC
  8
WHITE
 10
14.741704
 20
3.456935
 30
0.000000
 40
0.297791
 50
-120.669443
 51
-112.266679
  6
CONTINUOUS
  0
LINE
  8
WHITE
 10
13.243335
 20
2.539283
 30
0.000000
 11
13.248544
 21
2.539283
 31
0.000000
  6
CONTINUOUS
  0
ARC
  8
WHITE
 10
14.654033
 20
2.429869
 30
0.000000
 40
1.409742
 50
175.548673
 51
177.538359
  6
CONTINUOUS
  0
ARC
  8
WHITE
 10
13.214044
 20
2.491962
 30
0.000000
 40
0.031586
 50
-21.820325
 51
-2.800676
  6
CONTINUOUS
  0
ARC
  8
WHITE
 10
13.239480
 20
2.482130
 30
0.000000
 40
0.004331
 50
-106.611137
 51
-26.152777
  6
CONTINUOUS
  0
ARC
  8
WHITE
 10
12.376910
 20
-2.479375
 30
0.000000
 40
5.031626
 50
80.143361
 51
83.888705
  6
CONTINUOUS
  0
ARC
  8
WHITE
 10
12.955074
 20
2.556171
 30
0.000000
 40
0.053509
 50
159.882252
 51
217.419696
  6
CONTINUOUS
  0
ARC
  8
WHITE
 10
12.922575
 20
2.565845
 30
0.000000
 40
0.019776
 50
87.973188
 51
153.803842
  6
CONTINUOUS
  0
ARC
  8
WHITE
 10
12.933421
 20
2.432079
 30
0.000000
 40
0.153865
 50
82.491210
 51
93.781188
  6
CONTINUOUS
  0
ARC
  8
WHITE
 10
12.540373
 20
-1.004927
 30
0.000000
 40
3.613251
 50
78.781483
 51
83.434177
  6
CONTINUOUS
  0
ARC
  8
WHITE
 10
7.434734
 20
5.305688
 30
0.000000
 40
0.141120
 50
-67.133520
 51
-41.933563
  6
CONTINUOUS
  0
LINE
  8
WHITE
 10
7.539716
 20
5.211382
 30
0.000000
 11
7.539716
 21
5.271290
 31
0.000000
  6
CONTINUOUS
  0
LINE
  8
WHITE
 10
7.539716
 20
5.271290
 30
0.000000
 11
7.451453
 21
5.341900
 31
0.000000
  6
CONTINUOUS
  0
ARC
  8
WHITE
 10
7.662433
 20
5.287303
 30
0.000000
 40
0.217930
 50
165.491231
 51
208.355222
  6
CONTINUOUS
  0
ARC
  8
WHITE
 10
7.483669
 20
5.187998
 30
0.000000
 40
0.013678
 50
-162.126873
 51
-64.436507
  6
CONTINUOUS
  0
ARC
  8
WHITE
 10
12.840686
 20
2.536474
 30
0.000000
 40
0.024692
 50
-79.179398
 51
-12.984101
  6
CONTINUOUS
  0
ARC
  8
WHITE
 10
12.725299
 20
2.553823
 30
0.000000
 40
0.141315
 50
-9.324569
 51
11.006900
  6
CONTINUOUS
  0
ARC
  8
WHITE
 10
12.844190
 20
2.580732
 30
0.000000
 40
0.019825
 50
0.206827
 51
54.492841
  6
CONTINUOUS
  0
ARC
  8
WHITE
 10
12.843901
 20
2.546084
 30
0.000000
 40
0.052140
 50
76.915597
 51
94.878527
  6
CONTINUOUS
  0
ARC
  8
WHITE
 10
12.835879
 20
2.579823
 30
0.000000
 40
0.018563
 50
78.857986
 51
167.954943
  6
CONTINUOUS
  0
ARC
  8
WHITE
 10
12.898067
 20
2.563448
 30
0.000000
 40
0.082853
 50
165.853927
 51
195.740708
  6
CONTINUOUS
  0
ARC
  8
WHITE
 10
12.895671
 20
2.563099
 30
0.000000
 40
0.080454
 50
-164.035146
 51
-148.647984
  6
CONTINUOUS
  0
ARC
  8
WHITE
 10
12.843263
 20
2.531223
 30
0.000000
 40
0.019113
 50
-148.511274
 51
-83.817700
  6
CONTINUOUS
  0
ARC
  8
WHITE
 10
13.245718
 20
2.512675
 30
0.000000
 40
0.095886
 50
-14.494664
 51
6.583856
  6
CONTINUOUS
  0
ARC
  8
WHITE
 10
13.298294
 20
2.518714
 30
0.000000
 40
0.042964
 50
6.622545
 51
24.814487
  6
CONTINUOUS
  0
ARC
  8
WHITE
 10
13.326104
 20
2.531893
 30
0.000000
 40
0.012194
 50
23.451294
 51
68.794407
  6
CONTINUOUS
  0
ARC
  8
WHITE
 10
13.318618
 20
2.431702
 30
0.000000
 40
0.112191
 50
83.912573
 51
96.149394
  6
CONTINUOUS
  0
ARC
  8
WHITE
 10
13.304633
 20
2.532142
 30
0.000000
 40
0.011278
 50
79.961168
 51
151.918981
  6
CONTINUOUS
  0
ARC
  8
WHITE
 10
13.337003
 20
2.529458
 30
0.000000
 40
0.043069
 50
169.304923
 51
184.987224
  6
CONTINUOUS
  0
ARC
  8
WHITE
 10
13.392151
 20
2.518893
 30
0.000000
 40
0.098291
 50
176.020601
 51
212.462714
  6
CONTINUOUS
  0
ARC
  8
WHITE
 10
13.318556
 20
2.473149
 30
0.000000
 40
0.011678
 50
-143.087525
 51
-56.522912
  6
CONTINUOUS
  0
ARC
  8
WHITE
 10
13.292699
 20
2.497002
 30
0.000000
 40
0.046601
 50
-46.125875
 51
-10.291245
  6
CONTINUOUS
  0
ARC
  8
WHITE
 10
14.649083
 20
3.377539
 30
0.000000
 40
0.017605
 50
44.925159
 51
92.486019
  6
CONTINUOUS
  0
ARC
  8
WHITE
 10
14.645114
 20
3.364317
 30
0.000000
 40
0.030977
 50
84.061044
 51
113.487488
  6
CONTINUOUS
  0
ARC
  8
WHITE
 10
14.636213
 20
3.387320
 30
0.000000
 40
0.006411
 50
122.500794
 51
239.361335
  6
CONTINUOUS
  0
ARC
  8
WHITE
 10
14.741569
 20
3.469326
 30
0.000000
 40
0.139497
 50
-141.139951
 51
-134.864622
  6
CONTINUOUS
  0
ARC
  8
WHITE
 10
14.650883
 20
3.376226
 30
0.000000
 40
0.009638
 50
-143.213541
 51
-72.536784
  6
CONTINUOUS
  0
ARC
  8
WHITE
 10
14.642160
 20
3.383754
 30
0.000000
 40
0.020360
 50
-55.217069
 51
17.779278
  6
CONTINUOUS
  0
ENDSEC
  0
EOF
