0
SECTION
2
ENTITIES
0
ARC
8
1
62
5
10
1.70747
20
5.08437
30
0.00000
40
0.10383
50
119.99165
51
279.69725
0
ARC
8
1
62
5
10
3.34932
20
1.87493
30
0.00000
40
3.50608
50
111.95174
51
117.60016
0
ARC
8
1
62
5
10
1.43124
20
6.56885
30
0.00000
40
1.56474
50
292.84200
51
300.78909
0
ARC
8
1
62
5
10
2.34845
20
5.05902
30
0.00000
40
0.20236
50
109.38596
51
125.06262
0
ARC
8
1
62
5
10
2.29521
20
5.22383
30
0.00000
40
0.02956
50
309.45110
51
478.10731
0
ARC
8
1
62
5
10
1.82758
20
5.32069
30
0.00000
40
0.50092
50
336.89202
51
346.17550
0
LINE
8
1
62
5
10
2.28831
20
5.12410
30
0.00000
11
2.28777
21
5.12282
31
0.00000
0
ARC
8
1
62
5
10
2.81406
20
4.86879
30
0.00000
40
0.58439
50
154.23392
51
165.11046
0
ARC
8
1
62
5
10
2.32633
20
4.99034
30
0.00000
40
0.08218
50
159.62794
51
246.96415
0
ARC
8
1
62
5
10
2.51469
20
5.30862
30
0.00000
40
0.45142
50
240.75846
51
258.74249
0
ARC
8
1
62
5
10
2.42320
20
4.70962
30
0.00000
40
0.15630
50
85.66991
51
88.76781
0
ARC
8
1
62
5
10
2.43555
20
4.82730
30
0.00000
40
0.03817
50
73.54230
51
90.83293
0
ARC
8
1
62
5
10
2.45740
20
4.90154
30
0.00000
40
0.03921
50
253.66757
51
264.47345
0
LINE
8
1
62
5
10
2.45362
20
4.86251
30
0.00000
11
2.47037
21
4.86214
31
0.00000
0
LINE
8
1
62
5
10
2.47037
20
4.86214
30
0.00000
11
2.47758
21
4.86070
31
0.00000
0
LINE
8
1
62
5
10
2.47758
20
4.86070
30
0.00000
11
2.49557
21
4.85705
31
0.00000
0
ARC
8
1
62
5
10
2.50616
20
4.89131
30
0.00000
40
0.03586
50
252.82181
51
264.58889
0
ARC
8
1
62
5
10
2.49916
20
4.69364
30
0.00000
40
0.16201
50
85.82214
51
88.71858
0
ARC
8
1
62
5
10
2.51154
20
4.81715
30
0.00000
40
0.03807
50
73.51792
51
90.87088
0
ARC
8
1
62
5
10
2.53355
20
4.89193
30
0.00000
40
0.03988
50
253.67322
51
264.28581
0
ARC
8
1
62
5
10
2.52593
20
4.68937
30
0.00000
40
0.16292
50
85.83178
51
88.71560
0
ARC
8
1
62
5
10
2.53837
20
4.81370
30
0.00000
40
0.03816
50
73.58988
51
90.89776
0
ARC
8
1
62
5
10
2.56021
20
4.88781
30
0.00000
40
0.03909
50
253.56616
51
264.39287
0
LINE
8
1
62
5
10
2.55639
20
4.84890
30
0.00000
11
2.56063
21
4.84886
31
0.00000
0
LINE
8
1
62
5
10
2.56063
20
4.84886
30
0.00000
11
2.57778
21
4.84893
31
0.00000
0
ARC
8
1
62
5
10
2.57924
20
4.81405
30
0.00000
40
0.03491
50
73.31100
51
92.38982
0
ARC
8
1
62
5
10
2.60030
20
4.88514
30
0.00000
40
0.03924
50
253.66392
51
264.44764
0
ARC
8
1
62
5
10
2.60217
20
5.15803
30
0.00000
40
0.31199
50
268.95855
51
272.94321
0
LINE
8
1
62
5
10
2.61819
20
4.84645
30
0.00000
11
2.65769
21
4.84769
31
0.00000
0
ARC
8
1
62
5
10
2.65691
20
4.82897
30
0.00000
40
0.01874
50
68.23048
51
87.61805
0
ARC
8
1
62
5
10
2.66677
20
4.85429
30
0.00000
40
0.00844
50
249.84623
51
272.26301
0
ARC
8
1
62
5
10
2.66675
20
4.85429
30
0.00000
40
0.00844
50
272.36204
51
294.77883
0
ARC
8
1
62
5
10
2.67864
20
4.82986
30
0.00000
40
0.01873
50
97.07506
51
116.46263
0
LINE
8
1
62
5
10
2.67633
20
4.84845
30
0.00000
11
2.68922
21
4.84930
31
0.00000
0
LINE
8
1
62
5
10
2.68922
20
4.84930
30
0.00000
11
2.72422
21
4.85110
31
0.00000
0
ARC
8
1
62
5
10
2.72189
20
4.86966
30
0.00000
40
0.01871
50
277.14587
51
296.56566
0
ARC
8
1
62
5
10
2.73634
20
4.83977
30
0.00000
40
0.01450
50
102.18579
51
114.79790
0
ARC
8
1
62
5
10
2.73374
20
4.85186
30
0.00000
40
0.00213
50
69.08389
51
102.47792
0
LINE
8
1
62
5
10
2.73450
20
4.85385
30
0.00000
11
2.73686
21
4.85303
31
0.00000
0
ARC
8
1
62
5
10
2.73764
20
4.85501
30
0.00000
40
0.00213
50
248.61798
51
282.01022
0
ARC
8
1
62
5
10
2.73498
20
4.86715
30
0.00000
40
0.01455
50
282.29791
51
294.91202
0
ARC
8
1
62
5
10
2.74945
20
4.83721
30
0.00000
40
0.01870
50
97.05896
51
116.47872
0
LINE
8
1
62
5
10
2.74715
20
4.85577
30
0.00000
11
2.76002
21
4.85663
31
0.00000
0
ARC
8
1
62
5
10
2.76066
20
4.94475
30
0.00000
40
0.08812
50
269.58246
51
285.56665
0
ARC
8
1
62
5
10
2.80881
20
4.77084
30
0.00000
40
0.09233
50
90.18786
51
105.38895
0
LINE
8
1
62
5
10
2.80851
20
4.86317
30
0.00000
11
2.81708
21
4.86381
31
0.00000
0
ARC
8
1
62
5
10
2.81494
20
4.87947
30
0.00000
40
0.01581
50
277.79741
51
303.23761
0
LINE
8
1
62
5
10
2.82360
20
4.86625
30
0.00000
11
2.82562
21
4.86807
31
0.00000
0
LINE
8
1
62
5
10
2.82562
20
4.86807
30
0.00000
11
2.82940
21
4.87109
31
0.00000
0
ARC
8
1
62
5
10
2.83190
20
4.86758
30
0.00000
40
0.00431
50
88.72547
51
125.47999
0
ARC
8
1
62
5
10
2.83155
20
4.85194
30
0.00000
40
0.01996
50
71.83021
51
88.69809
0
LINE
8
1
62
5
10
2.83777
20
4.87090
30
0.00000
11
2.84064
21
4.86993
31
0.00000
0
ARC
8
1
62
5
10
2.84530
20
4.89054
30
0.00000
40
0.02113
50
257.25523
51
277.49762
0
ARC
8
1
62
5
10
2.84683
20
4.87798
30
0.00000
40
0.00848
50
278.34208
51
286.50980
0
LINE
8
1
62
5
10
2.84924
20
4.86985
30
0.00000
11
2.85497
21
4.87165
31
0.00000
0
ARC
8
1
62
5
10
2.86982
20
4.83181
30
0.00000
40
0.04251
50
100.54502
51
110.44468
0
ARC
8
1
62
5
10
2.84518
20
5.03619
30
0.00000
40
0.16345
50
275.92220
51
278.79598
0
ARC
8
1
62
5
10
2.86768
20
4.91262
30
0.00000
40
0.03805
50
273.74946
51
291.10242
0
ARC
8
1
62
5
10
2.89570
20
4.83991
30
0.00000
40
0.03988
50
100.42571
51
111.03830
0
ARC
8
1
62
5
10
2.87166
20
5.04136
30
0.00000
40
0.16310
50
275.91908
51
278.79910
0
ARC
8
1
62
5
10
2.89412
20
4.91816
30
0.00000
40
0.03806
50
273.75250
51
291.09938
0
ARC
8
1
62
5
10
2.92120
20
4.84861
30
0.00000
40
0.03657
50
93.37854
51
111.45188
0
ARC
8
1
62
5
10
2.91557
20
4.94384
30
0.00000
40
0.05882
50
273.38427
51
285.06841
0
ARC
8
1
62
5
10
2.80334
20
5.26037
30
0.00000
40
0.39451
50
288.85875
51
294.86756
0
ARC
8
1
62
5
10
2.97490
20
4.89147
30
0.00000
40
0.01234
50
95.45461
51
117.31065
0
ARC
8
1
62
5
10
2.97475
20
4.89291
30
0.00000
40
0.01090
50
72.09335
51
95.37018
0
ARC
8
1
62
5
10
2.98142
20
4.91363
30
0.00000
40
0.01087
50
252.21032
51
275.48443
0
ARC
8
1
62
5
10
2.98130
20
4.91514
30
0.00000
40
0.01238
50
275.37743
51
297.15278
0
LINE
8
1
62
5
10
2.98695
20
4.90412
30
0.00000
11
2.99288
21
4.90680
31
0.00000
0
ARC
8
1
62
5
10
3.04264
20
4.79450
30
0.00000
40
0.12283
50
110.09786
51
113.89695
0
ARC
8
1
62
5
10
3.00418
20
4.89975
30
0.00000
40
0.01077
50
97.49575
51
110.34617
0
LINE
8
1
62
5
10
3.00277
20
4.91043
30
0.00000
11
3.01501
21
4.91196
31
0.00000
0
ARC
8
1
62
5
10
3.00870
20
4.94726
30
0.00000
40
0.03586
50
280.13353
51
291.90705
0
LINE
8
1
62
5
10
3.02208
20
4.91399
30
0.00000
11
3.03958
21
4.91898
31
0.00000
0
LINE
8
1
62
5
10
3.03958
20
4.91898
30
0.00000
11
3.04285
21
4.92028
31
0.00000
0
ARC
8
1
62
5
10
3.04688
20
4.90746
30
0.00000
40
0.01344
50
67.65895
51
107.45444
0
ARC
8
1
62
5
10
3.05489
20
4.92808
30
0.00000
40
0.00869
50
250.50965
51
272.44596
0
ARC
8
1
62
5
10
3.05488
20
4.92777
30
0.00000
40
0.00838
50
272.58152
51
294.89102
0
ARC
8
1
62
5
10
3.06521
20
4.90540
30
0.00000
40
0.01626
50
105.72216
51
114.70534
0
ARC
8
1
62
5
10
3.07127
20
4.88392
30
0.00000
40
0.03858
50
99.91936
51
105.74103
0
ARC
8
1
62
5
10
3.05699
20
4.99474
30
0.00000
40
0.07322
50
275.98025
51
285.07103
0
ARC
8
1
62
5
10
3.22311
20
4.46900
30
0.00000
40
0.47822
50
105.28625
51
107.91189
0
ARC
8
1
62
5
10
3.11017
20
4.89768
30
0.00000
40
0.03517
50
99.94535
51
111.94544
0
LINE
8
1
62
5
10
3.10410
20
4.93232
30
0.00000
11
3.12986
21
4.93420
31
0.00000
0
ARC
8
1
62
5
10
3.12845
20
4.96928
30
0.00000
40
0.03511
50
272.29810
51
291.25465
0
ARC
8
1
62
5
10
3.15445
20
4.90241
30
0.00000
40
0.03663
50
99.74805
51
111.24165
0
ARC
8
1
62
5
10
3.15623
20
4.88268
30
0.00000
40
0.05640
50
93.70301
51
98.13630
0
ARC
8
1
62
5
10
3.15504
20
4.90013
30
0.00000
40
0.03891
50
88.28323
51
93.61591
0
ARC
8
1
62
5
10
3.15551
20
4.92066
30
0.00000
40
0.01838
50
68.12674
51
87.82376
0
ARC
8
1
62
5
10
3.16525
20
4.94567
30
0.00000
40
0.00846
50
250.04909
51
272.45859
0
ARC
8
1
62
5
10
3.16529
20
4.94565
30
0.00000
40
0.00844
50
272.19342
51
294.60776
0
ARC
8
1
62
5
10
3.17715
20
4.92121
30
0.00000
40
0.01874
50
97.07773
51
116.45995
0
LINE
8
1
62
5
10
3.17484
20
4.93980
30
0.00000
11
3.17912
21
4.94012
31
0.00000
0
LINE
8
1
62
5
10
3.17912
20
4.94012
30
0.00000
11
3.19623
21
4.94134
31
0.00000
0
ARC
8
1
62
5
10
3.19484
20
4.97625
30
0.00000
40
0.03493
50
272.27859
51
291.35086
0
ARC
8
1
62
5
10
3.22166
20
4.90703
30
0.00000
40
0.03930
50
100.24643
51
111.02610
0
ARC
8
1
62
5
10
3.25590
20
4.47573
30
0.00000
40
0.47177
50
90.26084
51
95.01344
0
ARC
8
1
62
5
10
3.25488
20
4.90659
30
0.00000
40
0.04093
50
75.77062
51
91.58272
0
ARC
8
1
62
5
10
3.27004
20
4.96763
30
0.00000
40
0.02197
50
256.57635
51
269.71094
0
ARC
8
1
62
5
10
3.26997
20
4.95430
30
0.00000
40
0.00864
50
269.73571
51
290.74384
0
ARC
8
1
62
5
10
3.27659
20
4.93680
30
0.00000
40
0.01007
50
91.04758
51
110.72347
0
ARC
8
1
62
5
10
3.27657
20
4.93815
30
0.00000
40
0.00873
50
69.89983
51
91.05793
0
ARC
8
1
62
5
10
3.28652
20
4.96374
30
0.00000
40
0.01874
50
248.23316
51
267.61538
0
LINE
8
1
62
5
10
3.28574
20
4.94502
30
0.00000
11
3.30745
21
4.94552
31
0.00000
0
LINE
8
1
62
5
10
3.30745
20
4.94552
30
0.00000
11
3.32036
21
4.94571
31
0.00000
0
ARC
8
1
62
5
10
3.31959
20
4.92702
30
0.00000
40
0.01871
50
68.21626
51
87.63228
0
ARC
8
1
62
5
10
3.33156
20
4.95803
30
0.00000
40
0.01454
50
249.74595
51
262.35558
0
ARC
8
1
62
5
10
3.32992
20
4.94573
30
0.00000
40
0.00213
50
262.22652
51
295.62146
0
LINE
8
1
62
5
10
3.33084
20
4.94381
30
0.00000
11
3.33345
21
4.94486
31
0.00000
0
ARC
8
1
62
5
10
3.31367
20
4.84684
30
0.00000
40
0.09999
50
74.74073
51
78.59275
0
LINE
8
1
62
5
10
3.33999
20
4.94331
30
0.00000
11
3.35003
21
4.94070
31
0.00000
0
ARC
8
1
62
5
10
3.36248
20
4.98090
30
0.00000
40
0.04208
50
252.79623
51
268.11115
0
ARC
8
1
62
5
10
3.35881
20
4.88703
30
0.00000
40
0.05186
50
78.89854
51
87.47460
0
ARC
8
1
62
5
10
3.48191
20
5.41923
30
0.00000
40
0.49442
50
256.77409
51
259.31395
0
ARC
8
1
62
5
10
3.40164
20
4.97057
30
0.00000
40
0.03890
50
252.94576
51
263.75996
0
ARC
8
1
62
5
10
3.38980
20
4.82702
30
0.00000
40
0.10515
50
71.77384
51
85.85048
0
ARC
8
1
62
5
10
3.14054
20
3.90756
30
0.00000
40
1.05767
50
71.88051
51
74.52783
0
ARC
8
1
62
5
10
3.53936
20
5.05825
30
0.00000
40
0.16139
50
244.33929
51
252.71676
0
ARC
8
1
62
5
10
3.46008
20
4.76530
30
0.00000
40
0.14235
50
60.89699
51
77.28349
0
LINE
8
1
62
5
10
3.52931
20
4.88967
30
0.00000
11
3.55484
21
4.87567
31
0.00000
0
LINE
8
1
62
5
10
3.55484
20
4.87567
30
0.00000
11
3.55754
21
4.87397
31
0.00000
0
LINE
8
1
62
5
10
3.55754
20
4.87397
30
0.00000
11
3.56390
21
4.87160
31
0.00000
0
ARC
8
1
62
5
10
3.51511
20
4.72467
30
0.00000
40
0.15482
50
54.65798
51
71.62864
0
ARC
8
1
62
5
10
3.78558
20
5.17728
30
0.00000
40
0.37312
50
240.99432
51
245.50947
0
ARC
8
1
62
5
10
3.93522
20
5.32592
30
0.00000
40
0.57527
50
238.06334
51
241.58701
0
ARC
8
1
62
5
10
3.58895
20
4.64979
30
0.00000
40
0.18498
50
60.81887
51
66.91123
0
LINE
8
1
62
5
10
3.67914
20
4.81129
30
0.00000
11
3.72328
21
4.78042
31
0.00000
0
LINE
8
1
62
5
10
3.72328
20
4.78042
30
0.00000
11
3.73656
21
4.77166
31
0.00000
0
ARC
8
1
62
5
10
3.80178
20
4.85165
30
0.00000
40
0.10321
50
230.81068
51
237.84027
0
ARC
8
1
62
5
10
3.71423
20
4.70588
30
0.00000
40
0.06688
50
47.25252
51
60.82069
0
ARC
8
1
62
5
10
3.88779
20
4.88632
30
0.00000
40
0.18350
50
225.69912
51
233.55792
0
ARC
8
1
62
5
10
3.74680
20
4.69285
30
0.00000
40
0.05591
50
51.34948
51
55.09868
0
ARC
8
1
62
5
10
3.69428
20
4.62737
30
0.00000
40
0.13986
50
48.93307
51
51.30364
0
ARC
8
1
62
5
10
3.82160
20
4.77367
30
0.00000
40
0.05409
50
229.06106
51
232.25308
0
ARC
8
1
62
5
10
3.82797
20
4.78177
30
0.00000
40
0.06440
50
232.18868
51
235.11640
0
ARC
8
1
62
5
10
3.73015
20
4.64163
30
0.00000
40
0.10651
50
46.59198
51
55.06489
0
ARC
8
1
62
5
10
3.87374
20
4.78759
30
0.00000
40
0.09828
50
224.24911
51
238.97133
0
ARC
8
1
62
5
10
3.79956
20
4.66490
30
0.00000
40
0.04509
50
38.50645
51
58.56577
0
LINE
8
1
62
5
10
3.83485
20
4.69297
30
0.00000
11
3.83684
21
4.69050
31
0.00000
0
LINE
8
1
62
5
10
3.83684
20
4.69050
30
0.00000
11
3.84178
21
4.68659
31
0.00000
0
LINE
8
1
62
5
10
3.84178
20
4.68659
30
0.00000
11
3.85689
21
4.67519
31
0.00000
0
LINE
8
1
62
5
10
3.85689
20
4.67519
30
0.00000
11
3.85952
21
4.67341
31
0.00000
0
ARC
8
1
62
5
10
3.84278
20
4.65281
30
0.00000
40
0.02654
50
37.28940
51
50.90818
0
ARC
8
1
62
5
10
3.88456
20
4.68449
30
0.00000
40
0.02589
50
217.05380
51
238.02244
0
ARC
8
1
62
5
10
3.77059
20
4.53270
30
0.00000
40
0.16404
50
49.02815
51
52.32468
0
ARC
8
1
62
5
10
3.89484
20
4.67574
30
0.00000
40
0.02543
50
228.99832
51
232.97159
0
LINE
8
1
62
5
10
3.87952
20
4.65544
30
0.00000
11
3.88570
21
4.65084
31
0.00000
0
ARC
8
1
62
5
10
3.95192
20
4.72988
30
0.00000
40
0.10311
50
230.04171
51
238.84083
0
ARC
8
1
62
5
10
3.79176
20
4.41779
30
0.00000
40
0.24803
50
59.98654
51
64.49090
0
ARC
8
1
62
5
10
3.93253
20
4.65677
30
0.00000
40
0.02942
50
235.38762
51
254.74656
0
ARC
8
1
62
5
10
3.91721
20
4.60011
30
0.00000
40
0.02928
50
61.78618
51
74.99024
0
LINE
8
1
62
5
10
3.93105
20
4.62591
30
0.00000
11
3.93358
21
4.62402
31
0.00000
0
LINE
8
1
62
5
10
3.93358
20
4.62402
30
0.00000
11
3.94122
21
4.61842
31
0.00000
0
ARC
8
1
62
5
10
3.96997
20
4.66489
30
0.00000
40
0.05464
50
238.25103
51
255.81177
0
ARC
8
1
62
5
10
3.75594
20
4.07302
30
0.00000
40
0.57503
50
65.90599
51
69.57896
0
ARC
8
1
62
5
10
3.85191
20
4.14320
30
0.00000
40
0.47546
50
67.66008
51
73.02881
0
ARC
8
1
62
5
10
4.63814
20
6.29705
30
0.00000
40
1.81789
50
250.54394
51
258.41153
0
ARC
8
1
62
5
10
4.30176
20
4.64695
30
0.00000
40
0.13386
50
257.57682
51
262.80415
0
ARC
8
1
62
5
10
4.28352
20
4.46863
30
0.00000
40
0.04553
50
73.86314
51
88.14424
0
ARC
8
1
62
5
10
4.30810
20
4.55333
30
0.00000
40
0.04266
50
253.76173
51
263.64897
0
ARC
8
1
62
5
10
4.29276
20
4.38579
30
0.00000
40
0.12559
50
71.73211
51
85.15024
0
ARC
8
1
62
5
10
4.35577
20
4.59198
30
0.00000
40
0.09009
50
254.78605
51
257.97343
0
ARC
8
1
62
5
10
4.34094
20
4.52242
30
0.00000
40
0.01896
50
258.01203
51
264.95113
0
ARC
8
1
62
5
10
4.33576
20
4.34401
30
0.00000
40
0.15956
50
85.79984
51
88.74088
0
ARC
8
1
62
5
10
4.34809
20
4.46560
30
0.00000
40
0.03755
50
73.39750
51
90.97773
0
ARC
8
1
62
5
10
4.37201
20
4.54869
30
0.00000
40
0.04892
50
254.36293
51
267.66027
0
ARC
8
1
62
5
10
4.36789
20
4.44815
30
0.00000
40
0.05170
50
79.03660
51
87.64722
0
ARC
8
1
62
5
10
4.48758
20
4.96359
30
0.00000
40
0.47749
50
256.69850
51
259.32753
0
ARC
8
1
62
5
10
4.40963
20
4.52807
30
0.00000
40
0.03530
50
252.73553
51
264.70566
0
LINE
8
1
62
5
10
4.40637
20
4.49292
30
0.00000
11
4.41891
21
4.49263
31
0.00000
0
ARC
8
1
62
5
10
4.42012
20
4.45693
30
0.00000
40
0.03572
50
73.33364
51
91.93620
0
ARC
8
1
62
5
10
4.44141
20
4.52888
30
0.00000
40
0.03932
50
253.68215
51
264.45887
0
LINE
8
1
62
5
10
4.43761
20
4.48975
30
0.00000
11
4.45015
21
4.48945
31
0.00000
0
ARC
8
1
62
5
10
4.45156
20
4.45595
30
0.00000
40
0.03353
50
72.62643
51
92.40781
0
ARC
8
1
62
5
10
4.50154
20
4.66403
30
0.00000
40
0.18056
50
257.20990
51
260.64744
0
ARC
8
1
62
5
10
4.45962
20
4.40574
30
0.00000
40
0.08111
50
77.80242
51
81.07968
0
ARC
8
1
62
5
10
4.47413
20
4.47267
30
0.00000
40
0.01263
50
69.68003
51
77.99968
0
ARC
8
1
62
5
10
4.48349
20
4.49789
30
0.00000
40
0.01427
50
249.60103
51
262.41376
0
ARC
8
1
62
5
10
4.48188
20
4.48586
30
0.00000
40
0.00213
50
262.67852
51
296.09252
0
LINE
8
1
62
5
10
4.48282
20
4.48394
30
0.00000
11
4.48511
21
4.48495
31
0.00000
0
ARC
8
1
62
5
10
4.48603
20
4.48303
30
0.00000
40
0.00213
50
82.22764
51
115.62033
0
ARC
8
1
62
5
10
4.48438
20
4.47072
30
0.00000
40
0.01455
50
69.74883
51
82.35270
0
LINE
8
1
62
5
10
4.48942
20
4.48437
30
0.00000
11
4.49207
21
4.48353
31
0.00000
0
ARC
8
1
62
5
10
4.49819
20
4.51226
30
0.00000
40
0.02937
50
257.96789
51
292.85108
0
ARC
8
1
62
5
10
4.51315
20
4.47748
30
0.00000
40
0.00849
50
92.27819
51
114.69977
0
ARC
8
1
62
5
10
4.51315
20
4.47763
30
0.00000
40
0.00833
50
69.71377
51
92.34098
0
ARC
8
1
62
5
10
4.52047
20
4.49750
30
0.00000
40
0.01284
50
249.81378
51
258.03907
0
ARC
8
1
62
5
10
4.53479
20
4.56403
30
0.00000
40
0.08089
50
257.88227
51
261.15286
0
ARC
8
1
62
5
10
4.51351
20
4.41061
30
0.00000
40
0.07402
50
74.73904
51
83.13860
0
ARC
8
1
62
5
10
4.54346
20
4.51569
30
0.00000
40
0.03526
50
252.72159
51
264.68911
0
LINE
8
1
62
5
10
4.54020
20
4.48058
30
0.00000
11
4.54444
21
4.48055
31
0.00000
0
LINE
8
1
62
5
10
4.54444
20
4.48055
30
0.00000
11
4.56159
21
4.48061
31
0.00000
0
ARC
8
1
62
5
10
4.56304
20
4.44572
30
0.00000
40
0.03492
50
73.31424
51
92.38659
0
ARC
8
1
62
5
10
4.58411
20
4.51689
30
0.00000
40
0.03931
50
253.68079
51
264.46023
0
LINE
8
1
62
5
10
4.58032
20
4.47777
30
0.00000
11
4.58880
21
4.47770
31
0.00000
0
ARC
8
1
62
5
10
4.61398
20
3.97272
30
0.00000
40
0.50560
50
89.40292
51
92.85475
0
LINE
8
1
62
5
10
4.61925
20
4.47830
30
0.00000
11
4.62649
21
4.47690
31
0.00000
0
ARC
8
1
62
5
10
4.64285
20
4.55875
30
0.00000
40
0.08347
50
258.69909
51
275.59943
0
LINE
8
1
62
5
10
4.65099
20
4.47568
30
0.00000
11
4.69049
21
4.47692
31
0.00000
0
ARC
8
1
62
5
10
4.68968
20
4.45826
30
0.00000
40
0.01868
50
68.10400
51
87.52868
0
ARC
8
1
62
5
10
4.70169
20
4.48928
30
0.00000
40
0.01458
50
249.78755
51
262.40020
0
ARC
8
1
62
5
10
4.70003
20
4.47692
30
0.00000
40
0.00211
50
262.74365
51
296.18099
0
LINE
8
1
62
5
10
4.70096
20
4.47502
30
0.00000
11
4.70324
21
4.47603
31
0.00000
0
ARC
8
1
62
5
10
4.70457
20
4.47329
30
0.00000
40
0.00305
50
92.74304
51
115.78599
0
ARC
8
1
62
5
10
4.70461
20
4.47218
30
0.00000
40
0.00415
50
72.87305
51
92.57694
0
ARC
8
1
62
5
10
4.71069
20
4.49219
30
0.00000
40
0.01676
50
253.13279
51
270.60700
0
ARC
8
1
62
5
10
4.71072
20
4.49093
30
0.00000
40
0.01550
50
270.54395
51
288.72677
0
ARC
8
1
62
5
10
4.73199
20
4.42803
30
0.00000
40
0.05090
50
103.60574
51
108.67005
0
ARC
8
1
62
5
10
4.72243
20
4.46760
30
0.00000
40
0.01019
50
92.34777
51
103.67051
0
ARC
8
1
62
5
10
4.72201
20
4.45592
30
0.00000
40
0.02186
50
72.68948
51
89.99046
0
ARC
8
1
62
5
10
4.73282
20
4.49458
30
0.00000
40
0.01830
50
256.39738
51
271.11120
0
ARC
8
1
62
5
10
4.73287
20
4.49303
30
0.00000
40
0.01675
50
271.03730
51
286.41615
0
ARC
8
1
62
5
10
4.74237
20
4.46083
30
0.00000
40
0.01682
50
90.44158
51
106.47501
0
ARC
8
1
62
5
10
4.74236
20
4.46136
30
0.00000
40
0.01630
50
74.13887
51
90.40913
0
ARC
8
1
62
5
10
4.75616
20
4.51300
30
0.00000
40
0.03717
50
255.43560
51
272.79766
0
ARC
8
1
62
5
10
4.74966
20
5.19788
30
0.00000
40
0.72205
50
270.65962
51
274.12211
0
ARC
8
1
62
5
10
4.79925
20
4.49629
30
0.00000
40
0.01873
50
277.07658
51
296.46110
0
ARC
8
1
62
5
10
4.81124
20
4.47158
30
0.00000
40
0.00874
50
93.35376
51
114.63256
0
ARC
8
1
62
5
10
4.81132
20
4.47066
30
0.00000
40
0.00966
50
73.28679
51
93.51060
0
ARC
8
1
62
5
10
4.81708
20
4.48980
30
0.00000
40
0.01033
50
253.20753
51
291.37369
0
ARC
8
1
62
5
10
4.82438
20
4.47124
30
0.00000
40
0.00962
50
91.45849
51
111.56298
0
ARC
8
1
62
5
10
4.82433
20
4.47191
30
0.00000
40
0.00894
50
70.32252
51
91.21771
0
ARC
8
1
62
5
10
4.83251
20
4.49297
30
0.00000
40
0.01365
50
247.76701
51
296.87878
0
ARC
8
1
62
5
10
4.84490
20
4.46710
30
0.00000
40
0.01504
50
102.18892
51
114.45540
0
ARC
8
1
62
5
10
4.84215
20
4.47980
30
0.00000
40
0.00204
50
68.31509
51
101.99691
0
LINE
8
1
62
5
10
4.84291
20
4.48170
30
0.00000
11
4.84522
21
4.48085
31
0.00000
0
ARC
8
1
62
5
10
4.84608
20
4.48714
30
0.00000
40
0.00635
50
262.24728
51
282.39578
0
LINE
8
1
62
5
10
4.84744
20
4.48094
30
0.00000
11
4.84967
21
4.48197
31
0.00000
0
ARC
8
1
62
5
10
4.85056
20
4.48015
30
0.00000
40
0.00203
50
82.46271
51
116.14140
0
ARC
8
1
62
5
10
4.84888
20
4.46710
30
0.00000
40
0.01518
50
70.44013
51
82.60995
0
ARC
8
1
62
5
10
4.85896
20
4.49350
30
0.00000
40
0.01308
50
247.52731
51
273.41947
0
ARC
8
1
62
5
10
4.85885
20
4.49098
30
0.00000
40
0.01058
50
274.84639
51
284.07825
0
ARC
8
1
62
5
10
4.84141
20
4.56133
30
0.00000
40
0.08306
50
283.93823
51
287.22584
0
ARC
8
1
62
5
10
4.87286
20
4.45985
30
0.00000
40
0.02319
50
94.63271
51
107.18954
0
ARC
8
1
62
5
10
4.87167
20
4.47445
30
0.00000
40
0.00854
50
73.84239
51
94.58813
0
ARC
8
1
62
5
10
4.87683
20
4.49233
30
0.00000
40
0.01007
50
253.98854
51
273.66215
0
ARC
8
1
62
5
10
4.87693
20
4.49097
30
0.00000
40
0.00870
50
273.54226
51
294.70411
0
ARC
8
1
62
5
10
4.88891
20
4.46630
30
0.00000
40
0.01872
50
97.07087
51
116.46681
0
ARC
8
1
62
5
10
4.92565
20
3.99178
30
0.00000
40
0.49465
50
92.00532
51
94.52665
0
LINE
8
1
62
5
10
4.90834
20
4.48612
30
0.00000
11
4.92608
21
4.48685
31
0.00000
0
ARC
8
1
62
5
10
4.92703
20
4.57366
30
0.00000
40
0.08682
50
269.37435
51
285.61736
0
ARC
8
1
62
5
10
4.96246
20
4.46067
30
0.00000
40
0.03175
50
91.31287
51
112.31658
0
LINE
8
1
62
5
10
4.96173
20
4.49242
30
0.00000
11
4.99213
21
4.49428
31
0.00000
0
ARC
8
1
62
5
10
4.99075
20
4.52915
30
0.00000
40
0.03490
50
272.26806
51
291.36140
0
ARC
8
1
62
5
10
5.01756
20
4.45996
30
0.00000
40
0.03930
50
100.24655
51
111.02599
0
LINE
8
1
62
5
10
5.01057
20
4.49864
30
0.00000
11
5.01479
21
4.49902
31
0.00000
0
LINE
8
1
62
5
10
5.01479
20
4.49902
30
0.00000
11
5.03189
21
4.50034
31
0.00000
0
ARC
8
1
62
5
10
5.03050
20
4.53523
30
0.00000
40
0.03492
50
272.27441
51
291.35505
0
ARC
8
1
62
5
10
5.05733
20
4.46604
30
0.00000
40
0.03929
50
100.27302
51
111.04140
0
LINE
8
1
62
5
10
5.05032
20
4.50470
30
0.00000
11
5.06280
21
4.50601
31
0.00000
0
ARC
8
1
62
5
10
5.06062
20
4.54495
30
0.00000
40
0.03900
50
273.19836
51
289.99357
0
LINE
8
1
62
5
10
5.07396
20
4.50830
30
0.00000
11
5.07727
21
4.50957
31
0.00000
0
ARC
8
1
62
5
10
5.08130
20
4.49675
30
0.00000
40
0.01344
50
67.66262
51
107.45077
0
ARC
8
1
62
5
10
5.08928
20
4.51735
30
0.00000
40
0.00866
50
250.65647
51
272.59152
0
ARC
8
1
62
5
10
5.08932
20
4.51710
30
0.00000
40
0.00841
50
272.37622
51
294.67010
0
ARC
8
1
62
5
10
5.10119
20
4.49265
30
0.00000
40
0.01877
50
97.09548
51
116.44220
0
LINE
8
1
62
5
10
5.09887
20
4.51128
30
0.00000
11
5.10315
21
4.51164
31
0.00000
0
ARC
8
1
62
5
10
5.10064
20
4.56383
30
0.00000
40
0.05225
50
272.74847
51
281.99113
0
ARC
8
1
62
5
10
5.33499
20
2.79237
30
0.00000
40
1.73481
50
76.20143
51
97.40186
0
LINE
8
1
62
5
10
5.74876
20
4.47711
30
0.00000
11
5.75008
21
4.47683
31
0.00000
0
ARC
8
1
62
5
10
5.75809
20
4.51427
30
0.00000
40
0.03829
50
257.91820
51
264.96002
0
ARC
8
1
62
5
10
5.75133
20
4.43805
30
0.00000
40
0.03823
50
75.53899
51
84.90244
0
LINE
8
1
62
5
10
5.76088
20
4.47507
30
0.00000
11
5.76409
21
4.47392
31
0.00000
0
LINE
8
1
62
5
10
5.76409
20
4.47392
30
0.00000
11
5.77369
21
4.47043
31
0.00000
0
ARC
8
1
62
5
10
5.78552
20
4.50385
30
0.00000
40
0.03545
50
250.50562
51
255.60916
0
ARC
8
1
62
5
10
5.79076
20
4.52359
30
0.00000
40
0.05587
50
255.43813
51
259.50426
0
ARC
8
1
62
5
10
5.77415
20
4.41301
30
0.00000
40
0.05601
50
72.20392
51
83.40898
0
ARC
8
1
62
5
10
5.91427
20
4.85617
30
0.00000
40
0.40878
50
252.48797
51
258.99639
0
ARC
8
1
62
5
10
5.88726
20
4.67755
30
0.00000
40
0.22841
50
257.09448
51
259.85708
0
LINE
8
1
62
5
10
5.84704
20
4.45271
30
0.00000
11
5.87482
21
4.44579
31
0.00000
0
ARC
8
1
62
5
10
5.86491
20
4.36954
30
0.00000
40
0.07690
50
71.78954
51
82.59491
0
ARC
8
1
62
5
10
6.17965
20
5.41125
30
0.00000
40
1.01135
50
253.29494
51
255.89723
0
ARC
8
1
62
5
10
5.92375
20
4.36731
30
0.00000
40
0.06377
50
65.68556
51
81.46147
0
ARC
8
1
62
5
10
5.98825
20
4.50198
30
0.00000
40
0.08556
50
243.45725
51
257.19367
0
ARC
8
1
62
5
10
5.94004
20
4.25739
30
0.00000
40
0.16379
50
73.41756
51
79.71484
0
ARC
8
1
62
5
10
5.80677
20
3.65613
30
0.00000
40
0.77931
50
72.23367
51
76.64447
0
LINE
8
1
62
5
10
6.04456
20
4.39827
30
0.00000
11
6.05098
21
4.39598
31
0.00000
0
ARC
8
1
62
5
10
6.06067
20
4.43321
30
0.00000
40
0.03847
50
255.41552
51
263.73609
0
ARC
8
1
62
5
10
6.05225
20
4.35682
30
0.00000
40
0.03838
50
75.38265
51
83.69441
0
LINE
8
1
62
5
10
6.06194
20
4.39396
30
0.00000
11
6.06515
21
4.39282
31
0.00000
0
LINE
8
1
62
5
10
6.06515
20
4.39282
30
0.00000
11
6.07475
21
4.38933
31
0.00000
0
ARC
8
1
62
5
10
6.08557
20
4.41957
30
0.00000
40
0.03212
50
250.31028
51
256.41948
0
ARC
8
1
62
5
10
6.11275
20
4.53325
30
0.00000
40
0.14901
50
256.52563
51
259.36085
0
LINE
8
1
62
5
10
6.08524
20
4.38681
30
0.00000
11
6.08892
21
4.38617
31
0.00000
0
LINE
8
1
62
5
10
6.08892
20
4.38617
30
0.00000
11
6.09535
21
4.38387
31
0.00000
0
ARC
8
1
62
5
10
6.15709
20
4.54104
30
0.00000
40
0.16886
50
248.55440
51
259.29078
0
ARC
8
1
62
5
10
6.11563
20
4.32027
30
0.00000
40
0.05577
50
75.44956
51
79.58546
0
ARC
8
1
62
5
10
6.12130
20
4.34221
30
0.00000
40
0.03311
50
70.05140
51
75.41698
0
LINE
8
1
62
5
10
6.13260
20
4.37333
30
0.00000
11
6.15127
21
4.36578
31
0.00000
0
ARC
8
1
62
5
10
6.16155
20
4.39401
30
0.00000
40
0.03005
50
249.98717
51
256.38522
0
ARC
8
1
62
5
10
6.18919
20
4.50900
30
0.00000
40
0.14831
50
256.46693
51
259.34356
0
LINE
8
1
62
5
10
6.16176
20
4.36325
30
0.00000
11
6.16544
21
4.36261
31
0.00000
0
ARC
8
1
62
5
10
6.12338
20
4.23731
30
0.00000
40
0.13217
50
65.60277
51
71.44235
0
LINE
8
1
62
5
10
6.17797
20
4.35768
30
0.00000
11
6.19636
21
4.34983
31
0.00000
0
ARC
8
1
62
5
10
6.20655
20
4.37807
30
0.00000
40
0.03002
50
250.15110
51
256.54869
0
ARC
8
1
62
5
10
6.23425
20
4.49295
30
0.00000
40
0.14820
50
256.46584
51
259.34464
0
ARC
8
1
62
5
10
6.19598
20
4.28937
30
0.00000
40
0.05895
50
75.41282
51
79.37718
0
ARC
8
1
62
5
10
6.20247
20
4.31471
30
0.00000
40
0.03280
50
69.92248
51
75.23452
0
ARC
8
1
62
5
10
6.13198
20
4.13047
30
0.00000
40
0.23005
50
65.02997
51
69.18612
0
ARC
8
1
62
5
10
6.57453
20
5.10827
30
0.00000
40
0.84325
50
245.81751
51
248.54015
0
ARC
8
1
62
5
10
6.24759
20
4.25743
30
0.00000
40
0.06857
50
57.72480
51
74.40286
0
ARC
8
1
62
5
10
6.30075
20
4.33934
30
0.00000
40
0.02909
50
235.35112
51
254.93686
0
ARC
8
1
62
5
10
6.28458
20
4.28002
30
0.00000
40
0.03240
50
62.63345
51
74.58404
0
LINE
8
1
62
5
10
6.29947
20
4.30879
30
0.00000
11
6.30216
21
4.30709
31
0.00000
0
ARC
8
1
62
5
10
6.45035
20
4.53467
30
0.00000
40
0.27158
50
236.92892
51
244.42589
0
ARC
8
1
62
5
10
6.56645
20
4.65963
30
0.00000
40
0.43737
50
237.75871
51
242.82505
0
ARC
8
1
62
5
10
6.07619
20
3.70419
30
0.00000
40
0.63651
50
52.20405
51
62.84463
0
ARC
8
1
62
5
10
6.21204
20
3.89603
30
0.00000
40
0.40179
50
47.26697
51
50.74568
0
ARC
8
1
62
5
10
6.00750
20
3.74474
30
0.00000
40
0.65345
50
5.15078
51
43.09134
0
ARC
8
1
62
5
10
6.64469
20
3.80551
30
0.00000
40
0.01378
50
273.29388
51
351.23572
0
ARC
8
1
62
5
10
6.54922
20
3.51923
30
0.00000
40
0.28902
50
70.54621
51
94.79162
0
ARC
8
1
62
5
10
6.53257
20
3.80063
30
0.00000
40
0.00999
50
138.58419
51
163.96575
0
ARC
8
1
62
5
10
6.53229
20
3.80071
30
0.00000
40
0.00970
50
163.93134
51
189.70900
0
ARC
8
1
62
5
10
6.48071
20
3.78934
30
0.00000
40
0.04313
50
357.81762
51
373.03450
0
ARC
8
1
62
5
10
6.54426
20
3.78770
30
0.00000
40
0.02045
50
180.00685
51
186.94362
0
ARC
8
1
62
5
10
6.62708
20
3.79773
30
0.00000
40
0.10387
50
186.91020
51
189.98888
0
LINE
8
1
62
5
10
6.52478
20
3.77971
30
0.00000
11
6.52666
21
3.75851
31
0.00000
0
LINE
8
1
62
5
10
6.52666
20
3.75851
30
0.00000
11
6.53369
21
3.69659
31
0.00000
0
LINE
8
1
62
5
10
6.53369
20
3.69659
30
0.00000
11
6.55138
21
3.56334
31
0.00000
0
LINE
8
1
62
5
10
6.55138
20
3.56334
30
0.00000
11
6.55604
21
3.52104
31
0.00000
0
ARC
8
1
62
5
10
6.37494
20
3.47866
30
0.00000
40
0.18600
50
4.50016
51
13.17184
0
LINE
8
1
62
5
10
6.56036
20
3.49325
30
0.00000
11
6.56536
21
3.45776
31
0.00000
0
ARC
8
1
62
5
10
6.92324
20
3.48141
30
0.00000
40
0.35866
50
183.78001
51
188.54381
0
ARC
8
1
62
5
10
6.46515
20
3.39869
30
0.00000
40
0.10752
50
7.84978
51
15.88838
0
ARC
8
1
62
5
10
7.69230
20
3.52750
30
0.00000
40
1.12643
50
185.81528
51
188.74564
0
ARC
8
1
62
5
10
6.84207
20
3.38187
30
0.00000
40
0.26436
50
185.56553
51
191.52075
0
ARC
8
1
62
5
10
6.96069
20
3.35481
30
0.00000
40
0.37853
50
183.89967
51
191.32975
0
ARC
8
1
62
5
10
7.65464
20
3.37681
30
0.00000
40
1.06945
50
185.16948
51
188.48294
0
LINE
8
1
62
5
10
6.59689
20
3.21905
30
0.00000
11
6.60709
21
3.13132
31
0.00000
0
LINE
8
1
62
5
10
6.60709
20
3.13132
30
0.00000
11
6.62022
21
3.02519
31
0.00000
0
ARC
8
1
62
5
10
6.27309
20
2.95759
30
0.00000
40
0.35365
50
2.98894
51
11.02004
0
ARC
8
1
62
5
10
7.08412
20
3.03115
30
0.00000
40
0.46117
50
186.86440
51
190.24708
0
ARC
8
1
62
5
10
7.00875
20
2.97208
30
0.00000
40
0.37914
50
183.47333
51
190.92101
0
LINE
8
1
62
5
10
6.63648
20
2.90025
30
0.00000
11
6.64089
21
2.85774
31
0.00000
0
ARC
8
1
62
5
10
6.46359
20
2.81761
30
0.00000
40
0.18179
50
3.91774
51
12.75331
0
LINE
8
1
62
5
10
6.64495
20
2.83003
30
0.00000
11
6.65009
21
2.79455
31
0.00000
0
ARC
8
1
62
5
10
6.98231
20
2.81028
30
0.00000
40
0.33259
50
182.71140
51
191.23381
0
ARC
8
1
62
5
10
7.82858
20
2.85144
30
0.00000
40
1.17727
50
185.16326
51
190.14517
0
ARC
8
1
62
5
10
7.25656
20
2.75353
30
0.00000
40
0.59696
50
190.56532
51
207.41692
0
LINE
8
1
62
5
10
6.72665
20
2.47865
30
0.00000
11
6.75285
21
2.43789
31
0.00000
0
ARC
8
1
62
5
10
6.94408
20
2.55625
30
0.00000
40
0.22489
50
211.75495
51
225.07404
0
ARC
8
1
62
5
10
7.70571
20
3.48790
30
0.00000
40
1.42732
50
229.84358
51
237.16253
0
ARC
8
1
62
5
10
7.29246
20
2.77711
30
0.00000
40
0.60722
50
233.55356
51
236.50739
0
ARC
8
1
62
5
10
6.83694
20
2.10459
30
0.00000
40
0.20518
50
46.14967
51
54.05772
0
ARC
8
1
62
5
10
7.05348
20
2.34756
30
0.00000
40
0.12066
50
231.93876
51
239.47935
0
LINE
8
1
62
5
10
6.99220
20
2.24362
30
0.00000
11
7.03172
21
2.21237
31
0.00000
0
ARC
8
1
62
5
10
7.12926
20
2.31006
30
0.00000
40
0.13805
50
225.04499
51
235.50132
0
ARC
8
1
62
5
10
7.01766
20
2.13688
30
0.00000
40
0.06816
50
49.96813
51
60.64727
0
LINE
8
1
62
5
10
7.06150
20
2.18907
30
0.00000
11
7.09859
21
2.15520
31
0.00000
0
ARC
8
1
62
5
10
7.27399
20
2.33339
30
0.00000
40
0.25003
50
225.45101
51
233.37518
0
ARC
8
1
62
5
10
7.09506
20
2.07981
30
0.00000
40
0.06071
50
36.71061
51
60.63485
0
ARC
8
1
62
5
10
7.20407
20
2.15815
30
0.00000
40
0.07355
50
214.87113
51
224.74002
0
ARC
8
1
62
5
10
6.98600
20
1.91852
30
0.00000
40
0.25059
50
39.91364
51
48.56428
0
ARC
8
1
62
5
10
7.28751
20
2.16619
30
0.00000
40
0.13963
50
218.48235
51
226.24047
0
LINE
8
1
62
5
10
7.19093
20
2.06534
30
0.00000
11
7.20904
21
2.04324
31
0.00000
0
LINE
8
1
62
5
10
7.20904
20
2.04324
30
0.00000
11
7.22301
21
2.02600
31
0.00000
0
ARC
8
1
62
5
10
7.29152
20
2.07275
30
0.00000
40
0.08294
50
214.30739
51
223.06873
0
ARC
8
1
62
5
10
7.17689
20
1.95783
30
0.00000
40
0.07948
50
35.75507
51
47.16265
0
LINE
8
1
62
5
10
7.24139
20
2.00427
30
0.00000
11
7.25331
21
1.98471
31
0.00000
0
ARC
8
1
62
5
10
6.57708
20
1.49658
30
0.00000
40
0.83400
50
25.90805
51
35.82313
0
ARC
8
1
62
5
10
6.52451
20
1.46707
30
0.00000
40
0.89419
50
8.16737
51
26.13733
0
ARC
8
1
62
5
10
7.89754
20
1.62350
30
0.00000
40
0.48879
50
183.44809
51
189.73947
0
LINE
8
1
62
5
10
7.41579
20
1.54081
30
0.00000
11
7.42084
21
1.43488
31
0.00000
0
ARC
8
1
62
5
10
7.73270
20
1.45347
30
0.00000
40
0.31241
50
183.41045
51
188.90212
0
LINE
8
1
62
5
10
7.42405
20
1.40512
30
0.00000
11
7.44170
21
1.33678
31
0.00000
0
ARC
8
1
62
5
10
10.72435
20
2.04849
30
0.00000
40
3.35892
50
192.23297
51
194.93890
0
ARC
8
1
62
5
10
8.81878
20
1.45974
30
0.00000
40
1.36818
50
191.68675
51
195.33186
0
ARC
8
1
62
5
10
7.45550
20
1.08051
30
0.00000
40
0.04714
50
12.76619
51
21.74740
0
LINE
8
1
62
5
10
7.50148
20
1.09093
30
0.00000
11
7.50365
21
1.07436
31
0.00000
0
ARC
8
1
62
5
10
7.76063
20
1.13256
30
0.00000
40
0.26349
50
192.76064
51
195.13356
0
ARC
8
1
62
5
10
6.29982
20
0.74937
30
0.00000
40
1.24676
50
11.99105
51
14.60644
0
LINE
8
1
62
5
10
7.51937
20
1.00839
30
0.00000
11
7.55130
21
0.86705
31
0.00000
0
LINE
8
1
62
5
10
7.55130
20
0.86705
30
0.00000
11
7.56055
21
0.82660
31
0.00000
0
ARC
8
1
62
5
10
7.79484
20
0.85418
30
0.00000
40
0.23591
50
186.71560
51
191.67259
0
LINE
8
1
62
5
10
7.56381
20
0.80646
30
0.00000
11
7.61217
21
0.58550
31
0.00000
0
LINE
8
1
62
5
10
7.61217
20
0.58550
30
0.00000
11
7.63822
21
0.46084
31
0.00000
0
ARC
8
1
62
5
10
7.48983
20
0.39959
30
0.00000
40
0.16054
50
333.26153
51
382.43106
0
ARC
8
1
62
5
10
8.12828
20
-0.23768
30
0.00000
40
0.75125
50
131.22425
51
138.67027
0
ARC
8
1
62
5
10
7.90897
20
0.04552
30
0.00000
40
0.40526
50
148.30596
51
166.78718
0
ARC
8
1
62
5
10
7.92649
20
-0.01104
30
0.00000
40
0.43822
50
160.09708
51
165.62255
0
ARC
8
1
62
5
10
7.43991
20
0.08195
30
0.00000
40
0.06406
50
268.88047
51
374.30328
0
ARC
8
1
62
5
10
7.29958
20
6.08772
30
0.00000
40
6.07141
50
268.72451
51
271.31264
0
ARC
8
1
62
5
10
7.19195
20
0.06829
30
0.00000
40
0.05749
50
144.41928
51
241.40344
0
ARC
8
1
62
5
10
7.36844
20
0.04721
30
0.00000
40
0.22981
50
160.43075
51
166.27246
0
ARC
8
1
62
5
10
7.52061
20
0.01738
30
0.00000
40
0.38386
50
152.29879
51
163.84545
0
ARC
8
1
62
5
10
7.09496
20
0.25276
30
0.00000
40
0.10296
50
326.42086
51
335.41825
0
ARC
8
1
62
5
10
7.28577
20
0.17210
30
0.00000
40
0.10428
50
146.18976
51
158.72673
0
ARC
8
1
62
5
10
7.03091
20
0.35533
30
0.00000
40
0.20969
50
323.33973
51
333.85246
0
ARC
8
1
62
5
10
7.28492
20
0.22869
30
0.00000
40
0.07415
50
140.19559
51
152.50424
0
LINE
8
1
62
5
10
7.22795
20
0.27616
30
0.00000
11
7.26414
21
0.33248
31
0.00000
0
ARC
8
1
62
5
10
6.82783
20
0.67345
30
0.00000
40
0.55374
50
321.99275
51
332.90080
0
LINE
8
1
62
5
10
7.32078
20
0.42120
30
0.00000
11
7.34204
21
0.47420
31
0.00000
0
LINE
8
1
62
5
10
7.34204
20
0.47420
30
0.00000
11
7.34319
21
0.47741
31
0.00000
0
LINE
8
1
62
5
10
7.34319
20
0.47741
30
0.00000
11
7.34517
21
0.48840
31
0.00000
0
ARC
8
1
62
5
10
6.72425
20
0.65937
30
0.00000
40
0.64403
50
344.60510
51
349.42991
0
ARC
8
1
62
5
10
7.32314
20
0.55186
30
0.00000
40
0.03582
50
342.73806
51
354.52292
0
ARC
8
1
62
5
10
7.52642
20
0.54476
30
0.00000
40
0.16766
50
175.94149
51
178.74160
0
ARC
8
1
62
5
10
7.39774
20
0.55730
30
0.00000
40
0.03857
50
163.88293
51
180.99640
0
ARC
8
1
62
5
10
7.31922
20
0.57978
30
0.00000
40
0.04311
50
344.15303
51
353.97327
0
LINE
8
1
62
5
10
7.36209
20
0.57525
30
0.00000
11
7.36209
21
0.58753
31
0.00000
0
ARC
8
1
62
5
10
6.86021
20
0.63325
30
0.00000
40
0.50396
50
354.79511
51
384.66996
0
LINE
8
1
62
5
10
7.31817
20
0.84359
30
0.00000
11
7.31470
21
0.85162
31
0.00000
0
ARC
8
1
62
5
10
8.21902
20
1.30731
30
0.00000
40
1.01264
50
200.93138
51
206.74387
0
LINE
8
1
62
5
10
7.27320
20
0.94555
30
0.00000
11
7.22017
21
1.08257
31
0.00000
0
ARC
8
1
62
5
10
7.25235
20
1.09684
30
0.00000
40
0.03520
50
198.42135
51
203.92158
0
ARC
8
1
62
5
10
7.38109
20
1.13985
30
0.00000
40
0.17093
50
195.97021
51
198.46193
0
ARC
8
1
62
5
10
7.15146
20
1.07426
30
0.00000
40
0.06788
50
15.87105
51
19.30725
0
ARC
8
1
62
5
10
7.17914
20
1.08393
30
0.00000
40
0.03855
50
19.34918
51
23.90660
0
LINE
8
1
62
5
10
7.21439
20
1.09955
30
0.00000
11
7.20879
21
1.11190
31
0.00000
0
ARC
8
1
62
5
10
6.66807
20
0.92322
30
0.00000
40
0.57270
50
19.23621
51
26.16027
0
ARC
8
1
62
5
10
7.39049
20
1.26184
30
0.00000
40
0.22548
50
196.11310
51
202.45616
0
ARC
8
1
62
5
10
6.36623
20
0.89578
30
0.00000
40
0.86277
50
20.59449
51
23.81916
0
ARC
8
1
62
5
10
7.18132
20
1.25554
30
0.00000
40
0.02819
50
188.76198
51
203.70842
0
LINE
8
1
62
5
10
7.15346
20
1.25125
30
0.00000
11
7.15117
21
1.26270
31
0.00000
0
LINE
8
1
62
5
10
7.15117
20
1.26270
30
0.00000
11
7.14154
21
1.28910
31
0.00000
0
LINE
8
1
62
5
10
7.14154
20
1.28910
30
0.00000
11
7.09631
21
1.41155
31
0.00000
0
ARC
8
1
62
5
10
9.28348
20
2.25279
30
0.00000
40
2.34337
50
198.61499
51
201.03803
0
ARC
8
1
62
5
10
5.07379
20
0.83717
30
0.00000
40
2.09796
50
18.55480
51
21.35507
0
ARC
8
1
62
5
10
5.35959
20
1.10777
30
0.00000
40
1.73955
50
16.47640
51
19.09371
0
ARC
8
1
62
5
10
6.61802
20
1.54444
30
0.00000
40
0.40751
50
18.95281
51
31.82723
0
ARC
8
1
62
5
10
6.71861
20
1.62962
30
0.00000
40
0.27780
50
27.83826
51
33.25010
0
ARC
8
1
62
5
10
7.25629
20
2.04228
30
0.00000
40
0.40127
50
214.99551
51
220.44911
0
ARC
8
1
62
5
10
6.67396
20
1.58458
30
0.00000
40
0.34074
50
41.90064
51
44.55006
0
ARC
8
1
62
5
10
6.69441
20
1.64274
30
0.00000
40
0.28665
50
39.12587
51
49.82843
0
ARC
8
1
62
5
10
6.70583
20
1.69520
30
0.00000
40
0.24051
50
43.83396
51
55.18553
0
ARC
8
1
62
5
10
7.65932
20
3.90361
30
0.00000
40
2.17027
50
244.58014
51
247.90923
0
LINE
8
1
62
5
10
6.72774
20
1.94345
30
0.00000
11
6.72150
21
1.94523
31
0.00000
0
ARC
8
1
62
5
10
6.86865
20
2.55880
30
0.00000
40
0.63097
50
253.60738
51
256.51364
0
ARC
8
1
62
5
10
6.41085
20
1.17480
30
0.00000
40
0.82740
50
70.23999
51
73.83308
0
ARC
8
1
62
5
10
6.68665
20
2.17283
30
0.00000
40
0.20836
50
254.88198
51
257.40855
0
ARC
8
1
62
5
10
6.63375
20
1.97710
30
0.00000
40
0.00561
50
239.63247
51
255.06927
0
ARC
8
1
62
5
10
6.58811
20
1.90509
30
0.00000
40
0.07965
50
57.49175
51
71.55883
0
ARC
8
1
62
5
10
6.68357
20
2.24281
30
0.00000
40
0.27141
50
244.92916
51
254.99775
0
ARC
8
1
62
5
10
6.47369
20
1.81108
30
0.00000
40
0.20870
50
62.96312
51
71.19706
0
LINE
8
1
62
5
10
6.54096
20
2.00864
30
0.00000
11
6.53687
21
2.00966
31
0.00000
0
ARC
8
1
62
5
10
6.52381
20
1.95307
30
0.00000
40
0.05808
50
77.00592
51
80.08630
0
ARC
8
1
62
5
10
6.53768
20
2.03279
30
0.00000
40
0.02284
50
246.52886
51
260.25365
0
ARC
8
1
62
5
10
6.53529
20
2.02725
30
0.00000
40
0.01681
50
230.44193
51
246.45530
0
ARC
8
1
62
5
10
6.45128
20
1.91219
30
0.00000
40
0.12570
50
54.32095
51
69.07033
0
ARC
8
1
62
5
10
7.18488
20
3.52074
30
0.00000
40
1.64251
50
240.76995
51
245.20991
0
LINE
8
1
62
5
10
6.38281
20
2.08738
30
0.00000
11
6.31127
21
2.13034
31
0.00000
0
ARC
8
1
62
5
10
6.39472
20
2.32150
30
0.00000
40
0.20858
50
240.11767
51
246.41684
0
LINE
8
1
62
5
10
6.29080
20
2.14065
30
0.00000
11
6.26226
21
2.16066
31
0.00000
0
ARC
8
1
62
5
10
6.54473
20
2.63232
30
0.00000
40
0.54978
50
235.75635
51
239.08377
0
LINE
8
1
62
5
10
6.23536
20
2.17785
30
0.00000
11
6.21720
21
2.19056
31
0.00000
0
ARC
8
1
62
5
10
6.14930
20
2.11477
30
0.00000
40
0.10175
50
48.14144
51
58.82065
0
ARC
8
1
62
5
10
6.28647
20
2.32362
30
0.00000
40
0.14823
50
226.73114
51
235.25028
0
ARC
8
1
62
5
10
6.10753
20
2.11659
30
0.00000
40
0.12571
50
52.02821
51
59.27066
0
ARC
8
1
62
5
10
6.39384
20
2.51552
30
0.00000
40
0.36596
50
230.17856
51
232.63852
0
LINE
8
1
62
5
10
6.15948
20
2.23445
30
0.00000
11
6.14638
21
2.24344
31
0.00000
0
LINE
8
1
62
5
10
6.14638
20
2.24344
30
0.00000
11
6.12051
21
2.26630
31
0.00000
0
ARC
8
1
62
5
10
6.42119
20
2.67658
30
0.00000
40
0.50866
50
225.25836
51
233.76313
0
ARC
8
1
62
5
10
5.97333
20
2.22708
30
0.00000
40
0.12588
50
44.48206
51
66.25263
0
ARC
8
1
62
5
10
6.01567
20
2.32626
30
0.00000
40
0.01808
50
62.49753
51
109.65298
0
LINE
8
1
62
5
10
6.00959
20
2.34329
30
0.00000
11
6.00660
21
2.34165
31
0.00000
0
LINE
8
1
62
5
10
6.00660
20
2.34165
30
0.00000
11
5.99648
21
2.33763
31
0.00000
0
ARC
8
1
62
5
10
6.63601
20
2.31812
30
0.00000
40
0.63983
50
178.25301
51
192.70561
0
ARC
8
1
62
5
10
5.26311
20
1.91325
30
0.00000
40
0.79396
50
15.96618
51
19.43226
0
ARC
8
1
62
5
10
7.55391
20
2.76253
30
0.00000
40
1.65262
50
202.44203
51
205.17103
0
LINE
8
1
62
5
10
6.05822
20
2.05964
30
0.00000
11
6.05958
21
2.05643
31
0.00000
0
LINE
8
1
62
5
10
6.05958
20
2.05643
30
0.00000
11
6.06303
21
2.05097
31
0.00000
0
ARC
8
1
62
5
10
5.54161
20
1.74578
30
0.00000
40
0.60417
50
20.36098
51
30.34070
0
ARC
8
1
62
5
10
5.44801
20
1.72877
30
0.00000
40
0.69803
50
9.16845
51
18.99699
0
ARC
8
1
62
5
10
7.23296
20
1.93685
30
0.00000
40
1.10011
50
185.05134
51
187.45639
0
ARC
8
1
62
5
10
6.08745
20
1.78228
30
0.00000
40
0.05597
50
357.56492
51
372.18287
0
ARC
8
1
62
5
10
6.19041
20
1.77569
30
0.00000
40
0.04723
50
174.87988
51
185.25430
0
LINE
8
1
62
5
10
6.14338
20
1.77136
30
0.00000
11
6.14384
21
1.76832
31
0.00000
0
ARC
8
1
62
5
10
6.06912
20
1.76071
30
0.00000
40
0.07511
50
352.24492
51
365.81851
0
ARC
8
1
62
5
10
5.19005
20
1.77508
30
0.00000
40
0.95381
50
355.35335
51
358.52760
0
ARC
8
1
62
5
10
5.93410
20
1.69928
30
0.00000
40
0.20662
50
348.54560
51
359.59171
0
ARC
8
1
62
5
10
5.66505
20
1.72473
30
0.00000
40
0.47622
50
336.26418
51
351.97562
0
LINE
8
1
62
5
10
6.10099
20
1.53304
30
0.00000
11
5.98878
21
1.31616
31
0.00000
0
LINE
8
1
62
5
10
5.98878
20
1.31616
30
0.00000
11
5.89856
21
1.12599
31
0.00000
0
LINE
8
1
62
5
10
5.89856
20
1.12599
30
0.00000
11
5.78365
21
0.86053
31
0.00000
0
ARC
8
1
62
5
10
11.57316
20
-1.44761
30
0.00000
40
6.23265
50
158.26405
51
162.62815
0
LINE
8
1
62
5
10
5.62480
20
0.41329
30
0.00000
11
5.59508
21
0.31455
31
0.00000
0
ARC
8
1
62
5
10
5.48071
20
0.29601
30
0.00000
40
0.11586
50
277.30925
51
369.21061
0
ARC
8
1
62
5
10
4.91752
20
0.62257
30
0.00000
40
0.72727
50
303.90389
51
322.62327
0
ARC
8
1
62
5
10
5.15121
20
1.04623
30
0.00000
40
1.04157
50
261.79931
51
279.50395
0
ARC
8
1
62
5
10
5.03123
20
0.05673
30
0.00000
40
0.05033
50
143.70070
51
235.38343
0
ARC
8
1
62
5
10
5.71167
20
-0.08162
30
0.00000
40
0.74034
50
161.74597
51
166.87288
0
ARC
8
1
62
5
10
5.86034
20
-0.21321
30
0.00000
40
0.92608
50
121.89377
51
156.88936
0
ARC
8
1
62
5
10
5.44086
20
0.50106
30
0.00000
40
0.10028
50
122.60861
51
134.11929
0
ARC
8
1
62
5
10
5.40531
20
0.56299
30
0.00000
40
0.02916
50
109.83288
51
129.36229
0
ARC
8
1
62
5
10
5.38559
20
0.61782
30
0.00000
40
0.02910
50
289.73831
51
302.99518
0
LINE
8
1
62
5
10
5.40144
20
0.59341
30
0.00000
11
5.40379
21
0.59552
31
0.00000
0
ARC
8
1
62
5
10
5.36690
20
0.63869
30
0.00000
40
0.05679
50
310.51072
51
316.86196
0
ARC
8
1
62
5
10
5.34806
20
0.66324
30
0.00000
40
0.08747
50
313.56253
51
328.02561
0
ARC
8
1
62
5
10
5.13774
20
0.78788
30
0.00000
40
0.33193
50
329.00005
51
343.96106
0
ARC
8
1
62
5
10
4.30785
20
1.14058
30
0.00000
40
1.23186
50
338.85311
51
342.19008
0
ARC
8
1
62
5
10
4.08635
20
1.31787
30
0.00000
40
1.50037
50
338.32835
51
343.83302
0
ARC
8
1
62
5
10
5.55539
20
0.89351
30
0.00000
40
0.02877
50
146.79331
51
166.73247
0
ARC
8
1
62
5
10
5.50532
20
0.92615
30
0.00000
40
0.03100
50
326.98874
51
339.02166
0
LINE
8
1
62
5
10
5.53427
20
0.91505
30
0.00000
11
5.57917
21
1.04451
31
0.00000
0
ARC
8
1
62
5
10
3.66431
20
1.75872
30
0.00000
40
2.04372
50
339.54535
51
343.11182
0
ARC
8
1
62
5
10
4.17719
20
1.73557
30
0.00000
40
1.55142
50
338.42228
51
343.35675
0
LINE
8
1
62
5
10
5.66362
20
1.29122
30
0.00000
11
5.67244
21
1.31298
31
0.00000
0
ARC
8
1
62
5
10
6.53059
20
1.05487
30
0.00000
40
0.89613
50
156.51272
51
163.26024
0
ARC
8
1
62
5
10
5.54168
20
1.48600
30
0.00000
40
0.18268
50
336.10950
51
343.57871
0
ARC
8
1
62
5
10
5.38387
20
1.57759
30
0.00000
40
0.36254
50
336.72840
51
346.54193
0
LINE
8
1
62
5
10
5.73645
20
1.49322
30
0.00000
11
5.74033
21
1.51099
31
0.00000
0
ARC
8
1
62
5
10
5.61019
20
1.55277
30
0.00000
40
0.13669
50
342.20146
51
354.48726
0
LINE
8
1
62
5
10
5.74624
20
1.53964
30
0.00000
11
5.74892
21
1.55420
31
0.00000
0
ARC
8
1
62
5
10
5.85954
20
1.54599
30
0.00000
40
0.11092
50
167.87629
51
175.75720
0
ARC
8
1
62
5
10
5.71676
20
1.57924
30
0.00000
40
0.03574
50
343.83913
51
362.43987
0
ARC
8
1
62
5
10
5.87026
20
1.58480
30
0.00000
40
0.11786
50
170.14492
51
181.96308
0
ARC
8
1
62
5
10
5.72100
20
1.61441
30
0.00000
40
0.03446
50
344.09256
51
363.36963
0
LINE
8
1
62
5
10
5.75540
20
1.61644
30
0.00000
11
5.75254
21
1.68681
31
0.00000
0
ARC
8
1
62
5
10
5.71340
20
1.68536
30
0.00000
40
0.03917
50
2.12104
51
19.05725
0
ARC
8
1
62
5
10
5.79612
20
1.71344
30
0.00000
40
0.04819
50
189.76841
51
198.49361
0
LINE
8
1
62
5
10
5.74863
20
1.70526
30
0.00000
11
5.74660
21
1.72191
31
0.00000
0
ARC
8
1
62
5
10
5.60219
20
1.68763
30
0.00000
40
0.14843
50
13.35511
51
17.56948
0
ARC
8
1
62
5
10
5.41445
20
1.66467
30
0.00000
40
0.33614
50
11.62909
51
21.00643
0
ARC
8
1
62
5
10
5.55913
20
1.74268
30
0.00000
40
0.17438
50
14.10302
51
23.50241
0
ARC
8
1
62
5
10
5.95501
20
1.92863
30
0.00000
40
0.26312
50
199.49901
51
206.25789
0
LINE
8
1
62
5
10
5.70698
20
1.84080
30
0.00000
11
5.69367
21
1.86813
31
0.00000
0
ARC
8
1
62
5
10
5.61457
20
1.83996
30
0.00000
40
0.08397
50
19.60253
51
31.20223
0
ARC
8
1
62
5
10
5.89548
20
2.03608
30
0.00000
40
0.25887
50
208.94894
51
216.12633
0
ARC
8
1
62
5
10
5.64879
20
1.89828
30
0.00000
40
0.02372
50
31.78880
51
43.12475
0
ARC
8
1
62
5
10
5.65405
20
1.90319
30
0.00000
40
0.01654
50
43.16588
51
56.77361
0
ARC
8
1
62
5
10
5.66637
20
1.92198
30
0.00000
40
0.00594
50
211.15314
51
236.68501
0
ARC
8
1
62
5
10
5.68714
20
1.93459
30
0.00000
40
0.03023
50
199.99222
51
211.23397
0
ARC
8
1
62
5
10
5.64309
20
1.91941
30
0.00000
40
0.01637
50
17.18541
51
37.94267
0
LINE
8
1
62
5
10
5.65600
20
1.92948
30
0.00000
11
5.65042
21
1.93717
31
0.00000
0
ARC
8
1
62
5
10
5.23379
20
1.61435
30
0.00000
40
0.52706
50
37.76999
51
40.17946
0
ARC
8
1
62
5
10
5.57704
20
1.91388
30
0.00000
40
0.07194
50
34.28030
51
44.40646
0
ARC
8
1
62
5
10
5.68686
20
2.02867
30
0.00000
40
0.08700
50
217.41155
51
227.80587
0
ARC
8
1
62
5
10
5.56152
20
1.93674
30
0.00000
40
0.06848
50
34.79439
51
55.91575
0
ARC
8
1
62
5
10
5.62412
20
2.02698
30
0.00000
40
0.04136
50
227.71354
51
234.15851
0
ARC
8
1
62
5
10
5.62607
20
2.02902
30
0.00000
40
0.04418
50
221.37498
51
227.61394
0
ARC
8
1
62
5
10
5.54170
20
1.95569
30
0.00000
40
0.06761
50
40.74768
51
48.73615
0
ARC
8
1
62
5
10
5.69119
20
2.13395
30
0.00000
40
0.16507
50
222.04351
51
230.54082
0
ARC
8
1
62
5
10
5.92780
20
2.80152
30
0.00000
40
0.85702
50
220.53303
51
245.22118
0
ARC
8
1
62
5
10
4.79180
20
1.92186
30
0.00000
40
0.58225
50
33.65796
51
83.33376
0
ARC
8
1
62
5
10
4.58025
20
4.17752
30
0.00000
40
1.70041
50
267.94935
51
279.44858
0
LINE
8
1
62
5
10
4.51940
20
2.47819
30
0.00000
11
4.45200
21
2.48084
31
0.00000
0
ARC
8
1
62
5
10
4.57293
20
4.31036
30
0.00000
40
1.83351
50
262.17044
51
266.21820
0
ARC
8
1
62
5
10
4.79670
20
5.47163
30
0.00000
40
3.01511
50
258.48859
51
260.96388
0
ARC
8
1
62
5
10
3.75641
20
0.77462
30
0.00000
40
1.79690
50
75.87232
51
79.00426
0
ARC
8
1
62
5
10
4.10302
20
2.56645
30
0.00000
40
0.02819
50
253.94966
51
262.08108
0
ARC
8
1
62
5
10
4.09964
20
2.55462
30
0.00000
40
0.01588
50
243.06567
51
253.89914
0
ARC
8
1
62
5
10
4.05899
20
2.48120
30
0.00000
40
0.06805
50
60.55806
51
74.58415
0
LINE
8
1
62
5
10
4.07708
20
2.54680
30
0.00000
11
4.05604
21
2.55187
31
0.00000
0
ARC
8
1
62
5
10
3.08206
20
-0.01915
30
0.00000
40
2.74932
50
69.25181
51
71.88423
0
ARC
8
1
62
5
10
3.99324
20
2.77075
30
0.00000
40
0.18560
50
247.08469
51
252.33921
0
ARC
8
1
62
5
10
3.81271
20
2.40794
30
0.00000
40
0.22029
50
60.56421
51
63.92696
0
LINE
8
1
62
5
10
3.90953
20
2.60581
30
0.00000
11
3.84935
21
2.62880
31
0.00000
0
ARC
8
1
62
5
10
4.10519
20
3.20934
30
0.00000
40
0.63441
50
243.54510
51
246.21756
0
ARC
8
1
62
5
10
3.84878
20
2.71087
30
0.00000
40
0.07429
50
234.29707
51
249.32905
0
ARC
8
1
62
5
10
3.76592
20
2.60094
30
0.00000
40
0.06341
50
51.46064
51
65.84444
0
ARC
8
1
62
5
10
3.87386
20
2.87505
30
0.00000
40
0.23127
50
245.06316
51
249.23653
0
ARC
8
1
62
5
10
3.43363
20
2.08460
30
0.00000
40
0.67433
50
59.45334
51
62.74492
0
ARC
8
1
62
5
10
4.10621
20
3.40842
30
0.00000
40
0.81057
50
237.40666
51
243.33419
0
ARC
8
1
62
5
10
3.60049
20
2.53282
30
0.00000
40
0.20469
50
70.27329
51
143.76603
0
LINE
8
1
62
5
10
3.43538
20
2.65381
30
0.00000
11
3.40057
21
2.55361
31
0.00000
0
LINE
8
1
62
5
10
3.40057
20
2.55361
30
0.00000
11
3.35842
21
2.41721
31
0.00000
0
ARC
8
1
62
5
10
3.46579
20
2.38107
30
0.00000
40
0.11329
50
161.39716
51
170.45267
0
LINE
8
1
62
5
10
3.35407
20
2.39986
30
0.00000
11
3.29813
21
2.19951
31
0.00000
0
ARC
8
1
62
5
10
3.13863
20
2.22659
30
0.00000
40
0.16178
50
339.13176
51
350.36435
0
ARC
8
1
62
5
10
3.27852
20
2.17376
30
0.00000
40
0.01226
50
318.05808
51
336.93394
0
ARC
8
1
62
5
10
3.27129
20
2.18019
30
0.00000
40
0.02193
50
304.11145
51
318.20028
0
ARC
8
1
62
5
10
3.28485
20
2.16017
30
0.00000
40
0.00225
50
124.19412
51
176.17189
0
ARC
8
1
62
5
10
3.28987
20
2.15983
30
0.00000
40
0.00727
50
176.12339
51
204.34180
0
ARC
8
1
62
5
10
3.26897
20
2.14968
30
0.00000
40
0.01596
50
4.55874
51
26.61007
0
ARC
8
1
62
5
10
3.24337
20
2.15016
30
0.00000
40
0.04152
50
350.94378
51
361.09611
0
LINE
8
1
62
5
10
3.28437
20
2.14362
30
0.00000
11
3.28357
21
2.14017
31
0.00000
0
ARC
8
1
62
5
10
3.14706
20
2.16185
30
0.00000
40
0.13823
50
343.47235
51
350.97528
0
ARC
8
1
62
5
10
3.36480
20
2.08649
30
0.00000
40
0.09254
50
157.07927
51
167.80977
0
ARC
8
1
62
5
10
3.09257
20
2.14078
30
0.00000
40
0.18507
50
343.59805
51
349.17793
0
LINE
8
1
62
5
10
3.27011
20
2.08852
30
0.00000
11
3.24945
21
1.99666
31
0.00000
0
ARC
8
1
62
5
10
3.37641
20
1.95607
30
0.00000
40
0.13329
50
162.27029
51
173.26118
0
ARC
8
1
62
5
10
3.16373
20
1.97322
30
0.00000
40
0.08033
50
350.36014
51
358.92226
0
LINE
8
1
62
5
10
3.24292
20
1.95977
30
0.00000
11
3.21085
21
1.81015
31
0.00000
0
LINE
8
1
62
5
10
3.21085
20
1.81015
30
0.00000
11
3.20721
21
1.79208
31
0.00000
0
ARC
8
1
62
5
10
2.89664
20
1.83066
30
0.00000
40
0.31296
50
347.43341
51
352.91857
0
ARC
8
1
62
5
10
3.31105
20
1.73527
30
0.00000
40
0.11232
50
165.93047
51
175.54517
0
ARC
8
1
62
5
10
2.99455
20
1.77844
30
0.00000
40
0.20740
50
347.39112
51
350.43743
0
ARC
8
1
62
5
10
3.43256
20
1.67866
30
0.00000
40
0.24183
50
166.97255
51
173.17388
0
ARC
8
1
62
5
10
3.11956
20
1.70766
30
0.00000
40
0.07288
50
350.35380
51
359.79362
0
LINE
8
1
62
5
10
3.19141
20
1.69545
30
0.00000
11
3.17980
21
1.63373
31
0.00000
0
LINE
8
1
62
5
10
3.17980
20
1.63373
30
0.00000
11
3.17625
21
1.61138
31
0.00000
0
ARC
8
1
62
5
10
3.21455
20
1.59998
30
0.00000
40
0.03996
50
163.42722
51
179.95999
0
ARC
8
1
62
5
10
3.11073
20
1.59969
30
0.00000
40
0.06386
50
346.32315
51
360.28736
0
ARC
8
1
62
5
10
3.25166
20
1.56616
30
0.00000
40
0.08101
50
166.85040
51
174.87320
0
ARC
8
1
62
5
10
2.82906
20
1.62004
30
0.00000
40
0.34509
50
349.12550
51
352.23182
0
ARC
8
1
62
5
10
3.04780
20
1.56444
30
0.00000
40
0.12053
50
348.22833
51
355.47958
0
ARC
8
1
62
5
10
3.20955
20
1.52798
30
0.00000
40
0.04534
50
164.81649
51
179.37467
0
ARC
8
1
62
5
10
3.09748
20
1.52861
30
0.00000
40
0.06673
50
346.51345
51
359.87719
0
ARC
8
1
62
5
10
3.20490
20
1.50158
30
0.00000
40
0.04405
50
164.90562
51
174.54010
0
ARC
8
1
62
5
10
3.04667
20
1.51467
30
0.00000
40
0.11473
50
347.93197
51
355.55275
0
ARC
8
1
62
5
10
3.19932
20
1.47923
30
0.00000
40
0.04205
50
164.19333
51
179.88524
0
ARC
8
1
62
5
10
3.08968
20
1.47916
30
0.00000
40
0.06759
50
346.93249
51
360.12636
0
ARC
8
1
62
5
10
3.20054
20
1.45191
30
0.00000
40
0.04659
50
165.11320
51
179.27560
0
ARC
8
1
62
5
10
3.08297
20
1.45288
30
0.00000
40
0.07099
50
347.13908
51
359.69139
0
ARC
8
1
62
5
10
3.19929
20
1.42504
30
0.00000
40
0.04862
50
165.66199
51
179.22128
0
ARC
8
1
62
5
10
3.07995
20
1.42632
30
0.00000
40
0.07072
50
346.89193
51
359.49871
0
ARC
8
1
62
5
10
3.19554
20
1.39825
30
0.00000
40
0.04824
50
165.55755
51
179.22678
0
ARC
8
1
62
5
10
3.07803
20
1.39939
30
0.00000
40
0.06929
50
346.72367
51
359.59372
0
ARC
8
1
62
5
10
3.18995
20
1.37154
30
0.00000
40
0.04606
50
164.98142
51
179.30854
0
ARC
8
1
62
5
10
3.07276
20
1.37249
30
0.00000
40
0.07113
50
347.15129
51
359.68764
0
ARC
8
1
62
5
10
3.26409
20
1.33547
30
0.00000
40
0.12380
50
170.14193
51
179.34915
0
ARC
8
1
62
5
10
3.09980
20
1.33603
30
0.00000
40
0.04050
50
344.84346
51
361.20248
0
LINE
8
1
62
5
10
3.13889
20
1.32544
30
0.00000
11
3.13543
21
1.30306
31
0.00000
0
ARC
8
1
62
5
10
3.17868
20
1.29180
30
0.00000
40
0.04469
50
165.40430
51
174.82396
0
LINE
8
1
62
5
10
3.13417
20
1.29583
30
0.00000
11
3.13386
21
1.27443
31
0.00000
0
ARC
8
1
62
5
10
3.09428
20
1.27310
30
0.00000
40
0.03960
50
345.15151
51
361.92714
0
ARC
8
1
62
5
10
3.24686
20
1.24240
30
0.00000
40
0.11613
50
169.80824
51
179.62541
0
ARC
8
1
62
5
10
3.08721
20
1.24235
30
0.00000
40
0.04353
50
345.86658
51
361.06840
0
ARC
8
1
62
5
10
3.16956
20
1.22125
30
0.00000
40
0.04148
50
165.38398
51
181.39909
0
LINE
8
1
62
5
10
3.12809
20
1.22024
30
0.00000
11
3.12470
21
1.17183
31
0.00000
0
ARC
8
1
62
5
10
3.08498
20
1.17056
30
0.00000
40
0.03974
50
345.13174
51
361.83711
0
ARC
8
1
62
5
10
3.23762
20
1.13982
30
0.00000
40
0.11606
50
169.80505
51
179.62861
0
ARC
8
1
62
5
10
3.07780
20
1.13978
30
0.00000
40
0.04377
50
345.90842
51
361.03786
0
ARC
8
1
62
5
10
3.16497
20
1.11798
30
0.00000
40
0.04609
50
166.01592
51
175.13655
0
LINE
8
1
62
5
10
3.11905
20
1.12189
30
0.00000
11
3.11864
21
1.09625
31
0.00000
0
ARC
8
1
62
5
10
2.98778
20
1.11416
30
0.00000
40
0.13208
50
347.48292
51
352.20855
0
ARC
8
1
62
5
10
3.23661
20
1.07411
30
0.00000
40
0.12043
50
174.55813
51
180.38963
0
ARC
8
1
62
5
10
2.98565
20
1.06509
30
0.00000
40
0.13078
50
350.92418
51
363.59487
0
ARC
8
1
62
5
10
3.15877
20
1.03345
30
0.00000
40
0.04533
50
165.94611
51
175.23193
0
LINE
8
1
62
5
10
3.11360
20
1.03722
30
0.00000
11
3.11357
21
1.00695
31
0.00000
0
ARC
8
1
62
5
10
3.07284
20
1.00547
30
0.00000
40
0.04076
50
345.79189
51
362.07475
0
ARC
8
1
62
5
10
3.15593
20
0.98459
30
0.00000
40
0.04492
50
165.97988
51
175.34463
0
LINE
8
1
62
5
10
3.11116
20
0.98823
30
0.00000
11
3.11127
21
0.95352
31
0.00000
0
ARC
8
1
62
5
10
3.07113
20
0.95192
30
0.00000
40
0.04017
50
345.77346
51
362.28548
0
ARC
8
1
62
5
10
3.15324
20
0.93129
30
0.00000
40
0.04449
50
166.01286
51
175.46586
0
LINE
8
1
62
5
10
3.10889
20
0.93481
30
0.00000
11
3.10903
21
0.90010
31
0.00000
0
ARC
8
1
62
5
10
3.06794
20
0.89870
30
0.00000
40
0.04111
50
345.81329
51
361.95042
0
ARC
8
1
62
5
10
3.15086
20
0.87789
30
0.00000
40
0.04437
50
166.00012
51
175.47860
0
LINE
8
1
62
5
10
3.10662
20
0.88138
30
0.00000
11
3.10691
21
0.84223
31
0.00000
0
ARC
8
1
62
5
10
3.06489
20
0.84055
30
0.00000
40
0.04205
50
346.54708
51
362.29983
0
ARC
8
1
62
5
10
3.15652
20
0.81913
30
0.00000
40
0.05205
50
167.08921
51
175.15672
0
LINE
8
1
62
5
10
3.10466
20
0.82353
30
0.00000
11
3.10635
21
0.74888
31
0.00000
0
ARC
8
1
62
5
10
3.07570
20
0.74660
30
0.00000
40
0.03073
50
349.29274
51
364.26425
0
ARC
8
1
62
5
10
3.26871
20
0.71394
30
0.00000
40
0.16503
50
170.60286
51
184.98661
0
ARC
8
1
62
5
10
2.97001
20
0.68921
30
0.00000
40
0.13470
50
352.09099
51
364.42381
0
ARC
8
1
62
5
10
3.14385
20
0.66101
30
0.00000
40
0.04156
50
166.55284
51
182.49201
0
LINE
8
1
62
5
10
3.10233
20
0.65920
30
0.00000
11
3.10467
21
0.57517
31
0.00000
0
ARC
8
1
62
5
10
2.99205
20
0.56362
30
0.00000
40
0.11321
50
351.17400
51
365.85489
0
ARC
8
1
62
5
10
3.13893
20
0.53685
30
0.00000
40
0.03625
50
164.97445
51
183.28312
0
LINE
8
1
62
5
10
3.10274
20
0.53477
30
0.00000
11
3.10764
21
0.41408
31
0.00000
0
ARC
8
1
62
5
10
2.75752
20
0.34588
30
0.00000
40
0.35670
50
337.27038
51
371.02375
0
ARC
8
1
62
5
10
3.31742
20
-0.10909
30
0.00000
40
0.39230
50
126.05660
51
151.04170
0
ARC
8
1
62
5
10
2.89710
20
0.07716
30
0.00000
40
0.07715
50
245.51668
51
362.74163
0
ARC
8
1
62
5
10
2.70201
20
2.30875
30
0.00000
40
2.30758
50
265.72197
51
274.05362
0
LINE
8
1
62
5
10
2.52987
20
0.00760
30
0.00000
11
2.52584
21
0.00752
31
0.00000
0
ARC
8
1
62
5
10
2.52146
20
0.08877
30
0.00000
40
0.08137
50
252.80297
51
273.08802
0
LINE
8
1
62
5
10
2.49740
20
0.01104
30
0.00000
11
2.49553
21
0.01164
31
0.00000
0
ARC
8
1
62
5
10
2.49736
20
0.01518
30
0.00000
40
0.00398
50
213.03852
51
242.66504
0
ARC
8
1
62
5
10
2.49976
20
0.01677
30
0.00000
40
0.00686
50
190.68837
51
213.17993
0
ARC
8
1
62
5
10
2.54933
20
0.02280
30
0.00000
40
0.05678
50
126.79384
51
187.39317
0
ARC
8
1
62
5
10
2.47555
20
0.12542
30
0.00000
40
0.06963
50
304.83345
51
322.97698
0
LINE
8
1
62
5
10
2.53114
20
0.08350
30
0.00000
11
2.54707
21
0.10722
31
0.00000
0
ARC
8
1
62
5
10
2.67560
20
0.03784
30
0.00000
40
0.14606
50
129.29502
51
151.64075
0
ARC
8
1
62
5
10
2.54577
20
0.20655
30
0.00000
40
0.06703
50
303.84334
51
317.38834
0
ARC
8
1
62
5
10
2.73339
20
0.04079
30
0.00000
40
0.18335
50
131.09734
51
138.96067
0
ARC
8
1
62
5
10
2.57714
20
0.22225
30
0.00000
40
0.05613
50
309.53493
51
313.27794
0
ARC
8
1
62
5
10
2.52002
20
0.28281
30
0.00000
40
0.13938
50
313.30773
51
315.68219
0
LINE
8
1
62
5
10
2.61974
20
0.18543
30
0.00000
11
2.62191
21
0.18771
31
0.00000
0
ARC
8
1
62
5
10
2.78737
20
-0.01369
30
0.00000
40
0.26065
50
125.90331
51
129.40495
0
LINE
8
1
62
5
10
2.63452
20
0.19744
30
0.00000
11
2.63595
21
0.19854
31
0.00000
0
ARC
8
1
62
5
10
1.91891
20
1.01011
30
0.00000
40
1.08296
50
311.46148
51
324.76798
0
LINE
8
1
62
5
10
2.80349
20
0.38536
30
0.00000
11
2.80977
21
0.39451
31
0.00000
0
ARC
8
1
62
5
10
2.78877
20
0.41019
30
0.00000
40
0.02621
50
323.23512
51
333.60060
0
ARC
8
1
62
5
10
2.79496
20
0.40710
30
0.00000
40
0.01929
50
333.64857
51
345.73455
0
ARC
8
1
62
5
10
2.83921
20
0.39585
30
0.00000
40
0.02636
50
152.90041
51
165.72326
0
ARC
8
1
62
5
10
2.82148
20
0.40492
30
0.00000
40
0.00645
50
126.73590
51
152.84684
0
ARC
8
1
62
5
10
2.80374
20
0.42859
30
0.00000
40
0.02313
50
306.86828
51
314.37943
0
ARC
8
1
62
5
10
2.80976
20
0.42249
30
0.00000
40
0.01457
50
314.23669
51
323.71390
0
ARC
8
1
62
5
10
2.69079
20
0.50697
30
0.00000
40
0.16047
50
324.54000
51
330.18978
0
LINE
8
1
62
5
10
2.83003
20
0.42719
30
0.00000
11
2.87092
21
0.51755
31
0.00000
0
ARC
8
1
62
5
10
2.46665
20
0.66808
30
0.00000
40
0.43139
50
339.57692
51
344.16215
0
ARC
8
1
62
5
10
2.63971
20
0.65396
30
0.00000
40
0.26320
50
336.81860
51
351.37041
0
ARC
8
1
62
5
10
2.82671
20
0.63440
30
0.00000
40
0.07588
50
344.76598
51
353.05662
0
ARC
8
1
62
5
10
3.16687
20
0.61078
30
0.00000
40
0.26523
50
173.38875
51
176.87770
0
ARC
8
1
62
5
10
2.79906
20
0.66225
30
0.00000
40
0.10643
50
348.65774
51
374.58272
0
ARC
8
1
62
5
10
3.25491
20
0.81461
30
0.00000
40
0.37453
50
196.30658
51
199.58858
0
ARC
8
1
62
5
10
2.81120
20
0.69573
30
0.00000
40
0.08536
50
9.25220
51
25.95618
0
ARC
8
1
62
5
10
2.89921
20
0.73867
30
0.00000
40
0.01257
50
187.44712
51
206.35018
0
ARC
8
1
62
5
10
2.90400
20
0.73929
30
0.00000
40
0.01740
50
171.38647
51
187.43368
0
ARC
8
1
62
5
10
2.85915
20
0.74520
30
0.00000
40
0.02785
50
353.19781
51
365.45298
0
LINE
8
1
62
5
10
2.88687
20
0.74784
30
0.00000
11
2.88544
21
0.75419
31
0.00000
0
ARC
8
1
62
5
10
4.37434
20
1.10566
30
0.00000
40
1.52983
50
190.68056
51
193.28232
0
ARC
8
1
62
5
10
3.07738
20
0.87434
30
0.00000
40
0.21286
50
186.75908
51
194.19515
0
LINE
8
1
62
5
10
2.86600
20
0.84928
30
0.00000
11
2.86284
21
0.86364
31
0.00000
0
ARC
8
1
62
5
10
2.37768
20
0.81496
30
0.00000
40
0.48759
50
5.72962
51
9.18065
0
ARC
8
1
62
5
10
3.02962
20
0.93582
30
0.00000
40
0.17594
50
185.07797
51
194.16629
0
ARC
8
1
62
5
10
2.50179
20
0.86571
30
0.00000
40
0.35678
50
8.79246
51
11.82591
0
LINE
8
1
62
5
10
2.85099
20
0.93883
30
0.00000
11
2.84634
21
0.98557
31
0.00000
0
ARC
8
1
62
5
10
2.96501
20
1.01315
30
0.00000
40
0.12183
50
187.98503
51
193.08076
0
ARC
8
1
62
5
10
6.73524
20
1.26845
30
0.00000
40
3.90039
50
181.53076
51
184.00227
0
ARC
8
1
62
5
10
3.42051
20
1.18088
30
0.00000
40
0.58451
50
177.83723
51
181.62952
0
ARC
8
1
62
5
10
2.74446
20
1.21760
30
0.00000
40
0.09312
50
350.94434
51
360.22325
0
ARC
8
1
62
5
10
3.52339
20
1.23131
30
0.00000
40
0.68594
50
177.16442
51
181.11490
0
LINE
8
1
62
5
10
2.83829
20
1.26524
30
0.00000
11
2.84857
21
1.37051
31
0.00000
0
ARC
8
1
62
5
10
3.79491
20
1.28848
30
0.00000
40
0.94989
50
168.82246
51
175.04619
0
ARC
8
1
62
5
10
2.22679
20
1.57837
30
0.00000
40
0.64498
50
350.56285
51
352.94082
0
ARC
8
1
62
5
10
3.25100
20
1.47975
30
0.00000
40
0.38461
50
174.67883
51
177.11498
0
ARC
8
1
62
5
10
2.41047
20
1.59758
30
0.00000
40
0.46490
50
349.82097
51
355.49340
0
ARC
8
1
62
5
10
3.32531
20
1.51247
30
0.00000
40
0.45399
50
171.46558
51
173.85675
0
ARC
8
1
62
5
10
3.10220
20
1.57222
30
0.00000
40
0.22598
50
171.98339
51
178.06885
0
ARC
8
1
62
5
10
2.62685
20
1.63537
30
0.00000
40
0.25356
50
352.83497
51
359.28019
0
LINE
8
1
62
5
10
2.88039
20
1.63218
30
0.00000
11
2.88227
21
1.64664
31
0.00000
0
LINE
8
1
62
5
10
2.88227
20
1.64664
30
0.00000
11
2.88250
21
1.68157
31
0.00000
0
LINE
8
1
62
5
10
2.88250
20
1.68157
30
0.00000
11
2.88445
21
1.70874
31
0.00000
0
ARC
8
1
62
5
10
3.77498
20
1.74127
30
0.00000
40
0.89113
50
176.92393
51
182.09205
0
LINE
8
1
62
5
10
2.88514
20
1.78909
30
0.00000
11
2.88329
21
1.84615
31
0.00000
0
ARC
8
1
62
5
10
2.58824
20
1.84162
30
0.00000
40
0.29509
50
0.87932
51
6.68249
0
ARC
8
1
62
5
10
2.99735
20
1.90402
30
0.00000
40
0.11937
50
184.35832
51
193.59623
0
ARC
8
1
62
5
10
2.06155
20
1.84919
30
0.00000
40
0.81805
50
3.20685
51
6.53852
0
ARC
8
1
62
5
10
3.13535
20
1.99520
30
0.00000
40
0.26637
50
182.57212
51
191.44688
0
ARC
8
1
62
5
10
2.48378
20
1.93302
30
0.00000
40
0.38873
50
7.42466
51
11.44472
0
ARC
8
1
62
5
10
2.66725
20
1.99197
30
0.00000
40
0.19837
50
5.25992
51
12.27548
0
ARC
8
1
62
5
10
2.90334
20
2.04736
30
0.00000
40
0.04428
50
182.43471
51
197.37365
0
ARC
8
1
62
5
10
2.75407
20
2.04086
30
0.00000
40
0.10513
50
2.51755
51
15.77858
0
ARC
8
1
62
5
10
2.89916
20
2.08558
30
0.00000
40
0.04679
50
191.11125
51
200.16129
0
ARC
8
1
62
5
10
2.53745
20
2.03378
30
0.00000
40
0.31869
50
7.71393
51
10.61528
0
LINE
8
1
62
5
10
2.85068
20
2.09249
30
0.00000
11
2.84670
21
2.10640
31
0.00000
0
LINE
8
1
62
5
10
2.84670
20
2.10640
30
0.00000
11
2.84598
21
2.11035
31
0.00000
0
ARC
8
1
62
5
10
2.83588
20
2.10653
30
0.00000
40
0.01080
50
20.71327
51
110.56053
0
ARC
8
1
62
5
10
2.83800
20
2.09888
30
0.00000
40
0.01872
50
108.40345
51
120.60366
0
ARC
8
1
62
5
10
2.81891
20
2.13105
30
0.00000
40
0.01869
50
280.40511
51
300.74762
0
LINE
8
1
62
5
10
2.82229
20
2.11267
30
0.00000
11
2.81784
21
2.11250
31
0.00000
0
ARC
8
1
62
5
10
2.80468
20
2.30315
30
0.00000
40
0.19110
50
271.35399
51
273.94739
0
LINE
8
1
62
5
10
2.80920
20
2.11210
30
0.00000
11
2.76027
21
2.11370
31
0.00000
0
ARC
8
1
62
5
10
2.80253
20
1.54800
30
0.00000
40
0.56727
50
94.27239
51
104.68336
0
ARC
8
1
62
5
10
2.89140
20
1.26222
30
0.00000
40
0.86635
50
105.57804
51
118.67108
0
ARC
8
1
62
5
10
2.68221
20
1.59465
30
0.00000
40
0.47493
50
115.76860
51
125.28053
0
ARC
8
1
62
5
10
2.43970
20
1.92464
30
0.00000
40
0.06589
50
118.85642
51
135.56560
0
ARC
8
1
62
5
10
2.35067
20
2.00985
30
0.00000
40
0.05735
50
301.22715
51
317.05559
0
ARC
8
1
62
5
10
2.41842
20
1.89183
30
0.00000
40
0.07876
50
118.86871
51
130.62047
0
ARC
8
1
62
5
10
2.05213
20
2.31950
30
0.00000
40
0.48433
50
307.94705
51
310.57365
0
ARC
8
1
62
5
10
2.24835
20
2.03692
30
0.00000
40
0.14212
50
306.72486
51
315.64211
0
ARC
8
1
62
5
10
2.48398
20
1.74397
30
0.00000
40
0.23399
50
130.07939
51
136.25647
0
LINE
8
1
62
5
10
2.31494
20
1.90576
30
0.00000
11
2.30274
21
1.89563
31
0.00000
0
LINE
8
1
62
5
10
2.30274
20
1.89563
30
0.00000
11
2.27251
21
1.86372
31
0.00000
0
ARC
8
1
62
5
10
2.64534
20
1.50120
30
0.00000
40
0.52002
50
135.80313
51
143.08089
0
ARC
8
1
62
5
10
2.88782
20
1.29185
30
0.00000
40
0.83991
50
141.59903
51
146.34016
0
LINE
8
1
62
5
10
2.18872
20
1.75738
30
0.00000
11
2.13726
21
1.66817
31
0.00000
0
ARC
8
1
62
5
10
3.13156
20
1.21515
30
0.00000
40
1.09264
50
155.50538
51
162.05445
0
ARC
8
1
62
5
10
2.38663
20
1.46103
30
0.00000
40
0.30822
50
162.87120
51
168.15673
0
ARC
8
1
62
5
10
2.01333
20
1.52959
30
0.00000
40
0.07183
50
343.76195
51
355.77157
0
ARC
8
1
62
5
10
2.29418
20
1.42788
30
0.00000
40
0.22705
50
158.93244
51
165.90394
0
LINE
8
1
62
5
10
2.07396
20
1.48318
30
0.00000
11
2.07193
21
1.46777
31
0.00000
0
ARC
8
1
62
5
10
2.40426
20
1.39134
30
0.00000
40
0.34100
50
167.04871
51
172.64629
0
ARC
8
1
62
5
10
1.67706
20
1.47708
30
0.00000
40
0.39127
50
349.88552
51
353.82415
0
ARC
8
1
62
5
10
2.39428
20
1.35404
30
0.00000
40
0.33644
50
170.70671
51
174.59496
0
ARC
8
1
62
5
10
1.91656
20
1.38359
30
0.00000
40
0.14278
50
351.10809
51
360.85860
0
ARC
8
1
62
5
10
2.09753
20
1.35166
30
0.00000
40
0.04110
50
166.11301
51
182.23835
0
ARC
8
1
62
5
10
5.08204
20
1.40685
30
0.00000
40
3.02611
50
181.07546
51
183.41802
0
ARC
8
1
62
5
10
2.09861
20
1.22795
30
0.00000
40
0.03733
50
182.33237
51
200.13185
0
ARC
8
1
62
5
10
2.02278
20
1.20045
30
0.00000
40
0.04333
50
10.01590
51
19.75664
0
LINE
8
1
62
5
10
2.06545
20
1.20799
30
0.00000
11
2.06747
21
1.18689
31
0.00000
0
ARC
8
1
62
5
10
2.55151
20
1.28978
30
0.00000
40
0.49486
50
192.00052
51
197.59647
0
ARC
8
1
62
5
10
2.04095
20
1.12487
30
0.00000
40
0.04177
50
11.41888
51
21.50115
0
ARC
8
1
62
5
10
2.53743
20
1.23476
30
0.00000
40
0.46674
50
192.57478
51
196.70424
0
ARC
8
1
62
5
10
2.05292
20
1.08621
30
0.00000
40
0.04014
50
4.58875
51
21.01092
0
ARC
8
1
62
5
10
2.15763
20
1.09455
30
0.00000
40
0.06491
50
184.53462
51
198.27341
0
ARC
8
1
62
5
10
2.04342
20
1.05637
30
0.00000
40
0.05552
50
7.05434
51
18.72957
0
ARC
8
1
62
5
10
2.14265
20
1.06802
30
0.00000
40
0.04439
50
186.25253
51
200.91207
0
ARC
8
1
62
5
10
2.05396
20
1.03476
30
0.00000
40
0.05034
50
7.33092
51
20.25082
0
ARC
8
1
62
5
10
2.15376
20
1.04751
30
0.00000
40
0.05028
50
187.22748
51
200.15766
0
ARC
8
1
62
5
10
2.07004
20
1.01628
30
0.00000
40
0.03908
50
10.02479
51
20.84022
0
ARC
8
1
62
5
10
2.30149
20
1.04905
30
0.00000
40
0.19471
50
187.66395
51
198.84683
0
ARC
8
1
62
5
10
2.07017
20
0.96885
30
0.00000
40
0.05013
50
7.24764
51
20.19031
0
ARC
8
1
62
5
10
2.17194
20
0.98188
30
0.00000
40
0.05247
50
187.34745
51
195.83393
0
LINE
8
1
62
5
10
2.12146
20
0.96756
30
0.00000
11
2.12765
21
0.94657
31
0.00000
0
ARC
8
1
62
5
10
2.09407
20
0.93310
30
0.00000
40
0.03618
50
10.18013
51
21.85186
0
LINE
8
1
62
5
10
2.12968
20
0.93949
30
0.00000
11
2.13017
21
0.93538
31
0.00000
0
ARC
8
1
62
5
10
2.19070
20
0.93940
30
0.00000
40
0.06067
50
183.79460
51
195.13005
0
ARC
8
1
62
5
10
1.62195
20
0.76058
30
0.00000
40
0.53560
50
15.37230
51
17.71665
0
ARC
8
1
62
5
10
2.10417
20
0.88907
30
0.00000
40
0.03677
50
10.05311
51
21.52503
0
ARC
8
1
62
5
10
2.38044
20
0.93297
30
0.00000
40
0.24297
50
188.87633
51
198.66595
0
ARC
8
1
62
5
10
1.90510
20
0.77918
30
0.00000
40
0.25668
50
11.37453
51
17.23200
0
ARC
8
1
62
5
10
2.22168
20
0.83460
30
0.00000
40
0.06513
50
184.23031
51
194.78865
0
ARC
8
1
62
5
10
2.01910
20
0.76965
30
0.00000
40
0.14774
50
16.31165
51
19.09244
0
ARC
8
1
62
5
10
1.81489
20
0.70565
30
0.00000
40
0.36173
50
12.83443
51
16.95749
0
ARC
8
1
62
5
10
2.21602
20
0.79197
30
0.00000
40
0.04880
50
187.02451
51
200.35105
0
ARC
8
1
62
5
10
2.12134
20
0.75734
30
0.00000
40
0.05201
50
7.34979
51
19.84097
0
ARC
8
1
62
5
10
2.22136
20
0.76996
30
0.00000
40
0.04880
50
187.02451
51
200.35105
0
ARC
8
1
62
5
10
2.12665
20
0.73533
30
0.00000
40
0.05204
50
7.34265
51
19.83384
0
ARC
8
1
62
5
10
2.22672
20
0.74797
30
0.00000
40
0.04883
50
187.03666
51
200.35088
0
ARC
8
1
62
5
10
2.13196
20
0.71337
30
0.00000
40
0.05205
50
7.29850
51
19.78196
0
ARC
8
1
62
5
10
2.23555
20
0.72675
30
0.00000
40
0.05240
50
187.42333
51
195.91752
0
LINE
8
1
62
5
10
2.18516
20
0.71238
30
0.00000
11
2.19135
21
0.69138
31
0.00000
0
ARC
8
1
62
5
10
2.15776
20
0.67791
30
0.00000
40
0.03619
50
10.17952
51
21.84817
0
ARC
8
1
62
5
10
2.35276
20
0.70136
30
0.00000
40
0.16029
50
186.10753
51
189.03741
0
ARC
8
1
62
5
10
2.23497
20
0.67929
30
0.00000
40
0.04063
50
184.38807
51
200.64574
0
ARC
8
1
62
5
10
2.15923
20
0.65068
30
0.00000
40
0.04033
50
10.24991
51
20.74008
0
LINE
8
1
62
5
10
2.19892
20
0.65786
30
0.00000
11
2.19981
21
0.64945
31
0.00000
0
ARC
8
1
62
5
10
2.29028
20
0.65241
30
0.00000
40
0.09051
50
181.87669
51
196.70191
0
ARC
8
1
62
5
10
2.18833
20
0.62253
30
0.00000
40
0.01573
50
1.18341
51
14.23872
0
ARC
8
1
62
5
10
2.19151
20
0.62263
30
0.00000
40
0.01256
50
346.40036
51
361.03400
0
ARC
8
1
62
5
10
2.10669
20
0.64913
30
0.00000
40
0.10140
50
340.55930
51
343.11555
0
LINE
8
1
62
5
10
2.20230
20
0.61538
30
0.00000
11
2.20265
21
0.60905
31
0.00000
0
ARC
8
1
62
5
10
2.78472
20
0.68479
30
0.00000
40
0.58698
50
187.41401
51
211.09225
0
ARC
8
1
62
5
10
2.25011
20
0.34813
30
0.00000
40
0.04632
50
314.82396
51
406.36707
0
ARC
8
1
62
5
10
2.08127
20
0.41825
30
0.00000
40
0.22627
50
321.33505
51
332.93109
0
ARC
8
1
62
5
10
2.24687
20
0.27804
30
0.00000
40
0.01114
50
329.61079
51
354.03455
0
ARC
8
1
62
5
10
2.78800
20
-0.00700
30
0.00000
40
0.60048
50
152.27032
51
156.96136
0
ARC
8
1
62
5
10
1.27841
20
0.56638
30
0.00000
40
1.01507
50
337.65884
51
340.52685
0
ARC
8
1
62
5
10
2.20477
20
0.18485
30
0.00000
40
0.01323
50
326.22715
51
340.97472
0
ARC
8
1
62
5
10
2.20733
20
0.18314
30
0.00000
40
0.01015
50
309.34744
51
326.20878
0
ARC
8
1
62
5
10
2.16319
20
0.24056
30
0.00000
40
0.08257
50
296.49712
51
307.77416
0
ARC
8
1
62
5
10
2.13273
20
0.30526
30
0.00000
40
0.15408
50
292.68145
51
295.90080
0
ARC
8
1
62
5
10
2.18973
20
0.16888
30
0.00000
40
0.00626
50
276.60904
51
292.64099
0
ARC
8
1
62
5
10
2.18787
20
0.17833
30
0.00000
40
0.01588
50
239.41583
51
279.34226
0
LINE
8
1
62
5
10
2.17979
20
0.16466
30
0.00000
11
2.17750
21
0.16678
31
0.00000
0
ARC
8
1
62
5
10
2.21523
20
0.20543
30
0.00000
40
0.05401
50
215.62424
51
225.68334
0
ARC
8
1
62
5
10
1.72142
20
-0.11200
30
0.00000
40
0.53310
50
32.44033
51
34.87238
0
ARC
8
1
62
5
10
1.38411
20
-0.26550
30
0.00000
40
0.90009
50
30.60882
51
37.79850
0
LINE
8
1
62
5
10
2.09534
20
0.28615
30
0.00000
11
2.02698
21
0.38351
31
0.00000
0
ARC
8
1
62
5
10
2.79646
20
0.99147
30
0.00000
40
0.98067
50
213.05170
51
218.31225
0
ARC
8
1
62
5
10
4.27601
20
1.29513
30
0.00000
40
2.44952
50
172.68254
51
200.01816
0
LINE
8
1
62
5
10
1.84644
20
1.60712
30
0.00000
11
1.85829
21
1.72009
31
0.00000
0
LINE
8
1
62
5
10
1.85829
20
1.72009
30
0.00000
11
1.87691
21
1.87777
31
0.00000
0
ARC
8
1
62
5
10
2.19844
20
1.85133
30
0.00000
40
0.32262
50
142.97578
51
175.29826
0
ARC
8
1
62
5
10
1.80268
20
2.17085
30
0.00000
40
0.18651
50
317.80926
51
325.55971
0
ARC
8
1
62
5
10
1.98338
20
2.04724
30
0.00000
40
0.03243
50
137.46052
51
145.99838
0
ARC
8
1
62
5
10
1.98202
20
2.04851
30
0.00000
40
0.03056
50
128.70135
51
137.49187
0
ARC
8
1
62
5
10
1.89391
20
2.16186
30
0.00000
40
0.11301
50
307.63185
51
317.21757
0
ARC
8
1
62
5
10
2.11561
20
1.96336
30
0.00000
40
0.18459
50
129.94506
51
138.73785
0
ARC
8
1
62
5
10
1.95658
20
2.16463
30
0.00000
40
0.07218
50
304.13512
51
314.20181
0
ARC
8
1
62
5
10
2.08781
20
2.03690
30
0.00000
40
0.11098
50
130.30313
51
136.79562
0
LINE
8
1
62
5
10
2.01602
20
2.12154
30
0.00000
11
2.07813
21
2.16678
31
0.00000
0
ARC
8
1
62
5
10
2.42379
20
1.69787
30
0.00000
40
0.58254
50
118.39839
51
126.39579
0
LINE
8
1
62
5
10
2.14673
20
2.21031
30
0.00000
11
2.19225
21
2.23154
31
0.00000
0
ARC
8
1
62
5
10
1.87433
20
3.11740
30
0.00000
40
0.94118
50
289.74226
51
314.77966
0
ARC
8
1
62
5
10
2.43668
20
2.58862
30
0.00000
40
0.17182
50
305.83779
51
393.11080
0
ARC
8
1
62
5
10
2.43542
20
2.57332
30
0.00000
40
0.18164
50
36.93924
51
53.17135
0
ARC
8
1
62
5
10
2.28919
20
2.44826
30
0.00000
40
0.37179
50
46.67231
51
51.02457
0
ARC
8
1
62
5
10
2.60125
20
2.85901
30
0.00000
40
0.14468
50
216.01478
51
237.27918
0
ARC
8
1
62
5
10
2.39417
20
2.69709
30
0.00000
40
0.11839
50
40.47870
51
49.64972
0
ARC
8
1
62
5
10
2.74304
20
3.03261
30
0.00000
40
0.36643
50
198.18128
51
222.02209
0
ARC
8
1
62
5
10
2.74500
20
3.05780
30
0.00000
40
0.37688
50
179.54907
51
201.73005
0
ARC
8
1
62
5
10
2.58999
20
3.07971
30
0.00000
40
0.22267
50
174.91363
51
184.87899
0
ARC
8
1
62
5
10
2.20158
20
3.12607
30
0.00000
40
0.16873
50
350.92427
51
361.89648
0
ARC
8
1
62
5
10
2.40346
20
3.13249
30
0.00000
40
0.03325
50
167.72136
51
181.44583
0
ARC
8
1
62
5
10
2.29046
20
3.15799
30
0.00000
40
0.08259
50
347.10280
51
354.69595
0
ARC
8
1
62
5
10
1.55255
20
3.16351
30
0.00000
40
0.82025
50
359.08167
51
362.45908
0
ARC
8
1
62
5
10
2.21864
20
3.20030
30
0.00000
40
0.15341
50
359.40116
51
373.54718
0
ARC
8
1
62
5
10
2.41714
20
3.25335
30
0.00000
40
0.05224
50
191.01833
51
199.12441
0
ARC
8
1
62
5
10
2.05095
20
3.19670
30
0.00000
40
0.31836
50
8.42995
51
11.34411
0
ARC
8
1
62
5
10
1.92837
20
3.11720
30
0.00000
40
0.45736
50
18.10376
51
22.61329
0
ARC
8
1
62
5
10
2.07166
20
3.17256
30
0.00000
40
0.30382
50
23.36623
51
55.42020
0
ARC
8
1
62
5
10
1.86988
20
3.03802
30
0.00000
40
0.53668
50
45.79042
51
74.08873
0
ARC
8
1
62
5
10
1.96335
20
3.21910
30
0.00000
40
0.33931
50
80.90127
51
84.26321
0
ARC
8
1
62
5
10
1.98999
20
3.50553
30
0.00000
40
0.05169
50
81.90020
51
101.37669
0
ARC
8
1
62
5
10
1.97417
20
3.58723
30
0.00000
40
0.03153
50
271.80651
51
280.27592
0
ARC
8
1
62
5
10
1.97415
20
3.58946
30
0.00000
40
0.03375
50
263.52962
51
271.70840
0
ARC
8
1
62
5
10
1.95991
20
3.47426
30
0.00000
40
0.08232
50
82.71269
51
87.55479
0
ARC
8
1
62
5
10
1.97257
20
3.36226
30
0.00000
40
0.19446
50
92.69707
51
110.55926
0
ARC
8
1
62
5
10
1.96040
20
3.34372
30
0.00000
40
0.20832
50
105.62776
51
130.54197
0
ARC
8
1
62
5
10
1.84413
20
3.47742
30
0.00000
40
0.03118
50
127.86622
51
135.44703
0
ARC
8
1
62
5
10
1.85828
20
3.46336
30
0.00000
40
0.05112
50
135.34505
51
141.26163
0
LINE
8
1
62
5
10
1.81840
20
3.49535
30
0.00000
11
1.81647
21
3.49287
31
0.00000
0
LINE
8
1
62
5
10
1.81647
20
3.49287
30
0.00000
11
1.81177
21
3.48864
31
0.00000
0
ARC
8
1
62
5
10
1.95125
20
3.32489
30
0.00000
40
0.21510
50
130.42228
51
155.85003
0
ARC
8
1
62
5
10
1.87169
20
3.34922
30
0.00000
40
0.13296
50
151.38800
51
175.63024
0
ARC
8
1
62
5
10
1.57431
20
3.35836
30
0.00000
40
0.16481
50
351.90305
51
360.34310
0
ARC
8
1
62
5
10
1.78223
20
3.32483
30
0.00000
40
0.04593
50
167.01778
51
176.14551
0
LINE
8
1
62
5
10
1.73641
20
3.32792
30
0.00000
11
1.73684
21
3.29290
31
0.00000
0
ARC
8
1
62
5
10
1.60539
20
3.28261
30
0.00000
40
0.13186
50
351.87868
51
364.47717
0
ARC
8
1
62
5
10
1.78183
20
3.25350
30
0.00000
40
0.04709
50
167.13603
51
176.05019
0
LINE
8
1
62
5
10
1.73485
20
3.25674
30
0.00000
11
1.73521
21
3.22173
31
0.00000
0
ARC
8
1
62
5
10
1.60286
20
3.21110
30
0.00000
40
0.13277
50
352.07975
51
364.59395
0
ARC
8
1
62
5
10
1.77876
20
3.18260
30
0.00000
40
0.04555
50
167.05805
51
176.26037
0
LINE
8
1
62
5
10
1.73331
20
3.18557
30
0.00000
11
1.73400
21
3.14168
31
0.00000
0
ARC
8
1
62
5
10
1.60318
20
3.13096
30
0.00000
40
0.13125
50
352.02847
51
364.68367
0
ARC
8
1
62
5
10
1.77963
20
3.10219
30
0.00000
40
0.04765
50
167.18853
51
175.99768
0
ARC
8
1
62
5
10
2.69154
20
3.09674
30
0.00000
40
0.95948
50
179.47548
51
181.83159
0
ARC
8
1
62
5
10
1.57617
20
3.05765
30
0.00000
40
0.15661
50
355.38994
51
363.08299
0
ARC
8
1
62
5
10
1.90242
20
3.01996
30
0.00000
40
0.17199
50
171.60890
51
183.91423
0
ARC
8
1
62
5
10
1.54025
20
2.99314
30
0.00000
40
0.19117
50
353.17213
51
364.52484
0
ARC
8
1
62
5
10
1.77402
20
2.96027
30
0.00000
40
0.04510
50
167.01273
51
176.30569
0
LINE
8
1
62
5
10
1.72901
20
2.96318
30
0.00000
11
1.72973
21
2.92373
31
0.00000
0
ARC
8
1
62
5
10
1.56206
20
2.91172
30
0.00000
40
0.16810
50
358.60392
51
364.09854
0
ARC
8
1
62
5
10
5.97020
20
2.68440
30
0.00000
40
4.24596
50
176.98639
51
179.49971
0
ARC
8
1
62
5
10
1.69204
20
2.71902
30
0.00000
40
0.03245
50
222.73348
51
364.32403
0
LINE
8
1
62
5
10
1.66820
20
2.69700
30
0.00000
11
1.64070
21
2.79799
31
0.00000
0
LINE
8
1
62
5
10
1.64070
20
2.79799
30
0.00000
11
1.62698
21
2.84466
31
0.00000
0
ARC
8
1
62
5
10
-0.58991
20
2.37329
30
0.00000
40
2.26645
50
12.00381
51
15.16044
0
LINE
8
1
62
5
10
1.59766
20
2.96602
30
0.00000
11
1.57535
21
3.07170
31
0.00000
0
LINE
8
1
62
5
10
1.57535
20
3.07170
30
0.00000
11
1.55703
21
3.15803
31
0.00000
0
ARC
8
1
62
5
10
2.02136
20
3.24337
30
0.00000
40
0.47211
50
186.92892
51
190.41475
0
ARC
8
1
62
5
10
1.71231
20
3.22557
30
0.00000
40
0.16434
50
184.10348
51
193.78161
0
ARC
8
1
62
5
10
1.51389
20
3.21271
30
0.00000
40
0.03452
50
1.81970
51
15.07113
0
ARC
8
1
62
5
10
2.17932
20
3.42221
30
0.00000
40
0.66314
50
192.80596
51
197.60103
0
ARC
8
1
62
5
10
1.50021
20
3.26947
30
0.00000
40
0.03296
50
10.06063
51
18.73640
0
ARC
8
1
62
5
10
1.52446
20
3.27768
30
0.00000
40
0.00737
50
18.87887
51
37.29470
0
ARC
8
1
62
5
10
1.52113
20
3.27451
30
0.00000
40
0.01194
50
39.71037
51
88.96194
0
ARC
8
1
62
5
10
1.51914
20
3.24712
30
0.00000
40
0.03939
50
86.78152
51
95.03724
0
ARC
8
1
62
5
10
1.51223
20
3.32550
30
0.00000
40
0.03929
50
270.50685
51
275.03359
0
ARC
8
1
62
5
10
1.50501
20
3.44093
30
0.00000
40
0.15490
50
265.06077
51
272.80219
0
LINE
8
1
62
5
10
1.49167
20
3.28660
30
0.00000
11
1.45528
21
3.29307
31
0.00000
0
ARC
8
1
62
5
10
1.54252
20
3.65990
30
0.00000
40
0.37706
50
225.76105
51
256.62287
0
ARC
8
1
62
5
10
1.56874
20
3.66511
30
0.00000
40
0.39937
50
195.91271
51
223.58673
0
LINE
8
1
62
5
10
1.18467
20
3.55561
30
0.00000
11
1.17817
21
3.58605
31
0.00000
0
ARC
8
1
62
5
10
0.68743
20
3.53174
30
0.00000
40
0.49374
50
6.31512
51
10.94800
0
ARC
8
1
62
5
10
1.10441
20
3.61809
30
0.00000
40
0.06817
50
6.24933
51
89.49692
0
LINE
8
1
62
5
10
1.10501
20
3.68626
30
0.00000
11
1.02935
21
3.68669
31
0.00000
0
ARC
8
1
62
5
10
1.05209
20
3.41348
30
0.00000
40
0.27416
50
94.75850
51
106.62107
0
ARC
8
1
62
5
10
1.09261
20
3.37281
30
0.00000
40
0.32585
50
111.40720
51
124.31390
0
ARC
8
1
62
5
10
1.04920
20
3.42182
30
0.00000
40
0.26103
50
122.50781
51
146.08356
0
ARC
8
1
62
5
10
0.73626
20
3.59364
30
0.00000
40
0.09981
50
276.34845
51
344.80012
0
ARC
8
1
62
5
10
0.70727
20
2.08341
30
0.00000
40
1.41160
50
88.37487
51
93.69715
0
ARC
8
1
62
5
10
0.58661
20
4.67600
30
0.00000
40
1.18430
50
263.20003
51
271.43395
0
LINE
8
1
62
5
10
0.44638
20
3.50003
30
0.00000
11
0.41910
21
3.50357
31
0.00000
0
ARC
8
1
62
5
10
0.42685
20
3.55639
30
0.00000
40
0.05339
50
232.70544
51
261.65017
0
ARC
8
1
62
5
10
0.58157
20
3.72169
30
0.00000
40
0.27957
50
222.20991
51
228.00233
0
ARC
8
1
62
5
10
0.50268
20
3.66330
30
0.00000
40
0.18217
50
200.61719
51
225.27680
0
ARC
8
1
62
5
10
0.49076
20
3.66484
30
0.00000
40
0.17165
50
194.20184
51
202.50177
0
ARC
8
1
62
5
10
0.69022
20
3.67055
30
0.00000
40
0.36898
50
179.24683
51
187.44655
0
ARC
8
1
62
5
10
0.52676
20
3.67856
30
0.00000
40
0.20551
50
175.01186
51
180.88138
0
ARC
8
1
62
5
10
1.00390
20
3.57633
30
0.00000
40
0.69236
50
165.22934
51
170.01085
0
ARC
8
1
62
5
10
-0.17912
20
3.90607
30
0.00000
40
0.53590
50
343.38619
51
353.58833
0
ARC
8
1
62
5
10
0.60921
20
3.83526
30
0.00000
40
0.25602
50
172.17106
51
177.54341
0
ARC
8
1
62
5
10
0.29764
20
3.88254
30
0.00000
40
0.05926
50
347.91290
51
359.07290
0
LINE
8
1
62
5
10
0.35689
20
3.88158
30
0.00000
11
0.36262
21
3.94851
31
0.00000
0
ARC
8
1
62
5
10
0.50681
20
3.95383
30
0.00000
40
0.14428
50
170.67138
51
182.11383
0
ARC
8
1
62
5
10
0.31970
20
3.98876
30
0.00000
40
0.04620
50
345.53266
51
359.87224
0
LINE
8
1
62
5
10
0.36590
20
3.98866
30
0.00000
11
0.36584
21
3.99390
31
0.00000
0
ARC
8
1
62
5
10
0.48692
20
4.02326
30
0.00000
40
0.12459
50
150.18982
51
193.63099
0
ARC
8
1
62
5
10
1.33547
20
3.26990
30
0.00000
40
1.25694
50
131.17637
51
139.56085
0
ARC
8
1
62
5
10
0.56932
20
4.15173
30
0.00000
40
0.08887
50
127.25227
51
133.70168
0
LINE
8
1
62
5
10
0.51553
20
4.22247
30
0.00000
11
0.51961
21
4.22547
31
0.00000
0
ARC
8
1
62
5
10
2.01696
20
2.56847
30
0.00000
40
2.23332
50
118.74828
51
132.10252
0
LINE
8
1
62
5
10
0.94281
20
4.52651
30
0.00000
11
0.97352
21
4.54334
31
0.00000
0
LINE
8
1
62
5
10
0.97352
20
4.54334
30
0.00000
11
0.99523
21
4.55321
31
0.00000
0
ARC
8
1
62
5
10
1.08916
20
4.39023
30
0.00000
40
0.18811
50
108.49584
51
119.95394
0
LINE
8
1
62
5
10
1.02948
20
4.56862
30
0.00000
11
1.05994
21
4.58325
31
0.00000
0
LINE
8
1
62
5
10
1.05994
20
4.58325
30
0.00000
11
1.06318
21
4.58453
31
0.00000
0
ARC
8
1
62
5
10
1.05007
20
4.61178
30
0.00000
40
0.03024
50
295.70207
51
308.06623
0
ARC
8
1
62
5
10
1.08735
20
4.56414
30
0.00000
40
0.03025
50
115.65050
51
128.02498
0
ARC
8
1
62
5
10
0.82470
20
5.17898
30
0.00000
40
0.63837
50
293.01177
51
295.46286
0
LINE
8
1
62
5
10
1.09915
20
4.60262
30
0.00000
11
1.10239
21
4.60390
31
0.00000
0
LINE
8
1
62
5
10
1.10239
20
4.60390
30
0.00000
11
1.10784
21
4.60742
31
0.00000
0
ARC
8
1
62
5
10
1.22656
20
4.43337
30
0.00000
40
0.21068
50
113.47851
51
124.29726
0
ARC
8
1
62
5
10
1.12522
20
4.66876
30
0.00000
40
0.04560
50
292.43309
51
298.90511
0
ARC
8
1
62
5
10
1.12823
20
4.66343
30
0.00000
40
0.03947
50
298.81759
51
305.77627
0
ARC
8
1
62
5
10
1.22431
20
4.52994
30
0.00000
40
0.12499
50
118.26658
51
125.73673
0
LINE
8
1
62
5
10
1.16512
20
4.64003
30
0.00000
11
1.17007
21
4.64285
31
0.00000
0
ARC
8
1
62
5
10
0.67163
20
5.43714
30
0.00000
40
0.93773
50
302.10974
51
311.77510
0
ARC
8
1
62
5
10
1.25556
20
4.79021
30
0.00000
40
0.06640
50
307.90162
51
465.82609
0
ARC
8
1
62
5
10
1.06433
20
5.76034
30
0.00000
40
0.92263
50
264.95277
51
280.81494
0
ARC
8
1
62
5
10
0.97065
20
4.49784
30
0.00000
40
0.34367
50
87.91472
51
92.08528
0
ARC
8
1
62
5
10
0.98778
20
5.55214
30
0.00000
40
0.71148
50
256.50029
51
267.61307
0
ARC
8
1
62
5
10
0.96698
20
5.68937
30
0.00000
40
0.84169
50
251.53692
51
260.06045
0
ARC
8
1
62
5
10
1.03092
20
5.92675
30
0.00000
40
1.08719
50
230.16616
51
252.30243
0
ARC
8
1
62
5
10
0.71766
20
5.58397
30
0.00000
40
0.62366
50
222.85381
51
232.09398
0
ARC
8
1
62
5
10
1.01322
20
5.92817
30
0.00000
40
1.07566
50
214.61339
51
225.58813
0
ARC
8
1
62
5
10
1.05083
20
5.95012
30
0.00000
40
1.11909
50
207.06140
51
214.44443
0
LINE
8
1
62
5
10
0.05426
20
5.44100
30
0.00000
11
0.05278
21
5.44379
31
0.00000
0
ARC
8
1
62
5
10
0.31142
20
5.62090
30
0.00000
40
0.31347
50
196.30834
51
214.40320
0
ARC
8
1
62
5
10
0.12412
20
5.58297
30
0.00000
40
0.12412
50
169.87420
51
203.80021
0
ARC
8
1
62
5
10
0.05071
20
5.57350
30
0.00000
40
0.05795
50
143.06407
51
147.31610
0
ARC
8
1
62
5
10
0.02137
20
5.59760
30
0.00000
40
0.02008
50
54.16348
51
147.73362
0
ARC
8
1
62
5
10
0.04598
20
5.61985
30
0.00000
40
0.01417
50
204.90304
51
264.64975
0
ARC
8
1
62
5
10
0.04143
20
5.61883
30
0.00000
40
0.01348
50
283.86263
51
340.63185
0
ARC
8
1
62
5
10
0.07308
20
5.62392
30
0.00000
40
0.02121
50
12.24053
51
206.80303
0
ARC
8
1
62
5
10
0.17777
20
5.73382
30
0.00000
40
0.13475
50
231.45983
51
328.59865
0
ARC
8
1
62
5
10
1.14735
20
5.25987
30
0.00000
40
0.94513
50
152.41843
51
154.71160
0
ARC
8
1
62
5
10
0.35204
20
5.68009
30
0.00000
40
0.04584
50
98.24180
51
157.70664
0
ARC
8
1
62
5
10
0.34990
20
5.70199
30
0.00000
40
0.02388
50
321.07898
51
460.69290
0
ARC
8
1
62
5
10
0.54758
20
5.58001
30
0.00000
40
0.20862
50
149.15015
51
176.95651
0
ARC
8
1
62
5
10
0.17004
20
5.59084
30
0.00000
40
0.16922
50
352.14896
51
360.08622
0
ARC
8
1
62
5
10
0.38547
20
5.55860
30
0.00000
40
0.04866
50
169.19737
51
195.59512
0
ARC
8
1
62
5
10
0.29049
20
5.52993
30
0.00000
40
0.05058
50
4.96458
51
17.95000
0
ARC
8
1
62
5
10
0.40220
20
5.53877
30
0.00000
40
0.06149
50
184.15762
51
195.35135
0
ARC
8
1
62
5
10
0.78816
20
5.67573
30
0.00000
40
0.47088
50
198.99140
51
202.82422
0
ARC
8
1
62
5
10
0.40113
20
5.51616
30
0.00000
40
0.05234
50
206.17119
51
230.71820
0
ARC
8
1
62
5
10
0.43294
20
5.55104
30
0.00000
40
0.09952
50
229.25407
51
242.06950
0
ARC
8
1
62
5
10
0.40583
20
5.49489
30
0.00000
40
0.03728
50
238.45962
51
245.68243
0
ARC
8
1
62
5
10
0.40957
20
5.50333
30
0.00000
40
0.04652
50
245.76560
51
252.22996
0
ARC
8
1
62
5
10
0.37231
20
5.38320
30
0.00000
40
0.07926
50
63.35160
51
73.08356
0
ARC
8
1
62
5
10
0.47591
20
5.57345
30
0.00000
40
0.13744
50
240.32315
51
252.82626
0
ARC
8
1
62
5
10
0.47037
20
5.53792
30
0.00000
40
0.10199
50
249.90423
51
254.39560
0
ARC
8
1
62
5
10
0.44588
20
5.45013
30
0.00000
40
0.01085
50
254.27258
51
268.07468
0
ARC
8
1
62
5
10
0.45152
20
5.65252
30
0.00000
40
0.21332
50
268.38585
51
273.01178
0
ARC
8
1
62
5
10
0.46063
20
5.51753
30
0.00000
40
0.07806
50
271.53942
51
296.54376
0
ARC
8
1
62
5
10
0.48232
20
5.47895
30
0.00000
40
0.03392
50
292.89162
51
336.29432
0
ARC
8
1
62
5
10
0.99003
20
5.25078
30
0.00000
40
0.52271
50
146.53974
51
155.76883
0
ARC
8
1
62
5
10
0.65090
20
5.47227
30
0.00000
40
0.11768
50
139.29060
51
145.46529
0
ARC
8
1
62
5
10
0.34554
20
5.78525
30
0.00000
40
0.32019
50
312.45881
51
318.07810
0
ARC
8
1
62
5
10
0.68527
20
5.47938
30
0.00000
40
0.13694
50
129.89079
51
137.82572
0
ARC
8
1
62
5
10
0.60621
20
5.57232
30
0.00000
40
0.01497
50
115.38391
51
125.84519
0
ARC
8
1
62
5
10
0.64900
20
5.48255
30
0.00000
40
0.11441
50
111.69282
51
115.47379
0
ARC
8
1
62
5
10
0.66017
20
5.44262
30
0.00000
40
0.15570
50
103.39224
51
110.07937
0
ARC
8
1
62
5
10
0.64920
20
5.51653
30
0.00000
40
0.08151
50
88.28485
51
107.92465
0
ARC
8
1
62
5
10
0.65162
20
5.58529
30
0.00000
40
0.01272
50
57.84966
51
89.90992
0
LINE
8
1
62
5
10
0.65838
20
5.59606
30
0.00000
11
0.66064
21
5.59389
31
0.00000
0
ARC
8
1
62
5
10
0.61773
20
5.54317
30
0.00000
40
0.06644
50
18.96221
51
49.76350
0
ARC
8
1
62
5
10
0.65142
20
5.55567
30
0.00000
40
0.03053
50
2.32427
51
17.31924
0
LINE
8
1
62
5
10
0.68192
20
5.55691
30
0.00000
11
0.68453
21
5.50847
31
0.00000
0
ARC
8
1
62
5
10
0.82612
20
5.51049
30
0.00000
40
0.14160
50
180.81907
51
192.55204
0
ARC
8
1
62
5
10
0.64533
20
5.46590
30
0.00000
40
0.04476
50
3.17976
51
17.98877
0
ARC
8
1
62
5
10
0.82783
20
5.47748
30
0.00000
40
0.13811
50
183.77800
51
193.85793
0
ARC
8
1
62
5
10
0.64806
20
5.42949
30
0.00000
40
0.04805
50
9.32887
51
18.07616
0
ARC
8
1
62
5
10
1.02821
20
5.48483
30
0.00000
40
0.33611
50
188.13330
51
197.28583
0
ARC
8
1
62
5
10
1.04603
20
5.49138
30
0.00000
40
0.35508
50
197.44038
51
220.53959
0
ARC
8
1
62
5
10
0.88849
20
5.34255
30
0.00000
40
0.13903
50
216.12282
51
230.42973
0
ARC
8
1
62
5
10
0.94083
20
5.37681
30
0.00000
40
0.19964
50
225.10477
51
234.13323
0
ARC
8
1
62
5
10
0.77800
20
5.13761
30
0.00000
40
0.08998
50
45.26665
51
59.35234
0
ARC
8
1
62
5
10
0.87570
20
5.23662
30
0.00000
40
0.04912
50
225.58420
51
248.00412
0
ARC
8
1
62
5
10
0.81947
20
5.09382
30
0.00000
40
0.10435
50
56.21647
51
68.74232
0
ARC
8
1
62
5
10
0.93043
20
5.24482
30
0.00000
40
0.08326
50
230.52526
51
239.25592
0
LINE
8
1
62
5
10
0.88786
20
5.17326
30
0.00000
11
0.89951
21
5.16737
31
0.00000
0
ARC
8
1
62
5
10
1.02189
20
5.37015
30
0.00000
40
0.23684
50
238.89046
51
253.37319
0
LINE
8
1
62
5
10
0.95412
20
5.14321
30
0.00000
11
0.96054
21
5.14091
31
0.00000
0
LINE
8
1
62
5
10
0.96054
20
5.14091
30
0.00000
11
0.96785
21
5.13958
31
0.00000
0
ARC
8
1
62
5
10
0.88192
20
4.68442
30
0.00000
40
0.46320
50
74.39671
51
79.30901
0
ARC
8
1
62
5
10
1.03048
20
5.21883
30
0.00000
40
0.09147
50
254.80772
51
258.03651
0
ARC
8
1
62
5
10
1.01488
20
5.14497
30
0.00000
40
0.01598
50
257.85857
51
265.58006
0
LINE
8
1
62
5
10
1.01365
20
5.12903
30
0.00000
11
1.03060
21
5.12889
31
0.00000
0
ARC
8
1
62
5
10
1.03200
20
5.09383
30
0.00000
40
0.03509
50
73.31076
51
92.29180
0
ARC
8
1
62
5
10
1.05317
20
5.16513
30
0.00000
40
0.03929
50
253.60151
51
264.38717
0
LINE
8
1
62
5
10
1.04933
20
5.12603
30
0.00000
11
1.05357
21
5.12600
31
0.00000
0
LINE
8
1
62
5
10
1.05357
20
5.12600
30
0.00000
11
1.07501
21
5.12620
31
0.00000
0
ARC
8
1
62
5
10
1.07420
20
5.10747
30
0.00000
40
0.01874
50
68.14310
51
87.52790
0
ARC
8
1
62
5
10
1.08407
20
5.13281
30
0.00000
40
0.00845
50
249.98457
51
294.81692
0
ARC
8
1
62
5
10
1.09597
20
5.10837
30
0.00000
40
0.01873
50
97.07644
51
116.46124
0
LINE
8
1
62
5
10
1.09366
20
5.12696
30
0.00000
11
1.11095
21
5.12802
31
0.00000
0
ARC
8
1
62
5
10
1.11183
20
5.21504
30
0.00000
40
0.08703
50
269.42327
51
285.62088
0
ARC
8
1
62
5
10
1.14864
20
5.09719
30
0.00000
40
0.03658
50
93.39867
51
111.45322
0
ARC
8
1
62
5
10
1.14292
20
5.19328
30
0.00000
40
0.05969
50
273.41048
51
284.93248
0
LINE
8
1
62
5
10
1.15830
20
5.13561
30
0.00000
11
1.20008
21
5.14834
31
0.00000
0
ARC
8
1
62
5
10
1.09468
20
5.41708
30
0.00000
40
0.28867
50
291.41576
51
296.17425
0
ARC
8
1
62
5
10
1.19749
20
5.22950
30
0.00000
40
0.07558
50
288.92912
51
304.25184
0
ARC
8
1
62
5
10
1.30425
20
5.08542
30
0.00000
40
0.10384
50
119.27929
51
128.19924
0
ARC
8
1
62
5
10
1.20790
20
5.26981
30
0.00000
40
0.10429
50
295.90636
51
308.44569
0
ARC
8
1
62
5
10
1.34420
20
5.11353
30
0.00000
40
0.10330
50
126.74508
51
133.77016
0
ARC
8
1
62
5
10
1.18507
20
5.34310
30
0.00000
40
0.17612
50
303.54755
51
328.25858
0
ARC
8
1
62
5
10
1.13885
20
5.35501
30
0.00000
40
0.22215
50
331.91873
51
339.74978
0
ARC
8
1
62
5
10
0.93819
20
5.38541
30
0.00000
40
0.42292
50
345.30357
51
376.43811
0
ARC
8
1
62
5
10
0.23936
20
5.29854
30
0.00000
40
1.12361
50
10.59298
51
19.43268
0
ARC
8
1
62
5
10
0.68740
20
5.44913
30
0.00000
40
0.65102
50
20.05278
51
22.66974
0
ARC
8
1
62
5
10
1.41483
20
5.74974
30
0.00000
40
0.13610
50
195.30458
51
201.41546
0
ARC
8
1
62
5
10
0.66962
20
5.50226
30
0.00000
40
0.64936
50
19.01338
51
25.43229
0
ARC
8
1
62
5
10
1.42987
20
5.87889
30
0.00000
40
0.19941
50
199.55939
51
209.35636
0
ARC
8
1
62
5
10
2.03356
20
6.15966
30
0.00000
40
0.86452
50
189.57991
51
203.70240
0
ARC
8
1
62
5
10
1.85771
20
6.13953
30
0.00000
40
0.68785
50
180.94648
51
190.36466
0
ARC
8
1
62
5
10
1.77506
20
6.17400
30
0.00000
40
0.60684
50
173.93791
51
184.33168
0
ARC
8
1
62
5
10
1.65172
20
6.20648
30
0.00000
40
0.48114
50
166.75454
51
176.23310
0
ARC
8
1
62
5
10
1.58759
20
6.25959
30
0.00000
40
0.40822
50
162.28066
51
171.95590
0
ARC
8
1
62
5
10
1.77630
20
6.24109
30
0.00000
40
0.59495
50
163.04199
51
166.11726
0
ARC
8
1
62
5
10
1.02211
20
6.49084
30
0.00000
40
0.20019
50
337.62044
51
350.70613
0
ARC
8
1
62
5
10
1.24238
20
6.45339
30
0.00000
40
0.02328
50
119.26753
51
167.29503
0
ARC
8
1
62
5
10
1.26635
20
6.40039
30
0.00000
40
0.08138
50
103.28160
51
115.74241
0
ARC
8
1
62
5
10
1.20403
20
6.80161
30
0.00000
40
0.32495
50
277.71350
51
280.55688
0
LINE
8
1
62
5
10
1.26357
20
6.48216
30
0.00000
11
1.26671
21
6.48290
31
0.00000
0
ARC
8
1
62
5
10
1.27227
20
6.46620
30
0.00000
40
0.01760
50
90.95737
51
108.42536
0
ARC
8
1
62
5
10
1.27213
20
6.47398
30
0.00000
40
0.00982
50
67.44262
51
90.89477
0
ARC
8
1
62
5
10
1.26220
20
6.44335
30
0.00000
40
0.04200
50
32.15654
51
70.96631
0
ARC
8
1
62
5
10
1.25798
20
6.44329
30
0.00000
40
0.04565
50
348.41626
51
389.40040
0
ARC
8
1
62
5
10
1.32509
20
6.43058
30
0.00000
40
0.02265
50
171.00883
51
183.74463
0
ARC
8
1
62
5
10
1.27948
20
6.42765
30
0.00000
40
0.02304
50
351.12408
51
363.61892
0
LINE
8
1
62
5
10
1.30225
20
6.42409
30
0.00000
11
1.30155
21
6.41929
31
0.00000
0
ARC
8
1
62
5
10
1.32981
20
6.41535
30
0.00000
40
0.02853
50
172.07238
51
175.90960
0
ARC
8
1
62
5
10
1.21042
20
6.41711
30
0.00000
40
0.09094
50
347.77990
51
360.17765
0
ARC
8
1
62
5
10
1.33776
20
6.38762
30
0.00000
40
0.03981
50
165.09701
51
181.77323
0
ARC
8
1
62
5
10
1.15924
20
6.38313
30
0.00000
40
0.13877
50
351.32283
51
361.34764
0
ARC
8
1
62
5
10
1.34334
20
6.35149
30
0.00000
40
0.04812
50
167.14822
51
175.86001
0
ARC
8
1
62
5
10
2.76830
20
6.36384
30
0.00000
40
1.47299
50
180.34538
51
183.26213
0
ARC
8
1
62
5
10
1.43805
20
6.28157
30
0.00000
40
0.14036
50
180.63074
51
192.46506
0
ARC
8
1
62
5
10
1.24332
20
6.23390
30
0.00000
40
0.06024
50
1.71702
51
16.75352
0
ARC
8
1
62
5
10
1.48131
20
6.24715
30
0.00000
40
0.17815
50
183.68137
51
190.41932
0
ARC
8
1
62
5
10
1.13869
20
6.16365
30
0.00000
40
0.17509
50
14.68393
51
17.03131
0
ARC
8
1
62
5
10
1.78743
20
6.30217
30
0.00000
40
0.48853
50
191.11025
51
198.96760
0
ARC
8
1
62
5
10
1.63415
20
6.25233
30
0.00000
40
0.32738
50
199.43781
51
206.07853
0
ARC
8
1
62
5
10
1.40676
20
6.13324
30
0.00000
40
0.07114
50
200.43217
51
216.48960
0
ARC
8
1
62
5
10
1.31623
20
6.06722
30
0.00000
40
0.04092
50
28.70416
51
35.43306
0
ARC
8
1
62
5
10
1.31117
20
6.06448
30
0.00000
40
0.04667
50
22.36549
51
28.66683
0
ARC
8
1
62
5
10
1.47088
20
6.12983
30
0.00000
40
0.12589
50
202.21309
51
208.38272
0
ARC
8
1
62
5
10
1.54847
20
6.16353
30
0.00000
40
0.21030
50
206.41139
51
233.40601
0
ARC
8
1
62
5
10
1.39111
20
5.94884
30
0.00000
40
0.05591
50
51.34936
51
55.09880
0
ARC
8
1
62
5
10
1.33881
20
5.88333
30
0.00000
40
0.13973
50
49.00942
51
51.37944
0
ARC
8
1
62
5
10
1.44758
20
6.00848
30
0.00000
40
0.02608
50
228.98463
51
232.89020
0
LINE
8
1
62
5
10
1.43185
20
5.98768
30
0.00000
11
1.43803
21
5.98309
31
0.00000
0
ARC
8
1
62
5
10
1.50425
20
6.06212
30
0.00000
40
0.10310
50
230.04122
51
238.84133
0
LINE
8
1
62
5
10
1.45090
20
5.97389
30
0.00000
11
1.46255
21
5.96799
31
0.00000
0
ARC
8
1
62
5
10
1.60994
20
6.21850
30
0.00000
40
0.29065
50
239.53015
51
250.59540
0
ARC
8
1
62
5
10
1.57094
20
6.11281
30
0.00000
40
0.17802
50
251.13229
51
261.54372
0
ARC
8
1
62
5
10
1.54310
20
5.88975
30
0.00000
40
0.04701
50
74.14195
51
87.98117
0
ARC
8
1
62
5
10
1.56580
20
5.97102
30
0.00000
40
0.03738
50
254.71596
51
283.81969
0
LINE
8
1
62
5
10
1.57473
20
5.93473
30
0.00000
11
1.59570
21
5.94102
31
0.00000
0
ARC
8
1
62
5
10
1.61184
20
5.89998
30
0.00000
40
0.04410
50
101.97531
51
111.46830
0
ARC
8
1
62
5
10
1.59097
20
5.99597
30
0.00000
40
0.05413
50
282.49926
51
307.82332
0
ARC
8
1
62
5
10
1.64280
20
5.93037
30
0.00000
40
0.02948
50
109.87978
51
129.20786
0
ARC
8
1
62
5
10
1.62296
20
5.98555
30
0.00000
40
0.02917
50
289.67704
51
302.91973
0
ARC
8
1
62
5
10
1.58879
20
6.02157
30
0.00000
40
0.07850
50
309.58490
51
328.00034
0
LINE
8
1
62
5
10
1.65536
20
5.97997
30
0.00000
11
1.68523
21
6.04620
31
0.00000
0
LINE
8
1
62
5
10
1.68523
20
6.04620
30
0.00000
11
1.70691
21
6.09886
31
0.00000
0
ARC
8
1
62
5
10
2.98086
20
5.58083
30
0.00000
40
1.37525
50
154.01004
51
157.87164
0
LINE
8
1
62
5
10
1.74469
20
6.18348
30
0.00000
11
1.75320
21
6.20570
31
0.00000
0
LINE
8
1
62
5
10
1.75320
20
6.20570
30
0.00000
11
1.76050
21
6.22021
31
0.00000
0
ARC
8
1
62
5
10
2.95175
20
5.73799
30
0.00000
40
1.28515
50
155.14148
51
157.96180
0
ARC
8
1
62
5
10
1.49161
20
6.44844
30
0.00000
40
0.33977
50
329.93754
51
337.10135
0
LINE
8
1
62
5
10
1.80460
20
6.31624
30
0.00000
11
1.86918
21
6.44893
31
0.00000
0
LINE
8
1
62
5
10
1.86918
20
6.44893
30
0.00000
11
1.89152
21
6.49256
31
0.00000
0
ARC
8
1
62
5
10
1.73374
20
6.59458
30
0.00000
40
0.18789
50
327.11251
51
337.02690
0
ARC
8
1
62
5
10
1.92320
20
6.51402
30
0.00000
40
0.01799
50
149.00871
51
156.29153
0
ARC
8
1
62
5
10
1.95838
20
6.49256
30
0.00000
40
0.05919
50
144.72923
51
148.73547
0
LINE
8
1
62
5
10
1.91005
20
6.52674
30
0.00000
11
1.91361
21
6.53196
31
0.00000
0
ARC
8
1
62
5
10
1.87230
20
6.56043
30
0.00000
40
0.05017
50
325.42812
51
329.98222
0
ARC
8
1
62
5
10
1.89932
20
6.54475
30
0.00000
40
0.01893
50
330.14181
51
337.56451
0
ARC
8
1
62
5
10
2.04650
20
6.49263
30
0.00000
40
0.13723
50
158.04438
51
160.90231
0
ARC
8
1
62
5
10
1.94669
20
6.53285
30
0.00000
40
0.02962
50
152.00586
51
158.00501
0
ARC
8
1
62
5
10
1.95151
20
6.53034
30
0.00000
40
0.03506
50
146.57145
51
152.08389
0
LINE
8
1
62
5
10
1.92225
20
6.54965
30
0.00000
11
1.92754
21
6.55750
31
0.00000
0
LINE
8
1
62
5
10
1.92754
20
6.55750
30
0.00000
11
1.97792
21
6.64766
31
0.00000
0
ARC
8
1
62
5
10
2.20587
20
6.52938
30
0.00000
40
0.25681
50
143.28623
51
152.57449
0
ARC
8
1
62
5
10
1.94948
20
6.72616
30
0.00000
40
0.06651
50
319.42868
51
338.92304
0
ARC
8
1
62
5
10
2.09950
20
6.66851
30
0.00000
40
0.09421
50
147.11539
51
159.02013
0
ARC
8
1
62
5
10
2.05814
20
6.70866
30
0.00000
40
0.03932
50
46.92169
51
163.75206
0
ARC
8
1
62
5
10
2.04328
20
6.70348
30
0.00000
40
0.05376
50
327.10794
51
399.09681
0
ARC
8
1
62
5
10
2.90447
20
6.43111
30
0.00000
40
0.85151
50
163.40652
51
175.87013
0
ARC
8
1
62
5
10
2.09950
20
6.47444
30
0.00000
40
0.04784
50
157.91392
51
274.49688
0
LINE
8
1
62
5
10
2.10325
20
6.42675
30
0.00000
11
2.13180
21
6.42059
31
0.00000
0
ARC
8
1
62
5
10
2.14226
20
6.45423
30
0.00000
40
0.03523
50
252.72360
51
264.71759
0
ARC
8
1
62
5
10
2.14469
20
6.73083
30
0.00000
40
0.31173
50
268.95827
51
272.94437
0
LINE
8
1
62
5
10
2.16070
20
6.41951
30
0.00000
11
2.18256
21
6.42071
31
0.00000
0
ARC
8
1
62
5
10
2.18120
20
6.45548
30
0.00000
40
0.03480
50
272.24152
51
291.38794
0
ARC
8
1
62
5
10
2.20820
20
6.38568
30
0.00000
40
0.04004
50
100.37445
51
110.93998
0
LINE
8
1
62
5
10
2.20099
20
6.42507
30
0.00000
11
2.21323
21
6.42660
31
0.00000
0
ARC
8
1
62
5
10
2.20693
20
6.46195
30
0.00000
40
0.03591
50
280.09768
51
291.83598
0
ARC
8
1
62
5
10
2.27427
20
6.25696
30
0.00000
40
0.17995
50
104.00075
51
107.45467
0
ARC
8
1
62
5
10
2.21182
20
6.51030
30
0.00000
40
0.08098
50
283.50807
51
286.78514
0
ARC
8
1
62
5
10
2.23159
20
6.44485
30
0.00000
40
0.01261
50
286.65388
51
294.97141
0
ARC
8
1
62
5
10
2.24296
20
6.42048
30
0.00000
40
0.01428
50
102.25605
51
115.06857
0
ARC
8
1
62
5
10
2.24040
20
6.43235
30
0.00000
40
0.00215
50
69.11032
51
102.51984
0
LINE
8
1
62
5
10
2.24116
20
6.43435
30
0.00000
11
2.24352
21
6.43353
31
0.00000
0
ARC
8
1
62
5
10
2.24433
20
6.43562
30
0.00000
40
0.00224
50
248.76230
51
282.37236
0
ARC
8
1
62
5
10
2.24204
20
6.44606
30
0.00000
40
0.01293
50
282.38859
51
296.22622
0
LINE
8
1
62
5
10
2.24775
20
6.43446
30
0.00000
11
2.25362
21
6.43671
31
0.00000
0
ARC
8
1
62
5
10
2.15962
20
6.72504
30
0.00000
40
0.30327
50
288.05653
51
302.13650
0
ARC
8
1
62
5
10
2.28462
20
6.54615
30
0.00000
40
0.08596
50
294.99298
51
312.28879
0
ARC
8
1
62
5
10
2.26256
20
6.55170
30
0.00000
40
0.10566
50
319.13018
51
331.16545
0
LINE
8
1
62
5
10
2.35512
20
6.50074
30
0.00000
11
2.40964
21
6.59562
31
0.00000
0
ARC
8
1
62
5
10
2.48706
20
6.56042
30
0.00000
40
0.08505
50
140.40112
51
155.55019
0
ARC
8
1
62
5
10
2.35349
20
6.65943
30
0.00000
40
0.08146
50
326.63606
51
338.01212
0
ARC
8
1
62
5
10
2.66084
20
6.50273
30
0.00000
40
0.26393
50
142.41668
51
151.43604
0
ARC
8
1
62
5
10
2.47335
20
6.64986
30
0.00000
40
0.02571
50
111.96170
51
147.41520
0
ARC
8
1
62
5
10
2.46724
20
6.66627
30
0.00000
40
0.00823
50
85.46062
51
115.24602
0
ARC
8
1
62
5
10
2.46562
20
6.64651
30
0.00000
40
0.02805
50
69.34962
51
85.35404
0
LINE
8
1
62
5
10
2.47551
20
6.67276
30
0.00000
11
2.47849
21
6.67165
31
0.00000
0
ARC
8
1
62
5
10
2.46992
20
6.65576
30
0.00000
40
0.01805
50
41.39718
51
61.64967
0
LINE
8
1
62
5
10
2.48346
20
6.66770
30
0.00000
11
2.48530
21
6.66506
31
0.00000
0
LINE
8
1
62
5
10
2.48530
20
6.66506
30
0.00000
11
2.49267
21
6.65457
31
0.00000
0
ARC
8
1
62
5
10
2.30347
20
6.54963
30
0.00000
40
0.21635
50
17.10981
51
29.01579
0
ARC
8
1
62
5
10
2.63114
20
6.64249
30
0.00000
40
0.12437
50
193.58373
51
212.68952
0
ARC
8
1
62
5
10
2.54008
20
6.58312
30
0.00000
40
0.01569
50
209.81530
51
244.74529
0
ARC
8
1
62
5
10
2.64923
20
6.81061
30
0.00000
40
0.26801
50
244.39175
51
253.04709
0
ARC
8
1
62
5
10
2.58338
20
6.58665
30
0.00000
40
0.03465
50
249.21436
51
255.89126
0
ARC
8
1
62
5
10
2.58018
20
6.57314
30
0.00000
40
0.02077
50
255.35451
51
263.97011
0
LINE
8
1
62
5
10
2.57800
20
6.55248
30
0.00000
11
2.58582
21
6.55190
31
0.00000
0
ARC
8
1
62
5
10
2.58212
20
6.51282
30
0.00000
40
0.03925
50
78.82087
51
84.59082
0
ARC
8
1
62
5
10
2.58659
20
6.53581
30
0.00000
40
0.01584
50
69.48347
51
78.56294
0
ARC
8
1
62
5
10
2.59717
20
6.56431
30
0.00000
40
0.01456
50
249.77843
51
262.40932
0
ARC
8
1
62
5
10
2.59550
20
6.55198
30
0.00000
40
0.00212
50
263.22889
51
296.62360
0
LINE
8
1
62
5
10
2.59645
20
6.55008
30
0.00000
11
2.59874
21
6.55106
31
0.00000
0
ARC
8
1
62
5
10
2.59970
20
6.54915
30
0.00000
40
0.00214
50
83.14869
51
116.54295
0
ARC
8
1
62
5
10
2.59801
20
6.53690
30
0.00000
40
0.01450
50
69.70156
51
82.31323
0
ARC
8
1
62
5
10
2.60998
20
6.56787
30
0.00000
40
0.01871
50
248.21637
51
267.63217
0
ARC
8
1
62
5
10
2.61214
20
6.75317
30
0.00000
40
0.20401
50
269.17848
51
275.20413
0
ARC
8
1
62
5
10
2.62917
20
6.58481
30
0.00000
40
0.03484
50
272.41139
51
291.52913
0
ARC
8
1
62
5
10
2.65598
20
6.51562
30
0.00000
40
0.03936
50
100.10848
51
110.86492
0
LINE
8
1
62
5
10
2.64907
20
6.55437
30
0.00000
11
2.66573
21
6.55609
31
0.00000
0
ARC
8
1
62
5
10
2.66293
20
6.57260
30
0.00000
40
0.01675
50
279.63895
51
287.17017
0
ARC
8
1
62
5
10
2.64258
20
6.64375
30
0.00000
40
0.09075
50
286.18448
51
289.40750
0
ARC
8
1
62
5
10
2.72273
20
6.43943
30
0.00000
40
0.12883
50
99.76861
51
112.83622
0
ARC
8
1
62
5
10
2.69792
20
6.58510
30
0.00000
40
0.01894
50
278.94624
51
290.76520
0
ARC
8
1
62
5
10
2.70004
20
6.57913
30
0.00000
40
0.01261
50
291.38386
51
305.92305
0
LINE
8
1
62
5
10
2.70744
20
6.56892
30
0.00000
11
2.71277
21
6.57255
31
0.00000
0
ARC
8
1
62
5
10
2.71933
20
6.56321
30
0.00000
40
0.01142
50
111.21329
51
125.07843
0
ARC
8
1
62
5
10
2.72502
20
6.54844
30
0.00000
40
0.02724
50
102.16414
51
111.13125
0
ARC
8
1
62
5
10
2.70211
20
6.65282
30
0.00000
40
0.07963
50
282.45198
51
290.35656
0
LINE
8
1
62
5
10
2.72981
20
6.57817
30
0.00000
11
2.74740
21
6.58330
31
0.00000
0
ARC
8
1
62
5
10
2.76539
20
6.52504
30
0.00000
40
0.06097
50
77.67999
51
107.15955
0
LINE
8
1
62
5
10
2.77840
20
6.58461
30
0.00000
11
2.78918
21
6.58246
31
0.00000
0
ARC
8
1
62
5
10
2.78249
20
6.54439
30
0.00000
40
0.03865
50
55.01834
51
80.03152
0
ARC
8
1
62
5
10
2.79669
20
6.56548
30
0.00000
40
0.01323
50
9.68301
51
53.04836
0
ARC
8
1
62
5
10
2.77996
20
6.56166
30
0.00000
40
0.03039
50
352.39110
51
371.47646
0
ARC
8
1
62
5
10
2.80329
20
6.55870
30
0.00000
40
0.00687
50
334.62382
51
351.08508
0
ARC
8
1
62
5
10
2.80341
20
6.55865
30
0.00000
40
0.00674
50
317.99984
51
334.62002
0
ARC
8
1
62
5
10
2.74670
20
6.61501
30
0.00000
40
0.08669
50
312.33190
51
315.39406
0
LINE
8
1
62
5
10
2.80508
20
6.55093
30
0.00000
11
2.80313
21
6.54888
31
0.00000
0
LINE
8
1
62
5
10
2.80313
20
6.54888
30
0.00000
11
2.80044
21
6.54293
31
0.00000
0
LINE
8
1
62
5
10
2.80044
20
6.54293
30
0.00000
11
2.79878
21
6.53810
31
0.00000
0
ARC
8
1
62
5
10
2.88338
20
6.48792
30
0.00000
40
0.09836
50
149.32258
51
309.26438
0
LINE
8
1
62
5
10
2.94563
20
6.41176
30
0.00000
11
2.94987
21
6.40926
31
0.00000
0
LINE
8
1
62
5
10
2.94987
20
6.40926
30
0.00000
11
2.95264
21
6.40766
31
0.00000
0
ARC
8
1
62
5
10
2.94674
20
6.39560
30
0.00000
40
0.01343
50
42.71933
51
63.91217
0
ARC
8
1
62
5
10
2.93285
20
6.38276
30
0.00000
40
0.03234
50
29.11928
51
42.73772
0
ARC
8
1
62
5
10
2.94934
20
6.39198
30
0.00000
40
0.01345
50
7.92250
51
29.02099
0
ARC
8
1
62
5
10
2.94815
20
6.39179
30
0.00000
40
0.01465
50
347.77130
51
367.99475
0
ARC
8
1
62
5
10
2.84184
20
6.41363
30
0.00000
40
0.12318
50
340.31201
51
348.31881
0
ARC
8
1
62
5
10
3.27977
20
6.23253
30
0.00000
40
0.35091
50
156.55736
51
162.08483
0
LINE
8
1
62
5
10
2.94587
20
6.34047
30
0.00000
11
2.94090
21
6.32875
31
0.00000
0
ARC
8
1
62
5
10
1.24156
20
7.20060
30
0.00000
40
1.90994
50
311.17531
51
332.83981
0
ARC
8
1
62
5
10
0.90777
20
7.47310
30
0.00000
40
2.33592
50
295.29184
51
312.93766
0
ARC
8
1
62
5
10
1.94947
20
5.28098
30
0.00000
40
0.09128
50
118.62967
51
123.01657
0
ARC
8
1
62
5
10
1.83474
20
5.44874
30
0.00000
40
0.11201
50
300.50099
51
305.47259
0
LINE
8
1
62
5
10
1.89159
20
5.35223
30
0.00000
11
1.88840
21
5.35087
31
0.00000
0
ARC
8
1
62
5
10
1.90414
20
5.30912
30
0.00000
40
0.04461
50
110.65756
51
131.78651
0
ARC
8
1
62
5
10
1.84455
20
5.37151
30
0.00000
40
0.04171
50
293.71284
51
315.72298
0
ARC
8
1
62
5
10
1.89538
20
5.24549
30
0.00000
40
0.09420
50
111.19720
51
123.50603
0
ARC
8
1
62
5
10
1.71015
20
5.50635
30
0.00000
40
0.22580
50
300.41968
51
306.15922
0
ARC
8
1
62
5
10
1.98512
20
5.10211
30
0.00000
40
0.26402
50
127.47666
51
130.92451
0
ARC
8
1
62
5
10
1.73850
20
5.39282
30
0.00000
40
0.11726
50
297.82800
51
308.92121
0
ARC
8
1
62
5
10
1.80563
20
5.25756
30
0.00000
40
0.03391
50
111.43961
51
122.83256
0
ARC
8
1
62
5
10
1.85560
20
5.20270
30
0.00000
40
0.10779
50
129.35383
51
134.35814
0
ARC
8
1
62
5
10
1.66926
20
5.39967
30
0.00000
40
0.16338
50
308.35513
51
312.78845
0
ARC
8
1
62
5
10
1.91112
20
5.04357
30
0.00000
40
0.26779
50
121.64222
51
130.56222
0
ARC
8
1
62
5
10
2.07177
20
4.80127
30
0.00000
40
0.55746
50
126.90908
51
136.65151
0
LINE
8
1
62
5
10
1.66639
20
5.18393
30
0.00000
11
1.65557
21
5.17430
31
0.00000
0
ENDSEC
0
EOF
