  0
SECTION
  2
HEADER
  9
$ACADVER
  1
AC1006
  0
ENDSEC
  0
SECTION
  2
TABLES
  0
TABLE
  2
LTYPE
 70
    25
  0
LTYPE
  2
CONTINUOUS
 70
    64
  3
Solid line
 72
    64
 73
     0
 40
0.000000
  0
LTYPE
  2
DASHDOT
 70
    64
  3
__ . __ . __ . __ . __ . __ . __ . __ . __ . __
 72
    65
 73
     4
 40
1.000000
 49
0.500000
 49
-0.250000
 49
0.000000
 49
-0.250000
  0
LTYPE
  2
DASHED
 70
    64
  3
__ __ __ __ __ __ __ __ __ __ __ __ __ __ __ __
 72
    65
 73
     2
 40
0.750000
 49
0.500000
 49
-0.250000
  0
LTYPE
  2
DIVIDE
 70
    64
  3
____ . . ____ . . ____ . . ____ . . ____ . . __
 72
    65
 73
     6
 40
1.250000
 49
0.500000
 49
-0.250000
 49
0.000000
 49
-0.250000
 49
0.000000
 49
-0.250000
  0
LTYPE
  2
DOT
 70
    64
  3
. . . . . . . . . . . . . . . . . . . . . . . . 
 72
    65
 73
     2
 40
0.250000
 49
0.000000
 49
-0.250000
  0
ENDTAB
  0
ENDSEC
  0
SECTION
  2
ENTITIES
  0
ARC
  8
0
 62
     7
  6
CONTINUOUS
 10
5.842242
 20
8.175201
 30
0.000000
 40
2.837506
 50
298.296316
 51
309.525774
  0
ARC
  8
0
 62
     7
  6
CONTINUOUS
 10
10.400169
 20
0.064883
 30
0.000000
 40
6.466496
 50
119.791626
 51
121.912197
  0
ARC
  8
0
 62
     7
  6
CONTINUOUS
 10
7.013070
 20
5.475662
 30
0.000000
 40
0.084353
 50
111.717708
 51
117.080073
  0
ARC
  8
0
 62
     7
  6
CONTINUOUS
 10
6.949463
 20
5.596669
 30
0.000000
 40
0.052367
 50
283.895964
 51
298.773081
  0
ARC
  8
0
 62
     7
  6
CONTINUOUS
 10
6.959124
 20
5.557460
 30
0.000000
 40
0.011986
 50
224.714704
 51
284.077402
  0
ARC
  8
0
 62
     7
  6
CONTINUOUS
 10
4.942295
 20
8.831667
 30
0.000000
 40
3.848251
 50
301.458204
 51
314.756964
  0
ARC
  8
0
 62
     7
  6
CONTINUOUS
 10
8.393888
 20
5.478370
 30
0.000000
 40
0.967383
 50
138.767342
 51
140.090172
  0
ARC
  8
0
 62
     7
  6
CONTINUOUS
 10
7.480735
 20
6.291978
 30
0.000000
 40
0.255803
 50
316.529288
 51
330.172919
  0
ARC
  8
0
 62
     7
  6
CONTINUOUS
 10
7.609212
 20
6.213234
 30
0.000000
 40
0.105272
 50
332.573713
 51
367.376064
  0
ARC
  8
0
 62
     7
  6
CONTINUOUS
 10
7.609331
 20
6.214505
 30
0.000000
 40
0.104999
 50
6.696813
 51
30.058020
  0
ARC
  8
0
 62
     7
  6
CONTINUOUS
 10
7.610579
 20
6.218872
 30
0.000000
 40
0.101780
 50
28.281614
 51
40.774602
  0
ARC
  8
0
 62
     7
  6
CONTINUOUS
 10
7.656979
 20
6.260260
 30
0.000000
 40
0.039626
 50
39.272413
 51
65.069086
  0
ARC
  8
0
 62
     7
  6
CONTINUOUS
 10
7.669341
 20
6.240625
 30
0.000000
 40
0.055738
 50
85.532840
 51
126.218635
  0
ARC
  8
0
 62
     7
  6
CONTINUOUS
 10
7.855212
 20
5.915184
 30
0.000000
 40
0.430207
 50
120.570891
 51
129.388026
  0
ARC
  8
0
 62
     7
  6
CONTINUOUS
 10
8.976655
 20
4.549168
 30
0.000000
 40
2.197587
 50
129.385271
 51
133.457885
  0
LINE
  8
0
 62
     7
  6
CONTINUOUS
 10
7.465108
 20
6.144353
 30
0.000000
 11
7.459353
 21
6.139023
 31
0.000000
  0
ARC
  8
0
 62
     7
  6
CONTINUOUS
 10
4.589267
 20
9.291759
 30
0.000000
 40
4.263465
 50
301.755466
 51
312.313104
  0
ARC
  8
0
 62
     7
  6
CONTINUOUS
 10
6.832021
 20
5.659632
 30
0.000000
 40
0.006978
 50
81.043441
 51
111.712372
  0
ARC
  8
0
 62
     7
  6
CONTINUOUS
 10
6.839810
 20
5.638875
 30
0.000000
 40
0.029147
 50
110.841790
 51
118.937981
  0
ARC
  8
0
 62
     7
  6
CONTINUOUS
 10
6.809679
 20
5.693893
 30
0.000000
 40
0.033582
 50
292.929423
 51
298.506868
  0
ARC
  8
0
 62
     7
  6
CONTINUOUS
 10
6.819821
 20
5.669622
 30
0.000000
 40
0.007278
 50
271.592234
 51
293.837215
  0
ARC
  8
0
 62
     7
  6
CONTINUOUS
 10
6.820024
 20
5.665950
 30
0.000000
 40
0.003603
 50
227.749210
 51
269.991995
  0
ARC
  8
0
 62
     7
  6
CONTINUOUS
 10
6.823177
 20
5.668947
 30
0.000000
 40
0.007947
 50
197.739070
 51
225.448321
  0
ARC
  8
0
 62
     7
  6
CONTINUOUS
 10
4.639698
 20
8.585733
 30
0.000000
 40
3.640928
 50
306.699985
 51
317.452008
  0
ARC
  8
0
 62
     7
  6
CONTINUOUS
 10
6.182913
 20
7.181327
 30
0.000000
 40
1.554380
 50
317.124259
 51
341.486604
  0
ARC
  8
0
 62
     7
  6
CONTINUOUS
 10
7.300272
 20
6.746249
 30
0.000000
 40
0.361344
 50
350.686397
 51
363.780945
  0
ARC
  8
0
 62
     7
  6
CONTINUOUS
 10
7.512343
 20
6.760185
 30
0.000000
 40
0.148816
 50
3.811625
 51
20.440557
  0
ARC
  8
0
 62
     7
  6
CONTINUOUS
 10
7.595000
 20
6.792016
 30
0.000000
 40
0.060254
 50
19.527221
 51
55.240891
  0
ARC
  8
0
 62
     7
  6
CONTINUOUS
 10
7.609894
 20
6.740898
 30
0.000000
 40
0.102485
 50
79.055239
 51
105.451406
  0
ARC
  8
0
 62
     7
  6
CONTINUOUS
 10
7.595942
 20
6.781131
 30
0.000000
 40
0.060050
 50
102.846619
 51
140.881707
  0
ARC
  8
0
 62
     7
  6
CONTINUOUS
 10
9.005597
 20
5.801434
 30
0.000000
 40
1.776548
 50
145.055199
 51
152.451120
  0
ARC
  8
0
 62
     7
  6
CONTINUOUS
 10
5.730247
 20
7.517210
 30
0.000000
 40
1.920997
 50
326.081594
 51
332.261165
  0
ARC
  8
0
 62
     7
  6
CONTINUOUS
 10
5.185300
 20
8.143333
 30
0.000000
 40
2.731110
 50
300.967782
 51
321.556118
  0
ARC
  8
0
 62
     7
  6
CONTINUOUS
 10
6.709778
 20
5.449284
 30
0.000000
 40
0.371853
 50
108.691560
 51
108.967496
  0
ARC
  8
0
 62
     7
  6
CONTINUOUS
 10
6.577314
 20
5.829072
 30
0.000000
 40
0.030424
 50
275.637982
 51
292.412586
  0
ARC
  8
0
 62
     7
  6
CONTINUOUS
 10
6.580392
 20
5.813497
 30
0.000000
 40
0.014702
 50
234.523941
 51
269.655633
  0
ARC
  8
0
 62
     7
  6
CONTINUOUS
 10
4.033220
 20
8.997079
 30
0.000000
 40
4.081208
 50
308.464620
 51
315.947310
  0
ARC
  8
0
 62
     7
  6
CONTINUOUS
 10
6.166082
 20
6.952632
 30
0.000000
 40
1.126857
 50
315.251988
 51
341.443462
  0
ARC
  8
0
 62
     7
  6
CONTINUOUS
 10
8.106961
 20
6.417048
 30
0.000000
 40
0.890372
 50
167.819937
 51
168.535444
  0
ARC
  8
0
 62
     7
  6
CONTINUOUS
 10
6.972543
 20
6.671940
 30
0.000000
 40
0.272465
 50
345.756732
 51
359.877372
  0
ARC
  8
0
 62
     7
  6
CONTINUOUS
 10
7.168814
 20
6.669872
 30
0.000000
 40
0.076208
 50
1.116401
 51
25.130175
  0
ARC
  8
0
 62
     7
  6
CONTINUOUS
 10
7.195341
 20
6.681158
 30
0.000000
 40
0.047411
 50
26.396886
 51
64.697207
  0
ARC
  8
0
 62
     7
  6
CONTINUOUS
 10
7.198885
 20
6.655595
 30
0.000000
 40
0.070438
 50
76.268908
 51
107.906578
  0
ARC
  8
0
 62
     7
  6
CONTINUOUS
 10
7.196659
 20
6.665154
 30
0.000000
 40
0.060664
 50
108.682525
 51
143.167712
  0
ARC
  8
0
 62
     7
  6
CONTINUOUS
 10
4.820363
 20
8.077732
 30
0.000000
 40
2.704134
 50
296.084571
 51
329.407487
  0
ARC
  8
0
 62
     7
  6
CONTINUOUS
 10
6.007101
 20
5.636428
 30
0.000000
 40
0.012799
 50
79.817513
 51
114.469810
  0
ARC
  8
0
 62
     7
  6
CONTINUOUS
 10
6.019513
 20
5.609141
 30
0.000000
 40
0.042777
 50
114.462864
 51
125.007009
  0
ARC
  8
0
 62
     7
  6
CONTINUOUS
 10
5.962606
 20
5.691971
 30
0.000000
 40
0.057722
 50
299.103329
 51
304.107206
  0
ARC
  8
0
 62
     7
  6
CONTINUOUS
 10
5.983879
 20
5.653492
 30
0.000000
 40
0.013754
 50
280.983338
 51
299.641516
  0
ARC
  8
0
 62
     7
  6
CONTINUOUS
 10
5.985246
 20
5.647012
 30
0.000000
 40
0.007134
 50
245.956183
 51
280.119366
  0
ARC
  8
0
 62
     7
  6
CONTINUOUS
 10
5.987457
 20
5.650923
 30
0.000000
 40
0.011614
 50
216.434296
 51
243.853286
  0
ARC
  8
0
 62
     7
  6
CONTINUOUS
 10
5.722033
 20
5.730750
 30
0.000000
 40
0.270367
 50
341.290743
 51
363.610414
  0
ARC
  8
0
 62
     7
  6
CONTINUOUS
 10
5.964603
 20
5.740861
 30
0.000000
 40
0.028124
 50
14.232706
 51
44.991223
  0
ARC
  8
0
 62
     7
  6
CONTINUOUS
 10
5.974623
 20
5.749943
 30
0.000000
 40
0.014631
 50
47.580677
 51
90.942482
  0
ARC
  8
0
 62
     7
  6
CONTINUOUS
 10
5.979389
 20
5.721758
 30
0.000000
 40
0.043106
 50
96.670309
 51
132.158044
  0
ARC
  8
0
 62
     7
  6
CONTINUOUS
 10
6.047467
 20
5.632324
 30
0.000000
 40
0.155389
 50
128.630769
 51
145.528009
  0
ARC
  8
0
 62
     7
  6
CONTINUOUS
 10
4.904746
 20
6.555504
 30
0.000000
 40
1.314175
 50
289.312377
 51
320.538930
  0
ARC
  8
0
 62
     7
  6
CONTINUOUS
 10
3.098299
 20
14.599046
 30
0.000000
 40
9.550431
 50
282.842790
 51
283.571361
  0
ARC
  8
0
 62
     7
  6
CONTINUOUS
 10
5.976067
 20
1.769163
 30
0.000000
 40
3.598449
 50
102.110219
 51
107.199082
  0
ARC
  8
0
 62
     7
  6
CONTINUOUS
 10
5.260848
 20
4.081549
 30
0.000000
 40
1.177982
 50
107.224343
 51
122.704765
  0
ARC
  8
0
 62
     7
  6
CONTINUOUS
 10
4.668339
 20
5.558424
 30
0.000000
 40
0.487629
 50
255.428366
 51
264.826935
  0
ARC
  8
0
 62
     7
  6
CONTINUOUS
 10
4.377016
 20
4.393854
 30
0.000000
 40
0.712860
 50
76.315857
 51
80.207241
  0
ARC
  8
0
 62
     7
  6
CONTINUOUS
 10
4.463946
 20
4.901366
 30
0.000000
 40
0.197959
 50
80.017300
 51
93.134006
  0
LINE
  8
0
 62
     7
  6
CONTINUOUS
 10
4.453123
 20
5.099028
 30
0.000000
 11
4.461873
 21
5.090281
 31
0.000000
  0
ARC
  8
0
 62
     7
  6
CONTINUOUS
 10
4.455148
 20
5.066970
 30
0.000000
 40
0.024262
 50
57.232147
 51
73.906902
  0
ARC
  8
0
 62
     7
  6
CONTINUOUS
 10
4.461098
 20
5.075500
 30
0.000000
 40
0.013874
 50
32.413117
 51
58.826698
  0
ARC
  8
0
 62
     7
  6
CONTINUOUS
 10
4.468406
 20
5.080092
 30
0.000000
 40
0.005244
 50
334.087441
 51
392.863834
  0
ARC
  8
0
 62
     7
  6
CONTINUOUS
 10
4.462786
 20
5.084269
 30
0.000000
 40
0.012193
 50
289.580492
 51
327.962369
  0
ARC
  8
0
 62
     7
  6
CONTINUOUS
 10
4.458222
 20
4.440983
 30
0.000000
 40
0.631857
 50
89.215558
 51
109.647476
  0
ARC
  8
0
 62
     7
  6
CONTINUOUS
 10
4.869661
 20
3.307335
 30
0.000000
 40
1.837852
 50
109.844374
 51
116.768638
  0
ARC
  8
0
 62
     7
  6
CONTINUOUS
 10
2.242615
 20
8.663991
 30
0.000000
 40
4.128481
 50
294.476497
 51
295.837829
  0
ARC
  8
0
 62
     7
  6
CONTINUOUS
 10
3.805548
 20
7.084658
 30
0.000000
 40
2.183121
 50
266.923733
 51
273.876162
  0
ARC
  8
0
 62
     7
  6
CONTINUOUS
 10
3.558958
 20
2.032950
 30
0.000000
 40
2.874649
 50
87.419360
 51
91.561394
  0
ARC
  8
0
 62
     7
  6
CONTINUOUS
 10
2.743401
 20
6.787388
 30
0.000000
 40
2.020180
 50
273.317909
 51
291.403388
  0
ARC
  8
0
 62
     7
  6
CONTINUOUS
 10
2.788667
 20
5.726042
 30
0.000000
 40
0.958131
 50
236.288135
 51
274.288891
  0
LINE
  8
0
 62
     7
  6
CONTINUOUS
 10
2.256888
 20
4.929031
 30
0.000000
 11
2.257454
 21
4.922357
 31
0.000000
  0
ARC
  8
0
 62
     7
  6
CONTINUOUS
 10
2.907079
 20
4.966230
 30
0.000000
 40
0.651104
 50
183.863667
 51
189.909948
  0
ARC
  8
0
 62
     7
  6
CONTINUOUS
 10
2.421515
 20
4.878078
 30
0.000000
 40
0.157649
 50
188.720763
 51
212.216460
  0
LINE
  8
0
 62
     7
  6
CONTINUOUS
 10
2.288138
 20
4.794032
 30
0.000000
 11
2.279388
 21
4.794032
 31
0.000000
  0
ARC
  8
0
 62
     7
  6
CONTINUOUS
 10
-3.512076
 20
-18.444603
 30
0.000000
 40
23.949430
 50
76.005985
 51
76.531501
  0
ARC
  8
0
 62
     7
  6
CONTINUOUS
 10
3.161655
 20
10.110122
 30
0.000000
 40
5.376766
 50
247.569744
 51
258.242186
  0
ARC
  8
0
 62
     7
  6
CONTINUOUS
 10
1.789601
 20
6.757595
 30
0.000000
 40
1.754390
 50
214.247668
 51
247.212628
  0
ARC
  8
0
 62
     7
  6
CONTINUOUS
 10
0.639697
 20
5.969704
 30
0.000000
 40
0.360486
 50
210.021718
 51
213.588436
  0
ARC
  8
0
 62
     7
  6
CONTINUOUS
 10
0.170274
 20
5.702594
 30
0.000000
 40
0.179635
 50
28.875739
 51
37.867934
  0
ARC
  8
0
 62
     7
  6
CONTINUOUS
 10
0.281168
 20
5.787792
 30
0.000000
 40
0.039803
 50
39.039102
 51
55.386456
  0
ARC
  8
0
 62
     7
  6
CONTINUOUS
 10
0.292167
 20
5.803605
 30
0.000000
 40
0.020541
 50
55.581923
 51
83.752696
  0
ARC
  8
0
 62
     7
  6
CONTINUOUS
 10
0.292577
 20
5.788826
 30
0.000000
 40
0.035246
 50
87.031949
 51
126.338762
  0
ARC
  8
0
 62
     7
  6
CONTINUOUS
 10
0.303642
 20
5.774985
 30
0.000000
 40
0.052956
 50
127.108158
 51
155.303761
  0
ARC
  8
0
 62
     7
  6
CONTINUOUS
 10
0.347147
 20
5.756372
 30
0.000000
 40
0.100266
 50
156.027392
 51
192.877938
  0
ARC
  8
0
 62
     7
  6
CONTINUOUS
 10
1.060905
 20
5.941505
 30
0.000000
 40
0.837607
 50
194.341777
 51
225.315219
  0
ARC
  8
0
 62
     7
  6
CONTINUOUS
 10
2.651764
 20
7.498137
 30
0.000000
 40
3.063269
 50
224.633513
 51
233.414033
  0
ARC
  8
0
 62
     7
  6
CONTINUOUS
 10
-2.988418
 20
0.109661
 30
0.000000
 40
6.232372
 50
50.576944
 51
52.263701
  0
ARC
  8
0
 62
     7
  6
CONTINUOUS
 10
2.262244
 20
7.611320
 30
0.000000
 40
2.982110
 50
227.319727
 51
244.307912
  0
LINE
  8
0
 62
     7
  6
CONTINUOUS
 10
0.240652
 20
5.419028
 30
0.000000
 11
0.236123
 21
5.422174
 31
0.000000
  0
ARC
  8
0
 62
     7
  6
CONTINUOUS
 10
0.012227
 20
5.109606
 30
0.000000
 40
0.384485
 50
54.385508
 51
58.747024
  0
ARC
  8
0
 62
     7
  6
CONTINUOUS
 10
0.172725
 20
5.376562
 30
0.000000
 40
0.073010
 50
57.731806
 51
76.596008
  0
ARC
  8
0
 62
     7
  6
CONTINUOUS
 10
0.183950
 20
5.423670
 30
0.000000
 40
0.024583
 50
76.593211
 51
122.711972
  0
ARC
  8
0
 62
     7
  6
CONTINUOUS
 10
0.197774
 20
5.408993
 30
0.000000
 40
0.044556
 50
127.474718
 51
161.772365
  0
ARC
  8
0
 62
     7
  6
CONTINUOUS
 10
-0.256602
 20
5.520450
 30
0.000000
 40
0.423438
 50
345.667805
 51
346.684913
  0
ARC
  8
0
 62
     7
  6
CONTINUOUS
 10
0.284918
 20
5.376506
 30
0.000000
 40
0.136968
 50
163.402032
 51
182.157193
  0
ARC
  8
0
 62
     7
  6
CONTINUOUS
 10
0.300845
 20
5.385360
 30
0.000000
 40
0.153438
 50
185.238757
 51
211.637864
  0
ARC
  8
0
 62
     7
  6
CONTINUOUS
 10
1.504518
 20
6.310320
 30
0.000000
 40
1.670718
 50
216.999273
 51
238.823036
  0
ARC
  8
0
 62
     7
  6
CONTINUOUS
 10
2.507043
 20
8.028816
 30
0.000000
 40
3.660144
 50
239.322451
 51
248.932193
  0
ARC
  8
0
 62
     7
  6
CONTINUOUS
 10
1.299851
 20
4.893702
 30
0.000000
 40
0.300644
 50
248.838956
 51
252.497554
  0
ARC
  8
0
 62
     7
  6
CONTINUOUS
 10
1.118257
 20
4.318105
 30
0.000000
 40
0.302920
 50
68.893818
 51
72.482761
  0
ARC
  8
0
 62
     7
  6
CONTINUOUS
 10
1.212687
 20
4.562716
 30
0.000000
 40
0.040715
 50
59.604386
 51
68.910291
  0
ARC
  8
0
 62
     7
  6
CONTINUOUS
 10
1.231616
 20
4.593924
 30
0.000000
 40
0.004252
 50
18.656435
 51
66.863050
  0
ARC
  8
0
 62
     7
  6
CONTINUOUS
 10
1.230370
 20
4.601450
 30
0.000000
 40
0.008115
 50
262.017752
 51
310.548016
  0
ARC
  8
0
 62
     7
  6
CONTINUOUS
 10
1.229117
 20
4.667465
 30
0.000000
 40
0.074050
 50
260.399496
 51
270.097546
  0
ARC
  8
0
 62
     7
  6
CONTINUOUS
 10
1.242869
 20
4.760920
 30
0.000000
 40
0.168503
 50
250.842308
 51
261.088899
  0
ARC
  8
0
 62
     7
  6
CONTINUOUS
 10
1.793765
 20
7.204607
 30
0.000000
 40
2.672516
 50
247.971482
 51
256.889764
  0
ARC
  8
0
 62
     7
  6
CONTINUOUS
 10
1.354434
 20
6.111445
 30
0.000000
 40
1.494381
 50
231.756270
 51
247.866010
  0
ARC
  8
0
 62
     7
  6
CONTINUOUS
 10
0.554755
 20
5.149556
 30
0.000000
 40
0.246094
 50
233.815686
 51
239.377784
  0
ARC
  8
0
 62
     7
  6
CONTINUOUS
 10
0.315616
 20
4.831758
 30
0.000000
 40
0.151688
 50
51.779044
 51
68.908309
  0
ARC
  8
0
 62
     7
  6
CONTINUOUS
 10
0.357501
 20
4.938417
 30
0.000000
 40
0.037107
 50
69.984419
 51
136.348648
  0
ARC
  8
0
 62
     7
  6
CONTINUOUS
 10
0.434335
 20
4.929054
 30
0.000000
 40
0.109424
 50
161.358420
 51
198.150457
  0
ARC
  8
0
 62
     7
  6
CONTINUOUS
 10
0.561882
 20
4.975622
 30
0.000000
 40
0.245172
 50
199.206461
 51
213.221160
  0
LINE
  8
0
 62
     7
  6
CONTINUOUS
 10
0.356780
 20
4.841299
 30
0.000000
 11
0.358150
 21
4.839031
 31
0.000000
  0
ARC
  8
0
 62
     7
  6
CONTINUOUS
 10
1.265323
 20
5.578303
 30
0.000000
 40
1.170250
 50
219.177205
 51
241.478942
  0
ARC
  8
0
 62
     7
  6
CONTINUOUS
 10
1.983618
 20
6.920804
 30
0.000000
 40
2.692819
 50
241.689502
 51
251.152592
  0
LINE
  8
0
 62
     7
  6
CONTINUOUS
 10
1.113706
 20
4.372368
 30
0.000000
 11
1.118431
 21
4.370659
 31
0.000000
  0
ARC
  8
0
 62
     7
  6
CONTINUOUS
 10
0.774915
 20
3.403407
 30
0.000000
 40
1.026441
 50
68.501021
 51
70.447656
  0
ARC
  8
0
 62
     7
  6
CONTINUOUS
 10
1.091540
 20
4.206255
 30
0.000000
 40
0.163414
 50
63.745275
 51
68.628886
  0
ARC
  8
0
 62
     7
  6
CONTINUOUS
 10
1.152787
 20
4.330258
 30
0.000000
 40
0.025110
 50
54.326640
 51
63.914419
  0
ARC
  8
0
 62
     7
  6
CONTINUOUS
 10
1.166732
 20
4.349057
 30
0.000000
 40
0.001745
 50
2.889847
 51
66.393915
  0
ARC
  8
0
 62
     7
  6
CONTINUOUS
 10
1.166864
 20
4.349386
 30
0.000000
 40
0.001628
 50
283.868903
 51
351.498647
  0
ARC
  8
0
 62
     7
  6
CONTINUOUS
 10
1.164439
 20
4.356595
 30
0.000000
 40
0.009229
 50
268.155880
 51
287.758782
  0
ARC
  8
0
 62
     7
  6
CONTINUOUS
 10
1.165950
 20
4.407350
 30
0.000000
 40
0.060007
 50
258.152820
 51
268.273837
  0
ARC
  8
0
 62
     7
  6
CONTINUOUS
 10
1.244817
 20
4.793528
 30
0.000000
 40
0.454155
 50
254.722395
 51
258.417195
  0
ARC
  8
0
 62
     7
  6
CONTINUOUS
 10
0.976150
 20
3.795249
 30
0.000000
 40
0.579651
 50
75.104912
 51
76.459598
  0
ARC
  8
0
 62
     7
  6
CONTINUOUS
 10
1.582877
 20
6.258926
 30
0.000000
 40
1.957646
 50
241.853428
 51
256.077948
  0
ARC
  8
0
 62
     7
  6
CONTINUOUS
 10
0.924248
 20
5.362239
 30
0.000000
 40
0.870712
 50
252.046682
 51
252.291449
  0
ARC
  8
0
 62
     7
  6
CONTINUOUS
 10
0.575160
 20
4.305633
 30
0.000000
 40
0.242133
 50
70.531926
 51
83.991024
  0
ARC
  8
0
 62
     7
  6
CONTINUOUS
 10
0.591798
 20
4.452556
 30
0.000000
 40
0.094283
 50
84.699913
 51
104.188373
  0
ARC
  8
0
 62
     7
  6
CONTINUOUS
 10
0.582252
 20
4.491242
 30
0.000000
 40
0.054438
 50
104.427240
 51
137.838104
  0
ARC
  8
0
 62
     7
  6
CONTINUOUS
 10
0.630140
 20
4.508731
 30
0.000000
 40
0.090274
 50
167.816586
 51
205.206885
  0
ARC
  8
0
 62
     7
  6
CONTINUOUS
 10
0.696749
 20
4.545365
 30
0.000000
 40
0.166210
 50
206.854111
 51
226.884892
  0
ARC
  8
0
 62
     7
  6
CONTINUOUS
 10
1.136144
 20
5.053912
 30
0.000000
 40
0.838182
 50
228.718847
 51
248.402059
  0
ARC
  8
0
 62
     7
  6
CONTINUOUS
 10
1.722596
 20
6.558975
 30
0.000000
 40
2.453458
 50
248.605765
 51
255.271738
  0
LINE
  8
0
 62
     7
  6
CONTINUOUS
 10
1.098841
 20
4.186132
 30
0.000000
 11
1.145646
 21
4.172787
 31
0.000000
  0
ARC
  8
0
 62
     7
  6
CONTINUOUS
 10
1.310910
 20
4.668966
 30
0.000000
 40
0.522977
 50
251.578442
 51
262.330923
  0
ARC
  8
0
 62
     7
  6
CONTINUOUS
 10
1.122569
 20
3.380315
 30
0.000000
 40
0.779419
 50
76.683259
 51
81.251419
  0
ARC
  8
0
 62
     7
  6
CONTINUOUS
 10
1.264966
 20
3.972436
 30
0.000000
 40
0.170435
 50
59.333130
 51
77.416787
  0
ARC
  8
0
 62
     7
  6
CONTINUOUS
 10
1.362661
 20
7.446635
 30
0.000000
 40
3.327618
 50
261.105293
 51
269.814641
  0
ARC
  8
0
 62
     7
  6
CONTINUOUS
 10
0.848495
 20
4.208713
 30
0.000000
 40
0.049679
 50
247.109422
 51
269.599116
  0
ARC
  8
0
 62
     7
  6
CONTINUOUS
 10
0.940313
 20
4.428449
 30
0.000000
 40
0.287827
 50
239.726274
 51
247.285428
  0
ARC
  8
0
 62
     7
  6
CONTINUOUS
 10
0.768341
 20
4.266945
 30
0.000000
 40
0.091122
 50
275.098815
 51
287.149832
  0
ARC
  8
0
 62
     7
  6
CONTINUOUS
 10
0.778859
 20
4.127353
 30
0.000000
 40
0.048891
 50
92.837374
 51
114.828280
  0
ARC
  8
0
 62
     7
  6
CONTINUOUS
 10
0.770497
 20
4.149729
 30
0.000000
 40
0.025135
 50
118.949184
 51
141.460441
  0
ARC
  8
0
 62
     7
  6
CONTINUOUS
 10
0.785872
 20
4.138020
 30
0.000000
 40
0.044460
 50
142.002366
 51
158.885701
  0
ARC
  8
0
 62
     7
  6
CONTINUOUS
 10
0.879932
 20
4.156019
 30
0.000000
 40
0.135549
 50
180.838707
 51
217.407382
  0
ARC
  8
0
 62
     7
  6
CONTINUOUS
 10
1.094060
 20
4.313274
 30
0.000000
 40
0.401201
 50
216.669746
 51
227.946758
  0
LINE
  8
0
 62
     7
  6
CONTINUOUS
 10
0.825327
 20
4.015373
 30
0.000000
 11
0.830648
 21
4.010286
 31
0.000000
  0
ARC
  8
0
 62
     7
  6
CONTINUOUS
 10
1.174675
 20
4.539706
 30
0.000000
 40
0.631379
 50
236.983441
 51
265.010634
  0
ARC
  8
0
 62
     7
  6
CONTINUOUS
 10
1.322175
 20
6.115404
 30
0.000000
 40
2.213957
 50
264.754395
 51
273.087257
  0
ARC
  8
0
 62
     7
  6
CONTINUOUS
 10
1.573895
 20
0.555741
 30
0.000000
 40
3.351539
 50
88.794735
 51
92.265448
  0
ARC
  8
0
 62
     7
  6
CONTINUOUS
 10
1.246687
 20
5.610613
 30
0.000000
 40
1.749869
 50
265.335830
 51
283.136811
  0
ARC
  8
0
 62
     7
  6
CONTINUOUS
 10
1.111833
 20
3.842969
 30
0.000000
 40
0.024716
 50
107.509932
 51
156.984157
  0
ARC
  8
0
 62
     7
  6
CONTINUOUS
 10
1.126840
 20
3.837656
 30
0.000000
 40
0.040618
 50
158.363730
 51
190.450739
  0
ARC
  8
0
 62
     7
  6
CONTINUOUS
 10
0.510221
 20
3.309041
 30
0.000000
 40
0.777337
 50
40.264101
 51
42.109902
  0
ARC
  8
0
 62
     7
  6
CONTINUOUS
 10
1.487102
 20
4.127547
 30
0.000000
 40
0.497151
 50
219.481557
 51
226.508172
  0
ARC
  8
0
 62
     7
  6
CONTINUOUS
 10
1.235485
 20
3.859004
 30
0.000000
 40
0.129175
 50
225.495265
 51
251.452366
  0
ARC
  8
0
 62
     7
  6
CONTINUOUS
 10
1.479364
 20
4.806255
 30
0.000000
 40
1.107024
 50
255.083034
 51
275.427867
  0
ARC
  8
0
 62
     7
  6
CONTINUOUS
 10
1.334227
 20
6.589467
 30
0.000000
 40
2.896070
 50
274.949244
 51
282.567692
  0
ARC
  8
0
 62
     7
  6
CONTINUOUS
 10
4.332024
 20
-3.502042
 30
0.000000
 40
7.640906
 50
108.050963
 51
108.621170
  0
ARC
  8
0
 62
     7
  6
CONTINUOUS
 10
1.294764
 20
5.339862
 30
0.000000
 40
1.708839
 50
278.611766
 51
290.464165
  0
ARC
  8
0
 62
     7
  6
CONTINUOUS
 10
1.550475
 20
3.593557
 30
0.000000
 40
0.056732
 50
89.831520
 51
119.962736
  0
ARC
  8
0
 62
     7
  6
CONTINUOUS
 10
1.607985
 20
3.500534
 30
0.000000
 40
0.166080
 50
121.123420
 51
131.602385
  0
LINE
  8
0
 62
     7
  6
CONTINUOUS
 10
1.497715
 20
3.624723
 30
0.000000
 11
1.496893
 21
3.624041
 31
0.000000
  0
ARC
  8
0
 62
     7
  6
CONTINUOUS
 10
1.526856
 20
3.620507
 30
0.000000
 40
0.030170
 50
173.273075
 51
223.781223
  0
ARC
  8
0
 62
     7
  6
CONTINUOUS
 10
1.613276
 20
3.699085
 30
0.000000
 40
0.146964
 50
222.587264
 51
234.612684
  0
ARC
  8
0
 62
     7
  6
CONTINUOUS
 10
1.390022
 20
3.393490
 30
0.000000
 40
0.231514
 50
47.908475
 51
53.365669
  0
ARC
  8
0
 62
     7
  6
CONTINUOUS
 10
1.664444
 20
3.988582
 30
0.000000
 40
0.439764
 50
254.268417
 51
276.231619
  0
ARC
  8
0
 62
     7
  6
CONTINUOUS
 10
1.571066
 20
4.784226
 30
0.000000
 40
1.240859
 50
276.529917
 51
284.112194
  0
ARC
  8
0
 62
     7
  6
CONTINUOUS
 10
2.242048
 20
2.060220
 30
0.000000
 40
1.564595
 50
99.061246
 51
103.620014
  0
ARC
  8
0
 62
     7
  6
CONTINUOUS
 10
1.745630
 20
3.953562
 30
0.000000
 40
0.428717
 50
293.421485
 51
305.672932
  0
ARC
  8
0
 62
     7
  6
CONTINUOUS
 10
2.130355
 20
3.080930
 30
0.000000
 40
0.524976
 50
114.093994
 51
122.239627
  0
ARC
  8
0
 62
     7
  6
CONTINUOUS
 10
1.964284
 20
3.348592
 30
0.000000
 40
0.210001
 50
122.872779
 51
144.583436
  0
ARC
  8
0
 62
     7
  6
CONTINUOUS
 10
1.802480
 20
3.464100
 30
0.000000
 40
0.011205
 50
146.455642
 51
208.652121
  0
ARC
  8
0
 62
     7
  6
CONTINUOUS
 10
1.823894
 20
3.477733
 30
0.000000
 40
0.036573
 50
211.310261
 51
229.942712
  0
ARC
  8
0
 62
     7
  6
CONTINUOUS
 10
1.772857
 20
3.418475
 30
0.000000
 40
0.041639
 50
38.372733
 51
48.665755
  0
ARC
  8
0
 62
     7
  6
CONTINUOUS
 10
1.798505
 20
3.439039
 30
0.000000
 40
0.008768
 50
17.623155
 51
37.064743
  0
ARC
  8
0
 62
     7
  6
CONTINUOUS
 10
1.802365
 20
3.440316
 30
0.000000
 40
0.004702
 50
344.267896
 51
377.028334
  0
ARC
  8
0
 62
     7
  6
CONTINUOUS
 10
1.909058
 20
3.841455
 30
0.000000
 40
0.415180
 50
255.754514
 51
277.082165
  0
ARC
  8
0
 62
     7
  6
CONTINUOUS
 10
1.822100
 20
4.483120
 30
0.000000
 40
1.062696
 50
277.469364
 51
285.245313
  0
ARC
  8
0
 62
     7
  6
CONTINUOUS
 10
2.702991
 20
1.081855
 30
0.000000
 40
2.450911
 50
102.964435
 51
104.205449
  0
ARC
  8
0
 62
     7
  6
CONTINUOUS
 10
1.479947
 20
4.120186
 30
0.000000
 40
0.935708
 50
313.861825
 51
316.008750
  0
ARC
  8
0
 62
     7
  6
CONTINUOUS
 10
2.434761
 20
3.114860
 30
0.000000
 40
0.450831
 50
132.822297
 51
142.542538
  0
ARC
  8
0
 62
     7
  6
CONTINUOUS
 10
2.037447
 20
3.389807
 30
0.000000
 40
0.039450
 50
344.814920
 51
358.889669
  0
ARC
  8
0
 62
     7
  6
CONTINUOUS
 10
1.935570
 20
3.416775
 30
0.000000
 40
0.144835
 50
340.974378
 51
345.075402
  0
ARC
  8
0
 62
     7
  6
CONTINUOUS
 10
2.134804
 20
3.345054
 30
0.000000
 40
0.066956
 50
158.530740
 51
176.128278
  0
ARC
  8
0
 62
     7
  6
CONTINUOUS
 10
2.089931
 20
3.349177
 30
0.000000
 40
0.021935
 50
178.960696
 51
233.516891
  0
ARC
  8
0
 62
     7
  6
CONTINUOUS
 10
2.115195
 20
3.967658
 30
0.000000
 40
0.637269
 50
266.553896
 51
282.673898
  0
ARC
  8
0
 62
     7
  6
CONTINUOUS
 10
2.156546
 20
3.783252
 30
0.000000
 40
0.448284
 50
282.688703
 51
305.111662
  0
ARC
  8
0
 62
     7
  6
CONTINUOUS
 10
2.359430
 20
3.429852
 30
0.000000
 40
0.056546
 50
312.993895
 51
346.384568
  0
ARC
  8
0
 62
     7
  6
CONTINUOUS
 10
2.213662
 20
3.577901
 30
0.000000
 40
0.264295
 50
305.991388
 51
314.221252
  0
ARC
  8
0
 62
     7
  6
CONTINUOUS
 10
2.584551
 20
3.074249
 30
0.000000
 40
0.361194
 50
126.643434
 51
131.332095
  0
ARC
  8
0
 62
     7
  6
CONTINUOUS
 10
2.404421
 20
3.277832
 30
0.000000
 40
0.089366
 50
130.814573
 51
148.015854
  0
ARC
  8
0
 62
     7
  6
CONTINUOUS
 10
2.364188
 20
3.303258
 30
0.000000
 40
0.041773
 50
148.365419
 51
182.414512
  0
ARC
  8
0
 62
     7
  6
CONTINUOUS
 10
2.379920
 20
3.306552
 30
0.000000
 40
0.057691
 50
185.025847
 51
215.815201
  0
ARC
  8
0
 62
     7
  6
CONTINUOUS
 10
2.368960
 20
3.554124
 30
0.000000
 40
0.283602
 50
262.743591
 51
289.126415
  0
ARC
  8
0
 62
     7
  6
CONTINUOUS
 10
2.249800
 20
3.908951
 30
0.000000
 40
0.657896
 50
288.806054
 51
300.190063
  0
ARC
  8
0
 62
     7
  6
CONTINUOUS
 10
2.546198
 20
3.312076
 30
0.000000
 40
0.044521
 50
356.494946
 51
399.327261
  0
ARC
  8
0
 62
     7
  6
CONTINUOUS
 10
2.459252
 20
3.312588
 30
0.000000
 40
0.131423
 50
344.081368
 51
358.590101
  0
ARC
  8
0
 62
     7
  6
CONTINUOUS
 10
2.657096
 20
3.305356
 30
0.000000
 40
0.077051
 50
201.959848
 51
254.656894
  0
ARC
  8
0
 62
     7
  6
CONTINUOUS
 10
2.672809
 20
3.419176
 30
0.000000
 40
0.191558
 50
259.137254
 51
278.716495
  0
ARC
  8
0
 62
     7
  6
CONTINUOUS
 10
2.735124
 20
2.960764
 30
0.000000
 40
0.271118
 50
86.423546
 51
97.052079
  0
ARC
  8
0
 62
     7
  6
CONTINUOUS
 10
2.746750
 20
3.150912
 30
0.000000
 40
0.080616
 50
51.545350
 51
86.239979
  0
ARC
  8
0
 62
     7
  6
CONTINUOUS
 10
2.816386
 20
3.283019
 30
0.000000
 40
0.071681
 50
254.213254
 51
277.441542
  0
ARC
  8
0
 62
     7
  6
CONTINUOUS
 10
2.796564
 20
3.438480
 30
0.000000
 40
0.228399
 50
277.321251
 51
284.644596
  0
ARC
  8
0
 62
     7
  6
CONTINUOUS
 10
2.889927
 20
3.098307
 30
0.000000
 40
0.124401
 50
89.745179
 51
106.637860
  0
ARC
  8
0
 62
     7
  6
CONTINUOUS
 10
2.888852
 20
3.189458
 30
0.000000
 40
0.033289
 50
28.402283
 51
87.196688
  0
ARC
  8
0
 62
     7
  6
CONTINUOUS
 10
2.951156
 20
3.256192
 30
0.000000
 40
0.060673
 50
237.025803
 51
284.012556
  0
ARC
  8
0
 62
     7
  6
CONTINUOUS
 10
2.915356
 20
3.384377
 30
0.000000
 40
0.193747
 50
285.106018
 51
299.755814
  0
ARC
  8
0
 62
     7
  6
CONTINUOUS
 10
3.166580
 20
2.925074
 30
0.000000
 40
0.329827
 50
113.392064
 51
118.043842
  0
ARC
  8
0
 62
     7
  6
CONTINUOUS
 10
3.084667
 20
3.289935
 30
0.000000
 40
0.079159
 50
231.724442
 51
262.877207
  0
ARC
  8
0
 62
     7
  6
CONTINUOUS
 10
3.112661
 20
3.501611
 30
0.000000
 40
0.292676
 50
262.577364
 51
271.560635
  0
ARC
  8
0
 62
     7
  6
CONTINUOUS
 10
3.166047
 20
3.171960
 30
0.000000
 40
0.058631
 50
115.860009
 51
140.766743
  0
ARC
  8
0
 62
     7
  6
CONTINUOUS
 10
3.153861
 20
3.195073
 30
0.000000
 40
0.032530
 50
81.170228
 51
114.301956
  0
ARC
  8
0
 62
     7
  6
CONTINUOUS
 10
3.149405
 20
3.173965
 30
0.000000
 40
0.054084
 50
60.017073
 51
79.938224
  0
ARC
  8
0
 62
     7
  6
CONTINUOUS
 10
3.071589
 20
3.035815
 30
0.000000
 40
0.212640
 50
54.895982
 51
60.458081
  0
ARC
  8
0
 62
     7
  6
CONTINUOUS
 10
3.264676
 20
3.302010
 30
0.000000
 40
0.116276
 50
232.486597
 51
251.889275
  0
ARC
  8
0
 62
     7
  6
CONTINUOUS
 10
3.240025
 20
3.237361
 30
0.000000
 40
0.047285
 50
255.931745
 51
308.376901
  0
ARC
  8
0
 62
     7
  6
CONTINUOUS
 10
3.256497
 20
3.259456
 30
0.000000
 40
0.060550
 50
282.285418
 51
301.997976
  0
ARC
  8
0
 62
     7
  6
CONTINUOUS
 10
3.185566
 20
3.373103
 30
0.000000
 40
0.194516
 50
301.978635
 51
308.246834
  0
ARC
  8
0
 62
     7
  6
CONTINUOUS
 10
3.402633
 20
3.100471
 30
0.000000
 40
0.153981
 50
118.881651
 51
128.879834
  0
ARC
  8
0
 62
     7
  6
CONTINUOUS
 10
3.353020
 20
3.189481
 30
0.000000
 40
0.052080
 50
88.501633
 51
118.385945
  0
ARC
  8
0
 62
     7
  6
CONTINUOUS
 10
3.405853
 20
3.284379
 30
0.000000
 40
0.066964
 50
219.767819
 51
277.453092
  0
ARC
  8
0
 62
     7
  6
CONTINUOUS
 10
3.386395
 20
3.483439
 30
0.000000
 40
0.266946
 50
276.051942
 51
290.621394
  0
ARC
  8
0
 62
     7
  6
CONTINUOUS
 10
3.859703
 20
2.094107
 30
0.000000
 40
1.200957
 50
107.960249
 51
108.410593
  0
ARC
  8
0
 62
     7
  6
CONTINUOUS
 10
3.523618
 20
3.288531
 30
0.000000
 40
0.062251
 50
236.631744
 51
278.788366
  0
ARC
  8
0
 62
     7
  6
CONTINUOUS
 10
3.502977
 20
3.378221
 30
0.000000
 40
0.154187
 50
281.277401
 51
297.063502
  0
ARC
  8
0
 62
     7
  6
CONTINUOUS
 10
3.643280
 20
3.103612
 30
0.000000
 40
0.154188
 50
101.276843
 51
117.063172
  0
ARC
  8
0
 62
     7
  6
CONTINUOUS
 10
3.622640
 20
3.193304
 30
0.000000
 40
0.062250
 50
56.631412
 51
98.788698
  0
ARC
  8
0
 62
     7
  6
CONTINUOUS
 10
3.661640
 20
3.312006
 30
0.000000
 40
0.066883
 50
265.917414
 51
299.346002
  0
ARC
  8
0
 62
     7
  6
CONTINUOUS
 10
3.590091
 20
3.435586
 30
0.000000
 40
0.209678
 50
299.838712
 51
310.606971
  0
ARC
  8
0
 62
     7
  6
CONTINUOUS
 10
3.942194
 20
3.014645
 30
0.000000
 40
0.339135
 50
125.108801
 51
129.481314
  0
ARC
  8
0
 62
     7
  6
CONTINUOUS
 10
3.807672
 20
3.206250
 30
0.000000
 40
0.105022
 50
111.384463
 51
125.190917
  0
ARC
  8
0
 62
     7
  6
CONTINUOUS
 10
3.598729
 20
3.347437
 30
0.000000
 40
0.176080
 50
325.132764
 51
345.732467
  0
ARC
  8
0
 62
     7
  6
CONTINUOUS
 10
3.184228
 20
3.629698
 30
0.000000
 40
0.677553
 50
319.783509
 51
325.587018
  0
ARC
  8
0
 62
     7
  6
CONTINUOUS
 10
4.175359
 20
2.789018
 30
0.000000
 40
0.622096
 50
139.599246
 51
146.453902
  0
ARC
  8
0
 62
     7
  6
CONTINUOUS
 10
3.534760
 20
3.006898
 30
0.000000
 40
0.175393
 50
45.872418
 51
54.238925
  0
ARC
  8
0
 62
     7
  6
CONTINUOUS
 10
3.237969
 20
2.600313
 30
0.000000
 40
0.678775
 50
53.966896
 51
56.296692
  0
ARC
  8
0
 62
     7
  6
CONTINUOUS
 10
3.982314
 20
3.715802
 30
0.000000
 40
0.662257
 50
234.203522
 51
236.274135
  0
ARC
  8
0
 62
     7
  6
CONTINUOUS
 10
3.673978
 20
3.289937
 30
0.000000
 40
0.136494
 50
226.126833
 51
234.623340
  0
ARC
  8
0
 62
     7
  6
CONTINUOUS
 10
3.547733
 20
3.236522
 30
0.000000
 40
0.054997
 50
268.267284
 51
305.128995
  0
ARC
  8
0
 62
     7
  6
CONTINUOUS
 10
3.553570
 20
3.339001
 30
0.000000
 40
0.157629
 50
254.765241
 51
267.272853
  0
ARC
  8
0
 62
     7
  6
CONTINUOUS
 10
3.476708
 20
3.064267
 30
0.000000
 40
0.127662
 50
73.881791
 51
90.856985
  0
ARC
  8
0
 62
     7
  6
CONTINUOUS
 10
3.478011
 20
3.144176
 30
0.000000
 40
0.047847
 50
93.849552
 51
141.376463
  0
ARC
  8
0
 62
     7
  6
CONTINUOUS
 10
3.383826
 20
3.076527
 30
0.000000
 40
0.112853
 50
59.778992
 51
97.858441
  0
ARC
  8
0
 62
     7
  6
CONTINUOUS
 10
3.414524
 20
2.923365
 30
0.000000
 40
0.268941
 50
99.876032
 51
114.456440
  0
ARC
  8
0
 62
     7
  6
CONTINUOUS
 10
3.206624
 20
3.373531
 30
0.000000
 40
0.226924
 50
277.088103
 51
295.182920
  0
ARC
  8
0
 62
     7
  6
CONTINUOUS
 10
3.228917
 20
3.247980
 30
0.000000
 40
0.099802
 50
227.803319
 51
273.278794
  0
ARC
  8
0
 62
     7
  6
CONTINUOUS
 10
3.136923
 20
3.247442
 30
0.000000
 40
0.077528
 50
272.934120
 51
288.780438
  0
ARC
  8
0
 62
     7
  6
CONTINUOUS
 10
3.120069
 20
3.503926
 30
0.000000
 40
0.334558
 50
269.446854
 51
273.568268
  0
ARC
  8
0
 62
     7
  6
CONTINUOUS
 10
3.112773
 20
2.899297
 30
0.000000
 40
0.270117
 50
89.137531
 51
94.795600
  0
ARC
  8
0
 62
     7
  6
CONTINUOUS
 10
3.092932
 20
3.119895
 30
0.000000
 40
0.048651
 50
93.229097
 51
118.842683
  0
ARC
  8
0
 62
     7
  6
CONTINUOUS
 10
3.079997
 20
3.145400
 30
0.000000
 40
0.020093
 50
121.620736
 51
176.959358
  0
ARC
  8
0
 62
     7
  6
CONTINUOUS
 10
3.127798
 20
3.145236
 30
0.000000
 40
0.067877
 50
178.961134
 51
206.175871
  0
ARC
  8
0
 62
     7
  6
CONTINUOUS
 10
3.485288
 20
4.371750
 30
0.000000
 40
1.324291
 50
249.077835
 51
251.582019
  0
ARC
  8
0
 62
     7
  6
CONTINUOUS
 10
2.743089
 20
2.471440
 30
0.000000
 40
0.715913
 50
67.904229
 51
77.464096
  0
ARC
  8
0
 62
     7
  6
CONTINUOUS
 10
2.851847
 20
2.963191
 30
0.000000
 40
0.212281
 50
77.310309
 51
108.885919
  0
ARC
  8
0
 62
     7
  6
CONTINUOUS
 10
4.601793
 20
4.249092
 30
0.000000
 40
2.117746
 50
210.821162
 51
223.352310
  0
ARC
  8
0
 62
     7
  6
CONTINUOUS
 10
2.810004
 20
3.715356
 30
0.000000
 40
0.953914
 50
285.310352
 51
286.863502
  0
ARC
  8
0
 62
     7
  6
CONTINUOUS
 10
3.190684
 20
2.495020
 30
0.000000
 40
0.324541
 50
95.978254
 51
108.682140
  0
ARC
  8
0
 62
     7
  6
CONTINUOUS
 10
3.139809
 20
2.800574
 30
0.000000
 40
0.024250
 50
45.249064
 51
57.572268
  0
ARC
  8
0
 62
     7
  6
CONTINUOUS
 10
3.122644
 20
2.772968
 30
0.000000
 40
0.056758
 50
57.889765
 51
62.683348
  0
ARC
  8
0
 62
     7
  6
CONTINUOUS
 10
3.164307
 20
2.854896
 30
0.000000
 40
0.035158
 50
233.629507
 51
243.628377
  0
ARC
  8
0
 62
     7
  6
CONTINUOUS
 10
3.152113
 20
2.837855
 30
0.000000
 40
0.014209
 50
206.363244
 51
232.473056
  0
ARC
  8
0
 62
     7
  6
CONTINUOUS
 10
2.891273
 20
2.877249
 30
0.000000
 40
0.252284
 50
349.562763
 51
358.736872
  0
ARC
  8
0
 62
     7
  6
CONTINUOUS
 10
2.303996
 20
2.891623
 30
0.000000
 40
0.839736
 50
358.639609
 51
361.489355
  0
ARC
  8
0
 62
     7
  6
CONTINUOUS
 10
3.812731
 20
2.933920
 30
0.000000
 40
0.669595
 50
177.402503
 51
181.751876
  0
ARC
  8
0
 62
     7
  6
CONTINUOUS
 10
3.332457
 20
2.956437
 30
0.000000
 40
0.188796
 50
163.029184
 51
177.623516
  0
ARC
  8
0
 62
     7
  6
CONTINUOUS
 10
2.785076
 20
2.587036
 30
0.000000
 40
0.561029
 50
40.236941
 51
49.170555
  0
ARC
  8
0
 62
     7
  6
CONTINUOUS
 10
3.815518
 20
3.472462
 30
0.000000
 40
0.797597
 50
220.977054
 51
225.616461
  0
ARC
  8
0
 62
     7
  6
CONTINUOUS
 10
3.448332
 20
3.097766
 30
0.000000
 40
0.272981
 50
225.686541
 51
239.401880
  0
ARC
  8
0
 62
     7
  6
CONTINUOUS
 10
2.294771
 20
6.453852
 30
0.000000
 40
3.731638
 50
285.777001
 51
288.965649
  0
ARC
  8
0
 62
     7
  6
CONTINUOUS
 10
4.650598
 20
-0.389536
 30
0.000000
 40
3.505896
 50
105.488303
 51
109.028213
  0
ARC
  8
0
 62
     7
  6
CONTINUOUS
 10
3.662218
 20
2.977015
 30
0.000000
 40
0.053529
 50
12.985869
 51
30.800518
  0
ARC
  8
0
 62
     7
  6
CONTINUOUS
 10
3.544400
 20
2.907719
 30
0.000000
 40
0.190214
 50
30.557401
 51
35.857920
  0
ARC
  8
0
 62
     7
  6
CONTINUOUS
 10
3.777245
 20
3.080933
 30
0.000000
 40
0.100044
 50
200.024041
 51
218.143456
  0
ARC
  8
0
 62
     7
  6
CONTINUOUS
 10
3.720148
 20
3.057664
 30
0.000000
 40
0.038501
 50
146.269538
 51
196.582551
  0
ARC
  8
0
 62
     7
  6
CONTINUOUS
 10
2.314970
 20
3.829574
 30
0.000000
 40
1.564883
 50
331.340188
 51
335.966995
  0
ARC
  8
0
 62
     7
  6
CONTINUOUS
 10
5.422698
 20
2.436484
 30
0.000000
 40
1.840805
 50
152.365888
 51
155.759612
  0
LINE
  8
0
 62
     7
  6
CONTINUOUS
 10
3.791878
 20
3.290292
 30
0.000000
 11
3.804377
 21
3.290292
 31
0.000000
  0
ARC
  8
0
 62
     7
  6
CONTINUOUS
 10
3.813878
 20
3.332421
 30
0.000000
 40
0.043187
 50
257.291869
 51
304.334419
  0
ARC
  8
0
 62
     7
  6
CONTINUOUS
 10
3.740519
 20
3.442894
 30
0.000000
 40
0.175796
 50
303.769881
 51
316.229279
  0
ARC
  8
0
 62
     7
  6
CONTINUOUS
 10
4.054801
 20
3.133506
 30
0.000000
 40
0.265246
 50
130.024889
 51
134.932783
  0
ARC
  8
0
 62
     7
  6
CONTINUOUS
 10
3.920841
 20
3.294301
 30
0.000000
 40
0.055969
 50
111.017492
 51
130.873362
  0
ARC
  8
0
 62
     7
  6
CONTINUOUS
 10
3.909049
 20
3.324082
 30
0.000000
 40
0.023942
 50
68.796351
 51
110.236398
  0
ARC
  8
0
 62
     7
  6
CONTINUOUS
 10
3.899502
 20
3.306219
 30
0.000000
 40
0.044116
 50
35.028938
 51
65.626508
  0
ARC
  8
0
 62
     7
  6
CONTINUOUS
 10
3.941081
 20
3.434317
 30
0.000000
 40
0.102921
 50
266.962534
 51
304.817695
  0
ARC
  8
0
 62
     7
  6
CONTINUOUS
 10
3.919566
 20
3.471483
 30
0.000000
 40
0.145761
 50
303.419470
 51
331.883655
  0
ARC
  8
0
 62
     7
  6
CONTINUOUS
 10
4.063693
 20
3.408104
 30
0.000000
 40
0.016449
 50
198.843903
 51
234.442378
  0
ARC
  8
0
 62
     7
  6
CONTINUOUS
 10
4.114420
 20
3.471950
 30
0.000000
 40
0.097976
 50
232.020341
 51
239.432746
  0
ARC
  8
0
 62
     7
  6
CONTINUOUS
 10
3.999622
 20
3.279866
 30
0.000000
 40
0.125801
 50
54.419581
 51
58.904122
  0
ARC
  8
0
 62
     7
  6
CONTINUOUS
 10
4.059109
 20
3.362222
 30
0.000000
 40
0.024212
 50
36.104388
 51
55.513665
  0
ARC
  8
0
 62
     7
  6
CONTINUOUS
 10
4.072541
 20
3.371975
 30
0.000000
 40
0.007613
 50
346.134270
 51
396.367374
  0
ARC
  8
0
 62
     7
  6
CONTINUOUS
 10
4.065611
 20
3.375187
 30
0.000000
 40
0.015181
 50
305.261914
 51
340.623006
  0
ARC
  8
0
 62
     7
  6
CONTINUOUS
 10
4.000938
 20
3.376509
 30
0.000000
 40
0.074707
 50
344.311367
 51
349.419471
  0
ARC
  8
0
 62
     7
  6
CONTINUOUS
 10
4.235518
 20
3.312323
 30
0.000000
 40
0.168498
 50
164.868233
 51
169.240745
  0
ARC
  8
0
 62
     7
  6
CONTINUOUS
 10
4.111180
 20
3.335131
 30
0.000000
 40
0.042096
 50
168.145750
 51
185.252452
  0
ARC
  8
0
 62
     7
  6
CONTINUOUS
 10
4.077551
 20
3.331414
 30
0.000000
 40
0.008291
 50
180.944109
 51
245.835852
  0
ARC
  8
0
 62
     7
  6
CONTINUOUS
 10
4.077410
 20
3.334212
 30
0.000000
 40
0.010861
 50
252.576335
 51
282.667005
  0
ARC
  8
0
 62
     7
  6
CONTINUOUS
 10
4.072968
 20
3.356372
 30
0.000000
 40
0.033460
 50
281.766933
 51
296.936831
  0
ARC
  8
0
 62
     7
  6
CONTINUOUS
 10
4.027598
 20
3.395473
 30
0.000000
 40
0.091733
 50
311.286144
 51
330.380920
  0
ARC
  8
0
 62
     7
  6
CONTINUOUS
 10
4.079669
 20
3.366981
 30
0.000000
 40
0.032399
 50
328.671657
 51
377.162707
  0
ARC
  8
0
 62
     7
  6
CONTINUOUS
 10
4.060792
 20
3.540064
 30
0.000000
 40
0.170948
 50
286.948672
 51
325.776922
  0
ARC
  8
0
 62
     7
  6
CONTINUOUS
 10
3.756735
 20
3.747775
 30
0.000000
 40
0.539179
 50
325.698214
 51
337.662153
  0
LINE
  8
0
 62
     7
  6
CONTINUOUS
 10
4.255453
 20
3.542851
 30
0.000000
 11
4.259374
 21
3.551539
 31
0.000000
  0
ARC
  8
0
 62
     7
  6
CONTINUOUS
 10
4.242142
 20
3.510995
 30
0.000000
 40
0.044054
 50
47.123982
 51
66.973483
  0
ARC
  8
0
 62
     7
  6
CONTINUOUS
 10
4.168615
 20
3.430996
 30
0.000000
 40
0.152710
 50
41.335337
 51
47.330316
  0
ARC
  8
0
 62
     7
  6
CONTINUOUS
 10
4.457080
 20
3.687887
 30
0.000000
 40
0.233565
 50
221.916232
 51
224.547368
  0
ARC
  8
0
 62
     7
  6
CONTINUOUS
 10
3.318719
 20
3.686275
 30
0.000000
 40
0.985352
 50
349.087321
 51
350.523364
  0
ARC
  8
0
 62
     7
  6
CONTINUOUS
 10
4.730672
 20
3.405463
 30
0.000000
 40
0.454307
 50
168.023680
 51
175.972915
  0
ARC
  8
0
 62
     7
  6
CONTINUOUS
 10
4.412841
 20
3.427121
 30
0.000000
 40
0.135742
 50
175.670563
 51
201.876967
  0
ARC
  8
0
 62
     7
  6
CONTINUOUS
 10
4.286400
 20
3.329982
 30
0.000000
 40
0.046562
 50
87.009323
 51
89.416345
  0
ARC
  8
0
 62
     7
  6
CONTINUOUS
 10
4.291002
 20
3.401874
 30
0.000000
 40
0.025486
 50
265.109187
 51
279.448996
  0
ARC
  8
0
 62
     7
  6
CONTINUOUS
 10
4.293950
 20
3.383197
 30
0.000000
 40
0.006581
 50
280.825317
 51
306.181305
  0
ARC
  8
0
 62
     7
  6
CONTINUOUS
 10
4.295219
 20
3.381254
 30
0.000000
 40
0.004266
 50
307.836568
 51
346.953333
  0
ARC
  8
0
 62
     7
  6
CONTINUOUS
 10
4.809950
 20
3.290874
 30
0.000000
 40
0.518346
 50
162.452592
 51
170.066462
  0
ARC
  8
0
 62
     7
  6
CONTINUOUS
 10
4.391063
 20
3.422884
 30
0.000000
 40
0.079152
 50
149.373657
 51
162.145629
  0
ARC
  8
0
 62
     7
  6
CONTINUOUS
 10
4.335643
 20
3.456590
 30
0.000000
 40
0.014312
 50
113.698607
 51
152.462058
  0
ARC
  8
0
 62
     7
  6
CONTINUOUS
 10
4.331882
 20
3.462489
 30
0.000000
 40
0.007477
 50
48.961552
 51
105.452165
  0
ARC
  8
0
 62
     7
  6
CONTINUOUS
 10
4.316193
 20
3.442866
 30
0.000000
 40
0.032595
 50
31.747681
 51
50.806952
  0
ARC
  8
0
 62
     7
  6
CONTINUOUS
 10
4.106802
 20
3.314261
 30
0.000000
 40
0.278326
 50
24.620455
 51
31.579982
  0
ARC
  8
0
 62
     7
  6
CONTINUOUS
 10
4.617611
 20
3.541996
 30
0.000000
 40
0.280978
 50
203.442764
 51
219.418176
  0
ARC
  8
0
 62
     7
  6
CONTINUOUS
 10
4.455523
 20
3.411564
 30
0.000000
 40
0.072972
 50
221.113873
 51
249.300447
  0
ARC
  8
0
 62
     7
  6
CONTINUOUS
 10
4.447259
 20
3.396069
 30
0.000000
 40
0.055601
 50
251.623639
 51
290.656044
  0
ARC
  8
0
 62
     7
  6
CONTINUOUS
 10
3.922403
 20
2.486187
 30
0.000000
 40
1.016052
 50
55.464735
 51
57.597222
  0
ARC
  8
0
 62
     7
  6
CONTINUOUS
 10
4.924555
 20
3.934405
 30
0.000000
 40
0.745104
 50
235.115892
 51
239.355067
  0
ARC
  8
0
 62
     7
  6
CONTINUOUS
 10
4.647059
 20
3.463435
 30
0.000000
 40
0.198469
 50
238.974112
 51
253.855337
  0
ARC
  8
0
 62
     7
  6
CONTINUOUS
 10
3.916221
 20
4.991649
 30
0.000000
 40
1.846881
 50
291.201748
 51
291.458892
  0
ARC
  8
0
 62
     7
  6
CONTINUOUS
 10
4.680842
 20
2.990019
 30
0.000000
 40
0.295997
 50
109.066225
 51
122.632437
  0
ARC
  8
0
 62
     7
  6
CONTINUOUS
 10
4.563171
 20
3.171664
 30
0.000000
 40
0.079579
 50
121.808168
 51
171.961787
  0
ARC
  8
0
 62
     7
  6
CONTINUOUS
 10
-8.842924
 20
46.651203
 30
0.000000
 40
45.465587
 50
286.403000
 51
287.045399
  0
ARC
  8
0
 62
     7
  6
CONTINUOUS
 10
12.466653
 20
-25.988409
 30
0.000000
 40
30.235264
 50
106.269285
 51
107.709453
  0
ARC
  8
0
 62
     7
  6
CONTINUOUS
 10
3.844613
 20
0.946945
 30
0.000000
 40
1.953703
 50
107.123446
 51
109.869157
  0
ARC
  8
0
 62
     7
  6
CONTINUOUS
 10
2.775538
 20
3.850815
 30
0.000000
 40
1.140803
 50
282.446914
 51
290.797629
  0
ARC
  8
0
 62
     7
  6
CONTINUOUS
 10
2.935368
 20
3.140667
 30
0.000000
 40
0.412908
 50
258.158120
 51
282.029078
  0
ARC
  8
0
 62
     7
  6
CONTINUOUS
 10
2.861743
 20
2.780759
 30
0.000000
 40
0.045587
 50
225.295390
 51
255.895437
  0
ARC
  8
0
 62
     7
  6
CONTINUOUS
 10
2.932948
 20
2.852199
 30
0.000000
 40
0.146452
 50
215.512872
 51
225.157160
  0
ARC
  8
0
 62
     7
  6
CONTINUOUS
 10
2.727089
 20
2.708147
 30
0.000000
 40
0.104818
 50
34.242119
 51
50.426202
  0
ARC
  8
0
 62
     7
  6
CONTINUOUS
 10
2.772779
 20
2.761153
 30
0.000000
 40
0.034883
 50
52.808551
 51
101.818995
  0
ARC
  8
0
 62
     7
  6
CONTINUOUS
 10
2.564771
 20
3.231181
 30
0.000000
 40
0.479939
 50
283.585872
 51
294.741023
  0
ARC
  8
0
 62
     7
  6
CONTINUOUS
 10
2.630315
 20
2.949235
 30
0.000000
 40
0.190502
 50
256.435660
 51
284.343862
  0
ARC
  8
0
 62
     7
  6
CONTINUOUS
 10
2.594361
 20
2.717249
 30
0.000000
 40
0.047604
 50
100.562084
 51
124.156880
  0
ARC
  8
0
 62
     7
  6
CONTINUOUS
 10
2.572940
 20
2.748687
 30
0.000000
 40
0.009562
 50
123.707686
 51
186.501033
  0
ARC
  8
0
 62
     7
  6
CONTINUOUS
 10
2.585609
 20
2.752298
 30
0.000000
 40
0.022661
 50
191.954266
 51
221.402724
  0
ARC
  8
0
 62
     7
  6
CONTINUOUS
 10
2.682390
 20
2.829994
 30
0.000000
 40
0.146750
 50
219.165597
 51
225.046978
  0
ARC
  8
0
 62
     7
  6
CONTINUOUS
 10
2.508327
 20
2.652453
 30
0.000000
 40
0.101898
 50
33.556007
 51
46.314955
  0
ARC
  8
0
 62
     7
  6
CONTINUOUS
 10
2.574728
 20
2.697159
 30
0.000000
 40
0.021859
 50
7.649312
 51
32.108640
  0
ARC
  8
0
 62
     7
  6
CONTINUOUS
 10
2.583238
 20
2.698668
 30
0.000000
 40
0.013229
 50
327.422647
 51
366.076080
  0
ARC
  8
0
 62
     7
  6
CONTINUOUS
 10
2.637673
 20
2.771344
 30
0.000000
 40
0.090784
 50
231.545163
 51
241.521615
  0
ARC
  8
0
 62
     7
  6
CONTINUOUS
 10
2.757262
 20
2.922187
 30
0.000000
 40
0.283281
 50
228.343402
 51
231.577419
  0
ARC
  8
0
 62
     7
  6
CONTINUOUS
 10
2.425607
 20
2.551537
 30
0.000000
 40
0.214092
 50
47.959183
 51
53.428059
  0
ARC
  8
0
 62
     7
  6
CONTINUOUS
 10
2.513703
 20
2.670383
 30
0.000000
 40
0.066155
 50
53.375093
 51
70.637449
  0
ARC
  8
0
 62
     7
  6
CONTINUOUS
 10
1.926277
 20
4.183593
 30
0.000000
 40
1.573572
 50
280.781586
 51
292.783236
  0
ARC
  8
0
 62
     7
  6
CONTINUOUS
 10
2.221009
 20
2.636655
 30
0.000000
 40
0.001202
 50
107.963187
 51
183.468908
  0
ARC
  8
0
 62
     7
  6
CONTINUOUS
 10
2.226226
 20
2.636763
 30
0.000000
 40
0.006420
 50
181.614171
 51
203.412725
  0
ARC
  8
0
 62
     7
  6
CONTINUOUS
 10
2.279774
 20
2.659530
 30
0.000000
 40
0.064606
 50
203.071285
 51
210.104082
  0
ARC
  8
0
 62
     7
  6
CONTINUOUS
 10
2.094946
 20
2.555486
 30
0.000000
 40
0.147502
 50
26.425918
 51
29.057283
  0
ARC
  8
0
 62
     7
  6
CONTINUOUS
 10
2.193960
 20
2.604395
 30
0.000000
 40
0.037068
 50
17.106216
 51
26.838353
  0
ARC
  8
0
 62
     7
  6
CONTINUOUS
 10
2.580673
 20
3.361364
 30
0.000000
 40
0.824631
 50
244.786634
 51
248.668854
  0
ARC
  8
0
 62
     7
  6
CONTINUOUS
 10
1.990081
 20
1.847648
 30
0.000000
 40
0.800219
 50
64.636622
 51
68.704195
  0
ARC
  8
0
 62
     7
  6
CONTINUOUS
 10
2.259540
 20
2.410977
 30
0.000000
 40
0.175778
 50
49.203927
 51
65.346962
  0
ARC
  8
0
 62
     7
  6
CONTINUOUS
 10
2.395881
 20
2.187153
 30
0.000000
 40
0.357542
 50
93.446184
 51
108.882575
  0
ARC
  8
0
 62
     7
  6
CONTINUOUS
 10
2.509752
 20
1.865257
 30
0.000000
 40
0.698976
 50
109.175083
 51
116.819400
  0
ARC
  8
0
 62
     7
  6
CONTINUOUS
 10
2.237209
 20
2.465285
 30
0.000000
 40
0.048971
 50
150.974305
 51
177.243816
  0
ARC
  8
0
 62
     7
  6
CONTINUOUS
 10
2.212034
 20
2.466589
 30
0.000000
 40
0.023763
 50
177.464606
 51
204.117201
  0
ARC
  8
0
 62
     7
  6
CONTINUOUS
 10
2.205360
 20
2.464024
 30
0.000000
 40
0.016628
 50
205.447446
 51
244.259219
  0
ARC
  8
0
 62
     7
  6
CONTINUOUS
 10
2.257230
 20
2.529996
 30
0.000000
 40
0.100224
 50
233.871255
 51
283.837250
  0
ARC
  8
0
 62
     7
  6
CONTINUOUS
 10
2.192023
 20
2.797176
 30
0.000000
 40
0.375245
 50
283.747880
 51
297.578539
  0
ARC
  8
0
 62
     7
  6
CONTINUOUS
 10
2.689846
 20
1.792253
 30
0.000000
 40
0.746354
 50
112.798787
 51
115.736983
  0
ARC
  8
0
 62
     7
  6
CONTINUOUS
 10
2.114138
 20
2.506738
 30
0.000000
 40
0.287716
 50
333.131248
 51
354.726970
  0
ARC
  8
0
 62
     7
  6
CONTINUOUS
 10
2.200891
 20
2.459209
 30
0.000000
 40
0.188875
 50
300.547958
 51
334.099027
  0
ARC
  8
0
 62
     7
  6
CONTINUOUS
 10
2.326834
 20
2.392137
 30
0.000000
 40
0.100169
 50
252.605464
 51
311.062230
  0
ARC
  8
0
 62
     7
  6
CONTINUOUS
 10
2.109500
 20
2.649421
 30
0.000000
 40
0.436952
 50
310.388828
 51
324.894366
  0
ARC
  8
0
 62
     7
  6
CONTINUOUS
 10
2.906899
 20
2.074705
 30
0.000000
 40
0.546029
 50
136.719567
 51
143.677262
  0
ARC
  8
0
 62
     7
  6
CONTINUOUS
 10
2.804060
 20
2.334828
 30
0.000000
 40
0.316035
 50
158.813195
 51
164.741528
  0
ARC
  8
0
 62
     7
  6
CONTINUOUS
 10
2.144306
 20
2.516435
 30
0.000000
 40
0.368258
 50
339.911615
 51
344.496499
  0
ARC
  8
0
 62
     7
  6
CONTINUOUS
 10
2.379283
 20
2.430428
 30
0.000000
 40
0.118036
 50
325.781003
 51
339.944338
  0
ARC
  8
0
 62
     7
  6
CONTINUOUS
 10
2.522579
 20
2.310452
 30
0.000000
 40
0.070431
 50
108.644480
 51
130.447804
  0
ARC
  8
0
 62
     7
  6
CONTINUOUS
 10
2.572182
 20
2.163821
 30
0.000000
 40
0.225224
 50
101.752017
 51
108.675823
  0
ARC
  8
0
 62
     7
  6
CONTINUOUS
 10
2.499110
 20
2.531665
 30
0.000000
 40
0.149830
 50
280.459246
 51
294.434445
  0
ARC
  8
0
 62
     7
  6
CONTINUOUS
 10
2.539219
 20
2.440276
 30
0.000000
 40
0.050052
 50
295.907469
 51
338.028426
  0
ARC
  8
0
 62
     7
  6
CONTINUOUS
 10
2.575344
 20
2.405330
 30
0.000000
 40
0.019208
 50
20.869803
 51
57.604442
  0
ARC
  8
0
 62
     7
  6
CONTINUOUS
 10
2.567261
 20
2.403398
 30
0.000000
 40
0.027471
 50
350.892124
 51
378.629379
  0
ARC
  8
0
 62
     7
  6
CONTINUOUS
 10
2.609424
 20
2.577249
 30
0.000000
 40
0.178833
 50
265.176073
 51
290.024825
  0
ARC
  8
0
 62
     7
  6
CONTINUOUS
 10
2.498800
 20
2.867678
 30
0.000000
 40
0.489605
 50
290.549695
 51
299.316484
  0
ARC
  8
0
 62
     7
  6
CONTINUOUS
 10
3.066944
 20
1.838231
 30
0.000000
 40
0.686236
 50
114.142329
 51
118.592506
  0
ARC
  8
0
 62
     7
  6
CONTINUOUS
 10
2.878818
 20
2.257690
 30
0.000000
 40
0.226521
 50
100.668119
 51
114.114427
  0
ARC
  8
0
 62
     7
  6
CONTINUOUS
 10
3.133985
 20
2.421491
 30
0.000000
 40
0.302864
 50
149.170883
 51
168.804044
  0
ARC
  8
0
 62
     7
  6
CONTINUOUS
 10
3.057476
 20
2.467081
 30
0.000000
 40
0.213802
 50
120.369027
 51
149.154505
  0
ARC
  8
0
 62
     7
  6
CONTINUOUS
 10
11.632771
 20
-23.690053
 30
0.000000
 40
27.735916
 50
106.093286
 51
108.244565
  0
ARC
  8
0
 62
     7
  6
CONTINUOUS
 10
-10.568789
 20
52.434493
 30
0.000000
 40
51.560263
 50
286.348466
 51
286.969093
  0
ARC
  8
0
 62
     7
  6
CONTINUOUS
 10
4.246322
 20
3.013842
 30
0.000000
 40
0.255695
 50
18.530905
 51
24.294790
  0
ARC
  8
0
 62
     7
  6
CONTINUOUS
 10
4.759818
 20
3.187152
 30
0.000000
 40
0.286260
 50
198.756462
 51
203.026566
  0
ARC
  8
0
 62
     7
  6
CONTINUOUS
 10
4.586037
 20
3.113456
 30
0.000000
 40
0.097498
 50
203.115538
 51
215.713178
  0
ARC
  8
0
 62
     7
  6
CONTINUOUS
 10
4.455993
 20
2.935362
 30
0.000000
 40
0.131429
 50
56.491437
 51
67.224022
  0
ARC
  8
0
 62
     7
  6
CONTINUOUS
 10
4.293870
 20
2.689571
 30
0.000000
 40
0.425873
 50
53.162187
 51
56.560494
  0
ARC
  8
0
 62
     7
  6
CONTINUOUS
 10
4.704958
 20
3.230684
 30
0.000000
 40
0.253709
 50
232.127201
 51
241.572902
  0
ARC
  8
0
 62
     7
  6
CONTINUOUS
 10
4.623254
 20
3.080734
 30
0.000000
 40
0.082946
 50
241.897948
 51
270.772753
  0
ARC
  8
0
 62
     7
  6
CONTINUOUS
 10
4.626849
 20
3.006323
 30
0.000000
 40
0.008880
 50
253.807657
 51
297.359116
  0
ARC
  8
0
 62
     7
  6
CONTINUOUS
 10
4.613283
 20
3.034224
 30
0.000000
 40
0.039902
 50
296.246913
 51
307.143457
  0
ARC
  8
0
 62
     7
  6
CONTINUOUS
 10
4.666532
 20
2.962926
 30
0.000000
 40
0.049088
 50
119.614921
 51
126.437748
  0
ARC
  8
0
 62
     7
  6
CONTINUOUS
 10
4.647418
 20
2.996992
 30
0.000000
 40
0.010028
 50
92.476205
 51
120.855310
  0
ARC
  8
0
 62
     7
  6
CONTINUOUS
 10
4.646838
 20
3.000788
 30
0.000000
 40
0.006225
 50
42.185266
 51
88.650683
  0
ARC
  8
0
 62
     7
  6
CONTINUOUS
 10
4.635976
 20
2.991171
 30
0.000000
 40
0.020732
 50
18.633927
 51
41.720887
  0
ARC
  8
0
 62
     7
  6
CONTINUOUS
 10
4.845855
 20
2.963199
 30
0.000000
 40
0.193354
 50
169.692825
 51
181.488309
  0
ARC
  8
0
 62
     7
  6
CONTINUOUS
 10
5.237113
 20
2.972978
 30
0.000000
 40
0.584735
 50
181.450416
 51
185.326908
  0
ARC
  8
0
 62
     7
  6
CONTINUOUS
 10
4.192713
 20
2.873453
 30
0.000000
 40
0.464400
 50
0.456810
 51
5.590340
  0
ARC
  8
0
 62
     7
  6
CONTINUOUS
 10
4.538030
 20
2.875447
 30
0.000000
 40
0.119081
 50
342.611023
 51
360.821764
  0
ARC
  8
0
 62
     7
  6
CONTINUOUS
 10
4.584525
 20
2.862137
 30
0.000000
 40
0.070742
 50
311.240741
 51
341.644685
  0
ARC
  8
0
 62
     7
  6
CONTINUOUS
 10
4.558059
 20
2.896868
 30
0.000000
 40
0.114345
 50
285.243091
 51
309.739804
  0
ARC
  8
0
 62
     7
  6
CONTINUOUS
 10
4.537132
 20
2.926786
 30
0.000000
 40
0.149222
 50
229.071117
 51
289.981021
  0
ARC
  8
0
 62
     7
  6
CONTINUOUS
 10
5.203643
 20
2.897845
 30
0.000000
 40
0.768850
 50
173.707217
 51
186.257330
  0
ARC
  8
0
 62
     7
  6
CONTINUOUS
 10
2.968817
 20
3.107372
 30
0.000000
 40
1.475932
 50
355.131803
 51
358.706082
  0
ARC
  8
0
 62
     7
  6
CONTINUOUS
 10
4.438745
 20
3.064447
 30
0.000000
 40
0.011125
 50
59.608409
 51
80.782233
  0
ARC
  8
0
 62
     7
  6
CONTINUOUS
 10
4.439507
 20
3.068466
 30
0.000000
 40
0.007037
 50
81.665422
 51
107.244831
  0
ARC
  8
0
 62
     7
  6
CONTINUOUS
 10
4.442745
 20
3.061443
 30
0.000000
 40
0.014738
 50
111.176631
 51
134.038064
  0
ARC
  8
0
 62
     7
  6
CONTINUOUS
 10
4.422902
 20
3.081909
 30
0.000000
 40
0.013769
 50
291.448959
 51
314.198974
  0
ARC
  8
0
 62
     7
  6
CONTINUOUS
 10
4.426219
 20
3.074648
 30
0.000000
 40
0.005813
 50
259.872274
 51
287.186657
  0
ARC
  8
0
 62
     7
  6
CONTINUOUS
 10
4.427009
 20
3.078048
 30
0.000000
 40
0.009301
 50
236.485251
 51
258.763151
  0
ARC
  8
0
 62
     7
  6
CONTINUOUS
 10
3.357368
 20
3.198982
 30
0.000000
 40
1.072256
 50
346.229832
 51
353.106927
  0
ARC
  8
0
 62
     7
  6
CONTINUOUS
 10
5.346095
 20
2.709536
 30
0.000000
 40
0.975815
 50
166.112042
 51
173.334876
  0
ARC
  8
0
 62
     7
  6
CONTINUOUS
 10
4.211583
 20
2.855482
 30
0.000000
 40
0.168492
 50
330.858388
 51
348.814039
  0
ARC
  8
0
 62
     7
  6
CONTINUOUS
 10
4.320007
 20
2.796239
 30
0.000000
 40
0.044956
 50
300.479047
 51
329.513763
  0
ARC
  8
0
 62
     7
  6
CONTINUOUS
 10
4.327927
 20
2.785519
 30
0.000000
 40
0.031730
 50
256.136181
 51
297.970191
  0
ARC
  8
0
 62
     7
  6
CONTINUOUS
 10
4.325668
 20
2.762583
 30
0.000000
 40
0.009512
 50
177.308880
 51
235.821222
  0
ARC
  8
0
 62
     7
  6
CONTINUOUS
 10
4.447737
 20
2.782444
 30
0.000000
 40
0.132996
 50
179.810375
 51
188.394080
  0
ARC
  8
0
 62
     7
  6
CONTINUOUS
 10
5.367549
 20
2.781653
 30
0.000000
 40
1.052808
 50
176.787211
 51
179.933010
  0
ARC
  8
0
 62
     7
  6
CONTINUOUS
 10
3.728563
 20
2.881729
 30
0.000000
 40
0.589266
 50
356.003210
 51
362.116824
  0
ARC
  8
0
 62
     7
  6
CONTINUOUS
 10
4.285120
 20
2.901480
 30
0.000000
 40
0.032370
 50
3.569997
 51
17.308401
  0
ARC
  8
0
 62
     7
  6
CONTINUOUS
 10
4.313328
 20
2.910852
 30
0.000000
 40
0.002709
 50
5.473333
 51
85.802173
  0
ARC
  8
0
 62
     7
  6
CONTINUOUS
 10
4.316308
 20
2.906873
 30
0.000000
 40
0.007236
 50
112.605881
 51
155.670265
  0
ARC
  8
0
 62
     7
  6
CONTINUOUS
 10
4.373994
 20
2.871375
 30
0.000000
 40
0.074917
 50
149.093921
 51
158.324319
  0
ARC
  8
0
 62
     7
  6
CONTINUOUS
 10
3.538045
 20
3.049563
 30
0.000000
 40
0.780971
 50
345.943139
 51
348.887751
  0
ARC
  8
0
 62
     7
  6
CONTINUOUS
 10
4.678295
 20
2.753553
 30
0.000000
 40
0.397162
 50
164.471985
 51
176.500605
  0
ARC
  8
0
 62
     7
  6
CONTINUOUS
 10
4.242294
 20
2.793194
 30
0.000000
 40
0.042470
 50
243.168816
 51
338.741037
  0
ARC
  8
0
 62
     7
  6
CONTINUOUS
 10
4.249751
 20
2.827164
 30
0.000000
 40
0.076641
 50
183.343781
 51
249.670328
  0
ARC
  8
0
 62
     7
  6
CONTINUOUS
 10
4.442635
 20
2.819830
 30
0.000000
 40
0.269410
 50
160.056776
 51
179.390962
  0
ARC
  8
0
 62
     7
  6
CONTINUOUS
 10
3.577077
 20
3.099369
 30
0.000000
 40
0.640412
 50
342.961741
 51
347.064827
  0
ARC
  8
0
 62
     7
  6
CONTINUOUS
 10
4.040875
 20
2.993973
 30
0.000000
 40
0.164794
 50
346.682842
 51
361.328986
  0
ARC
  8
0
 62
     7
  6
CONTINUOUS
 10
4.353180
 20
2.486435
 30
0.000000
 40
0.532223
 50
106.095625
 51
110.772604
  0
LINE
  8
0
 62
     7
  6
CONTINUOUS
 10
4.164421
 20
2.984061
 30
0.000000
 11
4.164375
 21
2.984045
 31
0.000000
  0
ARC
  8
0
 62
     7
  6
CONTINUOUS
 10
5.109972
 20
2.638910
 30
0.000000
 40
1.006614
 50
159.948331
 51
162.052402
  0
ARC
  8
0
 62
     7
  6
CONTINUOUS
 10
3.616971
 20
3.114159
 30
0.000000
 40
0.560239
 50
335.840042
 51
342.864596
  0
ARC
  8
0
 62
     7
  6
CONTINUOUS
 10
3.942522
 20
2.969323
 30
0.000000
 40
0.203928
 50
315.560813
 51
335.532459
  0
ARC
  8
0
 62
     7
  6
CONTINUOUS
 10
4.064117
 20
3.097837
 30
0.000000
 40
0.272354
 50
257.733118
 51
275.057229
  0
ARC
  8
0
 62
     7
  6
CONTINUOUS
 10
4.034848
 20
2.964908
 30
0.000000
 40
0.136241
 50
223.258099
 51
257.883517
  0
ARC
  8
0
 62
     7
  6
CONTINUOUS
 10
3.946110
 20
2.890715
 30
0.000000
 40
0.021850
 50
218.448058
 51
241.331501
  0
ARC
  8
0
 62
     7
  6
CONTINUOUS
 10
3.938509
 20
2.884357
 30
0.000000
 40
0.011947
 50
186.391559
 51
217.234703
  0
ARC
  8
0
 62
     7
  6
CONTINUOUS
 10
3.944732
 20
2.884640
 30
0.000000
 40
0.018167
 50
165.336299
 51
185.093673
  0
ARC
  8
0
 62
     7
  6
CONTINUOUS
 10
3.994331
 20
2.872076
 30
0.000000
 40
0.069333
 50
160.019968
 51
165.667272
  0
ARC
  8
0
 62
     7
  6
CONTINUOUS
 10
3.878618
 20
2.914989
 30
0.000000
 40
0.054085
 50
339.181060
 51
350.243152
  0
ARC
  8
0
 62
     7
  6
CONTINUOUS
 10
3.912541
 20
2.908925
 30
0.000000
 40
0.019626
 50
350.906261
 51
382.846289
  0
ARC
  8
0
 62
     7
  6
CONTINUOUS
 10
3.700038
 20
3.360588
 30
0.000000
 40
0.500345
 50
284.140495
 51
297.442681
  0
ARC
  8
0
 62
     7
  6
CONTINUOUS
 10
3.361678
 20
4.667111
 30
0.000000
 40
1.849964
 50
280.562141
 51
284.416867
  0
ARC
  8
0
 62
     7
  6
CONTINUOUS
 10
3.812174
 20
2.052600
 30
0.000000
 40
0.803650
 50
97.967505
 51
115.818829
  0
ARC
  8
0
 62
     7
  6
CONTINUOUS
 10
3.577911
 20
2.564323
 30
0.000000
 40
0.241280
 50
118.667463
 51
177.392818
  0
ARC
  8
0
 62
     7
  6
CONTINUOUS
 10
4.341007
 20
3.989503
 30
0.000000
 40
1.734429
 50
234.624158
 51
269.078875
  0
ARC
  8
0
 62
     7
  6
CONTINUOUS
 10
3.450041
 20
2.018648
 30
0.000000
 40
0.894940
 50
15.333168
 51
21.096138
  0
ARC
  8
0
 62
     7
  6
CONTINUOUS
 10
4.003464
 20
2.233740
 30
0.000000
 40
0.301192
 50
20.814634
 51
37.669021
  0
ARC
  8
0
 62
     7
  6
CONTINUOUS
 10
4.409068
 20
2.120418
 30
0.000000
 40
0.341158
 50
119.345652
 51
128.332356
  0
ARC
  8
0
 62
     7
  6
CONTINUOUS
 10
3.977370
 20
2.668020
 30
0.000000
 40
0.356146
 50
300.271524
 51
308.171544
  0
ARC
  8
0
 62
     7
  6
CONTINUOUS
 10
4.097903
 20
2.462502
 30
0.000000
 40
0.117891
 50
276.195234
 51
300.030145
  0
ARC
  8
0
 62
     7
  6
CONTINUOUS
 10
4.607690
 20
2.857722
 30
0.000000
 40
0.713898
 50
204.511052
 51
225.871647
  0
LINE
  8
0
 62
     7
  6
CONTINUOUS
 10
3.958127
 20
2.561548
 30
0.000000
 11
3.966570
 21
2.559689
 31
0.000000
  0
ARC
  8
0
 62
     7
  6
CONTINUOUS
 10
4.465394
 20
4.685074
 30
0.000000
 40
2.183136
 50
256.791841
 51
261.610623
  0
ARC
  8
0
 62
     7
  6
CONTINUOUS
 10
4.120490
 20
2.531466
 30
0.000000
 40
0.027096
 50
346.843985
 51
370.306118
  0
ARC
  8
0
 62
     7
  6
CONTINUOUS
 10
4.087919
 20
2.524421
 30
0.000000
 40
0.060413
 50
11.352599
 51
20.849779
  0
ARC
  8
0
 62
     7
  6
CONTINUOUS
 10
4.200828
 20
2.567419
 30
0.000000
 40
0.060407
 50
191.348798
 51
200.845749
  0
ARC
  8
0
 62
     7
  6
CONTINUOUS
 10
4.168257
 20
2.560382
 30
0.000000
 40
0.027093
 50
166.848488
 51
190.311754
  0
ARC
  8
0
 62
     7
  6
CONTINUOUS
 10
3.944348
 20
2.575499
 30
0.000000
 40
0.197730
 50
357.404760
 51
361.075043
  0
ARC
  8
0
 62
     7
  6
CONTINUOUS
 10
4.197419
 20
2.581268
 30
0.000000
 40
0.055414
 50
175.737833
 51
182.129010
  0
ARC
  8
0
 62
     7
  6
CONTINUOUS
 10
4.147613
 20
2.585221
 30
0.000000
 40
0.005457
 50
139.711392
 51
178.268379
  0
ARC
  8
0
 62
     7
  6
CONTINUOUS
 10
4.148282
 20
2.583289
 30
0.000000
 40
0.007292
 50
99.727723
 51
131.502536
  0
ARC
  8
0
 62
     7
  6
CONTINUOUS
 10
4.165703
 20
2.506812
 30
0.000000
 40
0.085718
 50
97.790238
 51
102.568472
  0
ARC
  8
0
 62
     7
  6
CONTINUOUS
 10
4.090618
 20
3.004476
 30
0.000000
 40
0.417587
 50
278.741911
 51
279.651076
  0
ARC
  8
0
 62
     7
  6
CONTINUOUS
 10
4.187365
 20
2.447955
 30
0.000000
 40
0.147291
 50
47.499537
 51
100.459637
  0
ARC
  8
0
 62
     7
  6
CONTINUOUS
 10
4.343270
 20
2.529861
 30
0.000000
 40
0.062391
 50
122.225787
 51
154.676086
  0
ARC
  8
0
 62
     7
  6
CONTINUOUS
 10
4.343001
 20
2.534200
 30
0.000000
 40
0.058614
 50
88.657118
 51
124.265211
  0
ARC
  8
0
 62
     7
  6
CONTINUOUS
 10
4.876905
 20
4.431405
 30
0.000000
 40
1.914175
 50
253.846965
 51
254.088982
  0
ARC
  8
0
 62
     7
  6
CONTINUOUS
 10
4.284217
 20
2.317606
 30
0.000000
 40
0.281285
 50
64.242825
 51
76.025280
  0
ARC
  8
0
 62
     7
  6
CONTINUOUS
 10
4.364708
 20
2.486460
 30
0.000000
 40
0.094234
 50
27.723787
 51
63.705802
  0
ARC
  8
0
 62
     7
  6
CONTINUOUS
 10
4.440687
 20
3.434698
 30
0.000000
 40
0.904431
 50
270.471076
 51
281.762950
  0
ARC
  8
0
 62
     7
  6
CONTINUOUS
 10
4.114627
 20
4.980536
 30
0.000000
 40
2.484280
 50
281.856906
 51
285.820233
  0
ARC
  8
0
 62
     7
  6
CONTINUOUS
 10
6.037205
 20
-1.948392
 30
0.000000
 40
4.706489
 50
104.335632
 51
105.342885
  0
ARC
  8
0
 62
     7
  6
CONTINUOUS
 10
6.004542
 20
1.669852
 30
0.000000
 40
1.473002
 50
140.260123
 51
145.575988
  0
ARC
  8
0
 62
     7
  6
CONTINUOUS
 10
3.759674
 20
3.199596
 30
0.000000
 40
1.243542
 50
318.558393
 51
325.907838
  0
ARC
  8
0
 62
     7
  6
CONTINUOUS
 10
4.855546
 20
2.857912
 30
0.000000
 40
0.508429
 50
236.128878
 51
251.220736
  0
ARC
  8
0
 62
     7
  6
CONTINUOUS
 10
5.479660
 20
3.790696
 30
0.000000
 40
1.630749
 50
231.382211
 51
236.187476
  0
ARC
  8
0
 62
     7
  6
CONTINUOUS
 10
6.550063
 20
3.461146
 30
0.000000
 40
2.291899
 50
204.339724
 51
204.957142
  0
ARC
  8
0
 62
     7
  6
CONTINUOUS
 10
3.959652
 20
2.234529
 30
0.000000
 40
0.574504
 50
14.658120
 51
26.860432
  0
ARC
  8
0
 62
     7
  6
CONTINUOUS
 10
4.365250
 20
2.338794
 30
0.000000
 40
0.155734
 50
331.317183
 51
375.307619
  0
ARC
  8
0
 62
     7
  6
CONTINUOUS
 10
4.030618
 20
5.246406
 30
0.000000
 40
3.019361
 50
278.979307
 51
289.715779
  0
ARC
  8
0
 62
     7
  6
CONTINUOUS
 10
4.586189
 20
3.671415
 30
0.000000
 40
1.349301
 50
290.069440
 51
314.273605
  0
ARC
  8
0
 62
     7
  6
CONTINUOUS
 10
5.451694
 20
2.700939
 30
0.000000
 40
0.076546
 50
3.262905
 51
16.651885
  0
ARC
  8
0
 62
     7
  6
CONTINUOUS
 10
5.331053
 20
2.664015
 30
0.000000
 40
0.202711
 50
16.879705
 51
21.724373
  0
ARC
  8
0
 62
     7
  6
CONTINUOUS
 10
5.707689
 20
2.814081
 30
0.000000
 40
0.202720
 50
196.879820
 51
201.724258
  0
ARC
  8
0
 62
     7
  6
CONTINUOUS
 10
5.587037
 20
2.777153
 30
0.000000
 40
0.076545
 50
183.262790
 51
196.651999
  0
ARC
  8
0
 62
     7
  6
CONTINUOUS
 10
5.369161
 20
2.733752
 30
0.000000
 40
0.146744
 50
15.430404
 51
37.288007
  0
ARC
  8
0
 62
     7
  6
CONTINUOUS
 10
5.028058
 20
2.480647
 30
0.000000
 40
0.571487
 50
36.758906
 51
42.850304
  0
ARC
  8
0
 62
     7
  6
CONTINUOUS
 10
5.659296
 20
3.082969
 30
0.000000
 40
0.301175
 50
206.964328
 51
225.188278
  0
ARC
  8
0
 62
     7
  6
CONTINUOUS
 10
5.469378
 20
2.981056
 30
0.000000
 40
0.085821
 50
141.872387
 51
203.812891
  0
ARC
  8
0
 62
     7
  6
CONTINUOUS
 10
5.434077
 20
2.920278
 30
0.000000
 40
0.118237
 50
82.417409
 51
105.808327
  0
ARC
  8
0
 62
     7
  6
CONTINUOUS
 10
5.439012
 20
2.950932
 30
0.000000
 40
0.087204
 50
52.692002
 51
82.973667
  0
ARC
  8
0
 62
     7
  6
CONTINUOUS
 10
5.525199
 20
3.030841
 30
0.000000
 40
0.034962
 50
176.585719
 51
197.559335
  0
ARC
  8
0
 62
     7
  6
CONTINUOUS
 10
5.648339
 20
3.026103
 30
0.000000
 40
0.158187
 50
172.265638
 51
177.529049
  0
ARC
  8
0
 62
     7
  6
CONTINUOUS
 10
5.327851
 20
3.069270
 30
0.000000
 40
0.165195
 50
352.389784
 51
356.741677
  0
ARC
  8
0
 62
     7
  6
CONTINUOUS
 10
5.460331
 20
3.062282
 30
0.000000
 40
0.032537
 50
355.767220
 51
374.254409
  0
ARC
  8
0
 62
     7
  6
CONTINUOUS
 10
5.525676
 20
3.062715
 30
0.000000
 40
0.034648
 50
95.409520
 51
167.366670
  0
ARC
  8
0
 62
     7
  6
CONTINUOUS
 10
5.529573
 20
2.958146
 30
0.000000
 40
0.139247
 50
74.246414
 51
92.948759
  0
ARC
  8
0
 62
     7
  6
CONTINUOUS
 10
5.633679
 20
3.377753
 30
0.000000
 40
0.293185
 50
256.930082
 51
260.921132
  0
ARC
  8
0
 62
     7
  6
CONTINUOUS
 10
5.597404
 20
3.145254
 30
0.000000
 40
0.057881
 50
260.063466
 51
276.908507
  0
ARC
  8
0
 62
     7
  6
CONTINUOUS
 10
5.287883
 20
3.388814
 30
0.000000
 40
0.436779
 50
316.434434
 51
327.097042
  0
ARC
  8
0
 62
     7
  6
CONTINUOUS
 10
6.341041
 20
2.685912
 30
0.000000
 40
0.829470
 50
143.199280
 51
145.849665
  0
ARC
  8
0
 62
     7
  6
CONTINUOUS
 10
5.081190
 20
3.101155
 30
0.000000
 40
0.601242
 50
356.110014
 51
367.803779
  0
ARC
  8
0
 62
     7
  6
CONTINUOUS
 10
6.246798
 20
3.023586
 30
0.000000
 40
0.566945
 50
176.280335
 51
185.546428
  0
ARC
  8
0
 62
     7
  6
CONTINUOUS
 10
5.887388
 20
2.991675
 30
0.000000
 40
0.206155
 50
186.373626
 51
212.290226
  0
ARC
  8
0
 62
     7
  6
CONTINUOUS
 10
11.912831
 20
-2.455551
 30
0.000000
 40
8.180530
 50
138.914462
 51
139.276113
  0
ARC
  8
0
 62
     7
  6
CONTINUOUS
 10
3.778473
 20
4.671139
 30
0.000000
 40
2.634253
 50
318.352929
 51
322.110508
  0
ARC
  8
0
 62
     7
  6
CONTINUOUS
 10
5.228248
 20
3.545853
 30
0.000000
 40
0.799015
 50
321.946008
 51
334.076102
  0
ARC
  8
0
 62
     7
  6
CONTINUOUS
 10
8.582998
 20
1.943023
 30
0.000000
 40
2.918992
 50
152.357157
 51
154.568247
  0
ARC
  8
0
 62
     7
  6
CONTINUOUS
 10
4.262555
 20
4.223432
 30
0.000000
 40
1.966379
 50
331.902305
 51
336.802410
  0
ARC
  8
0
 62
     7
  6
CONTINUOUS
 10
5.529172
 20
3.682230
 30
0.000000
 40
0.588987
 50
336.658683
 51
352.493825
  0
ARC
  8
0
 62
     7
  6
CONTINUOUS
 10
6.290927
 20
2.788639
 30
0.000000
 40
0.835785
 50
102.283718
 51
109.754503
  0
ARC
  8
0
 62
     7
  6
CONTINUOUS
 10
5.706052
 20
4.424996
 30
0.000000
 40
0.901958
 50
283.108587
 51
289.588159
  0
ARC
  8
0
 62
     7
  6
CONTINUOUS
 10
7.144870
 20
3.705095
 30
0.000000
 40
1.244399
 50
187.320171
 51
191.790967
  0
ARC
  8
0
 62
     7
  6
CONTINUOUS
 10
3.991312
 20
3.062156
 30
0.000000
 40
1.974054
 50
9.531585
 51
11.354698
  0
ARC
  8
0
 62
     7
  6
CONTINUOUS
 10
7.643036
 20
-0.092117
 30
0.000000
 40
3.876239
 50
116.093634
 51
116.457118
  0
ARC
  8
0
 62
     7
  6
CONTINUOUS
 10
5.345070
 20
4.498681
 30
0.000000
 40
1.257620
 50
293.377434
 51
297.002350
  0
ARC
  8
0
 62
     7
  6
CONTINUOUS
 10
5.702417
 20
3.667888
 30
0.000000
 40
0.353240
 50
281.338242
 51
293.642479
  0
ARC
  8
0
 62
     7
  6
CONTINUOUS
 10
6.945127
 20
2.627369
 30
0.000000
 40
1.363240
 50
146.364518
 51
149.388872
  0
ARC
  8
0
 62
     7
  6
CONTINUOUS
 10
4.905631
 20
3.990894
 30
0.000000
 40
1.090081
 50
326.072817
 51
330.799277
  0
ARC
  8
0
 62
     7
  6
CONTINUOUS
 10
5.593456
 20
3.608147
 30
0.000000
 40
0.302941
 50
330.522483
 51
346.570875
  0
ARC
  8
0
 62
     7
  6
CONTINUOUS
 10
4.960025
 20
6.025980
 30
0.000000
 40
2.655641
 50
285.927313
 51
290.455382
  0
ARC
  8
0
 62
     7
  6
CONTINUOUS
 10
6.439812
 20
0.846449
 30
0.000000
 40
2.731130
 50
105.961373
 51
110.309372
  0
ARC
  8
0
 62
     7
  6
CONTINUOUS
 10
5.345199
 20
3.368468
 30
0.000000
 40
0.151847
 50
347.198893
 51
375.008867
  0
ARC
  8
0
 62
     7
  6
CONTINUOUS
 10
5.153087
 20
3.400477
 30
0.000000
 40
0.346463
 50
335.906547
 51
349.076478
  0
ARC
  8
0
 62
     7
  6
CONTINUOUS
 10
5.238556
 20
3.404736
 30
0.000000
 40
0.272947
 50
313.533100
 51
327.738900
  0
ARC
  8
0
 62
     7
  6
CONTINUOUS
 10
5.369182
 20
3.263109
 30
0.000000
 40
0.080350
 50
268.349503
 51
315.564460
  0
ARC
  8
0
 62
     7
  6
CONTINUOUS
 10
5.358609
 20
3.214197
 30
0.000000
 40
0.032472
 50
241.467942
 51
284.733792
  0
ARC
  8
0
 62
     7
  6
CONTINUOUS
 10
5.380291
 20
3.244430
 30
0.000000
 40
0.069543
 50
219.725717
 51
237.668840
  0
ARC
  8
0
 62
     7
  6
CONTINUOUS
 10
5.249248
 20
3.131823
 30
0.000000
 40
0.103251
 50
41.310906
 51
50.550227
  0
ARC
  8
0
 62
     7
  6
CONTINUOUS
 10
5.291020
 20
3.182027
 30
0.000000
 40
0.037945
 50
51.088172
 51
77.292088
  0
ARC
  8
0
 62
     7
  6
CONTINUOUS
 10
5.337717
 20
3.197358
 30
0.000000
 40
0.044056
 50
150.514276
 51
181.035752
  0
ARC
  8
0
 62
     7
  6
CONTINUOUS
 10
5.420221
 20
3.200037
 30
0.000000
 40
0.126601
 50
181.573209
 51
191.921809
  0
ARC
  8
0
 62
     7
  6
CONTINUOUS
 10
5.205754
 20
3.152823
 30
0.000000
 40
0.093013
 50
356.757707
 51
373.087274
  0
ARC
  8
0
 62
     7
  6
CONTINUOUS
 10
5.264365
 20
3.151144
 30
0.000000
 40
0.034440
 50
308.103096
 51
354.030401
  0
ARC
  8
0
 62
     7
  6
CONTINUOUS
 10
5.141317
 20
3.192450
 30
0.000000
 40
0.159694
 50
308.234360
 51
334.636181
  0
ARC
  8
0
 62
     7
  6
CONTINUOUS
 10
5.172787
 20
3.148576
 30
0.000000
 40
0.105783
 50
270.179676
 51
309.553016
  0
ARC
  8
0
 62
     7
  6
CONTINUOUS
 10
5.218728
 20
3.207323
 30
0.000000
 40
0.170735
 50
220.140709
 51
254.506029
  0
ARC
  8
0
 62
     7
  6
CONTINUOUS
 10
5.538656
 20
3.478859
 30
0.000000
 40
0.590360
 50
210.023883
 51
220.270016
  0
ARC
  8
0
 62
     7
  6
CONTINUOUS
 10
4.492273
 20
2.870071
 30
0.000000
 40
0.620240
 50
30.349973
 51
38.248162
  0
ARC
  8
0
 62
     7
  6
CONTINUOUS
 10
4.972334
 20
3.257991
 30
0.000000
 40
0.008069
 50
289.116820
 51
330.699228
  0
ARC
  8
0
 62
     7
  6
CONTINUOUS
 10
4.968142
 20
3.271582
 30
0.000000
 40
0.022288
 50
273.624557
 51
287.855698
  0
ARC
  8
0
 62
     7
  6
CONTINUOUS
 10
4.972164
 20
3.218897
 30
0.000000
 40
0.030553
 50
94.905311
 51
100.936476
  0
ARC
  8
0
 62
     7
  6
CONTINUOUS
 10
4.967611
 20
3.242020
 30
0.000000
 40
0.006987
 50
100.251629
 51
123.305466
  0
ARC
  8
0
 62
     7
  6
CONTINUOUS
 10
4.966270
 20
3.244343
 30
0.000000
 40
0.004312
 50
125.361899
 51
162.865988
  0
ARC
  8
0
 62
     7
  6
CONTINUOUS
 10
4.971657
 20
3.242917
 30
0.000000
 40
0.009883
 50
164.166927
 51
187.990049
  0
ARC
  8
0
 62
     7
  6
CONTINUOUS
 10
5.455739
 20
3.458160
 30
0.000000
 40
0.539286
 50
203.682807
 51
214.555798
  0
ARC
  8
0
 62
     7
  6
CONTINUOUS
 10
4.549569
 20
2.835412
 30
0.000000
 40
0.560241
 50
24.152614
 51
34.442434
  0
ARC
  8
0
 62
     7
  6
CONTINUOUS
 10
4.894746
 20
2.991633
 30
0.000000
 40
0.181366
 50
352.049067
 51
383.738899
  0
ARC
  8
0
 62
     7
  6
CONTINUOUS
 10
5.017448
 20
2.977909
 30
0.000000
 40
0.058044
 50
318.136712
 51
348.709744
  0
ARC
  8
0
 62
     7
  6
CONTINUOUS
 10
5.051055
 20
2.949165
 30
0.000000
 40
0.013870
 50
243.323488
 51
313.914449
  0
ARC
  8
0
 62
     7
  6
CONTINUOUS
 10
5.069026
 20
2.983866
 30
0.000000
 40
0.052948
 50
219.500063
 51
242.805473
  0
ARC
  8
0
 62
     7
  6
CONTINUOUS
 10
5.249824
 20
3.144652
 30
0.000000
 40
0.294868
 50
216.255393
 51
221.261560
  0
ARC
  8
0
 62
     7
  6
CONTINUOUS
 10
4.824207
 20
2.833409
 30
0.000000
 40
0.232411
 50
36.077664
 51
41.326872
  0
ARC
  8
0
 62
     7
  6
CONTINUOUS
 10
4.970585
 20
2.961806
 30
0.000000
 40
0.037701
 50
41.692725
 51
53.471979
  0
ARC
  8
0
 62
     7
  6
CONTINUOUS
 10
4.987426
 20
2.985125
 30
0.000000
 40
0.008945
 50
51.249431
 51
85.551112
  0
ARC
  8
0
 62
     7
  6
CONTINUOUS
 10
5.053878
 20
2.998129
 30
0.000000
 40
0.065885
 50
183.555214
 51
200.431483
  0
ARC
  8
0
 62
     7
  6
CONTINUOUS
 10
5.223010
 20
3.059769
 30
0.000000
 40
0.245897
 50
200.133370
 51
205.013316
  0
ARC
  8
0
 62
     7
  6
CONTINUOUS
 10
4.844181
 20
2.879831
 30
0.000000
 40
0.173508
 50
15.339712
 51
25.964814
  0
ARC
  8
0
 62
     7
  6
CONTINUOUS
 10
4.958078
 20
2.911372
 30
0.000000
 40
0.055325
 50
341.749528
 51
375.043499
  0
ARC
  8
0
 62
     7
  6
CONTINUOUS
 10
4.999362
 20
2.920525
 30
0.000000
 40
0.028773
 50
277.453767
 51
293.034568
  0
ARC
  8
0
 62
     7
  6
CONTINUOUS
 10
4.990611
 20
2.986100
 30
0.000000
 40
0.094930
 50
272.686183
 51
277.556050
  0
ARC
  8
0
 62
     7
  6
CONTINUOUS
 10
4.997362
 20
2.823010
 30
0.000000
 40
0.068303
 50
91.931063
 51
101.199901
  0
ARC
  8
0
 62
     7
  6
CONTINUOUS
 10
4.988383
 20
2.868788
 30
0.000000
 40
0.021653
 50
101.421982
 51
130.328366
  0
ARC
  8
0
 62
     7
  6
CONTINUOUS
 10
5.015893
 20
2.986298
 30
0.000000
 40
0.109205
 50
209.263735
 51
247.652073
  0
ARC
  8
0
 62
     7
  6
CONTINUOUS
 10
5.216890
 20
3.092419
 30
0.000000
 40
0.336473
 50
195.780454
 51
208.297206
  0
ARC
  8
0
 62
     7
  6
CONTINUOUS
 10
4.382801
 20
2.844496
 30
0.000000
 40
0.533733
 50
17.041581
 51
22.580088
  0
ARC
  8
0
 62
     7
  6
CONTINUOUS
 10
4.720211
 20
2.984979
 30
0.000000
 40
0.168245
 50
22.526615
 51
39.853005
  0
ARC
  8
0
 62
     7
  6
CONTINUOUS
 10
4.798238
 20
3.071383
 30
0.000000
 40
0.055434
 50
22.719454
 51
26.636500
  0
ARC
  8
0
 62
     7
  6
CONTINUOUS
 10
4.873545
 20
3.110736
 30
0.000000
 40
0.029556
 50
189.039642
 51
209.378790
  0
ARC
  8
0
 62
     7
  6
CONTINUOUS
 10
4.853635
 20
3.107001
 30
0.000000
 40
0.009324
 50
117.211233
 51
185.594029
  0
ARC
  8
0
 62
     7
  6
CONTINUOUS
 10
4.926919
 20
3.120575
 30
0.000000
 40
0.077727
 50
160.430884
 51
183.896418
  0
ARC
  8
0
 62
     7
  6
CONTINUOUS
 10
5.065504
 20
3.070298
 30
0.000000
 40
0.225149
 50
152.249072
 51
160.188007
  0
ARC
  8
0
 62
     7
  6
CONTINUOUS
 10
4.697272
 20
3.265445
 30
0.000000
 40
0.191599
 50
331.877813
 51
341.630310
  0
ARC
  8
0
 62
     7
  6
CONTINUOUS
 10
4.822218
 20
3.223573
 30
0.000000
 40
0.059825
 50
341.976496
 51
372.520035
  0
ARC
  8
0
 62
     7
  6
CONTINUOUS
 10
4.922582
 20
3.189785
 30
0.000000
 40
0.062826
 50
115.978368
 51
131.905656
  0
ARC
  8
0
 62
     7
  6
CONTINUOUS
 10
4.964969
 20
3.100573
 30
0.000000
 40
0.161593
 50
109.759726
 51
115.633320
  0
ARC
  8
0
 62
     7
  6
CONTINUOUS
 10
4.855737
 20
3.404679
 30
0.000000
 40
0.161535
 50
289.755925
 51
295.633870
  0
ARC
  8
0
 62
     7
  6
CONTINUOUS
 10
4.975609
 20
3.211916
 30
0.000000
 40
0.068700
 50
113.909549
 51
136.688611
  0
ARC
  8
0
 62
     7
  6
CONTINUOUS
 10
4.963238
 20
3.237745
 30
0.000000
 40
0.040083
 50
83.322601
 51
112.707262
  0
ARC
  8
0
 62
     7
  6
CONTINUOUS
 10
4.959576
 20
3.216828
 30
0.000000
 40
0.061296
 50
63.439960
 51
82.195577
  0
ARC
  8
0
 62
     7
  6
CONTINUOUS
 10
4.885638
 20
3.066415
 30
0.000000
 40
0.228898
 50
58.282284
 51
63.720237
  0
ARC
  8
0
 62
     7
  6
CONTINUOUS
 10
5.113949
 20
3.433135
 30
0.000000
 40
0.203088
 50
237.882812
 51
246.076283
  0
ARC
  8
0
 62
     7
  6
CONTINUOUS
 10
5.059958
 20
3.312071
 30
0.000000
 40
0.070531
 50
246.286463
 51
270.536181
  0
ARC
  8
0
 62
     7
  6
CONTINUOUS
 10
5.287097
 20
3.439174
 30
0.000000
 40
0.300583
 50
221.108751
 51
245.315636
  0
ARC
  8
0
 62
     7
  6
CONTINUOUS
 10
5.217154
 20
3.282346
 30
0.000000
 40
0.128891
 50
244.452013
 51
269.652686
  0
ARC
  8
0
 62
     7
  6
CONTINUOUS
 10
5.216532
 20
3.205753
 30
0.000000
 40
0.052296
 50
269.824705
 51
322.672302
  0
ARC
  8
0
 62
     7
  6
CONTINUOUS
 10
5.247916
 20
3.230608
 30
0.000000
 40
0.057478
 50
259.884518
 51
280.222757
  0
ARC
  8
0
 62
     7
  6
CONTINUOUS
 10
5.265329
 20
3.321377
 30
0.000000
 40
0.149899
 50
252.011245
 51
259.425939
  0
ARC
  8
0
 62
     7
  6
CONTINUOUS
 10
5.162809
 20
3.000937
 30
0.000000
 40
0.186544
 50
72.457667
 51
77.127314
  0
ARC
  8
0
 62
     7
  6
CONTINUOUS
 10
4.921130
 20
2.782063
 30
0.000000
 40
0.490722
 50
54.747033
 51
57.890541
  0
ARC
  8
0
 62
     7
  6
CONTINUOUS
 10
5.318487
 20
3.430192
 30
0.000000
 40
0.269593
 50
226.218161
 51
239.576078
  0
ARC
  8
0
 62
     7
  6
CONTINUOUS
 10
5.181865
 20
3.288172
 30
0.000000
 40
0.072528
 50
178.325141
 51
226.513124
  0
ARC
  8
0
 62
     7
  6
CONTINUOUS
 10
5.138404
 20
3.292076
 30
0.000000
 40
0.029090
 50
123.989208
 51
183.515913
  0
ARC
  8
0
 62
     7
  6
CONTINUOUS
 10
5.169129
 20
3.236876
 30
0.000000
 40
0.092193
 50
102.030437
 51
120.641715
  0
ARC
  8
0
 62
     7
  6
CONTINUOUS
 10
5.088374
 20
3.558650
 30
0.000000
 40
0.239642
 50
284.880125
 51
287.932893
  0
ARC
  8
0
 62
     7
  6
CONTINUOUS
 10
5.142310
 20
3.392765
 30
0.000000
 40
0.065210
 50
287.722883
 51
298.193844
  0
ARC
  8
0
 62
     7
  6
CONTINUOUS
 10
5.160172
 20
3.313665
 30
0.000000
 40
0.025206
 50
28.101728
 51
59.094522
  0
ARC
  8
0
 62
     7
  6
CONTINUOUS
 10
5.126073
 20
3.296762
 30
0.000000
 40
0.063257
 50
15.589553
 51
27.058835
  0
ARC
  8
0
 62
     7
  6
CONTINUOUS
 10
5.250826
 20
3.331967
 30
0.000000
 40
0.066368
 50
195.919857
 51
204.881846
  0
ARC
  8
0
 62
     7
  6
CONTINUOUS
 10
5.162304
 20
3.335523
 30
0.000000
 40
0.042341
 50
282.613813
 51
311.968491
  0
ARC
  8
0
 62
     7
  6
CONTINUOUS
 10
5.145113
 20
3.417326
 30
0.000000
 40
0.125928
 50
272.310190
 51
282.118735
  0
ARC
  8
0
 62
     7
  6
CONTINUOUS
 10
5.162760
 20
3.078831
 30
0.000000
 40
0.213041
 50
93.382691
 51
96.980571
  0
ARC
  8
0
 62
     7
  6
CONTINUOUS
 10
5.183221
 20
3.296641
 30
0.000000
 40
0.046785
 50
187.799443
 51
234.786635
  0
ARC
  8
0
 62
     7
  6
CONTINUOUS
 10
5.216933
 20
3.338601
 30
0.000000
 40
0.100562
 50
232.878578
 51
254.830426
  0
ARC
  8
0
 62
     7
  6
CONTINUOUS
 10
5.205723
 20
3.274754
 30
0.000000
 40
0.036485
 50
245.543345
 51
278.272124
  0
ARC
  8
0
 62
     7
  6
CONTINUOUS
 10
5.202128
 20
3.293061
 30
0.000000
 40
0.055125
 50
279.232491
 51
301.000839
  0
ARC
  8
0
 62
     7
  6
CONTINUOUS
 10
5.124677
 20
3.411825
 30
0.000000
 40
0.196886
 50
302.519528
 51
315.791563
  0
ARC
  8
0
 62
     7
  6
CONTINUOUS
 10
5.389404
 20
3.152783
 30
0.000000
 40
0.173499
 50
126.196113
 51
135.429256
  0
ARC
  8
0
 62
     7
  6
CONTINUOUS
 10
5.301404
 20
3.272526
 30
0.000000
 40
0.024899
 50
103.199689
 51
125.502107
  0
ARC
  8
0
 62
     7
  6
CONTINUOUS
 10
5.297746
 20
3.287645
 30
0.000000
 40
0.009345
 50
54.919125
 51
102.532499
  0
ARC
  8
0
 62
     7
  6
CONTINUOUS
 10
5.242491
 20
3.302943
 30
0.000000
 40
0.061107
 50
327.854333
 51
352.807949
  0
ARC
  8
0
 62
     7
  6
CONTINUOUS
 10
5.202200
 20
3.327432
 30
0.000000
 40
0.108254
 50
313.723924
 51
328.226266
  0
ARC
  8
0
 62
     7
  6
CONTINUOUS
 10
5.167406
 20
3.362024
 30
0.000000
 40
0.157307
 50
297.736450
 51
314.173868
  0
ARC
  8
0
 62
     7
  6
CONTINUOUS
 10
5.252925
 20
3.246628
 30
0.000000
 40
0.026826
 50
242.690932
 51
271.475056
  0
ARC
  8
0
 62
     7
  6
CONTINUOUS
 10
5.250305
 20
3.278523
 30
0.000000
 40
0.058805
 50
273.226831
 51
285.129286
  0
ARC
  8
0
 62
     7
  6
CONTINUOUS
 10
5.285143
 20
3.145877
 30
0.000000
 40
0.078343
 50
96.217845
 51
104.404678
  0
ARC
  8
0
 62
     7
  6
CONTINUOUS
 10
5.280200
 20
3.186269
 30
0.000000
 40
0.037657
 50
75.909580
 51
95.397813
  0
ARC
  8
0
 62
     7
  6
CONTINUOUS
 10
5.216464
 20
3.390121
 30
0.000000
 40
0.182521
 50
293.542099
 51
326.901138
  0
ARC
  8
0
 62
     7
  6
CONTINUOUS
 10
5.076721
 20
3.478531
 30
0.000000
 40
0.347874
 50
327.271354
 51
344.453036
  0
ARC
  8
0
 62
     7
  6
CONTINUOUS
 10
5.344835
 20
3.361154
 30
0.000000
 40
0.071245
 50
355.658458
 51
379.803470
  0
ARC
  8
0
 62
     7
  6
CONTINUOUS
 10
5.203468
 20
3.372813
 30
0.000000
 40
0.213092
 50
347.372280
 51
355.409873
  0
ARC
  8
0
 62
     7
  6
CONTINUOUS
 10
5.609414
 20
3.281382
 30
0.000000
 40
0.203024
 50
167.238455
 51
176.071151
  0
ARC
  8
0
 62
     7
  6
CONTINUOUS
 10
5.396485
 20
3.292678
 30
0.000000
 40
0.010707
 50
340.855331
 51
374.134717
  0
ARC
  8
0
 62
     7
  6
CONTINUOUS
 10
5.380843
 20
3.297782
 30
0.000000
 40
0.027159
 50
325.828513
 51
341.504896
  0
ARC
  8
0
 62
     7
  6
CONTINUOUS
 10
5.309428
 20
3.348034
 30
0.000000
 40
0.114480
 50
316.502064
 51
325.095380
  0
ARC
  8
0
 62
     7
  6
CONTINUOUS
 10
5.487604
 20
3.180945
 30
0.000000
 40
0.129789
 50
137.136724
 51
141.449442
  0
ARC
  8
0
 62
     7
  6
CONTINUOUS
 10
5.395058
 20
3.253658
 30
0.000000
 40
0.012125
 50
137.624667
 51
167.472704
  0
ARC
  8
0
 62
     7
  6
CONTINUOUS
 10
5.385390
 20
3.256049
 30
0.000000
 40
0.002180
 50
173.692655
 51
226.415123
  0
ARC
  8
0
 62
     7
  6
CONTINUOUS
 10
5.386914
 20
3.258182
 30
0.000000
 40
0.004791
 50
230.801707
 51
263.580332
  0
ARC
  8
0
 62
     7
  6
CONTINUOUS
 10
5.390191
 20
3.292607
 30
0.000000
 40
0.039371
 50
264.442330
 51
281.613985
  0
ARC
  8
0
 62
     7
  6
CONTINUOUS
 10
5.354463
 20
3.345074
 30
0.000000
 40
0.100957
 50
295.619969
 51
335.380764
  0
ARC
  8
0
 62
     7
  6
CONTINUOUS
 10
5.161165
 20
3.428601
 30
0.000000
 40
0.311514
 50
336.225126
 51
349.052386
  0
ARC
  8
0
 62
     7
  6
CONTINUOUS
 10
6.171966
 20
3.209964
 30
0.000000
 40
0.722769
 50
164.834933
 51
167.252955
  0
ARC
  8
0
 62
     7
  6
CONTINUOUS
 10
5.449172
 20
3.398371
 30
0.000000
 40
0.025203
 50
1.523147
 51
18.200409
  0
ARC
  8
0
 62
     7
  6
CONTINUOUS
 10
5.376983
 20
3.375499
 30
0.000000
 40
0.100928
 50
17.735249
 51
22.318300
  0
ARC
  8
0
 62
     7
  6
CONTINUOUS
 10
5.553510
 20
3.448319
 30
0.000000
 40
0.090029
 50
196.703309
 51
202.527660
  0
ARC
  8
0
 62
     7
  6
CONTINUOUS
 10
5.488550
 20
3.429072
 30
0.000000
 40
0.022280
 50
175.902016
 51
197.308958
  0
ARC
  8
0
 62
     7
  6
CONTINUOUS
 10
5.478822
 20
3.429461
 30
0.000000
 40
0.012552
 50
137.009104
 51
174.499138
  0
ARC
  8
0
 62
     7
  6
CONTINUOUS
 10
5.487200
 20
3.420524
 30
0.000000
 40
0.024788
 50
108.423693
 51
135.105002
  0
ARC
  8
0
 62
     7
  6
CONTINUOUS
 10
2.726738
 20
12.907563
 30
0.000000
 40
9.855719
 50
286.217985
 51
288.313577
  0
ARC
  8
0
 62
     7
  6
CONTINUOUS
 10
8.433849
 20
-4.265505
 30
0.000000
 40
8.240855
 50
105.443836
 51
108.466357
  0
ARC
  8
0
 62
     7
  6
CONTINUOUS
 10
6.215545
 20
3.643845
 30
0.000000
 40
0.041465
 50
19.079737
 51
54.944587
  0
ARC
  8
0
 62
     7
  6
CONTINUOUS
 10
6.150495
 20
3.623447
 30
0.000000
 40
0.109627
 50
5.342698
 51
18.041785
  0
ARC
  8
0
 62
     7
  6
CONTINUOUS
 10
6.334313
 20
3.638780
 30
0.000000
 40
0.074843
 50
183.927373
 51
202.591243
  0
ARC
  8
0
 62
     7
  6
CONTINUOUS
 10
6.287460
 20
3.621272
 30
0.000000
 40
0.024926
 50
206.810234
 51
262.856621
  0
ARC
  8
0
 62
     7
  6
CONTINUOUS
 10
6.295548
 20
3.528262
 30
0.000000
 40
0.069188
 50
86.387434
 51
99.305394
  0
ARC
  8
0
 62
     7
  6
CONTINUOUS
 10
6.285207
 20
3.340073
 30
0.000000
 40
0.257659
 50
83.038145
 51
86.729278
  0
ARC
  8
0
 62
     7
  6
CONTINUOUS
 10
6.338927
 20
3.765873
 30
0.000000
 40
0.171521
 50
262.465884
 51
268.950951
  0
ARC
  8
0
 62
     7
  6
CONTINUOUS
 10
6.337317
 20
3.622133
 30
0.000000
 40
0.027795
 50
266.842189
 51
298.187285
  0
ARC
  8
0
 62
     7
  6
CONTINUOUS
 10
6.342060
 20
3.609949
 30
0.000000
 40
0.014899
 50
304.256088
 51
360.828168
  0
ARC
  8
0
 62
     7
  6
CONTINUOUS
 10
6.286481
 20
3.610225
 30
0.000000
 40
0.070476
 50
359.950938
 51
381.924358
  0
ARC
  8
0
 62
     7
  6
CONTINUOUS
 10
6.438709
 20
3.609887
 30
0.000000
 40
0.090847
 50
117.318704
 51
162.939764
  0
ARC
  8
0
 62
     7
  6
CONTINUOUS
 10
6.476634
 20
3.529346
 30
0.000000
 40
0.179840
 50
92.318311
 51
116.277228
  0
ARC
  8
0
 62
     7
  6
CONTINUOUS
 10
6.263459
 20
3.502706
 30
0.000000
 40
0.291493
 50
34.573973
 51
45.060028
  0
ARC
  8
0
 62
     7
  6
CONTINUOUS
 10
6.789476
 20
3.868862
 30
0.000000
 40
0.349422
 50
215.064594
 51
222.501037
  0
ARC
  8
0
 62
     7
  6
CONTINUOUS
 10
6.575323
 20
3.622179
 30
0.000000
 40
0.044741
 50
126.242420
 51
166.278876
  0
ARC
  8
0
 62
     7
  6
CONTINUOUS
 10
6.645436
 20
3.529666
 30
0.000000
 40
0.160815
 50
115.587431
 51
126.902853
  0
ARC
  8
0
 62
     7
  6
CONTINUOUS
 10
6.299308
 20
4.210221
 30
0.000000
 40
0.602760
 50
297.323335
 51
297.954045
  0
ARC
  8
0
 62
     7
  6
CONTINUOUS
 10
6.611209
 20
3.737034
 30
0.000000
 40
0.066117
 50
243.646495
 51
295.042505
  0
ARC
  8
0
 62
     7
  6
CONTINUOUS
 10
6.562720
 20
3.811176
 30
0.000000
 40
0.154325
 50
299.706298
 51
319.599927
  0
ARC
  8
0
 62
     7
  6
CONTINUOUS
 10
6.811012
 20
3.597065
 30
0.000000
 40
0.173542
 50
122.840171
 51
138.896774
  0
ARC
  8
0
 62
     7
  6
CONTINUOUS
 10
6.748417
 20
3.689383
 30
0.000000
 40
0.062083
 50
73.925568
 51
120.506855
  0
ARC
  8
0
 62
     7
  6
CONTINUOUS
 10
6.418503
 20
4.110031
 30
0.000000
 40
0.500796
 50
313.876458
 51
317.212899
  0
ARC
  8
0
 62
     7
  6
CONTINUOUS
 10
7.224458
 20
3.362680
 30
0.000000
 40
0.598339
 50
134.013105
 51
137.116972
  0
ARC
  8
0
 62
     7
  6
CONTINUOUS
 10
6.930372
 20
3.668030
 30
0.000000
 40
0.174401
 50
123.897289
 51
134.230794
  0
ARC
  8
0
 62
     7
  6
CONTINUOUS
 10
6.796833
 20
4.024066
 30
0.000000
 40
0.214368
 50
279.742193
 51
301.791457
  0
ARC
  8
0
 62
     7
  6
CONTINUOUS
 10
6.531691
 20
4.457136
 30
0.000000
 40
0.722155
 50
301.569999
 51
308.300547
  0
ARC
  8
0
 62
     7
  6
CONTINUOUS
 10
7.449752
 20
3.290352
 30
0.000000
 40
0.762509
 50
122.812535
 51
128.098394
  0
ARC
  8
0
 62
     7
  6
CONTINUOUS
 10
7.140178
 20
3.773392
 30
0.000000
 40
0.188790
 50
104.047307
 51
123.290467
  0
ARC
  8
0
 62
     7
  6
CONTINUOUS
 10
7.112954
 20
3.952842
 30
0.000000
 40
0.018963
 50
137.605595
 51
168.766235
  0
ARC
  8
0
 62
     7
  6
CONTINUOUS
 10
7.121602
 20
3.944376
 30
0.000000
 40
0.031061
 50
116.796552
 51
136.828698
  0
ARC
  8
0
 62
     7
  6
CONTINUOUS
 10
7.163154
 20
3.854616
 30
0.000000
 40
0.129958
 50
103.902427
 51
115.307925
  0
ARC
  8
0
 62
     7
  6
CONTINUOUS
 10
7.080747
 20
4.171790
 30
0.000000
 40
0.197761
 50
284.999491
 51
290.917288
  0
ARC
  8
0
 62
     7
  6
CONTINUOUS
 10
7.135468
 20
4.030475
 30
0.000000
 40
0.046227
 50
290.096166
 51
312.762667
  0
LINE
  8
0
 62
     7
  6
CONTINUOUS
 10
7.166854
 20
3.996536
 30
0.000000
 11
7.151020
 21
3.993829
 31
0.000000
  0
ARC
  8
0
 62
     7
  6
CONTINUOUS
 10
6.985613
 20
4.840986
 30
0.000000
 40
0.863154
 50
273.352189
 51
281.048014
  0
ARC
  8
0
 62
     7
  6
CONTINUOUS
 10
7.020206
 20
4.254256
 30
0.000000
 40
0.275405
 50
249.355337
 51
273.305186
  0
ARC
  8
0
 62
     7
  6
CONTINUOUS
 10
6.911813
 20
4.036541
 30
0.000000
 40
0.041569
 50
268.294805
 51
285.763839
  0
ARC
  8
0
 62
     7
  6
CONTINUOUS
 10
6.902153
 20
4.545487
 30
0.000000
 40
0.550560
 50
268.642857
 51
270.876634
  0
ARC
  8
0
 62
     7
  6
CONTINUOUS
 10
6.871787
 20
3.507599
 30
0.000000
 40
0.487790
 50
87.964444
 51
95.399972
  0
ARC
  8
0
 62
     7
  6
CONTINUOUS
 10
6.840663
 20
3.850754
 30
0.000000
 40
0.143235
 50
95.923039
 51
108.091985
  0
ARC
  8
0
 62
     7
  6
CONTINUOUS
 10
6.812324
 20
3.934596
 30
0.000000
 40
0.054745
 50
107.149074
 51
133.909738
  0
ARC
  8
0
 62
     7
  6
CONTINUOUS
 10
6.747100
 20
4.054445
 30
0.000000
 40
0.084903
 50
257.073952
 51
288.726236
  0
ARC
  8
0
 62
     7
  6
CONTINUOUS
 10
6.743188
 20
4.037858
 30
0.000000
 40
0.067861
 50
217.510870
 51
257.160479
  0
ARC
  8
0
 62
     7
  6
CONTINUOUS
 10
6.675515
 20
3.954389
 30
0.000000
 40
0.044362
 50
71.817763
 51
90.551753
  0
ARC
  8
0
 62
     7
  6
CONTINUOUS
 10
6.675709
 20
3.972085
 30
0.000000
 40
0.026671
 50
91.335350
 51
115.360231
  0
ARC
  8
0
 62
     7
  6
CONTINUOUS
 10
6.694285
 20
3.943339
 30
0.000000
 40
0.060768
 50
119.582096
 51
140.772280
  0
ARC
  8
0
 62
     7
  6
CONTINUOUS
 10
6.532195
 20
4.086375
 30
0.000000
 40
0.155471
 50
311.695366
 51
317.713935
  0
ARC
  8
0
 62
     7
  6
CONTINUOUS
 10
6.616067
 20
4.001998
 30
0.000000
 40
0.037250
 50
260.062062
 51
301.643361
  0
ARC
  8
0
 62
     7
  6
CONTINUOUS
 10
6.629682
 20
4.055205
 30
0.000000
 40
0.092105
 50
241.723807
 51
257.430528
  0
ARC
  8
0
 62
     7
  6
CONTINUOUS
 10
6.522501
 20
3.848346
 30
0.000000
 40
0.140890
 50
63.188728
 51
70.915000
  0
ARC
  8
0
 62
     7
  6
CONTINUOUS
 10
6.552573
 20
3.934551
 30
0.000000
 40
0.049591
 50
71.183724
 51
93.716090
  0
ARC
  8
0
 62
     7
  6
CONTINUOUS
 10
6.469780
 20
4.067674
 30
0.000000
 40
0.115446
 50
246.831849
 51
313.576258
  0
ARC
  8
0
 62
     7
  6
CONTINUOUS
 10
6.508107
 20
3.886490
 30
0.000000
 40
0.112453
 50
138.135253
 51
162.317661
  0
ARC
  8
0
 62
     7
  6
CONTINUOUS
 10
6.834889
 20
3.776718
 30
0.000000
 40
0.457169
 50
161.649781
 51
168.197594
  0
ARC
  8
0
 62
     7
  6
CONTINUOUS
 10
5.936826
 20
3.964664
 30
0.000000
 40
0.460349
 50
341.886067
 51
348.162052
  0
ARC
  8
0
 62
     7
  6
CONTINUOUS
 10
6.331290
 20
4.050494
 30
0.000000
 40
0.232971
 50
264.984594
 51
280.653905
  0
ARC
  8
0
 62
     7
  6
CONTINUOUS
 10
6.321632
 20
3.900350
 30
0.000000
 40
0.082633
 50
218.385475
 51
262.553220
  0
ARC
  8
0
 62
     7
  6
CONTINUOUS
 10
6.244494
 20
3.833819
 30
0.000000
 40
0.019611
 50
50.906257
 51
116.422303
  0
ARC
  8
0
 62
     7
  6
CONTINUOUS
 10
6.241503
 20
3.839425
 30
0.000000
 40
0.013261
 50
115.626615
 51
161.701370
  0
ARC
  8
0
 62
     7
  6
CONTINUOUS
 10
6.246561
 20
3.839084
 30
0.000000
 40
0.018215
 50
165.683898
 51
208.875672
  0
ARC
  8
0
 62
     7
  6
CONTINUOUS
 10
6.261455
 20
3.783181
 30
0.000000
 40
0.056307
 50
123.214390
 51
143.475771
  0
ARC
  8
0
 62
     7
  6
CONTINUOUS
 10
6.235881
 20
3.802437
 30
0.000000
 40
0.024296
 50
144.074902
 51
176.091121
  0
ARC
  8
0
 62
     7
  6
CONTINUOUS
 10
6.242065
 20
3.803095
 30
0.000000
 40
0.030440
 50
178.120301
 51
201.450207
  0
ARC
  8
0
 62
     7
  6
CONTINUOUS
 10
6.319641
 20
3.832993
 30
0.000000
 40
0.113578
 50
201.176969
 51
207.940262
  0
ARC
  8
0
 62
     7
  6
CONTINUOUS
 10
6.152593
 20
3.741753
 30
0.000000
 40
0.076785
 50
12.009001
 51
29.682406
  0
ARC
  8
0
 62
     7
  6
CONTINUOUS
 10
6.191284
 20
3.752097
 30
0.000000
 40
0.036846
 50
326.084331
 51
368.792279
  0
ARC
  8
0
 62
     7
  6
CONTINUOUS
 10
-4.323585
 20
36.345575
 30
0.000000
 40
34.276549
 50
287.526459
 51
287.918132
  0
ARC
  8
0
 62
     7
  6
CONTINUOUS
 10
10.583518
 20
-11.087116
 30
0.000000
 40
15.443592
 50
107.270136
 51
109.196146
  0
ARC
  8
0
 62
     7
  6
CONTINUOUS
 10
5.483004
 20
2.903920
 30
0.000000
 40
0.594300
 50
87.819472
 51
91.297288
  0
ARC
  8
0
 62
     7
  6
CONTINUOUS
 10
5.453511
 20
3.922700
 30
0.000000
 40
0.424935
 50
263.234725
 51
272.163076
  0
ARC
  8
0
 62
     7
  6
CONTINUOUS
 10
5.413158
 20
3.601072
 30
0.000000
 40
0.100817
 50
229.823891
 51
264.475291
  0
ARC
  8
0
 62
     7
  6
CONTINUOUS
 10
5.324245
 20
4.303424
 30
0.000000
 40
0.779749
 50
268.513250
 51
271.754371
  0
ARC
  8
0
 62
     7
  6
CONTINUOUS
 10
5.284515
 20
3.069203
 30
0.000000
 40
0.455153
 50
87.544668
 51
96.367524
  0
ARC
  8
0
 62
     7
  6
CONTINUOUS
 10
5.252494
 20
3.367017
 30
0.000000
 40
0.155629
 50
96.811159
 51
122.830478
  0
ARC
  8
0
 62
     7
  6
CONTINUOUS
 10
5.203205
 20
3.536628
 30
0.000000
 40
0.052341
 50
197.566183
 51
227.905274
  0
ARC
  8
0
 62
     7
  6
CONTINUOUS
 10
5.251706
 20
3.547156
 30
0.000000
 40
0.101861
 50
181.280795
 51
194.977408
  0
ARC
  8
0
 62
     7
  6
CONTINUOUS
 10
5.021392
 20
3.541035
 30
0.000000
 40
0.128536
 50
1.713845
 51
14.878521
  0
ARC
  8
0
 62
     7
  6
CONTINUOUS
 10
3.616418
 20
2.832789
 30
0.000000
 40
1.699384
 50
25.860882
 51
32.813310
  0
ARC
  8
0
 62
     7
  6
CONTINUOUS
 10
6.410153
 20
4.637793
 30
0.000000
 40
1.626726
 50
205.292696
 51
212.921217
  0
ARC
  8
0
 62
     7
  6
CONTINUOUS
 10
4.944111
 20
3.922263
 30
0.000000
 40
0.021063
 50
103.006944
 51
129.277361
  0
ARC
  8
0
 62
     7
  6
CONTINUOUS
 10
4.980897
 20
3.876300
 30
0.000000
 40
0.079934
 50
128.831245
 51
136.287836
  0
ARC
  8
0
 62
     7
  6
CONTINUOUS
 10
4.865326
 20
3.986775
 30
0.000000
 40
0.079946
 50
308.839605
 51
316.295051
  0
ARC
  8
0
 62
     7
  6
CONTINUOUS
 10
4.902125
 20
3.940811
 30
0.000000
 40
0.021066
 50
283.017442
 51
309.282883
  0
ARC
  8
0
 62
     7
  6
CONTINUOUS
 10
5.039899
 20
3.944757
 30
0.000000
 40
0.135260
 50
127.867811
 51
190.422983
  0
ARC
  8
0
 62
     7
  6
CONTINUOUS
 10
5.058183
 20
4.031570
 30
0.000000
 40
0.103261
 50
168.851996
 51
197.150076
  0
ARC
  8
0
 62
     7
  6
CONTINUOUS
 10
5.253307
 20
4.094136
 30
0.000000
 40
0.308166
 50
197.567805
 51
206.996576
  0
ARC
  8
0
 62
     7
  6
CONTINUOUS
 10
4.564801
 20
3.751288
 30
0.000000
 40
0.461001
 50
21.772522
 51
26.120521
  0
ARC
  8
0
 62
     7
  6
CONTINUOUS
 10
4.856588
 20
3.867739
 30
0.000000
 40
0.146835
 50
8.339920
 51
21.806327
  0
ARC
  8
0
 62
     7
  6
CONTINUOUS
 10
4.909859
 20
3.821858
 30
0.000000
 40
0.113925
 50
20.362598
 51
36.133644
  0
ARC
  8
0
 62
     7
  6
CONTINUOUS
 10
4.560685
 20
3.687154
 30
0.000000
 40
0.488174
 50
16.774693
 51
20.924516
  0
ARC
  8
0
 62
     7
  6
CONTINUOUS
 10
5.449882
 20
3.953625
 30
0.000000
 40
0.440093
 50
196.579619
 51
201.915871
  0
ARC
  8
0
 62
     7
  6
CONTINUOUS
 10
5.139814
 20
3.827518
 30
0.000000
 40
0.105371
 50
201.229834
 51
221.314289
  0
ARC
  8
0
 62
     7
  6
CONTINUOUS
 10
5.098367
 20
3.792141
 30
0.000000
 40
0.050891
 50
222.204752
 51
261.278559
  0
ARC
  8
0
 62
     7
  6
CONTINUOUS
 10
5.100218
 20
3.832351
 30
0.000000
 40
0.091017
 50
263.965892
 51
293.745655
  0
ARC
  8
0
 62
     7
  6
CONTINUOUS
 10
5.181029
 20
3.745199
 30
0.000000
 40
0.044327
 50
142.981117
 51
175.029923
  0
ARC
  8
0
 62
     7
  6
CONTINUOUS
 10
5.166144
 20
3.754459
 30
0.000000
 40
0.026913
 50
99.739446
 51
139.641199
  0
ARC
  8
0
 62
     7
  6
CONTINUOUS
 10
5.171755
 20
3.718779
 30
0.000000
 40
0.063030
 50
80.333840
 51
99.279532
  0
ARC
  8
0
 62
     7
  6
CONTINUOUS
 10
5.139321
 20
3.507091
 30
0.000000
 40
0.277181
 50
76.191085
 51
81.071948
  0
ARC
  8
0
 62
     7
  6
CONTINUOUS
 10
5.271642
 20
4.045444
 30
0.000000
 40
0.277194
 50
256.191200
 51
261.071833
  0
ARC
  8
0
 62
     7
  6
CONTINUOUS
 10
5.239205
 20
3.833744
 30
0.000000
 40
0.063030
 50
260.334285
 51
279.279068
  0
ARC
  8
0
 62
     7
  6
CONTINUOUS
 10
5.228419
 20
4.172493
 30
0.000000
 40
0.401502
 50
272.990879
 51
287.836273
  0
ARC
  8
0
 62
     7
  6
CONTINUOUS
 10
5.315092
 20
3.902730
 30
0.000000
 40
0.118157
 50
287.894930
 51
337.643292
  0
ARC
  8
0
 62
     7
  6
CONTINUOUS
 10
5.433502
 20
3.702543
 30
0.000000
 40
0.155512
 50
83.432361
 51
93.367637
  0
ARC
  8
0
 62
     7
  6
CONTINUOUS
 10
5.397281
 20
3.387931
 30
0.000000
 40
0.472202
 50
80.152108
 51
83.432411
  0
ARC
  8
0
 62
     7
  6
CONTINUOUS
 10
5.523053
 20
4.070329
 30
0.000000
 40
0.221769
 50
258.290123
 51
272.466700
  0
ARC
  8
0
 62
     7
  6
CONTINUOUS
 10
5.525165
 20
3.942532
 30
0.000000
 40
0.094061
 50
274.532071
 51
310.993283
  0
ARC
  8
0
 62
     7
  6
CONTINUOUS
 10
5.631124
 20
3.870413
 30
0.000000
 40
0.044272
 50
150.210528
 51
178.546526
  0
ARC
  8
0
 62
     7
  6
CONTINUOUS
 10
5.611249
 20
3.880693
 30
0.000000
 40
0.021937
 50
106.964135
 51
147.720755
  0
ARC
  8
0
 62
     7
  6
CONTINUOUS
 10
5.617148
 20
3.857865
 30
0.000000
 40
0.045504
 50
84.549130
 51
105.681825
  0
ARC
  8
0
 62
     7
  6
CONTINUOUS
 10
5.604605
 20
3.694938
 30
0.000000
 40
0.208907
 50
80.040963
 51
85.369427
  0
ARC
  8
0
 62
     7
  6
CONTINUOUS
 10
5.667654
 20
4.034296
 30
0.000000
 40
0.136284
 50
258.607640
 51
272.207424
  0
ARC
  8
0
 62
     7
  6
CONTINUOUS
 10
5.671506
 20
3.933660
 30
0.000000
 40
0.035574
 50
272.250639
 51
321.544431
  0
ARC
  8
0
 62
     7
  6
CONTINUOUS
 10
5.764827
 20
3.887234
 30
0.000000
 40
0.069828
 50
105.664047
 51
159.632894
  0
ARC
  8
0
 62
     7
  6
CONTINUOUS
 10
5.786294
 20
3.764695
 30
0.000000
 40
0.194010
 50
83.416902
 51
101.995167
  0
ARC
  8
0
 62
     7
  6
CONTINUOUS
 10
5.832269
 20
4.228692
 30
0.000000
 40
0.272302
 50
265.000014
 51
275.009634
  0
ARC
  8
0
 62
     7
  6
CONTINUOUS
 10
5.849827
 20
4.031178
 30
0.000000
 40
0.074010
 50
274.820850
 51
309.459483
  0
ARC
  8
0
 62
     7
  6
CONTINUOUS
 10
6.410951
 20
3.366545
 30
0.000000
 40
0.795822
 50
129.609917
 51
130.239482
  0
ARC
  8
0
 62
     7
  6
CONTINUOUS
 10
5.774870
 20
4.148680
 30
0.000000
 40
0.212451
 50
307.285408
 51
322.579887
  0
ARC
  8
0
 62
     7
  6
CONTINUOUS
 10
5.899600
 20
4.051626
 30
0.000000
 40
0.054429
 50
323.934982
 51
351.538755
  0
ARC
  8
0
 62
     7
  6
CONTINUOUS
 10
5.916590
 20
4.047649
 30
0.000000
 40
0.037068
 50
353.756020
 51
395.242638
  0
ARC
  8
0
 62
     7
  6
CONTINUOUS
 10
6.037052
 20
3.239621
 30
0.000000
 40
0.834306
 50
92.915633
 51
96.205789
  0
ARC
  8
0
 62
     7
  6
CONTINUOUS
 10
5.961019
 20
4.784800
 30
0.000000
 40
0.712745
 50
272.701674
 51
277.272126
  0
ARC
  8
0
 62
     7
  6
CONTINUOUS
 10
6.024691
 20
4.289847
 30
0.000000
 40
0.213714
 50
277.135934
 51
291.887755
  0
ARC
  8
0
 62
     7
  6
CONTINUOUS
 10
6.226858
 20
4.035036
 30
0.000000
 40
0.134899
 50
117.831230
 51
155.238264
  0
ARC
  8
0
 62
     7
  6
CONTINUOUS
 10
6.307842
 20
3.857327
 30
0.000000
 40
0.330056
 50
101.687902
 51
115.860597
  0
ARC
  8
0
 62
     7
  6
CONTINUOUS
 10
6.133844
 20
4.647104
 30
0.000000
 40
0.478706
 50
282.932425
 51
289.907063
  0
ARC
  8
0
 62
     7
  6
CONTINUOUS
 10
6.242284
 20
4.346524
 30
0.000000
 40
0.159164
 50
290.045886
 51
311.074045
  0
ARC
  8
0
 62
     7
  6
CONTINUOUS
 10
6.320689
 20
4.244498
 30
0.000000
 40
0.031742
 50
325.536827
 51
352.775065
  0
ARC
  8
0
 62
     7
  6
CONTINUOUS
 10
6.337003
 20
4.241860
 30
0.000000
 40
0.015236
 50
354.901195
 51
394.814730
  0
ARC
  8
0
 62
     7
  6
CONTINUOUS
 10
6.325963
 20
4.233250
 30
0.000000
 40
0.029227
 50
36.316971
 51
58.069873
  0
ARC
  8
0
 62
     7
  6
CONTINUOUS
 10
6.271790
 20
4.149587
 30
0.000000
 40
0.128894
 50
57.301771
 51
62.919299
  0
ARC
  8
0
 62
     7
  6
CONTINUOUS
 10
6.375652
 20
4.355352
 30
0.000000
 40
0.101602
 50
234.033072
 51
243.594998
  0
ARC
  8
0
 62
     7
  6
CONTINUOUS
 10
6.330153
 20
4.293243
 30
0.000000
 40
0.024614
 50
198.860272
 51
234.841841
  0
ARC
  8
0
 62
     7
  6
CONTINUOUS
 10
6.486296
 20
3.664856
 30
0.000000
 40
0.645857
 50
102.934069
 51
106.130508
  0
ARC
  8
0
 62
     7
  6
CONTINUOUS
 10
6.262921
 20
4.668410
 30
0.000000
 40
0.382296
 50
281.897333
 51
291.203696
  0
ARC
  8
0
 62
     7
  6
CONTINUOUS
 10
6.356823
 20
4.425272
 30
0.000000
 40
0.121656
 50
291.389090
 51
320.435759
  0
ARC
  8
0
 62
     7
  6
CONTINUOUS
 10
6.414042
 20
4.368512
 30
0.000000
 40
0.042034
 50
330.453266
 51
373.042356
  0
ARC
  8
0
 62
     7
  6
CONTINUOUS
 10
6.338273
 20
4.349115
 30
0.000000
 40
0.120239
 50
13.899296
 51
27.967880
  0
ARC
  8
0
 62
     7
  6
CONTINUOUS
 10
6.669108
 20
4.515598
 30
0.000000
 40
0.250167
 50
203.670454
 51
206.109100
  0
ARC
  8
0
 62
     7
  6
CONTINUOUS
 10
6.494684
 20
4.439434
 30
0.000000
 40
0.059839
 50
194.912775
 51
203.929456
  0
ARC
  8
0
 62
     7
  6
CONTINUOUS
 10
7.106431
 20
2.936571
 30
0.000000
 40
1.631218
 50
113.082438
 51
114.234532
  0
ARC
  8
0
 62
     7
  6
CONTINUOUS
 10
6.250664
 20
4.983368
 30
0.000000
 40
0.587421
 50
291.599533
 51
301.706369
  0
ARC
  8
0
 62
     7
  6
CONTINUOUS
 10
6.466824
 20
4.634317
 30
0.000000
 40
0.176859
 50
301.560631
 51
334.806358
  0
ARC
  8
0
 62
     7
  6
CONTINUOUS
 10
6.593533
 20
4.577006
 30
0.000000
 40
0.037864
 50
331.661155
 51
364.995737
  0
ARC
  8
0
 62
     7
  6
CONTINUOUS
 10
6.573998
 20
4.575108
 30
0.000000
 40
0.057490
 50
5.184390
 51
26.490911
  0
ARC
  8
0
 62
     7
  6
CONTINUOUS
 10
6.566771
 20
4.574263
 30
0.000000
 40
0.064383
 50
24.294969
 51
54.280214
  0
ARC
  8
0
 62
     7
  6
CONTINUOUS
 10
6.183376
 20
5.724986
 30
0.000000
 40
1.176360
 50
290.969421
 51
312.417030
  0
ARC
  8
0
 62
     7
  6
CONTINUOUS
 10
6.889096
 20
4.982052
 30
0.000000
 40
0.153157
 50
304.960104
 51
325.904403
  0
ARC
  8
0
 62
     7
  6
CONTINUOUS
 10
6.968247
 20
4.927492
 30
0.000000
 40
0.057033
 50
326.720055
 51
353.440024
  0
ARC
  8
0
 62
     7
  6
CONTINUOUS
 10
6.986088
 20
4.924329
 30
0.000000
 40
0.038963
 50
355.063566
 51
394.737859
  0
ARC
  8
0
 62
     7
  6
CONTINUOUS
 10
7.006742
 20
4.931563
 30
0.000000
 40
0.018794
 50
52.793609
 51
85.188650
  0
ARC
  8
0
 62
     7
  6
CONTINUOUS
 10
7.002667
 20
4.894434
 30
0.000000
 40
0.056141
 50
84.222155
 51
98.265852
  0
ARC
  8
0
 62
     7
  6
CONTINUOUS
 10
7.042402
 20
4.645506
 30
0.000000
 40
0.308216
 50
98.923111
 51
105.692586
  0
ARC
  8
0
 62
     7
  6
CONTINUOUS
 10
6.842361
 20
5.370686
 30
0.000000
 40
0.444055
 50
280.052988
 51
285.233478
  0
ARC
  8
0
 62
     7
  6
CONTINUOUS
 10
6.899564
 20
5.039148
 30
0.000000
 40
0.107632
 50
261.204944
 51
280.876780
  0
ARC
  8
0
 62
     7
  6
CONTINUOUS
 10
6.369792
 20
6.095741
 30
0.000000
 40
1.271208
 50
293.816042
 51
315.927521
  0
ARC
  8
0
 62
     7
  6
CONTINUOUS
 10
6.707839
 20
5.697708
 30
0.000000
 40
0.753193
 50
319.797654
 51
329.707311
  0
ARC
  8
0
 62
     7
  6
CONTINUOUS
 10
7.192616
 20
5.413714
 30
0.000000
 40
0.191356
 50
329.912965
 51
347.145923
  0
ARC
  8
0
 62
     7
  6
CONTINUOUS
 10
7.325040
 20
5.385348
 30
0.000000
 40
0.055970
 50
345.297826
 51
390.825064
  0
ARC
  8
0
 62
     7
  6
CONTINUOUS
 10
7.890865
 20
4.055998
 30
0.000000
 40
1.453383
 50
110.869807
 51
118.069288
  0
ARC
  8
0
 62
     7
  6
CONTINUOUS
 10
6.330101
 20
7.018192
 30
0.000000
 40
1.894868
 50
293.353914
 51
297.566055
  0
ARC
  8
0
 62
     7
  6
CONTINUOUS
 10
6.843976
 20
5.827013
 30
0.000000
 40
0.597573
 50
280.278806
 51
293.394141
  0
ARC
  8
0
 62
     7
  6
CONTINUOUS
 10
11.025953
 20
-1.641103
 30
0.000000
 40
7.996543
 50
120.064056
 51
120.639763
  0
ARC
  8
0
 62
     7
  6
CONTINUOUS
 10
3.017428
 20
12.194428
 30
0.000000
 40
7.989652
 50
300.063683
 51
300.640536
  0
LINE
  8
0
 62
     7
  6
CONTINUOUS
 10
7.089356
 20
5.320278
 30
0.000000
 11
7.090881
 21
5.321249
 31
0.000000
  0
ARC
  8
0
 62
     7
  6
CONTINUOUS
 10
5.365820
 20
8.145764
 30
0.000000
 40
3.309640
 50
301.414335
 51
308.149920
  0
ARC
  8
0
 62
     7
  6
CONTINUOUS
 10
6.753470
 20
6.385642
 30
0.000000
 40
1.068313
 50
307.936511
 51
329.147147
  0
ARC
  8
0
 62
     7
  6
CONTINUOUS
 10
7.278239
 20
6.003268
 30
0.000000
 40
0.425837
 50
337.130689
 51
348.031806
  0
ARC
  8
0
 62
     7
  6
CONTINUOUS
 10
7.556956
 20
5.941773
 30
0.000000
 40
0.140446
 50
348.995025
 51
365.340782
  0
ARC
  8
0
 62
     7
  6
CONTINUOUS
 10
7.619529
 20
5.947611
 30
0.000000
 40
0.077601
 50
5.349026
 51
33.351609
  0
ARC
  8
0
 62
     7
  6
CONTINUOUS
 10
7.671077
 20
5.971024
 30
0.000000
 40
0.023383
 50
55.412925
 51
99.933585
  0
ARC
  8
0
 62
     7
  6
CONTINUOUS
 10
7.678718
 20
5.937123
 30
0.000000
 40
0.058118
 50
101.588153
 51
121.788136
  0
ARC
  8
0
 62
     7
  6
CONTINUOUS
 10
3.392819
 20
4.315109
 30
0.000000
 40
0.017764
 50
326.743423
 51
381.209788
  0
ARC
  8
0
 62
     7
  6
CONTINUOUS
 10
3.217978
 20
4.384473
 30
0.000000
 40
0.205529
 50
327.250402
 51
337.363185
  0
ARC
  8
0
 62
     7
  6
CONTINUOUS
 10
2.913338
 20
4.577030
 30
0.000000
 40
0.565919
 50
316.151004
 51
327.539128
  0
ARC
  8
0
 62
     7
  6
CONTINUOUS
 10
2.992638
 20
4.490122
 30
0.000000
 40
0.448590
 50
300.546217
 51
317.139584
  0
ARC
  8
0
 62
     7
  6
CONTINUOUS
 10
3.124356
 20
4.257302
 30
0.000000
 40
0.181204
 50
264.729432
 51
302.092285
  0
ARC
  8
0
 62
     7
  6
CONTINUOUS
 10
3.117138
 20
4.103924
 30
0.000000
 40
0.028655
 50
193.938566
 51
250.790494
  0
ARC
  8
0
 62
     7
  6
CONTINUOUS
 10
3.139657
 20
4.109796
 30
0.000000
 40
0.051926
 50
165.513374
 51
194.242001
  0
ARC
  8
0
 62
     7
  6
CONTINUOUS
 10
3.120735
 20
4.106545
 30
0.000000
 40
0.035309
 50
125.151400
 51
152.616928
  0
ARC
  8
0
 62
     7
  6
CONTINUOUS
 10
3.187406
 20
4.019694
 30
0.000000
 40
0.144777
 50
117.199788
 51
126.936043
  0
ARC
  8
0
 62
     7
  6
CONTINUOUS
 10
3.538766
 20
3.323212
 30
0.000000
 40
0.924864
 50
112.520166
 51
116.837236
  0
ARC
  8
0
 62
     7
  6
CONTINUOUS
 10
2.738746
 20
5.259044
 30
0.000000
 40
1.169768
 50
292.401351
 51
298.970918
  0
ARC
  8
0
 62
     7
  6
CONTINUOUS
 10
3.143669
 20
4.537465
 30
0.000000
 40
0.342385
 50
298.176825
 51
320.900969
  0
ARC
  8
0
 62
     7
  6
CONTINUOUS
 10
3.919608
 20
3.350217
 30
0.000000
 40
1.016984
 50
143.402227
 51
147.846676
  0
ARC
  8
0
 62
     7
  6
CONTINUOUS
 10
2.429005
 20
4.265386
 30
0.000000
 40
0.732275
 50
316.189396
 51
329.292168
  0
ARC
  8
0
 62
     7
  6
CONTINUOUS
 10
2.855207
 20
3.860072
 30
0.000000
 40
0.144147
 50
287.823439
 51
315.171036
  0
ARC
  8
0
 62
     7
  6
CONTINUOUS
 10
2.878153
 20
3.799344
 30
0.000000
 40
0.079378
 50
238.673938
 51
285.471730
  0
ARC
  8
0
 62
     7
  6
CONTINUOUS
 10
2.861060
 20
3.757331
 30
0.000000
 40
0.035351
 50
189.771118
 51
226.853867
  0
ARC
  8
0
 62
     7
  6
CONTINUOUS
 10
2.880436
 20
3.763063
 30
0.000000
 40
0.055470
 50
160.543210
 51
192.209659
  0
ARC
  8
0
 62
     7
  6
CONTINUOUS
 10
3.455845
 20
2.945913
 30
0.000000
 40
1.045128
 50
117.775403
 51
126.913360
  0
ARC
  8
0
 62
     7
  6
CONTINUOUS
 10
2.559924
 20
4.657864
 30
0.000000
 40
0.887094
 50
297.446862
 51
307.759325
  0
ARC
  8
0
 62
     7
  6
CONTINUOUS
 10
2.434549
 20
3.431110
 30
0.000000
 40
0.842953
 50
62.165898
 51
62.525715
  0
ARC
  8
0
 62
     7
  6
CONTINUOUS
 10
2.881581
 20
4.303706
 30
0.000000
 40
0.137598
 50
230.328540
 51
245.007323
  0
ARC
  8
0
 62
     7
  6
CONTINUOUS
 10
2.812041
 20
4.220874
 30
0.000000
 40
0.029455
 50
168.917169
 51
231.588152
  0
ARC
  8
0
 62
     7
  6
CONTINUOUS
 10
2.858469
 20
4.175862
 30
0.000000
 40
0.090791
 50
104.465112
 51
146.072796
  0
ARC
  8
0
 62
     7
  6
CONTINUOUS
 10
2.912984
 20
3.957282
 30
0.000000
 40
0.316065
 50
91.751217
 51
104.136578
  0
ARC
  8
0
 62
     7
  6
CONTINUOUS
 10
2.869444
 20
4.862595
 30
0.000000
 40
0.590369
 50
273.290057
 51
276.925972
  0
ARC
  8
0
 62
     7
  6
CONTINUOUS
 10
2.914338
 20
5.056930
 30
0.000000
 40
0.780839
 50
271.929944
 51
283.270286
  0
ARC
  8
0
 62
     7
  6
CONTINUOUS
 10
2.650037
 20
6.144427
 30
0.000000
 40
1.899982
 50
283.499887
 51
287.804586
  0
ARC
  8
0
 62
     7
  6
CONTINUOUS
 10
4.086643
 20
1.603707
 30
0.000000
 40
2.862608
 50
105.760736
 51
107.391804
  0
ARC
  8
0
 62
     7
  6
CONTINUOUS
 10
5.223680
 20
1.460945
 30
0.000000
 40
3.473120
 50
123.453270
 51
124.246699
  0
ARC
  8
0
 62
     7
  6
CONTINUOUS
 10
2.519563
 20
5.376714
 30
0.000000
 40
1.285893
 50
295.257025
 51
305.657315
  0
ARC
  8
0
 62
     7
  6
CONTINUOUS
 10
2.887652
 20
4.585654
 30
0.000000
 40
0.413425
 50
261.722770
 51
295.898503
  0
ARC
  8
0
 62
     7
  6
CONTINUOUS
 10
2.029272
 20
4.221736
 30
0.000000
 40
0.065394
 50
100.937859
 51
130.400067
  0
ARC
  8
0
 62
     7
  6
CONTINUOUS
 10
2.049951
 20
4.129309
 30
0.000000
 40
0.160090
 50
87.722736
 51
101.927623
  0
ARC
  8
0
 62
     7
  6
CONTINUOUS
 10
2.043246
 20
3.954523
 30
0.000000
 40
0.335004
 50
73.990428
 51
87.764684
  0
ARC
  8
0
 62
     7
  6
CONTINUOUS
 10
2.367884
 20
4.982098
 30
0.000000
 40
0.742804
 50
251.780444
 51
270.192037
  0
ARC
  8
0
 62
     7
  6
CONTINUOUS
 10
2.384508
 20
6.389105
 30
0.000000
 40
2.149853
 50
269.623287
 51
275.468480
  0
ARC
  8
0
 62
     7
  6
CONTINUOUS
 10
4.549561
 20
-2.463767
 30
0.000000
 40
6.993141
 50
106.278096
 51
106.632642
  0
ARC
  8
0
 62
     7
  6
CONTINUOUS
 10
2.094850
 20
5.598981
 30
0.000000
 40
1.435562
 50
276.982312
 51
288.395812
  0
ARC
  8
0
 62
     7
  6
CONTINUOUS
 10
2.215537
 20
4.558181
 30
0.000000
 40
0.387868
 50
236.354832
 51
277.976705
  0
ARC
  8
0
 62
     7
  6
CONTINUOUS
 10
1.801547
 20
4.025605
 30
0.000000
 40
0.289145
 50
46.484068
 51
47.143655
  0
ARC
  8
0
 62
     7
  6
CONTINUOUS
 10
2.041344
 20
4.288954
 30
0.000000
 40
0.067090
 50
212.199664
 51
229.992443
  0
ARC
  8
0
 62
     7
  6
CONTINUOUS
 10
1.996710
 20
4.260982
 30
0.000000
 40
0.014417
 50
132.939169
 51
212.654658
  0
ARC
  8
0
 62
     7
  6
CONTINUOUS
 10
1.772274
 20
4.106658
 30
0.000000
 40
0.360360
 50
57.783014
 51
62.478320
  0
ARC
  8
0
 62
     7
  6
CONTINUOUS
 10
2.034962
 20
4.625664
 30
0.000000
 40
0.221404
 50
229.000084
 51
244.254634
  0
ARC
  8
0
 62
     7
  6
CONTINUOUS
 10
1.930294
 20
4.504361
 30
0.000000
 40
0.061190
 50
174.447164
 51
228.449817
  0
ARC
  8
0
 62
     7
  6
CONTINUOUS
 10
1.897753
 20
4.500295
 30
0.000000
 40
0.030069
 50
139.762742
 51
160.601126
  0
ARC
  8
0
 62
     7
  6
CONTINUOUS
 10
1.887023
 20
4.508982
 30
0.000000
 40
0.016269
 50
108.601682
 51
138.706994
  0
ARC
  8
0
 62
     7
  6
CONTINUOUS
 10
1.889188
 20
4.500626
 30
0.000000
 40
0.024887
 50
86.351428
 51
107.187993
  0
ARC
  8
0
 62
     7
  6
CONTINUOUS
 10
1.886455
 20
4.447838
 30
0.000000
 40
0.077744
 50
78.547438
 51
86.817128
  0
ARC
  8
0
 62
     7
  6
CONTINUOUS
 10
3.614679
 20
10.068063
 30
0.000000
 40
5.802577
 50
252.831842
 51
255.961372
  0
ARC
  8
0
 62
     7
  6
CONTINUOUS
 10
2.645967
 20
6.147711
 30
0.000000
 40
1.764366
 50
255.597532
 51
265.397383
  0
ARC
  8
0
 62
     7
  6
CONTINUOUS
 10
2.300177
 20
5.146519
 30
0.000000
 40
0.784527
 50
267.007846
 51
285.087631
  0
ARC
  8
0
 62
     7
  6
CONTINUOUS
 10
2.268776
 20
5.342025
 30
0.000000
 40
0.979010
 50
251.885882
 51
269.441042
  0
ARC
  8
0
 62
     7
  6
CONTINUOUS
 10
2.532174
 20
2.562990
 30
0.000000
 40
1.543642
 50
94.806425
 51
100.084266
  0
ARC
  8
0
 62
     7
  6
CONTINUOUS
 10
2.267785
 20
5.688565
 30
0.000000
 40
1.593095
 50
274.862874
 51
279.801235
  0
ARC
  8
0
 62
     7
  6
CONTINUOUS
 10
2.454708
 20
4.609170
 30
0.000000
 40
0.497635
 50
279.749537
 51
295.237488
  0
LINE
  8
0
 62
     7
  6
CONTINUOUS
 10
2.666885
 20
4.159035
 30
0.000000
 11
2.657721
 21
4.150715
 31
0.000000
  0
ARC
  8
0
 62
     7
  6
CONTINUOUS
 10
2.277833
 20
4.552085
 30
0.000000
 40
0.552642
 50
307.940278
 51
313.424957
  0
ARC
  8
0
 62
     7
  6
CONTINUOUS
 10
2.538572
 20
4.220026
 30
0.000000
 40
0.130458
 50
288.810407
 51
307.295319
  0
ARC
  8
0
 62
     7
  6
CONTINUOUS
 10
2.965228
 20
3.204247
 30
0.000000
 40
0.971643
 50
113.316882
 51
118.966705
  0
ARC
  8
0
 62
     7
  6
CONTINUOUS
 10
2.144377
 20
4.653965
 30
0.000000
 40
0.694443
 50
287.169973
 51
300.292162
  0
ARC
  8
0
 62
     7
  6
CONTINUOUS
 10
2.309823
 20
4.130344
 30
0.000000
 40
0.145359
 50
260.002512
 51
285.791717
  0
ARC
  8
0
 62
     7
  6
CONTINUOUS
 10
2.302632
 20
4.072900
 30
0.000000
 40
0.087586
 50
217.030146
 51
258.111264
  0
ARC
  8
0
 62
     7
  6
CONTINUOUS
 10
2.293463
 20
4.026296
 30
0.000000
 40
0.061062
 50
149.710294
 51
185.774582
  0
ARC
  8
0
 62
     7
  6
CONTINUOUS
 10
2.311536
 20
4.020356
 30
0.000000
 40
0.079764
 50
128.494029
 51
152.575124
  0
ARC
  8
0
 62
     7
  6
CONTINUOUS
 10
3.861125
 20
2.848896
 30
0.000000
 40
1.604845
 50
132.199143
 51
134.458815
  0
ARC
  8
0
 62
     7
  6
CONTINUOUS
 10
2.259023
 20
4.446929
 30
0.000000
 40
0.658311
 50
301.954072
 51
316.569860
  0
ARC
  8
0
 62
     7
  6
CONTINUOUS
 10
2.502017
 20
4.063743
 30
0.000000
 40
0.204615
 50
253.679022
 51
301.008596
  0
ARC
  8
0
 62
     7
  6
CONTINUOUS
 10
2.424982
 20
3.842396
 30
0.000000
 40
0.031710
 50
51.972173
 51
62.736773
  0
ARC
  8
0
 62
     7
  6
CONTINUOUS
 10
2.391676
 20
3.777969
 30
0.000000
 40
0.104237
 50
62.685471
 51
66.088591
  0
ARC
  8
0
 62
     7
  6
CONTINUOUS
 10
2.449848
 20
3.915629
 30
0.000000
 40
0.045262
 50
222.629619
 51
249.403395
  0
ARC
  8
0
 62
     7
  6
CONTINUOUS
 10
2.447101
 20
3.910142
 30
0.000000
 40
0.039585
 50
199.229507
 51
219.477927
  0
ARC
  8
0
 62
     7
  6
CONTINUOUS
 10
2.484390
 20
3.922958
 30
0.000000
 40
0.079015
 50
184.661694
 51
199.098979
  0
ARC
  8
0
 62
     7
  6
CONTINUOUS
 10
2.432263
 20
3.903207
 30
0.000000
 40
0.029776
 50
111.124468
 51
153.407119
  0
ARC
  8
0
 62
     7
  6
CONTINUOUS
 10
2.520068
 20
3.731559
 30
0.000000
 40
0.222439
 50
106.449554
 51
116.294243
  0
ARC
  8
0
 62
     7
  6
CONTINUOUS
 10
2.939374
 20
2.303486
 30
0.000000
 40
1.710797
 50
102.570973
 51
106.374376
  0
ARC
  8
0
 62
     7
  6
CONTINUOUS
 10
1.911466
 20
6.823086
 30
0.000000
 40
2.924244
 50
282.954624
 51
285.281898
  0
ARC
  8
0
 62
     7
  6
CONTINUOUS
 10
2.512617
 20
4.644825
 30
0.000000
 40
0.664586
 50
284.784094
 51
294.019526
  0
ARC
  8
0
 62
     7
  6
CONTINUOUS
 10
2.655256
 20
5.540472
 30
0.000000
 40
1.224264
 50
284.352673
 51
297.701911
  0
ARC
  8
0
 62
     7
  6
CONTINUOUS
 10
2.735013
 20
5.168736
 30
0.000000
 40
0.844491
 50
267.157553
 51
285.362373
  0
ARC
  8
0
 62
     7
  6
CONTINUOUS
 10
2.479770
 20
3.732553
 30
0.000000
 40
0.629964
 50
70.202639
 51
72.049357
  0
ARC
  8
0
 62
     7
  6
CONTINUOUS
 10
2.748541
 20
4.586253
 30
0.000000
 40
0.265118
 50
242.245670
 51
253.653226
  0
ARC
  8
0
 62
     7
  6
CONTINUOUS
 10
2.663516
 20
4.424055
 30
0.000000
 40
0.081987
 50
205.286162
 51
242.042912
  0
ARC
  8
0
 62
     7
  6
CONTINUOUS
 10
2.629202
 20
4.394670
 30
0.000000
 40
0.040214
 50
139.474284
 51
188.054490
  0
ARC
  8
0
 62
     7
  6
CONTINUOUS
 10
2.638014
 20
4.382638
 30
0.000000
 40
0.054837
 50
102.176264
 51
135.899356
  0
ARC
  8
0
 62
     7
  6
CONTINUOUS
 10
2.655546
 20
4.306793
 30
0.000000
 40
0.132678
 50
73.542102
 51
102.668602
  0
ARC
  8
0
 62
     7
  6
CONTINUOUS
 10
2.855934
 20
5.042635
 30
0.000000
 40
0.629998
 50
255.024164
 51
277.275956
  0
ARC
  8
0
 62
     7
  6
CONTINUOUS
 10
2.701643
 20
7.043001
 30
0.000000
 40
2.635706
 50
275.095195
 51
280.207880
  0
ARC
  8
0
 62
     7
  6
CONTINUOUS
 10
3.501887
 20
2.538561
 30
0.000000
 40
1.939283
 50
98.690134
 51
99.891730
  0
ARC
  8
0
 62
     7
  6
CONTINUOUS
 10
3.233357
 20
4.297249
 30
0.000000
 40
0.160213
 50
94.761260
 51
98.788051
  0
ARC
  8
0
 62
     7
  6
CONTINUOUS
 10
3.221682
 20
4.450508
 30
0.000000
 40
0.006604
 50
65.877187
 51
104.233662
  0
ARC
  8
0
 62
     7
  6
CONTINUOUS
 10
2.549329
 20
3.920856
 30
0.000000
 40
0.706212
 50
81.579262
 51
92.227005
  0
ARC
  8
0
 62
     7
  6
CONTINUOUS
 10
2.366906
 20
2.718961
 30
0.000000
 40
1.921869
 50
77.664059
 51
81.446612
  0
ARC
  8
0
 62
     7
  6
CONTINUOUS
 10
3.148684
 20
6.272243
 30
0.000000
 40
1.716402
 50
257.510741
 51
262.209712
  0
ARC
  8
0
 62
     7
  6
CONTINUOUS
 10
3.000502
 20
5.206313
 30
0.000000
 40
0.640228
 50
262.418217
 51
275.501572
  0
ARC
  8
0
 62
     7
  6
CONTINUOUS
 10
3.187944
 20
3.921450
 30
0.000000
 40
0.659740
 50
90.526469
 51
101.015725
  0
ARC
  8
0
 62
     7
  6
CONTINUOUS
 10
3.181602
 20
4.579968
 30
0.000000
 40
0.001226
 50
76.771880
 51
254.180988
  0
ARC
  8
0
 62
     7
  6
CONTINUOUS
 10
3.155125
 20
4.629952
 30
0.000000
 40
0.057456
 50
286.631872
 51
297.064639
  0
ARC
  8
0
 62
     7
  6
CONTINUOUS
 10
2.995920
 20
5.138057
 30
0.000000
 40
0.589914
 50
283.262868
 51
287.322880
  0
ARC
  8
0
 62
     7
  6
CONTINUOUS
 10
2.676464
 20
6.376033
 30
0.000000
 40
1.868354
 50
277.586667
 51
284.088452
  0
ARC
  8
0
 62
     7
  6
CONTINUOUS
 10
3.048613
 20
2.960473
 30
0.000000
 40
1.568588
 50
94.588251
 51
97.762235
  0
ARC
  8
0
 62
     7
  6
CONTINUOUS
 10
2.705316
 20
5.328087
 30
0.000000
 40
0.823950
 50
266.978532
 51
279.179245
  0
ARC
  8
0
 62
     7
  6
CONTINUOUS
 10
2.664429
 20
4.711322
 30
0.000000
 40
0.206056
 50
219.041149
 51
269.292812
  0
ARC
  8
0
 62
     7
  6
CONTINUOUS
 10
2.529105
 20
4.599230
 30
0.000000
 40
0.030401
 50
160.142424
 51
215.602251
  0
ARC
  8
0
 62
     7
  6
CONTINUOUS
 10
2.525891
 20
4.599548
 30
0.000000
 40
0.027282
 50
98.440265
 51
158.476146
  0
ARC
  8
0
 62
     7
  6
CONTINUOUS
 10
1.863486
 20
4.403937
 30
0.000000
 40
0.340146
 50
67.669546
 51
89.005149
  0
ARC
  8
0
 62
     7
  6
CONTINUOUS
 10
1.576902
 20
3.706214
 30
0.000000
 40
1.094432
 50
60.892608
 51
67.669869
  0
ARC
  8
0
 62
     7
  6
CONTINUOUS
 10
2.545601
 20
5.425743
 30
0.000000
 40
0.879214
 50
240.247448
 51
250.829785
  0
ARC
  8
0
 62
     7
  6
CONTINUOUS
 10
2.645842
 20
6.031774
 30
0.000000
 40
1.488216
 50
254.849491
 51
262.802618
  0
ARC
  8
0
 62
     7
  6
CONTINUOUS
 10
2.310684
 20
5.193603
 30
0.000000
 40
0.655411
 50
261.297226
 51
283.113722
  0
ARC
  8
0
 62
     7
  6
CONTINUOUS
 10
2.298093
 20
5.303054
 30
0.000000
 40
0.762249
 50
242.564689
 51
263.478078
  0
ARC
  8
0
 62
     7
  6
CONTINUOUS
 10
2.036996
 20
4.808198
 30
0.000000
 40
0.202783
 50
217.828928
 51
243.618360
  0
ARC
  8
0
 62
     7
  6
CONTINUOUS
 10
1.944035
 20
4.740949
 30
0.000000
 40
0.088200
 50
194.541615
 51
220.360917
  0
ARC
  8
0
 62
     7
  6
CONTINUOUS
 10
1.879753
 20
4.724728
 30
0.000000
 40
0.021909
 50
118.224877
 51
195.690769
  0
ARC
  8
0
 62
     7
  6
CONTINUOUS
 10
1.581319
 20
5.456971
 30
0.000000
 40
0.640845
 50
239.196517
 51
259.525661
  0
ARC
  8
0
 62
     7
  6
CONTINUOUS
 10
1.855316
 20
6.903552
 30
0.000000
 40
2.113142
 50
259.350766
 51
265.648736
  0
ARC
  8
0
 62
     7
  6
CONTINUOUS
 10
1.128338
 20
-1.329787
 30
0.000000
 40
6.152439
 50
84.007506
 51
84.715451
  0
ARC
  8
0
 62
     7
  6
CONTINUOUS
 10
1.762134
 20
4.756446
 30
0.000000
 40
0.033678
 50
26.061651
 51
75.369005
  0
ARC
  8
0
 62
     7
  6
CONTINUOUS
 10
1.768909
 20
4.763870
 30
0.000000
 40
0.024610
 50
325.784485
 51
377.432265
  0
ARC
  8
0
 62
     7
  6
CONTINUOUS
 10
1.734382
 20
4.785292
 30
0.000000
 40
0.065229
 50
282.177862
 51
327.277200
  0
ARC
  8
0
 62
     7
  6
CONTINUOUS
 10
1.691925
 20
5.099535
 30
0.000000
 40
0.382161
 50
254.986836
 51
278.459174
  0
ARC
  8
0
 62
     7
  6
CONTINUOUS
 10
1.882869
 20
5.787393
 30
0.000000
 40
1.096020
 50
246.633836
 51
254.660441
  0
ARC
  8
0
 62
     7
  6
CONTINUOUS
 10
0.366049
 20
2.131707
 30
0.000000
 40
2.862015
 50
67.783863
 51
68.964145
  0
ARC
  8
0
 62
     7
  6
CONTINUOUS
 10
1.551416
 20
5.245380
 30
0.000000
 40
0.469775
 50
236.269032
 51
250.341269
  0
ARC
  8
0
 62
     7
  6
CONTINUOUS
 10
1.362694
 20
4.961098
 30
0.000000
 40
0.128558
 50
218.387427
 51
235.863979
  0
ARC
  8
0
 62
     7
  6
CONTINUOUS
 10
1.290360
 20
4.905307
 30
0.000000
 40
0.037234
 50
178.115574
 51
220.214821
  0
ARC
  8
0
 62
     7
  6
CONTINUOUS
 10
1.804825
 20
5.794200
 30
0.000000
 40
1.225153
 50
249.680947
 51
258.085677
  0
ARC
  8
0
 62
     7
  6
CONTINUOUS
 10
1.656270
 20
5.103622
 30
0.000000
 40
0.518790
 50
258.393298
 51
279.219863
  0
ARC
  8
0
 62
     7
  6
CONTINUOUS
 10
1.827173
 20
4.855992
 30
0.000000
 40
0.278646
 50
251.637685
 51
255.688304
  0
ARC
  8
0
 62
     7
  6
CONTINUOUS
 10
1.723534
 20
4.430036
 30
0.000000
 40
0.159784
 50
62.963686
 51
77.435669
  0
ARC
  8
0
 62
     7
  6
CONTINUOUS
 10
1.773346
 20
4.529110
 30
0.000000
 40
0.048899
 50
14.716162
 51
62.183813
  0
ARC
  8
0
 62
     7
  6
CONTINUOUS
 10
1.780193
 20
4.548346
 30
0.000000
 40
0.041018
 50
285.030040
 51
350.438060
  0
ARC
  8
0
 62
     7
  6
CONTINUOUS
 10
1.755837
 20
4.670001
 30
0.000000
 40
0.165023
 50
264.535913
 51
282.242579
  0
ARC
  8
0
 62
     7
  6
CONTINUOUS
 10
1.722874
 20
4.220902
 30
0.000000
 40
0.285348
 50
86.534269
 51
94.720415
  0
ARC
  8
0
 62
     7
  6
CONTINUOUS
 10
1.680044
 20
4.921570
 30
0.000000
 40
0.416737
 50
242.451347
 51
272.660944
  0
ARC
  8
0
 62
     7
  6
CONTINUOUS
 10
1.649236
 20
4.896149
 30
0.000000
 40
0.380268
 50
230.796449
 51
244.796079
  0
ARC
  8
0
 62
     7
  6
CONTINUOUS
 10
1.444246
 20
4.657107
 30
0.000000
 40
0.065921
 50
190.331811
 51
237.552698
  0
ARC
  8
0
 62
     7
  6
CONTINUOUS
 10
1.429553
 20
4.344869
 30
0.000000
 40
0.048981
 50
78.809144
 51
101.971647
  0
ARC
  8
0
 62
     7
  6
CONTINUOUS
 10
1.372936
 20
3.958684
 30
0.000000
 40
0.439240
 50
77.558036
 51
81.341735
  0
ARC
  8
0
 62
     7
  6
CONTINUOUS
 10
1.601507
 20
5.007208
 30
0.000000
 40
0.633911
 50
257.802261
 51
260.790639
  0
ARC
  8
0
 62
     7
  6
CONTINUOUS
 10
1.529492
 20
4.557076
 30
0.000000
 40
0.178058
 50
260.483953
 51
270.772858
  0
ARC
  8
0
 62
     7
  6
CONTINUOUS
 10
1.687225
 20
5.242122
 30
0.000000
 40
0.876954
 50
259.797586
 51
269.673158
  0
ARC
  8
0
 62
     7
  6
CONTINUOUS
 10
1.661377
 20
3.224122
 30
0.000000
 40
1.141251
 50
83.455684
 51
88.953420
  0
ARC
  8
0
 62
     7
  6
CONTINUOUS
 10
1.754290
 20
4.026712
 30
0.000000
 40
0.333302
 50
65.616515
 51
83.599271
  0
ARC
  8
0
 62
     7
  6
CONTINUOUS
 10
1.882505
 20
4.313919
 30
0.000000
 40
0.018866
 50
7.551393
 51
60.163259
  0
ARC
  8
0
 62
     7
  6
CONTINUOUS
 10
1.880704
 20
4.316162
 30
0.000000
 40
0.020505
 50
318.704214
 51
360.661439
  0
ARC
  8
0
 62
     7
  6
CONTINUOUS
 10
1.854736
 20
4.337115
 30
0.000000
 40
0.053861
 50
285.788660
 51
320.187589
  0
ARC
  8
0
 62
     7
  6
CONTINUOUS
 10
1.800397
 20
4.529148
 30
0.000000
 40
0.253434
 50
260.587466
 51
285.797422
  0
ARC
  8
0
 62
     7
  6
CONTINUOUS
 10
1.883627
 20
5.041420
 30
0.000000
 40
0.772422
 50
252.621933
 51
260.711257
  0
LINE
  8
0
 62
     7
  6
CONTINUOUS
 10
1.652923
 20
4.304255
 30
0.000000
 11
1.640642
 21
4.307784
 31
0.000000
  0
ARC
  8
0
 62
     7
  6
CONTINUOUS
 10
4.465458
 20
11.825808
 30
0.000000
 40
8.031206
 50
248.561613
 51
249.406836
  0
ARC
  8
0
 62
     7
  6
CONTINUOUS
 10
-1.403897
 20
-3.121260
 30
0.000000
 40
8.026943
 50
68.560899
 51
69.407040
  0
ARC
  8
0
 62
     7
  6
CONTINUOUS
 10
1.664444
 20
4.416706
 30
0.000000
 40
0.321054
 50
265.748415
 51
282.098048
  0
ARC
  8
0
 62
     7
  6
CONTINUOUS
 10
1.531470
 20
5.030893
 30
0.000000
 40
0.949471
 50
282.176292
 51
287.657765
  0
ARC
  8
0
 62
     7
  6
CONTINUOUS
 10
2.038860
 20
3.465993
 30
0.000000
 40
0.695662
 50
98.771452
 51
108.382796
  0
ARC
  8
0
 62
     7
  6
CONTINUOUS
 10
1.967184
 20
3.914934
 30
0.000000
 40
0.241053
 50
70.060582
 51
98.206297
  0
ARC
  8
0
 62
     7
  6
CONTINUOUS
 10
2.011078
 20
4.131652
 30
0.000000
 40
0.039566
 50
306.041463
 51
374.467598
  0
ARC
  8
0
 62
     7
  6
CONTINUOUS
 10
1.939713
 20
4.233862
 30
0.000000
 40
0.164219
 50
287.894714
 51
305.192848
  0
ARC
  8
0
 62
     7
  6
CONTINUOUS
 10
2.088754
 20
3.808393
 30
0.000000
 40
0.286678
 50
110.113331
 51
114.605890
  0
ARC
  8
0
 62
     7
  6
CONTINUOUS
 10
1.864127
 20
4.491771
 30
0.000000
 40
0.435641
 50
262.077240
 51
283.982534
  0
ARC
  8
0
 62
     7
  6
CONTINUOUS
 10
1.921525
 20
4.976441
 30
0.000000
 40
0.923650
 50
252.295900
 51
262.694818
  0
ARC
  8
0
 62
     7
  6
CONTINUOUS
 10
1.911595
 20
3.761256
 30
0.000000
 40
0.094963
 50
74.551023
 51
84.259597
  0
ARC
  8
0
 62
     7
  6
CONTINUOUS
 10
1.885194
 20
3.510661
 30
0.000000
 40
0.346944
 50
84.060851
 51
86.898223
  0
ARC
  8
0
 62
     7
  6
CONTINUOUS
 10
1.907372
 20
4.010857
 30
0.000000
 40
0.153797
 50
255.921291
 51
268.731417
  0
ARC
  8
0
 62
     7
  6
CONTINUOUS
 10
1.878003
 20
3.895255
 30
0.000000
 40
0.034525
 50
205.693124
 51
256.528951
  0
ARC
  8
0
 62
     7
  6
CONTINUOUS
 10
1.817430
 20
4.366381
 30
0.000000
 40
0.486986
 50
273.468343
 51
287.654965
  0
ARC
  8
0
 62
     7
  6
CONTINUOUS
 10
1.620518
 20
4.954183
 30
0.000000
 40
1.106863
 50
288.139837
 51
293.818290
  0
ARC
  8
0
 62
     7
  6
CONTINUOUS
 10
2.476513
 20
3.023524
 30
0.000000
 40
1.005051
 50
107.120760
 51
114.013197
  0
ARC
  8
0
 62
     7
  6
CONTINUOUS
 10
2.189840
 20
3.930475
 30
0.000000
 40
0.054348
 50
66.426280
 51
99.746952
  0
ARC
  8
0
 62
     7
  6
CONTINUOUS
 10
2.201458
 20
3.952839
 30
0.000000
 40
0.029254
 50
17.300516
 51
69.766541
  0
ARC
  8
0
 62
     7
  6
CONTINUOUS
 10
2.151431
 20
3.980050
 30
0.000000
 40
0.080125
 50
301.862126
 51
346.641983
  0
ARC
  8
0
 62
     7
  6
CONTINUOUS
 10
2.043161
 20
4.133473
 30
0.000000
 40
0.267808
 50
286.482734
 51
304.209221
  0
ARC
  8
0
 62
     7
  6
CONTINUOUS
 10
1.958967
 20
4.391689
 30
0.000000
 40
0.539352
 50
267.654207
 51
287.276448
  0
LINE
  8
0
 62
     7
  6
CONTINUOUS
 10
2.121536
 20
3.713811
 30
0.000000
 11
2.052154
 21
3.721541
 31
0.000000
  0
ARC
  8
0
 62
     7
  6
CONTINUOUS
 10
1.843321
 20
4.336618
 30
0.000000
 40
0.649562
 50
288.753586
 51
291.466071
  0
ARC
  8
0
 62
     7
  6
CONTINUOUS
 10
1.986871
 20
3.987991
 30
0.000000
 40
0.272652
 50
290.202502
 51
300.900098
  0
ARC
  8
0
 62
     7
  6
CONTINUOUS
 10
0.810049
 20
6.000843
 30
0.000000
 40
2.604266
 50
300.374338
 51
301.759504
  0
ARC
  8
0
 62
     7
  6
CONTINUOUS
 10
2.768485
 20
2.876230
 30
0.000000
 40
1.083510
 50
115.733153
 51
122.845400
  0
ARC
  8
0
 62
     7
  6
CONTINUOUS
 10
2.378793
 20
3.681555
 30
0.000000
 40
0.188861
 50
99.705175
 51
115.311982
  0
ARC
  8
0
 62
     7
  6
CONTINUOUS
 10
2.357141
 20
3.818312
 30
0.000000
 40
0.050441
 50
58.978841
 51
101.650492
  0
ARC
  8
0
 62
     7
  6
CONTINUOUS
 10
2.354538
 20
3.837584
 30
0.000000
 40
0.037305
 50
350.764875
 51
399.949285
  0
ARC
  8
0
 62
     7
  6
CONTINUOUS
 10
2.337000
 20
3.843909
 30
0.000000
 40
0.055736
 50
315.467066
 51
347.238281
  0
ARC
  8
0
 62
     7
  6
CONTINUOUS
 10
2.244207
 20
3.936629
 30
0.000000
 40
0.186912
 50
295.402732
 51
315.155100
  0
ARC
  8
0
 62
     7
  6
CONTINUOUS
 10
3.256399
 20
1.117229
 30
0.000000
 40
2.809646
 50
109.373098
 51
110.047582
  0
ARC
  8
0
 62
     7
  6
CONTINUOUS
 10
1.868711
 20
4.883808
 30
0.000000
 40
1.204473
 50
286.330742
 51
290.638419
  0
ARC
  8
0
 62
     7
  6
CONTINUOUS
 10
2.109819
 20
4.053151
 30
0.000000
 40
0.339542
 50
271.977616
 51
286.699538
  0
ARC
  8
0
 62
     7
  6
CONTINUOUS
 10
2.122218
 20
4.086212
 30
0.000000
 40
0.478022
 50
289.831363
 51
299.368581
  0
ARC
  8
0
 62
     7
  6
CONTINUOUS
 10
1.630280
 20
4.961470
 30
0.000000
 40
1.482053
 50
299.347932
 51
302.456381
  0
ARC
  8
0
 62
     7
  6
CONTINUOUS
 10
3.220935
 20
2.460413
 30
0.000000
 40
1.481976
 50
119.347085
 51
122.455763
  0
ARC
  8
0
 62
     7
  6
CONTINUOUS
 10
2.729057
 20
3.335613
 30
0.000000
 40
0.478024
 50
109.831304
 51
119.368751
  0
ARC
  8
0
 62
     7
  6
CONTINUOUS
 10
2.580083
 20
3.756445
 30
0.000000
 40
0.031719
 50
95.257113
 51
114.584927
  0
ARC
  8
0
 62
     7
  6
CONTINUOUS
 10
2.578314
 20
3.776267
 30
0.000000
 40
0.011818
 50
60.938832
 51
95.523259
  0
ARC
  8
0
 62
     7
  6
CONTINUOUS
 10
2.575519
 20
3.775080
 30
0.000000
 40
0.014335
 50
0.209316
 51
53.459239
  0
ARC
  8
0
 62
     7
  6
CONTINUOUS
 10
2.503013
 20
3.772189
 30
0.000000
 40
0.086891
 50
341.965635
 51
361.941375
  0
ARC
  8
0
 62
     7
  6
CONTINUOUS
 10
2.428777
 20
3.852133
 30
0.000000
 40
0.189790
 50
311.566014
 51
325.739166
  0
ARC
  8
0
 62
     7
  6
CONTINUOUS
 10
2.307588
 20
3.988439
 30
0.000000
 40
0.372180
 50
304.451966
 51
311.602221
  0
ARC
  8
0
 62
     7
  6
CONTINUOUS
 10
2.343414
 20
4.030032
 30
0.000000
 40
0.389840
 50
278.788650
 51
296.627673
  0
ARC
  8
0
 62
     7
  6
CONTINUOUS
 10
2.300620
 20
4.261168
 30
0.000000
 40
0.624839
 50
268.511477
 51
279.428372
  0
LINE
  8
0
 62
     7
  6
CONTINUOUS
 10
2.698135
 20
3.619039
 30
0.000000
 11
2.688624
 21
3.614858
 31
0.000000
  0
ARC
  8
0
 62
     7
  6
CONTINUOUS
 10
2.477068
 20
4.067132
 30
0.000000
 40
0.499308
 50
287.280792
 51
295.068415
  0
ARC
  8
0
 62
     7
  6
CONTINUOUS
 10
2.570017
 20
3.772854
 30
0.000000
 40
0.190706
 50
265.298553
 51
286.879056
  0
ARC
  8
0
 62
     7
  6
CONTINUOUS
 10
2.403860
 20
3.807957
 30
0.000000
 40
0.270848
 50
303.763059
 51
313.396823
  0
ARC
  8
0
 62
     7
  6
CONTINUOUS
 10
1.807973
 20
4.447893
 30
0.000000
 40
1.145256
 50
313.062260
 51
315.627629
  0
ARC
  8
0
 62
     7
  6
CONTINUOUS
 10
3.039966
 20
3.262151
 30
0.000000
 40
0.564770
 50
126.621760
 51
137.045607
  0
ARC
  8
0
 62
     7
  6
CONTINUOUS
 10
2.785238
 20
3.599792
 30
0.000000
 40
0.141862
 50
107.456443
 51
125.397971
  0
ARC
  8
0
 62
     7
  6
CONTINUOUS
 10
2.765530
 20
3.661038
 30
0.000000
 40
0.077525
 50
76.874505
 51
107.140632
  0
ARC
  8
0
 62
     7
  6
CONTINUOUS
 10
2.770280
 20
3.720059
 30
0.000000
 40
0.020900
 50
334.767754
 51
412.042868
  0
ARC
  8
0
 62
     7
  6
CONTINUOUS
 10
2.693183
 20
3.750494
 30
0.000000
 40
0.103753
 50
315.754797
 51
337.715047
  0
ARC
  8
0
 62
     7
  6
CONTINUOUS
 10
2.467394
 20
3.960326
 30
0.000000
 40
0.411969
 50
304.062289
 51
316.759549
  0
ARC
  8
0
 62
     7
  6
CONTINUOUS
 10
2.669771
 20
3.774252
 30
0.000000
 40
0.014618
 50
42.041338
 51
61.744569
  0
ARC
  8
0
 62
     7
  6
CONTINUOUS
 10
2.626039
 20
3.698535
 30
0.000000
 40
0.102051
 50
60.241795
 51
64.098124
  0
ARC
  8
0
 62
     7
  6
CONTINUOUS
 10
2.710398
 20
3.875075
 30
0.000000
 40
0.093613
 50
234.686897
 51
244.853432
  0
ARC
  8
0
 62
     7
  6
CONTINUOUS
 10
2.677732
 20
3.828854
 30
0.000000
 40
0.037014
 50
205.723390
 51
234.591428
  0
ARC
  8
0
 62
     7
  6
CONTINUOUS
 10
2.682688
 20
3.830309
 30
0.000000
 40
0.042119
 50
147.161190
 51
204.579608
  0
ARC
  8
0
 62
     7
  6
CONTINUOUS
 10
2.763744
 20
3.778198
 30
0.000000
 40
0.138481
 50
124.590874
 51
147.231956
  0
ARC
  8
0
 62
     7
  6
CONTINUOUS
 10
3.198067
 20
3.141252
 30
0.000000
 40
0.909412
 50
115.030342
 51
124.335331
  0
ARC
  8
0
 62
     7
  6
CONTINUOUS
 10
2.437585
 20
4.760333
 30
0.000000
 40
0.879379
 50
295.292915
 51
302.532006
  0
ARC
  8
0
 62
     7
  6
CONTINUOUS
 10
2.983083
 20
3.918713
 30
0.000000
 40
0.123752
 50
105.801518
 51
125.916448
  0
ARC
  8
0
 62
     7
  6
CONTINUOUS
 10
4.097866
 20
3.202527
 30
0.000000
 40
1.420095
 50
143.972569
 51
147.352087
  0
ARC
  8
0
 62
     7
  6
CONTINUOUS
 10
2.192862
 20
4.399164
 30
0.000000
 40
0.829721
 50
317.399994
 51
328.742394
  0
ARC
  8
0
 62
     7
  6
CONTINUOUS
 10
2.652462
 20
3.982944
 30
0.000000
 40
0.209734
 50
296.503505
 51
316.112323
  0
ARC
  8
0
 62
     7
  6
CONTINUOUS
 10
2.694096
 20
3.901977
 30
0.000000
 40
0.118702
 50
263.484743
 51
295.959525
  0
ARC
  8
0
 62
     7
  6
CONTINUOUS
 10
3.085986
 20
3.129732
 30
0.000000
 40
0.476810
 50
112.875671
 51
115.974726
  0
ARC
  8
0
 62
     7
  6
CONTINUOUS
 10
2.495287
 20
4.351133
 30
0.000000
 40
0.879933
 50
292.898242
 51
295.720031
  0
ARC
  8
0
 62
     7
  6
CONTINUOUS
 10
2.759454
 20
3.726985
 30
0.000000
 40
0.202184
 50
287.403738
 51
292.757398
  0
ARC
  8
0
 62
     7
  6
CONTINUOUS
 10
2.805842
 20
3.574792
 30
0.000000
 40
0.043102
 50
271.775031
 51
289.074987
  0
ARC
  8
0
 62
     7
  6
CONTINUOUS
 10
2.806866
 20
3.533550
 30
0.000000
 40
0.001866
 50
165.453556
 51
279.603300
  0
ARC
  8
0
 62
     7
  6
CONTINUOUS
 10
2.821206
 20
3.530241
 30
0.000000
 40
0.016581
 50
144.627338
 51
166.833722
  0
ARC
  8
0
 62
     7
  6
CONTINUOUS
 10
2.989198
 20
3.417287
 30
0.000000
 40
0.219012
 50
140.125502
 51
145.973673
  0
ARC
  8
0
 62
     7
  6
CONTINUOUS
 10
2.664970
 20
3.689551
 30
0.000000
 40
0.204371
 50
319.821713
 51
327.265941
  0
ARC
  8
0
 62
     7
  6
CONTINUOUS
 10
2.636943
 20
3.797777
 30
0.000000
 40
0.296349
 50
312.429528
 51
322.406437
  0
ARC
  8
0
 62
     7
  6
CONTINUOUS
 10
3.061832
 20
3.475166
 30
0.000000
 40
0.237153
 50
128.899401
 51
143.272083
  0
ARC
  8
0
 62
     7
  6
CONTINUOUS
 10
2.946643
 20
3.617888
 30
0.000000
 40
0.053746
 50
72.130784
 51
128.874800
  0
ARC
  8
0
 62
     7
  6
CONTINUOUS
 10
2.944830
 20
3.653228
 30
0.000000
 40
0.024189
 50
343.757075
 51
400.823457
  0
ARC
  8
0
 62
     7
  6
CONTINUOUS
 10
2.887442
 20
3.666325
 30
0.000000
 40
0.083023
 50
324.018717
 51
346.158123
  0
ARC
  8
0
 62
     7
  6
CONTINUOUS
 10
2.828703
 20
3.703405
 30
0.000000
 40
0.152406
 50
298.162217
 51
325.712456
  0
ARC
  8
0
 62
     7
  6
CONTINUOUS
 10
2.912432
 20
3.798267
 30
0.000000
 40
0.342133
 50
306.500381
 51
329.387228
  0
ARC
  8
0
 62
     7
  6
CONTINUOUS
 10
2.929098
 20
3.763789
 30
0.000000
 40
0.304587
 50
296.245972
 51
307.838243
  0
ARC
  8
0
 62
     7
  6
CONTINUOUS
 10
3.017743
 20
3.575791
 30
0.000000
 40
0.096838
 50
272.449581
 51
298.394917
  0
ARC
  8
0
 62
     7
  6
CONTINUOUS
 10
2.940693
 20
3.551707
 30
0.000000
 40
0.108959
 50
318.170837
 51
328.519666
  0
ARC
  8
0
 62
     7
  6
CONTINUOUS
 10
2.187771
 20
4.035381
 30
0.000000
 40
1.003828
 50
327.417657
 51
329.114269
  0
ARC
  8
0
 62
     7
  6
CONTINUOUS
 10
3.777277
 20
3.095765
 30
0.000000
 40
0.842659
 50
142.689530
 51
149.764685
  0
ARC
  8
0
 62
     7
  6
CONTINUOUS
 10
3.307453
 20
3.460282
 30
0.000000
 40
0.248086
 50
118.748672
 51
143.878246
  0
ARC
  8
0
 62
     7
  6
CONTINUOUS
 10
3.194297
 20
3.654152
 30
0.000000
 40
0.024427
 50
53.450190
 51
104.619150
  0
ARC
  8
0
 62
     7
  6
CONTINUOUS
 10
3.192882
 20
3.657225
 30
0.000000
 40
0.022993
 50
1.732353
 51
46.037626
  0
ARC
  8
0
 62
     7
  6
CONTINUOUS
 10
3.161641
 20
3.654167
 30
0.000000
 40
0.054353
 50
326.340169
 51
363.959369
  0
ARC
  8
0
 62
     7
  6
CONTINUOUS
 10
3.062169
 20
3.733408
 30
0.000000
 40
0.047864
 50
234.432595
 51
281.708596
  0
ARC
  8
0
 62
     7
  6
CONTINUOUS
 10
3.046714
 20
3.713126
 30
0.000000
 40
0.022390
 50
194.768496
 51
236.415643
  0
ARC
  8
0
 62
     7
  6
CONTINUOUS
 10
3.041857
 20
3.710027
 30
0.000000
 40
0.016995
 50
131.335791
 51
188.830347
  0
ARC
  8
0
 62
     7
  6
CONTINUOUS
 10
3.274974
 20
3.560218
 30
0.000000
 40
0.293482
 50
129.391483
 51
146.362573
  0
ARC
  8
0
 62
     7
  6
CONTINUOUS
 10
3.655229
 20
3.098201
 30
0.000000
 40
0.891858
 50
123.891834
 51
129.434463
  0
ARC
  8
0
 62
     7
  6
CONTINUOUS
 10
2.584966
 20
4.682247
 30
0.000000
 40
1.019865
 50
304.178940
 51
307.766279
  0
ARC
  8
0
 62
     7
  6
CONTINUOUS
 10
3.045250
 20
4.089992
 30
0.000000
 40
0.269784
 50
307.524161
 51
319.988358
  0
ARC
  8
0
 62
     7
  6
CONTINUOUS
 10
3.753468
 20
3.654204
 30
0.000000
 40
0.566046
 50
152.390213
 51
160.330522
  0
ARC
  8
0
 62
     7
  6
CONTINUOUS
 10
2.819167
 20
3.977876
 30
0.000000
 40
0.422796
 50
325.996680
 51
341.644321
  0
ARC
  8
0
 62
     7
  6
CONTINUOUS
 10
3.062399
 20
3.817976
 30
0.000000
 40
0.131778
 50
274.126675
 51
324.489025
  0
ARC
  8
0
 62
     7
  6
CONTINUOUS
 10
0.337823
 20
8.467501
 30
0.000000
 40
5.291130
 50
303.938579
 51
307.509193
  0
ARC
  8
0
 62
     7
  6
CONTINUOUS
 10
3.554700
 20
4.264679
 30
0.000000
 40
0.007399
 50
345.376909
 51
409.223687
  0
ARC
  8
0
 62
     7
  6
CONTINUOUS
 10
3.517359
 20
4.269373
 30
0.000000
 40
0.044982
 50
335.499709
 51
351.611958
  0
ARC
  8
0
 62
     7
  6
CONTINUOUS
 10
3.442023
 20
4.301508
 30
0.000000
 40
0.126877
 50
323.778744
 51
336.402889
  0
ARC
  8
0
 62
     7
  6
CONTINUOUS
 10
4.156012
 20
3.703943
 30
0.000000
 40
0.804486
 50
139.488632
 51
146.286501
  0
ARC
  8
0
 62
     7
  6
CONTINUOUS
 10
2.990376
 20
4.465588
 30
0.000000
 40
0.588014
 50
313.112545
 51
327.594343
  0
ARC
  8
0
 62
     7
  6
CONTINUOUS
 10
3.285469
 20
4.151931
 30
0.000000
 40
0.157367
 50
260.918792
 51
312.727238
  0
ARC
  8
0
 62
     7
  6
CONTINUOUS
 10
3.281309
 20
4.031378
 30
0.000000
 40
0.040516
 50
200.130565
 51
239.312095
  0
ARC
  8
0
 62
     7
  6
CONTINUOUS
 10
3.267486
 20
4.023543
 30
0.000000
 40
0.024977
 50
147.231931
 51
194.156950
  0
ARC
  8
0
 62
     7
  6
CONTINUOUS
 10
3.309150
 20
3.997879
 30
0.000000
 40
0.073907
 50
129.550565
 51
147.984245
  0
ARC
  8
0
 62
     7
  6
CONTINUOUS
 10
3.451706
 20
3.831935
 30
0.000000
 40
0.292665
 50
125.465973
 51
130.383259
  0
ARC
  8
0
 62
     7
  6
CONTINUOUS
 10
3.067293
 20
4.366905
 30
0.000000
 40
0.366101
 50
305.886830
 51
307.840111
  0
ARC
  8
0
 62
     7
  6
CONTINUOUS
 10
3.379700
 20
3.712124
 30
0.000000
 40
0.115335
 50
145.988463
 51
179.048819
  0
ARC
  8
0
 62
     7
  6
CONTINUOUS
 10
3.537632
 20
3.599698
 30
0.000000
 40
0.309173
 50
133.403897
 51
145.089433
  0
ARC
  8
0
 62
     7
  6
CONTINUOUS
 10
3.042640
 20
4.113741
 30
0.000000
 40
0.404472
 50
314.311681
 51
320.263833
  0
ARC
  8
0
 62
     7
  6
CONTINUOUS
 10
3.268252
 20
3.926786
 30
0.000000
 40
0.111466
 50
320.029788
 51
340.204528
  0
ARC
  8
0
 62
     7
  6
CONTINUOUS
 10
3.106062
 20
3.839238
 30
0.000000
 40
0.271672
 50
347.354323
 51
370.562195
  0
ARC
  8
0
 62
     7
  6
CONTINUOUS
 10
3.262146
 20
3.802548
 30
0.000000
 40
0.111354
 50
292.339180
 51
348.193296
  0
ARC
  8
0
 62
     7
  6
CONTINUOUS
 10
3.279277
 20
3.782690
 30
0.000000
 40
0.086873
 50
278.939399
 51
286.857961
  0
ARC
  8
0
 62
     7
  6
CONTINUOUS
 10
3.288028
 20
3.725996
 30
0.000000
 40
0.029508
 50
258.410349
 51
279.261006
  0
ARC
  8
0
 62
     7
  6
CONTINUOUS
 10
3.286702
 20
3.717189
 30
0.000000
 40
0.020620
 50
226.793002
 51
257.100791
  0
ARC
  8
0
 62
     7
  6
CONTINUOUS
 10
3.298725
 20
3.728985
 30
0.000000
 40
0.037456
 50
203.518777
 51
225.741508
  0
ARC
  8
0
 62
     7
  6
CONTINUOUS
 10
3.326710
 20
3.651009
 30
0.000000
 40
0.110101
 50
304.047417
 51
321.712164
  0
ARC
  8
0
 62
     7
  6
CONTINUOUS
 10
3.045744
 20
4.025728
 30
0.000000
 40
0.578348
 50
301.574675
 51
306.327023
  0
ARC
  8
0
 62
     7
  6
CONTINUOUS
 10
3.110606
 20
3.895032
 30
0.000000
 40
0.433239
 50
294.734855
 51
303.317187
  0
ARC
  8
0
 62
     7
  6
CONTINUOUS
 10
3.001787
 20
3.709523
 30
0.000000
 40
0.356947
 50
324.361573
 51
335.608406
  0
ARC
  8
0
 62
     7
  6
CONTINUOUS
 10
3.736994
 20
3.371059
 30
0.000000
 40
0.452438
 50
146.567763
 51
155.021472
  0
ARC
  8
0
 62
     7
  6
CONTINUOUS
 10
3.500410
 20
3.525694
 30
0.000000
 40
0.169809
 50
122.417163
 51
146.130096
  0
ARC
  8
0
 62
     7
  6
CONTINUOUS
 10
3.408023
 20
3.633179
 30
0.000000
 40
0.035888
 50
50.795478
 51
87.833578
  0
ARC
  8
0
 62
     7
  6
CONTINUOUS
 10
3.416954
 20
3.647199
 30
0.000000
 40
0.019475
 50
356.062729
 51
405.074266
  0
ARC
  8
0
 62
     7
  6
CONTINUOUS
 10
3.377262
 20
3.649456
 30
0.000000
 40
0.059231
 50
337.350200
 51
356.521673
  0
ARC
  8
0
 62
     7
  6
CONTINUOUS
 10
3.183376
 20
3.725463
 30
0.000000
 40
0.267471
 50
333.548508
 51
338.318495
  0
ARC
  8
0
 62
     7
  6
CONTINUOUS
 10
3.735371
 20
3.453524
 30
0.000000
 40
0.347877
 50
153.945579
 51
156.235271
  0
ARC
  8
0
 62
     7
  6
CONTINUOUS
 10
3.480311
 20
3.565180
 30
0.000000
 40
0.069451
 50
155.743634
 51
165.312653
  0
ARC
  8
0
 62
     7
  6
CONTINUOUS
 10
3.319121
 20
3.823291
 30
0.000000
 40
0.198037
 50
332.976510
 51
356.960363
  0
ARC
  8
0
 62
     7
  6
CONTINUOUS
 10
3.445535
 20
3.757115
 30
0.000000
 40
0.055378
 50
299.798188
 51
334.542312
  0
ARC
  8
0
 62
     7
  6
CONTINUOUS
 10
3.462463
 20
3.733121
 30
0.000000
 40
0.026290
 50
226.540489
 51
293.759434
  0
ARC
  8
0
 62
     7
  6
CONTINUOUS
 10
3.494703
 20
3.737448
 30
0.000000
 40
0.055502
 50
156.507026
 51
204.947467
  0
ARC
  8
0
 62
     7
  6
CONTINUOUS
 10
3.600286
 20
3.682587
 30
0.000000
 40
0.174397
 50
137.931491
 51
153.804039
  0
ARC
  8
0
 62
     7
  6
CONTINUOUS
 10
3.168240
 20
4.052201
 30
0.000000
 40
0.394268
 50
320.126087
 51
325.021382
  0
ARC
  8
0
 62
     7
  6
CONTINUOUS
 10
3.367045
 20
3.912666
 30
0.000000
 40
0.151382
 50
325.158336
 51
338.744874
  0
ARC
  8
0
 62
     7
  6
CONTINUOUS
 10
3.584919
 20
3.839273
 30
0.000000
 40
0.078990
 50
147.840940
 51
166.445388
  0
ARC
  8
0
 62
     7
  6
CONTINUOUS
 10
3.520134
 20
3.880443
 30
0.000000
 40
0.002261
 50
61.277590
 51
157.263878
  0
ARC
  8
0
 62
     7
  6
CONTINUOUS
 10
3.514691
 20
3.877075
 30
0.000000
 40
0.008442
 50
2.722973
 51
39.334985
  0
ARC
  8
0
 62
     7
  6
CONTINUOUS
 10
3.291539
 20
3.867185
 30
0.000000
 40
0.231813
 50
346.428694
 51
362.544363
  0
ARC
  8
0
 62
     7
  6
CONTINUOUS
 10
3.639229
 20
3.090026
 30
0.000000
 40
0.463328
 50
99.668497
 51
100.687438
  0
ARC
  8
0
 62
     7
  6
CONTINUOUS
 10
3.522925
 20
3.688471
 30
0.000000
 40
0.146342
 50
274.840181
 51
281.981049
  0
ARC
  8
0
 62
     7
  6
CONTINUOUS
 10
3.534084
 20
3.551554
 30
0.000000
 40
0.008982
 50
245.820506
 51
277.606334
  0
ARC
  8
0
 62
     7
  6
CONTINUOUS
 10
3.531111
 20
3.544501
 30
0.000000
 40
0.001342
 50
176.203440
 51
238.260355
  0
ARC
  8
0
 62
     7
  6
CONTINUOUS
 10
3.533649
 20
3.544051
 30
0.000000
 40
0.003914
 50
140.490607
 51
172.081283
  0
ARC
  8
0
 62
     7
  6
CONTINUOUS
 10
3.303885
 20
3.655506
 30
0.000000
 40
0.251568
 50
334.332832
 51
340.560954
  0
ARC
  8
0
 62
     7
  6
CONTINUOUS
 10
3.782930
 20
3.492657
 30
0.000000
 40
0.254434
 50
145.472898
 51
161.881131
  0
ARC
  8
0
 62
     7
  6
CONTINUOUS
 10
3.626601
 20
3.597928
 30
0.000000
 40
0.066001
 50
114.552135
 51
143.842108
  0
ARC
  8
0
 62
     7
  6
CONTINUOUS
 10
3.618243
 20
3.610627
 30
0.000000
 40
0.051030
 50
71.567489
 51
111.940581
  0
ARC
  8
0
 62
     7
  6
CONTINUOUS
 10
3.616660
 20
3.646301
 30
0.000000
 40
0.021822
 50
337.258393
 51
395.712369
  0
ARC
  8
0
 62
     7
  6
CONTINUOUS
 10
3.526679
 20
3.670879
 30
0.000000
 40
0.114949
 50
325.783178
 51
343.309402
  0
ARC
  8
0
 62
     7
  6
CONTINUOUS
 10
3.461317
 20
3.708627
 30
0.000000
 40
0.190306
 50
301.734447
 51
327.451462
  0
ARC
  8
0
 62
     7
  6
CONTINUOUS
 10
3.605066
 20
3.759108
 30
0.000000
 40
0.024919
 50
253.959217
 51
295.078722
  0
ARC
  8
0
 62
     7
  6
CONTINUOUS
 10
3.602408
 20
3.746768
 30
0.000000
 40
0.012355
 50
213.720867
 51
249.988114
  0
ARC
  8
0
 62
     7
  6
CONTINUOUS
 10
3.607584
 20
3.749548
 30
0.000000
 40
0.018211
 50
181.602049
 51
211.957578
  0
ARC
  8
0
 62
     7
  6
CONTINUOUS
 10
3.674306
 20
3.736235
 30
0.000000
 40
0.085887
 50
147.109390
 51
171.425961
  0
ARC
  8
0
 62
     7
  6
CONTINUOUS
 10
3.747073
 20
3.684175
 30
0.000000
 40
0.175311
 50
135.291254
 51
145.736600
  0
ARC
  8
0
 62
     7
  6
CONTINUOUS
 10
3.502219
 20
3.927180
 30
0.000000
 40
0.169662
 50
315.140551
 51
326.649839
  0
ARC
  8
0
 62
     7
  6
CONTINUOUS
 10
3.566891
 20
3.881437
 30
0.000000
 40
0.090531
 50
328.331498
 51
353.721218
  0
ARC
  8
0
 62
     7
  6
CONTINUOUS
 10
3.540940
 20
3.826255
 30
0.000000
 40
0.124467
 50
346.631228
 51
381.333696
  0
ARC
  8
0
 62
     7
  6
CONTINUOUS
 10
3.575550
 20
3.815198
 30
0.000000
 40
0.088281
 50
296.999613
 51
348.419804
  0
ARC
  8
0
 62
     7
  6
CONTINUOUS
 10
3.526397
 20
4.100410
 30
0.000000
 40
0.109495
 50
300.475976
 51
333.488972
  0
ARC
  8
0
 62
     7
  6
CONTINUOUS
 10
3.542933
 20
4.065523
 30
0.000000
 40
0.071124
 50
244.111949
 51
303.250591
  0
ARC
  8
0
 62
     7
  6
CONTINUOUS
 10
3.529371
 20
4.021162
 30
0.000000
 40
0.026289
 50
168.948034
 51
228.290816
  0
ARC
  8
0
 62
     7
  6
CONTINUOUS
 10
3.596781
 20
4.006582
 30
0.000000
 40
0.095254
 50
151.595589
 51
168.113720
  0
ARC
  8
0
 62
     7
  6
CONTINUOUS
 10
3.308001
 20
4.151855
 30
0.000000
 40
0.228067
 50
334.004425
 51
336.328492
  0
ARC
  8
0
 62
     7
  6
CONTINUOUS
 10
13.552161
 20
-3.916017
 30
0.000000
 40
12.819062
 50
141.066932
 51
141.521401
  0
ARC
  8
0
 62
     7
  6
CONTINUOUS
 10
-2.130177
 20
8.775393
 30
0.000000
 40
7.355382
 50
320.931152
 51
322.106851
  0
ARC
  8
0
 62
     7
  6
CONTINUOUS
 10
3.602815
 20
4.241258
 30
0.000000
 40
0.073447
 50
347.454437
 51
373.004195
  0
ARC
  8
0
 62
     7
  6
CONTINUOUS
 10
3.136592
 20
4.304508
 30
0.000000
 40
0.543716
 50
345.617007
 51
351.623896
  0
ARC
  8
0
 62
     7
  6
CONTINUOUS
 10
2.927213
 20
4.346833
 30
0.000000
 40
0.757126
 50
337.043997
 51
346.450346
  0
ARC
  8
0
 62
     7
  6
CONTINUOUS
 10
4.104529
 20
3.960828
 30
0.000000
 40
0.405677
 50
153.969980
 51
172.997386
  0
ARC
  8
0
 62
     7
  6
CONTINUOUS
 10
4.271738
 20
3.911436
 30
0.000000
 40
0.578328
 50
148.595982
 51
156.843929
  0
ARC
  8
0
 62
     7
  6
CONTINUOUS
 10
3.761197
 20
4.191022
 30
0.000000
 40
0.027573
 50
26.782022
 51
52.119445
  0
ARC
  8
0
 62
     7
  6
CONTINUOUS
 10
3.728136
 20
4.173337
 30
0.000000
 40
0.065062
 50
14.328618
 51
27.565933
  0
ARC
  8
0
 62
     7
  6
CONTINUOUS
 10
3.645565
 20
4.153139
 30
0.000000
 40
0.150066
 50
0.342329
 51
13.998521
  0
ARC
  8
0
 62
     7
  6
CONTINUOUS
 10
4.189141
 20
4.108305
 30
0.000000
 40
0.396161
 50
173.371321
 51
177.653110
  0
ARC
  8
0
 62
     7
  6
CONTINUOUS
 10
3.522014
 20
4.127095
 30
0.000000
 40
0.271310
 50
343.297824
 51
359.457735
  0
ARC
  8
0
 62
     7
  6
CONTINUOUS
 10
3.706802
 20
4.072098
 30
0.000000
 40
0.078514
 50
285.761192
 51
342.983400
  0
ARC
  8
0
 62
     7
  6
CONTINUOUS
 10
3.724455
 20
4.031621
 30
0.000000
 40
0.035277
 50
252.397512
 51
275.976434
  0
ARC
  8
0
 62
     7
  6
CONTINUOUS
 10
3.718818
 20
4.014785
 30
0.000000
 40
0.017527
 50
194.874751
 51
253.321217
  0
ARC
  8
0
 62
     7
  6
CONTINUOUS
 10
3.772467
 20
3.767213
 30
0.000000
 40
0.039587
 50
155.511574
 51
186.417507
  0
ARC
  8
0
 62
     7
  6
CONTINUOUS
 10
4.031193
 20
3.682854
 30
0.000000
 40
0.311501
 50
154.183306
 51
161.125660
  0
ARC
  8
0
 62
     7
  6
CONTINUOUS
 10
4.091961
 20
3.657639
 30
0.000000
 40
0.377204
 50
148.572147
 51
154.755382
  0
ARC
  8
0
 62
     7
  6
CONTINUOUS
 10
3.862610
 20
3.801714
 30
0.000000
 40
0.106427
 50
134.268041
 51
150.375956
  0
ARC
  8
0
 62
     7
  6
CONTINUOUS
 10
3.789303
 20
3.875826
 30
0.000000
 40
0.002317
 50
40.155608
 51
115.047031
  0
ARC
  8
0
 62
     7
  6
CONTINUOUS
 10
3.782534
 20
3.870495
 30
0.000000
 40
0.010933
 50
11.418837
 51
38.632445
  0
ARC
  8
0
 62
     7
  6
CONTINUOUS
 10
3.683983
 20
3.849729
 30
0.000000
 40
0.111648
 50
359.646148
 51
371.851888
  0
ARC
  8
0
 62
     7
  6
CONTINUOUS
 10
3.657995
 20
3.840801
 30
0.000000
 40
0.137880
 50
341.249962
 51
363.425242
  0
ARC
  8
0
 62
     7
  6
CONTINUOUS
 10
3.723645
 20
3.818544
 30
0.000000
 40
0.068559
 50
311.723190
 51
341.228001
  0
ARC
  8
0
 62
     7
  6
CONTINUOUS
 10
3.742916
 20
3.796679
 30
0.000000
 40
0.039415
 50
276.739380
 51
311.968435
  0
ARC
  8
0
 62
     7
  6
CONTINUOUS
 10
3.744835
 20
3.772512
 30
0.000000
 40
0.015218
 50
219.713422
 51
280.243779
  0
ARC
  8
0
 62
     7
  6
CONTINUOUS
 10
3.612635
 20
3.727458
 30
0.000000
 40
0.206938
 50
319.571616
 51
330.016733
  0
ARC
  8
0
 62
     7
  6
CONTINUOUS
 10
3.681680
 20
3.667961
 30
0.000000
 40
0.115797
 50
301.323025
 51
319.826153
  0
ARC
  8
0
 62
     7
  6
CONTINUOUS
 10
4.279601
 20
3.467555
 30
0.000000
 40
0.547216
 50
160.798390
 51
169.312062
  0
ARC
  8
0
 62
     7
  6
CONTINUOUS
 10
4.000106
 20
3.568472
 30
0.000000
 40
0.250102
 50
153.647666
 51
161.572408
  0
ARC
  8
0
 62
     7
  6
CONTINUOUS
 10
3.819812
 20
3.657870
 30
0.000000
 40
0.048861
 50
140.865578
 51
153.738760
  0
ARC
  8
0
 62
     7
  6
CONTINUOUS
 10
3.787000
 20
3.685553
 30
0.000000
 40
0.005987
 50
91.163278
 51
148.192203
  0
ARC
  8
0
 62
     7
  6
CONTINUOUS
 10
3.788063
 20
3.657011
 30
0.000000
 40
0.034548
 50
54.530215
 51
91.965364
  0
ARC
  8
0
 62
     7
  6
CONTINUOUS
 10
3.797536
 20
3.673536
 30
0.000000
 40
0.015704
 50
352.197707
 51
407.676759
  0
ARC
  8
0
 62
     7
  6
CONTINUOUS
 10
3.759322
 20
3.677905
 30
0.000000
 40
0.054165
 50
333.373180
 51
353.107123
  0
ARC
  8
0
 62
     7
  6
CONTINUOUS
 10
3.582070
 20
3.761246
 30
0.000000
 40
0.250019
 50
329.710951
 51
334.504762
  0
ARC
  8
0
 62
     7
  6
CONTINUOUS
 10
4.047896
 20
3.491066
 30
0.000000
 40
0.288492
 50
150.037913
 51
152.552639
  0
ARC
  8
0
 62
     7
  6
CONTINUOUS
 10
5.506559
 20
3.705588
 30
0.000000
 40
1.659051
 50
165.305413
 51
168.317164
  0
ARC
  8
0
 62
     7
  6
CONTINUOUS
 10
4.242132
 20
4.051146
 30
0.000000
 40
0.348587
 50
158.917860
 51
167.526968
  0
ARC
  8
0
 62
     7
  6
CONTINUOUS
 10
3.677765
 20
4.070919
 30
0.000000
 40
0.261399
 50
4.516469
 51
23.831085
  0
ARC
  8
0
 62
     7
  6
CONTINUOUS
 10
3.840851
 20
4.081209
 30
0.000000
 40
0.098043
 50
341.183284
 51
366.026826
  0
ARC
  8
0
 62
     7
  6
CONTINUOUS
 10
3.904818
 20
4.059280
 30
0.000000
 40
0.030422
 50
276.245628
 51
341.419138
  0
ARC
  8
0
 62
     7
  6
CONTINUOUS
 10
3.902099
 20
4.071538
 30
0.000000
 40
0.042925
 50
254.715149
 51
278.072953
  0
ARC
  8
0
 62
     7
  6
CONTINUOUS
 10
3.894774
 20
4.043592
 30
0.000000
 40
0.014040
 50
222.344021
 51
253.488913
  0
ARC
  8
0
 62
     7
  6
CONTINUOUS
 10
3.892871
 20
4.041149
 30
0.000000
 40
0.011000
 50
177.981119
 51
219.611861
  0
ARC
  8
0
 62
     7
  6
CONTINUOUS
 10
4.164295
 20
3.662151
 30
0.000000
 40
0.286428
 50
145.509877
 51
153.425463
  0
ARC
  8
0
 62
     7
  6
CONTINUOUS
 10
4.744884
 20
3.271964
 30
0.000000
 40
0.985938
 50
143.695675
 51
145.926244
  0
ARC
  8
0
 62
     7
  6
CONTINUOUS
 10
3.193489
 20
4.408828
 30
0.000000
 40
0.937416
 50
323.839931
 51
324.655361
  0
ARC
  8
0
 62
     7
  6
CONTINUOUS
 10
3.894614
 20
3.842352
 30
0.000000
 40
0.067963
 50
349.447000
 51
380.847651
  0
ARC
  8
0
 62
     7
  6
CONTINUOUS
 10
3.750172
 20
3.873035
 30
0.000000
 40
0.215613
 50
338.083366
 51
348.461013
  0
LINE
  8
0
 62
     7
  6
CONTINUOUS
 10
3.950202
 20
3.792556
 30
0.000000
 11
3.949377
 21
3.790288
 31
0.000000
  0
ARC
  8
0
 62
     7
  6
CONTINUOUS
 10
3.934178
 20
3.795470
 30
0.000000
 40
0.016058
 50
306.808166
 51
341.174382
  0
ARC
  8
0
 62
     7
  6
CONTINUOUS
 10
3.930961
 20
3.802480
 30
0.000000
 40
0.023654
 50
271.293519
 51
302.870704
  0
ARC
  8
0
 62
     7
  6
CONTINUOUS
 10
3.925891
 20
3.809966
 30
0.000000
 40
0.031634
 50
254.581997
 51
280.205090
  0
ARC
  8
0
 62
     7
  6
CONTINUOUS
 10
3.921426
 20
3.792334
 30
0.000000
 40
0.013455
 50
188.743528
 51
252.948387
  0
ARC
  8
0
 62
     7
  6
CONTINUOUS
 10
4.087382
 20
3.567179
 30
0.000000
 40
0.153345
 50
144.929323
 51
150.852159
  0
ARC
  8
0
 62
     7
  6
CONTINUOUS
 10
3.828552
 20
3.711035
 30
0.000000
 40
0.142776
 50
323.991447
 51
331.024015
  0
ARC
  8
0
 62
     7
  6
CONTINUOUS
 10
3.897288
 20
3.661730
 30
0.000000
 40
0.058189
 50
304.956015
 51
323.473032
  0
ARC
  8
0
 62
     7
  6
CONTINUOUS
 10
3.727352
 20
3.630299
 30
0.000000
 40
0.203925
 50
355.426703
 51
363.236531
  0
ARC
  8
0
 62
     7
  6
CONTINUOUS
 10
4.096805
 20
3.655004
 30
0.000000
 40
0.166377
 50
168.609764
 51
184.547771
  0
ARC
  8
0
 62
     7
  6
CONTINUOUS
 10
3.971877
 20
3.680151
 30
0.000000
 40
0.038943
 50
104.878379
 51
168.580013
  0
ARC
  8
0
 62
     7
  6
CONTINUOUS
 10
3.961090
 20
3.708105
 30
0.000000
 40
0.009716
 50
11.607565
 51
85.353067
  0
ARC
  8
0
 62
     7
  6
CONTINUOUS
 10
3.925431
 20
3.697253
 30
0.000000
 40
0.046956
 50
354.082413
 51
375.827367
  0
ARC
  8
0
 62
     7
  6
CONTINUOUS
 10
3.879797
 20
3.697954
 30
0.000000
 40
0.092507
 50
332.535070
 51
356.565618
  0
ARC
  8
0
 62
     7
  6
CONTINUOUS
 10
-7.597144
 20
-3.159950
 30
0.000000
 40
12.533877
 50
26.999932
 51
27.282514
  0
ARC
  8
0
 62
     7
  6
CONTINUOUS
 10
7.287076
 20
4.548241
 30
0.000000
 40
4.227941
 50
205.091833
 51
207.663389
  0
ARC
  8
0
 62
     7
  6
CONTINUOUS
 10
3.356292
 20
2.414321
 30
0.000000
 40
0.355858
 50
62.554861
 51
73.370913
  0
ARC
  8
0
 62
     7
  6
CONTINUOUS
 10
3.021431
 20
1.769767
 30
0.000000
 40
1.082207
 50
58.978566
 51
62.549637
  0
ARC
  8
0
 62
     7
  6
CONTINUOUS
 10
3.898323
 20
3.200256
 30
0.000000
 40
0.595771
 50
237.607100
 51
249.340639
  0
ARC
  8
0
 62
     7
  6
CONTINUOUS
 10
3.005773
 20
0.669737
 30
0.000000
 40
2.087719
 50
69.145489
 51
70.922768
  0
ARC
  8
0
 62
     7
  6
CONTINUOUS
 10
4.127729
 20
3.566748
 30
0.000000
 40
1.019058
 50
248.182395
 51
255.749562
  0
ARC
  8
0
 62
     7
  6
CONTINUOUS
 10
4.629010
 20
-2.056395
 30
0.000000
 40
4.696066
 50
99.216317
 51
100.488270
  0
ARC
  8
0
 62
     7
  6
CONTINUOUS
 10
3.310052
 20
4.931573
 30
0.000000
 40
2.415371
 50
276.193301
 51
281.078287
  0
ARC
  8
0
 62
     7
  6
CONTINUOUS
 10
2.715773
 20
3.579840
 30
0.000000
 40
2.707979
 50
341.846496
 51
343.848589
  0
ARC
  8
0
 62
     7
  6
CONTINUOUS
 10
7.084385
 20
2.134807
 30
0.000000
 40
1.893445
 50
161.483218
 51
165.729266
  0
ARC
  8
0
 62
     7
  6
CONTINUOUS
 10
5.252792
 20
3.012182
 30
0.000000
 40
0.410648
 50
255.386658
 51
269.522367
  0
ARC
  8
0
 62
     7
  6
CONTINUOUS
 10
5.436970
 20
3.703542
 30
0.000000
 40
1.126117
 50
250.195709
 51
255.193630
  0
ARC
  8
0
 62
     7
  6
CONTINUOUS
 10
4.347688
 20
0.611815
 30
0.000000
 40
2.151929
 50
70.798686
 51
72.162309
  0
ARC
  8
0
 62
     7
  6
CONTINUOUS
 10
4.370185
 20
4.219655
 30
0.000000
 40
1.684330
 50
292.210175
 51
304.197883
  0
ARC
  8
0
 62
     7
  6
CONTINUOUS
 10
6.678498
 20
5.700632
 30
0.000000
 40
0.191937
 50
305.901368
 51
326.260526
  0
ARC
  8
0
 62
     7
  6
CONTINUOUS
 10
6.002076
 20
6.494275
 30
0.000000
 40
1.234220
 50
303.885966
 51
309.735741
  0
ARC
  8
0
 62
     7
  6
CONTINUOUS
 10
6.054102
 20
6.399871
 30
0.000000
 40
1.126884
 50
297.238820
 51
304.366179
  0
ARC
  8
0
 62
     7
  6
CONTINUOUS
 10
6.400646
 20
5.705341
 30
0.000000
 40
0.350895
 50
280.461662
 51
298.834772
  0
ARC
  8
0
 62
     7
  6
CONTINUOUS
 10
6.445933
 20
5.438156
 30
0.000000
 40
0.080028
 50
239.744949
 51
283.312762
  0
ARC
  8
0
 62
     7
  6
CONTINUOUS
 10
5.980807
 20
5.198725
 30
0.000000
 40
0.457669
 50
21.845775
 51
22.096731
  0
ARC
  8
0
 62
     7
  6
CONTINUOUS
 10
6.457624
 20
5.395930
 30
0.000000
 40
0.058405
 50
184.275465
 51
205.390435
  0
ARC
  8
0
 62
     7
  6
CONTINUOUS
 10
6.427257
 20
5.391669
 30
0.000000
 40
0.027876
 50
126.667931
 51
180.189718
  0
ARC
  8
0
 62
     7
  6
CONTINUOUS
 10
6.620758
 20
5.001969
 30
0.000000
 40
0.462553
 50
104.313758
 51
117.021300
  0
ARC
  8
0
 62
     7
  6
CONTINUOUS
 10
6.380906
 20
5.931291
 30
0.000000
 40
0.497225
 50
284.618881
 51
295.353752
  0
ARC
  8
0
 62
     7
  6
CONTINUOUS
 10
6.187895
 20
6.609571
 30
0.000000
 40
1.198453
 50
289.798233
 51
298.338682
  0
ARC
  8
0
 62
     7
  6
CONTINUOUS
 10
7.414517
 20
4.296851
 30
0.000000
 40
1.419477
 50
113.958330
 51
117.604555
  0
ARC
  8
0
 62
     7
  6
CONTINUOUS
 10
6.229103
 20
5.559396
 30
0.000000
 40
0.194994
 50
295.927280
 51
324.631542
  0
ARC
  8
0
 62
     7
  6
CONTINUOUS
 10
6.097602
 20
5.838513
 30
0.000000
 40
0.503528
 50
284.727638
 51
295.497955
  0
ARC
  8
0
 62
     7
  6
CONTINUOUS
 10
5.956693
 20
6.665182
 30
0.000000
 40
1.340896
 50
275.150753
 51
281.569181
  0
ARC
  8
0
 62
     7
  6
CONTINUOUS
 10
6.039595
 20
5.749552
 30
0.000000
 40
0.421521
 50
267.590987
 51
275.101150
  0
ARC
  8
0
 62
     7
  6
CONTINUOUS
 10
6.021244
 20
5.372798
 30
0.000000
 40
0.044400
 50
248.847458
 51
270.817245
  0
ARC
  8
0
 62
     7
  6
CONTINUOUS
 10
6.005802
 20
5.332954
 30
0.000000
 40
0.001668
 50
131.582388
 51
249.654462
  0
ARC
  8
0
 62
     7
  6
CONTINUOUS
 10
6.017103
 20
5.320488
 30
0.000000
 40
0.018494
 50
108.300882
 51
132.139648
  0
ARC
  8
0
 62
     7
  6
CONTINUOUS
 10
5.379062
 20
6.761426
 30
0.000000
 40
1.557475
 50
293.949746
 51
298.855119
  0
ARC
  8
0
 62
     7
  6
CONTINUOUS
 10
6.999023
 20
3.818743
 30
0.000000
 40
1.801640
 50
113.567875
 51
118.813877
  0
ARC
  8
0
 62
     7
  6
CONTINUOUS
 10
6.426607
 20
5.124729
 30
0.000000
 40
0.375726
 50
102.885280
 51
113.188136
  0
ARC
  8
0
 62
     7
  6
CONTINUOUS
 10
6.368409
 20
5.393090
 30
0.000000
 40
0.101193
 50
76.600117
 51
104.647629
  0
ARC
  8
0
 62
     7
  6
CONTINUOUS
 10
6.373148
 20
5.470080
 30
0.000000
 40
0.028464
 50
24.366831
 51
48.897303
  0
ARC
  8
0
 62
     7
  6
CONTINUOUS
 10
6.382966
 20
5.474975
 30
0.000000
 40
0.017506
 50
353.033253
 51
383.030213
  0
ARC
  8
0
 62
     7
  6
CONTINUOUS
 10
6.359430
 20
5.481073
 30
0.000000
 40
0.041730
 50
324.367595
 51
348.636576
  0
ARC
  8
0
 62
     7
  6
CONTINUOUS
 10
6.486190
 20
5.398750
 30
0.000000
 40
0.109477
 50
148.001214
 51
151.171302
  0
ARC
  8
0
 62
     7
  6
CONTINUOUS
 10
6.414317
 20
5.438152
 30
0.000000
 40
0.027512
 50
150.882844
 51
162.276454
  0
ARC
  8
0
 62
     7
  6
CONTINUOUS
 10
5.325878
 20
8.572941
 30
0.000000
 40
3.130553
 50
295.517752
 51
298.165387
  0
LINE
  8
0
 62
     7
  6
CONTINUOUS
 10
6.803556
 20
5.813081
 30
0.000000
 11
6.824357
 21
5.824024
 31
0.000000
  0
ARC
  8
0
 62
     7
  6
CONTINUOUS
 10
5.670862
 20
7.043694
 30
0.000000
 40
1.678733
 50
299.425492
 51
313.402746
  0
ARC
  8
0
 62
     7
  6
CONTINUOUS
 10
6.425212
 20
5.674406
 30
0.000000
 40
0.116545
 50
284.235582
 51
307.159641
  0
ARC
  8
0
 62
     7
  6
CONTINUOUS
 10
6.441106
 20
5.620858
 30
0.000000
 40
0.060774
 50
234.263627
 51
282.125562
  0
ARC
  8
0
 62
     7
  6
CONTINUOUS
 10
6.449134
 20
5.601214
 30
0.000000
 40
0.052684
 50
172.843536
 51
214.297333
  0
ARC
  8
0
 62
     7
  6
CONTINUOUS
 10
6.510092
 20
5.514811
 30
0.000000
 40
0.146506
 50
112.871444
 51
140.613216
  0
ARC
  8
0
 62
     7
  6
CONTINUOUS
 10
6.956816
 20
4.599116
 30
0.000000
 40
1.165167
 50
110.758979
 51
115.611664
  0
ARC
  8
0
 62
     7
  6
CONTINUOUS
 10
6.201819
 20
6.618306
 30
0.000000
 40
0.990583
 50
290.198227
 51
298.500419
  0
ARC
  8
0
 62
     7
  6
CONTINUOUS
 10
3.765288
 20
9.521468
 30
0.000000
 40
4.556510
 50
307.872713
 51
309.115790
  0
ARC
  8
0
 62
     7
  6
CONTINUOUS
 10
8.911509
 20
3.189983
 30
0.000000
 40
3.602614
 50
128.278605
 51
129.089452
  0
ARC
  8
0
 62
     7
  6
CONTINUOUS
 10
6.769704
 20
5.912970
 30
0.000000
 40
0.138341
 50
120.387923
 51
130.564752
  0
ARC
  8
0
 62
     7
  6
CONTINUOUS
 10
5.953044
 20
6.571460
 30
0.000000
 40
0.920988
 50
311.799895
 51
324.168117
  0
ARC
  8
0
 62
     7
  6
CONTINUOUS
 10
3.986396
 20
8.536098
 30
0.000000
 40
3.699729
 50
311.297666
 51
314.225779
  0
ARC
  8
0
 62
     7
  6
CONTINUOUS
 10
6.545914
 20
5.548043
 30
0.000000
 40
0.239463
 50
119.468813
 51
121.761255
  0
ARC
  8
0
 62
     7
  6
CONTINUOUS
 10
6.331347
 20
5.891989
 30
0.000000
 40
0.165926
 50
296.943761
 51
302.241073
  0
ARC
  8
0
 62
     7
  6
CONTINUOUS
 10
6.381062
 20
5.794234
 30
0.000000
 40
0.056256
 50
281.066121
 51
296.917913
  0
LINE
  8
0
 62
     7
  6
CONTINUOUS
 10
6.391860
 20
5.739024
 30
0.000000
 11
6.391829
 21
5.739015
 31
0.000000
  0
ARC
  8
0
 62
     7
  6
CONTINUOUS
 10
6.329611
 20
5.950595
 30
0.000000
 40
0.220538
 50
281.592295
 51
286.386793
  0
ARC
  8
0
 62
     7
  6
CONTINUOUS
 10
6.364360
 20
5.778126
 30
0.000000
 40
0.044609
 50
262.715935
 51
282.384359
  0
ARC
  8
0
 62
     7
  6
CONTINUOUS
 10
6.361756
 20
5.754557
 30
0.000000
 40
0.020904
 50
223.585334
 51
261.606155
  0
ARC
  8
0
 62
     7
  6
CONTINUOUS
 10
6.375869
 20
5.765731
 30
0.000000
 40
0.038864
 50
193.701385
 51
221.172560
  0
ARC
  8
0
 62
     7
  6
CONTINUOUS
 10
6.394267
 20
5.747046
 30
0.000000
 40
0.056951
 50
138.705085
 51
170.419198
  0
ARC
  8
0
 62
     7
  6
CONTINUOUS
 10
6.478259
 20
5.677061
 30
0.000000
 40
0.166266
 50
125.840661
 51
139.686391
  0
ARC
  8
0
 62
     7
  6
CONTINUOUS
 10
6.863814
 20
5.127002
 30
0.000000
 40
0.837981
 50
118.223945
 51
125.189195
  0
ARC
  8
0
 62
     7
  6
CONTINUOUS
 10
6.072123
 20
6.604803
 30
0.000000
 40
0.838525
 50
298.133986
 51
305.795472
  0
ARC
  8
0
 62
     7
  6
CONTINUOUS
 10
6.319511
 20
5.632426
 30
0.000000
 40
0.057996
 50
65.310845
 51
102.599163
  0
ARC
  8
0
 62
     7
  6
CONTINUOUS
 10
6.322096
 20
5.645387
 30
0.000000
 40
0.045243
 50
15.890727
 51
61.426335
  0
ARC
  8
0
 62
     7
  6
CONTINUOUS
 10
6.306452
 20
5.654790
 30
0.000000
 40
0.059233
 50
320.210664
 51
362.889177
  0
ARC
  8
0
 62
     7
  6
CONTINUOUS
 10
6.248493
 20
5.704199
 30
0.000000
 40
0.135392
 50
298.428494
 51
319.840662
  0
ARC
  8
0
 62
     7
  6
CONTINUOUS
 10
6.022330
 20
6.141125
 30
0.000000
 40
0.627364
 50
286.678578
 51
297.596159
  0
ARC
  8
0
 62
     7
  6
CONTINUOUS
 10
6.612975
 20
4.293396
 30
0.000000
 40
1.312627
 50
108.228054
 51
110.042688
  0
ARC
  8
0
 62
     7
  6
CONTINUOUS
 10
6.684521
 20
3.505084
 30
0.000000
 40
2.087607
 50
104.463577
 51
105.483664
  0
ARC
  8
0
 62
     7
  6
CONTINUOUS
 10
5.861871
 20
6.436320
 30
0.000000
 40
0.956917
 50
281.396038
 51
286.097987
  0
ARC
  8
0
 62
     7
  6
CONTINUOUS
 10
5.980137
 20
5.858269
 30
0.000000
 40
0.366899
 50
268.317373
 51
281.127956
  0
ARC
  8
0
 62
     7
  6
CONTINUOUS
 10
5.863653
 20
5.864476
 30
0.000000
 40
0.387640
 50
285.825145
 51
301.807170
  0
ARC
  8
0
 62
     7
  6
CONTINUOUS
 10
5.388743
 20
6.635202
 30
0.000000
 40
1.292933
 50
301.690660
 51
306.653532
  0
ARC
  8
0
 62
     7
  6
CONTINUOUS
 10
6.672989
 20
4.938141
 30
0.000000
 40
0.835390
 50
115.993742
 51
127.833112
  0
ARC
  8
0
 62
     7
  6
CONTINUOUS
 10
5.438409
 20
6.567639
 30
0.000000
 40
1.511749
 50
293.007341
 51
297.412385
  0
ARC
  8
0
 62
     7
  6
CONTINUOUS
 10
6.852811
 20
3.842222
 30
0.000000
 40
1.558826
 50
112.605266
 51
117.442832
  0
ARC
  8
0
 62
     7
  6
CONTINUOUS
 10
6.444179
 20
4.825932
 30
0.000000
 40
0.493620
 50
97.545451
 51
112.707362
  0
ARC
  8
0
 62
     7
  6
CONTINUOUS
 10
6.366547
 20
5.265494
 30
0.000000
 40
0.051407
 50
50.570957
 51
75.566471
  0
ARC
  8
0
 62
     7
  6
CONTINUOUS
 10
6.384461
 20
5.287844
 30
0.000000
 40
0.022768
 50
9.892302
 51
49.671774
  0
ARC
  8
0
 62
     7
  6
CONTINUOUS
 10
6.362118
 20
5.289652
 30
0.000000
 40
0.044822
 50
318.311379
 51
362.689707
  0
ARC
  8
0
 62
     7
  6
CONTINUOUS
 10
6.266291
 20
5.360760
 30
0.000000
 40
0.164021
 50
294.519634
 51
322.027857
  0
ARC
  8
0
 62
     7
  6
CONTINUOUS
 10
5.891088
 20
6.748113
 30
0.000000
 40
1.599242
 50
277.919574
 51
286.091758
  0
ARC
  8
0
 62
     7
  6
CONTINUOUS
 10
5.237185
 20
10.592417
 30
0.000000
 40
5.498244
 50
277.537362
 51
279.149180
  0
ARC
  8
0
 62
     7
  6
CONTINUOUS
 10
6.390753
 20
4.342670
 30
0.000000
 40
0.908483
 50
113.446506
 51
118.418083
  0
ARC
  8
0
 62
     7
  6
CONTINUOUS
 10
5.819505
 20
5.258524
 30
0.000000
 40
0.734022
 50
251.110174
 51
258.221964
  0
ARC
  8
0
 62
     7
  6
CONTINUOUS
 10
5.527019
 20
3.840378
 30
0.000000
 40
0.713975
 50
69.341880
 51
78.474345
  0
ARC
  8
0
 62
     7
  6
CONTINUOUS
 10
5.690769
 20
4.278092
 30
0.000000
 40
0.246639
 50
41.893676
 51
69.062994
  0
ARC
  8
0
 62
     7
  6
CONTINUOUS
 10
5.828160
 20
4.428879
 30
0.000000
 40
0.048251
 50
0.223542
 51
16.750565
  0
ARC
  8
0
 62
     7
  6
CONTINUOUS
 10
5.856276
 20
4.429066
 30
0.000000
 40
0.020135
 50
331.232600
 51
360.003188
  0
ARC
  8
0
 62
     7
  6
CONTINUOUS
 10
5.854661
 20
4.430871
 30
0.000000
 40
0.022433
 50
304.246570
 51
329.176179
  0
ARC
  8
0
 62
     7
  6
CONTINUOUS
 10
5.831412
 20
4.464605
 30
0.000000
 40
0.063402
 50
293.667556
 51
304.458454
  0
ARC
  8
0
 62
     7
  6
CONTINUOUS
 10
5.835949
 20
4.659742
 30
0.000000
 40
0.254069
 50
237.312901
 51
274.721721
  0
ARC
  8
0
 62
     7
  6
CONTINUOUS
 10
5.911417
 20
4.773212
 30
0.000000
 40
0.390332
 50
212.404816
 51
236.984679
  0
ARC
  8
0
 62
     7
  6
CONTINUOUS
 10
5.710315
 20
4.311230
 30
0.000000
 40
0.011553
 50
288.999935
 51
361.507926
  0
ARC
  8
0
 62
     7
  6
CONTINUOUS
 10
5.700220
 20
4.342194
 30
0.000000
 40
0.044120
 50
263.245732
 51
288.303522
  0
ARC
  8
0
 62
     7
  6
CONTINUOUS
 10
5.728445
 20
4.597589
 30
0.000000
 40
0.301069
 50
254.050424
 51
263.627908
  0
ARC
  8
0
 62
     7
  6
CONTINUOUS
 10
5.500596
 20
3.750835
 30
0.000000
 40
0.575860
 50
75.403984
 51
76.823526
  0
ARC
  8
0
 62
     7
  6
CONTINUOUS
 10
5.766487
 20
4.652095
 30
0.000000
 40
0.366203
 50
226.625453
 51
248.431275
  0
ARC
  8
0
 62
     7
  6
CONTINUOUS
 10
6.305949
 20
5.250869
 30
0.000000
 40
1.172079
 50
220.943912
 51
227.558820
  0
ARC
  8
0
 62
     7
  6
CONTINUOUS
 10
5.563378
 20
4.692958
 30
0.000000
 40
0.254076
 50
235.813822
 51
249.213993
  0
ARC
  8
0
 62
     7
  6
CONTINUOUS
 10
5.816457
 20
5.347337
 30
0.000000
 40
0.955686
 50
248.951342
 51
252.812254
  0
ARC
  8
0
 62
     7
  6
CONTINUOUS
 10
5.371220
 20
3.865605
 30
0.000000
 40
0.591576
 50
62.870752
 51
74.023387
  0
ARC
  8
0
 62
     7
  6
CONTINUOUS
 10
5.552781
 20
4.222658
 30
0.000000
 40
0.191019
 50
27.728140
 51
62.501826
  0
LINE
  8
0
 62
     7
  6
CONTINUOUS
 10
5.749661
 20
4.609674
 30
0.000000
 11
5.677154
 21
4.646888
 31
0.000000
  0
LINE
  8
0
 62
     7
  6
CONTINUOUS
 10
5.677154
 20
4.646888
 30
0.000000
 11
5.755429
 21
4.645998
 31
0.000000
  0
ARC
  8
0
 62
     7
  6
CONTINUOUS
 10
5.673898
 20
5.953840
 30
0.000000
 40
1.310381
 50
273.567208
 51
275.385738
  0
ARC
  8
0
 62
     7
  6
CONTINUOUS
 10
5.856229
 20
4.219985
 30
0.000000
 40
0.433341
 50
81.934256
 51
97.870210
  0
ARC
  8
0
 62
     7
  6
CONTINUOUS
 10
5.892745
 20
4.510102
 30
0.000000
 40
0.141043
 50
30.426927
 51
80.085238
  0
ARC
  8
0
 62
     7
  6
CONTINUOUS
 10
5.993270
 20
4.571653
 30
0.000000
 40
0.023292
 50
329.437552
 51
385.096292
  0
ARC
  8
0
 62
     7
  6
CONTINUOUS
 10
5.985715
 20
4.580242
 30
0.000000
 40
0.034350
 50
287.175939
 51
323.498163
  0
ARC
  8
0
 62
     7
  6
CONTINUOUS
 10
5.955693
 20
4.674767
 30
0.000000
 40
0.133527
 50
266.208582
 51
287.506015
  0
ARC
  8
0
 62
     7
  6
CONTINUOUS
 10
5.979452
 20
4.913059
 30
0.000000
 40
0.372953
 50
248.723479
 51
264.987147
  0
ARC
  8
0
 62
     7
  6
CONTINUOUS
 10
6.148939
 20
5.340828
 30
0.000000
 40
0.833071
 50
241.361377
 51
248.537046
  0
ARC
  8
0
 62
     7
  6
CONTINUOUS
 10
5.749012
 20
4.862290
 30
0.000000
 40
0.072638
 50
34.228044
 51
51.364602
  0
ARC
  8
0
 62
     7
  6
CONTINUOUS
 10
5.785066
 20
4.886595
 30
0.000000
 40
0.029158
 50
5.296357
 51
34.591516
  0
ARC
  8
0
 62
     7
  6
CONTINUOUS
 10
5.788898
 20
4.889047
 30
0.000000
 40
0.025202
 50
302.694328
 51
360.544666
  0
ARC
  8
0
 62
     7
  6
CONTINUOUS
 10
5.747607
 20
4.951804
 30
0.000000
 40
0.100324
 50
268.147989
 51
303.180066
  0
ARC
  8
0
 62
     7
  6
CONTINUOUS
 10
5.725646
 20
5.509660
 30
0.000000
 40
0.658394
 50
257.511440
 51
271.629112
  0
ARC
  8
0
 62
     7
  6
CONTINUOUS
 10
5.861732
 20
6.098352
 30
0.000000
 40
1.262597
 50
250.215619
 51
257.258948
  0
ARC
  8
0
 62
     7
  6
CONTINUOUS
 10
5.487584
 20
5.481791
 30
0.000000
 40
0.573981
 50
264.680128
 51
272.955312
  0
ARC
  8
0
 62
     7
  6
CONTINUOUS
 10
5.412730
 20
7.070256
 30
0.000000
 40
2.164205
 50
272.766220
 51
275.142076
  0
ARC
  8
0
 62
     7
  6
CONTINUOUS
 10
5.723577
 20
3.903797
 30
0.000000
 40
1.017698
 50
86.011506
 51
96.594758
  0
ARC
  8
0
 62
     7
  6
CONTINUOUS
 10
5.531760
 20
5.682618
 30
0.000000
 40
0.646684
 50
262.456681
 51
296.530206
  0
LINE
  8
0
 62
     7
  6
CONTINUOUS
 10
5.820614
 20
5.104030
 30
0.000000
 11
5.826134
 21
5.104265
 31
0.000000
  0
ARC
  8
0
 62
     7
  6
CONTINUOUS
 10
5.842815
 20
4.911931
 30
0.000000
 40
0.193056
 50
80.749021
 51
94.956647
  0
ARC
  8
0
 62
     7
  6
CONTINUOUS
 10
5.865968
 20
5.060239
 30
0.000000
 40
0.042966
 50
51.946293
 51
79.428764
  0
ARC
  8
0
 62
     7
  6
CONTINUOUS
 10
5.874810
 20
5.073312
 30
0.000000
 40
0.027244
 50
6.779469
 51
49.640770
  0
ARC
  8
0
 62
     7
  6
CONTINUOUS
 10
5.773418
 20
5.129959
 30
0.000000
 40
0.139115
 50
274.842800
 51
337.413699
  0
ARC
  8
0
 62
     7
  6
CONTINUOUS
 10
5.742397
 20
5.540171
 30
0.000000
 40
0.550495
 50
258.080849
 51
274.455564
  0
ARC
  8
0
 62
     7
  6
CONTINUOUS
 10
5.399203
 20
3.625385
 30
0.000000
 40
1.395166
 50
80.532056
 51
82.632232
  0
ARC
  8
0
 62
     7
  6
CONTINUOUS
 10
5.390550
 20
4.247089
 30
0.000000
 40
0.784689
 50
76.170550
 51
79.663030
  0
ARC
  8
0
 62
     7
  6
CONTINUOUS
 10
5.595728
 20
5.430847
 30
0.000000
 40
0.416806
 50
249.074787
 51
261.115063
  0
ARC
  8
0
 62
     7
  6
CONTINUOUS
 10
5.820895
 20
5.171081
 30
0.000000
 40
0.410188
 50
260.488648
 51
269.381529
  0
ARC
  8
0
 62
     7
  6
CONTINUOUS
 10
5.840703
 20
6.366554
 30
0.000000
 40
1.605819
 50
269.135253
 51
271.621334
  0
ARC
  8
0
 62
     7
  6
CONTINUOUS
 10
5.926445
 20
4.004035
 30
0.000000
 40
0.758414
 50
82.776188
 51
93.046566
  0
ARC
  8
0
 62
     7
  6
CONTINUOUS
 10
5.993598
 20
4.567017
 30
0.000000
 40
0.191502
 50
63.996074
 51
81.527538
  0
ARC
  8
0
 62
     7
  6
CONTINUOUS
 10
6.030246
 20
4.643493
 30
0.000000
 40
0.106702
 50
34.566777
 51
63.678619
  0
ARC
  8
0
 62
     7
  6
CONTINUOUS
 10
6.088787
 20
4.700569
 30
0.000000
 40
0.029528
 50
308.934516
 51
366.734996
  0
ARC
  8
0
 62
     7
  6
CONTINUOUS
 10
6.044826
 20
4.756074
 30
0.000000
 40
0.100332
 50
292.109471
 51
308.543469
  0
LINE
  8
0
 62
     7
  6
CONTINUOUS
 10
6.082588
 20
4.663119
 30
0.000000
 11
6.081861
 21
4.662784
 31
0.000000
  0
ARC
  8
0
 62
     7
  6
CONTINUOUS
 10
6.061400
 20
4.976439
 30
0.000000
 40
0.314322
 50
254.867140
 51
273.732480
  0
ARC
  8
0
 62
     7
  6
CONTINUOUS
 10
6.165105
 20
5.407488
 30
0.000000
 40
0.757597
 50
247.394404
 51
255.806458
  0
ARC
  8
0
 62
     7
  6
CONTINUOUS
 10
6.256960
 20
5.653857
 30
0.000000
 40
1.020395
 50
240.410974
 51
247.950440
  0
ARC
  8
0
 62
     7
  6
CONTINUOUS
 10
6.225959
 20
5.907630
 30
0.000000
 40
1.099929
 50
254.035126
 51
262.734861
  0
ARC
  8
0
 62
     7
  6
CONTINUOUS
 10
6.267381
 20
6.193891
 30
0.000000
 40
1.387088
 50
251.428689
 51
255.642662
  0
ARC
  8
0
 62
     7
  6
CONTINUOUS
 10
5.856269
 20
5.301852
 30
0.000000
 40
0.423929
 50
265.853260
 51
278.143556
  0
ARC
  8
0
 62
     7
  6
CONTINUOUS
 10
5.754267
 20
5.994723
 30
0.000000
 40
1.124266
 50
278.287556
 51
282.696266
  0
ARC
  8
0
 62
     7
  6
CONTINUOUS
 10
6.175482
 20
4.167263
 30
0.000000
 40
0.751143
 50
95.199479
 51
103.403479
  0
ARC
  8
0
 62
     7
  6
CONTINUOUS
 10
6.128161
 20
4.669915
 30
0.000000
 40
0.246276
 50
70.131349
 51
94.833319
  0
ARC
  8
0
 62
     7
  6
CONTINUOUS
 10
6.193690
 20
4.876388
 30
0.000000
 40
0.031023
 50
1.827475
 51
54.143267
  0
ARC
  8
0
 62
     7
  6
CONTINUOUS
 10
6.190186
 20
4.875428
 30
0.000000
 40
0.034565
 50
312.669221
 51
363.232797
  0
ARC
  8
0
 62
     7
  6
CONTINUOUS
 10
6.122085
 20
4.986875
 30
0.000000
 40
0.164646
 50
283.202848
 51
303.773224
  0
ARC
  8
0
 62
     7
  6
CONTINUOUS
 10
6.079834
 20
5.136424
 30
0.000000
 40
0.319969
 50
271.258379
 51
284.452294
  0
ARC
  8
0
 62
     7
  6
CONTINUOUS
 10
5.646992
 20
6.426758
 30
0.000000
 40
1.453645
 50
280.298267
 51
288.394687
  0
ARC
  8
0
 62
     7
  6
CONTINUOUS
 10
6.581837
 20
3.610327
 30
0.000000
 40
1.513883
 50
100.465105
 51
108.331247
  0
ARC
  8
0
 62
     7
  6
CONTINUOUS
 10
6.302209
 20
5.067183
 30
0.000000
 40
0.032183
 50
15.915154
 51
81.690171
  0
ARC
  8
0
 62
     7
  6
CONTINUOUS
 10
6.287267
 20
5.070748
 30
0.000000
 40
0.046192
 50
322.587622
 51
366.538746
  0
ARC
  8
0
 62
     7
  6
CONTINUOUS
 10
6.235274
 20
5.101362
 30
0.000000
 40
0.106337
 50
279.655969
 51
326.508919
  0
ARC
  8
0
 62
     7
  6
CONTINUOUS
 10
6.145694
 20
5.619690
 30
0.000000
 40
0.632349
 50
269.577990
 51
279.780207
  0
ARC
  8
0
 62
     7
  6
CONTINUOUS
 10
6.158102
 20
6.734140
 30
0.000000
 40
1.746865
 50
265.834123
 51
269.440250
  0
ARC
  8
0
 62
     7
  6
CONTINUOUS
 10
5.905894
 20
3.302634
 30
0.000000
 40
1.693897
 50
85.757596
 51
89.967216
  0
ARC
  8
0
 62
     7
  6
CONTINUOUS
 10
5.611937
 20
6.058145
 30
0.000000
 40
0.913782
 50
261.658163
 51
286.117717
  0
ARC
  8
0
 62
     7
  6
CONTINUOUS
 10
5.463443
 20
5.718590
 30
0.000000
 40
0.564784
 50
271.615637
 51
289.995805
  0
ARC
  8
0
 62
     7
  6
CONTINUOUS
 10
5.101822
 20
6.696366
 30
0.000000
 40
1.607283
 50
290.190779
 51
296.512108
  0
ARC
  8
0
 62
     7
  6
CONTINUOUS
 10
7.811341
 20
1.097802
 30
0.000000
 40
4.612632
 50
114.830102
 51
115.586174
  0
ARC
  8
0
 62
     7
  6
CONTINUOUS
 10
5.941210
 20
5.131071
 30
0.000000
 40
0.166927
 50
98.694245
 51
113.606735
  0
ARC
  8
0
 62
     7
  6
CONTINUOUS
 10
5.922808
 20
5.262201
 30
0.000000
 40
0.034560
 50
62.221915
 51
101.398995
  0
ARC
  8
0
 62
     7
  6
CONTINUOUS
 10
5.929156
 20
5.278544
 30
0.000000
 40
0.017258
 50
358.952118
 51
415.568157
  0
ARC
  8
0
 62
     7
  6
CONTINUOUS
 10
5.892958
 20
5.278457
 30
0.000000
 40
0.053454
 50
335.781847
 51
359.755045
  0
ARC
  8
0
 62
     7
  6
CONTINUOUS
 10
5.793123
 20
5.322459
 30
0.000000
 40
0.162555
 50
315.286693
 51
336.072117
  0
ARC
  8
0
 62
     7
  6
CONTINUOUS
 10
5.840376
 20
5.266512
 30
0.000000
 40
0.089849
 50
286.312824
 51
319.443205
  0
ARC
  8
0
 62
     7
  6
CONTINUOUS
 10
5.597093
 20
6.123834
 30
0.000000
 40
0.713756
 50
291.342872
 51
291.844553
  0
ARC
  8
0
 62
     7
  6
CONTINUOUS
 10
5.927571
 20
5.315107
 30
0.000000
 40
0.159976
 50
100.523242
 51
113.933007
  0
ARC
  8
0
 62
     7
  6
CONTINUOUS
 10
5.906706
 20
5.430695
 30
0.000000
 40
0.042525
 50
51.611540
 51
101.325807
  0
ARC
  8
0
 62
     7
  6
CONTINUOUS
 10
5.906204
 20
5.447915
 30
0.000000
 40
0.031364
 50
337.354711
 51
390.911854
  0
ARC
  8
0
 62
     7
  6
CONTINUOUS
 10
5.854131
 20
5.469520
 30
0.000000
 40
0.087742
 50
314.680500
 51
337.426884
  0
ARC
  8
0
 62
     7
  6
CONTINUOUS
 10
5.667752
 20
5.658791
 30
0.000000
 40
0.353374
 50
302.354692
 51
314.588999
  0
LINE
  8
0
 62
     7
  6
CONTINUOUS
 10
5.856863
 20
5.360278
 30
0.000000
 11
5.839671
 21
5.352551
 31
0.000000
  0
ARC
  8
0
 62
     7
  6
CONTINUOUS
 10
5.137764
 20
6.826760
 30
0.000000
 40
1.632779
 50
287.961571
 51
295.460286
  0
ARC
  8
0
 62
     7
  6
CONTINUOUS
 10
5.466292
 20
5.820519
 30
0.000000
 40
0.574272
 50
265.813401
 51
287.740723
  0
ARC
  8
0
 62
     7
  6
CONTINUOUS
 10
5.319792
 20
6.010237
 30
0.000000
 40
0.769595
 50
277.809687
 51
314.255706
  0
ARC
  8
0
 62
     7
  6
CONTINUOUS
 10
5.557993
 20
5.231783
 30
0.000000
 40
0.449013
 50
265.705116
 51
273.853037
  0
ARC
  8
0
 62
     7
  6
CONTINUOUS
 10
5.617469
 20
4.440131
 30
0.000000
 40
0.344901
 50
81.127470
 51
94.873866
  0
ARC
  8
0
 62
     7
  6
CONTINUOUS
 10
5.657951
 20
4.698852
 30
0.000000
 40
0.083032
 50
28.940122
 51
81.191763
  0
ARC
  8
0
 62
     7
  6
CONTINUOUS
 10
5.699942
 20
4.736378
 30
0.000000
 40
0.030787
 50
292.069119
 51
364.944753
  0
ARC
  8
0
 62
     7
  6
CONTINUOUS
 10
5.665460
 20
4.822877
 30
0.000000
 40
0.123906
 50
273.789113
 51
291.817195
  0
LINE
  8
0
 62
     7
  6
CONTINUOUS
 10
5.673648
 20
4.699242
 30
0.000000
 11
5.671864
 21
4.699031
 31
0.000000
  0
ARC
  8
0
 62
     7
  6
CONTINUOUS
 10
5.671652
 20
5.061524
 30
0.000000
 40
0.362492
 50
245.358704
 51
270.033490
  0
ARC
  8
0
 62
     7
  6
CONTINUOUS
 10
5.962675
 20
5.678988
 30
0.000000
 40
1.045089
 50
236.545347
 51
244.970675
  0
LINE
  8
0
 62
     7
  6
CONTINUOUS
 10
5.386541
 20
4.807046
 30
0.000000
 11
5.379367
 21
4.811532
 31
0.000000
  0
ARC
  8
0
 62
     7
  6
CONTINUOUS
 10
5.368272
 20
4.658049
 30
0.000000
 40
0.153884
 50
75.597093
 51
85.865413
  0
ARC
  8
0
 62
     7
  6
CONTINUOUS
 10
5.268107
 20
4.261899
 30
0.000000
 40
0.562500
 50
72.723040
 51
75.751977
  0
ARC
  8
0
 62
     7
  6
CONTINUOUS
 10
5.577490
 20
5.247109
 30
0.000000
 40
0.470150
 50
252.378690
 51
257.787095
  0
ARC
  8
0
 62
     7
  6
CONTINUOUS
 10
5.514416
 20
4.957441
 30
0.000000
 40
0.173695
 50
257.908943
 51
273.284190
  0
ARC
  8
0
 62
     7
  6
CONTINUOUS
 10
5.521371
 20
4.599463
 30
0.000000
 40
0.037216
 50
346.403355
 51
383.049098
  0
ARC
  8
0
 62
     7
  6
CONTINUOUS
 10
5.539146
 20
4.596869
 30
0.000000
 40
0.019400
 50
291.575841
 51
341.502293
  0
ARC
  8
0
 62
     7
  6
CONTINUOUS
 10
5.528601
 20
4.623560
 30
0.000000
 40
0.048098
 50
268.310662
 51
291.565263
  0
ARC
  8
0
 62
     7
  6
CONTINUOUS
 10
5.528260
 20
4.687747
 30
0.000000
 40
0.112270
 50
258.364315
 51
269.450644
  0
ARC
  8
0
 62
     7
  6
CONTINUOUS
 10
5.531543
 20
4.803188
 30
0.000000
 40
0.226890
 50
230.075055
 51
263.438357
  0
ARC
  8
0
 62
     7
  6
CONTINUOUS
 10
5.669999
 20
4.978490
 30
0.000000
 40
0.450230
 50
213.455876
 51
230.880249
  0
ARC
  8
0
 62
     7
  6
CONTINUOUS
 10
5.429084
 20
4.887193
 30
0.000000
 40
0.206809
 50
229.352327
 51
249.421772
  0
ARC
  8
0
 62
     7
  6
CONTINUOUS
 10
5.574092
 20
5.276932
 30
0.000000
 40
0.622649
 50
249.535168
 51
256.186485
  0
ARC
  8
0
 62
     7
  6
CONTINUOUS
 10
5.280566
 20
4.081461
 30
0.000000
 40
0.608330
 50
69.408154
 51
76.223883
  0
ARC
  8
0
 62
     7
  6
CONTINUOUS
 10
5.424944
 20
4.466657
 30
0.000000
 40
0.196965
 50
48.438202
 51
69.314316
  0
ARC
  8
0
 62
     7
  6
CONTINUOUS
 10
5.355208
 20
4.523801
 30
0.000000
 40
0.041397
 50
260.146860
 51
299.538666
  0
ARC
  8
0
 62
     7
  6
CONTINUOUS
 10
5.357346
 20
4.541363
 30
0.000000
 40
0.059072
 50
237.512604
 51
261.019186
  0
ARC
  8
0
 62
     7
  6
CONTINUOUS
 10
5.477034
 20
4.725084
 30
0.000000
 40
0.278338
 50
218.450437
 51
237.043500
  0
ARC
  8
0
 62
     7
  6
CONTINUOUS
 10
5.622051
 20
4.847827
 30
0.000000
 40
0.468271
 50
208.201488
 51
219.178292
  0
ARC
  8
0
 62
     7
  6
CONTINUOUS
 10
5.308111
 20
4.724520
 30
0.000000
 40
0.139110
 50
224.779081
 51
241.133047
  0
ARC
  8
0
 62
     7
  6
CONTINUOUS
 10
5.491116
 20
5.050909
 30
0.000000
 40
0.513300
 50
240.832541
 51
245.583285
  0
ARC
  8
0
 62
     7
  6
CONTINUOUS
 10
5.164413
 20
4.310945
 30
0.000000
 40
0.295652
 50
53.260709
 51
67.210335
  0
ARC
  8
0
 62
     7
  6
CONTINUOUS
 10
5.285954
 20
4.476384
 30
0.000000
 40
0.090385
 50
7.246468
 51
52.270196
  0
ARC
  8
0
 62
     7
  6
CONTINUOUS
 10
5.249613
 20
4.435141
 30
0.000000
 40
0.033406
 50
265.287462
 51
301.097748
  0
ARC
  8
0
 62
     7
  6
CONTINUOUS
 10
5.249650
 20
4.458719
 30
0.000000
 40
0.056940
 50
246.415888
 51
267.200175
  0
ARC
  8
0
 62
     7
  6
CONTINUOUS
 10
5.327106
 20
4.597136
 30
0.000000
 40
0.215351
 50
218.972565
 51
242.260056
  0
ARC
  8
0
 62
     7
  6
CONTINUOUS
 10
5.607862
 20
4.832222
 30
0.000000
 40
0.581515
 50
210.992589
 51
219.582016
  0
ARC
  8
0
 62
     7
  6
CONTINUOUS
 10
5.254810
 20
4.728377
 30
0.000000
 40
0.243741
 50
233.365697
 51
241.749142
  0
ARC
  8
0
 62
     7
  6
CONTINUOUS
 10
5.610517
 20
5.380462
 30
0.000000
 40
0.986531
 50
241.477147
 51
243.765464
  0
ARC
  8
0
 62
     7
  6
CONTINUOUS
 10
5.006396
 20
4.127205
 30
0.000000
 40
0.404861
 50
54.319450
 51
65.478945
  0
ARC
  8
0
 62
     7
  6
CONTINUOUS
 10
5.196464
 20
4.394464
 30
0.000000
 40
0.076926
 50
30.206798
 51
53.206411
  0
ARC
  8
0
 62
     7
  6
CONTINUOUS
 10
5.229705
 20
4.414666
 30
0.000000
 40
0.038041
 50
347.658503
 51
389.100768
  0
ARC
  8
0
 62
     7
  6
CONTINUOUS
 10
4.579524
 20
2.954320
 30
0.000000
 40
0.091692
 50
42.735502
 51
53.111319
  0
ARC
  8
0
 62
     7
  6
CONTINUOUS
 10
4.445805
 20
2.777425
 30
0.000000
 40
0.313440
 50
52.971284
 51
56.137935
  0
ARC
  8
0
 62
     7
  6
CONTINUOUS
 10
4.690957
 20
3.152000
 30
0.000000
 40
0.134295
 50
223.072556
 51
238.332126
  0
ARC
  8
0
 62
     7
  6
CONTINUOUS
 10
4.623029
 20
3.087031
 30
0.000000
 40
0.040321
 50
171.784229
 51
221.552479
  0
ARC
  8
0
 62
     7
  6
CONTINUOUS
 10
4.607186
 20
3.109049
 30
0.000000
 40
0.029040
 50
214.040549
 51
246.360109
  0
ARC
  8
0
 62
     7
  6
CONTINUOUS
 10
4.648140
 20
3.197883
 30
0.000000
 40
0.126855
 50
245.503559
 51
253.884943
  0
ARC
  8
0
 62
     7
  6
CONTINUOUS
 10
4.571293
 20
2.934648
 30
0.000000
 40
0.147369
 50
66.581649
 51
73.588573
  0
ARC
  8
0
 62
     7
  6
CONTINUOUS
 10
4.614325
 20
3.033227
 30
0.000000
 40
0.039808
 50
42.629115
 51
67.024091
  0
ARC
  8
0
 62
     7
  6
CONTINUOUS
 10
4.621389
 20
3.041234
 30
0.000000
 40
0.029208
 50
4.534508
 51
40.458613
  0
ARC
  8
0
 62
     7
  6
CONTINUOUS
 10
4.581328
 20
3.039112
 30
0.000000
 40
0.069320
 50
340.999711
 51
363.665077
  0
ARC
  8
0
 62
     7
  6
CONTINUOUS
 10
4.871222
 20
2.887249
 30
0.000000
 40
0.004813
 50
308.701929
 51
336.047266
  0
ARC
  8
0
 62
     7
  6
CONTINUOUS
 10
4.850655
 20
2.910405
 30
0.000000
 40
0.035778
 50
306.226176
 51
311.219744
  0
ARC
  8
0
 62
     7
  6
CONTINUOUS
 10
4.893358
 20
2.852019
 30
0.000000
 40
0.036558
 50
126.137604
 51
132.013030
  0
ARC
  8
0
 62
     7
  6
CONTINUOUS
 10
4.873115
 20
2.874171
 30
0.000000
 40
0.006554
 50
130.142567
 51
157.301715
  0
ARC
  8
0
 62
     7
  6
CONTINUOUS
 10
4.869433
 20
2.875878
 30
0.000000
 40
0.002503
 50
160.822599
 51
223.917024
  0
ARC
  8
0
 62
     7
  6
CONTINUOUS
 10
4.875239
 20
2.881796
 30
0.000000
 40
0.010792
 50
225.172010
 51
251.813753
  0
ARC
  8
0
 62
     7
  6
CONTINUOUS
 10
4.840742
 20
2.883921
 30
0.000000
 40
0.033499
 50
309.414948
 51
338.316144
  0
ARC
  8
0
 62
     7
  6
CONTINUOUS
 10
4.798538
 20
2.936387
 30
0.000000
 40
0.100832
 50
299.446541
 51
309.012814
  0
ARC
  8
0
 62
     7
  6
CONTINUOUS
 10
4.904817
 20
2.749561
 30
0.000000
 40
0.114110
 50
119.799680
 51
127.330218
  0
ARC
  8
0
 62
     7
  6
CONTINUOUS
 10
4.796607
 20
2.901932
 30
0.000000
 40
0.072946
 50
265.754755
 51
302.331695
  0
ARC
  8
0
 62
     7
  6
CONTINUOUS
 10
4.811642
 20
2.988441
 30
0.000000
 40
0.160561
 50
247.437845
 51
262.688060
  0
ARC
  8
0
 62
     7
  6
CONTINUOUS
 10
4.627709
 20
2.514388
 30
0.000000
 40
0.347991
 50
69.419213
 51
74.086799
  0
ARC
  8
0
 62
     7
  6
CONTINUOUS
 10
3.640614
 20
2.670093
 30
0.000000
 40
1.097199
 50
9.386744
 51
20.344112
  0
ARC
  8
0
 62
     7
  6
CONTINUOUS
 10
4.666915
 20
3.071881
 30
0.000000
 40
0.020487
 50
276.886987
 51
302.225089
  0
ARC
  8
0
 62
     7
  6
CONTINUOUS
 10
4.639526
 20
3.115486
 30
0.000000
 40
0.071980
 50
302.159819
 51
309.808944
  0
ARC
  8
0
 62
     7
  6
CONTINUOUS
 10
4.736433
 20
2.999001
 30
0.000000
 40
0.079545
 50
122.112465
 51
129.712141
  0
ARC
  8
0
 62
     7
  6
CONTINUOUS
 10
4.709466
 20
3.041697
 30
0.000000
 40
0.029046
 50
100.102133
 51
121.827099
  0
ARC
  8
0
 62
     7
  6
CONTINUOUS
 10
4.656699
 20
3.021658
 30
0.000000
 40
0.068103
 50
45.573165
 51
54.710207
  0
ARC
  8
0
 62
     7
  6
CONTINUOUS
 10
4.568281
 20
2.897136
 30
0.000000
 40
0.220823
 50
54.649758
 51
57.545791
  0
ARC
  8
0
 62
     7
  6
CONTINUOUS
 10
4.755094
 20
3.194887
 30
0.000000
 40
0.130691
 50
229.998819
 51
238.485714
  0
ARC
  8
0
 62
     7
  6
CONTINUOUS
 10
4.699731
 20
3.128575
 30
0.000000
 40
0.044307
 50
204.368948
 51
229.719729
  0
ARC
  8
0
 62
     7
  6
CONTINUOUS
 10
4.635874
 20
3.133064
 30
0.000000
 40
0.032721
 50
315.900469
 51
326.615903
  0
ARC
  8
0
 62
     7
  6
CONTINUOUS
 10
4.564350
 20
3.180762
 30
0.000000
 40
0.118690
 50
326.387973
 51
329.524606
  0
ARC
  8
0
 62
     7
  6
CONTINUOUS
 10
4.739081
 20
3.078747
 30
0.000000
 40
0.083644
 50
144.281691
 51
150.002060
  0
ARC
  8
0
 62
     7
  6
CONTINUOUS
 10
4.686251
 20
3.117085
 30
0.000000
 40
0.018371
 50
122.498763
 51
145.167079
  0
ARC
  8
0
 62
     7
  6
CONTINUOUS
 10
4.681133
 20
3.124609
 30
0.000000
 40
0.009280
 50
78.225985
 51
120.804892
  0
ARC
  8
0
 62
     7
  6
CONTINUOUS
 10
4.677946
 20
3.113295
 30
0.000000
 40
0.021021
 50
48.512479
 51
76.013699
  0
ARC
  8
0
 62
     7
  6
CONTINUOUS
 10
5.456661
 20
3.666957
 30
0.000000
 40
0.935017
 50
215.120617
 51
217.398164
  0
ARC
  8
0
 62
     7
  6
CONTINUOUS
 10
4.041185
 20
2.582946
 30
0.000000
 40
0.847862
 50
34.585112
 51
37.498560
  0
ARC
  8
0
 62
     7
  6
CONTINUOUS
 10
4.547943
 20
2.931249
 30
0.000000
 40
0.232951
 50
24.822937
 51
34.806023
  0
ARC
  8
0
 62
     7
  6
CONTINUOUS
 10
5.372338
 20
2.951648
 30
0.000000
 40
0.617834
 50
158.030034
 51
172.803537
  0
ARC
  8
0
 62
     7
  6
CONTINUOUS
 10
4.678628
 20
3.133569
 30
0.000000
 40
0.130391
 50
354.570185
 51
382.179378
  0
ARC
  8
0
 62
     7
  6
CONTINUOUS
 10
4.724039
 20
3.127032
 30
0.000000
 40
0.084594
 50
313.128827
 51
356.067563
  0
LINE
  8
0
 62
     7
  6
CONTINUOUS
 10
4.781871
 20
3.065293
 30
0.000000
 11
4.790621
 21
3.056543
 31
0.000000
  0
ARC
  8
0
 62
     7
  6
CONTINUOUS
 10
4.834912
 20
3.017170
 30
0.000000
 40
0.059261
 50
120.125393
 51
138.364146
  0
ARC
  8
0
 62
     7
  6
CONTINUOUS
 10
4.902095
 20
2.903789
 30
0.000000
 40
0.191051
 50
114.878716
 51
120.486166
  0
ARC
  8
0
 62
     7
  6
CONTINUOUS
 10
4.746024
 20
3.239100
 30
0.000000
 40
0.178803
 50
295.046190
 51
298.837679
  0
ARC
  8
0
 62
     7
  6
CONTINUOUS
 10
4.819704
 20
3.106638
 30
0.000000
 40
0.027238
 50
297.465703
 51
316.222457
  0
ARC
  8
0
 62
     7
  6
CONTINUOUS
 10
5.563728
 20
3.205219
 30
0.000000
 40
0.733813
 50
189.208129
 51
195.260594
  0
ARC
  8
0
 62
     7
  6
CONTINUOUS
 10
4.001038
 20
2.783927
 30
0.000000
 40
0.884675
 50
10.861963
 51
14.944658
  0
ARC
  8
0
 62
     7
  6
CONTINUOUS
 10
4.542207
 20
2.888845
 30
0.000000
 40
0.333433
 50
359.389982
 51
370.680026
  0
LINE
  8
0
 62
     7
  6
CONTINUOUS
 10
4.993120
 20
3.466542
 30
0.000000
 11
4.994107
 21
3.466730
 31
0.000000
  0
ARC
  8
0
 62
     7
  6
CONTINUOUS
 10
5.038280
 20
3.270988
 30
0.000000
 40
0.200664
 50
91.924643
 51
102.716684
  0
ARC
  8
0
 62
     7
  6
CONTINUOUS
 10
5.033329
 20
3.418518
 30
0.000000
 40
0.053051
 50
54.191023
 51
91.932005
  0
ARC
  8
0
 62
     7
  6
CONTINUOUS
 10
5.111661
 20
3.331053
 30
0.000000
 40
0.138794
 50
109.921956
 51
144.555662
  0
ARC
  8
0
 62
     7
  6
CONTINUOUS
 10
5.142479
 20
3.304075
 30
0.000000
 40
0.179593
 50
143.245460
 51
169.989847
  0
ARC
  8
0
 62
     7
  6
CONTINUOUS
 10
5.078342
 20
2.952078
 30
0.000000
 40
0.399448
 50
106.391183
 51
112.938767
  0
ARC
  8
0
 62
     7
  6
CONTINUOUS
 10
4.822843
 20
3.534667
 30
0.000000
 40
0.236793
 50
277.367243
 51
294.931289
  0
ARC
  8
0
 62
     7
  6
CONTINUOUS
 10
4.846859
 20
3.382620
 30
0.000000
 40
0.083035
 50
222.481710
 51
274.383963
  0
ARC
  8
0
 62
     7
  6
CONTINUOUS
 10
4.739627
 20
3.412434
 30
0.000000
 40
0.097431
 50
281.910503
 51
298.168698
  0
ARC
  8
0
 62
     7
  6
CONTINUOUS
 10
4.694226
 20
3.626298
 30
0.000000
 40
0.316061
 50
276.812464
 51
281.962258
  0
ARC
  8
0
 62
     7
  6
CONTINUOUS
 10
4.784043
 20
2.896709
 30
0.000000
 40
0.419039
 50
97.173247
 51
100.264740
  0
ARC
  8
0
 62
     7
  6
CONTINUOUS
 10
4.756552
 20
3.348243
 30
0.000000
 40
0.061342
 50
180.128162
 51
219.722838
  0
ARC
  8
0
 62
     7
  6
CONTINUOUS
 10
4.903581
 20
3.346566
 30
0.000000
 40
0.208376
 50
167.477989
 51
179.576545
  0
ARC
  8
0
 62
     7
  6
CONTINUOUS
 10
4.481284
 20
3.439690
 30
0.000000
 40
0.224066
 50
347.644543
 51
359.185835
  0
ARC
  8
0
 62
     7
  6
CONTINUOUS
 10
4.632342
 20
3.436811
 30
0.000000
 40
0.072987
 50
359.760510
 51
395.351602
  0
ARC
  8
0
 62
     7
  6
CONTINUOUS
 10
3.541380
 20
3.159411
 30
0.000000
 40
1.194066
 50
15.526404
 51
20.836772
  0
ARC
  8
0
 62
     7
  6
CONTINUOUS
 10
5.380003
 20
3.874835
 30
0.000000
 40
0.778925
 50
190.600944
 51
201.912479
  0
ARC
  8
0
 62
     7
  6
CONTINUOUS
 10
4.610816
 20
3.739133
 30
0.000000
 40
0.008387
 50
295.092372
 51
338.048144
  0
ARC
  8
0
 62
     7
  6
CONTINUOUS
 10
4.599899
 20
3.742673
 30
0.000000
 40
0.019852
 50
340.351142
 51
356.600444
  0
ARC
  8
0
 62
     7
  6
CONTINUOUS
 10
4.646905
 20
3.739169
 30
0.000000
 40
0.027289
 50
168.452215
 51
175.108571
  0
ARC
  8
0
 62
     7
  6
CONTINUOUS
 10
4.626474
 20
3.743414
 30
0.000000
 40
0.006422
 50
144.105380
 51
169.063752
  0
ARC
  8
0
 62
     7
  6
CONTINUOUS
 10
4.624888
 20
3.744310
 30
0.000000
 40
0.004617
 50
104.944414
 51
141.570276
  0
ARC
  8
0
 62
     7
  6
CONTINUOUS
 10
4.626617
 20
3.737267
 30
0.000000
 40
0.011868
 50
82.717372
 51
104.241766
  0
ARC
  8
0
 62
     7
  6
CONTINUOUS
 10
4.577035
 20
3.718570
 30
0.000000
 40
0.059483
 50
12.952197
 51
30.813088
  0
ARC
  8
0
 62
     7
  6
CONTINUOUS
 10
4.257264
 20
3.634759
 30
0.000000
 40
0.390031
 50
10.874757
 51
14.422228
  0
ARC
  8
0
 62
     7
  6
CONTINUOUS
 10
4.992812
 20
3.774832
 30
0.000000
 40
0.358736
 50
190.681086
 51
195.470316
  0
ARC
  8
0
 62
     7
  6
CONTINUOUS
 10
4.705155
 20
3.693244
 30
0.000000
 40
0.059769
 50
193.645500
 51
216.815943
  0
ARC
  8
0
 62
     7
  6
CONTINUOUS
 10
4.669304
 20
3.666589
 30
0.000000
 40
0.015096
 50
217.365976
 51
288.582415
  0
ARC
  8
0
 62
     7
  6
CONTINUOUS
 10
4.649255
 20
3.711794
 30
0.000000
 40
0.064497
 50
292.670767
 51
322.788918
  0
ARC
  8
0
 62
     7
  6
CONTINUOUS
 10
4.703917
 20
3.661396
 30
0.000000
 40
0.011860
 50
57.074880
 51
106.131720
  0
ARC
  8
0
 62
     7
  6
CONTINUOUS
 10
4.687674
 20
3.638049
 30
0.000000
 40
0.040297
 50
40.857098
 51
55.732617
  0
ARC
  8
0
 62
     7
  6
CONTINUOUS
 10
4.757896
 20
3.700090
 30
0.000000
 40
0.053409
 50
221.915796
 51
231.204312
  0
ARC
  8
0
 62
     7
  6
CONTINUOUS
 10
4.733709
 20
3.669902
 30
0.000000
 40
0.014728
 50
230.956526
 51
262.830472
  0
ARC
  8
0
 62
     7
  6
CONTINUOUS
 10
2.196332
 20
2.311052
 30
0.000000
 40
2.869832
 50
25.945081
 51
27.930674
  0
ARC
  8
0
 62
     7
  6
CONTINUOUS
 10
5.877367
 20
4.065670
 30
0.000000
 40
1.208311
 50
204.393796
 51
215.862391
  0
ARC
  8
0
 62
     7
  6
CONTINUOUS
 10
4.902241
 20
3.383899
 30
0.000000
 40
0.026430
 50
261.030504
 51
288.841381
  0
ARC
  8
0
 62
     7
  6
CONTINUOUS
 10
4.904284
 20
3.377388
 30
0.000000
 40
0.019609
 50
289.335066
 51
326.418931
  0
ARC
  8
0
 62
     7
  6
CONTINUOUS
 10
3.691021
 20
2.895964
 30
0.000000
 40
1.316571
 50
20.942281
 51
29.613409
  0
ARC
  8
0
 62
     7
  6
CONTINUOUS
 10
4.826425
 20
3.451045
 30
0.000000
 40
0.095938
 50
58.672680
 51
84.499676
  0
ARC
  8
0
 62
     7
  6
CONTINUOUS
 10
4.719824
 20
3.278007
 30
0.000000
 40
0.299176
 50
50.083663
 51
58.463445
  0
ARC
  8
0
 62
     7
  6
CONTINUOUS
 10
5.104683
 20
3.737723
 30
0.000000
 40
0.300371
 50
230.046411
 51
238.794205
  0
ARC
  8
0
 62
     7
  6
CONTINUOUS
 10
5.002243
 20
3.569874
 30
0.000000
 40
0.103734
 50
239.155527
 51
264.954916
  0
ARC
  8
0
 62
     7
  6
CONTINUOUS
 10
4.930056
 20
4.470578
 30
0.000000
 40
0.172898
 50
121.635010
 51
149.594920
  0
ARC
  8
0
 62
     7
  6
CONTINUOUS
 10
5.228021
 20
4.294836
 30
0.000000
 40
0.518828
 50
149.510017
 51
158.529443
  0
ARC
  8
0
 62
     7
  6
CONTINUOUS
 10
3.319390
 20
5.083380
 30
0.000000
 40
1.546381
 50
336.440325
 51
337.224357
  0
ARC
  8
0
 62
     7
  6
CONTINUOUS
 10
4.728829
 20
4.481102
 30
0.000000
 40
0.017743
 50
246.813691
 51
296.951804
  0
ARC
  8
0
 62
     7
  6
CONTINUOUS
 10
4.741183
 20
4.502118
 30
0.000000
 40
0.042039
 50
223.396393
 51
242.610652
  0
ARC
  8
0
 62
     7
  6
CONTINUOUS
 10
4.663422
 20
4.425327
 30
0.000000
 40
0.067264
 50
45.417688
 51
53.288178
  0
ARC
  8
0
 62
     7
  6
CONTINUOUS
 10
4.692006
 20
4.463738
 30
0.000000
 40
0.019384
 50
53.148267
 51
79.249709
  0
ARC
  8
0
 62
     7
  6
CONTINUOUS
 10
4.723723
 20
4.468480
 30
0.000000
 40
0.031532
 50
153.026351
 51
168.700453
  0
ARC
  8
0
 62
     7
  6
CONTINUOUS
 10
4.825729
 20
4.446747
 30
0.000000
 40
0.135826
 50
168.141746
 51
172.253079
  0
ARC
  8
0
 62
     7
  6
CONTINUOUS
 10
4.627118
 20
4.471090
 30
0.000000
 40
0.064309
 50
337.867407
 51
354.616479
  0
ARC
  8
0
 62
     7
  6
CONTINUOUS
 10
4.672893
 20
4.452805
 30
0.000000
 40
0.015021
 50
270.870777
 51
336.692383
  0
ARC
  8
0
 62
     7
  6
CONTINUOUS
 10
4.710502
 20
4.468219
 30
0.000000
 40
0.048203
 50
203.622970
 51
219.151073
  0
ARC
  8
0
 62
     7
  6
CONTINUOUS
 10
4.796123
 20
4.505389
 30
0.000000
 40
0.141545
 50
198.277914
 51
203.520022
  0
ARC
  8
0
 62
     7
  6
CONTINUOUS
 10
4.548551
 20
4.424396
 30
0.000000
 40
0.118941
 50
17.922408
 51
25.297953
  0
ARC
  8
0
 62
     7
  6
CONTINUOUS
 10
4.618040
 20
4.456979
 30
0.000000
 40
0.042193
 50
25.617912
 51
46.896486
  0
ARC
  8
0
 62
     7
  6
CONTINUOUS
 10
4.882832
 20
4.382419
 30
0.000000
 40
0.258417
 50
155.937175
 51
163.823918
  0
ARC
  8
0
 62
     7
  6
CONTINUOUS
 10
4.434243
 20
4.510100
 30
0.000000
 40
0.207996
 50
332.880453
 51
344.470209
  0
ARC
  8
0
 62
     7
  6
CONTINUOUS
 10
4.647145
 20
4.447614
 30
0.000000
 40
0.042621
 50
207.026598
 51
229.334692
  0
ARC
  8
0
 62
     7
  6
CONTINUOUS
 10
4.710996
 20
4.479124
 30
0.000000
 40
0.113821
 50
198.547100
 51
206.550586
  0
ARC
  8
0
 62
     7
  6
CONTINUOUS
 10
4.468866
 20
4.396626
 30
0.000000
 40
0.141979
 50
19.029581
 51
24.087518
  0
ARC
  8
0
 62
     7
  6
CONTINUOUS
 10
4.554438
 20
4.434792
 30
0.000000
 40
0.048282
 50
24.184529
 51
39.165254
  0
ARC
  8
0
 62
     7
  6
CONTINUOUS
 10
4.594200
 20
4.445302
 30
0.000000
 40
0.020118
 50
96.642950
 51
141.728181
  0
ARC
  8
0
 62
     7
  6
CONTINUOUS
 10
4.623325
 20
4.424608
 30
0.000000
 40
0.055830
 50
143.568774
 51
159.032543
  0
ARC
  8
0
 62
     7
  6
CONTINUOUS
 10
4.492609
 20
4.477223
 30
0.000000
 40
0.085090
 50
331.425902
 51
337.445616
  0
ARC
  8
0
 62
     7
  6
CONTINUOUS
 10
4.548447
 20
4.446610
 30
0.000000
 40
0.021412
 50
310.209123
 51
331.900473
  0
ARC
  8
0
 62
     7
  6
CONTINUOUS
 10
4.553604
 20
4.441136
 30
0.000000
 40
0.013908
 50
274.302279
 51
308.544351
  0
ARC
  8
0
 62
     7
  6
CONTINUOUS
 10
4.553129
 20
4.455817
 30
0.000000
 40
0.028590
 50
249.512731
 51
273.044259
  0
ARC
  8
0
 62
     7
  6
CONTINUOUS
 10
4.553031
 20
4.445011
 30
0.000000
 40
0.018800
 50
190.779930
 51
238.191827
  0
ARC
  8
0
 62
     7
  6
CONTINUOUS
 10
4.598070
 20
4.452706
 30
0.000000
 40
0.064489
 50
175.863502
 51
190.011540
  0
ARC
  8
0
 62
     7
  6
CONTINUOUS
 10
4.476762
 20
4.461821
 30
0.000000
 40
0.057162
 50
355.522721
 51
370.735288
  0
ARC
  8
0
 62
     7
  6
CONTINUOUS
 10
4.518896
 20
4.469541
 30
0.000000
 40
0.014330
 50
11.787978
 51
67.527470
  0
ARC
  8
0
 62
     7
  6
CONTINUOUS
 10
4.611287
 20
4.433708
 30
0.000000
 40
0.099811
 50
150.549584
 51
159.937858
  0
ARC
  8
0
 62
     7
  6
CONTINUOUS
 10
4.443605
 20
4.492853
 30
0.000000
 40
0.078010
 50
323.463544
 51
341.381382
  0
ARC
  8
0
 62
     7
  6
CONTINUOUS
 10
4.487694
 20
4.461491
 30
0.000000
 40
0.023937
 50
262.025506
 51
320.951980
  0
ARC
  8
0
 62
     7
  6
CONTINUOUS
 10
4.510908
 20
4.468321
 30
0.000000
 40
0.040454
 50
192.172549
 51
229.010813
  0
ARC
  8
0
 62
     7
  6
CONTINUOUS
 10
4.559720
 20
4.474911
 30
0.000000
 40
0.089641
 50
174.768758
 51
189.710688
  0
ARC
  8
0
 62
     7
  6
CONTINUOUS
 10
4.362714
 20
4.491582
 30
0.000000
 40
0.108072
 50
355.490374
 51
366.428763
  0
ARC
  8
0
 62
     7
  6
CONTINUOUS
 10
4.426733
 20
4.497975
 30
0.000000
 40
0.043749
 50
7.495450
 51
36.559033
  0
ARC
  8
0
 62
     7
  6
CONTINUOUS
 10
5.296697
 20
4.221633
 30
0.000000
 40
0.887906
 50
160.087889
 51
160.513252
  0
ARC
  8
0
 62
     7
  6
CONTINUOUS
 10
4.301939
 20
4.565941
 30
0.000000
 40
0.164888
 50
327.391639
 51
343.034717
  0
ARC
  8
0
 62
     7
  6
CONTINUOUS
 10
4.403317
 20
4.501061
 30
0.000000
 40
0.044526
 50
269.749585
 51
327.419165
  0
ARC
  8
0
 62
     7
  6
CONTINUOUS
 10
4.540387
 20
4.463013
 30
0.000000
 40
0.137417
 50
168.288465
 51
182.701781
  0
ARC
  8
0
 62
     7
  6
CONTINUOUS
 10
4.900449
 20
4.390703
 30
0.000000
 40
0.504667
 50
164.340041
 51
168.547599
  0
ARC
  8
0
 62
     7
  6
CONTINUOUS
 10
4.052974
 20
4.632526
 30
0.000000
 40
0.376648
 50
343.717868
 51
351.643068
  0
ARC
  8
0
 62
     7
  6
CONTINUOUS
 10
4.458632
 20
4.521369
 30
0.000000
 40
0.065363
 50
120.332546
 51
141.198205
  0
ARC
  8
0
 62
     7
  6
CONTINUOUS
 10
4.633593
 20
4.375937
 30
0.000000
 40
0.292869
 50
140.473898
 51
145.836491
  0
ARC
  8
0
 62
     7
  6
CONTINUOUS
 10
4.205992
 20
4.661752
 30
0.000000
 40
0.221476
 50
315.564848
 51
326.775100
  0
ARC
  8
0
 62
     7
  6
CONTINUOUS
 10
4.317538
 20
4.552346
 30
0.000000
 40
0.065232
 50
278.229092
 51
315.589044
  0
ARC
  8
0
 62
     7
  6
CONTINUOUS
 10
4.341722
 20
4.496000
 30
0.000000
 40
0.016969
 50
184.942687
 51
208.954874
  0
ARC
  8
0
 62
     7
  6
CONTINUOUS
 10
4.383358
 20
4.501003
 30
0.000000
 40
0.058897
 50
176.979377
 51
186.301299
  0
ARC
  8
0
 62
     7
  6
CONTINUOUS
 10
4.612766
 20
4.486852
 30
0.000000
 40
0.288739
 50
171.818130
 51
176.574142
  0
ARC
  8
0
 62
     7
  6
CONTINUOUS
 10
4.035896
 20
4.569648
 30
0.000000
 40
0.294042
 50
351.846233
 51
356.480830
  0
ARC
  8
0
 62
     7
  6
CONTINUOUS
 10
4.296545
 20
4.555611
 30
0.000000
 40
0.033082
 50
353.035169
 51
382.070111
  0
ARC
  8
0
 62
     7
  6
CONTINUOUS
 10
4.321638
 20
4.565166
 30
0.000000
 40
0.006264
 50
27.324846
 51
77.929444
  0
ARC
  8
0
 62
     7
  6
CONTINUOUS
 10
4.321419
 20
4.559254
 30
0.000000
 40
0.012134
 50
82.759115
 51
117.486891
  0
ARC
  8
0
 62
     7
  6
CONTINUOUS
 10
4.362837
 20
4.484048
 30
0.000000
 40
0.097988
 50
118.675017
 51
137.472520
  0
ARC
  8
0
 62
     7
  6
CONTINUOUS
 10
4.337744
 20
4.572715
 30
0.000000
 40
0.052187
 50
172.610184
 51
205.458410
  0
ARC
  8
0
 62
     7
  6
CONTINUOUS
 10
4.431264
 20
4.558623
 30
0.000000
 40
0.146756
 50
160.560476
 51
171.850291
  0
ARC
  8
0
 62
     7
  6
CONTINUOUS
 10
4.104652
 20
4.670543
 30
0.000000
 40
0.198511
 50
341.472870
 51
347.201254
  0
ARC
  8
0
 62
     7
  6
CONTINUOUS
 10
4.242707
 20
4.639354
 30
0.000000
 40
0.056976
 50
347.030787
 51
365.973976
  0
ARC
  8
0
 62
     7
  6
CONTINUOUS
 10
4.342374
 20
4.572776
 30
0.000000
 40
0.084300
 50
120.669246
 51
130.991087
  0
ARC
  8
0
 62
     7
  6
CONTINUOUS
 10
4.231689
 20
4.699663
 30
0.000000
 40
0.084080
 50
299.016999
 51
311.206285
  0
ARC
  8
0
 62
     7
  6
CONTINUOUS
 10
4.258133
 20
4.653022
 30
0.000000
 40
0.030471
 50
262.915051
 51
298.076065
  0
ARC
  8
0
 62
     7
  6
CONTINUOUS
 10
4.340857
 20
4.620197
 30
0.000000
 40
0.086522
 50
156.757793
 51
178.286503
  0
ARC
  8
0
 62
     7
  6
CONTINUOUS
 10
4.565748
 20
4.526763
 30
0.000000
 40
0.330045
 50
151.192439
 51
157.260248
  0
ARC
  8
0
 62
     7
  6
CONTINUOUS
 10
3.893227
 20
4.892591
 30
0.000000
 40
0.435542
 50
331.654471
 51
334.982435
  0
ARC
  8
0
 62
     7
  6
CONTINUOUS
 10
4.185350
 20
4.756881
 30
0.000000
 40
0.113437
 50
334.699882
 51
346.438679
  0
ARC
  8
0
 62
     7
  6
CONTINUOUS
 10
4.127133
 20
4.936413
 30
0.000000
 40
0.266232
 50
301.148437
 51
309.262482
  0
ARC
  8
0
 62
     7
  6
CONTINUOUS
 10
4.216809
 20
4.788825
 30
0.000000
 40
0.093537
 50
290.616835
 51
300.899107
  0
ARC
  8
0
 62
     7
  6
CONTINUOUS
 10
4.237994
 20
4.730606
 30
0.000000
 40
0.031595
 50
267.969713
 51
291.835911
  0
ARC
  8
0
 62
     7
  6
CONTINUOUS
 10
4.250610
 20
4.707846
 30
0.000000
 40
0.016321
 50
174.326666
 51
212.688489
  0
ARC
  8
0
 62
     7
  6
CONTINUOUS
 10
4.265856
 20
4.705922
 30
0.000000
 40
0.031685
 50
151.964054
 51
173.589534
  0
ARC
  8
0
 62
     7
  6
CONTINUOUS
 10
4.359467
 20
4.652972
 30
0.000000
 40
0.139226
 50
139.273591
 51
150.837743
  0
ARC
  8
0
 62
     7
  6
CONTINUOUS
 10
4.136794
 20
4.842025
 30
0.000000
 40
0.152884
 50
320.027523
 51
326.562741
  0
ARC
  8
0
 62
     7
  6
CONTINUOUS
 10
4.251794
 20
4.760522
 30
0.000000
 40
0.012875
 50
347.714926
 51
382.843484
  0
ARC
  8
0
 62
     7
  6
CONTINUOUS
 10
4.254163
 20
4.760790
 30
0.000000
 40
0.010609
 50
26.476642
 51
62.332324
  0
ARC
  8
0
 62
     7
  6
CONTINUOUS
 10
4.245991
 20
4.745452
 30
0.000000
 40
0.027988
 50
62.095423
 51
77.944706
  0
ARC
  8
0
 62
     7
  6
CONTINUOUS
 10
4.224051
 20
4.649439
 30
0.000000
 40
0.126474
 50
77.308988
 51
81.349067
  0
ARC
  8
0
 62
     7
  6
CONTINUOUS
 10
4.255224
 20
4.862878
 30
0.000000
 40
0.089234
 50
253.310439
 51
262.174487
  0
ARC
  8
0
 62
     7
  6
CONTINUOUS
 10
4.235035
 20
4.796986
 30
0.000000
 40
0.020324
 50
219.596866
 51
254.481174
  0
ARC
  8
0
 62
     7
  6
CONTINUOUS
 10
4.358619
 20
4.632805
 30
0.000000
 40
0.205568
 50
124.419278
 51
132.637927
  0
ARC
  8
0
 62
     7
  6
CONTINUOUS
 10
4.152005
 20
4.937562
 30
0.000000
 40
0.162631
 50
303.777446
 51
318.137801
  0
ARC
  8
0
 62
     7
  6
CONTINUOUS
 10
4.265238
 20
4.930529
 30
0.000000
 40
0.101803
 50
257.565806
 51
274.442759
  0
ARC
  8
0
 62
     7
  6
CONTINUOUS
 10
4.246125
 20
4.843067
 30
0.000000
 40
0.012278
 50
224.973400
 51
256.785080
  0
ARC
  8
0
 62
     7
  6
CONTINUOUS
 10
4.241249
 20
4.837712
 30
0.000000
 40
0.005056
 50
167.002698
 51
221.093969
  0
ARC
  8
0
 62
     7
  6
CONTINUOUS
 10
4.261001
 20
4.829915
 30
0.000000
 40
0.026245
 50
128.643814
 51
160.097316
  0
ARC
  8
0
 62
     7
  6
CONTINUOUS
 10
4.415919
 20
4.664158
 30
0.000000
 40
0.253056
 50
127.846982
 51
132.606202
  0
ARC
  8
0
 62
     7
  6
CONTINUOUS
 10
4.115652
 20
5.051547
 30
0.000000
 40
0.237078
 50
307.707345
 51
313.223404
  0
ARC
  8
0
 62
     7
  6
CONTINUOUS
 10
4.263964
 20
4.896750
 30
0.000000
 40
0.022801
 50
308.036744
 51
346.731158
  0
ARC
  8
0
 62
     7
  6
CONTINUOUS
 10
4.280322
 20
4.891699
 30
0.000000
 40
0.005837
 50
358.210576
 51
413.315558
  0
ARC
  8
0
 62
     7
  6
CONTINUOUS
 10
4.272070
 20
4.880124
 30
0.000000
 40
0.020051
 50
54.163654
 51
79.851023
  0
ARC
  8
0
 62
     7
  6
CONTINUOUS
 10
4.249562
 20
4.745854
 30
0.000000
 40
0.156194
 50
80.402572
 51
94.659283
  0
ARC
  8
0
 62
     7
  6
CONTINUOUS
 10
4.256784
 20
4.903965
 30
0.000000
 40
0.020058
 50
149.874748
 51
186.969998
  0
ARC
  8
0
 62
     7
  6
CONTINUOUS
 10
4.270831
 20
4.895223
 30
0.000000
 40
0.036599
 50
127.351134
 51
149.073375
  0
ARC
  8
0
 62
     7
  6
CONTINUOUS
 10
4.336942
 20
4.803433
 30
0.000000
 40
0.149708
 50
114.060879
 51
126.151435
  0
ARC
  8
0
 62
     7
  6
CONTINUOUS
 10
4.205010
 20
5.092283
 30
0.000000
 40
0.167856
 50
294.983512
 51
300.833287
  0
ARC
  8
0
 62
     7
  6
CONTINUOUS
 10
4.284751
 20
4.961423
 30
0.000000
 40
0.014687
 50
295.365482
 51
337.741143
  0
ARC
  8
0
 62
     7
  6
CONTINUOUS
 10
4.293311
 20
4.956793
 30
0.000000
 40
0.005119
 50
349.493207
 51
397.148052
  0
ARC
  8
0
 62
     7
  6
CONTINUOUS
 10
4.284370
 20
4.949950
 30
0.000000
 40
0.016378
 50
37.342755
 51
60.315142
  0
ARC
  8
0
 62
     7
  6
CONTINUOUS
 10
4.239502
 20
4.868243
 30
0.000000
 40
0.109592
 50
61.090624
 51
74.860312
  0
ARC
  8
0
 62
     7
  6
CONTINUOUS
 10
4.648796
 20
4.250207
 30
0.000000
 40
0.817822
 50
109.388578
 51
117.740666
  0
ARC
  8
0
 62
     7
  6
CONTINUOUS
 10
3.164162
 20
8.230175
 30
0.000000
 40
3.430211
 50
290.711534
 51
291.173337
  0
ARC
  8
0
 62
     7
  6
CONTINUOUS
 10
4.423762
 20
5.052742
 30
0.000000
 40
0.029596
 50
207.943691
 51
225.781119
  0
ARC
  8
0
 62
     7
  6
CONTINUOUS
 10
4.403824
 20
5.042427
 30
0.000000
 40
0.007152
 50
165.577917
 51
209.794232
  0
ARC
  8
0
 62
     7
  6
CONTINUOUS
 10
4.403075
 20
5.041820
 30
0.000000
 40
0.006623
 50
114.965098
 51
158.865202
  0
ARC
  8
0
 62
     7
  6
CONTINUOUS
 10
4.410765
 20
5.026843
 30
0.000000
 40
0.023456
 50
99.055911
 51
116.554566
  0
ARC
  8
0
 62
     7
  6
CONTINUOUS
 10
4.424100
 20
4.937717
 30
0.000000
 40
0.113573
 50
87.952547
 51
98.622016
  0
ARC
  8
0
 62
     7
  6
CONTINUOUS
 10
4.413745
 20
4.371402
 30
0.000000
 40
0.679968
 50
86.550766
 51
88.785460
  0
ARC
  8
0
 62
     7
  6
CONTINUOUS
 10
4.495317
 20
5.724457
 30
0.000000
 40
0.675544
 50
266.549109
 51
268.788845
  0
ARC
  8
0
 62
     7
  6
CONTINUOUS
 10
4.485039
 20
5.159615
 30
0.000000
 40
0.110623
 50
267.927355
 51
278.753012
  0
ARC
  8
0
 62
     7
  6
CONTINUOUS
 10
4.496408
 20
5.062942
 30
0.000000
 40
0.013791
 50
293.347143
 51
350.194764
  0
ARC
  8
0
 62
     7
  6
CONTINUOUS
 10
4.492551
 20
5.062615
 30
0.000000
 40
0.017563
 50
353.389297
 51
395.365800
  0
ARC
  8
0
 62
     7
  6
CONTINUOUS
 10
4.676843
 20
5.576126
 30
0.000000
 40
0.531269
 50
251.341264
 51
267.710735
  0
ARC
  8
0
 62
     7
  6
CONTINUOUS
 10
4.650506
 20
5.054015
 30
0.000000
 40
0.010121
 50
300.356227
 51
329.436498
  0
ARC
  8
0
 62
     7
  6
CONTINUOUS
 10
4.652927
 20
5.052273
 30
0.000000
 40
0.007156
 50
331.593749
 51
364.020463
  0
ARC
  8
0
 62
     7
  6
CONTINUOUS
 10
4.646477
 20
5.051701
 30
0.000000
 40
0.013630
 50
4.516311
 51
22.087647
  0
ARC
  8
0
 62
     7
  6
CONTINUOUS
 10
4.612861
 20
5.038427
 30
0.000000
 40
0.049772
 50
21.695250
 51
26.775637
  0
ARC
  8
0
 62
     7
  6
CONTINUOUS
 10
4.698391
 20
5.081610
 30
0.000000
 40
0.046041
 50
201.846742
 51
206.802971
  0
ARC
  8
0
 62
     7
  6
CONTINUOUS
 10
4.664602
 20
5.068222
 30
0.000000
 40
0.009698
 50
182.648897
 51
202.717659
  0
ARC
  8
0
 62
     7
  6
CONTINUOUS
 10
4.659118
 20
5.067903
 30
0.000000
 40
0.004206
 50
140.275345
 51
181.759967
  0
ARC
  8
0
 62
     7
  6
CONTINUOUS
 10
4.661680
 20
5.065228
 30
0.000000
 40
0.007898
 50
106.999228
 51
137.223914
  0
ARC
  8
0
 62
     7
  6
CONTINUOUS
 10
4.869815
 20
5.596798
 30
0.000000
 40
0.564696
 50
248.119792
 51
257.408308
  0
ARC
  8
0
 62
     7
  6
CONTINUOUS
 10
4.654229
 20
4.597524
 30
0.000000
 40
0.457603
 50
63.654410
 51
78.340270
  0
ARC
  8
0
 62
     7
  6
CONTINUOUS
 10
4.789968
 20
4.879204
 30
0.000000
 40
0.144980
 50
15.944048
 51
62.324140
  0
ARC
  8
0
 62
     7
  6
CONTINUOUS
 10
4.950567
 20
4.876026
 30
0.000000
 40
0.047944
 50
90.406083
 51
116.238736
  0
ARC
  8
0
 62
     7
  6
CONTINUOUS
 10
4.949583
 20
4.897151
 30
0.000000
 40
0.026826
 50
54.363744
 51
88.624191
  0
ARC
  8
0
 62
     7
  6
CONTINUOUS
 10
4.936710
 20
4.880866
 30
0.000000
 40
0.047572
 50
33.412664
 51
53.189829
  0
ARC
  8
0
 62
     7
  6
CONTINUOUS
 10
4.813807
 20
4.797662
 30
0.000000
 40
0.195988
 50
28.564855
 51
33.931343
  0
ARC
  8
0
 62
     7
  6
CONTINUOUS
 10
5.105749
 20
4.953254
 30
0.000000
 40
0.134847
 50
207.315592
 51
220.272389
  0
ARC
  8
0
 62
     7
  6
CONTINUOUS
 10
5.035833
 20
4.894719
 30
0.000000
 40
0.043667
 50
220.972282
 51
261.488641
  0
ARC
  8
0
 62
     7
  6
CONTINUOUS
 10
4.956140
 20
4.733980
 30
0.000000
 40
0.138496
 50
11.474489
 51
58.078859
  0
ARC
  8
0
 62
     7
  6
CONTINUOUS
 10
4.898624
 20
4.748179
 30
0.000000
 40
0.193705
 50
317.688531
 51
363.952711
  0
ARC
  8
0
 62
     7
  6
CONTINUOUS
 10
4.938417
 20
4.603155
 30
0.000000
 40
0.104481
 50
8.048961
 51
74.907959
  0
ARC
  8
0
 62
     7
  6
CONTINUOUS
 10
4.963022
 20
4.462233
 30
0.000000
 40
0.241813
 50
89.384371
 51
97.738062
  0
ARC
  8
0
 62
     7
  6
CONTINUOUS
 10
4.942663
 20
4.601652
 30
0.000000
 40
0.100932
 50
96.942250
 51
118.585220
  0
ARC
  8
0
 62
     7
  6
CONTINUOUS
 10
5.067515
 20
4.837878
 30
0.000000
 40
0.227517
 50
220.445799
 51
229.130888
  0
ARC
  8
0
 62
     7
  6
CONTINUOUS
 10
4.771829
 20
4.496276
 30
0.000000
 40
0.224282
 50
40.750335
 51
49.110892
  0
ARC
  8
0
 62
     7
  6
CONTINUOUS
 10
4.885237
 20
4.594509
 30
0.000000
 40
0.074247
 50
15.247122
 51
40.450512
  0
ARC
  8
0
 62
     7
  6
CONTINUOUS
 10
4.902351
 20
4.519291
 30
0.000000
 40
0.109310
 50
60.082154
 51
91.480781
  0
ARC
  8
0
 62
     7
  6
CONTINUOUS
 10
4.906028
 20
4.419050
 30
0.000000
 40
0.209615
 50
91.777324
 51
108.541897
  0
ARC
  8
0
 62
     7
  6
CONTINUOUS
 10
5.262446
 20
4.231772
 30
0.000000
 40
0.269604
 50
177.393038
 51
180.025549
  0
ARC
  8
0
 62
     7
  6
CONTINUOUS
 10
4.841050
 20
4.227297
 30
0.000000
 40
0.151854
 50
348.492479
 51
361.643679
  0
ARC
  8
0
 62
     7
  6
CONTINUOUS
 10
4.944045
 20
4.206215
 30
0.000000
 40
0.046724
 50
304.665055
 51
348.628106
  0
ARC
  8
0
 62
     7
  6
CONTINUOUS
 10
4.976755
 20
4.185320
 30
0.000000
 40
0.018577
 50
210.920481
 51
250.716852
  0
ARC
  8
0
 62
     7
  6
CONTINUOUS
 10
4.984356
 20
4.188585
 30
0.000000
 40
0.026798
 50
181.027659
 51
208.557342
  0
ARC
  8
0
 62
     7
  6
CONTINUOUS
 10
5.084724
 20
4.186658
 30
0.000000
 40
0.127170
 50
165.197976
 51
179.348297
  0
ARC
  8
0
 62
     7
  6
CONTINUOUS
 10
4.655422
 20
4.287719
 30
0.000000
 40
0.313933
 50
347.383242
 51
349.838158
  0
ARC
  8
0
 62
     7
  6
CONTINUOUS
 10
4.894277
 20
4.245378
 30
0.000000
 40
0.071356
 50
349.465817
 51
358.922043
  0
ARC
  8
0
 62
     7
  6
CONTINUOUS
 10
4.979370
 20
4.238639
 30
0.000000
 40
0.014771
 50
21.426260
 51
158.573740
  0
ARC
  8
0
 62
     7
  6
CONTINUOUS
 10
4.850942
 20
4.512781
 30
0.000000
 40
0.065940
 50
1.087364
 51
7.016841
  0
ARC
  8
0
 62
     7
  6
CONTINUOUS
 10
4.952890
 20
4.526434
 30
0.000000
 40
0.036929
 50
174.265651
 51
188.719371
  0
ARC
  8
0
 62
     7
  6
CONTINUOUS
 10
4.924154
 20
4.529300
 30
0.000000
 40
0.008050
 50
116.035827
 51
174.119471
  0
ARC
  8
0
 62
     7
  6
CONTINUOUS
 10
4.928312
 20
4.524345
 30
0.000000
 40
0.014411
 50
35.835240
 51
122.256635
  0
ARC
  8
0
 62
     7
  6
CONTINUOUS
 10
4.901934
 20
4.505153
 30
0.000000
 40
0.047032
 50
10.881682
 51
35.975704
  0
ARC
  8
0
 62
     7
  6
CONTINUOUS
 10
4.970478
 20
4.508094
 30
0.000000
 40
0.023133
 50
165.124813
 51
181.864082
  0
ARC
  8
0
 62
     7
  6
CONTINUOUS
 10
5.050859
 20
4.509527
 30
0.000000
 40
0.103525
 50
181.209898
 51
185.496956
  0
ARC
  8
0
 62
     7
  6
CONTINUOUS
 10
4.846456
 20
4.489717
 30
0.000000
 40
0.101836
 50
0.703931
 51
5.574943
  0
ARC
  8
0
 62
     7
  6
CONTINUOUS
 10
4.922607
 20
4.490413
 30
0.000000
 40
0.025683
 50
343.504905
 51
361.239821
  0
ARC
  8
0
 62
     7
  6
CONTINUOUS
 10
4.935740
 20
4.486606
 30
0.000000
 40
0.012010
 50
307.854387
 51
343.127756
  0
ARC
  8
0
 62
     7
  6
CONTINUOUS
 10
4.933219
 20
4.491190
 30
0.000000
 40
0.017196
 50
273.839034
 51
305.114401
  0
ARC
  8
0
 62
     7
  6
CONTINUOUS
 10
4.932949
 20
4.486967
 30
0.000000
 40
0.013013
 50
242.820910
 51
276.269688
  0
ARC
  8
0
 62
     7
  6
CONTINUOUS
 10
4.931711
 20
4.483319
 30
0.000000
 40
0.009219
 50
201.611169
 51
239.305537
  0
ARC
  8
0
 62
     7
  6
CONTINUOUS
 10
4.944428
 20
4.488323
 30
0.000000
 40
0.022885
 50
184.232917
 51
201.534240
  0
ARC
  8
0
 62
     7
  6
CONTINUOUS
 10
5.023416
 20
4.495375
 30
0.000000
 40
0.102185
 50
180.474068
 51
184.906833
  0
ARC
  8
0
 62
     7
  6
CONTINUOUS
 10
4.843605
 20
4.494731
 30
0.000000
 40
0.077630
 50
359.851255
 51
367.854284
  0
ARC
  8
0
 62
     7
  6
CONTINUOUS
 10
4.903596
 20
4.503373
 30
0.000000
 40
0.017025
 50
6.632338
 51
38.763615
  0
ARC
  8
0
 62
     7
  6
CONTINUOUS
 10
4.909745
 20
4.405478
 30
0.000000
 40
0.033882
 50
330.968978
 51
358.676873
  0
ARC
  8
0
 62
     7
  6
CONTINUOUS
 10
4.797870
 20
4.410353
 30
0.000000
 40
0.145858
 50
357.776901
 51
364.985312
  0
ARC
  8
0
 62
     7
  6
CONTINUOUS
 10
5.024919
 20
4.433408
 30
0.000000
 40
0.082399
 50
168.668161
 51
187.236407
  0
ARC
  8
0
 62
     7
  6
CONTINUOUS
 10
4.964657
 20
4.444254
 30
0.000000
 40
0.021215
 50
97.549029
 51
165.409062
  0
ARC
  8
0
 62
     7
  6
CONTINUOUS
 10
5.387480
 20
4.531983
 30
0.000000
 40
0.430804
 50
188.906382
 51
195.227025
  0
ARC
  8
0
 62
     7
  6
CONTINUOUS
 10
4.652547
 20
4.326314
 30
0.000000
 40
0.332389
 50
4.233611
 51
16.161666
  0
ARC
  8
0
 62
     7
  6
CONTINUOUS
 10
4.894171
 20
4.343962
 30
0.000000
 40
0.090122
 50
322.448580
 51
364.384532
  0
ARC
  8
0
 62
     7
  6
CONTINUOUS
 10
4.991908
 20
4.313036
 30
0.000000
 40
0.035596
 50
181.184670
 51
222.396917
  0
ARC
  8
0
 62
     7
  6
CONTINUOUS
 10
5.070627
 20
4.313362
 30
0.000000
 40
0.114313
 50
167.636772
 51
180.532115
  0
ARC
  8
0
 62
     7
  6
CONTINUOUS
 10
4.783578
 20
4.371977
 30
0.000000
 40
0.178679
 50
348.984825
 51
353.978393
  0
ARC
  8
0
 62
     7
  6
CONTINUOUS
 10
4.915411
 20
4.358386
 30
0.000000
 40
0.046149
 50
353.589398
 51
371.293331
  0
ARC
  8
0
 62
     7
  6
CONTINUOUS
 10
4.935426
 20
4.362026
 30
0.000000
 40
0.025811
 50
12.069464
 51
42.972246
  0
ARC
  8
0
 62
     7
  6
CONTINUOUS
 10
4.926568
 20
4.352155
 30
0.000000
 40
0.039039
 50
44.710565
 51
70.855666
  0
ARC
  8
0
 62
     7
  6
CONTINUOUS
 10
4.965194
 20
4.087185
 30
0.000000
 40
0.018448
 50
225.081446
 51
259.622191
  0
ARC
  8
0
 62
     7
  6
CONTINUOUS
 10
4.962254
 20
4.083002
 30
0.000000
 40
0.013440
 50
183.318980
 51
221.362316
  0
ARC
  8
0
 62
     7
  6
CONTINUOUS
 10
4.982900
 20
4.084227
 30
0.000000
 40
0.034121
 50
166.235948
 51
183.364985
  0
ARC
  8
0
 62
     7
  6
CONTINUOUS
 10
5.095287
 20
4.058503
 30
0.000000
 40
0.149411
 50
162.480956
 51
166.908681
  0
ARC
  8
0
 62
     7
  6
CONTINUOUS
 10
4.791148
 20
4.153996
 30
0.000000
 40
0.169367
 50
342.646317
 51
346.162627
  0
ARC
  8
0
 62
     7
  6
CONTINUOUS
 10
4.915282
 20
4.123737
 30
0.000000
 40
0.041599
 50
345.739282
 51
358.689682
  0
ARC
  8
0
 62
     7
  6
CONTINUOUS
 10
4.892183
 20
4.122382
 30
0.000000
 40
0.064689
 50
0.357594
 51
2.281082
  0
ARC
  8
0
 62
     7
  6
CONTINUOUS
 10
4.978227
 20
4.126858
 30
0.000000
 40
0.021491
 50
167.161286
 51
185.076163
  0
ARC
  8
0
 62
     7
  6
CONTINUOUS
 10
4.964257
 20
4.129690
 30
0.000000
 40
0.007249
 50
109.225718
 51
164.452398
  0
ARC
  8
0
 62
     7
  6
CONTINUOUS
 10
4.958728
 20
4.116527
 30
0.000000
 40
0.020253
 50
27.851484
 51
81.075363
  0
ARC
  8
0
 62
     7
  6
CONTINUOUS
 10
4.940533
 20
4.106485
 30
0.000000
 40
0.041034
 50
358.761435
 51
388.379617
  0
ARC
  8
0
 62
     7
  6
CONTINUOUS
 10
4.932074
 20
4.105319
 30
0.000000
 40
0.049484
 50
334.226266
 51
360.323409
  0
ARC
  8
0
 62
     7
  6
CONTINUOUS
 10
4.949248
 20
4.096427
 30
0.000000
 40
0.030157
 50
294.743767
 51
335.252353
  0
ARC
  8
0
 62
     7
  6
CONTINUOUS
 10
4.978154
 20
4.022317
 30
0.000000
 40
0.016534
 50
334.841675
 51
345.391766
  0
ARC
  8
0
 62
     7
  6
CONTINUOUS
 10
4.915663
 20
4.039370
 30
0.000000
 40
0.081310
 50
344.870161
 51
347.418572
  0
ARC
  8
0
 62
     7
  6
CONTINUOUS
 10
5.032323
 20
4.014497
 30
0.000000
 40
0.037984
 50
157.214416
 51
169.132414
  0
ARC
  8
0
 62
     7
  6
CONTINUOUS
 10
5.004375
 20
4.026066
 30
0.000000
 40
0.007738
 50
132.271288
 51
156.051787
  0
ARC
  8
0
 62
     7
  6
CONTINUOUS
 10
5.001832
 20
4.028727
 30
0.000000
 40
0.004060
 50
89.458247
 51
130.963935
  0
ARC
  8
0
 62
     7
  6
CONTINUOUS
 10
5.005500
 20
4.012538
 30
0.000000
 40
0.020571
 50
68.504991
 51
100.162222
  0
ARC
  8
0
 62
     7
  6
CONTINUOUS
 10
5.007365
 20
4.019263
 30
0.000000
 40
0.013650
 50
28.242172
 51
65.443448
  0
ARC
  8
0
 62
     7
  6
CONTINUOUS
 10
4.991926
 20
4.011205
 30
0.000000
 40
0.031064
 50
9.804740
 51
27.860610
  0
ARC
  8
0
 62
     7
  6
CONTINUOUS
 10
4.891133
 20
3.992263
 30
0.000000
 40
0.133619
 50
5.717453
 51
10.448725
  0
ARC
  8
0
 62
     7
  6
CONTINUOUS
 10
5.152891
 20
4.018308
 30
0.000000
 40
0.129432
 50
185.645843
 51
190.850155
  0
ARC
  8
0
 62
     7
  6
CONTINUOUS
 10
5.056371
 20
3.999449
 30
0.000000
 40
0.031089
 50
190.200946
 51
209.716027
  0
ARC
  8
0
 62
     7
  6
CONTINUOUS
 10
5.023883
 20
3.986412
 30
0.000000
 40
0.005978
 50
285.871691
 51
336.609585
  0
ARC
  8
0
 62
     7
  6
CONTINUOUS
 10
5.025172
 20
3.986061
 30
0.000000
 40
0.005411
 50
224.696250
 51
273.665328
  0
ARC
  8
0
 62
     7
  6
CONTINUOUS
 10
5.041134
 20
4.004479
 30
0.000000
 40
0.029769
 50
215.017348
 51
228.289840
  0
ARC
  8
0
 62
     7
  6
CONTINUOUS
 10
5.161616
 20
4.092372
 30
0.000000
 40
0.178899
 50
213.105865
 51
215.929258
  0
ARC
  8
0
 62
     7
  6
CONTINUOUS
 10
4.889989
 20
3.916668
 30
0.000000
 40
0.144604
 50
32.638901
 51
38.551659
  0
ARC
  8
0
 62
     7
  6
CONTINUOUS
 10
4.978729
 20
3.988351
 30
0.000000
 40
0.030541
 50
37.135291
 51
61.886191
  0
ARC
  8
0
 62
     7
  6
CONTINUOUS
 10
5.137770
 20
4.560997
 30
0.000000
 40
0.139315
 50
221.307563
 51
230.889623
  0
ARC
  8
0
 62
     7
  6
CONTINUOUS
 10
5.354943
 20
4.826353
 30
0.000000
 40
0.482211
 50
230.756522
 51
233.661262
  0
ARC
  8
0
 62
     7
  6
CONTINUOUS
 10
4.943037
 20
4.254893
 30
0.000000
 40
0.222299
 50
42.593335
 51
55.419682
  0
ARC
  8
0
 62
     7
  6
CONTINUOUS
 10
5.059502
 20
4.362661
 30
0.000000
 40
0.063626
 50
358.985132
 51
402.130685
  0
ARC
  8
0
 62
     7
  6
CONTINUOUS
 10
5.113461
 20
4.366497
 30
0.000000
 40
0.010858
 50
265.733202
 51
332.802788
  0
ARC
  8
0
 62
     7
  6
CONTINUOUS
 10
5.114699
 20
4.375147
 30
0.000000
 40
0.019584
 50
224.031924
 51
264.005477
  0
ARC
  8
0
 62
     7
  6
CONTINUOUS
 10
5.164742
 20
4.454629
 30
0.000000
 40
0.113042
 50
210.390331
 51
235.440875
  0
ARC
  8
0
 62
     7
  6
CONTINUOUS
 10
5.364422
 20
4.570551
 30
0.000000
 40
0.343930
 50
202.007781
 51
210.220249
  0
ARC
  8
0
 62
     7
  6
CONTINUOUS
 10
4.541975
 20
4.229408
 30
0.000000
 40
0.546484
 50
22.855771
 51
26.007528
  0
ARC
  8
0
 62
     7
  6
CONTINUOUS
 10
5.201259
 20
4.105752
 30
0.000000
 40
0.119950
 50
222.173089
 51
240.321883
  0
ARC
  8
0
 62
     7
  6
CONTINUOUS
 10
5.159022
 20
4.070410
 30
0.000000
 40
0.064956
 50
196.892467
 51
224.082574
  0
ARC
  8
0
 62
     7
  6
CONTINUOUS
 10
5.115928
 20
4.061955
 30
0.000000
 40
0.021722
 50
167.507006
 51
208.665118
  0
ARC
  8
0
 62
     7
  6
CONTINUOUS
 10
5.109393
 20
4.062465
 30
0.000000
 40
0.015259
 50
118.204107
 51
164.065378
  0
ARC
  8
0
 62
     7
  6
CONTINUOUS
 10
5.113588
 20
4.053390
 30
0.000000
 40
0.025246
 50
54.861125
 51
116.860583
  0
ARC
  8
0
 62
     7
  6
CONTINUOUS
 10
5.560759
 20
4.297551
 30
0.000000
 40
0.486967
 50
207.322307
 51
215.203327
  0
ARC
  8
0
 62
     7
  6
CONTINUOUS
 10
4.652480
 20
3.667845
 30
0.000000
 40
0.618277
 50
31.670338
 51
34.363345
  0
ARC
  8
0
 62
     7
  6
CONTINUOUS
 10
5.152989
 20
3.973101
 30
0.000000
 40
0.032172
 50
9.363112
 51
36.991957
  0
ARC
  8
0
 62
     7
  6
CONTINUOUS
 10
5.182771
 20
3.978589
 30
0.000000
 40
0.001978
 50
249.728613
 51
352.637168
  0
ARC
  8
0
 62
     7
  6
CONTINUOUS
 10
5.186838
 20
4.000137
 30
0.000000
 40
0.023881
 50
239.150680
 51
258.520365
  0
ARC
  8
0
 62
     7
  6
CONTINUOUS
 10
5.324540
 20
4.239070
 30
0.000000
 40
0.299651
 50
232.438485
 51
239.973144
  0
ARC
  8
0
 62
     7
  6
CONTINUOUS
 10
5.196439
 20
4.163359
 30
0.000000
 40
0.027466
 50
267.961919
 51
307.392435
  0
ARC
  8
0
 62
     7
  6
CONTINUOUS
 10
5.194853
 20
4.167431
 30
0.000000
 40
0.031527
 50
235.218287
 51
271.107511
  0
ARC
  8
0
 62
     7
  6
CONTINUOUS
 10
5.272284
 20
4.276164
 30
0.000000
 40
0.165011
 50
198.472622
 51
234.673266
  0
ARC
  8
0
 62
     7
  6
CONTINUOUS
 10
5.389039
 20
4.327899
 30
0.000000
 40
0.292392
 50
182.227465
 51
200.839426
  0
ARC
  8
0
 62
     7
  6
CONTINUOUS
 10
5.240790
 20
4.376280
 30
0.000000
 40
0.155830
 50
202.544690
 51
220.637684
  0
ARC
  8
0
 62
     7
  6
CONTINUOUS
 10
5.645319
 20
4.711104
 30
0.000000
 40
0.680930
 50
219.848327
 51
224.484527
  0
ARC
  8
0
 62
     7
  6
CONTINUOUS
 10
4.865779
 20
3.936008
 30
0.000000
 40
0.418401
 50
36.466237
 51
45.408547
  0
ARC
  8
0
 62
     7
  6
CONTINUOUS
 10
5.137641
 20
4.138494
 30
0.000000
 40
0.079430
 50
17.350383
 51
35.557480
  0
ARC
  8
0
 62
     7
  6
CONTINUOUS
 10
5.182206
 20
4.152370
 30
0.000000
 40
0.032756
 50
340.688547
 51
377.429887
  0
ARC
  8
0
 62
     7
  6
CONTINUOUS
 10
5.266095
 20
4.096957
 30
0.000000
 40
0.021732
 50
140.653369
 51
181.111981
  0
ARC
  8
0
 62
     7
  6
CONTINUOUS
 10
5.260467
 20
4.099821
 30
0.000000
 40
0.015622
 50
90.591267
 51
135.681567
  0
ARC
  8
0
 62
     7
  6
CONTINUOUS
 10
5.261043
 20
4.078346
 30
0.000000
 40
0.037104
 50
68.565216
 51
91.139118
  0
ARC
  8
0
 62
     7
  6
CONTINUOUS
 10
5.249919
 20
4.046773
 30
0.000000
 40
0.070568
 50
56.013134
 51
69.526589
  0
ARC
  8
0
 62
     7
  6
CONTINUOUS
 10
6.113035
 20
4.874693
 30
0.000000
 40
1.127128
 50
223.049267
 51
229.389147
  0
ARC
  8
0
 62
     7
  6
CONTINUOUS
 10
5.261730
 20
3.428267
 30
0.000000
 40
0.602368
 50
78.738251
 51
80.480238
  0
ARC
  8
0
 62
     7
  6
CONTINUOUS
 10
5.395388
 20
4.284239
 30
0.000000
 40
0.264102
 50
247.058825
 51
262.596053
  0
ARC
  8
0
 62
     7
  6
CONTINUOUS
 10
5.325626
 20
4.118340
 30
0.000000
 40
0.084133
 50
195.020517
 51
246.771930
  0
ARC
  8
0
 62
     7
  6
CONTINUOUS
 10
5.384358
 20
4.309465
 30
0.000000
 40
0.145719
 50
211.016149
 51
257.605790
  0
ARC
  8
0
 62
     7
  6
CONTINUOUS
 10
5.827575
 20
4.602164
 30
0.000000
 40
0.676760
 50
201.827130
 51
212.918718
  0
ARC
  8
0
 62
     7
  6
CONTINUOUS
 10
1.908531
 20
2.910182
 30
0.000000
 40
3.592213
 50
23.638614
 51
23.982846
  0
ARC
  8
0
 62
     7
  6
CONTINUOUS
 10
5.575388
 20
4.818145
 30
0.000000
 40
0.590446
 50
229.333179
 51
237.244645
  0
ARC
  8
0
 62
     7
  6
CONTINUOUS
 10
4.884161
 20
3.745937
 30
0.000000
 40
0.685259
 50
48.840220
 51
57.144930
  0
ARC
  8
0
 62
     7
  6
CONTINUOUS
 10
5.192264
 20
4.097692
 30
0.000000
 40
0.217651
 50
22.657439
 51
48.959295
  0
ARC
  8
0
 62
     7
  6
CONTINUOUS
 10
5.384815
 20
4.178648
 30
0.000000
 40
0.008790
 50
319.064184
 51
379.173610
  0
ARC
  8
0
 62
     7
  6
CONTINUOUS
 10
5.378787
 20
4.185794
 30
0.000000
 40
0.018084
 50
281.496426
 51
314.469917
  0
ARC
  8
0
 62
     7
  6
CONTINUOUS
 10
5.365028
 20
4.252856
 30
0.000000
 40
0.086542
 50
262.064971
 51
281.573681
  0
ARC
  8
0
 62
     7
  6
CONTINUOUS
 10
5.709886
 20
4.993115
 30
0.000000
 40
0.697647
 50
233.954128
 51
242.788884
  0
ARC
  8
0
 62
     7
  6
CONTINUOUS
 10
4.996219
 20
3.619609
 30
0.000000
 40
0.850215
 50
55.953011
 51
62.342813
  0
ARC
  8
0
 62
     7
  6
CONTINUOUS
 10
5.306434
 20
4.080203
 30
0.000000
 40
0.294896
 50
37.026516
 51
55.790327
  0
ARC
  8
0
 62
     7
  6
CONTINUOUS
 10
5.499844
 20
4.241208
 30
0.000000
 40
0.045174
 50
6.355107
 51
21.528655
  0
ARC
  8
0
 62
     7
  6
CONTINUOUS
 10
5.527374
 20
4.244125
 30
0.000000
 40
0.017491
 50
340.012333
 51
366.841042
  0
ARC
  8
0
 62
     7
  6
CONTINUOUS
 10
5.531687
 20
4.243572
 30
0.000000
 40
0.013283
 50
277.649779
 51
335.891470
  0
ARC
  8
0
 62
     7
  6
CONTINUOUS
 10
5.524540
 20
4.281815
 30
0.000000
 40
0.052175
 50
261.278750
 51
279.838117
  0
ARC
  8
0
 62
     7
  6
CONTINUOUS
 10
5.545116
 20
4.442386
 30
0.000000
 40
0.214046
 50
257.602740
 51
262.352110
  0
ARC
  8
0
 62
     7
  6
CONTINUOUS
 10
5.474481
 20
4.126170
 30
0.000000
 40
0.109966
 50
77.029519
 51
82.877003
  0
ARC
  8
0
 62
     7
  6
CONTINUOUS
 10
5.626605
 20
4.535705
 30
0.000000
 40
0.330802
 50
221.349369
 51
245.250932
  0
ARC
  8
0
 62
     7
  6
CONTINUOUS
 10
5.773709
 20
4.679830
 30
0.000000
 40
0.536562
 50
207.866401
 51
222.525100
  0
ARC
  8
0
 62
     7
  6
CONTINUOUS
 10
5.474739
 20
4.148220
 30
0.000000
 40
0.063226
 50
173.746652
 51
186.067570
  0
ARC
  8
0
 62
     7
  6
CONTINUOUS
 10
5.432739
 20
4.153144
 30
0.000000
 40
0.020942
 50
150.288143
 51
174.619671
  0
ARC
  8
0
 62
     7
  6
CONTINUOUS
 10
5.423427
 20
4.157898
 30
0.000000
 40
0.010509
 50
76.611433
 51
147.636269
  0
ARC
  8
0
 62
     7
  6
CONTINUOUS
 10
5.416308
 20
4.120275
 30
0.000000
 40
0.048790
 50
58.323874
 51
78.709181
  0
ARC
  8
0
 62
     7
  6
CONTINUOUS
 10
5.314554
 20
3.942747
 30
0.000000
 40
0.253391
 50
55.276943
 51
59.822652
  0
ARC
  8
0
 62
     7
  6
CONTINUOUS
 10
5.648701
 20
4.429334
 30
0.000000
 40
0.336885
 50
235.706405
 51
237.454580
  0
ARC
  8
0
 62
     7
  6
CONTINUOUS
 10
5.496764
 20
4.190187
 30
0.000000
 40
0.053558
 50
236.837666
 51
245.279016
  0
ARC
  8
0
 62
     7
  6
CONTINUOUS
 10
5.761735
 20
4.461778
 30
0.000000
 40
0.430274
 50
228.096701
 51
239.737433
  0
LINE
  8
0
 62
     7
  6
CONTINUOUS
 10
5.544893
 20
4.090140
 30
0.000000
 11
5.550616
 21
4.086536
 31
0.000000
  0
ARC
  8
0
 62
     7
  6
CONTINUOUS
 10
5.530274
 20
4.171222
 30
0.000000
 40
0.087095
 50
258.419178
 51
283.507313
  0
ARC
  8
0
 62
     7
  6
CONTINUOUS
 10
5.548279
 20
4.288683
 30
0.000000
 40
0.205865
 50
247.342290
 51
260.073136
  0
ARC
  8
0
 62
     7
  6
CONTINUOUS
 10
5.537247
 20
4.269291
 30
0.000000
 40
0.183740
 50
234.784701
 51
248.187385
  0
ARC
  8
0
 62
     7
  6
CONTINUOUS
 10
5.457419
 20
4.161494
 30
0.000000
 40
0.049732
 50
203.658210
 51
238.308939
  0
ARC
  8
0
 62
     7
  6
CONTINUOUS
 10
5.580518
 20
4.216605
 30
0.000000
 40
0.011788
 50
159.689607
 51
198.905409
  0
ARC
  8
0
 62
     7
  6
CONTINUOUS
 10
5.586599
 20
4.214016
 30
0.000000
 40
0.018391
 50
133.678596
 51
158.701964
  0
ARC
  8
0
 62
     7
  6
CONTINUOUS
 10
5.598607
 20
4.201645
 30
0.000000
 40
0.035632
 50
109.238832
 51
133.906142
  0
ARC
  8
0
 62
     7
  6
CONTINUOUS
 10
5.580911
 20
4.110806
 30
0.000000
 40
0.124624
 50
61.666045
 51
87.260846
  0
ARC
  8
0
 62
     7
  6
CONTINUOUS
 10
5.469825
 20
3.909788
 30
0.000000
 40
0.354289
 50
52.511101
 51
61.282466
  0
ARC
  8
0
 62
     7
  6
CONTINUOUS
 10
5.973948
 20
4.576749
 30
0.000000
 40
0.481774
 50
233.214053
 51
237.694471
  0
ARC
  8
0
 62
     7
  6
CONTINUOUS
 10
5.794894
 20
4.293204
 30
0.000000
 40
0.146427
 50
237.616887
 51
251.884099
  0
ARC
  8
0
 62
     7
  6
CONTINUOUS
 10
5.706293
 20
4.338916
 30
0.000000
 40
0.189832
 50
254.302744
 51
283.114163
  0
ARC
  8
0
 62
     7
  6
CONTINUOUS
 10
5.687333
 20
4.298093
 30
0.000000
 40
0.145580
 50
215.872706
 51
257.140856
  0
ARC
  8
0
 62
     7
  6
CONTINUOUS
 10
5.790014
 20
4.280665
 30
0.000000
 40
0.057048
 50
72.845694
 51
119.567005
  0
ARC
  8
0
 62
     7
  6
CONTINUOUS
 10
5.747848
 20
4.157868
 30
0.000000
 40
0.186864
 50
57.102255
 51
71.597065
  0
ARC
  8
0
 62
     7
  6
CONTINUOUS
 10
6.048912
 20
4.647477
 30
0.000000
 40
0.387975
 50
239.043312
 51
242.716803
  0
ARC
  8
0
 62
     7
  6
CONTINUOUS
 10
5.922630
 20
4.401917
 30
0.000000
 40
0.111848
 50
242.548313
 51
254.698291
  0
ARC
  8
0
 62
     7
  6
CONTINUOUS
 10
5.857063
 20
4.084426
 30
0.000000
 40
0.212686
 50
70.393631
 51
80.241294
  0
ARC
  8
0
 62
     7
  6
CONTINUOUS
 10
6.004373
 20
4.496411
 30
0.000000
 40
0.224844
 50
250.260060
 51
262.244112
  0
ARC
  8
0
 62
     7
  6
CONTINUOUS
 10
5.939247
 20
4.357018
 30
0.000000
 40
0.090356
 50
265.488883
 51
292.640348
  0
ARC
  8
0
 62
     7
  6
CONTINUOUS
 10
5.926665
 20
4.715749
 30
0.000000
 40
0.448841
 50
261.156877
 51
270.698899
  0
ARC
  8
0
 62
     7
  6
CONTINUOUS
 10
5.887478
 20
4.504112
 30
0.000000
 40
0.233778
 50
244.905882
 51
262.673375
  0
ARC
  8
0
 62
     7
  6
CONTINUOUS
 10
5.814905
 20
4.347580
 30
0.000000
 40
0.061245
 50
219.108596
 51
244.285721
  0
ARC
  8
0
 62
     7
  6
CONTINUOUS
 10
5.788967
 20
4.325910
 30
0.000000
 40
0.027453
 50
170.832166
 51
218.162179
  0
ARC
  8
0
 62
     7
  6
CONTINUOUS
 10
5.937127
 20
4.449152
 30
0.000000
 40
0.024332
 50
170.840689
 51
207.849767
  0
ARC
  8
0
 62
     7
  6
CONTINUOUS
 10
5.925159
 20
4.449890
 30
0.000000
 40
0.012454
 50
115.839569
 51
165.420274
  0
ARC
  8
0
 62
     7
  6
CONTINUOUS
 10
5.934501
 20
4.430937
 30
0.000000
 40
0.033585
 50
95.743415
 51
116.091659
  0
ARC
  8
0
 62
     7
  6
CONTINUOUS
 10
5.944952
 20
4.345698
 30
0.000000
 40
0.119457
 50
90.943556
 51
96.639646
  0
ARC
  8
0
 62
     7
  6
CONTINUOUS
 10
5.938153
 20
4.643850
 30
0.000000
 40
0.178777
 50
271.548940
 51
272.792705
  0
ARC
  8
0
 62
     7
  6
CONTINUOUS
 10
5.642257
 20
3.029565
 30
0.000000
 40
1.467677
 50
73.823202
 51
78.021596
  0
ARC
  8
0
 62
     7
  6
CONTINUOUS
 10
5.952465
 20
4.079102
 30
0.000000
 40
0.373312
 50
59.735523
 51
74.670835
  0
ARC
  8
0
 62
     7
  6
CONTINUOUS
 10
6.226429
 20
3.046721
 30
0.000000
 40
1.357529
 50
93.624446
 51
94.319098
  0
ARC
  8
0
 62
     7
  6
CONTINUOUS
 10
6.050176
 20
5.197436
 30
0.000000
 40
0.800471
 50
266.750139
 51
275.305465
  0
ARC
  8
0
 62
     7
  6
CONTINUOUS
 10
6.016693
 20
4.602500
 30
0.000000
 40
0.204594
 50
250.420559
 51
266.666897
  0
ARC
  8
0
 62
     7
  6
CONTINUOUS
 10
5.963643
 20
4.460593
 30
0.000000
 40
0.053170
 50
205.401343
 51
253.036879
  0
ARC
  8
0
 62
     7
  6
CONTINUOUS
 10
6.070331
 20
4.573077
 30
0.000000
 40
0.019722
 50
105.503809
 51
180.856215
  0
ARC
  8
0
 62
     7
  6
CONTINUOUS
 10
6.087957
 20
4.510856
 30
0.000000
 40
0.084391
 50
87.937767
 51
105.743075
  0
ARC
  8
0
 62
     7
  6
CONTINUOUS
 10
6.087289
 20
4.897064
 30
0.000000
 40
0.301894
 50
270.702988
 51
271.579609
  0
ARC
  8
0
 62
     7
  6
CONTINUOUS
 10
6.048119
 20
4.306182
 30
0.000000
 40
0.292977
 50
70.845539
 51
80.671013
  0
ARC
  8
0
 62
     7
  6
CONTINUOUS
 10
5.866129
 20
3.784881
 30
0.000000
 40
0.845132
 50
67.427157
 51
70.786740
  0
ARC
  8
0
 62
     7
  6
CONTINUOUS
 10
6.432097
 20
5.132612
 30
0.000000
 40
0.616626
 50
246.937108
 51
253.259354
  0
ARC
  8
0
 62
     7
  6
CONTINUOUS
 10
6.319539
 20
4.762888
 30
0.000000
 40
0.230154
 50
253.581103
 51
271.200285
  0
ARC
  8
0
 62
     7
  6
CONTINUOUS
 10
6.218038
 20
5.117299
 30
0.000000
 40
0.594106
 50
264.729133
 51
280.309250
  0
ARC
  8
0
 62
     7
  6
CONTINUOUS
 10
6.181835
 20
4.844224
 30
0.000000
 40
0.319048
 50
252.111221
 51
266.698477
  0
ARC
  8
0
 62
     7
  6
CONTINUOUS
 10
6.107026
 20
4.611066
 30
0.000000
 40
0.074185
 50
229.930721
 51
251.781964
  0
ARC
  8
0
 62
     7
  6
CONTINUOUS
 10
6.074291
 20
4.572604
 30
0.000000
 40
0.023681
 50
179.568338
 51
230.637032
  0
ARC
  8
0
 62
     7
  6
CONTINUOUS
 10
6.241260
 20
4.862578
 30
0.000000
 40
0.192151
 50
253.782933
 51
276.154817
  0
ARC
  8
0
 62
     7
  6
CONTINUOUS
 10
6.222385
 20
4.774319
 30
0.000000
 40
0.102341
 50
216.962415
 51
250.127581
  0
ARC
  8
0
 62
     7
  6
CONTINUOUS
 10
6.170419
 20
4.725354
 30
0.000000
 40
0.032350
 50
163.825397
 51
202.867374
  0
ARC
  8
0
 62
     7
  6
CONTINUOUS
 10
6.164205
 20
4.725276
 30
0.000000
 40
0.026466
 50
121.516462
 51
159.912599
  0
ARC
  8
0
 62
     7
  6
CONTINUOUS
 10
6.188367
 20
4.680606
 30
0.000000
 40
0.077226
 50
92.044812
 51
119.473290
  0
ARC
  8
0
 62
     7
  6
CONTINUOUS
 10
6.407140
 20
6.221568
 30
0.000000
 40
1.480454
 50
261.394188
 51
277.718512
  0
ARC
  8
0
 62
     7
  6
CONTINUOUS
 10
6.397454
 20
5.130845
 30
0.000000
 40
0.430228
 50
282.618020
 51
298.991139
  0
ARC
  8
0
 62
     7
  6
CONTINUOUS
 10
6.194627
 20
6.036478
 30
0.000000
 40
1.358296
 50
277.344308
 51
282.621920
  0
ARC
  8
0
 62
     7
  6
CONTINUOUS
 10
6.585646
 20
3.062287
 30
0.000000
 40
1.641497
 50
97.610117
 51
101.376173
  0
ARC
  8
0
 62
     7
  6
CONTINUOUS
 10
6.351075
 20
5.053697
 30
0.000000
 40
0.166550
 50
259.733596
 51
275.006855
  0
ARC
  8
0
 62
     7
  6
CONTINUOUS
 10
6.330381
 20
4.932268
 30
0.000000
 40
0.043396
 50
231.824816
 51
258.044339
  0
ARC
  8
0
 62
     7
  6
CONTINUOUS
 10
6.323818
 20
4.922263
 30
0.000000
 40
0.031491
 50
192.809571
 51
229.961296
  0
ARC
  8
0
 62
     7
  6
CONTINUOUS
 10
6.324406
 20
4.920804
 30
0.000000
 40
0.031779
 50
153.744952
 51
190.007953
  0
ARC
  8
0
 62
     7
  6
CONTINUOUS
 10
6.337724
 20
4.913720
 30
0.000000
 40
0.046859
 50
129.268400
 51
153.180618
  0
ARC
  8
0
 62
     7
  6
CONTINUOUS
 10
6.347645
 20
4.904434
 30
0.000000
 40
0.060355
 50
99.089549
 51
130.980353
  0
ARC
  8
0
 62
     7
  6
CONTINUOUS
 10
6.242445
 20
6.341409
 30
0.000000
 40
1.380696
 50
273.973090
 51
285.520783
  0
ARC
  8
0
 62
     7
  6
CONTINUOUS
 10
5.603258
 20
8.652113
 30
0.000000
 40
3.778176
 50
285.483805
 51
289.461337
  0
LINE
  8
0
 62
     7
  6
CONTINUOUS
 10
6.862035
 20
5.089797
 30
0.000000
 11
6.878106
 21
5.095280
 31
0.000000
  0
ARC
  8
0
 62
     7
  6
CONTINUOUS
 10
6.141553
 20
6.177829
 30
0.000000
 40
1.309359
 50
279.852917
 51
304.230899
  0
ARC
  8
0
 62
     7
  6
CONTINUOUS
 10
6.588807
 20
4.559785
 30
0.000000
 40
0.590956
 50
100.796381
 51
103.065907
  0
ARC
  8
0
 62
     7
  6
CONTINUOUS
 10
6.377850
 20
5.432730
 30
0.000000
 40
0.307188
 50
273.063593
 51
284.585682
  0
ARC
  8
0
 62
     7
  6
CONTINUOUS
 10
6.391496
 20
5.214393
 30
0.000000
 40
0.088456
 50
253.294226
 51
271.795533
  0
ARC
  8
0
 62
     7
  6
CONTINUOUS
 10
6.381554
 20
5.179960
 30
0.000000
 40
0.052620
 50
223.063932
 51
252.884931
  0
ARC
  8
0
 62
     7
  6
CONTINUOUS
 10
6.350965
 20
5.156398
 30
0.000000
 40
0.014652
 50
195.404152
 51
237.579159
  0
ARC
  8
0
 62
     7
  6
CONTINUOUS
 10
6.362549
 20
5.159991
 30
0.000000
 40
0.026776
 50
171.323945
 51
196.232264
  0
ARC
  8
0
 62
     7
  6
CONTINUOUS
 10
6.363025
 20
5.160570
 30
0.000000
 40
0.027166
 50
148.869372
 51
172.683200
  0
ARC
  8
0
 62
     7
  6
CONTINUOUS
 10
6.350157
 20
5.168885
 30
0.000000
 40
0.011863
 50
106.136252
 51
151.114345
  0
ARC
  8
0
 62
     7
  6
CONTINUOUS
 10
6.930429
 20
4.249791
 30
0.000000
 40
1.098346
 50
112.133994
 51
122.094433
  0
ARC
  8
0
 62
     7
  6
CONTINUOUS
 10
7.598181
 20
2.575981
 30
0.000000
 40
2.900421
 50
108.233051
 51
111.894857
  0
ARC
  8
0
 62
     7
  6
CONTINUOUS
 10
5.376135
 20
9.258543
 30
0.000000
 40
4.141908
 50
288.504491
 51
290.727956
  0
ARC
  8
0
 62
     7
  6
CONTINUOUS
 10
7.105761
 20
4.671880
 30
0.000000
 40
0.760058
 50
108.070716
 51
110.298764
  0
ARC
  8
0
 62
     7
  6
CONTINUOUS
 10
6.693700
 20
5.954419
 30
0.000000
 40
0.587069
 50
287.475823
 51
293.002190
  0
ARC
  8
0
 62
     7
  6
CONTINUOUS
 10
4.769071
 20
8.417006
 30
0.000000
 40
3.695639
 50
297.545147
 51
305.651867
  0
ARC
  8
0
 62
     7
  6
CONTINUOUS
 10
5.484522
 20
3.541414
 30
0.000000
 40
0.034883
 50
56.248323
 51
69.274568
  0
ARC
  8
0
 62
     7
  6
CONTINUOUS
 10
5.442524
 20
3.478372
 30
0.000000
 40
0.110633
 50
52.124151
 51
56.303529
  0
ARC
  8
0
 62
     7
  6
CONTINUOUS
 10
5.548978
 20
3.612489
 30
0.000000
 40
0.060613
 50
230.529334
 51
243.911006
  0
ARC
  8
0
 62
     7
  6
CONTINUOUS
 10
5.531841
 20
3.578890
 30
0.000000
 40
0.022909
 50
245.449803
 51
282.672060
  0
ARC
  8
0
 62
     7
  6
CONTINUOUS
 10
9.671793
 20
-9.349863
 30
0.000000
 40
13.552596
 50
106.836128
 51
107.764314
  0
ARC
  8
0
 62
     7
  6
CONTINUOUS
 10
3.840004
 20
10.111860
 30
0.000000
 40
6.764257
 50
286.370406
 51
290.086514
  0
ARC
  8
0
 62
     7
  6
CONTINUOUS
 10
4.933101
 20
4.109027
 30
0.000000
 40
1.278835
 50
344.116776
 51
360.616439
  0
LINE
  8
0
 62
     7
  6
CONTINUOUS
 10
6.211861
 20
4.122785
 30
0.000000
 11
6.211856
 21
4.122783
 31
0.000000
  0
ARC
  8
0
 62
     7
  6
CONTINUOUS
 10
6.187840
 20
4.178455
 30
0.000000
 40
0.060631
 50
283.520830
 51
293.335094
  0
ARC
  8
0
 62
     7
  6
CONTINUOUS
 10
6.194348
 20
4.155442
 30
0.000000
 40
0.036746
 50
262.201151
 51
282.044056
  0
ARC
  8
0
 62
     7
  6
CONTINUOUS
 10
6.029893
 20
4.236946
 30
0.000000
 40
0.198326
 50
291.908481
 51
323.520742
  0
ARC
  8
0
 62
     7
  6
CONTINUOUS
 10
5.996983
 20
4.326385
 30
0.000000
 40
0.293599
 50
269.976678
 51
291.354541
  0
ARC
  8
0
 62
     7
  6
CONTINUOUS
 10
6.882633
 20
4.580535
 30
0.000000
 40
1.041449
 50
211.732112
 51
218.284734
  0
ARC
  8
0
 62
     7
  6
CONTINUOUS
 10
4.521934
 20
2.751938
 30
0.000000
 40
1.944696
 50
35.285343
 51
37.481080
  0
ARC
  8
0
 62
     7
  6
CONTINUOUS
 10
7.368167
 20
2.135709
 30
0.000000
 40
2.147261
 50
125.890488
 51
128.193701
  0
ARC
  8
0
 62
     7
  6
CONTINUOUS
 10
5.188047
 20
4.883541
 30
0.000000
 40
1.360420
 50
303.207559
 51
308.798747
  0
ARC
  8
0
 62
     7
  6
CONTINUOUS
 10
5.477723
 20
3.947510
 30
0.000000
 40
0.498271
 50
336.055825
 51
364.636447
  0
ARC
  8
0
 62
     7
  6
CONTINUOUS
 10
5.839806
 20
4.092596
 30
0.000000
 40
0.170560
 50
287.550693
 51
322.084269
  0
ARC
  8
0
 62
     7
  6
CONTINUOUS
 10
5.763396
 20
4.345650
 30
0.000000
 40
0.434890
 50
273.423267
 51
287.095445
  0
ARC
  8
0
 62
     7
  6
CONTINUOUS
 10
5.694867
 20
3.973368
 30
0.000000
 40
0.112929
 50
283.179261
 51
326.802542
  0
ARC
  8
0
 62
     7
  6
CONTINUOUS
 10
5.631835
 20
4.227813
 30
0.000000
 40
0.375059
 50
270.768578
 51
283.692249
  0
ARC
  8
0
 62
     7
  6
CONTINUOUS
 10
5.512438
 20
3.968000
 30
0.000000
 40
0.169576
 50
250.870023
 51
317.202464
  0
ARC
  8
0
 62
     7
  6
CONTINUOUS
 10
5.151789
 20
4.203447
 30
0.000000
 40
0.499618
 50
298.230434
 51
307.634495
  0
ARC
  8
0
 62
     7
  6
CONTINUOUS
 10
5.262430
 20
3.999780
 30
0.000000
 40
0.267844
 50
280.636313
 51
297.985947
  0
ARC
  8
0
 62
     7
  6
CONTINUOUS
 10
5.799009
 20
4.197114
 30
0.000000
 40
0.670401
 50
223.394354
 51
233.842444
  0
ARC
  8
0
 62
     7
  6
CONTINUOUS
 10
4.972102
 20
3.069050
 30
0.000000
 40
0.728280
 50
43.899828
 51
53.679091
  0
ARC
  8
0
 62
     7
  6
CONTINUOUS
 10
4.789377
 20
1.090989
 30
0.000000
 40
0.967963
 50
348.940690
 51
359.799961
  0
ARC
  8
0
 62
     7
  6
CONTINUOUS
 10
2.930060
 20
1.094645
 30
0.000000
 40
2.827283
 50
359.857419
 51
363.541678
  0
ARC
  8
0
 62
     7
  6
CONTINUOUS
 10
7.531875
 20
1.408953
 30
0.000000
 40
1.785402
 50
175.056565
 51
184.486251
  0
ARC
  8
0
 62
     7
  6
CONTINUOUS
 10
10.190836
 20
1.927164
 30
0.000000
 40
4.452654
 50
180.968916
 51
184.693730
  0
ARC
  8
0
 62
     7
  6
CONTINUOUS
 10
-8.247988
 20
1.487404
 30
0.000000
 40
13.991554
 50
1.492664
 51
1.931779
  0
ARC
  8
0
 62
     7
  6
CONTINUOUS
 10
4.776741
 20
2.104784
 30
0.000000
 40
0.969884
 50
351.358201
 51
364.683913
  0
ARC
  8
0
 62
     7
  6
CONTINUOUS
 10
3.006673
 20
1.954302
 30
0.000000
 40
2.746335
 50
4.797361
 51
9.401260
  0
ARC
  8
0
 62
     7
  6
CONTINUOUS
 10
9.349673
 20
2.982032
 30
0.000000
 40
3.679414
 50
186.562098
 51
189.055741
  0
ARC
  8
0
 62
     7
  6
CONTINUOUS
 10
5.506591
 20
2.776836
 30
0.000000
 40
0.285671
 50
311.094948
 51
318.900885
  0
ARC
  8
0
 62
     7
  6
CONTINUOUS
 10
5.964371
 20
2.475464
 30
0.000000
 40
0.267788
 50
153.354167
 51
154.903192
  0
ARC
  8
0
 62
     7
  6
CONTINUOUS
 10
5.637705
 20
2.644039
 30
0.000000
 40
0.099873
 50
330.961143
 51
347.065866
  0
ARC
  8
0
 62
     7
  6
CONTINUOUS
 10
5.710649
 20
2.627434
 30
0.000000
 40
0.025063
 50
346.738221
 51
409.687231
  0
ARC
  8
0
 62
     7
  6
CONTINUOUS
 10
5.714446
 20
2.611570
 30
0.000000
 40
0.037114
 50
70.451783
 51
118.398373
  0
ARC
  8
0
 62
     7
  6
CONTINUOUS
 10
5.740331
 20
2.577746
 30
0.000000
 40
0.079460
 50
123.223445
 51
143.053839
  0
ARC
  8
0
 62
     7
  6
CONTINUOUS
 10
5.577622
 20
2.705729
 30
0.000000
 40
0.127582
 50
312.123274
 51
321.039268
  0
ARC
  8
0
 62
     7
  6
CONTINUOUS
 10
5.634167
 20
2.643564
 30
0.000000
 40
0.043548
 50
285.242969
 51
311.801955
  0
ARC
  8
0
 62
     7
  6
CONTINUOUS
 10
5.622134
 20
2.662081
 30
0.000000
 40
0.064928
 50
270.899211
 51
291.202206
  0
ARC
  8
0
 62
     7
  6
CONTINUOUS
 10
5.618914
 20
2.812455
 30
0.000000
 40
0.215336
 50
264.884361
 51
271.128055
  0
ARC
  8
0
 62
     7
  6
CONTINUOUS
 10
5.579506
 20
2.358000
 30
0.000000
 40
0.240826
 50
85.186689
 51
89.354153
  0
ARC
  8
0
 62
     7
  6
CONTINUOUS
 10
5.581115
 20
2.541091
 30
0.000000
 40
0.057731
 50
88.902803
 51
104.359499
  0
ARC
  8
0
 62
     7
  6
CONTINUOUS
 10
5.573938
 20
2.570461
 30
0.000000
 40
0.027501
 50
105.050257
 51
169.868674
  0
ARC
  8
0
 62
     7
  6
CONTINUOUS
 10
5.573742
 20
2.576294
 30
0.000000
 40
0.026894
 50
182.121904
 51
237.856862
  0
ARC
  8
0
 62
     7
  6
CONTINUOUS
 10
5.617015
 20
2.646556
 30
0.000000
 40
0.109411
 50
238.245276
 51
253.057121
  0
ARC
  8
0
 62
     7
  6
CONTINUOUS
 10
5.538730
 20
2.400613
 30
0.000000
 40
0.148705
 50
63.807531
 51
71.818343
  0
ARC
  8
0
 62
     7
  6
CONTINUOUS
 10
6.853554
 20
2.436841
 30
0.000000
 40
1.252964
 50
175.550416
 51
188.504243
  0
ARC
  8
0
 62
     7
  6
CONTINUOUS
 10
3.582199
 20
2.132161
 30
0.000000
 40
2.035671
 50
354.824291
 51
363.362223
  0
ARC
  8
0
 62
     7
  6
CONTINUOUS
 10
8.581410
 20
1.719841
 30
0.000000
 40
2.980625
 50
175.599803
 51
179.052644
  0
ARC
  8
0
 62
     7
  6
CONTINUOUS
 10
6.626037
 20
1.753584
 30
0.000000
 40
1.024963
 50
179.131392
 51
189.237313
  0
ARC
  8
0
 62
     7
  6
CONTINUOUS
 10
5.442149
 20
1.523532
 30
0.000000
 40
0.184260
 50
2.446810
 51
20.829711
  0
ARC
  8
0
 62
     7
  6
CONTINUOUS
 10
5.353432
 20
1.503686
 30
0.000000
 40
0.274214
 50
349.572322
 51
365.800189
  0
ARC
  8
0
 62
     7
  6
CONTINUOUS
 10
5.611442
 20
1.452290
 30
0.000000
 40
0.011807
 50
327.903776
 51
368.597787
  0
ARC
  8
0
 62
     7
  6
CONTINUOUS
 10
5.583350
 20
1.469370
 30
0.000000
 40
0.044683
 50
317.217093
 51
328.489533
  0
ARC
  8
0
 62
     7
  6
CONTINUOUS
 10
5.655447
 20
1.403631
 30
0.000000
 40
0.052887
 50
137.999359
 51
144.095567
  0
ARC
  8
0
 62
     7
  6
CONTINUOUS
 10
5.620081
 20
1.428925
 30
0.000000
 40
0.009411
 50
142.561145
 51
170.080437
  0
ARC
  8
0
 62
     7
  6
CONTINUOUS
 10
5.615640
 20
1.430032
 30
0.000000
 40
0.004857
 50
173.922120
 51
224.459729
  0
ARC
  8
0
 62
     7
  6
CONTINUOUS
 10
5.624131
 20
1.438684
 30
0.000000
 40
0.016978
 50
225.228804
 51
249.253005
  0
ARC
  8
0
 62
     7
  6
CONTINUOUS
 10
3.911062
 20
1.331283
 30
0.000000
 40
1.709506
 50
357.973909
 51
363.068956
  0
ARC
  8
0
 62
     7
  6
CONTINUOUS
 10
7.247628
 20
1.207277
 30
0.000000
 40
1.629369
 50
177.764118
 51
184.425282
  0
ARC
  8
0
 62
     7
  6
CONTINUOUS
 10
5.680202
 20
1.124892
 30
0.000000
 40
0.071671
 50
217.203326
 51
232.796674
  0
ARC
  8
0
 62
     7
  6
CONTINUOUS
 10
5.636044
 20
0.942919
 30
0.000000
 40
0.124890
 50
87.480706
 51
89.622589
  0
ARC
  8
0
 62
     7
  6
CONTINUOUS
 10
5.645324
 20
1.108830
 30
0.000000
 40
0.041316
 50
264.736432
 51
282.088800
  0
ARC
  8
0
 62
     7
  6
CONTINUOUS
 10
5.650514
 20
1.081525
 30
0.000000
 40
0.013544
 50
284.812455
 51
338.484972
  0
ARC
  8
0
 62
     7
  6
CONTINUOUS
 10
15.015283
 20
0.999199
 30
0.000000
 40
9.352488
 50
178.446863
 51
179.526078
  0
ARC
  8
0
 62
     7
  6
CONTINUOUS
 10
2.744032
 20
1.414252
 30
0.000000
 40
2.926661
 50
356.835443
 51
367.505826
  0
ARC
  8
0
 62
     7
  6
CONTINUOUS
 10
0.917349
 20
2.281739
 30
0.000000
 40
4.753095
 50
354.141168
 51
358.206221
  0
ARC
  8
0
 62
     7
  6
CONTINUOUS
 10
4.098251
 20
2.191562
 30
0.000000
 40
1.570958
 50
357.862048
 51
369.942319
  0
ARC
  8
0
 62
     7
  6
CONTINUOUS
 10
5.641864
 20
2.469180
 30
0.000000
 40
0.007403
 50
300.452093
 51
342.078622
  0
ARC
  8
0
 62
     7
  6
CONTINUOUS
 10
5.614193
 20
2.479566
 30
0.000000
 40
0.036953
 50
339.959380
 51
349.510782
  0
ARC
  8
0
 62
     7
  6
CONTINUOUS
 10
5.691014
 20
2.464922
 30
0.000000
 40
0.041253
 50
163.335358
 51
168.936853
  0
ARC
  8
0
 62
     7
  6
CONTINUOUS
 10
5.656951
 20
2.475384
 30
0.000000
 40
0.005626
 50
135.721138
 51
165.919023
  0
ARC
  8
0
 62
     7
  6
CONTINUOUS
 10
5.654334
 20
2.477575
 30
0.000000
 40
0.002237
 50
62.591165
 51
129.104186
  0
ARC
  8
0
 62
     7
  6
CONTINUOUS
 10
5.649701
 20
2.467881
 30
0.000000
 40
0.012981
 50
41.889758
 51
64.132468
  0
ARC
  8
0
 62
     7
  6
CONTINUOUS
 10
4.672653
 20
2.211446
 30
0.000000
 40
1.021704
 50
1.996638
 51
15.038645
  0
ARC
  8
0
 62
     7
  6
CONTINUOUS
 10
2.605089
 20
2.141297
 30
0.000000
 40
3.090457
 50
357.634863
 51
361.960868
  0
ARC
  8
0
 62
     7
  6
CONTINUOUS
 10
7.612039
 20
1.894335
 30
0.000000
 40
1.922838
 50
176.439096
 51
188.042796
  0
ARC
  8
0
 62
     7
  6
CONTINUOUS
 10
6.474647
 20
1.486167
 30
0.000000
 40
0.779058
 50
169.711921
 51
181.823503
  0
ARC
  8
0
 62
     7
  6
CONTINUOUS
 10
8.130357
 20
1.538021
 30
0.000000
 40
2.435580
 50
181.803301
 51
185.731573
  0
ARC
  8
0
 62
     7
  6
CONTINUOUS
 10
3.579622
 20
1.073547
 30
0.000000
 40
2.138804
 50
0.755868
 51
5.937274
  0
ARC
  8
0
 62
     7
  6
CONTINUOUS
 10
5.009382
 20
1.092946
 30
0.000000
 40
0.708913
 50
345.070366
 51
360.712531
  0
ARC
  8
0
 62
     7
  6
CONTINUOUS
 10
6.509636
 20
0.906985
 30
0.000000
 40
0.815279
 50
179.766538
 51
197.151492
  0
ARC
  8
0
 62
     7
  6
CONTINUOUS
 10
5.630426
 20
0.764277
 30
0.000000
 40
0.139951
 50
315.715689
 51
319.610510
  0
ARC
  8
0
 62
     7
  6
CONTINUOUS
 10
5.805816
 20
0.616947
 30
0.000000
 40
0.089114
 50
131.491789
 51
140.532953
  0
ARC
  8
0
 62
     7
  6
CONTINUOUS
 10
5.761272
 20
0.667716
 30
0.000000
 40
0.021576
 50
98.414235
 51
132.206844
  0
ARC
  8
0
 62
     7
  6
CONTINUOUS
 10
5.347353
 20
0.712373
 30
0.000000
 40
0.411423
 50
356.751737
 51
375.209553
  0
ARC
  8
0
 62
     7
  6
CONTINUOUS
 10
6.012269
 20
0.880506
 30
0.000000
 40
0.274584
 50
183.205352
 51
192.663637
  0
ARC
  8
0
 62
     7
  6
CONTINUOUS
 10
5.916746
 20
0.879690
 30
0.000000
 40
0.179222
 50
171.781520
 51
184.652646
  0
ARC
  8
0
 62
     7
  6
CONTINUOUS
 10
5.500978
 20
2.835482
 30
0.000000
 40
0.254234
 50
305.709034
 51
321.800757
  0
ARC
  8
0
 62
     7
  6
CONTINUOUS
 10
5.588594
 20
2.769843
 30
0.000000
 40
0.144812
 50
320.772518
 51
348.731524
  0
ARC
  8
0
 62
     7
  6
CONTINUOUS
 10
5.708135
 20
2.741583
 30
0.000000
 40
0.022479
 50
359.906383
 51
420.944291
  0
ARC
  8
0
 62
     7
  6
CONTINUOUS
 10
5.703394
 20
2.733553
 30
0.000000
 40
0.031802
 50
60.503633
 51
106.495644
  0
ARC
  8
0
 62
     7
  6
CONTINUOUS
 10
5.702835
 20
2.737672
 30
0.000000
 40
0.027702
 50
107.805765
 51
146.134387
  0
ARC
  8
0
 62
     7
  6
CONTINUOUS
 10
5.731294
 20
2.718149
 30
0.000000
 40
0.062212
 50
145.810260
 51
162.799585
  0
ARC
  8
0
 62
     7
  6
CONTINUOUS
 10
5.586783
 20
2.773710
 30
0.000000
 40
0.092844
 50
294.601452
 51
336.403990
  0
ARC
  8
0
 62
     7
  6
CONTINUOUS
 10
5.508946
 20
2.954267
 30
0.000000
 40
0.289448
 50
280.395743
 51
293.731505
  0
ARC
  8
0
 62
     7
  6
CONTINUOUS
 10
5.662353
 20
2.190304
 30
0.000000
 40
0.489830
 50
101.920688
 51
106.361930
  0
ARC
  8
0
 62
     7
  6
CONTINUOUS
 10
5.587870
 20
2.652837
 30
0.000000
 40
0.063940
 50
173.300760
 51
190.455094
  0
ARC
  8
0
 62
     7
  6
CONTINUOUS
 10
5.565298
 20
2.649777
 30
0.000000
 40
0.041202
 50
191.965708
 51
218.640913
  0
ARC
  8
0
 62
     7
  6
CONTINUOUS
 10
5.593910
 20
2.809865
 30
0.000000
 40
0.195509
 50
251.883520
 51
269.630054
  0
ARC
  8
0
 62
     7
  6
CONTINUOUS
 10
5.597324
 20
2.713170
 30
0.000000
 40
0.098921
 50
267.290413
 51
301.742666
  0
ARC
  8
0
 62
     7
  6
CONTINUOUS
 10
2.262801
 20
5.734836
 30
0.000000
 40
0.964192
 50
295.598040
 51
301.080887
  0
ARC
  8
0
 62
     7
  6
CONTINUOUS
 10
3.159991
 20
4.259331
 30
0.000000
 40
0.762690
 50
113.212315
 51
121.581340
  0
ARC
  8
0
 62
     7
  6
CONTINUOUS
 10
2.833276
 20
5.035759
 30
0.000000
 40
0.079866
 50
289.081102
 51
292.241108
  0
ARC
  8
0
 62
     7
  6
CONTINUOUS
 10
2.878123
 20
4.930257
 30
0.000000
 40
0.034797
 50
97.355545
 51
114.840300
  0
ARC
  8
0
 62
     7
  6
CONTINUOUS
 10
2.874541
 20
4.956600
 30
0.000000
 40
0.008214
 50
26.622570
 51
96.096918
  0
ARC
  8
0
 62
     7
  6
CONTINUOUS
 10
3.678507
 20
4.588339
 30
0.000000
 40
0.879175
 50
154.972140
 51
165.293523
  0
ARC
  8
0
 62
     7
  6
CONTINUOUS
 10
2.956679
 20
3.500161
 30
0.000000
 40
1.317657
 50
91.750813
 51
95.598436
  0
ARC
  8
0
 62
     7
  6
CONTINUOUS
 10
2.910976
 20
5.525250
 30
0.000000
 40
0.708069
 50
270.440646
 51
281.522402
  0
ARC
  8
0
 62
     7
  6
CONTINUOUS
 10
3.001152
 20
5.064484
 30
0.000000
 40
0.238604
 50
282.405993
 51
315.259158
  0
ARC
  8
0
 62
     7
  6
CONTINUOUS
 10
3.150906
 20
5.138957
 30
0.000000
 40
0.243228
 50
274.651867
 51
303.174498
  0
ARC
  8
0
 62
     7
  6
CONTINUOUS
 10
2.846351
 20
5.603033
 30
0.000000
 40
0.798314
 50
303.244653
 51
312.152637
  0
ARC
  8
0
 62
     7
  6
CONTINUOUS
 10
4.204817
 20
4.073369
 30
0.000000
 40
1.247546
 50
127.522017
 51
131.258974
  0
ARC
  8
0
 62
     7
  6
CONTINUOUS
 10
3.674533
 20
4.765051
 30
0.000000
 40
0.375983
 50
115.633343
 51
127.629051
  0
ARC
  8
0
 62
     7
  6
CONTINUOUS
 10
3.542630
 20
4.860304
 30
0.000000
 40
0.245658
 50
75.578100
 51
97.190859
  0
ARC
  8
0
 62
     7
  6
CONTINUOUS
 10
3.424665
 20
4.411608
 30
0.000000
 40
0.709600
 50
68.045023
 51
75.376610
  0
ARC
  8
0
 62
     7
  6
CONTINUOUS
 10
3.873277
 20
5.494115
 30
0.000000
 40
0.462267
 50
246.637755
 51
261.638790
  0
ARC
  8
0
 62
     7
  6
CONTINUOUS
 10
3.824990
 20
5.213822
 30
0.000000
 40
0.178070
 50
263.896697
 51
304.902143
  0
ARC
  8
0
 62
     7
  6
CONTINUOUS
 10
4.191288
 20
4.949816
 30
0.000000
 40
0.289532
 50
136.120888
 51
155.956286
  0
ARC
  8
0
 62
     7
  6
CONTINUOUS
 10
4.498436
 20
4.641607
 30
0.000000
 40
0.724616
 50
127.834878
 51
135.388538
  0
ARC
  8
0
 62
     7
  6
CONTINUOUS
 10
3.517563
 20
5.899090
 30
0.000000
 40
0.870183
 50
308.055534
 51
315.023303
  0
ARC
  8
0
 62
     7
  6
CONTINUOUS
 10
4.434048
 20
4.850173
 30
0.000000
 40
0.528000
 50
113.212613
 51
124.745218
  0
ARC
  8
0
 62
     7
  6
CONTINUOUS
 10
3.975977
 20
5.903496
 30
0.000000
 40
0.620628
 50
293.750709
 51
301.979886
  0
ARC
  8
0
 62
     7
  6
CONTINUOUS
 10
4.176294
 20
5.578135
 30
0.000000
 40
0.238566
 50
302.556828
 51
325.066723
  0
ARC
  8
0
 62
     7
  6
CONTINUOUS
 10
4.407109
 20
5.404465
 30
0.000000
 40
0.051138
 50
83.335898
 51
133.551534
  0
ARC
  8
0
 62
     7
  6
CONTINUOUS
 10
4.388183
 20
5.299567
 30
0.000000
 40
0.157662
 50
64.619536
 51
80.927669
  0
ARC
  8
0
 62
     7
  6
CONTINUOUS
 10
4.564039
 20
5.690426
 30
0.000000
 40
0.270986
 50
246.448746
 51
253.101895
  0
ARC
  8
0
 62
     7
  6
CONTINUOUS
 10
4.509333
 20
5.509675
 30
0.000000
 40
0.082138
 50
252.966158
 51
274.392411
  0
ARC
  8
0
 62
     7
  6
CONTINUOUS
 10
4.557206
 20
5.429985
 30
0.000000
 40
0.041641
 50
183.037291
 51
213.200490
  0
ARC
  8
0
 62
     7
  6
CONTINUOUS
 10
4.546731
 20
5.424676
 30
0.000000
 40
0.029997
 50
215.672631
 51
249.156629
  0
ARC
  8
0
 62
     7
  6
CONTINUOUS
 10
4.557902
 20
5.455241
 30
0.000000
 40
0.062538
 50
249.555398
 51
266.771948
  0
ARC
  8
0
 62
     7
  6
CONTINUOUS
 10
4.570619
 20
5.642476
 30
0.000000
 40
0.250201
 50
266.278791
 51
271.005251
  0
ARC
  8
0
 62
     7
  6
CONTINUOUS
 10
4.579440
 20
5.147021
 30
0.000000
 40
0.245332
 50
86.148685
 51
91.035045
  0
ARC
  8
0
 62
     7
  6
CONTINUOUS
 10
4.592415
 20
5.331362
 30
0.000000
 40
0.060539
 50
68.733479
 51
86.682068
  0
ARC
  8
0
 62
     7
  6
CONTINUOUS
 10
4.905922
 20
5.761784
 30
0.000000
 40
0.474217
 50
232.062398
 51
274.498952
  0
ARC
  8
0
 62
     7
  6
CONTINUOUS
 10
5.151237
 20
5.010165
 30
0.000000
 40
0.347961
 50
104.323815
 51
126.734063
  0
ARC
  8
0
 62
     7
  6
CONTINUOUS
 10
5.104583
 20
5.191078
 30
0.000000
 40
0.161131
 50
55.599409
 51
104.165597
  0
ARC
  8
0
 62
     7
  6
CONTINUOUS
 10
5.060617
 20
6.113074
 30
0.000000
 40
0.800512
 50
279.708954
 51
301.121577
  0
ARC
  8
0
 62
     7
  6
CONTINUOUS
 10
4.891468
 20
4.957600
 30
0.000000
 40
0.748891
 50
38.890398
 51
43.317665
  0
ARC
  8
0
 62
     7
  6
CONTINUOUS
 10
6.038336
 20
6.035950
 30
0.000000
 40
0.825322
 50
219.656552
 51
223.162551
  0
ARC
  8
0
 62
     7
  6
CONTINUOUS
 10
5.534174
 20
5.620794
 30
0.000000
 40
0.172243
 50
206.003632
 51
220.363758
  0
ARC
  8
0
 62
     7
  6
CONTINUOUS
 10
5.389599
 20
5.370214
 30
0.000000
 40
0.175362
 50
74.601907
 51
93.345003
  0
ARC
  8
0
 62
     7
  6
CONTINUOUS
 10
5.269070
 20
4.917404
 30
0.000000
 40
0.643935
 50
69.525179
 51
74.960383
  0
ARC
  8
0
 62
     7
  6
CONTINUOUS
 10
5.731003
 20
6.158515
 30
0.000000
 40
0.680354
 50
249.641792
 51
254.331828
  0
ARC
  8
0
 62
     7
  6
CONTINUOUS
 10
5.596278
 20
5.673899
 30
0.000000
 40
0.177365
 50
253.957167
 51
270.524316
  0
ARC
  8
0
 62
     7
  6
CONTINUOUS
 10
5.596241
 20
5.589701
 30
0.000000
 40
0.093174
 50
271.020965
 51
301.245652
  0
ARC
  8
0
 62
     7
  6
CONTINUOUS
 10
5.575775
 20
5.615376
 30
0.000000
 40
0.125811
 50
303.149371
 51
330.815257
  0
ARC
  8
0
 62
     7
  6
CONTINUOUS
 10
4.439641
 20
4.487369
 30
0.000000
 40
1.640186
 50
40.566315
 51
76.209304
  0
ARC
  8
0
 62
     7
  6
CONTINUOUS
 10
4.366204
 20
4.270368
 30
0.000000
 40
1.868539
 50
75.608531
 51
136.396795
  0
ARC
  8
0
 62
     7
  6
CONTINUOUS
 10
4.341982
 20
4.296000
 30
0.000000
 40
1.833323
 50
136.454805
 51
162.933968
  0
ARC
  8
0
 62
     7
  6
CONTINUOUS
 10
2.600992
 20
4.809786
 30
0.000000
 40
0.026881
 50
90.078836
 51
115.581061
  0
ARC
  8
0
 62
     7
  6
CONTINUOUS
 10
2.602819
 20
4.753041
 30
0.000000
 40
0.083647
 50
80.703034
 51
91.276681
  0
ARC
  8
0
 62
     7
  6
CONTINUOUS
 10
2.552952
 20
4.468072
 30
0.000000
 40
0.372942
 50
74.545236
 51
80.215215
  0
ARC
  8
0
 62
     7
  6
CONTINUOUS
 10
2.751510
 20
5.190476
 30
0.000000
 40
0.376254
 50
254.716652
 51
259.089164
  0
ARC
  8
0
 62
     7
  6
CONTINUOUS
 10
2.689379
 20
4.854948
 30
0.000000
 40
0.035119
 50
255.004304
 51
285.662205
  0
ARC
  8
0
 62
     7
  6
CONTINUOUS
 10
2.696585
 20
4.826584
 30
0.000000
 40
0.005908
 50
292.654036
 51
349.909382
  0
ARC
  8
0
 62
     7
  6
CONTINUOUS
 10
2.687085
 20
4.827135
 30
0.000000
 40
0.015398
 50
354.090679
 51
385.970020
  0
ARC
  8
0
 62
     7
  6
CONTINUOUS
 10
2.578359
 20
4.772889
 30
0.000000
 40
0.136905
 50
26.453975
 51
42.444211
  0
ARC
  8
0
 62
     7
  6
CONTINUOUS
 10
6.099572
 20
5.886648
 30
0.000000
 40
0.823898
 50
186.279918
 51
192.686667
  0
ARC
  8
0
 62
     7
  6
CONTINUOUS
 10
4.692473
 20
5.561844
 30
0.000000
 40
0.620230
 50
2.974343
 51
13.411683
  0
ARC
  8
0
 62
     7
  6
CONTINUOUS
 10
3.870536
 20
3.704367
 30
0.000000
 40
2.376605
 50
52.665553
 51
56.899230
  0
ARC
  8
0
 62
     7
  6
CONTINUOUS
 10
4.712606
 20
4.998386
 30
0.000000
 40
0.832726
 50
56.811913
 51
68.661341
  0
ARC
  8
0
 62
     7
  6
CONTINUOUS
 10
5.176866
 20
4.713235
 30
0.000000
 40
1.072976
 50
91.321440
 51
98.643182
  0
ARC
  8
0
 62
     7
  6
CONTINUOUS
 10
5.123259
 20
6.919927
 30
0.000000
 40
1.134369
 50
271.457937
 51
277.973690
  0
ARC
  8
0
 62
     7
  6
CONTINUOUS
 10
3.681304
 20
5.191366
 30
0.000000
 40
1.371063
 50
31.995082
 51
36.610206
  0
ARC
  8
0
 62
     7
  6
CONTINUOUS
 10
6.010703
 20
6.645526
 30
0.000000
 40
1.374967
 50
211.955082
 51
216.949108
  0
ARC
  8
0
 62
     7
  6
CONTINUOUS
 10
6.159537
 20
10.813973
 30
0.000000
 40
5.148415
 50
255.236192
 51
255.975305
  0
ARC
  8
0
 62
     7
  6
CONTINUOUS
 10
4.163155
 20
3.315764
 30
0.000000
 40
2.611059
 50
74.804675
 51
78.288678
  0
ARC
  8
0
 62
     7
  6
CONTINUOUS
 10
4.503728
 20
4.957796
 30
0.000000
 40
0.934081
 50
78.299845
 51
88.426810
  0
ARC
  8
0
 62
     7
  6
CONTINUOUS
 10
3.827818
 20
7.662222
 30
0.000000
 40
1.904613
 50
291.613584
 51
297.341740
  0
ARC
  8
0
 62
     7
  6
CONTINUOUS
 10
6.618813
 20
2.139458
 30
0.000000
 40
4.283444
 50
115.394406
 51
116.574001
  0
ARC
  8
0
 62
     7
  6
CONTINUOUS
 10
3.532847
 20
5.011861
 30
0.000000
 40
1.284497
 50
48.550795
 51
53.847190
  0
ARC
  8
0
 62
     7
  6
CONTINUOUS
 10
5.233419
 20
6.937445
 30
0.000000
 40
1.284515
 50
228.550787
 51
233.846725
  0
ARC
  8
0
 62
     7
  6
CONTINUOUS
 10
4.416744
 20
3.303880
 30
0.000000
 40
2.597062
 50
88.700911
 51
97.658781
  0
ARC
  8
0
 62
     7
  6
CONTINUOUS
 10
6.610518
 20
2.646681
 30
0.000000
 40
4.109868
 50
126.680684
 51
128.170124
  0
ARC
  8
0
 62
     7
  6
CONTINUOUS
 10
2.606665
 20
8.050599
 30
0.000000
 40
2.615726
 50
306.307046
 51
310.074477
  0
ARC
  8
0
 62
     7
  6
CONTINUOUS
 10
3.513233
 20
4.912490
 30
0.000000
 40
1.073255
 50
66.512334
 51
75.228318
  0
ARC
  8
0
 62
     7
  6
CONTINUOUS
 10
4.809414
 20
8.007475
 30
0.000000
 40
2.282332
 50
247.635154
 51
249.546955
  0
ARC
  8
0
 62
     7
  6
CONTINUOUS
 10
4.631245
 20
3.380317
 30
0.000000
 40
2.564621
 50
103.975351
 51
113.116282
  0
LINE
  8
0
 62
     7
  6
CONTINUOUS
 10
3.624378
 20
5.739024
 30
0.000000
 11
3.653416
 21
5.776237
 31
0.000000
  0
ARC
  8
0
 62
     7
  6
CONTINUOUS
 10
-2.777321
 20
10.845932
 30
0.000000
 40
8.188784
 50
321.749395
 51
323.283982
  0
ARC
  8
0
 62
     7
  6
CONTINUOUS
 10
3.737370
 20
5.401500
 30
0.000000
 40
0.175198
 50
123.762038
 51
162.124306
  0
ARC
  8
0
 62
     7
  6
CONTINUOUS
 10
3.787076
 20
5.336659
 30
0.000000
 40
0.256782
 50
99.006317
 51
124.942149
  0
ARC
  8
0
 62
     7
  6
CONTINUOUS
 10
3.764828
 20
5.387612
 30
0.000000
 40
0.203457
 50
54.879134
 51
95.061376
  0
ARC
  8
0
 62
     7
  6
CONTINUOUS
 10
3.753696
 20
5.401384
 30
0.000000
 40
0.199325
 50
3.456812
 51
49.978298
  0
ARC
  8
0
 62
     7
  6
CONTINUOUS
 10
3.749350
 20
5.390549
 30
0.000000
 40
0.204589
 50
320.903078
 51
366.413576
  0
ARC
  8
0
 62
     7
  6
CONTINUOUS
 10
3.794189
 20
5.348122
 30
0.000000
 40
0.143110
 50
287.105258
 51
322.765023
  0
ARC
  8
0
 62
     7
  6
CONTINUOUS
 10
3.716401
 20
5.621902
 30
0.000000
 40
0.427704
 50
274.439469
 51
286.277468
  0
LINE
  8
0
 62
     7
  6
CONTINUOUS
 10
3.749507
 20
5.195481
 30
0.000000
 11
3.736878
 21
5.194030
 31
0.000000
  0
ARC
  8
0
 62
     7
  6
CONTINUOUS
 10
3.735394
 20
5.326818
 30
0.000000
 40
0.132796
 50
239.724100
 51
270.640384
  0
ARC
  8
0
 62
     7
  6
CONTINUOUS
 10
3.878352
 20
5.566791
 30
0.000000
 40
0.412120
 50
229.377932
 51
239.380232
  0
LINE
  8
0
 62
     7
  6
CONTINUOUS
 10
3.610034
 20
5.253983
 30
0.000000
 11
3.606878
 21
5.256530
 31
0.000000
  0
ARC
  8
0
 62
     7
  6
CONTINUOUS
 10
3.713720
 20
5.363035
 30
0.000000
 40
0.150859
 50
185.029378
 51
224.909344
  0
ARC
  8
0
 62
     7
  6
CONTINUOUS
 10
3.874848
 20
5.381568
 30
0.000000
 40
0.313021
 50
166.380193
 51
185.823146
  0
ARC
  8
0
 62
     7
  6
CONTINUOUS
 10
3.388169
 20
4.839566
 30
0.000000
 40
0.863051
 50
84.158552
 51
96.071749
  0
ARC
  8
0
 62
     7
  6
CONTINUOUS
 10
3.597667
 20
7.295098
 30
0.000000
 40
1.601590
 50
265.643495
 51
268.540674
  0
ARC
  8
0
 62
     7
  6
CONTINUOUS
 10
3.968939
 20
4.844664
 30
0.000000
 40
0.944039
 50
115.879847
 51
126.752152
  0
ARC
  8
0
 62
     7
  6
CONTINUOUS
 10
5.011005
 20
3.441469
 30
0.000000
 40
2.691853
 50
126.652699
 51
130.560351
  0
ARC
  8
0
 62
     7
  6
CONTINUOUS
 10
2.153837
 20
5.717485
 30
0.000000
 40
1.130635
 50
348.213083
 51
352.929693
  0
ARC
  8
0
 62
     7
  6
CONTINUOUS
 10
4.396348
 20
5.442854
 30
0.000000
 40
1.128633
 50
166.946114
 51
173.106447
  0
ARC
  8
0
 62
     7
  6
CONTINUOUS
 10
2.253333
 20
8.089592
 30
0.000000
 40
2.847591
 50
283.785621
 51
285.115097
  0
ARC
  8
0
 62
     7
  6
CONTINUOUS
 10
3.331545
 20
4.178004
 30
0.000000
 40
1.210005
 50
98.718496
 51
106.106175
  0
LINE
  8
0
 62
     7
  6
CONTINUOUS
 10
3.148132
 20
5.374028
 30
0.000000
 11
3.123715
 21
5.343719
 31
0.000000
  0
ARC
  8
0
 62
     7
  6
CONTINUOUS
 10
4.462286
 20
4.192601
 30
0.000000
 40
1.765459
 50
139.305757
 51
150.095512
  0
LINE
  8
0
 62
     7
  6
CONTINUOUS
 10
2.931884
 20
5.072780
 30
0.000000
 11
2.931884
 21
5.324028
 31
0.000000
  0
ARC
  8
0
 62
     7
  6
CONTINUOUS
 10
5.078562
 20
2.729137
 30
0.000000
 40
0.594056
 50
2.885958
 51
23.555679
  0
ARC
  8
0
 62
     7
  6
CONTINUOUS
 10
5.919568
 20
3.178194
 30
0.000000
 40
0.364251
 50
210.384443
 51
215.524617
  0
ARC
  8
0
 62
     7
  6
CONTINUOUS
 10
5.378601
 20
2.866355
 30
0.000000
 40
0.260184
 50
29.368640
 51
40.658684
  0
ARC
  8
0
 62
     7
  6
CONTINUOUS
 10
5.515519
 20
2.983533
 30
0.000000
 40
0.079971
 50
40.886101
 51
77.287878
  0
ARC
  8
0
 62
     7
  6
CONTINUOUS
 10
5.533324
 20
3.048561
 30
0.000000
 40
0.012984
 50
90.914361
 51
166.253012
  0
ARC
  8
0
 62
     7
  6
CONTINUOUS
 10
5.578493
 20
3.038033
 30
0.000000
 40
0.059364
 50
166.742844
 51
184.349951
  0
ARC
  8
0
 62
     7
  6
CONTINUOUS
 10
5.307423
 20
3.028169
 30
0.000000
 40
0.211945
 50
0.236789
 51
1.449386
  0
ARC
  8
0
 62
     7
  6
CONTINUOUS
 10
4.473779
 20
2.450656
 30
0.000000
 40
1.194901
 50
22.509472
 51
28.950114
  0
ARC
  8
0
 62
     7
  6
CONTINUOUS
 10
5.041911
 20
2.686819
 30
0.000000
 40
0.579640
 50
9.030051
 51
22.443242
  0
ARC
  8
0
 62
     7
  6
CONTINUOUS
 10
5.660669
 20
2.776636
 30
0.000000
 40
0.046317
 50
178.566421
 51
202.444408
  0
ARC
  8
0
 62
     7
  6
CONTINUOUS
 10
5.638254
 20
2.767297
 30
0.000000
 40
0.022034
 50
202.250879
 51
243.654776
  0
ARC
  8
0
 62
     7
  6
CONTINUOUS
 10
5.638801
 20
2.772224
 30
0.000000
 40
0.026746
 50
247.291341
 51
286.529841
  0
ARC
  8
0
 62
     7
  6
CONTINUOUS
 10
5.624785
 20
2.822975
 30
0.000000
 40
0.079394
 50
285.806130
 51
306.369231
  0
ARC
  8
0
 62
     7
  6
CONTINUOUS
 10
5.445082
 20
2.987119
 30
0.000000
 40
0.025398
 50
105.916553
 51
195.588586
  0
ARC
  8
0
 62
     7
  6
CONTINUOUS
 10
3.885527
 20
2.014608
 30
0.000000
 40
1.813574
 50
28.007306
 51
32.172938
  0
ARC
  8
0
 62
     7
  6
CONTINUOUS
 10
4.868250
 20
2.536705
 30
0.000000
 40
0.700772
 50
17.424051
 51
28.049611
  0
ARC
  8
0
 62
     7
  6
CONTINUOUS
 10
5.630966
 20
2.767770
 30
0.000000
 40
0.096464
 50
192.710962
 51
212.403728
  0
ARC
  8
0
 62
     7
  6
CONTINUOUS
 10
5.570590
 20
2.728644
 30
0.000000
 40
0.024531
 50
210.816329
 51
287.867059
  0
ARC
  8
0
 62
     7
  6
CONTINUOUS
 10
5.575252
 20
2.738629
 30
0.000000
 40
0.033455
 50
274.911151
 51
313.405762
  0
ARC
  8
0
 62
     7
  6
CONTINUOUS
 10
5.577965
 20
2.732635
 30
0.000000
 40
0.027321
 50
317.914929
 51
356.681052
  0
ARC
  8
0
 62
     7
  6
CONTINUOUS
 10
5.530263
 20
2.736144
 30
0.000000
 40
0.075150
 50
356.115791
 51
372.444447
  0
ARC
  8
0
 62
     7
  6
CONTINUOUS
 10
5.301934
 20
2.689290
 30
0.000000
 40
0.308230
 50
11.803192
 51
16.151649
  0
ARC
  8
0
 62
     7
  6
CONTINUOUS
 10
5.952902
 20
2.875908
 30
0.000000
 40
0.368961
 50
193.368350
 51
195.866805
  0
ARC
  8
0
 62
     7
  6
CONTINUOUS
 10
5.668471
 20
2.808968
 30
0.000000
 40
0.076763
 50
183.676297
 51
193.844205
  0
ARC
  8
0
 62
     7
  6
CONTINUOUS
 10
7.415638
 20
3.694035
 30
0.000000
 40
2.029341
 50
205.003894
 51
206.012064
  0
ARC
  8
0
 62
     7
  6
CONTINUOUS
 10
4.950628
 20
2.563176
 30
0.000000
 40
0.682851
 50
23.574241
 51
33.147607
  0
ARC
  8
0
 62
     7
  6
CONTINUOUS
 10
5.341289
 20
2.817961
 30
0.000000
 40
0.216448
 50
33.224566
 51
63.426506
  0
ARC
  8
0
 62
     7
  6
CONTINUOUS
 10
4.699292
 20
3.226051
 30
0.000000
 40
0.708418
 50
38.560492
 51
45.523911
  0
ARC
  8
0
 62
     7
  6
CONTINUOUS
 10
5.754572
 20
4.058633
 30
0.000000
 40
0.635776
 50
217.951214
 51
229.041201
  0
ARC
  8
0
 62
     7
  6
CONTINUOUS
 10
5.444754
 20
3.698563
 30
0.000000
 40
0.160780
 50
228.306030
 51
269.416882
  0
ARC
  8
0
 62
     7
  6
CONTINUOUS
 10
4.087858
 20
2.152094
 30
0.000000
 40
1.938269
 50
45.636239
 51
49.782855
  0
ARC
  8
0
 62
     7
  6
CONTINUOUS
 10
6.590775
 20
5.112105
 30
0.000000
 40
1.938104
 50
225.635677
 51
229.782981
  0
ARC
  8
0
 62
     7
  6
CONTINUOUS
 10
5.218870
 20
3.701276
 30
0.000000
 40
0.030310
 50
56.459491
 51
88.215420
  0
ARC
  8
0
 62
     7
  6
CONTINUOUS
 10
5.211783
 20
3.611439
 30
0.000000
 40
0.120400
 50
86.175079
 51
94.140109
  0
ARC
  8
0
 62
     7
  6
CONTINUOUS
 10
5.195291
 20
3.860300
 30
0.000000
 40
0.129011
 50
271.371717
 51
273.465934
  0
ARC
  8
0
 62
     7
  6
CONTINUOUS
 10
5.197749
 20
3.741199
 30
0.000000
 40
0.009893
 50
257.564052
 51
273.654407
  0
ARC
  8
0
 62
     7
  6
CONTINUOUS
 10
4.687310
 20
4.938096
 30
0.000000
 40
0.034669
 50
203.933789
 51
242.993129
  0
ARC
  8
0
 62
     7
  6
CONTINUOUS
 10
4.727889
 20
5.018896
 30
0.000000
 40
0.125087
 50
243.239129
 51
254.729214
  0
ARC
  8
0
 62
     7
  6
CONTINUOUS
 10
4.636199
 20
4.699825
 30
0.000000
 40
0.206915
 50
68.592078
 51
73.506615
  0
ARC
  8
0
 62
     7
  6
CONTINUOUS
 10
4.688575
 20
4.833065
 30
0.000000
 40
0.063751
 50
53.078697
 51
68.708088
  0
ARC
  8
0
 62
     7
  6
CONTINUOUS
 10
4.799721
 20
4.860728
 30
0.000000
 40
0.076486
 50
162.261581
 51
178.386144
  0
ARC
  8
0
 62
     7
  6
CONTINUOUS
 10
4.955876
 20
4.856692
 30
0.000000
 40
0.232693
 50
178.475672
 51
183.817650
  0
ARC
  8
0
 62
     7
  6
CONTINUOUS
 10
4.507754
 20
4.826008
 30
0.000000
 40
0.216479
 50
357.214966
 51
364.024055
  0
ARC
  8
0
 62
     7
  6
CONTINUOUS
 10
4.640528
 20
4.820083
 30
0.000000
 40
0.083576
 50
338.189810
 51
356.848899
  0
ARC
  8
0
 62
     7
  6
CONTINUOUS
 10
4.623914
 20
5.193168
 30
0.000000
 40
0.414971
 50
283.121814
 51
287.211611
  0
ARC
  8
0
 62
     7
  6
CONTINUOUS
 10
4.837386
 20
4.509625
 30
0.000000
 40
0.301133
 50
102.094440
 51
107.525750
  0
ARC
  8
0
 62
     7
  6
CONTINUOUS
 10
4.799566
 20
4.680051
 30
0.000000
 40
0.126572
 50
87.824405
 51
101.518734
  0
ARC
  8
0
 62
     7
  6
CONTINUOUS
 10
4.847197
 20
4.784532
 30
0.000000
 40
0.048146
 50
117.426174
 51
152.809195
  0
ARC
  8
0
 62
     7
  6
CONTINUOUS
 10
4.884821
 20
4.706472
 30
0.000000
 40
0.134786
 50
104.083344
 51
116.338447
  0
ARC
  8
0
 62
     7
  6
CONTINUOUS
 10
4.817292
 20
4.973820
 30
0.000000
 40
0.140958
 50
284.264194
 51
295.455927
  0
ARC
  8
0
 62
     7
  6
CONTINUOUS
 10
4.856525
 20
4.889919
 30
0.000000
 40
0.048344
 50
296.212513
 51
329.362194
  0
ARC
  8
0
 62
     7
  6
CONTINUOUS
 10
4.856650
 20
4.984588
 30
0.000000
 40
0.126308
 50
254.718502
 51
289.167170
  0
ARC
  8
0
 62
     7
  6
CONTINUOUS
 10
4.916001
 20
5.169997
 30
0.000000
 40
0.320914
 50
240.463777
 51
253.221126
  0
ARC
  8
0
 62
     7
  6
CONTINUOUS
 10
4.545938
 20
4.501116
 30
0.000000
 40
0.443542
 50
61.467488
 51
68.438005
  0
ARC
  8
0
 62
     7
  6
CONTINUOUS
 10
4.653697
 20
4.772436
 30
0.000000
 40
0.151608
 50
68.629293
 51
89.272871
  0
ARC
  8
0
 62
     7
  6
CONTINUOUS
 10
4.458171
 20
1.982352
 30
0.000000
 40
0.055638
 50
344.840266
 51
371.897266
  0
ARC
  8
0
 62
     7
  6
CONTINUOUS
 10
4.306670
 20
1.952393
 30
0.000000
 40
0.210069
 50
11.374371
 51
19.027617
  0
ARC
  8
0
 62
     7
  6
CONTINUOUS
 10
4.720615
 20
2.094033
 30
0.000000
 40
0.227439
 50
192.856096
 51
198.761983
  0
ARC
  8
0
 62
     7
  6
CONTINUOUS
 10
4.550064
 20
2.055785
 30
0.000000
 40
0.052657
 50
171.039779
 51
193.572826
  0
ARC
  8
0
 62
     7
  6
CONTINUOUS
 10
4.527611
 20
2.058374
 30
0.000000
 40
0.030090
 50
130.410200
 51
169.250474
  0
ARC
  8
0
 62
     7
  6
CONTINUOUS
 10
4.549328
 20
2.029868
 30
0.000000
 40
0.065902
 50
103.116820
 51
128.719995
  0
ARC
  8
0
 62
     7
  6
CONTINUOUS
 10
4.426130
 20
2.096285
 30
0.000000
 40
0.108265
 50
358.817220
 51
366.272208
  0
ARC
  8
0
 62
     7
  6
CONTINUOUS
 10
4.509080
 20
2.106136
 30
0.000000
 40
0.024746
 50
4.583700
 51
34.914459
  0
LINE
  8
0
 62
     7
  6
CONTINUOUS
 10
4.529372
 20
2.120299
 30
0.000000
 11
4.519493
 21
2.118968
 31
0.000000
  0
ARC
  8
0
 62
     7
  6
CONTINUOUS
 10
4.594611
 20
1.456155
 30
0.000000
 40
0.667056
 50
96.465802
 51
103.874315
  0
ARC
  8
0
 62
     7
  6
CONTINUOUS
 10
4.478645
 20
1.915926
 30
0.000000
 40
0.192905
 50
103.181627
 51
128.665064
  0
ARC
  8
0
 62
     7
  6
CONTINUOUS
 10
4.379436
 20
2.075587
 30
0.000000
 40
0.023149
 50
202.981427
 51
236.782332
  0
ARC
  8
0
 62
     7
  6
CONTINUOUS
 10
4.410479
 20
2.122901
 30
0.000000
 40
0.079737
 50
236.745455
 51
246.899410
  0
ARC
  8
0
 62
     7
  6
CONTINUOUS
 10
4.354436
 20
1.989582
 30
0.000000
 40
0.064884
 50
54.205320
 51
67.568262
  0
ARC
  8
0
 62
     7
  6
CONTINUOUS
 10
4.381999
 20
2.028111
 30
0.000000
 40
0.017512
 50
7.177387
 51
53.624553
  0
ARC
  8
0
 62
     7
  6
CONTINUOUS
 10
5.043266
 20
1.826010
 30
0.000000
 40
0.675522
 50
162.397178
 51
180.614067
  0
ARC
  8
0
 62
     7
  6
CONTINUOUS
 10
6.382120
 20
1.841918
 30
0.000000
 40
2.014471
 50
180.658391
 51
186.703527
  0
ARC
  8
0
 62
     7
  6
CONTINUOUS
 10
2.496502
 20
1.383995
 30
0.000000
 40
1.898037
 50
0.756506
 51
6.740263
  0
ARC
  8
0
 62
     7
  6
CONTINUOUS
 10
5.482657
 20
1.206851
 30
0.000000
 40
1.106908
 50
169.474417
 51
182.010592
  0
ARC
  8
0
 62
     7
  6
CONTINUOUS
 10
8.085336
 20
1.289099
 30
0.000000
 40
3.710881
 50
181.869835
 51
185.738537
  0
ARC
  8
0
 62
     7
  6
CONTINUOUS
 10
-3.264426
 20
0.216148
 30
0.000000
 40
7.689579
 50
4.338156
 51
5.237236
  0
ARC
  8
0
 62
     7
  6
CONTINUOUS
 10
4.685066
 20
0.703422
 30
0.000000
 40
0.297323
 50
161.490908
 51
182.701998
  0
ARC
  8
0
 62
     7
  6
CONTINUOUS
 10
5.277726
 20
0.734539
 30
0.000000
 40
0.890797
 50
182.904200
 51
189.984393
  0
ARC
  8
0
 62
     7
  6
CONTINUOUS
 10
3.303275
 20
0.394869
 30
0.000000
 40
1.112670
 50
4.767867
 51
9.582525
  0
ARC
  8
0
 62
     7
  6
CONTINUOUS
 10
4.030246
 20
0.456037
 30
0.000000
 40
0.383131
 50
350.501309
 51
364.688387
  0
ARC
  8
0
 62
     7
  6
CONTINUOUS
 10
3.569243
 20
0.300155
 30
0.000000
 40
0.843983
 50
355.326109
 51
366.302913
  0
ARC
  8
0
 62
     7
  6
CONTINUOUS
 10
5.564272
 20
0.154760
 30
0.000000
 40
1.156394
 50
176.200770
 51
181.017489
  0
ARC
  8
0
 62
     7
  6
CONTINUOUS
 10
4.865902
 20
0.144941
 30
0.000000
 40
0.457967
 50
181.340731
 51
194.172104
  0
ARC
  8
0
 62
     7
  6
CONTINUOUS
 10
4.351967
 20
0.111673
 30
0.000000
 40
0.105383
 50
311.556345
 51
346.890360
  0
ARC
  8
0
 62
     7
  6
CONTINUOUS
 10
4.121219
 20
0.162682
 30
0.000000
 40
0.341697
 50
347.335884
 51
358.457653
  0
ARC
  8
0
 62
     7
  6
CONTINUOUS
 10
4.990916
 20
0.129178
 30
0.000000
 40
0.528683
 50
172.404181
 51
177.364763
  0
ARC
  8
0
 62
     7
  6
CONTINUOUS
 10
-14.880588
 20
-0.365855
 30
0.000000
 40
19.355705
 50
1.672474
 51
3.200874
  0
ARC
  8
0
 62
     7
  6
CONTINUOUS
 10
22.736376
 20
1.748921
 30
0.000000
 40
18.320658
 50
181.485252
 51
183.235489
  0
ARC
  8
0
 62
     7
  6
CONTINUOUS
 10
3.787580
 20
1.434157
 30
0.000000
 40
0.654187
 50
345.834015
 51
361.032891
  0
ARC
  8
0
 62
     7
  6
CONTINUOUS
 10
2.396341
 20
1.409825
 30
0.000000
 40
2.045638
 50
1.011845
 51
5.929589
  0
ARC
  8
0
 62
     7
  6
CONTINUOUS
 10
6.293369
 20
1.819423
 30
0.000000
 40
1.872859
 50
180.327335
 51
186.077021
  0
ARC
  8
0
 62
     7
  6
CONTINUOUS
 10
5.008660
 20
1.812269
 30
0.000000
 40
0.588131
 50
162.379493
 51
180.345393
  0
ARC
  8
0
 62
     7
  6
CONTINUOUS
 10
5.624875
 20
1.877249
 30
0.000000
 40
1.182170
 50
174.512315
 51
185.454134
  0
ARC
  8
0
 62
     7
  6
CONTINUOUS
 10
7.707698
 20
2.084342
 30
0.000000
 40
3.275257
 50
185.597322
 51
189.454568
  0
ARC
  8
0
 62
     7
  6
CONTINUOUS
 10
-0.588163
 20
0.736739
 30
0.000000
 40
5.129388
 50
7.432936
 51
9.081192
  0
ARC
  8
0
 62
     7
  6
CONTINUOUS
 10
5.061321
 20
1.241024
 30
0.000000
 40
0.585289
 50
164.208272
 51
179.397336
  0
ARC
  8
0
 62
     7
  6
CONTINUOUS
 10
6.281799
 20
1.227687
 30
0.000000
 40
1.805840
 50
179.381506
 51
184.329946
  0
ARC
  8
0
 62
     7
  6
CONTINUOUS
 10
2.183773
 20
0.930781
 30
0.000000
 40
2.302944
 50
1.074942
 51
3.998014
  0
ARC
  8
0
 62
     7
  6
CONTINUOUS
 10
3.781375
 20
0.959966
 30
0.000000
 40
0.705076
 50
351.874500
 51
361.139220
  0
ARC
  8
0
 62
     7
  6
CONTINUOUS
 10
4.337894
 20
0.822285
 30
0.000000
 40
0.146500
 50
1.094142
 51
15.043539
  0
ARC
  8
0
 62
     7
  6
CONTINUOUS
 10
3.962669
 20
0.812894
 30
0.000000
 40
0.521841
 50
357.203688
 51
361.338390
  0
ARC
  8
0
 62
     7
  6
CONTINUOUS
 10
4.793090
 20
0.766023
 30
0.000000
 40
0.309942
 50
176.038502
 51
186.526386
  0
ARC
  8
0
 62
     7
  6
CONTINUOUS
 10
4.560131
 20
0.738666
 30
0.000000
 40
0.075387
 50
185.993265
 51
225.052382
  0
ARC
  8
0
 62
     7
  6
CONTINUOUS
 10
4.467288
 20
0.759095
 30
0.000000
 40
0.083733
 50
298.213619
 51
316.596293
  0
ARC
  8
0
 62
     7
  6
CONTINUOUS
 10
4.505483
 20
0.725073
 30
0.000000
 40
0.032641
 50
313.913981
 51
360.416338
  0
ARC
  8
0
 62
     7
  6
CONTINUOUS
 10
5.891255
 20
0.883666
 30
0.000000
 40
1.362366
 50
174.751202
 51
186.674913
  0
ARC
  8
0
 62
     7
  6
CONTINUOUS
 10
3.080281
 20
1.135506
 30
0.000000
 40
1.459873
 50
355.001065
 51
365.101038
  0
ARC
  8
0
 62
     7
  6
CONTINUOUS
 10
3.932594
 20
1.389009
 30
0.000000
 40
0.614361
 50
348.384000
 51
364.802266
  0
ARC
  8
0
 62
     7
  6
CONTINUOUS
 10
2.807701
 20
1.289246
 30
0.000000
 40
1.743664
 50
4.974420
 51
10.640735
  0
ARC
  8
0
 62
     7
  6
CONTINUOUS
 10
6.157829
 20
1.921088
 30
0.000000
 40
1.665527
 50
184.592791
 51
190.722436
  0
ARC
  8
0
 62
     7
  6
CONTINUOUS
 10
5.079381
 20
1.832381
 30
0.000000
 40
0.583442
 50
166.578854
 51
184.389857
  0
ARC
  8
0
 62
     7
  6
CONTINUOUS
 10
5.450278
 20
0.662022
 30
0.000000
 40
1.768626
 50
123.925385
 51
124.172215
  0
ARC
  8
0
 62
     7
  6
CONTINUOUS
 10
4.324195
 20
2.352319
 30
0.000000
 40
0.262558
 50
301.962842
 51
313.863926
  0
ARC
  8
0
 62
     7
  6
CONTINUOUS
 10
4.452690
 20
2.218635
 30
0.000000
 40
0.077134
 50
313.858224
 51
353.796655
  0
ARC
  8
0
 62
     7
  6
CONTINUOUS
 10
4.422685
 20
2.101644
 30
0.000000
 40
0.152277
 50
45.523783
 51
58.104286
  0
ARC
  8
0
 62
     7
  6
CONTINUOUS
 10
4.485369
 20
2.204306
 30
0.000000
 40
0.032012
 50
56.270618
 51
89.261617
  0
ARC
  8
0
 62
     7
  6
CONTINUOUS
 10
4.487161
 20
2.217415
 30
0.000000
 40
0.018951
 50
94.173942
 51
134.625669
  0
ARC
  8
0
 62
     7
  6
CONTINUOUS
 10
4.531468
 20
2.172201
 30
0.000000
 40
0.082255
 50
134.467510
 51
145.212673
  0
ARC
  8
0
 62
     7
  6
CONTINUOUS
 10
4.331192
 20
2.315963
 30
0.000000
 40
0.164292
 50
319.526208
 51
323.885891
  0
ARC
  8
0
 62
     7
  6
CONTINUOUS
 10
4.407884
 20
2.250674
 30
0.000000
 40
0.063573
 50
307.357383
 51
319.422113
  0
ARC
  8
0
 62
     7
  6
CONTINUOUS
 10
4.377873
 20
2.336810
 30
0.000000
 40
0.152913
 50
288.734432
 51
296.649789
  0
ARC
  8
0
 62
     7
  6
CONTINUOUS
 10
3.212522
 20
5.436684
 30
0.000000
 40
3.464520
 50
289.856590
 51
290.520532
  0
ARC
  8
0
 62
     7
  6
CONTINUOUS
 10
5.381871
 20
-0.578516
 30
0.000000
 40
2.929909
 50
109.801957
 51
110.738623
  0
ARC
  8
0
 62
     7
  6
CONTINUOUS
 10
4.343519
 20
2.143574
 30
0.000000
 40
0.017996
 50
87.276096
 51
126.742874
  0
ARC
  8
0
 62
     7
  6
CONTINUOUS
 10
4.347308
 20
2.137523
 30
0.000000
 40
0.025119
 50
125.410568
 51
155.066162
  0
ARC
  8
0
 62
     7
  6
CONTINUOUS
 10
4.339106
 20
2.140216
 30
0.000000
 40
0.016577
 50
151.554330
 51
244.136124
  0
ARC
  8
0
 62
     7
  6
CONTINUOUS
 10
4.379232
 20
2.195103
 30
0.000000
 40
0.084352
 50
235.845017
 51
277.182154
  0
ARC
  8
0
 62
     7
  6
CONTINUOUS
 10
4.356849
 20
2.433240
 30
0.000000
 40
0.323507
 50
275.842114
 51
286.837210
  0
LINE
  8
0
 62
     7
  6
CONTINUOUS
 10
4.450554
 20
2.123601
 30
0.000000
 11
4.456872
 21
2.125300
 31
0.000000
  0
ARC
  8
0
 62
     7
  6
CONTINUOUS
 10
4.407020
 20
2.281946
 30
0.000000
 40
0.070168
 50
311.074594
 51
336.573876
  0
ARC
  8
0
 62
     7
  6
CONTINUOUS
 10
4.387546
 20
2.291838
 30
0.000000
 40
0.091979
 50
335.742151
 51
356.702813
  0
ARC
  8
0
 62
     7
  6
CONTINUOUS
 10
3.995479
 20
2.226918
 30
0.000000
 40
0.487555
 50
7.025126
 51
41.943468
  0
ARC
  8
0
 62
     7
  6
CONTINUOUS
 10
4.343436
 20
2.517099
 30
0.000000
 40
0.038603
 50
67.635422
 51
96.506843
  0
ARC
  8
0
 62
     7
  6
CONTINUOUS
 10
4.342839
 20
2.523850
 30
0.000000
 40
0.031828
 50
96.816431
 51
131.199452
  0
ARC
  8
0
 62
     7
  6
CONTINUOUS
 10
4.421385
 20
2.545559
 30
0.000000
 40
0.099536
 50
178.710707
 51
206.958678
  0
ARC
  8
0
 62
     7
  6
CONTINUOUS
 10
4.634216
 20
2.653707
 30
0.000000
 40
0.338269
 50
206.943431
 51
215.587326
  0
ARC
  8
0
 62
     7
  6
CONTINUOUS
 10
3.965790
 20
2.182799
 30
0.000000
 40
0.479396
 50
30.287270
 51
34.866656
  0
ARC
  8
0
 62
     7
  6
CONTINUOUS
 10
4.252979
 20
2.350234
 30
0.000000
 40
0.146962
 50
15.820497
 51
30.388122
  0
ARC
  8
0
 62
     7
  6
CONTINUOUS
 10
4.311713
 20
2.336577
 30
0.000000
 40
0.098585
 50
11.564950
 51
33.020055
  0
ARC
  8
0
 62
     7
  6
CONTINUOUS
 10
4.067926
 20
2.285052
 30
0.000000
 40
0.347756
 50
5.436770
 51
11.829320
  0
ARC
  8
0
 62
     7
  6
CONTINUOUS
 10
4.653846
 20
2.336249
 30
0.000000
 40
0.240422
 50
184.352820
 51
196.664369
  0
ARC
  8
0
 62
     7
  6
CONTINUOUS
 10
4.489092
 20
2.287463
 30
0.000000
 40
0.068600
 50
197.089132
 51
238.376803
  0
ARC
  8
0
 62
     7
  6
CONTINUOUS
 10
4.474457
 20
3.225872
 30
0.000000
 40
0.039438
 50
122.747943
 51
158.309730
  0
ARC
  8
0
 62
     7
  6
CONTINUOUS
 10
4.458361
 20
3.231188
 30
0.000000
 40
0.022540
 50
155.741493
 51
212.605481
  0
ARC
  8
0
 62
     7
  6
CONTINUOUS
 10
4.448051
 20
3.233472
 30
0.000000
 40
0.016838
 50
238.979124
 51
304.934982
  0
ARC
  8
0
 62
     7
  6
CONTINUOUS
 10
4.439274
 20
3.246219
 30
0.000000
 40
0.032315
 50
304.750550
 51
340.237838
  0
ARC
  8
0
 62
     7
  6
CONTINUOUS
 10
4.449464
 20
3.244360
 30
0.000000
 40
0.022161
 50
335.848542
 51
382.363872
  0
ARC
  8
0
 62
     7
  6
CONTINUOUS
 10
4.459841
 20
3.247534
 30
0.000000
 40
0.011402
 50
27.461067
 51
68.519774
  0
ARC
  8
0
 62
     7
  6
CONTINUOUS
 10
4.456895
 20
3.238279
 30
0.000000
 40
0.021103
 50
70.278788
 51
100.295797
  0
ARC
  8
0
 62
     7
  6
CONTINUOUS
 10
4.222783
 20
2.540225
 30
0.000000
 40
0.021326
 50
89.083474
 51
158.299285
  0
ARC
  8
0
 62
     7
  6
CONTINUOUS
 10
4.243451
 20
2.531153
 30
0.000000
 40
0.043890
 50
157.272681
 51
192.641158
  0
ARC
  8
0
 62
     7
  6
CONTINUOUS
 10
3.578540
 20
1.952768
 30
0.000000
 40
0.842911
 50
32.823715
 51
42.437118
  0
ARC
  8
0
 62
     7
  6
CONTINUOUS
 10
4.005840
 20
2.228886
 30
0.000000
 40
0.334162
 50
9.284619
 51
32.752874
  0
ARC
  8
0
 62
     7
  6
CONTINUOUS
 10
4.279530
 20
2.246767
 30
0.000000
 40
0.066670
 50
16.980899
 51
32.714537
  0
ARC
  8
0
 62
     7
  6
CONTINUOUS
 10
4.083050
 20
2.184197
 30
0.000000
 40
0.272868
 50
13.249443
 51
17.497324
  0
ARC
  8
0
 62
     7
  6
CONTINUOUS
 10
4.616328
 20
2.309893
 30
0.000000
 40
0.275023
 50
193.275955
 51
197.321762
  0
ARC
  8
0
 62
     7
  6
CONTINUOUS
 10
4.415549
 20
2.246627
 30
0.000000
 40
0.064515
 50
196.773879
 51
212.115132
  0
ARC
  8
0
 62
     7
  6
CONTINUOUS
 10
4.382083
 20
2.225279
 30
0.000000
 40
0.024823
 50
211.444011
 51
287.080416
  0
ARC
  8
0
 62
     7
  6
CONTINUOUS
 10
5.194462
 20
2.027422
 30
0.000000
 40
0.823703
 50
167.316064
 51
167.795744
  0
ARC
  8
0
 62
     7
  6
CONTINUOUS
 10
3.948736
 20
2.311710
 30
0.000000
 40
0.454060
 50
346.833560
 51
351.240437
  0
ARC
  8
0
 62
     7
  6
CONTINUOUS
 10
4.218903
 20
2.271042
 30
0.000000
 40
0.180853
 50
350.939563
 51
363.727298
  0
ARC
  8
0
 62
     7
  6
CONTINUOUS
 10
3.870708
 20
2.180232
 30
0.000000
 40
0.538524
 50
10.979681
 51
28.895698
  0
ARC
  8
0
 62
     7
  6
CONTINUOUS
 10
4.066258
 20
2.288234
 30
0.000000
 40
0.315131
 50
28.884186
 51
60.146732
  0
ARC
  8
0
 62
     7
  6
CONTINUOUS
 10
4.065302
 20
3.227445
 30
0.000000
 40
0.192195
 50
336.738608
 51
347.113053
  0
ARC
  8
0
 62
     7
  6
CONTINUOUS
 10
3.681779
 20
3.315112
 30
0.000000
 40
0.585610
 50
347.120614
 51
350.545272
  0
ARC
  8
0
 62
     7
  6
CONTINUOUS
 10
4.853063
 20
3.119806
 30
0.000000
 40
0.601845
 50
167.200710
 51
170.521570
  0
ARC
  8
0
 62
     7
  6
CONTINUOUS
 10
4.464761
 20
3.207931
 30
0.000000
 40
0.203669
 50
157.295964
 51
167.176111
  0
ARC
  8
0
 62
     7
  6
CONTINUOUS
 10
4.271448
 20
3.285001
 30
0.000000
 40
0.005640
 50
15.843478
 51
81.477854
  0
ARC
  8
0
 62
     7
  6
CONTINUOUS
 10
4.269412
 20
3.267847
 30
0.000000
 40
0.022913
 50
82.799074
 51
99.936771
  0
ARC
  8
0
 62
     7
  6
CONTINUOUS
 10
4.259335
 20
3.336497
 30
0.000000
 40
0.046486
 50
273.506322
 51
277.568855
  0
ARC
  8
0
 62
     7
  6
CONTINUOUS
 10
4.261451
 20
3.299953
 30
0.000000
 40
0.009882
 50
257.866006
 51
274.218376
  0
ARC
  8
0
 62
     7
  6
CONTINUOUS
 10
5.158802
 20
2.962575
 30
0.000000
 40
0.957272
 50
159.980197
 51
168.919989
  0
ARC
  8
0
 62
     7
  6
CONTINUOUS
 10
4.226644
 20
3.143004
 30
0.000000
 40
0.008086
 50
100.424765
 51
154.040900
  0
ARC
  8
0
 62
     7
  6
CONTINUOUS
 10
4.230912
 20
3.117569
 30
0.000000
 40
0.033876
 50
85.439789
 51
99.739419
  0
ARC
  8
0
 62
     7
  6
CONTINUOUS
 10
4.236556
 20
3.199199
 30
0.000000
 40
0.047953
 50
266.472414
 51
276.367888
  0
ARC
  8
0
 62
     7
  6
CONTINUOUS
 10
-0.300956
 20
5.423349
 30
0.000000
 40
4.845598
 50
332.879288
 51
333.701822
  0
ARC
  8
0
 62
     7
  6
CONTINUOUS
 10
5.781740
 20
2.281554
 30
0.000000
 40
2.000670
 50
152.207700
 51
157.053972
  0
ARC
  8
0
 62
     7
  6
CONTINUOUS
 10
3.961996
 20
3.030636
 30
0.000000
 40
0.038300
 50
106.048574
 51
126.198072
  0
ARC
  8
0
 62
     7
  6
CONTINUOUS
 10
3.981699
 20
2.960572
 30
0.000000
 40
0.111081
 50
98.970435
 51
105.824175
  0
ARC
  8
0
 62
     7
  6
CONTINUOUS
 10
3.947054
 20
3.180015
 30
0.000000
 40
0.111080
 50
278.972746
 51
285.825570
  0
ARC
  8
0
 62
     7
  6
CONTINUOUS
 10
3.966762
 20
3.109956
 30
0.000000
 40
0.038302
 50
286.042146
 51
306.189142
  0
ARC
  8
0
 62
     7
  6
CONTINUOUS
 10
2.776372
 20
3.643368
 30
0.000000
 40
1.337851
 50
335.050796
 51
343.919192
  0
ARC
  8
0
 62
     7
  6
CONTINUOUS
 10
4.064460
 20
3.282750
 30
0.000000
 40
0.010287
 50
234.521219
 51
255.448699
  0
ARC
  8
0
 62
     7
  6
CONTINUOUS
 10
4.090556
 20
3.321775
 30
0.000000
 40
0.057230
 50
231.321000
 51
235.921921
  0
ARC
  8
0
 62
     7
  6
CONTINUOUS
 10
4.019005
 20
3.232419
 30
0.000000
 40
0.057244
 50
51.307576
 51
55.905748
  0
ARC
  8
0
 62
     7
  6
CONTINUOUS
 10
4.045123
 20
3.271442
 30
0.000000
 40
0.010291
 50
54.536361
 51
75.448386
  0
ARC
  8
0
 62
     7
  6
CONTINUOUS
 10
4.046965
 20
3.278576
 30
0.000000
 40
0.002922
 50
75.260667
 51
133.630944
  0
ARC
  8
0
 62
     7
  6
CONTINUOUS
 10
4.050851
 20
3.275623
 30
0.000000
 40
0.007780
 50
139.347950
 51
173.212311
  0
ARC
  8
0
 62
     7
  6
CONTINUOUS
 10
3.216460
 20
2.952865
 30
0.000000
 40
0.243222
 50
291.546445
 51
299.676971
  0
ARC
  8
0
 62
     7
  6
CONTINUOUS
 10
3.354915
 20
2.589941
 30
0.000000
 40
0.145259
 50
109.768939
 51
127.033346
  0
ARC
  8
0
 62
     7
  6
CONTINUOUS
 10
3.305973
 20
2.660894
 30
0.000000
 40
0.059255
 50
130.577839
 51
175.739112
  0
ARC
  8
0
 62
     7
  6
CONTINUOUS
 10
3.267580
 20
2.647485
 30
0.000000
 40
0.027307
 50
139.287855
 51
174.937778
  0
ARC
  8
0
 62
     7
  6
CONTINUOUS
 10
3.255304
 20
2.649735
 30
0.000000
 40
0.014925
 50
179.389724
 51
225.126609
  0
ARC
  8
0
 62
     7
  6
CONTINUOUS
 10
3.269882
 20
2.664469
 30
0.000000
 40
0.035652
 50
225.230015
 51
245.646927
  0
ARC
  8
0
 62
     7
  6
CONTINUOUS
 10
3.306424
 20
2.741298
 30
0.000000
 40
0.120724
 50
244.883114
 51
250.798392
  0
ARC
  8
0
 62
     7
  6
CONTINUOUS
 10
3.219317
 20
2.494898
 30
0.000000
 40
0.140623
 50
68.317188
 51
70.300719
  0
ARC
  8
0
 62
     7
  6
CONTINUOUS
 10
3.264699
 20
2.608207
 30
0.000000
 40
0.018566
 50
58.567077
 51
69.265131
  0
ARC
  8
0
 62
     7
  6
CONTINUOUS
 10
3.466358
 20
2.589581
 30
0.000000
 40
0.195047
 50
149.871448
 51
169.821713
  0
ARC
  8
0
 62
     7
  6
CONTINUOUS
 10
3.574059
 20
2.528233
 30
0.000000
 40
0.318992
 50
138.032407
 51
150.050970
  0
LINE
  8
0
 62
     7
  6
CONTINUOUS
 10
3.291881
 20
2.570298
 30
0.000000
 11
3.289472
 21
2.572200
 31
0.000000
  0
ARC
  8
0
 62
     7
  6
CONTINUOUS
 10
3.039162
 20
2.280566
 30
0.000000
 40
0.384325
 50
49.360523
 51
63.350335
  0
ARC
  8
0
 62
     7
  6
CONTINUOUS
 10
3.168602
 20
2.542363
 30
0.000000
 40
0.092298
 50
62.272403
 51
117.746271
  0
ARC
  8
0
 62
     7
  6
CONTINUOUS
 10
3.156658
 20
2.615574
 30
0.000000
 40
0.032162
 50
164.723384
 51
234.473816
  0
ARC
  8
0
 62
     7
  6
CONTINUOUS
 10
3.203980
 20
2.693988
 30
0.000000
 40
0.123678
 50
237.742179
 51
256.708357
  0
ARC
  8
0
 62
     7
  6
CONTINUOUS
 10
3.083780
 20
2.259561
 30
0.000000
 40
0.327194
 50
70.620797
 51
73.712290
  0
ARC
  8
0
 62
     7
  6
CONTINUOUS
 10
3.165603
 20
2.490769
 30
0.000000
 40
0.081937
 50
59.749450
 51
70.948042
  0
ARC
  8
0
 62
     7
  6
CONTINUOUS
 10
3.188254
 20
2.504212
 30
0.000000
 40
0.060286
 50
45.449730
 51
72.001707
  0
ARC
  8
0
 62
     7
  6
CONTINUOUS
 10
3.091004
 20
2.405306
 30
0.000000
 40
0.198994
 50
37.218220
 51
45.473491
  0
ARC
  8
0
 62
     7
  6
CONTINUOUS
 10
3.371517
 20
2.615315
 30
0.000000
 40
0.151432
 50
216.298407
 51
229.563818
  0
ARC
  8
0
 62
     7
  6
CONTINUOUS
 10
3.304154
 20
2.537694
 30
0.000000
 40
0.048670
 50
230.655000
 51
271.739891
  0
ARC
  8
0
 62
     7
  6
CONTINUOUS
 10
3.293930
 20
2.516698
 30
0.000000
 40
0.030026
 50
292.936498
 51
340.833744
  0
ARC
  8
0
 62
     7
  6
CONTINUOUS
 10
3.287666
 20
2.515744
 30
0.000000
 40
0.035752
 50
345.578815
 51
382.115989
  0
ARC
  8
0
 62
     7
  6
CONTINUOUS
 10
3.214052
 20
2.484839
 30
0.000000
 40
0.115589
 50
22.570669
 51
47.675334
  0
ARC
  8
0
 62
     7
  6
CONTINUOUS
 10
6.174472
 20
2.364655
 30
0.000000
 40
2.919324
 50
178.956942
 51
187.194360
  0
ARC
  8
0
 62
     7
  6
CONTINUOUS
 10
3.143458
 20
2.676520
 30
0.000000
 40
0.281993
 50
293.439998
 51
299.690105
  0
ARC
  8
0
 62
     7
  6
CONTINUOUS
 10
3.247289
 20
2.447396
 30
0.000000
 40
0.039190
 50
336.147145
 51
373.855565
  0
ARC
  8
0
 62
     7
  6
CONTINUOUS
 10
3.225692
 20
2.440651
 30
0.000000
 40
0.061789
 50
15.132703
 51
39.162798
  0
ARC
  8
0
 62
     7
  6
CONTINUOUS
 10
3.107769
 20
2.338328
 30
0.000000
 40
0.217895
 50
40.442330
 51
54.877104
  0
ARC
  8
0
 62
     7
  6
CONTINUOUS
 10
3.130588
 20
2.354008
 30
0.000000
 40
0.192184
 50
57.752985
 51
75.773095
  0
ARC
  8
0
 62
     7
  6
CONTINUOUS
 10
3.159536
 20
2.476328
 30
0.000000
 40
0.066530
 50
74.049567
 51
125.785960
  0
ARC
  8
0
 62
     7
  6
CONTINUOUS
 10
3.150510
 20
2.517672
 30
0.000000
 40
0.032436
 50
157.091543
 51
180.259264
  0
ARC
  8
0
 62
     7
  6
CONTINUOUS
 10
3.139096
 20
2.518058
 30
0.000000
 40
0.021029
 50
181.450930
 51
209.079323
  0
ARC
  8
0
 62
     7
  6
CONTINUOUS
 10
3.163598
 20
2.535926
 30
0.000000
 40
0.051260
 50
213.226797
 51
235.672683
  0
ARC
  8
0
 62
     7
  6
CONTINUOUS
 10
3.062551
 20
2.399672
 30
0.000000
 40
0.118429
 50
47.781709
 51
52.472432
  0
ARC
  8
0
 62
     7
  6
CONTINUOUS
 10
3.118817
 20
2.461539
 30
0.000000
 40
0.034802
 50
32.612273
 51
47.942346
  0
ARC
  8
0
 62
     7
  6
CONTINUOUS
 10
2.686394
 20
2.416065
 30
0.000000
 40
0.466185
 50
358.042085
 51
367.919486
  0
ARC
  8
0
 62
     7
  6
CONTINUOUS
 10
1.725143
 20
2.447439
 30
0.000000
 40
1.427947
 50
354.886696
 51
358.101695
  0
ARC
  8
0
 62
     7
  6
CONTINUOUS
 10
4.630439
 20
2.189867
 30
0.000000
 40
1.488746
 50
174.978657
 51
177.481008
  0
ARC
  8
0
 62
     7
  6
CONTINUOUS
 10
0.267081
 20
2.062397
 30
0.000000
 40
2.882513
 50
356.439193
 51
363.837174
  0
ARC
  8
0
 62
     7
  6
CONTINUOUS
 10
5.505233
 20
1.714839
 30
0.000000
 40
2.367210
 50
175.917423
 51
186.203125
  0
ARC
  8
0
 62
     7
  6
CONTINUOUS
 10
5.073201
 20
1.330975
 30
0.000000
 40
1.925583
 50
176.186222
 51
184.107989
  0
ARC
  8
0
 62
     7
  6
CONTINUOUS
 10
1.437082
 20
1.062900
 30
0.000000
 40
1.720412
 50
355.371000
 51
364.338023
  0
ARC
  8
0
 62
     7
  6
CONTINUOUS
 10
2.834788
 20
0.815842
 30
0.000000
 40
0.335051
 50
2.400712
 51
18.843374
  0
ARC
  8
0
 62
     7
  6
CONTINUOUS
 10
2.282533
 20
0.798452
 30
0.000000
 40
0.887569
 50
356.046163
 51
362.029004
  0
ARC
  8
0
 62
     7
  6
CONTINUOUS
 10
3.864839
 20
0.679232
 30
0.000000
 40
0.699261
 50
175.240553
 51
186.892943
  0
ARC
  8
0
 62
     7
  6
CONTINUOUS
 10
3.195275
 20
0.587092
 30
0.000000
 40
0.025977
 50
161.557224
 51
224.924296
  0
ARC
  8
0
 62
     7
  6
CONTINUOUS
 10
3.201352
 20
0.594791
 30
0.000000
 40
0.035735
 50
226.784565
 51
270.849199
  0
ARC
  8
0
 62
     7
  6
CONTINUOUS
 10
3.182910
 20
0.591188
 30
0.000000
 40
0.037311
 50
300.561941
 51
347.017463
  0
ARC
  8
0
 62
     7
  6
CONTINUOUS
 10
3.120593
 20
0.600174
 30
0.000000
 40
0.100191
 50
350.017504
 51
366.663534
  0
ARC
  8
0
 62
     7
  6
CONTINUOUS
 10
3.392560
 20
0.626380
 30
0.000000
 40
0.173068
 50
177.803100
 51
184.832462
  0
ARC
  8
0
 62
     7
  6
CONTINUOUS
 10
3.279246
 20
0.630584
 30
0.000000
 40
0.059676
 50
156.834683
 51
177.666475
  0
ARC
  8
0
 62
     7
  6
CONTINUOUS
 10
6.621994
 20
1.070340
 30
0.000000
 40
3.423019
 50
177.067471
 51
186.985133
  0
ARC
  8
0
 62
     7
  6
CONTINUOUS
 10
-7.185813
 20
1.523416
 30
0.000000
 40
10.392988
 50
358.467475
 51
359.569379
  0
ARC
  8
0
 62
     7
  6
CONTINUOUS
 10
4.468268
 20
1.688764
 30
0.000000
 40
1.284667
 50
175.186967
 51
190.924255
  0
ARC
  8
0
 62
     7
  6
CONTINUOUS
 10
2.412692
 20
1.945468
 30
0.000000
 40
0.789609
 50
349.129323
 51
359.954751
  0
ARC
  8
0
 62
     7
  6
CONTINUOUS
 10
1.091555
 20
1.940705
 30
0.000000
 40
2.110749
 50
0.112354
 51
4.004426
  0
ARC
  8
0
 62
     7
  6
CONTINUOUS
 10
4.373377
 20
2.200200
 30
0.000000
 40
1.181555
 50
172.518309
 51
185.443807
  0
ARC
  8
0
 62
     7
  6
CONTINUOUS
 10
3.206039
 20
2.352946
 30
0.000000
 40
0.004301
 50
33.409762
 51
165.135736
  0
ARC
  8
0
 62
     7
  6
CONTINUOUS
 10
3.169139
 20
2.331676
 30
0.000000
 40
0.046886
 50
7.491223
 51
30.276639
  0
ARC
  8
0
 62
     7
  6
CONTINUOUS
 10
2.612584
 20
2.238748
 30
0.000000
 40
0.611119
 50
2.012029
 51
9.326674
  0
ARC
  8
0
 62
     7
  6
CONTINUOUS
 10
-2.490878
 20
2.019205
 30
0.000000
 40
5.719284
 50
0.126274
 51
2.415050
  0
ARC
  8
0
 62
     7
  6
CONTINUOUS
 10
12.767685
 20
2.104422
 30
0.000000
 40
9.539569
 50
180.436124
 51
180.933221
  0
ARC
  8
0
 62
     7
  6
CONTINUOUS
 10
3.873725
 20
1.826553
 30
0.000000
 40
0.655884
 50
169.235846
 51
183.114458
  0
ARC
  8
0
 62
     7
  6
CONTINUOUS
 10
5.590476
 20
1.908856
 30
0.000000
 40
2.374597
 50
182.846855
 51
186.916490
  0
ARC
  8
0
 62
     7
  6
CONTINUOUS
 10
1.740511
 20
1.417153
 30
0.000000
 40
1.506762
 50
358.693816
 51
367.848247
  0
ARC
  8
0
 62
     7
  6
CONTINUOUS
 10
11.832567
 20
1.099058
 30
0.000000
 40
8.590373
 50
178.107120
 51
181.892880
  0
ARC
  8
0
 62
     7
  6
CONTINUOUS
 10
3.247111
 20
0.836239
 30
0.000000
 40
0.020931
 50
269.371296
 51
316.614142
  0
ARC
  8
0
 62
     7
  6
CONTINUOUS
 10
3.209708
 20
0.869541
 30
0.000000
 40
0.071005
 50
317.817080
 51
332.197295
  0
ARC
  8
0
 62
     7
  6
CONTINUOUS
 10
3.408199
 20
0.758730
 30
0.000000
 40
0.156353
 50
146.754898
 51
150.204760
  0
ARC
  8
0
 62
     7
  6
CONTINUOUS
 10
3.316850
 20
0.818726
 30
0.000000
 40
0.047063
 50
135.762323
 51
146.872888
  0
ARC
  8
0
 62
     7
  6
CONTINUOUS
 10
-1.398465
 20
1.211353
 30
0.000000
 40
4.695402
 50
355.605300
 51
363.821889
  0
ARC
  8
0
 62
     7
  6
CONTINUOUS
 10
9.609781
 20
1.873156
 30
0.000000
 40
6.332901
 50
178.860903
 51
183.157583
  0
ENDSEC
  0
EOF
