  0
SECTION
  2
HEADER
  9
$ACADVER
  1
AC1015
  9
$ACADMAINTVER
 70
     6
  9
$DWGCODEPAGE
  3
ANSI_1252
  9
$INSBASE
 10
0.0
 20
0.0
 30
0.0
  9
$EXTMIN
 10
-53.8037
 20
-101.5505
 30
0.0
  9
$EXTMAX
 10
53.8037
 20
101.5483
 30
0.0
  9
$LIMMIN
 10
0.0
 20
0.0
  9
$LIMMAX
 10
12.0
 20
9.0
  9
$ORTHOMODE
 70
     0
  9
$REGENMODE
 70
     1
  9
$FILLMODE
 70
     1
  9
$QTEXTMODE
 70
     0
  9
$MIRRTEXT
 70
     1
  9
$LTSCALE
 40
1.0
  9
$ATTMODE
 70
     1
  9
$TEXTSIZE
 40
0.2
  9
$TRACEWID
 40
0.05
  9
$TEXTSTYLE
  7
Standard
  9
$CLAYER
  8
0
  9
$CELTYPE
  6
ByLayer
  9
$CECOLOR
 62
   256
  9
$CELTSCALE
 40
1.0
  9
$DISPSILH
 70
     0
  9
$DIMSCALE
 40
1.0
  9
$DIMASZ
 40
0.18
  9
$DIMEXO
 40
0.0625
  9
$DIMDLI
 40
0.38
  9
$DIMRND
 40
0.0
  9
$DIMDLE
 40
0.0
  9
$DIMEXE
 40
0.18
  9
$DIMTP
 40
0.0
  9
$DIMTM
 40
0.0
  9
$DIMTXT
 40
0.18
  9
$DIMCEN
 40
0.09
  9
$DIMTSZ
 40
0.0
  9
$DIMTOL
 70
     0
  9
$DIMLIM
 70
     0
  9
$DIMTIH
 70
     1
  9
$DIMTOH
 70
     1
  9
$DIMSE1
 70
     0
  9
$DIMSE2
 70
     0
  9
$DIMTAD
 70
     0
  9
$DIMZIN
 70
     0
  9
$DIMBLK
  1

  9
$DIMASO
 70
     1
  9
$DIMSHO
 70
     1
  9
$DIMPOST
  1

  9
$DIMAPOST
  1

  9
$DIMALT
 70
     0
  9
$DIMALTD
 70
     2
  9
$DIMALTF
 40
25.4
  9
$DIMLFAC
 40
1.0
  9
$DIMTOFL
 70
     0
  9
$DIMTVP
 40
0.0
  9
$DIMTIX
 70
     0
  9
$DIMSOXD
 70
     0
  9
$DIMSAH
 70
     0
  9
$DIMBLK1
  1

  9
$DIMBLK2
  1

  9
$DIMSTYLE
  2
Standard
  9
$DIMCLRD
 70
     0
  9
$DIMCLRE
 70
     0
  9
$DIMCLRT
 70
     0
  9
$DIMTFAC
 40
1.0
  9
$DIMGAP
 40
0.09
  9
$DIMJUST
 70
     0
  9
$DIMSD1
 70
     0
  9
$DIMSD2
 70
     0
  9
$DIMTOLJ
 70
     1
  9
$DIMTZIN
 70
     0
  9
$DIMALTZ
 70
     0
  9
$DIMALTTZ
 70
     0
  9
$DIMUPT
 70
     0
  9
$DIMDEC
 70
     4
  9
$DIMTDEC
 70
     4
  9
$DIMALTU
 70
     2
  9
$DIMALTTD
 70
     2
  9
$DIMTXSTY
  7
Standard
  9
$DIMAUNIT
 70
     0
  9
$DIMADEC
 70
     0
  9
$DIMALTRND
 40
0.0
  9
$DIMAZIN
 70
     0
  9
$DIMDSEP
 70
    46
  9
$DIMATFIT
 70
     3
  9
$DIMFRAC
 70
     0
  9
$DIMLDRBLK
  1

  9
$DIMLUNIT
 70
     2
  9
$DIMLWD
 70
    -2
  9
$DIMLWE
 70
    -2
  9
$DIMTMOVE
 70
     0
  9
$LUNITS
 70
     2
  9
$LUPREC
 70
     4
  9
$SKETCHINC
 40
0.1
  9
$FILLETRAD
 40
0.5
  9
$AUNITS
 70
     0
  9
$AUPREC
 70
     0
  9
$MENU
  1
.
  9
$ELEVATION
 40
0.0
  9
$PELEVATION
 40
0.0
  9
$THICKNESS
 40
0.0
  9
$LIMCHECK
 70
     0
  9
$CHAMFERA
 40
0.5
  9
$CHAMFERB
 40
0.5
  9
$CHAMFERC
 40
1.0
  9
$CHAMFERD
 40
0.0
  9
$SKPOLY
 70
     0
  9
$TDCREATE
 40
2457268.921772627
  9
$TDUCREATE
 40
2457269.046772627
  9
$TDUPDATE
 40
2457268.921772859
  9
$TDUUPDATE
 40
2457269.046772859
  9
$TDINDWG
 40
0.0000000116
  9
$TDUSRTIMER
 40
0.0000000116
  9
$USRTIMER
 70
     1
  9
$ANGBASE
 50
0.0
  9
$ANGDIR
 70
     0
  9
$PDMODE
 70
     0
  9
$PDSIZE
 40
0.0
  9
$PLINEWID
 40
0.0
  9
$SPLFRAME
 70
     0
  9
$SPLINETYPE
 70
     6
  9
$SPLINESEGS
 70
     8
  9
$HANDSEED
  5
87
  9
$SURFTAB1
 70
     6
  9
$SURFTAB2
 70
     6
  9
$SURFTYPE
 70
     6
  9
$SURFU
 70
     6
  9
$SURFV
 70
     6
  9
$UCSBASE
  2

  9
$UCSNAME
  2

  9
$UCSORG
 10
0.0
 20
0.0
 30
0.0
  9
$UCSXDIR
 10
1.0
 20
0.0
 30
0.0
  9
$UCSYDIR
 10
0.0
 20
1.0
 30
0.0
  9
$UCSORTHOREF
  2

  9
$UCSORTHOVIEW
 70
     0
  9
$UCSORGTOP
 10
0.0
 20
0.0
 30
0.0
  9
$UCSORGBOTTOM
 10
0.0
 20
0.0
 30
0.0
  9
$UCSORGLEFT
 10
0.0
 20
0.0
 30
0.0
  9
$UCSORGRIGHT
 10
0.0
 20
0.0
 30
0.0
  9
$UCSORGFRONT
 10
0.0
 20
0.0
 30
0.0
  9
$UCSORGBACK
 10
0.0
 20
0.0
 30
0.0
  9
$PUCSBASE
  2

  9
$PUCSNAME
  2

  9
$PUCSORG
 10
0.0
 20
0.0
 30
0.0
  9
$PUCSXDIR
 10
1.0
 20
0.0
 30
0.0
  9
$PUCSYDIR
 10
0.0
 20
1.0
 30
0.0
  9
$PUCSORTHOREF
  2

  9
$PUCSORTHOVIEW
 70
     0
  9
$PUCSORGTOP
 10
0.0
 20
0.0
 30
0.0
  9
$PUCSORGBOTTOM
 10
0.0
 20
0.0
 30
0.0
  9
$PUCSORGLEFT
 10
0.0
 20
0.0
 30
0.0
  9
$PUCSORGRIGHT
 10
0.0
 20
0.0
 30
0.0
  9
$PUCSORGFRONT
 10
0.0
 20
0.0
 30
0.0
  9
$PUCSORGBACK
 10
0.0
 20
0.0
 30
0.0
  9
$USERI1
 70
     0
  9
$USERI2
 70
     0
  9
$USERI3
 70
     0
  9
$USERI4
 70
     0
  9
$USERI5
 70
     0
  9
$USERR1
 40
0.0
  9
$USERR2
 40
0.0
  9
$USERR3
 40
0.0
  9
$USERR4
 40
0.0
  9
$USERR5
 40
0.0
  9
$WORLDVIEW
 70
     1
  9
$SHADEDGE
 70
     3
  9
$SHADEDIF
 70
    70
  9
$TILEMODE
 70
     1
  9
$MAXACTVP
 70
    64
  9
$PINSBASE
 10
0.0
 20
0.0
 30
0.0
  9
$PLIMCHECK
 70
     0
  9
$PEXTMIN
 10
1.000000000000000E+20
 20
1.000000000000000E+20
 30
1.000000000000000E+20
  9
$PEXTMAX
 10
-1.000000000000000E+20
 20
-1.000000000000000E+20
 30
-1.000000000000000E+20
  9
$PLIMMIN
 10
0.0
 20
0.0
  9
$PLIMMAX
 10
12.0
 20
9.0
  9
$UNITMODE
 70
     0
  9
$VISRETAIN
 70
     1
  9
$PLINEGEN
 70
     0
  9
$PSLTSCALE
 70
     1
  9
$TREEDEPTH
 70
  3020
  9
$CMLSTYLE
  2
Standard
  9
$CMLJUST
 70
     0
  9
$CMLSCALE
 40
1.0
  9
$PROXYGRAPHICS
 70
     1
  9
$MEASUREMENT
 70
     0
  9
$CELWEIGHT
370
    -1
  9
$ENDCAPS
280
     0
  9
$JOINSTYLE
280
     0
  9
$LWDISPLAY
290
     0
  9
$INSUNITS
 70
     4
  9
$HYPERLINKBASE
  1

  9
$STYLESHEET
  1

  9
$XEDIT
290
     1
  9
$CEPSNTYPE
380
     0
  9
$PSTYLEMODE
290
     1
  9
$FINGERPRINTGUID
  2
{06A57D25-6052-4B90-9724-162AAD0EBC3B}
  9
$VERSIONGUID
  2
{FAEB1C32-E019-11D5-929B-00C0DF256EC4}
  9
$EXTNAMES
290
     1
  9
$PSVPSCALE
 40
0.0
  9
$OLESTARTUP
290
     0
  0
ENDSEC
  0
SECTION
  2
CLASSES
  0
CLASS
  1
ACDBDICTIONARYWDFLT
  2
AcDbDictionaryWithDefault
  3
ObjectDBX Classes
 90
        0
280
     0
281
     0
  0
CLASS
  1
VISUALSTYLE
  2
AcDbVisualStyle
  3
ObjectDBX Classes
 90
     4095
280
     0
281
     0
  0
CLASS
  1
MATERIAL
  2
AcDbMaterial
  3
ObjectDBX Classes
 90
     1153
280
     0
281
     0
  0
CLASS
  1
DICTIONARYVAR
  2
AcDbDictionaryVar
  3
ObjectDBX Classes
 90
        0
280
     0
281
     0
  0
CLASS
  1
ACDBPLACEHOLDER
  2
AcDbPlaceHolder
  3
ObjectDBX Classes
 90
        0
280
     0
281
     0
  0
CLASS
  1
LAYOUT
  2
AcDbLayout
  3
ObjectDBX Classes
 90
        0
280
     0
281
     0
  0
ENDSEC
  0
SECTION
  2
TABLES
  0
TABLE
  2
VPORT
  5
8
330
0
100
AcDbSymbolTable
 70
     1
  0
VPORT
  5
29
330
8
100
AcDbSymbolTableRecord
100
AcDbViewportTableRecord
  2
*Active
 70
     0
 10
0.0
 20
0.0
 11
1.0
 21
1.0
 12
10.42990654205607
 22
4.5
 13
0.0
 23
0.0
 14
0.5
 24
0.5
 15
0.5
 25
0.5
 16
0.0
 26
0.0
 36
1.0
 17
0.0
 27
0.0
 37
0.0
 40
9.0
 41
1.972972972850329
 42
50.0
 43
0.0
 44
0.0
 50
0.0
 51
0.0
 71
     0
 72
   100
 73
     1
 74
     3
 75
     0
 76
     0
 77
     0
 78
     0
281
     0
 65
     1
110
0.0
120
0.0
130
0.0
111
1.0
121
0.0
131
0.0
112
0.0
122
1.0
132
0.0
 79
     0
146
0.0
  0
ENDTAB
  0
TABLE
  2
LTYPE
  5
5
330
0
100
AcDbSymbolTable
 70
     1
  0
LTYPE
  5
14
330
5
100
AcDbSymbolTableRecord
100
AcDbLinetypeTableRecord
  2
ByBlock
 70
     0
  3

 72
    65
 73
     0
 40
0.0
  0
LTYPE
  5
15
330
5
100
AcDbSymbolTableRecord
100
AcDbLinetypeTableRecord
  2
ByLayer
 70
     0
  3

 72
    65
 73
     0
 40
0.0
  0
LTYPE
  5
16
330
5
100
AcDbSymbolTableRecord
100
AcDbLinetypeTableRecord
  2
Continuous
 70
     0
  3
Solid line
 72
    65
 73
     0
 40
0.0
  0
ENDTAB
  0
TABLE
  2
LAYER
  5
2
330
0
100
AcDbSymbolTable
 70
     2
  0
LAYER
  5
10
330
2
100
AcDbSymbolTableRecord
100
AcDbLayerTableRecord
  2
0
 70
     0
 62
     7
  6
Continuous
370
    -3
390
F
  0
LAYER
  5
40
330
2
100
AcDbSymbolTableRecord
100
AcDbLayerTableRecord
  2
Camada 1
 70
     0
 62
     7
  6
Continuous
370
    -3
390
F
  0
ENDTAB
  0
TABLE
  2
STYLE
  5
3
330
0
100
AcDbSymbolTable
 70
     1
  0
STYLE
  5
11
330
3
100
AcDbSymbolTableRecord
100
AcDbTextStyleTableRecord
  2
Standard
 70
     0
 40
0.0
 41
1.0
 50
0.0
 71
     0
 42
0.2
  3
txt
  4

  0
ENDTAB
  0
TABLE
  2
VIEW
  5
6
330
0
100
AcDbSymbolTable
 70
     0
  0
ENDTAB
  0
TABLE
  2
UCS
  5
7
330
0
100
AcDbSymbolTable
 70
     0
  0
ENDTAB
  0
TABLE
  2
APPID
  5
9
330
0
100
AcDbSymbolTable
 70
     2
  0
APPID
  5
12
330
9
100
AcDbSymbolTableRecord
100
AcDbRegAppTableRecord
  2
ACAD
 70
     0
  0
APPID
  5
3F
330
9
100
AcDbSymbolTableRecord
100
AcDbRegAppTableRecord
  2
ODA
 70
     0
  0
ENDTAB
  0
TABLE
  2
DIMSTYLE
  5
A
330
0
100
AcDbSymbolTable
 70
     1
100
AcDbDimStyleTable
  0
DIMSTYLE
105
27
330
A
100
AcDbSymbolTableRecord
100
AcDbDimStyleTableRecord
  2
Standard
 70
     0
178
     0
340
11
  0
ENDTAB
  0
TABLE
  2
BLOCK_RECORD
  5
1
330
0
100
AcDbSymbolTable
 70
     1
  0
BLOCK_RECORD
  5
1F
330
1
100
AcDbSymbolTableRecord
100
AcDbBlockTableRecord
  2
*Model_Space
340
22
  0
BLOCK_RECORD
  5
1B
330
1
100
AcDbSymbolTableRecord
100
AcDbBlockTableRecord
  2
*Paper_Space
340
1E
  0
BLOCK_RECORD
  5
23
330
1
100
AcDbSymbolTableRecord
100
AcDbBlockTableRecord
  2
*Paper_Space0
340
26
  0
ENDTAB
  0
ENDSEC
  0
SECTION
  2
BLOCKS
  0
BLOCK
  5
20
330
1F
100
AcDbEntity
  8
0
100
AcDbBlockBegin
  2
*Model_Space
 70
     0
 10
0.0
 20
0.0
 30
0.0
  3
*Model_Space
  1

  0
ENDBLK
  5
21
330
1F
100
AcDbEntity
  8
0
100
AcDbBlockEnd
  0
BLOCK
  5
1C
330
1B
100
AcDbEntity
 67
     1
  8
0
100
AcDbBlockBegin
  2
*Paper_Space
 70
     0
 10
0.0
 20
0.0
 30
0.0
  3
*Paper_Space
  1

  0
ENDBLK
  5
1D
330
1B
100
AcDbEntity
 67
     1
  8
0
100
AcDbBlockEnd
  0
BLOCK
  5
24
330
23
100
AcDbEntity
  8
0
100
AcDbBlockBegin
  2
*Paper_Space0
 70
     0
 10
0.0
 20
0.0
 30
0.0
  3
*Paper_Space0
  1

  0
ENDBLK
  5
25
330
23
100
AcDbEntity
  8
0
100
AcDbBlockEnd
  0
ENDSEC
  0
SECTION
  2
ENTITIES
  0
SPLINE
  5
41
330
1F
100
AcDbEntity
  8
Camada 1
 62
   250
370
     9
100
AcDbSpline
210
0.0
220
0.0
230
1.0
 70
    11
 71
     3
 72
   332
 73
   328
 74
     0
 42
0.0000000001
 43
0.0000000001
 12
1.0
 22
0.0
 32
0.0
 13
1.0
 23
0.0
 33
0.0
 40
0.0
 40
0.0
 40
0.0
 40
0.0
 40
0.0120481927710843
 40
0.0120481927710843
 40
0.0120481927710843
 40
0.0120481927710843
 40
0.0240963855421687
 40
0.0240963855421687
 40
0.0240963855421687
 40
0.0240963855421687
 40
0.036144578313253
 40
0.036144578313253
 40
0.036144578313253
 40
0.036144578313253
 40
0.0481927710843374
 40
0.0481927710843374
 40
0.0481927710843374
 40
0.0481927710843374
 40
0.0602409638554217
 40
0.0602409638554217
 40
0.0602409638554217
 40
0.0602409638554217
 40
0.072289156626506
 40
0.072289156626506
 40
0.072289156626506
 40
0.072289156626506
 40
0.0843373493975904
 40
0.0843373493975904
 40
0.0843373493975904
 40
0.0843373493975904
 40
0.0963855421686747
 40
0.0963855421686747
 40
0.0963855421686747
 40
0.0963855421686747
 40
0.108433734939759
 40
0.108433734939759
 40
0.108433734939759
 40
0.108433734939759
 40
0.1204819277108434
 40
0.1204819277108434
 40
0.1204819277108434
 40
0.1204819277108434
 40
0.1325301204819277
 40
0.1325301204819277
 40
0.1325301204819277
 40
0.1325301204819277
 40
0.144578313253012
 40
0.144578313253012
 40
0.144578313253012
 40
0.144578313253012
 40
0.1566265060240964
 40
0.1566265060240964
 40
0.1566265060240964
 40
0.1566265060240964
 40
0.1686746987951807
 40
0.1686746987951807
 40
0.1686746987951807
 40
0.1686746987951807
 40
0.1807228915662651
 40
0.1807228915662651
 40
0.1807228915662651
 40
0.1807228915662651
 40
0.1927710843373494
 40
0.1927710843373494
 40
0.1927710843373494
 40
0.1927710843373494
 40
0.2048192771084337
 40
0.2048192771084337
 40
0.2048192771084337
 40
0.2048192771084337
 40
0.2168674698795181
 40
0.2168674698795181
 40
0.2168674698795181
 40
0.2168674698795181
 40
0.2289156626506024
 40
0.2289156626506024
 40
0.2289156626506024
 40
0.2289156626506024
 40
0.2409638554216867
 40
0.2409638554216867
 40
0.2409638554216867
 40
0.2409638554216867
 40
0.2530120481927711
 40
0.2530120481927711
 40
0.2530120481927711
 40
0.2530120481927711
 40
0.2650602409638554
 40
0.2650602409638554
 40
0.2650602409638554
 40
0.2650602409638554
 40
0.2771084337349398
 40
0.2771084337349398
 40
0.2771084337349398
 40
0.2771084337349398
 40
0.2891566265060241
 40
0.2891566265060241
 40
0.2891566265060241
 40
0.2891566265060241
 40
0.3012048192771085
 40
0.3012048192771085
 40
0.3012048192771085
 40
0.3012048192771085
 40
0.3132530120481928
 40
0.3132530120481928
 40
0.3132530120481928
 40
0.3132530120481928
 40
0.3253012048192771
 40
0.3253012048192771
 40
0.3253012048192771
 40
0.3253012048192771
 40
0.3373493975903614
 40
0.3373493975903614
 40
0.3373493975903614
 40
0.3373493975903614
 40
0.3493975903614458
 40
0.3493975903614458
 40
0.3493975903614458
 40
0.3493975903614458
 40
0.3614457831325301
 40
0.3614457831325301
 40
0.3614457831325301
 40
0.3614457831325301
 40
0.3734939759036144
 40
0.3734939759036144
 40
0.3734939759036144
 40
0.3734939759036144
 40
0.3855421686746988
 40
0.3855421686746988
 40
0.3855421686746988
 40
0.3855421686746988
 40
0.3975903614457831
 40
0.3975903614457831
 40
0.3975903614457831
 40
0.3975903614457831
 40
0.4096385542168675
 40
0.4096385542168675
 40
0.4096385542168675
 40
0.4096385542168675
 40
0.4216867469879518
 40
0.4216867469879518
 40
0.4216867469879518
 40
0.4216867469879518
 40
0.4337349397590362
 40
0.4337349397590362
 40
0.4337349397590362
 40
0.4337349397590362
 40
0.4457831325301205
 40
0.4457831325301205
 40
0.4457831325301205
 40
0.4457831325301205
 40
0.4578313253012048
 40
0.4578313253012048
 40
0.4578313253012048
 40
0.4578313253012048
 40
0.4698795180722892
 40
0.4698795180722892
 40
0.4698795180722892
 40
0.4698795180722892
 40
0.4819277108433735
 40
0.4819277108433735
 40
0.4819277108433735
 40
0.4819277108433735
 40
0.4939759036144578
 40
0.4939759036144578
 40
0.4939759036144578
 40
0.4939759036144578
 40
0.5060240963855421
 40
0.5060240963855421
 40
0.5060240963855421
 40
0.5060240963855421
 40
0.5180722891566265
 40
0.5180722891566265
 40
0.5180722891566265
 40
0.5180722891566265
 40
0.5301204819277109
 40
0.5301204819277109
 40
0.5301204819277109
 40
0.5301204819277109
 40
0.5421686746987951
 40
0.5421686746987951
 40
0.5421686746987951
 40
0.5421686746987951
 40
0.5542168674698795
 40
0.5542168674698795
 40
0.5542168674698795
 40
0.5542168674698795
 40
0.5662650602409639
 40
0.5662650602409639
 40
0.5662650602409639
 40
0.5662650602409639
 40
0.5783132530120482
 40
0.5783132530120482
 40
0.5783132530120482
 40
0.5783132530120482
 40
0.5903614457831325
 40
0.5903614457831325
 40
0.5903614457831325
 40
0.5903614457831325
 40
0.6024096385542169
 40
0.6024096385542169
 40
0.6024096385542169
 40
0.6024096385542169
 40
0.6144578313253012
 40
0.6144578313253012
 40
0.6144578313253012
 40
0.6144578313253012
 40
0.6265060240963856
 40
0.6265060240963856
 40
0.6265060240963856
 40
0.6265060240963856
 40
0.6385542168674698
 40
0.6385542168674698
 40
0.6385542168674698
 40
0.6385542168674698
 40
0.6506024096385542
 40
0.6506024096385542
 40
0.6506024096385542
 40
0.6506024096385542
 40
0.6626506024096386
 40
0.6626506024096386
 40
0.6626506024096386
 40
0.6626506024096386
 40
0.6746987951807228
 40
0.6746987951807228
 40
0.6746987951807228
 40
0.6746987951807228
 40
0.6867469879518072
 40
0.6867469879518072
 40
0.6867469879518072
 40
0.6867469879518072
 40
0.6987951807228916
 40
0.6987951807228916
 40
0.6987951807228916
 40
0.6987951807228916
 40
0.7108433734939759
 40
0.7108433734939759
 40
0.7108433734939759
 40
0.7108433734939759
 40
0.7228915662650602
 40
0.7228915662650602
 40
0.7228915662650602
 40
0.7228915662650602
 40
0.7349397590361446
 40
0.7349397590361446
 40
0.7349397590361446
 40
0.7349397590361446
 40
0.7469879518072289
 40
0.7469879518072289
 40
0.7469879518072289
 40
0.7469879518072289
 40
0.7590361445783133
 40
0.7590361445783133
 40
0.7590361445783133
 40
0.7590361445783133
 40
0.7710843373493976
 40
0.7710843373493976
 40
0.7710843373493976
 40
0.7710843373493976
 40
0.7831325301204819
 40
0.7831325301204819
 40
0.7831325301204819
 40
0.7831325301204819
 40
0.7951807228915663
 40
0.7951807228915663
 40
0.7951807228915663
 40
0.7951807228915663
 40
0.8072289156626506
 40
0.8072289156626506
 40
0.8072289156626506
 40
0.8072289156626506
 40
0.8192771084337349
 40
0.8192771084337349
 40
0.8192771084337349
 40
0.8192771084337349
 40
0.8313253012048193
 40
0.8313253012048193
 40
0.8313253012048193
 40
0.8313253012048193
 40
0.8433734939759037
 40
0.8433734939759037
 40
0.8433734939759037
 40
0.8433734939759037
 40
0.8554216867469879
 40
0.8554216867469879
 40
0.8554216867469879
 40
0.8554216867469879
 40
0.8674698795180723
 40
0.8674698795180723
 40
0.8674698795180723
 40
0.8674698795180723
 40
0.8795180722891566
 40
0.8795180722891566
 40
0.8795180722891566
 40
0.8795180722891566
 40
0.891566265060241
 40
0.891566265060241
 40
0.891566265060241
 40
0.891566265060241
 40
0.9036144578313253
 40
0.9036144578313253
 40
0.9036144578313253
 40
0.9036144578313253
 40
0.9156626506024096
 40
0.9156626506024096
 40
0.9156626506024096
 40
0.9156626506024096
 40
0.927710843373494
 40
0.927710843373494
 40
0.927710843373494
 40
0.927710843373494
 40
0.9397590361445783
 40
0.9397590361445783
 40
0.9397590361445783
 40
0.9397590361445783
 40
0.9518072289156626
 40
0.9518072289156626
 40
0.9518072289156626
 40
0.9518072289156626
 40
0.963855421686747
 40
0.963855421686747
 40
0.963855421686747
 40
0.963855421686747
 40
0.9759036144578314
 40
0.9759036144578314
 40
0.9759036144578314
 40
0.9759036144578314
 40
1.0
 40
1.0
 40
1.0
 40
1.0
 10
-16.9315
 20
89.4033
 30
0.0
 10
-16.7091
 20
92.1171
 30
0.0
 10
-17.6299
 20
93.7012
 30
0.0
 10
-19.6567
 20
93.2927
 30
0.0
 10
-19.6567
 20
93.2927
 30
0.0
 10
-22.1188
 20
92.7695
 30
0.0
 10
-22.3081
 20
90.2153
 30
0.0
 10
-21.747
 20
88.001
 30
0.0
 10
-21.747
 20
88.001
 30
0.0
 10
-20.2079
 20
84.3837
 30
0.0
 10
-16.5037
 20
84.3599
 30
0.0
 10
-14.4709
 20
86.2018
 30
0.0
 10
-14.4709
 20
86.2018
 30
0.0
 10
-11.5804
 20
89.3354
 30
0.0
 10
-11.4607
 20
97.3334
 30
0.0
 10
-15.7674
 20
100.238
 30
0.0
 10
-15.7674
 20
100.238
 30
0.0
 10
-21.7018
 20
103.9855
 30
0.0
 10
-28.5921
 20
99.1939
 30
0.0
 10
-28.2292
 20
89.562
 30
0.0
 10
-28.2292
 20
89.562
 30
0.0
 10
-27.5818
 20
82.1327
 30
0.0
 10
-24.4431
 20
78.3609
 30
0.0
 10
-20.4769
 20
75.8037
 30
0.0
 10
-20.4769
 20
75.8037
 30
0.0
 10
-34.5495
 20
69.87
 30
0.0
 10
-45.528
 20
60.9419
 30
0.0
 10
-50.8509
 20
46.5408
 30
0.0
 10
-50.8509
 20
46.5408
 30
0.0
 10
-55.135
 20
36.476
 30
0.0
 10
-53.9335
 20
20.5875
 30
0.0
 10
-52.0683
 20
-3.0425
 30
0.0
 10
-52.0683
 20
-3.0425
 30
0.0
 10
-52.0683
 20
-3.0425
 30
0.0
 10
-47.6232
 20
-83.8994
 30
0.0
 10
-47.6232
 20
-83.8994
 30
0.0
 10
-47.6232
 20
-83.8994
 30
0.0
 10
-47.6232
 20
-83.8994
 30
0.0
 10
-43.76
 20
-83.9524
 30
0.0
 10
-43.76
 20
-83.9524
 30
0.0
 10
-43.76
 20
-83.9524
 30
0.0
 10
-55.3316
 20
-87.1784
 30
0.0
 10
-44.6502
 20
-108.2606
 30
0.0
 10
-32.303
 20
-98.4783
 30
0.0
 10
-32.303
 20
-98.4783
 30
0.0
 10
-28.6676
 20
-95.393
 30
0.0
 10
-26.4214
 20
-93.6704
 30
0.0
 10
-23.4924
 20
-89.8792
 30
0.0
 10
-23.4924
 20
-89.8792
 30
0.0
 10
-24.04
 20
-96.9901
 30
0.0
 10
-21.6046
 20
-99.7568
 30
0.0
 10
-16.2956
 20
-100.9653
 30
0.0
 10
-16.2956
 20
-100.9653
 30
0.0
 10
-11.2138
 20
-101.7977
 30
0.0
 10
-7.5575
 20
-96.3407
 30
0.0
 10
-7.9083
 20
-91.4138
 30
0.0
 10
-7.9083
 20
-91.4138
 30
0.0
 10
-8.5053
 20
-87.7602
 30
0.0
 10
-11.747
 20
-84.5628
 30
0.0
 10
-15.4753
 20
-86.4131
 30
0.0
 10
-15.4753
 20
-86.4131
 30
0.0
 10
-17.1812
 20
-87.3835
 30
0.0
 10
-18.6466
 20
-91.0957
 30
0.0
 10
-15.1049
 20
-92.8954
 30
0.0
 10
-15.1049
 20
-92.8954
 30
0.0
 10
-13.4307
 20
-93.51
 30
0.0
 10
-11.9373
 20
-92.1044
 30
0.0
 10
-12.5649
 20
-89.7204
 30
0.0
 10
-12.5649
 20
-89.7204
 30
0.0
 10
-8.077
 20
-91.6521
 30
0.0
 10
-11.8312
 20
-97.9933
 30
0.0
 10
-15.8987
 20
-96.1233
 30
0.0
 10
-15.8987
 20
-96.1233
 30
0.0
 10
-19.7329
 20
-94.154
 30
0.0
 10
-21.442
 20
-88.9956
 30
0.0
 10
-18.3857
 20
-84.0054
 30
0.0
 10
-18.3857
 20
-84.0054
 30
0.0
 10
-18.3857
 20
-84.0054
 30
0.0
 10
-2.4578
 20
-83.8996
 30
0.0
 10
-2.4578
 20
-83.8996
 30
0.0
 10
-2.4578
 20
-83.8996
 30
0.0
 10
-0.5137
 20
-85.6925
 30
0.0
 10
0.5194
 20
-88.7741
 30
0.0
 10
0.3997
 20
-91.5196
 30
0.0
 10
0.3997
 20
-91.5196
 30
0.0
 10
0.0621
 20
-94.8526
 30
0.0
 10
-0.9257
 20
-96.1843
 30
0.0
 10
-3.4509
 20
-95.6368
 30
0.0
 10
-3.4509
 20
-95.6368
 30
0.0
 10
-4.7719
 20
-95.3176
 30
0.0
 10
-4.844
 20
-93.2205
 30
0.0
 10
-3.2617
 20
-93.6504
 30
0.0
 10
-3.2617
 20
-93.6504
 30
0.0
 10
-1.0971
 20
-93.7545
 30
0.0
 10
-0.6888
 20
-91.0892
 30
0.0
 10
-2.5371
 20
-89.9056
 30
0.0
 10
-2.5371
 20
-89.9056
 30
0.0
 10
-5.0074
 20
-88.5705
 30
0.0
 10
-8.569
 20
-91.9508
 30
0.0
 10
-7.0615
 20
-96.5997
 30
0.0
 10
-7.0615
 20
-96.5997
 30
0.0
 10
-6.4352
 20
-98.6934
 30
0.0
 10
-2.696
 20
-101.3943
 30
0.0
 10
-0.1823
 20
-99.5101
 30
0.0
 10
-0.1823
 20
-99.5101
 30
0.0
 10
0.7976
 20
-98.6677
 30
0.0
 10
1.4307
 20
-97.6712
 30
0.0
 10
1.7756
 20
-96.5467
 30
0.0
 10
1.7756
 20
-96.5467
 30
0.0
 10
3.3987
 20
-99.7531
 30
0.0
 10
5.9251
 20
-100.8065
 30
0.0
 10
8.6947
 20
-99.3381
 30
0.0
 10
8.6947
 20
-99.3381
 30
0.0
 10
10.6922
 20
-98.2208
 30
0.0
 10
11.2522
 20
-93.1001
 30
0.0
 10
9.1577
 20
-90.6334
 30
0.0
 10
9.1577
 20
-90.6334
 30
0.0
 10
8.1081
 20
-88.7721
 30
0.0
 10
4.9818
 20
-88.8653
 30
0.0
 10
5.0302
 20
-92.5384
 30
0.0
 10
5.0302
 20
-92.5384
 30
0.0
 10
5.0555
 20
-94.044
 30
0.0
 10
5.9177
 20
-94.3364
 30
0.0
 10
6.7189
 20
-93.5135
 30
0.0
 10
6.7189
 20
-93.5135
 30
0.0
 10
7.7289
 20
-92.7221
 30
0.0
 10
8.3108
 20
-95.2836
 30
0.0
 10
6.8776
 20
-95.6831
 30
0.0
 10
6.8776
 20
-95.6831
 30
0.0
 10
4.6807
 20
-96.2301
 30
0.0
 10
2.9142
 20
-94.8581
 30
0.0
 10
2.8077
 20
-91.8504
 30
0.0
 10
2.8077
 20
-91.8504
 30
0.0
 10
2.7171
 20
-89.0061
 30
0.0
 10
3.5067
 20
-86.3248
 30
0.0
 10
5.3213
 20
-83.8335
 30
0.0
 10
5.3213
 20
-83.8335
 30
0.0
 10
5.3213
 20
-83.8335
 30
0.0
 10
21.1035
 20
-83.8204
 30
0.0
 10
21.1035
 20
-83.8204
 30
0.0
 10
21.1035
 20
-83.8204
 30
0.0
 10
23.889
 20
-87.6256
 30
0.0
 10
23.9421
 20
-93.5688
 30
0.0
 10
19.2516
 20
-95.2238
 30
0.0
 10
19.2516
 20
-95.2238
 30
0.0
 10
15.9017
 20
-96.0322
 30
0.0
 10
11.7934
 20
-93.9817
 30
0.0
 10
15.463
 20
-89.6802
 30
0.0
 10
15.463
 20
-89.6802
 30
0.0
 10
15.5058
 20
-92.5586
 30
0.0
 10
16.545
 20
-93.0155
 30
0.0
 10
18.4578
 20
-92.3927
 30
0.0
 10
18.4578
 20
-92.3927
 30
0.0
 10
21.8749
 20
-90.9372
 30
0.0
 10
19.9185
 20
-85.9732
 30
0.0
 10
17.426
 20
-85.7175
 30
0.0
 10
17.426
 20
-85.7175
 30
0.0
 10
13.4317
 20
-85.5487
 30
0.0
 10
11.5242
 20
-88.5575
 30
0.0
 10
11.1288
 20
-91.9165
 30
0.0
 10
11.1288
 20
-91.9165
 30
0.0
 10
10.7252
 20
-96.8184
 30
0.0
 10
15.1851
 20
-100.7452
 30
0.0
 10
18.8343
 20
-100.604
 30
0.0
 10
18.8343
 20
-100.604
 30
0.0
 10
23.6726
 20
-100.1016
 30
0.0
 10
27.0866
 20
-96.8373
 30
0.0
 10
26.3157
 20
-89.2707
 30
0.0
 10
26.3157
 20
-89.2707
 30
0.0
 10
31.133
 20
-99.8074
 30
0.0
 10
37.5323
 20
-102.1585
 30
0.0
 10
42.2833
 20
-101.3756
 30
0.0
 10
42.2833
 20
-101.3756
 30
0.0
 10
47.055
 20
-100.8864
 30
0.0
 10
51.1421
 20
-96.4188
 30
0.0
 10
51.1337
 20
-90.9906
 30
0.0
 10
51.1337
 20
-90.9906
 30
0.0
 10
51.4487
 20
-88.6185
 30
0.0
 10
50.9996
 20
-84.7155
 30
0.0
 10
46.7019
 20
-83.4897
 30
0.0
 10
46.7019
 20
-83.4897
 30
0.0
 10
46.7019
 20
-83.4897
 30
0.0
 10
50.2779
 20
-83.4694
 30
0.0
 10
50.2779
 20
-83.4694
 30
0.0
 10
50.2779
 20
-83.4694
 30
0.0
 10
50.2779
 20
-83.4694
 30
0.0
 10
52.39
 20
-6.4559
 30
0.0
 10
52.39
 20
-6.4559
 30
0.0
 10
52.39
 20
-6.4559
 30
0.0
 10
52.39
 20
-6.4559
 30
0.0
 10
53.7656
 20
29.6867
 30
0.0
 10
53.7656
 20
29.6867
 30
0.0
 10
53.7656
 20
29.6867
 30
0.0
 10
53.5331
 20
45.642
 30
0.0
 10
46.096
 20
59.2485
 30
0.0
 10
30.8526
 20
69.665
 30
0.0
 10
30.8526
 20
69.665
 30
0.0
 10
27.2379
 20
72.079
 30
0.0
 10
23.7064
 20
74.0595
 30
0.0
 10
19.7401
 20
75.4858
 30
0.0
 10
19.7401
 20
75.4858
 30
0.0
 10
24.1632
 20
77.872
 30
0.0
 10
26.6604
 20
82.3634
 30
0.0
 10
27.0001
 20
89.6005
 30
0.0
 10
27.0001
 20
89.6005
 30
0.0
 10
26.9451
 20
97.8759
 30
0.0
 10
22.5153
 20
103.6479
 30
0.0
 10
15.5722
 20
100.7271
 30
0.0
 10
15.5722
 20
100.7271
 30
0.0
 10
11.7117
 20
98.9936
 30
0.0
 10
9.8856
 20
92.7241
 30
0.0
 10
12.6486
 20
87.2862
 30
0.0
 10
12.6486
 20
87.2862
 30
0.0
 10
14.0151
 20
84.966
 30
0.0
 10
17.4777
 20
84.0722
 30
0.0
 10
19.5939
 20
85.7913
 30
0.0
 10
19.5939
 20
85.7913
 30
0.0
 10
21.1563
 20
86.9367
 30
0.0
 10
21.3783
 20
91.1063
 30
0.0
 10
19.5278
 20
92.8954
 30
0.0
 10
19.5278
 20
92.8954
 30
0.0
 10
17.7266
 20
94.1276
 30
0.0
 10
15.2084
 20
92.3333
 30
0.0
 10
15.9294
 20
88.8737
 30
0.0
 10
15.9294
 20
88.8737
 30
0.0
 10
12.386
 20
89.4567
 30
0.0
 10
13.5108
 20
94.4376
 30
0.0
 10
16.3528
 20
96.229
 30
0.0
 10
16.3528
 20
96.229
 30
0.0
 10
18.4393
 20
97.788
 30
0.0
 10
20.1666
 20
97.2189
 30
0.0
 10
21.4328
 20
95.3825
 30
0.0
 10
21.4328
 20
95.3825
 30
0.0
 10
24.5718
 20
88.8493
 30
0.0
 10
23.1094
 20
84.2945
 30
0.0
 10
19.9511
 20
80.6716
 30
0.0
 10
19.9511
 20
80.6716
 30
0.0
 10
16.1017
 20
77.684
 30
0.0
 10
8.9923
 20
76.9474
 30
0.0
 10
5.0286
 20
81.042
 30
0.0
 10
5.0286
 20
81.042
 30
0.0
 10
1.8457
 20
84.7105
 30
0.0
 10
0.3853
 20
90.0546
 30
0.0
 10
2.0652
 20
94.4829
 30
0.0
 10
2.0652
 20
94.4829
 30
0.0
 10
3.0518
 20
96.9628
 30
0.0
 10
3.4156
 20
97.6384
 30
0.0
 10
5.9546
 20
96.7317
 30
0.0
 10
5.9546
 20
96.7317
 30
0.0
 10
6.8819
 20
96.2098
 30
0.0
 10
7.6247
 20
95.0799
 30
0.0
 10
6.4043
 20
93.848
 30
0.0
 10
6.4043
 20
93.848
 30
0.0
 10
6.1271
 20
93.5884
 30
0.0
 10
5.7684
 20
93.7539
 30
0.0
 10
5.637
 20
94.2977
 30
0.0
 10
5.637
 20
94.2977
 30
0.0
 10
4.9963
 20
96.091
 30
0.0
 10
2.1852
 20
92.9147
 30
0.0
 10
3.5468
 20
91.0169
 30
0.0
 10
3.5468
 20
91.0169
 30
0.0
 10
4.7876
 20
89.2825
 30
0.0
 10
7.7434
 20
89.5983
 30
0.0
 10
8.5739
 20
91.7577
 30
0.0
 10
8.5739
 20
91.7577
 30
0.0
 10
9.6476
 20
94.8925
 30
0.0
 10
9.8021
 20
98.2978
 30
0.0
 10
7.7537
 20
99.9334
 30
0.0
 10
7.7537
 20
99.9334
 30
0.0
 10
4.7225
 20
102.0357
 30
0.0
 10
2.3357
 20
101.1033
 30
0.0
 10
0.3981
 20
98.0549
 30
0.0
 10
0.3981
 20
98.0549
 30
0.0
 10
-0.2634
 20
96.884
 30
0.0
 10
-0.7924
 20
96.9237
 30
0.0
 10
-1.5863
 20
97.9755
 30
0.0
 10
-1.5863
 20
97.9755
 30
0.0
 10
-3.915
 20
101.3321
 30
0.0
 10
-6.4636
 20
102.0273
 30
0.0
 10
-8.9687
 20
99.7218
 30
0.0
 10
-8.9687
 20
99.7218
 30
0.0
 10
-10.9692
 20
97.4943
 30
0.0
 10
-10.9458
 20
94.6993
 30
0.0
 10
-9.6566
 20
91.8372
 30
0.0
 10
-9.6566
 20
91.8372
 30
0.0
 10
-8.6951
 20
89.7576
 30
0.0
 10
-6.7198
 20
89.3837
 30
0.0
 10
-5.0264
 20
90.7259
 30
0.0
 10
-5.0264
 20
90.7259
 30
0.0
 10
-4.247
 20
91.4375
 30
0.0
 10
-4.1831
 20
92.6778
 30
0.0
 10
-5.0264
 20
94.5889
 30
0.0
 10
-5.0264
 20
94.5889
 30
0.0
 10
-5.5688
 20
95.5546
 30
0.0
 10
-6.8124
 20
95.2372
 30
0.0
 10
-7.0373
 20
93.5569
 30
0.0
 10
-7.0373
 20
93.5569
 30
0.0
 10
-8.3
 20
93.9919
 30
0.0
 10
-8.5175
 20
94.9565
 30
0.0
 10
-7.3812
 20
96.2823
 30
0.0
 10
-7.3812
 20
96.2823
 30
0.0
 10
-5.8415
 20
98.1292
 30
0.0
 10
-3.9468
 20
97.6368
 30
0.0
 10
-3.1743
 20
95.1975
 30
0.0
 10
-3.1743
 20
95.1975
 30
0.0
 10
-2.1438
 20
89.9208
 30
0.0
 10
-2.0529
 20
85.8864
 30
0.0
 10
-4.5502
 20
82.4444
 30
0.0
 10
-4.5502
 20
82.4444
 30
0.0
 10
-8.006
 20
77.87
 30
0.0
 10
-12.8859
 20
78.1376
 30
0.0
 10
-15.9273
 20
78.5286
 30
0.0
 10
-15.9273
 20
78.5286
 30
0.0
 10
-20.5706
 20
79.7744
 30
0.0
 10
-22.5492
 20
82.035
 30
0.0
 10
-23.7061
 20
86.3074
 30
0.0
 10
-23.7061
 20
86.3074
 30
0.0
 10
-24.6186
 20
89.7778
 30
0.0
 10
-24.6015
 20
92.9
 30
0.0
 10
-23.1769
 20
94.9857
 30
0.0
 10
-23.1769
 20
94.9857
 30
0.0
 10
-21.2215
 20
97.7021
 30
0.0
 10
-19.0823
 20
98.4258
 30
0.0
 10
-16.9857
 20
96.1763
 30
0.0
 10
-16.9857
 20
96.1763
 30
0.0
 10
-13.5956
 20
90.9961
 30
0.0
 10
-15.6469
 20
88.3288
 30
0.0
 10
-16.9315
 20
89.4033
 30
0.0
  0
SPLINE
  5
42
330
1F
100
AcDbEntity
  8
Camada 1
 62
   250
370
     9
100
AcDbSpline
210
0.0
220
0.0
230
1.0
 70
    11
 71
     3
 72
    16
 73
    12
 74
     0
 42
0.0000000001
 43
0.0000000001
 12
1.0
 22
0.0
 32
0.0
 13
1.0
 23
0.0
 33
0.0
 40
0.0
 40
0.0
 40
0.0
 40
0.0
 40
0.25
 40
0.25
 40
0.25
 40
0.25
 40
0.5
 40
0.5
 40
0.5
 40
0.5
 40
1.0
 40
1.0
 40
1.0
 40
1.0
 10
-0.3094
 20
86.4499
 30
0.0
 10
-0.8979
 20
83.7611
 30
0.0
 10
-1.9557
 20
81.2797
 30
0.0
 10
-3.802
 20
79.1474
 30
0.0
 10
-3.802
 20
79.1474
 30
0.0
 10
-3.802
 20
79.1474
 30
0.0
 10
2.9449
 20
79.3326
 30
0.0
 10
2.9449
 20
79.3326
 30
0.0
 10
2.9449
 20
79.3326
 30
0.0
 10
1.1697
 20
81.3217
 30
0.0
 10
0.1954
 20
83.7554
 30
0.0
 10
-0.3094
 20
86.4499
 30
0.0
  0
SPLINE
  5
43
330
1F
100
AcDbEntity
  8
Camada 1
 62
   250
370
     9
100
AcDbSpline
210
0.0
220
0.0
230
1.0
 70
    11
 71
     3
 72
    32
 73
    28
 74
     0
 42
0.0000000001
 43
0.0000000001
 12
1.0
 22
0.0
 32
0.0
 13
1.0
 23
0.0
 33
0.0
 40
0.0
 40
0.0
 40
0.0
 40
0.0
 40
0.125
 40
0.125
 40
0.125
 40
0.125
 40
0.25
 40
0.25
 40
0.25
 40
0.25
 40
0.375
 40
0.375
 40
0.375
 40
0.375
 40
0.5
 40
0.5
 40
0.5
 40
0.5
 40
0.625
 40
0.625
 40
0.625
 40
0.625
 40
0.75
 40
0.75
 40
0.75
 40
0.75
 40
1.0
 40
1.0
 40
1.0
 40
1.0
 10
-15.3589
 20
72.6564
 30
0.0
 10
-29.3627
 20
70.162
 30
0.0
 10
-40.7353
 20
61.8107
 30
0.0
 10
-47.4303
 20
46.5001
 30
0.0
 10
-47.4303
 20
46.5001
 30
0.0
 10
-51.5022
 20
38.0427
 30
0.0
 10
-51.1296
 20
25.6062
 30
0.0
 10
-49.9825
 20
11.0698
 30
0.0
 10
-49.9825
 20
11.0698
 30
0.0
 10
-48.2346
 20
12.8457
 30
0.0
 10
-46.3241
 20
13.2818
 30
0.0
 10
-44.2394
 20
13.0013
 30
0.0
 10
-44.2394
 20
13.0013
 30
0.0
 10
-42.2064
 20
12.6266
 30
0.0
 10
-38.931
 20
9.4034
 30
0.0
 10
-38.23
 20
7.3349
 30
0.0
 10
-38.23
 20
7.3349
 30
0.0
 10
-38.23
 20
7.3349
 30
0.0
 10
-33.9423
 20
14.0309
 30
0.0
 10
-33.9423
 20
14.0309
 30
0.0
 10
-33.9423
 20
14.0309
 30
0.0
 10
-34.6437
 20
26.6187
 30
0.0
 10
-33.9557
 20
39.9862
 30
0.0
 10
-31.1943
 20
49.7515
 30
0.0
 10
-31.1943
 20
49.7515
 30
0.0
 10
-28.1976
 20
60.1019
 30
0.0
 10
-25.0143
 20
67.104
 30
0.0
 10
-15.3589
 20
72.6564
 30
0.0
  0
SPLINE
  5
44
330
1F
100
AcDbEntity
  8
Camada 1
 62
   250
370
     9
100
AcDbSpline
210
0.0
220
0.0
230
1.0
 70
    11
 71
     3
 72
    24
 73
    20
 74
     0
 42
0.0000000001
 43
0.0000000001
 12
1.0
 22
0.0
 32
0.0
 13
1.0
 23
0.0
 33
0.0
 40
0.0
 40
0.0
 40
0.0
 40
0.0
 40
0.1666666666666667
 40
0.1666666666666667
 40
0.1666666666666667
 40
0.1666666666666667
 40
0.3333333333333333
 40
0.3333333333333333
 40
0.3333333333333333
 40
0.3333333333333333
 40
0.5
 40
0.5
 40
0.5
 40
0.5
 40
0.6666666666666666
 40
0.6666666666666666
 40
0.6666666666666666
 40
0.6666666666666666
 40
1.0
 40
1.0
 40
1.0
 40
1.0
 10
-5.8639
 20
74.3309
 30
0.0
 10
-13.3081
 20
71.4959
 30
0.0
 10
-18.7775
 20
67.735
 30
0.0
 10
-23.3934
 20
61.242
 30
0.0
 10
-23.3934
 20
61.242
 30
0.0
 10
-29.2304
 20
53.0303
 30
0.0
 10
-31.2564
 20
34.5741
 30
0.0
 10
-31.1712
 20
24.8396
 30
0.0
 10
-31.1712
 20
24.8396
 30
0.0
 10
-26.0514
 20
31.7019
 30
0.0
 10
-24.1327
 20
32.5435
 30
0.0
 10
-22.7704
 20
34.8021
 30
0.0
 10
-22.7704
 20
34.8021
 30
0.0
 10
-21.18
 20
37.968
 30
0.0
 10
-19.0863
 20
39.9969
 30
0.0
 10
-16.579
 20
41.893
 30
0.0
 10
-16.579
 20
41.893
 30
0.0
 10
-15.5445
 20
56.9706
 30
0.0
 10
-11.5727
 20
66.8559
 30
0.0
 10
-5.8639
 20
74.3309
 30
0.0
  0
SPLINE
  5
45
330
1F
100
AcDbEntity
  8
Camada 1
 62
   250
370
     9
100
AcDbSpline
210
0.0
220
0.0
230
1.0
 70
    11
 71
     3
 72
    44
 73
    40
 74
     0
 42
0.0000000001
 43
0.0000000001
 12
1.0
 22
0.0
 32
0.0
 13
1.0
 23
0.0
 33
0.0
 40
0.0
 40
0.0
 40
0.0
 40
0.0
 40
0.0909090909090909
 40
0.0909090909090909
 40
0.0909090909090909
 40
0.0909090909090909
 40
0.1818181818181818
 40
0.1818181818181818
 40
0.1818181818181818
 40
0.1818181818181818
 40
0.2727272727272727
 40
0.2727272727272727
 40
0.2727272727272727
 40
0.2727272727272727
 40
0.3636363636363636
 40
0.3636363636363636
 40
0.3636363636363636
 40
0.3636363636363636
 40
0.4545454545454545
 40
0.4545454545454545
 40
0.4545454545454545
 40
0.4545454545454545
 40
0.5454545454545454
 40
0.5454545454545454
 40
0.5454545454545454
 40
0.5454545454545454
 40
0.6363636363636364
 40
0.6363636363636364
 40
0.6363636363636364
 40
0.6363636363636364
 40
0.7272727272727273
 40
0.7272727272727273
 40
0.7272727272727273
 40
0.7272727272727273
 40
0.8181818181818182
 40
0.8181818181818182
 40
0.8181818181818182
 40
0.8181818181818182
 40
1.0
 40
1.0
 40
1.0
 40
1.0
 10
-1.8051
 20
15.1956
 30
0.0
 10
-1.4184
 20
36.0912
 30
0.0
 10
-2.1914
 20
53.7619
 30
0.0
 10
-1.1291
 20
74.4368
 30
0.0
 10
-1.1291
 20
74.4368
 30
0.0
 10
-4.2919
 20
71.6727
 30
0.0
 10
-8.4271
 20
66.1326
 30
0.0
 10
-10.2241
 20
59.4877
 30
0.0
 10
-10.2241
 20
59.4877
 30
0.0
 10
-11.3182
 20
55.7875
 30
0.0
 10
-12.7628
 20
50.3222
 30
0.0
 10
-13.3088
 20
43.8244
 30
0.0
 10
-13.3088
 20
43.8244
 30
0.0
 10
-10.5996
 20
46.4752
 30
0.0
 10
-5.8611
 20
45.9627
 30
0.0
 10
-4.6501
 20
43.4539
 30
0.0
 10
-4.6501
 20
43.4539
 30
0.0
 10
-2.8857
 20
40.127
 30
0.0
 10
-3.3769
 20
36.6382
 30
0.0
 10
-5.5037
 20
34.7755
 30
0.0
 10
-5.5037
 20
34.7755
 30
0.0
 10
-5.6856
 20
36.3621
 30
0.0
 10
-6.8015
 20
36.5139
 30
0.0
 10
-7.275
 20
34.9873
 30
0.0
 10
-7.275
 20
34.9873
 30
0.0
 10
-8.2791
 20
31.1784
 30
0.0
 10
-11.6602
 20
28.1421
 30
0.0
 10
-14.1439
 20
25.8855
 30
0.0
 10
-14.1439
 20
25.8855
 30
0.0
 10
-14.1439
 20
25.8855
 30
0.0
 10
-13.7359
 20
21.242
 30
0.0
 10
-13.7359
 20
21.242
 30
0.0
 10
-13.7359
 20
21.242
 30
0.0
 10
-13.7359
 20
21.242
 30
0.0
 10
-13.1622
 20
19.8
 30
0.0
 10
-13.1622
 20
19.8
 30
0.0
 10
-13.1622
 20
19.8
 30
0.0
 10
-8.7852
 20
20.0628
 30
0.0
 10
-4.2567
 20
19.1461
 30
0.0
 10
-1.8051
 20
15.1956
 30
0.0
  0
SPLINE
  5
46
330
1F
100
AcDbEntity
  8
Camada 1
 62
   250
370
     9
100
AcDbSpline
210
0.0
220
0.0
230
1.0
 70
    11
 71
     3
 72
    20
 73
    16
 74
     0
 42
0.0000000001
 43
0.0000000001
 12
1.0
 22
0.0
 32
0.0
 13
1.0
 23
0.0
 33
0.0
 40
0.0
 40
0.0
 40
0.0
 40
0.0
 40
0.2
 40
0.2
 40
0.2
 40
0.2
 40
0.4
 40
0.4
 40
0.4
 40
0.4
 40
0.6
 40
0.6
 40
0.6
 40
0.6
 40
1.0
 40
1.0
 40
1.0
 40
1.0
 10
15.586
 20
20.0134
 30
0.0
 10
15.514
 20
39.7847
 30
0.0
 10
13.4669
 20
53.4813
 30
0.0
 10
9.2436
 20
62.4235
 30
0.0
 10
9.2436
 20
62.4235
 30
0.0
 10
7.7479
 20
65.9354
 30
0.0
 10
5.235
 20
69.7821
 30
0.0
 10
1.5162
 20
74.7476
 30
0.0
 10
1.5162
 20
74.7476
 30
0.0
 10
1.5162
 20
74.7476
 30
0.0
 10
1.5597
 20
15.3143
 30
0.0
 10
1.5597
 20
15.3143
 30
0.0
 10
1.5597
 20
15.3143
 30
0.0
 10
5.069
 20
19.5617
 30
0.0
 10
11.01
 20
20.886
 30
0.0
 10
15.586
 20
20.0134
 30
0.0
  0
SPLINE
  5
47
330
1F
100
AcDbEntity
  8
Camada 1
 62
   250
370
     9
100
AcDbSpline
210
0.0
220
0.0
230
1.0
 70
    11
 71
     3
 72
    24
 73
    20
 74
     0
 42
0.0000000001
 43
0.0000000001
 12
1.0
 22
0.0
 32
0.0
 13
1.0
 23
0.0
 33
0.0
 40
0.0
 40
0.0
 40
0.0
 40
0.0
 40
0.1666666666666667
 40
0.1666666666666667
 40
0.1666666666666667
 40
0.1666666666666667
 40
0.3333333333333333
 40
0.3333333333333333
 40
0.3333333333333333
 40
0.3333333333333333
 40
0.5
 40
0.5
 40
0.5
 40
0.5
 40
0.6666666666666666
 40
0.6666666666666666
 40
0.6666666666666666
 40
0.6666666666666666
 40
1.0
 40
1.0
 40
1.0
 40
1.0
 10
32.2129
 20
6.6086
 30
0.0
 10
27.9602
 20
12.7531
 30
0.0
 10
23.9818
 20
17.4836
 30
0.0
 10
18.6868
 20
19.4814
 30
0.0
 10
18.6868
 20
19.4814
 30
0.0
 10
18.8362
 20
28.9862
 30
0.0
 10
18.0912
 20
37.765
 30
0.0
 10
16.9931
 20
46.6279
 30
0.0
 10
16.9931
 20
46.6279
 30
0.0
 10
14.8897
 20
58.6942
 30
0.0
 10
10.736
 20
69.5305
 30
0.0
 10
4.9284
 20
74.2503
 30
0.0
 10
4.9284
 20
74.2503
 30
0.0
 10
18.5903
 20
69.3897
 30
0.0
 10
25.5674
 20
58.7526
 30
0.0
 10
29.3496
 20
46.6938
 30
0.0
 10
29.3496
 20
46.6938
 30
0.0
 10
33.3552
 20
34.5498
 30
0.0
 10
33.246
 20
16.0192
 30
0.0
 10
32.2129
 20
6.6086
 30
0.0
  0
SPLINE
  5
48
330
1F
100
AcDbEntity
  8
Camada 1
 62
   250
370
     9
100
AcDbSpline
210
0.0
220
0.0
230
1.0
 70
    11
 71
     3
 72
    44
 73
    40
 74
     0
 42
0.0000000001
 43
0.0000000001
 12
1.0
 22
0.0
 32
0.0
 13
1.0
 23
0.0
 33
0.0
 40
0.0
 40
0.0
 40
0.0
 40
0.0
 40
0.0909090909090909
 40
0.0909090909090909
 40
0.0909090909090909
 40
0.0909090909090909
 40
0.1818181818181818
 40
0.1818181818181818
 40
0.1818181818181818
 40
0.1818181818181818
 40
0.2727272727272727
 40
0.2727272727272727
 40
0.2727272727272727
 40
0.2727272727272727
 40
0.3636363636363636
 40
0.3636363636363636
 40
0.3636363636363636
 40
0.3636363636363636
 40
0.4545454545454545
 40
0.4545454545454545
 40
0.4545454545454545
 40
0.4545454545454545
 40
0.5454545454545454
 40
0.5454545454545454
 40
0.5454545454545454
 40
0.5454545454545454
 40
0.6363636363636364
 40
0.6363636363636364
 40
0.6363636363636364
 40
0.6363636363636364
 40
0.7272727272727273
 40
0.7272727272727273
 40
0.7272727272727273
 40
0.7272727272727273
 40
0.8181818181818182
 40
0.8181818181818182
 40
0.8181818181818182
 40
0.8181818181818182
 40
1.0
 40
1.0
 40
1.0
 40
1.0
 10
16.3259
 20
71.9574
 30
0.0
 10
27.9788
 20
69.2463
 30
0.0
 10
33.0408
 20
65.4531
 30
0.0
 10
41.0471
 20
56.5134
 30
0.0
 10
41.0471
 20
56.5134
 30
0.0
 10
51.2385
 20
43.2016
 30
0.0
 10
51.4346
 20
34.4091
 30
0.0
 10
49.8776
 20
12.0424
 30
0.0
 10
49.8776
 20
12.0424
 30
0.0
 10
46.2936
 20
14.6531
 30
0.0
 10
43.848
 20
13.992
 30
0.0
 10
41.9662
 20
10.1904
 30
0.0
 10
41.9662
 20
10.1904
 30
0.0
 10
40.2563
 20
5.9869
 30
0.0
 10
42.4576
 20
3.4645
 30
0.0
 10
45.7762
 20
4.2372
 30
0.0
 10
45.7762
 20
4.2372
 30
0.0
 10
47.3875
 20
4.6269
 30
0.0
 10
47.7279
 20
6.8637
 30
0.0
 10
46.5699
 20
9.0791
 30
0.0
 10
46.5699
 20
9.0791
 30
0.0
 10
46.4111
 20
9.97
 30
0.0
 10
46.8918
 20
11.447
 30
0.0
 10
48.131
 20
9.7934
 30
0.0
 10
48.131
 20
9.7934
 30
0.0
 10
51.7989
 20
3.9009
 30
0.0
 10
44.535
 20
-2.7223
 30
0.0
 10
39.0822
 20
-1.0547
 30
0.0
 10
39.0822
 20
-1.0547
 30
0.0
 10
37.9698
 20
-0.6826
 30
0.0
 10
35.5202
 20
0.6464
 30
0.0
 10
35.1324
 20
1.9007
 30
0.0
 10
35.1324
 20
1.9007
 30
0.0
 10
36.0648
 20
14.2165
 30
0.0
 10
36.423
 20
24.8965
 30
0.0
 10
34.0358
 20
40.8675
 30
0.0
 10
34.0358
 20
40.8675
 30
0.0
 10
30.9265
 20
54.5837
 30
0.0
 10
25.0794
 20
65.0145
 30
0.0
 10
16.3259
 20
71.9574
 30
0.0
  0
SPLINE
  5
49
330
1F
100
AcDbEntity
  8
Camada 1
 62
   250
370
     9
100
AcDbSpline
210
0.0
220
0.0
230
1.0
 70
    11
 71
     3
 72
    28
 73
    24
 74
     0
 42
0.0000000001
 43
0.0000000001
 12
1.0
 22
0.0
 32
0.0
 13
1.0
 23
0.0
 33
0.0
 40
0.0
 40
0.0
 40
0.0
 40
0.0
 40
0.1428571428571428
 40
0.1428571428571428
 40
0.1428571428571428
 40
0.1428571428571428
 40
0.2857142857142857
 40
0.2857142857142857
 40
0.2857142857142857
 40
0.2857142857142857
 40
0.4285714285714285
 40
0.4285714285714285
 40
0.4285714285714285
 40
0.4285714285714285
 40
0.5714285714285714
 40
0.5714285714285714
 40
0.5714285714285714
 40
0.5714285714285714
 40
0.7142857142857143
 40
0.7142857142857143
 40
0.7142857142857143
 40
0.7142857142857143
 40
1.0
 40
1.0
 40
1.0
 40
1.0
 10
-33.5282
 20
10.7974
 30
0.0
 10
-33.5282
 20
10.7974
 30
0.0
 10
-33.4432
 20
2.9424
 30
0.0
 10
-33.4432
 20
2.9424
 30
0.0
 10
-33.4432
 20
2.9424
 30
0.0
 10
-38.2365
 20
-2.696
 30
0.0
 10
-45.2328
 20
-3.5332
 30
0.0
 10
-48.5422
 20
1.3414
 30
0.0
 10
-48.5422
 20
1.3414
 30
0.0
 10
-49.9386
 20
3.5664
 30
0.0
 10
-49.5043
 20
6.5643
 30
0.0
 10
-48.1907
 20
9.0805
 30
0.0
 10
-48.1907
 20
9.0805
 30
0.0
 10
-47.5212
 20
10.3561
 30
0.0
 10
-45.6035
 20
10.2654
 30
0.0
 10
-46.2695
 20
8.2338
 30
0.0
 10
-46.2695
 20
8.2338
 30
0.0
 10
-47.8499
 20
1.7584
 30
0.0
 10
-38.6913
 20
3.0295
 30
0.0
 10
-36.753
 20
6.2759
 30
0.0
 10
-36.753
 20
6.2759
 30
0.0
 10
-36.753
 20
6.2759
 30
0.0
 10
-33.5282
 20
10.7974
 30
0.0
 10
-33.5282
 20
10.7974
 30
0.0
  0
SPLINE
  5
4A
330
1F
100
AcDbEntity
  8
Camada 1
 62
   250
370
     9
100
AcDbSpline
210
0.0
220
0.0
230
1.0
 70
    11
 71
     3
 72
    24
 73
    20
 74
     0
 42
0.0000000001
 43
0.0000000001
 12
1.0
 22
0.0
 32
0.0
 13
1.0
 23
0.0
 33
0.0
 40
0.0
 40
0.0
 40
0.0
 40
0.0
 40
0.1666666666666667
 40
0.1666666666666667
 40
0.1666666666666667
 40
0.1666666666666667
 40
0.3333333333333333
 40
0.3333333333333333
 40
0.3333333333333333
 40
0.3333333333333333
 40
0.5
 40
0.5
 40
0.5
 40
0.5
 40
0.6666666666666666
 40
0.6666666666666666
 40
0.6666666666666666
 40
0.6666666666666666
 40
1.0
 40
1.0
 40
1.0
 40
1.0
 10
-17.4753
 20
19.3199
 30
0.0
 10
-27.4148
 20
14.9455
 30
0.0
 10
-26.3592
 20
9.1755
 30
0.0
 10
-31.007
 20
4.6952
 30
0.0
 10
-31.007
 20
4.6952
 30
0.0
 10
-31.007
 20
4.6952
 30
0.0
 10
-30.6001
 20
15.9317
 30
0.0
 10
-30.6001
 20
15.9317
 30
0.0
 10
-30.6001
 20
15.9317
 30
0.0
 10
-30.6001
 20
15.9317
 30
0.0
 10
-25.4127
 20
21.8731
 30
0.0
 10
-25.4127
 20
21.8731
 30
0.0
 10
-25.4127
 20
21.8731
 30
0.0
 10
-23.2023
 20
23.6105
 30
0.0
 10
-20.1849
 20
24.6612
 30
0.0
 10
-18.0308
 20
24.7174
 30
0.0
 10
-18.0308
 20
24.7174
 30
0.0
 10
-17.0849
 20
23.1604
 30
0.0
 10
-16.8688
 20
21.3709
 30
0.0
 10
-17.4753
 20
19.3199
 30
0.0
  0
SPLINE
  5
4B
330
1F
100
AcDbEntity
  8
Camada 1
 62
   250
370
     9
100
AcDbSpline
210
0.0
220
0.0
230
1.0
 70
    11
 71
     3
 72
    20
 73
    16
 74
     0
 42
0.0000000001
 43
0.0000000001
 12
1.0
 22
0.0
 32
0.0
 13
1.0
 23
0.0
 33
0.0
 40
0.0
 40
0.0
 40
0.0
 40
0.0
 40
0.2
 40
0.2
 40
0.2
 40
0.2
 40
0.4
 40
0.4
 40
0.4
 40
0.4
 40
0.6
 40
0.6
 40
0.6
 40
0.6
 40
1.0
 40
1.0
 40
1.0
 40
1.0
 10
-8.3146
 20
42.3993
 30
0.0
 10
-8.8669
 20
42.3993
 30
0.0
 10
-9.3146
 20
41.9516
 30
0.0
 10
-9.3146
 20
41.3994
 30
0.0
 10
-9.3146
 20
41.3994
 30
0.0
 10
-9.3146
 20
40.8471
 30
0.0
 10
-8.8669
 20
40.3994
 30
0.0
 10
-8.3146
 20
40.3994
 30
0.0
 10
-8.3146
 20
40.3994
 30
0.0
 10
-7.7623
 20
40.3993
 30
0.0
 10
-7.3146
 20
40.8471
 30
0.0
 10
-7.3146
 20
41.3993
 30
0.0
 10
-7.3146
 20
41.3993
 30
0.0
 10
-7.3146
 20
41.9516
 30
0.0
 10
-7.7623
 20
42.3993
 30
0.0
 10
-8.3146
 20
42.3993
 30
0.0
  0
SPLINE
  5
4C
330
1F
100
AcDbEntity
  8
Camada 1
 62
   250
370
     9
100
AcDbSpline
210
0.0
220
0.0
230
1.0
 70
    11
 71
     3
 72
    16
 73
    12
 74
     0
 42
0.0000000001
 43
0.0000000001
 12
1.0
 22
0.0
 32
0.0
 13
1.0
 23
0.0
 33
0.0
 40
0.0
 40
0.0
 40
0.0
 40
0.0
 40
0.25
 40
0.25
 40
0.25
 40
0.25
 40
0.5
 40
0.5
 40
0.5
 40
0.5
 40
1.0
 40
1.0
 40
1.0
 40
1.0
 10
-31.1647
 20
22.6758
 30
0.0
 10
-31.1647
 20
22.6758
 30
0.0
 10
-31.0608
 20
19.1689
 30
0.0
 10
-31.0608
 20
19.1689
 30
0.0
 10
-31.0608
 20
19.1689
 30
0.0
 10
-31.0608
 20
19.1689
 30
0.0
 10
-26.2459
 20
24.636
 30
0.0
 10
-26.2459
 20
24.636
 30
0.0
 10
-26.2459
 20
24.636
 30
0.0
 10
-26.2459
 20
24.636
 30
0.0
 10
-31.1647
 20
22.6758
 30
0.0
 10
-31.1647
 20
22.6758
 30
0.0
  0
SPLINE
  5
4D
330
1F
100
AcDbEntity
  8
Camada 1
 62
   250
370
     9
100
AcDbSpline
210
0.0
220
0.0
230
1.0
 70
    11
 71
     3
 72
    20
 73
    16
 74
     0
 42
0.0000000001
 43
0.0000000001
 12
1.0
 22
0.0
 32
0.0
 13
1.0
 23
0.0
 33
0.0
 40
0.0
 40
0.0
 40
0.0
 40
0.0
 40
0.2
 40
0.2
 40
0.2
 40
0.2
 40
0.4
 40
0.4
 40
0.4
 40
0.4
 40
0.6
 40
0.6
 40
0.6
 40
0.6
 40
1.0
 40
1.0
 40
1.0
 40
1.0
 10
-49.1243
 20
-2.6491
 30
0.0
 10
-44.211
 20
-7.1975
 30
0.0
 10
-38.6583
 20
-5.9728
 30
0.0
 10
-34.0132
 20
-1.4896
 30
0.0
 10
-34.0132
 20
-1.4896
 30
0.0
 10
-34.0132
 20
-1.4896
 30
0.0
 10
-31.8041
 20
-71.3131
 30
0.0
 10
-31.8041
 20
-71.3131
 30
0.0
 10
-31.8041
 20
-71.3131
 30
0.0
 10
-31.8041
 20
-71.3131
 30
0.0
 10
-45.2721
 20
-71.3793
 30
0.0
 10
-45.2721
 20
-71.3793
 30
0.0
 10
-45.2721
 20
-71.3793
 30
0.0
 10
-45.2721
 20
-71.3793
 30
0.0
 10
-49.1243
 20
-2.6491
 30
0.0
 10
-49.1243
 20
-2.6491
 30
0.0
  0
SPLINE
  5
4E
330
1F
100
AcDbEntity
  8
Camada 1
 62
   250
370
     9
100
AcDbSpline
210
0.0
220
0.0
230
1.0
 70
    11
 71
     3
 72
    24
 73
    20
 74
     0
 42
0.0000000001
 43
0.0000000001
 12
1.0
 22
0.0
 32
0.0
 13
1.0
 23
0.0
 33
0.0
 40
0.0
 40
0.0
 40
0.0
 40
0.0
 40
0.1666666666666667
 40
0.1666666666666667
 40
0.1666666666666667
 40
0.1666666666666667
 40
0.3333333333333333
 40
0.3333333333333333
 40
0.3333333333333333
 40
0.3333333333333333
 40
0.5
 40
0.5
 40
0.5
 40
0.5
 40
0.6666666666666666
 40
0.6666666666666666
 40
0.6666666666666666
 40
0.6666666666666666
 40
1.0
 40
1.0
 40
1.0
 40
1.0
 10
-25.8667
 20
4.8097
 30
0.0
 10
-25.8667
 20
4.8097
 30
0.0
 10
-31.1428
 20
1.2104
 30
0.0
 10
-31.1428
 20
1.2104
 30
0.0
 10
-31.1428
 20
1.2104
 30
0.0
 10
-31.1428
 20
1.2104
 30
0.0
 10
-28.795
 20
-71.3055
 30
0.0
 10
-28.795
 20
-71.3055
 30
0.0
 10
-28.795
 20
-71.3055
 30
0.0
 10
-28.795
 20
-71.3055
 30
0.0
 10
-16.2469
 20
-71.3066
 30
0.0
 10
-16.2469
 20
-71.3066
 30
0.0
 10
-16.2469
 20
-71.3066
 30
0.0
 10
-16.2469
 20
-71.3066
 30
0.0
 10
-16.8296
 20
-5.2427
 30
0.0
 10
-16.8296
 20
-5.2427
 30
0.0
 10
-16.8296
 20
-5.2427
 30
0.0
 10
-20.1757
 20
-4.7307
 30
0.0
 10
-25.6269
 20
-2.5685
 30
0.0
 10
-25.8667
 20
4.8097
 30
0.0
  0
SPLINE
  5
4F
330
1F
100
AcDbEntity
  8
Camada 1
 62
   250
370
     9
100
AcDbSpline
210
0.0
220
0.0
230
1.0
 70
    11
 71
     3
 72
    24
 73
    20
 74
     0
 42
0.0000000001
 43
0.0000000001
 12
1.0
 22
0.0
 32
0.0
 13
1.0
 23
0.0
 33
0.0
 40
0.0
 40
0.0
 40
0.0
 40
0.0
 40
0.1666666666666667
 40
0.1666666666666667
 40
0.1666666666666667
 40
0.1666666666666667
 40
0.3333333333333333
 40
0.3333333333333333
 40
0.3333333333333333
 40
0.3333333333333333
 40
0.5
 40
0.5
 40
0.5
 40
0.5
 40
0.6666666666666666
 40
0.6666666666666666
 40
0.6666666666666666
 40
0.6666666666666666
 40
1.0
 40
1.0
 40
1.0
 40
1.0
 10
-18.3176
 20
3.4179
 30
0.0
 10
-18.3176
 20
3.4179
 30
0.0
 10
-18.0611
 20
-1.3921
 30
0.0
 10
-18.0611
 20
-1.3921
 30
0.0
 10
-18.0611
 20
-1.3921
 30
0.0
 10
-20.6824
 20
-0.6182
 30
0.0
 10
-23.0718
 20
3.273
 30
0.0
 10
-22.7827
 20
8.0912
 30
0.0
 10
-22.7827
 20
8.0912
 30
0.0
 10
-22.5226
 20
11.4407
 30
0.0
 10
-20.9366
 20
13.3896
 30
0.0
 10
-18.1365
 20
15.2576
 30
0.0
 10
-18.1365
 20
15.2576
 30
0.0
 10
-18.1365
 20
15.2576
 30
0.0
 10
-18.179
 20
9.7834
 30
0.0
 10
-18.179
 20
9.7834
 30
0.0
 10
-18.179
 20
9.7834
 30
0.0
 10
-20.2516
 20
7.454
 30
0.0
 10
-19.7852
 20
4.6431
 30
0.0
 10
-18.3176
 20
3.4179
 30
0.0
  0
SPLINE
  5
50
330
1F
100
AcDbEntity
  8
Camada 1
 62
   250
370
     9
100
AcDbSpline
210
0.0
220
0.0
230
1.0
 70
    11
 71
     3
 72
    20
 73
    16
 74
     0
 42
0.0000000001
 43
0.0000000001
 12
1.0
 22
0.0
 32
0.0
 13
1.0
 23
0.0
 33
0.0
 40
0.0
 40
0.0
 40
0.0
 40
0.0
 40
0.2
 40
0.2
 40
0.2
 40
0.2
 40
0.4
 40
0.4
 40
0.4
 40
0.4
 40
0.6
 40
0.6
 40
0.6
 40
0.6
 40
1.0
 40
1.0
 40
1.0
 40
1.0
 10
-13.6496
 20
6.84
 30
0.0
 10
-13.6496
 20
6.84
 30
0.0
 10
-13.6562
 20
6.3373
 30
0.0
 10
-13.6562
 20
6.3373
 30
0.0
 10
-13.6562
 20
6.3373
 30
0.0
 10
-12.8626
 20
5.6714
 30
0.0
 10
-13.0074
 20
4.5556
 30
0.0
 10
-13.8149
 20
3.7442
 30
0.0
 10
-13.8149
 20
3.7442
 30
0.0
 10
-13.8149
 20
3.7442
 30
0.0
 10
-13.7882
 20
-1.124
 30
0.0
 10
-13.7882
 20
-1.124
 30
0.0
 10
-13.7882
 20
-1.124
 30
0.0
 10
-11.257
 20
-0.0405
 30
0.0
 10
-9.9542
 20
5.4829
 30
0.0
 10
-13.6496
 20
6.84
 30
0.0
  0
SPLINE
  5
51
330
1F
100
AcDbEntity
  8
Camada 1
 62
   250
370
     9
100
AcDbSpline
210
0.0
220
0.0
230
1.0
 70
    11
 71
     3
 72
    68
 73
    64
 74
     0
 42
0.0000000001
 43
0.0000000001
 12
1.0
 22
0.0
 32
0.0
 13
1.0
 23
0.0
 33
0.0
 40
0.0
 40
0.0
 40
0.0
 40
0.0
 40
0.0588235294117647
 40
0.0588235294117647
 40
0.0588235294117647
 40
0.0588235294117647
 40
0.1176470588235294
 40
0.1176470588235294
 40
0.1176470588235294
 40
0.1176470588235294
 40
0.1764705882352941
 40
0.1764705882352941
 40
0.1764705882352941
 40
0.1764705882352941
 40
0.2352941176470588
 40
0.2352941176470588
 40
0.2352941176470588
 40
0.2352941176470588
 40
0.2941176470588235
 40
0.2941176470588235
 40
0.2941176470588235
 40
0.2941176470588235
 40
0.3529411764705883
 40
0.3529411764705883
 40
0.3529411764705883
 40
0.3529411764705883
 40
0.4117647058823529
 40
0.4117647058823529
 40
0.4117647058823529
 40
0.4117647058823529
 40
0.4705882352941176
 40
0.4705882352941176
 40
0.4705882352941176
 40
0.4705882352941176
 40
0.5294117647058824
 40
0.5294117647058824
 40
0.5294117647058824
 40
0.5294117647058824
 40
0.5882352941176471
 40
0.5882352941176471
 40
0.5882352941176471
 40
0.5882352941176471
 40
0.6470588235294118
 40
0.6470588235294118
 40
0.6470588235294118
 40
0.6470588235294118
 40
0.7058823529411765
 40
0.7058823529411765
 40
0.7058823529411765
 40
0.7058823529411765
 40
0.7647058823529411
 40
0.7647058823529411
 40
0.7647058823529411
 40
0.7647058823529411
 40
0.8235294117647058
 40
0.8235294117647058
 40
0.8235294117647058
 40
0.8235294117647058
 40
0.8823529411764706
 40
0.8823529411764706
 40
0.8823529411764706
 40
0.8823529411764706
 40
1.0
 40
1.0
 40
1.0
 40
1.0
 10
-1.8285
 20
-3.1531
 30
0.0
 10
-3.7979
 20
-4.5111
 30
0.0
 10
-6.1333
 20
-3.8199
 30
0.0
 10
-7.5901
 20
-1.6045
 30
0.0
 10
-7.5901
 20
-1.6045
 30
0.0
 10
-8.7322
 20
0.381
 30
0.0
 10
-8.5338
 20
3.2279
 30
0.0
 10
-6.8361
 20
4.8914
 30
0.0
 10
-6.8361
 20
4.8914
 30
0.0
 10
-5.2334
 20
6.3901
 30
0.0
 10
-3.5216
 20
5.6123
 30
0.0
 10
-2.8673
 20
3.9124
 30
0.0
 10
-2.8673
 20
3.9124
 30
0.0
 10
-2.2225
 20
2.396
 30
0.0
 10
-4.2838
 20
0.6265
 30
0.0
 10
-4.7459
 20
1.5841
 30
0.0
 10
-4.7459
 20
1.5841
 30
0.0
 10
-5.0033
 20
2.365
 30
0.0
 10
-5.6835
 20
2.6993
 30
0.0
 10
-6.0423
 20
2.1132
 30
0.0
 10
-6.0423
 20
2.1132
 30
0.0
 10
-7.4479
 20
-0.1166
 30
0.0
 10
-3.9572
 20
-2.945
 30
0.0
 10
-2.2323
 20
0.2083
 30
0.0
 10
-2.2323
 20
0.2083
 30
0.0
 10
-2.2206
 20
0.268
 30
0.0
 10
-2.209
 20
0.3274
 30
0.0
 10
-2.1976
 20
0.3864
 30
0.0
 10
-2.1976
 20
0.3864
 30
0.0
 10
-1.4322
 20
4.3346
 30
0.0
 10
-1.245
 20
6.9711
 30
0.0
 10
-3.0264
 20
11.0297
 30
0.0
 10
-3.0264
 20
11.0297
 30
0.0
 10
-4.5089
 20
14.3921
 30
0.0
 10
-5.1562
 20
15.6098
 30
0.0
 10
-10.9619
 20
15.8756
 30
0.0
 10
-10.9619
 20
15.8756
 30
0.0
 10
-10.9619
 20
15.8756
 30
0.0
 10
-13.1791
 20
15.4221
 30
0.0
 10
-13.1791
 20
15.4221
 30
0.0
 10
-13.1791
 20
15.4221
 30
0.0
 10
-13.1791
 20
15.4221
 30
0.0
 10
-13.3378
 20
9.8114
 30
0.0
 10
-13.3378
 20
9.8114
 30
0.0
 10
-13.3378
 20
9.8114
 30
0.0
 10
-10.3944
 20
9.7334
 30
0.0
 10
-8.8539
 20
7.1386
 30
0.0
 10
-8.7682
 20
2.9332
 30
0.0
 10
-8.7682
 20
2.9332
 30
0.0
 10
-8.8342
 20
-0.8727
 30
0.0
 10
-11.2197
 20
-3.6752
 30
0.0
 10
-13.8352
 20
-5.2317
 30
0.0
 10
-13.8352
 20
-5.2317
 30
0.0
 10
-13.8352
 20
-5.2317
 30
0.0
 10
-13.293
 20
-71.2848
 30
0.0
 10
-13.293
 20
-71.2848
 30
0.0
 10
-13.293
 20
-71.2848
 30
0.0
 10
-13.293
 20
-71.2848
 30
0.0
 10
-1.8879
 20
-71.3116
 30
0.0
 10
-1.8879
 20
-71.3116
 30
0.0
 10
-1.8879
 20
-71.3116
 30
0.0
 10
-1.8879
 20
-71.3116
 30
0.0
 10
-1.8285
 20
-3.1531
 30
0.0
 10
-1.8285
 20
-3.1531
 30
0.0
  0
SPLINE
  5
52
330
1F
100
AcDbEntity
  8
Camada 1
 62
   250
370
     9
100
AcDbSpline
210
0.0
220
0.0
230
1.0
 70
    11
 71
     3
 72
    92
 73
    88
 74
     0
 42
0.0000000001
 43
0.0000000001
 12
1.0
 22
0.0
 32
0.0
 13
1.0
 23
0.0
 33
0.0
 40
0.0
 40
0.0
 40
0.0
 40
0.0
 40
0.0434782608695652
 40
0.0434782608695652
 40
0.0434782608695652
 40
0.0434782608695652
 40
0.0869565217391304
 40
0.0869565217391304
 40
0.0869565217391304
 40
0.0869565217391304
 40
0.1304347826086956
 40
0.1304347826086956
 40
0.1304347826086956
 40
0.1304347826086956
 40
0.1739130434782609
 40
0.1739130434782609
 40
0.1739130434782609
 40
0.1739130434782609
 40
0.2173913043478261
 40
0.2173913043478261
 40
0.2173913043478261
 40
0.2173913043478261
 40
0.2608695652173913
 40
0.2608695652173913
 40
0.2608695652173913
 40
0.2608695652173913
 40
0.3043478260869565
 40
0.3043478260869565
 40
0.3043478260869565
 40
0.3043478260869565
 40
0.3478260869565217
 40
0.3478260869565217
 40
0.3478260869565217
 40
0.3478260869565217
 40
0.391304347826087
 40
0.391304347826087
 40
0.391304347826087
 40
0.391304347826087
 40
0.4347826086956522
 40
0.4347826086956522
 40
0.4347826086956522
 40
0.4347826086956522
 40
0.4782608695652174
 40
0.4782608695652174
 40
0.4782608695652174
 40
0.4782608695652174
 40
0.5217391304347826
 40
0.5217391304347826
 40
0.5217391304347826
 40
0.5217391304347826
 40
0.5652173913043478
 40
0.5652173913043478
 40
0.5652173913043478
 40
0.5652173913043478
 40
0.6086956521739131
 40
0.6086956521739131
 40
0.6086956521739131
 40
0.6086956521739131
 40
0.6521739130434783
 40
0.6521739130434783
 40
0.6521739130434783
 40
0.6521739130434783
 40
0.6956521739130435
 40
0.6956521739130435
 40
0.6956521739130435
 40
0.6956521739130435
 40
0.7391304347826086
 40
0.7391304347826086
 40
0.7391304347826086
 40
0.7391304347826086
 40
0.782608695652174
 40
0.782608695652174
 40
0.782608695652174
 40
0.782608695652174
 40
0.8260869565217391
 40
0.8260869565217391
 40
0.8260869565217391
 40
0.8260869565217391
 40
0.8695652173913043
 40
0.8695652173913043
 40
0.8695652173913043
 40
0.8695652173913043
 40
0.9130434782608695
 40
0.9130434782608695
 40
0.9130434782608695
 40
0.9130434782608695
 40
1.0
 40
1.0
 40
1.0
 40
1.0
 10
15.3269
 20
-16.6248
 30
0.0
 10
15.3269
 20
-16.6248
 30
0.0
 10
15.3659
 20
-3.9387
 30
0.0
 10
15.3659
 20
-3.9387
 30
0.0
 10
15.3659
 20
-3.9387
 30
0.0
 10
12.9264
 20
-2.989
 30
0.0
 10
10.0599
 20
-0.7942
 30
0.0
 10
9.9331
 20
3.0932
 30
0.0
 10
9.9331
 20
3.0932
 30
0.0
 10
9.9074
 20
7.6156
 30
0.0
 10
12.8668
 20
10.2674
 30
0.0
 10
15.4098
 20
10.0162
 30
0.0
 10
15.4098
 20
10.0162
 30
0.0
 10
15.4098
 20
10.0162
 30
0.0
 10
15.3968
 20
16.8487
 30
0.0
 10
15.3968
 20
16.8487
 30
0.0
 10
15.3968
 20
16.8487
 30
0.0
 10
10.0453
 20
17.9825
 30
0.0
 10
5.5058
 20
15.6606
 30
0.0
 10
2.5583
 20
10.9855
 30
0.0
 10
2.5583
 20
10.9855
 30
0.0
 10
0.9416
 20
8.3122
 30
0.0
 10
1.1441
 20
5.9298
 30
0.0
 10
1.6672
 20
1.7957
 30
0.0
 10
1.6672
 20
1.7957
 30
0.0
 10
1.8567
 20
-0.2258
 30
0.0
 10
2.7812
 20
-1.9951
 30
0.0
 10
4.825
 20
-1.4322
 30
0.0
 10
4.825
 20
-1.4322
 30
0.0
 10
6.6242
 20
-1.0743
 30
0.0
 10
7.2859
 20
1.3408
 30
0.0
 10
5.246
 20
2.3778
 30
0.0
 10
5.246
 20
2.3778
 30
0.0
 10
4.4351
 20
0.7008
 30
0.0
 10
1.4957
 20
1.8667
 30
0.0
 10
2.5996
 20
4.4945
 30
0.0
 10
2.5996
 20
4.4945
 30
0.0
 10
3.3909
 20
6.4157
 30
0.0
 10
5.9083
 20
6.3316
 30
0.0
 10
7.5917
 20
4.2828
 30
0.0
 10
7.5917
 20
4.2828
 30
0.0
 10
9.9759
 20
0.525
 30
0.0
 10
9.5386
 20
-3.0107
 30
0.0
 10
5.9376
 20
-3.6547
 30
0.0
 10
5.9376
 20
-3.6547
 30
0.0
 10
4.0549
 20
-3.6033
 30
0.0
 10
2.6552
 20
-3.6648
 30
0.0
 10
1.2812
 20
-2.8726
 30
0.0
 10
1.2812
 20
-2.8726
 30
0.0
 10
1.2812
 20
-2.8726
 30
0.0
 10
1.1879
 20
-71.2855
 30
0.0
 10
1.1879
 20
-71.2855
 30
0.0
 10
1.1879
 20
-71.2855
 30
0.0
 10
1.1879
 20
-71.2855
 30
0.0
 10
15.3025
 20
-71.3118
 30
0.0
 10
15.3025
 20
-71.3118
 30
0.0
 10
15.3025
 20
-71.3118
 30
0.0
 10
15.3025
 20
-71.3118
 30
0.0
 10
15.3244
 20
-50.5763
 30
0.0
 10
15.3244
 20
-50.5763
 30
0.0
 10
15.3244
 20
-50.5763
 30
0.0
 10
15.3244
 20
-50.5763
 30
0.0
 10
12.6773
 20
-49.3063
 30
0.0
 10
12.6773
 20
-49.3063
 30
0.0
 10
12.6773
 20
-49.3063
 30
0.0
 10
13.5495
 20
-47.4807
 30
0.0
 10
15.3544
 20
-46.2046
 30
0.0
 10
15.3244
 20
-43.6646
 30
0.0
 10
15.3244
 20
-43.6646
 30
0.0
 10
15.1246
 20
-41.9701
 30
0.0
 10
16.6108
 20
-40.5032
 30
0.0
 10
16.9722
 20
-38.9499
 30
0.0
 10
16.9722
 20
-38.9499
 30
0.0
 10
12.9788
 20
-36.0037
 30
0.0
 10
9.7263
 20
-32.3286
 30
0.0
 10
8.4611
 20
-26.6997
 30
0.0
 10
8.4611
 20
-26.6997
 30
0.0
 10
8.1673
 20
-25.4294
 30
0.0
 10
5.8678
 20
-26.2945
 30
0.0
 10
5.8147
 20
-28.0226
 30
0.0
 10
5.8147
 20
-28.0226
 30
0.0
 10
2.6694
 20
-27.1646
 30
0.0
 10
2.0432
 20
-21.6928
 30
0.0
 10
3.529
 20
-18.9473
 30
0.0
 10
3.529
 20
-18.9473
 30
0.0
 10
5.3787
 20
-15.8183
 30
0.0
 10
9.3972
 20
-13.7755
 30
0.0
 10
15.3269
 20
-16.6248
 30
0.0
  0
SPLINE
  5
53
330
1F
100
AcDbEntity
  8
Camada 1
 62
   250
370
     9
100
AcDbSpline
210
0.0
220
0.0
230
1.0
 70
    11
 71
     3
 72
    24
 73
    20
 74
     0
 42
0.0000000001
 43
0.0000000001
 12
1.0
 22
0.0
 32
0.0
 13
1.0
 23
0.0
 33
0.0
 40
0.0
 40
0.0
 40
0.0
 40
0.0
 40
0.1666666666666667
 40
0.1666666666666667
 40
0.1666666666666667
 40
0.1666666666666667
 40
0.3333333333333333
 40
0.3333333333333333
 40
0.3333333333333333
 40
0.3333333333333333
 40
0.5
 40
0.5
 40
0.5
 40
0.5
 40
0.6666666666666666
 40
0.6666666666666666
 40
0.6666666666666666
 40
0.6666666666666666
 40
1.0
 40
1.0
 40
1.0
 40
1.0
 10
18.4231
 20
15.6601
 30
0.0
 10
18.4231
 20
15.6601
 30
0.0
 10
18.4761
 20
9.8657
 30
0.0
 10
18.4761
 20
9.8657
 30
0.0
 10
18.4761
 20
9.8657
 30
0.0
 10
19.3441
 20
8.2946
 30
0.0
 10
19.3327
 20
3.9631
 30
0.0
 10
18.3527
 20
3.1007
 30
0.0
 10
18.3527
 20
3.1007
 30
0.0
 10
18.3527
 20
3.1007
 30
0.0
 10
18.4228
 20
-1.9614
 30
0.0
 10
18.4228
 20
-1.9614
 30
0.0
 10
18.4228
 20
-1.9614
 30
0.0
 10
21.4022
 20
-0.5367
 30
0.0
 10
23.3722
 20
2.4616
 30
0.0
 10
23.0531
 20
7.3256
 30
0.0
 10
23.0531
 20
7.3256
 30
0.0
 10
22.9649
 20
11.1048
 30
0.0
 10
20.7163
 20
14.9764
 30
0.0
 10
18.4231
 20
15.6601
 30
0.0
  0
SPLINE
  5
54
330
1F
100
AcDbEntity
  8
Camada 1
 62
   250
370
     9
100
AcDbSpline
210
0.0
220
0.0
230
1.0
 70
    11
 71
     3
 72
    20
 73
    16
 74
     0
 42
0.0000000001
 43
0.0000000001
 12
1.0
 22
0.0
 32
0.0
 13
1.0
 23
0.0
 33
0.0
 40
0.0
 40
0.0
 40
0.0
 40
0.0
 40
0.2
 40
0.2
 40
0.2
 40
0.2
 40
0.4
 40
0.4
 40
0.4
 40
0.4
 40
0.6
 40
0.6
 40
0.6
 40
0.6
 40
1.0
 40
1.0
 40
1.0
 40
1.0
 10
15.3322
 20
3.6782
 30
0.0
 10
15.3322
 20
3.6782
 30
0.0
 10
15.3799
 20
-1.8288
 30
0.0
 10
15.3799
 20
-1.8288
 30
0.0
 10
15.3799
 20
-1.8288
 30
0.0
 10
13.6931
 20
-0.3145
 30
0.0
 10
13.0938
 20
0.5962
 30
0.0
 10
13.0725
 20
3.8356
 30
0.0
 10
13.0725
 20
3.8356
 30
0.0
 10
13.1946
 20
5.9285
 30
0.0
 10
13.7689
 20
7.8561
 30
0.0
 10
15.3503
 20
8.3319
 30
0.0
 10
15.3503
 20
8.3319
 30
0.0
 10
14.0834
 20
7.419
 30
0.0
 10
14.307
 20
4.1052
 30
0.0
 10
15.3322
 20
3.6782
 30
0.0
  0
SPLINE
  5
55
330
1F
100
AcDbEntity
  8
Camada 1
 62
   250
370
     9
100
AcDbSpline
210
0.0
220
0.0
230
1.0
 70
    11
 71
     3
 72
    24
 73
    20
 74
     0
 42
0.0000000001
 43
0.0000000001
 12
1.0
 22
0.0
 32
0.0
 13
1.0
 23
0.0
 33
0.0
 40
0.0
 40
0.0
 40
0.0
 40
0.0
 40
0.1666666666666667
 40
0.1666666666666667
 40
0.1666666666666667
 40
0.1666666666666667
 40
0.3333333333333333
 40
0.3333333333333333
 40
0.3333333333333333
 40
0.3333333333333333
 40
0.5
 40
0.5
 40
0.5
 40
0.5
 40
0.6666666666666666
 40
0.6666666666666666
 40
0.6666666666666666
 40
0.6666666666666666
 40
1.0
 40
1.0
 40
1.0
 40
1.0
 10
18.3812
 20
-4.5294
 30
0.0
 10
23.9202
 20
-2.8151
 30
0.0
 10
26.6811
 20
1.1571
 30
0.0
 10
25.9761
 20
9.5741
 30
0.0
 10
25.9761
 20
9.5741
 30
0.0
 10
25.9761
 20
9.5741
 30
0.0
 10
31.8265
 20
1.3086
 30
0.0
 10
31.8265
 20
1.3086
 30
0.0
 10
31.8265
 20
1.3086
 30
0.0
 10
31.8265
 20
1.3086
 30
0.0
 10
31.8266
 20
-35.8605
 30
0.0
 10
31.8266
 20
-35.8605
 30
0.0
 10
31.8266
 20
-35.8605
 30
0.0
 10
25.3038
 20
-29.1729
 30
0.0
 10
24.0462
 20
-23.5646
 30
0.0
 10
18.3549
 20
-18.1149
 30
0.0
 10
18.3549
 20
-18.1149
 30
0.0
 10
18.3549
 20
-18.1149
 30
0.0
 10
18.3812
 20
-4.5294
 30
0.0
 10
18.3812
 20
-4.5294
 30
0.0
  0
SPLINE
  5
56
330
1F
100
AcDbEntity
  8
Camada 1
 62
   250
370
     9
100
AcDbSpline
210
0.0
220
0.0
230
1.0
 70
    11
 71
     3
 72
    44
 73
    40
 74
     0
 42
0.0000000001
 43
0.0000000001
 12
1.0
 22
0.0
 32
0.0
 13
1.0
 23
0.0
 33
0.0
 40
0.0
 40
0.0
 40
0.0
 40
0.0
 40
0.0909090909090909
 40
0.0909090909090909
 40
0.0909090909090909
 40
0.0909090909090909
 40
0.1818181818181818
 40
0.1818181818181818
 40
0.1818181818181818
 40
0.1818181818181818
 40
0.2727272727272727
 40
0.2727272727272727
 40
0.2727272727272727
 40
0.2727272727272727
 40
0.3636363636363636
 40
0.3636363636363636
 40
0.3636363636363636
 40
0.3636363636363636
 40
0.4545454545454545
 40
0.4545454545454545
 40
0.4545454545454545
 40
0.4545454545454545
 40
0.5454545454545454
 40
0.5454545454545454
 40
0.5454545454545454
 40
0.5454545454545454
 40
0.6363636363636364
 40
0.6363636363636364
 40
0.6363636363636364
 40
0.6363636363636364
 40
0.7272727272727273
 40
0.7272727272727273
 40
0.7272727272727273
 40
0.7272727272727273
 40
0.8181818181818182
 40
0.8181818181818182
 40
0.8181818181818182
 40
0.8181818181818182
 40
1.0
 40
1.0
 40
1.0
 40
1.0
 10
34.9528
 20
-53.304
 30
0.0
 10
34.9528
 20
-53.304
 30
0.0
 10
41.4189
 20
-61.8895
 30
0.0
 10
41.4189
 20
-61.8895
 30
0.0
 10
41.4189
 20
-61.8895
 30
0.0
 10
41.4189
 20
-61.8895
 30
0.0
 10
34.9524
 20
-46.9257
 30
0.0
 10
34.9524
 20
-46.9257
 30
0.0
 10
34.9524
 20
-46.9257
 30
0.0
 10
34.9524
 20
-46.9257
 30
0.0
 10
34.9449
 20
-45.2291
 30
0.0
 10
34.9449
 20
-45.2291
 30
0.0
 10
34.9449
 20
-45.2291
 30
0.0
 10
34.9449
 20
-45.2291
 30
0.0
 10
37.825
 20
-46.552
 30
0.0
 10
37.825
 20
-46.552
 30
0.0
 10
37.825
 20
-46.552
 30
0.0
 10
37.825
 20
-46.552
 30
0.0
 10
34.9526
 20
-41.3396
 30
0.0
 10
34.9526
 20
-41.3396
 30
0.0
 10
34.9526
 20
-41.3396
 30
0.0
 10
34.9526
 20
-41.3396
 30
0.0
 10
34.9709
 20
-2.7718
 30
0.0
 10
34.9709
 20
-2.7718
 30
0.0
 10
34.9709
 20
-2.7718
 30
0.0
 10
38.6034
 20
-5.8877
 30
0.0
 10
45.8408
 20
-3.7149
 30
0.0
 10
49.5316
 20
-1.4045
 30
0.0
 10
49.5316
 20
-1.4045
 30
0.0
 10
49.5316
 20
-1.4045
 30
0.0
 10
47.5075
 20
-71.2872
 30
0.0
 10
47.5075
 20
-71.2872
 30
0.0
 10
47.5075
 20
-71.2872
 30
0.0
 10
47.5075
 20
-71.2872
 30
0.0
 10
34.9893
 20
-71.322
 30
0.0
 10
34.9893
 20
-71.322
 30
0.0
 10
34.9893
 20
-71.322
 30
0.0
 10
34.9893
 20
-71.322
 30
0.0
 10
34.9528
 20
-53.304
 30
0.0
 10
34.9528
 20
-53.304
 30
0.0
  0
SPLINE
  5
57
330
1F
100
AcDbEntity
  8
Camada 1
 62
   250
370
     9
100
AcDbSpline
210
0.0
220
0.0
230
1.0
 70
    11
 71
     3
 72
    32
 73
    28
 74
     0
 42
0.0000000001
 43
0.0000000001
 12
1.0
 22
0.0
 32
0.0
 13
1.0
 23
0.0
 33
0.0
 40
0.0
 40
0.0
 40
0.0
 40
0.0
 40
0.125
 40
0.125
 40
0.125
 40
0.125
 40
0.25
 40
0.25
 40
0.25
 40
0.25
 40
0.375
 40
0.375
 40
0.375
 40
0.375
 40
0.5
 40
0.5
 40
0.5
 40
0.5
 40
0.625
 40
0.625
 40
0.625
 40
0.625
 40
0.75
 40
0.75
 40
0.75
 40
0.75
 40
1.0
 40
1.0
 40
1.0
 40
1.0
 10
18.6194
 20
-42.104
 30
0.0
 10
18.3945
 20
-43.6342
 30
0.0
 10
18.0503
 20
-45.2965
 30
0.0
 10
18.5927
 20
-46.4166
 30
0.0
 10
18.5927
 20
-46.4166
 30
0.0
 10
19.6884
 20
-47.108
 30
0.0
 10
19.6135
 20
-48.3444
 30
0.0
 10
18.3808
 20
-48.381
 30
0.0
 10
18.3808
 20
-48.381
 30
0.0
 10
18.3808
 20
-48.381
 30
0.0
 10
18.355
 20
-71.3535
 30
0.0
 10
18.355
 20
-71.3535
 30
0.0
 10
18.355
 20
-71.3535
 30
0.0
 10
18.355
 20
-71.3535
 30
0.0
 10
31.8992
 20
-71.3141
 30
0.0
 10
31.8992
 20
-71.3141
 30
0.0
 10
31.8992
 20
-71.3141
 30
0.0
 10
31.8992
 20
-71.3141
 30
0.0
 10
31.8321
 20
-47.2058
 30
0.0
 10
31.8321
 20
-47.2058
 30
0.0
 10
31.8321
 20
-47.2058
 30
0.0
 10
30.4031
 20
-45.3844
 30
0.0
 10
26.225
 20
-43.4819
 30
0.0
 10
20.1143
 20
-41.3102
 30
0.0
 10
20.1143
 20
-41.3102
 30
0.0
 10
19.4577
 20
-41.0597
 30
0.0
 10
18.7646
 20
-41.3512
 30
0.0
 10
18.6194
 20
-42.104
 30
0.0
  0
SPLINE
  5
58
330
1F
100
AcDbEntity
  8
Camada 1
 62
   250
370
     9
100
AcDbSpline
210
0.0
220
0.0
230
1.0
 70
    11
 71
     3
 72
    16
 73
    12
 74
     0
 42
0.0000000001
 43
0.0000000001
 12
1.0
 22
0.0
 32
0.0
 13
1.0
 23
0.0
 33
0.0
 40
0.0
 40
0.0
 40
0.0
 40
0.0
 40
0.25
 40
0.25
 40
0.25
 40
0.25
 40
0.5
 40
0.5
 40
0.5
 40
0.5
 40
1.0
 40
1.0
 40
1.0
 40
1.0
 10
16.5193
 20
-46.9035
 30
0.0
 10
16.5193
 20
-46.9035
 30
0.0
 10
15.318
 20
-48.8524
 30
0.0
 10
15.318
 20
-48.8524
 30
0.0
 10
15.318
 20
-48.8524
 30
0.0
 10
15.318
 20
-48.8524
 30
0.0
 10
16.4698
 20
-49.2335
 30
0.0
 10
16.4698
 20
-49.2335
 30
0.0
 10
16.4698
 20
-49.2335
 30
0.0
 10
16.4698
 20
-49.2335
 30
0.0
 10
16.5193
 20
-46.9035
 30
0.0
 10
16.5193
 20
-46.9035
 30
0.0
  0
SPLINE
  5
59
330
1F
100
AcDbEntity
  8
Camada 1
 62
   250
370
     9
100
AcDbSpline
210
0.0
220
0.0
230
1.0
 70
    11
 71
     3
 72
    20
 73
    16
 74
     0
 42
0.0000000001
 43
0.0000000001
 12
1.0
 22
0.0
 32
0.0
 13
1.0
 23
0.0
 33
0.0
 40
0.0
 40
0.0
 40
0.0
 40
0.0
 40
0.2
 40
0.2
 40
0.2
 40
0.2
 40
0.4
 40
0.4
 40
0.4
 40
0.4
 40
0.6
 40
0.6
 40
0.6
 40
0.6
 40
1.0
 40
1.0
 40
1.0
 40
1.0
 10
9.005
 20
-18.5809
 30
0.0
 10
8.4527
 20
-18.5809
 30
0.0
 10
8.005
 20
-19.0286
 30
0.0
 10
8.005
 20
-19.5808
 30
0.0
 10
8.005
 20
-19.5808
 30
0.0
 10
8.005
 20
-20.1331
 30
0.0
 10
8.4527
 20
-20.5808
 30
0.0
 10
9.005
 20
-20.5808
 30
0.0
 10
9.005
 20
-20.5808
 30
0.0
 10
9.5573
 20
-20.5809
 30
0.0
 10
10.005
 20
-20.1331
 30
0.0
 10
10.005
 20
-19.5809
 30
0.0
 10
10.005
 20
-19.5809
 30
0.0
 10
10.005
 20
-19.0286
 30
0.0
 10
9.5573
 20
-18.5809
 30
0.0
 10
9.005
 20
-18.5809
 30
0.0
  0
SPLINE
  5
5A
330
1F
100
AcDbEntity
  8
Camada 1
 62
   250
370
     9
100
AcDbSpline
210
0.0
220
0.0
230
1.0
 70
    11
 71
     3
 72
    28
 73
    24
 74
     0
 42
0.0000000001
 43
0.0000000001
 12
1.0
 22
0.0
 32
0.0
 13
1.0
 23
0.0
 33
0.0
 40
0.0
 40
0.0
 40
0.0
 40
0.0
 40
0.1428571428571428
 40
0.1428571428571428
 40
0.1428571428571428
 40
0.1428571428571428
 40
0.2857142857142857
 40
0.2857142857142857
 40
0.2857142857142857
 40
0.2857142857142857
 40
0.4285714285714285
 40
0.4285714285714285
 40
0.4285714285714285
 40
0.4285714285714285
 40
0.5714285714285714
 40
0.5714285714285714
 40
0.5714285714285714
 40
0.5714285714285714
 40
0.7142857142857143
 40
0.7142857142857143
 40
0.7142857142857143
 40
0.7142857142857143
 40
1.0
 40
1.0
 40
1.0
 40
1.0
 10
-37.6678
 20
-83.9805
 30
0.0
 10
-37.6678
 20
-83.9805
 30
0.0
 10
-24.3591
 20
-83.9276
 30
0.0
 10
-24.3591
 20
-83.9276
 30
0.0
 10
-24.3591
 20
-83.9276
 30
0.0
 10
-28.9622
 20
-91.5697
 30
0.0
 10
-35.0489
 20
-97.0395
 30
0.0
 10
-39.8374
 20
-96.3102
 30
0.0
 10
-39.8374
 20
-96.3102
 30
0.0
 10
-42.4011
 20
-95.8497
 30
0.0
 10
-46.1422
 20
-91.971
 30
0.0
 10
-44.1501
 20
-87.8433
 30
0.0
 10
-44.1501
 20
-87.8433
 30
0.0
 10
-43.5124
 20
-86.5641
 30
0.0
 10
-41.9962
 20
-86.2253
 30
0.0
 10
-40.8957
 20
-87.2084
 30
0.0
 10
-40.8957
 20
-87.2084
 30
0.0
 10
-42.7247
 20
-89.8577
 30
0.0
 10
-40.9286
 20
-92.2411
 30
0.0
 10
-38.2234
 20
-91.9445
 30
0.0
 10
-38.2234
 20
-91.9445
 30
0.0
 10
-35.6102
 20
-91.5815
 30
0.0
 10
-34.5027
 20
-88.0666
 30
0.0
 10
-37.6678
 20
-83.9805
 30
0.0
  0
SPLINE
  5
5B
330
1F
100
AcDbEntity
  8
Camada 1
 62
   250
370
     9
100
AcDbSpline
210
0.0
220
0.0
230
1.0
 70
    11
 71
     3
 72
    28
 73
    24
 74
     0
 42
0.0000000001
 43
0.0000000001
 12
1.0
 22
0.0
 32
0.0
 13
1.0
 23
0.0
 33
0.0
 40
0.0
 40
0.0
 40
0.0
 40
0.0
 40
0.1428571428571428
 40
0.1428571428571428
 40
0.1428571428571428
 40
0.1428571428571428
 40
0.2857142857142857
 40
0.2857142857142857
 40
0.2857142857142857
 40
0.2857142857142857
 40
0.4285714285714285
 40
0.4285714285714285
 40
0.4285714285714285
 40
0.4285714285714285
 40
0.5714285714285714
 40
0.5714285714285714
 40
0.5714285714285714
 40
0.5714285714285714
 40
0.7142857142857143
 40
0.7142857142857143
 40
0.7142857142857143
 40
0.7142857142857143
 40
1.0
 40
1.0
 40
1.0
 40
1.0
 10
40.6853
 20
-83.9805
 30
0.0
 10
40.6853
 20
-83.9805
 30
0.0
 10
27.3766
 20
-83.9276
 30
0.0
 10
27.3766
 20
-83.9276
 30
0.0
 10
27.3766
 20
-83.9276
 30
0.0
 10
31.9797
 20
-91.5697
 30
0.0
 10
38.0664
 20
-97.0395
 30
0.0
 10
42.8549
 20
-96.3102
 30
0.0
 10
42.8549
 20
-96.3102
 30
0.0
 10
45.4186
 20
-95.8497
 30
0.0
 10
49.1597
 20
-91.971
 30
0.0
 10
47.1676
 20
-87.8433
 30
0.0
 10
47.1676
 20
-87.8433
 30
0.0
 10
46.5299
 20
-86.5641
 30
0.0
 10
45.0137
 20
-86.2253
 30
0.0
 10
43.9132
 20
-87.2084
 30
0.0
 10
43.9132
 20
-87.2084
 30
0.0
 10
45.7422
 20
-89.8577
 30
0.0
 10
43.9461
 20
-92.2411
 30
0.0
 10
41.2409
 20
-91.9445
 30
0.0
 10
41.2409
 20
-91.9445
 30
0.0
 10
38.6277
 20
-91.5815
 30
0.0
 10
37.5202
 20
-88.0666
 30
0.0
 10
40.6853
 20
-83.9805
 30
0.0
  0
ENDSEC
  0
SECTION
  2
OBJECTS
  0
DICTIONARY
  5
C
330
0
100
AcDbDictionary
281
     1
  3
ACAD_GROUP
350
D
  3
ACAD_LAYOUT
350
1A
  3
ACAD_MATERIAL
350
3B
  3
ACAD_MLEADERSTYLE
350
5E
  3
ACAD_MLINESTYLE
350
17
  3
ACAD_PLOTSETTINGS
350
19
  3
ACAD_PLOTSTYLENAME
350
E
  3
ACAD_VISUALSTYLE
350
2A
  3
AcDbVariableDictionary
350
5C
  0
DICTIONARY
  5
D
102
{ACAD_REACTORS
330
C
102
}
330
C
100
AcDbDictionary
281
     1
  0
DICTIONARY
  5
1A
102
{ACAD_REACTORS
330
C
102
}
330
C
100
AcDbDictionary
281
     1
  3
Layout1
350
1E
  3
Layout2
350
26
  3
Model
350
22
  0
DICTIONARY
  5
3B
102
{ACAD_REACTORS
330
C
102
}
330
C
100
AcDbDictionary
281
     1
  3
ByBlock
350
3D
  3
ByLayer
350
3C
  3
Global
350
3E
  0
DICTIONARY
  5
5E
102
{ACAD_REACTORS
330
C
102
}
330
C
100
AcDbDictionary
281
     1
  0
DICTIONARY
  5
17
102
{ACAD_REACTORS
330
C
102
}
330
C
100
AcDbDictionary
281
     1
  3
Standard
350
18
  0
DICTIONARY
  5
19
102
{ACAD_REACTORS
330
C
102
}
330
C
100
AcDbDictionary
281
     1
  0
ACDBDICTIONARYWDFLT
  5
E
102
{ACAD_REACTORS
330
C
102
}
330
C
100
AcDbDictionary
281
     1
  3
Normal
350
F
100
AcDbDictionaryWithDefault
340
F
  0
DICTIONARY
  5
2A
102
{ACAD_REACTORS
330
C
102
}
330
C
100
AcDbDictionary
281
     1
  3
2dWireframe
350
2F
  3
3D Hidden
350
31
  3
3dWireframe
350
30
  3
Basic
350
32
  3
Brighten
350
36
  3
ColorChange
350
3A
  3
Conceptual
350
34
  3
Dim
350
35
  3
Facepattern
350
39
  3
Flat
350
2B
  3
FlatWithEdges
350
2C
  3
Gouraud
350
2D
  3
GouraudWithEdges
350
2E
  3
Linepattern
350
38
  3
Realistic
350
33
  3
Thicken
350
37
  0
DICTIONARY
  5
5C
102
{ACAD_REACTORS
330
C
102
}
330
C
100
AcDbDictionary
281
     1
  3
DIMASSOC
350
5F
  3
HIDETEXT
350
60
  0
LAYOUT
  5
1E
102
{ACAD_REACTORS
330
1A
102
}
330
1A
100
AcDbPlotSettings
  1

  2
none_device
  4

  6

 40
0.0
 41
0.0
 42
0.0
 43
0.0
 44
0.0
 45
0.0
 46
0.0
 47
0.0
 48
0.0
 49
0.0
140
0.0
141
0.0
142
1.0
143
1.0
 70
   688
 72
     0
 73
     0
 74
     5
  7

 75
    16
147
1.0
148
0.0
149
0.0
100
AcDbLayout
  1
Layout1
 70
     1
 71
     1
 10
0.0
 20
0.0
 11
12.0
 21
9.0
 12
0.0
 22
0.0
 32
0.0
 14
1.000000000000000E+20
 24
1.000000000000000E+20
 34
1.000000000000000E+20
 15
-1.000000000000000E+20
 25
-1.000000000000000E+20
 35
-1.000000000000000E+20
146
0.0
 13
0.0
 23
0.0
 33
0.0
 16
1.0
 26
0.0
 36
0.0
 17
0.0
 27
1.0
 37
0.0
 76
     0
330
1B
  0
LAYOUT
  5
26
102
{ACAD_REACTORS
330
1A
102
}
330
1A
100
AcDbPlotSettings
  1

  2
none_device
  4

  6

 40
0.0
 41
0.0
 42
0.0
 43
0.0
 44
0.0
 45
0.0
 46
0.0
 47
0.0
 48
0.0
 49
0.0
140
0.0
141
0.0
142
1.0
143
1.0
 70
   688
 72
     0
 73
     0
 74
     5
  7

 75
    16
147
1.0
148
0.0
149
0.0
100
AcDbLayout
  1
Layout2
 70
     1
 71
     2
 10
0.0
 20
0.0
 11
0.0
 21
0.0
 12
0.0
 22
0.0
 32
0.0
 14
0.0
 24
0.0
 34
0.0
 15
0.0
 25
0.0
 35
0.0
146
0.0
 13
0.0
 23
0.0
 33
0.0
 16
1.0
 26
0.0
 36
0.0
 17
0.0
 27
1.0
 37
0.0
 76
     0
330
23
  0
LAYOUT
  5
22
102
{ACAD_REACTORS
330
1A
102
}
330
1A
100
AcDbPlotSettings
  1

  2
none_device
  4

  6

 40
0.0
 41
0.0
 42
0.0
 43
0.0
 44
0.0
 45
0.0
 46
0.0
 47
0.0
 48
0.0
 49
0.0
140
0.0
141
0.0
142
1.0
143
1.0
 70
  1712
 72
     0
 73
     0
 74
     0
  7

 75
     0
147
1.0
148
0.0
149
0.0
100
AcDbLayout
  1
Model
 70
     1
 71
     0
 10
0.0
 20
0.0
 11
12.0
 21
9.0
 12
0.0
 22
0.0
 32
0.0
 14
-53.8037
 24
-101.5505
 34
0.0
 15
53.8037
 25
101.5483
 35
0.0
146
0.0
 13
0.0
 23
0.0
 33
0.0
 16
1.0
 26
0.0
 36
0.0
 17
0.0
 27
1.0
 37
0.0
 76
     0
330
1F
331
29
  0
MATERIAL
  5
3D
102
{ACAD_REACTORS
330
3B
102
}
102
{ACAD_XDICTIONARY
360
83
102
}
330
3B
100
AcDbMaterial
  1
ByBlock
  0
MATERIAL
  5
3C
102
{ACAD_REACTORS
330
3B
102
}
102
{ACAD_XDICTIONARY
360
81
102
}
330
3B
100
AcDbMaterial
  1
ByLayer
  0
MATERIAL
  5
3E
102
{ACAD_REACTORS
330
3B
102
}
102
{ACAD_XDICTIONARY
360
85
102
}
330
3B
100
AcDbMaterial
  1
Global
  0
MLINESTYLE
  5
18
102
{ACAD_REACTORS
330
17
102
}
330
17
100
AcDbMlineStyle
  2
Standard
 70
     0
  3

 62
   256
 51
90.0
 52
90.0
 71
     2
 49
0.5
 62
   256
  6
BYLAYER
 49
-0.5
 62
   256
  6
BYLAYER
  0
ACDBPLACEHOLDER
  5
F
102
{ACAD_REACTORS
330
E
102
}
330
E
  0
VISUALSTYLE
  5
2F
102
{ACAD_REACTORS
330
2A
102
}
102
{ACAD_XDICTIONARY
360
69
102
}
330
2A
100
AcDbVisualStyle
  2
2dWireframe
 70
     4
 71
     0
 72
     2
 73
     0
 90
        0
 40
-0.6
 41
-30.0
 62
     5
 63
     7
 74
     1
 91
        4
 64
     7
 65
   257
 75
     1
175
     1
 42
1.0
 92
        0
 66
   257
 43
1.0
 76
     1
 77
     6
 78
     2
 67
     7
 79
     5
170
     0
171
     0
290
     0
174
     0
 93
        1
 44
0.0
173
     0
291
     0
 45
0.0
1001
ACAD
1000
AcDbSavedByObjectVersion
1070
     0
  0
VISUALSTYLE
  5
31
102
{ACAD_REACTORS
330
2A
102
}
102
{ACAD_XDICTIONARY
360
6D
102
}
330
2A
100
AcDbVisualStyle
  2
3D Hidden
 70
     6
 71
     1
 72
     2
 73
     2
 90
        0
 40
-0.6
 41
-30.0
 62
     5
 63
     7
 74
     2
 91
        2
 64
     7
 65
   257
 75
     2
175
     1
 42
40.0
 92
        0
 66
   257
 43
1.0
 76
     1
 77
     6
 78
     2
 67
     7
 79
     3
170
     0
171
     0
290
     0
174
     0
 93
        1
 44
0.0
173
     0
291
     0
 45
0.0
1001
ACAD
1000
AcDbSavedByObjectVersion
1070
     0
  0
VISUALSTYLE
  5
30
102
{ACAD_REACTORS
330
2A
102
}
102
{ACAD_XDICTIONARY
360
6B
102
}
330
2A
100
AcDbVisualStyle
  2
3dWireframe
 70
     5
 71
     0
 72
     2
 73
     0
 90
        0
 40
-0.6
 41
-30.0
 62
     5
 63
     7
 74
     1
 91
        4
 64
     7
 65
   257
 75
     1
175
     1
 42
1.0
 92
        0
 66
   257
 43
1.0
 76
     1
 77
     6
 78
     2
 67
     7
 79
     5
170
     0
171
     0
290
     0
174
     0
 93
        1
 44
0.0
173
     0
291
     0
 45
0.0
1001
ACAD
1000
AcDbSavedByObjectVersion
1070
     0
  0
VISUALSTYLE
  5
32
102
{ACAD_REACTORS
330
2A
102
}
102
{ACAD_XDICTIONARY
360
6F
102
}
330
2A
100
AcDbVisualStyle
  2
Basic
 70
     7
 71
     1
 72
     0
 73
     1
 90
        0
 40
-0.6
 41
-30.0
 62
     5
 63
     7
 74
     0
 91
        4
 64
     7
 65
   257
 75
     1
175
     1
 42
1.0
 92
        8
 66
     7
 43
1.0
 76
     1
 77
     6
 78
     2
 67
     7
 79
     5
170
     0
171
     0
290
     0
174
     0
 93
        1
 44
0.0
173
     0
291
     1
 45
0.0
1001
ACAD
1000
AcDbSavedByObjectVersion
1070
     0
  0
VISUALSTYLE
  5
36
102
{ACAD_REACTORS
330
2A
102
}
102
{ACAD_XDICTIONARY
360
77
102
}
330
2A
100
AcDbVisualStyle
  2
Brighten
 70
    12
 71
     2
 72
     2
 73
     0
 90
        0
 40
-0.6
 41
-30.0
 62
     5
 63
     7
 74
     1
 91
        4
 64
     7
 65
   257
 75
     1
175
     1
 42
1.0
 92
        8
 66
     7
 43
1.0
 76
     1
 77
     6
 78
     2
 67
     7
 79
     5
170
     0
171
     0
290
     0
174
     0
 93
        1
 44
50.0
173
     0
291
     1
 45
0.0
1001
ACAD
1000
AcDbSavedByObjectVersion
1070
     0
  0
VISUALSTYLE
  5
3A
102
{ACAD_REACTORS
330
2A
102
}
102
{ACAD_XDICTIONARY
360
7F
102
}
330
2A
100
AcDbVisualStyle
  2
ColorChange
 70
    16
 71
     2
 72
     2
 73
     3
 90
        0
 40
-0.6
 41
-30.0
 62
     5
 63
     8
 74
     1
 91
        4
 64
     7
 65
   257
 75
     1
175
     1
 42
1.0
 92
        8
 66
     8
 43
1.0
 76
     1
 77
     6
 78
     2
 67
     7
 79
     5
170
     0
171
     0
290
     0
174
     0
 93
        1
 44
0.0
173
     0
291
     1
 45
0.0
1001
ACAD
1000
AcDbSavedByObjectVersion
1070
     0
  0
VISUALSTYLE
  5
34
102
{ACAD_REACTORS
330
2A
102
}
102
{ACAD_XDICTIONARY
360
73
102
}
330
2A
100
AcDbVisualStyle
  2
Conceptual
 70
     9
 71
     3
 72
     2
 73
     0
 90
        0
 40
-0.6
 41
-30.0
 62
     5
 63
     7
 74
     2
 91
        2
 64
     7
 65
   257
 75
     1
175
     1
 42
40.0
 92
        8
 66
     7
 43
1.0
 76
     1
 77
     6
 78
     2
 67
     7
 79
     3
170
     0
171
     0
290
     0
174
     0
 93
        1
 44
0.0
173
     0
291
     0
 45
0.0
1001
ACAD
1000
AcDbSavedByObjectVersion
1070
     0
  0
VISUALSTYLE
  5
35
102
{ACAD_REACTORS
330
2A
102
}
102
{ACAD_XDICTIONARY
360
75
102
}
330
2A
100
AcDbVisualStyle
  2
Dim
 70
    11
 71
     2
 72
     2
 73
     0
 90
        0
 40
-0.6
 41
-30.0
 62
     5
 63
     7
 74
     1
 91
        4
 64
     7
 65
   257
 75
     1
175
     1
 42
1.0
 92
        8
 66
     7
 43
1.0
 76
     1
 77
     6
 78
     2
 67
     7
 79
     5
170
     0
171
     0
290
     0
174
     0
 93
        1
 44
-50.0
173
     0
291
     1
 45
0.0
1001
ACAD
1000
AcDbSavedByObjectVersion
1070
     0
  0
VISUALSTYLE
  5
39
102
{ACAD_REACTORS
330
2A
102
}
102
{ACAD_XDICTIONARY
360
7D
102
}
330
2A
100
AcDbVisualStyle
  2
Facepattern
 70
    15
 71
     2
 72
     2
 73
     0
 90
        0
 40
-0.6
 41
-30.0
 62
     5
 63
     7
 74
     1
 91
        4
 64
     7
 65
   257
 75
     1
175
     1
 42
1.0
 92
        8
 66
     7
 43
1.0
 76
     1
 77
     6
 78
     2
 67
     7
 79
     5
170
     0
171
     0
290
     0
174
     0
 93
        1
 44
0.0
173
     0
291
     1
 45
0.0
1001
ACAD
1000
AcDbSavedByObjectVersion
1070
     0
  0
VISUALSTYLE
  5
2B
102
{ACAD_REACTORS
330
2A
102
}
102
{ACAD_XDICTIONARY
360
61
102
}
330
2A
100
AcDbVisualStyle
  2
Flat
 70
     0
 71
     2
 72
     1
 73
     1
 90
        2
 40
-0.6
 41
30.0
 62
     5
 63
     7
 74
     0
 91
        4
 64
     7
 65
   257
 75
     1
175
     1
 42
1.0
 92
        8
 66
     7
 43
1.0
 76
     1
 77
     6
 78
     2
 67
     7
 79
     5
170
     0
171
     0
290
     0
174
     0
 93
       13
 44
0.0
173
     0
291
     1
 45
0.0
1001
ACAD
1000
AcDbSavedByObjectVersion
1070
     0
  0
VISUALSTYLE
  5
2C
102
{ACAD_REACTORS
330
2A
102
}
102
{ACAD_XDICTIONARY
360
63
102
}
330
2A
100
AcDbVisualStyle
  2
FlatWithEdges
 70
     1
 71
     2
 72
     1
 73
     1
 90
        2
 40
-0.6
 41
30.0
 62
     5
 63
     7
 74
     1
 91
        4
 64
     7
 65
   257
 75
     1
175
     1
 42
1.0
 92
        0
 66
   257
 43
1.0
 76
     1
 77
     6
 78
     2
 67
     7
 79
     5
170
     0
171
     0
290
     0
174
     0
 93
       13
 44
0.0
173
     0
291
     1
 45
0.0
1001
ACAD
1000
AcDbSavedByObjectVersion
1070
     0
  0
VISUALSTYLE
  5
2D
102
{ACAD_REACTORS
330
2A
102
}
102
{ACAD_XDICTIONARY
360
65
102
}
330
2A
100
AcDbVisualStyle
  2
Gouraud
 70
     2
 71
     2
 72
     2
 73
     1
 90
        2
 40
-0.6
 41
30.0
 62
     5
 63
     7
 74
     0
 91
        4
 64
     7
 65
   257
 75
     1
175
     1
 42
1.0
 92
        0
 66
     7
 43
1.0
 76
     1
 77
     6
 78
     2
 67
     7
 79
     5
170
     0
171
     0
290
     0
174
     0
 93
       13
 44
0.0
173
     0
291
     1
 45
0.0
1001
ACAD
1000
AcDbSavedByObjectVersion
1070
     0
  0
VISUALSTYLE
  5
2E
102
{ACAD_REACTORS
330
2A
102
}
102
{ACAD_XDICTIONARY
360
67
102
}
330
2A
100
AcDbVisualStyle
  2
GouraudWithEdges
 70
     3
 71
     2
 72
     2
 73
     1
 90
        2
 40
-0.6
 41
30.0
 62
     5
 63
     7
 74
     1
 91
        4
 64
     7
 65
   257
 75
     1
175
     1
 42
1.0
 92
        0
 66
   257
 43
1.0
 76
     1
 77
     6
 78
     2
 67
     7
 79
     5
170
     0
171
     0
290
     0
174
     0
 93
       13
 44
0.0
173
     0
291
     1
 45
0.0
1001
ACAD
1000
AcDbSavedByObjectVersion
1070
     0
  0
VISUALSTYLE
  5
38
102
{ACAD_REACTORS
330
2A
102
}
102
{ACAD_XDICTIONARY
360
7B
102
}
330
2A
100
AcDbVisualStyle
  2
Linepattern
 70
    14
 71
     2
 72
     2
 73
     0
 90
        0
 40
-0.6
 41
-30.0
 62
     5
 63
     7
 74
     1
 91
        4
 64
     7
 65
   257
 75
     7
175
     7
 42
1.0
 92
        8
 66
     7
 43
1.0
 76
     1
 77
     6
 78
     2
 67
     7
 79
     5
170
     0
171
     0
290
     0
174
     0
 93
        1
 44
0.0
173
     0
291
     1
 45
0.0
1001
ACAD
1000
AcDbSavedByObjectVersion
1070
     0
  0
VISUALSTYLE
  5
33
102
{ACAD_REACTORS
330
2A
102
}
102
{ACAD_XDICTIONARY
360
71
102
}
330
2A
100
AcDbVisualStyle
  2
Realistic
 70
     8
 71
     2
 72
     2
 73
     0
 90
        0
 40
-0.6
 41
-30.0
 62
     5
 63
     7
 74
     1
 91
        0
 64
     7
 65
   257
 75
     1
175
     1
 42
1.0
 92
        8
 66
     8
 43
1.0
 76
     1
 77
     6
 78
     2
 67
     7
 79
     5
170
     0
171
     0
290
     0
174
     0
 93
       13
 44
0.0
173
     0
291
     0
 45
0.0
1001
ACAD
1000
AcDbSavedByObjectVersion
1070
     0
  0
VISUALSTYLE
  5
37
102
{ACAD_REACTORS
330
2A
102
}
102
{ACAD_XDICTIONARY
360
79
102
}
330
2A
100
AcDbVisualStyle
  2
Thicken
 70
    13
 71
     2
 72
     2
 73
     0
 90
        0
 40
-0.6
 41
-30.0
 62
     5
 63
     7
 74
     1
 91
        4
 64
     7
 65
   257
 75
     1
175
     1
 42
1.0
 92
       12
 66
     7
 43
1.0
 76
     1
 77
     6
 78
     2
 67
     7
 79
     5
170
     0
171
     0
290
     0
174
     0
 93
        1
 44
0.0
173
     0
291
     1
 45
0.0
1001
ACAD
1000
AcDbSavedByObjectVersion
1070
     0
  0
DICTIONARYVAR
  5
5F
102
{ACAD_REACTORS
330
5C
102
}
330
5C
100
DictionaryVariables
280
     0
  1
2
  0
DICTIONARYVAR
  5
60
102
{ACAD_REACTORS
330
5C
102
}
330
5C
100
DictionaryVariables
280
     0
  1
1
  0
DICTIONARY
  5
83
330
3D
100
AcDbDictionary
280
     1
281
     1
  3
ACAD_XREC_ROUNDTRIP
360
84
  0
DICTIONARY
  5
81
330
3C
100
AcDbDictionary
280
     1
281
     1
  3
ACAD_XREC_ROUNDTRIP
360
82
  0
DICTIONARY
  5
85
330
3E
100
AcDbDictionary
280
     1
281
     1
  3
ACAD_XREC_ROUNDTRIP
360
86
  0
DICTIONARY
  5
69
330
2F
100
AcDbDictionary
280
     1
281
     1
  3
ACAD_XREC_ROUNDTRIP
360
6A
  0
DICTIONARY
  5
6D
330
31
100
AcDbDictionary
280
     1
281
     1
  3
ACAD_XREC_ROUNDTRIP
360
6E
  0
DICTIONARY
  5
6B
330
30
100
AcDbDictionary
280
     1
281
     1
  3
ACAD_XREC_ROUNDTRIP
360
6C
  0
DICTIONARY
  5
6F
330
32
100
AcDbDictionary
280
     1
281
     1
  3
ACAD_XREC_ROUNDTRIP
360
70
  0
DICTIONARY
  5
77
330
36
100
AcDbDictionary
280
     1
281
     1
  3
ACAD_XREC_ROUNDTRIP
360
78
  0
DICTIONARY
  5
7F
330
3A
100
AcDbDictionary
280
     1
281
     1
  3
ACAD_XREC_ROUNDTRIP
360
80
  0
DICTIONARY
  5
73
330
34
100
AcDbDictionary
280
     1
281
     1
  3
ACAD_XREC_ROUNDTRIP
360
74
  0
DICTIONARY
  5
75
330
35
100
AcDbDictionary
280
     1
281
     1
  3
ACAD_XREC_ROUNDTRIP
360
76
  0
DICTIONARY
  5
7D
330
39
100
AcDbDictionary
280
     1
281
     1
  3
ACAD_XREC_ROUNDTRIP
360
7E
  0
DICTIONARY
  5
61
330
2B
100
AcDbDictionary
280
     1
281
     1
  3
ACAD_XREC_ROUNDTRIP
360
62
  0
DICTIONARY
  5
63
330
2C
100
AcDbDictionary
280
     1
281
     1
  3
ACAD_XREC_ROUNDTRIP
360
64
  0
DICTIONARY
  5
65
330
2D
100
AcDbDictionary
280
     1
281
     1
  3
ACAD_XREC_ROUNDTRIP
360
66
  0
DICTIONARY
  5
67
330
2E
100
AcDbDictionary
280
     1
281
     1
  3
ACAD_XREC_ROUNDTRIP
360
68
  0
DICTIONARY
  5
7B
330
38
100
AcDbDictionary
280
     1
281
     1
  3
ACAD_XREC_ROUNDTRIP
360
7C
  0
DICTIONARY
  5
71
330
33
100
AcDbDictionary
280
     1
281
     1
  3
ACAD_XREC_ROUNDTRIP
360
72
  0
DICTIONARY
  5
79
330
37
100
AcDbDictionary
280
     1
281
     1
  3
ACAD_XREC_ROUNDTRIP
360
7A
  0
XRECORD
  5
84
102
{ACAD_REACTORS
330
83
102
}
330
83
100
AcDbXrecord
280
     1
102
MATERIAL
148
0.0
149
0.0
149
0.0
 93
        0
 94
      127
282
     0
 72
     1
 77
     1
171
     1
175
     1
179
     1
273
     0
  0
XRECORD
  5
82
102
{ACAD_REACTORS
330
81
102
}
330
81
100
AcDbXrecord
280
     1
102
MATERIAL
148
0.0
149
0.0
149
0.0
 93
        0
 94
      127
282
     0
 72
     1
 77
     1
171
     1
175
     1
179
     1
273
     0
  0
XRECORD
  5
86
102
{ACAD_REACTORS
330
85
102
}
330
85
100
AcDbXrecord
280
     1
102
MATERIAL
148
0.0
149
0.0
149
0.0
 93
        0
 94
      127
282
     0
 72
     1
 77
     1
171
     1
175
     1
179
     1
273
     0
  0
XRECORD
  5
6A
102
{ACAD_REACTORS
330
69
102
}
330
69
100
AcDbXrecord
280
     1
102
RTVSPropertyOp0
 70
     1
102
RTVSPropertyOp1
 70
     1
102
RTVSPropertyOp2
 70
     1
102
RTVSPropertyOp3
 70
     1
102
RTVSPropertyOp4
 70
     1
102
RTVSPropertyOp5
 70
     1
102
RTVSPropertyOp6
 70
     1
102
RTVSPropertyOp7
 70
     1
102
RTVSPropertyOp8
 70
     1
102
RTVSPropertyOp9
 70
     1
102
RTVSPropertyOp10
 70
     1
102
RTVSPropertyOp11
 70
     1
102
RTVSPropertyOp12
 70
     1
102
RTVSPropertyOp13
 70
     1
102
RTVSPropertyOp14
 70
     1
102
RTVSPropertyOp15
 70
     1
102
RTVSPropertyOp16
 70
     1
102
RTVSPropertyOp17
 70
     1
102
RTVSPropertyOp18
 70
     1
102
RTVSPropertyOp19
 70
     1
102
RTVSPropertyOp20
 70
     1
102
RTVSPropertyOp21
 70
     1
102
RTVSPropertyOp22
 70
     1
102
RTVSPropertyOp23
 70
     1
102
RTVSPropertyOp24
 70
     1
102
RTVSPropertyOp25
 70
     1
102
RTVSPropertyOp26
 70
     1
102
RTVSPropertyOp27
 70
     1
102
RTVSPropertyOp28
 70
     1
102
RTVSPropertyOp29
 70
     1
102
RTVSPropertyOp30
 70
     1
102
RTVSPropertyOp31
 70
     1
102
RTVSPropertyOp32
 70
     1
  0
XRECORD
  5
6E
102
{ACAD_REACTORS
330
6D
102
}
330
6D
100
AcDbXrecord
280
     1
102
RTVSPropertyOp0
 70
     1
102
RTVSPropertyOp1
 70
     1
102
RTVSPropertyOp2
 70
     1
102
RTVSPropertyOp3
 70
     1
102
RTVSPropertyOp4
 70
     1
102
RTVSPropertyOp5
 70
     1
102
RTVSPropertyOp6
 70
     1
102
RTVSPropertyOp7
 70
     1
102
RTVSPropertyOp8
 70
     1
102
RTVSPropertyOp9
 70
     1
102
RTVSPropertyOp10
 70
     1
102
RTVSPropertyOp11
 70
     1
102
RTVSPropertyOp12
 70
     1
102
RTVSPropertyOp13
 70
     1
102
RTVSPropertyOp14
 70
     1
102
RTVSPropertyOp15
 70
     1
102
RTVSPropertyOp16
 70
     1
102
RTVSPropertyOp17
 70
     1
102
RTVSPropertyOp18
 70
     1
102
RTVSPropertyOp19
 70
     1
102
RTVSPropertyOp20
 70
     1
102
RTVSPropertyOp21
 70
     1
102
RTVSPropertyOp22
 70
     1
102
RTVSPropertyOp23
 70
     1
102
RTVSPropertyOp24
 70
     1
102
RTVSPropertyOp25
 70
     1
102
RTVSPropertyOp26
 70
     1
102
RTVSPropertyOp27
 70
     1
102
RTVSPropertyOp28
 70
     1
102
RTVSPropertyOp29
 70
     1
102
RTVSPropertyOp30
 70
     1
102
RTVSPropertyOp31
 70
     1
102
RTVSPropertyOp32
 70
     1
  0
XRECORD
  5
6C
102
{ACAD_REACTORS
330
6B
102
}
330
6B
100
AcDbXrecord
280
     1
102
RTVSPropertyOp0
 70
     1
102
RTVSPropertyOp1
 70
     1
102
RTVSPropertyOp2
 70
     1
102
RTVSPropertyOp3
 70
     1
102
RTVSPropertyOp4
 70
     1
102
RTVSPropertyOp5
 70
     1
102
RTVSPropertyOp6
 70
     1
102
RTVSPropertyOp7
 70
     1
102
RTVSPropertyOp8
 70
     1
102
RTVSPropertyOp9
 70
     1
102
RTVSPropertyOp10
 70
     1
102
RTVSPropertyOp11
 70
     1
102
RTVSPropertyOp12
 70
     1
102
RTVSPropertyOp13
 70
     1
102
RTVSPropertyOp14
 70
     1
102
RTVSPropertyOp15
 70
     1
102
RTVSPropertyOp16
 70
     1
102
RTVSPropertyOp17
 70
     1
102
RTVSPropertyOp18
 70
     1
102
RTVSPropertyOp19
 70
     1
102
RTVSPropertyOp20
 70
     1
102
RTVSPropertyOp21
 70
     1
102
RTVSPropertyOp22
 70
     1
102
RTVSPropertyOp23
 70
     1
102
RTVSPropertyOp24
 70
     1
102
RTVSPropertyOp25
 70
     1
102
RTVSPropertyOp26
 70
     1
102
RTVSPropertyOp27
 70
     1
102
RTVSPropertyOp28
 70
     1
102
RTVSPropertyOp29
 70
     1
102
RTVSPropertyOp30
 70
     1
102
RTVSPropertyOp31
 70
     1
102
RTVSPropertyOp32
 70
     1
  0
XRECORD
  5
70
102
{ACAD_REACTORS
330
6F
102
}
330
6F
100
AcDbXrecord
280
     1
102
RTVSPropertyOp0
 70
     1
102
RTVSPropertyOp1
 70
     1
102
RTVSPropertyOp2
 70
     1
102
RTVSPropertyOp3
 70
     1
102
RTVSPropertyOp4
 70
     1
102
RTVSPropertyOp5
 70
     1
102
RTVSPropertyOp6
 70
     1
102
RTVSPropertyOp7
 70
     1
102
RTVSPropertyOp8
 70
     1
102
RTVSPropertyOp9
 70
     1
102
RTVSPropertyOp10
 70
     1
102
RTVSPropertyOp11
 70
     1
102
RTVSPropertyOp12
 70
     1
102
RTVSPropertyOp13
 70
     1
102
RTVSPropertyOp14
 70
     1
102
RTVSPropertyOp15
 70
     1
102
RTVSPropertyOp16
 70
     1
102
RTVSPropertyOp17
 70
     1
102
RTVSPropertyOp18
 70
     1
102
RTVSPropertyOp19
 70
     1
102
RTVSPropertyOp20
 70
     1
102
RTVSPropertyOp21
 70
     1
102
RTVSPropertyOp22
 70
     1
102
RTVSPropertyOp23
 70
     1
102
RTVSPropertyOp24
 70
     1
102
RTVSPropertyOp25
 70
     1
102
RTVSPropertyOp26
 70
     1
102
RTVSPropertyOp27
 70
     1
102
RTVSPropertyOp28
 70
     1
102
RTVSPropertyOp29
 70
     1
102
RTVSPropertyOp30
 70
     1
102
RTVSPropertyOp31
 70
     1
102
RTVSPropertyOp32
 70
     1
  0
XRECORD
  5
78
102
{ACAD_REACTORS
330
77
102
}
330
77
100
AcDbXrecord
280
     1
102
RTVSPropertyOp0
 70
     1
102
RTVSPropertyOp1
 70
     1
102
RTVSPropertyOp2
 70
     1
102
RTVSPropertyOp3
 70
     1
102
RTVSPropertyOp4
 70
     1
102
RTVSPropertyOp5
 70
     1
102
RTVSPropertyOp6
 70
     1
102
RTVSPropertyOp7
 70
     1
102
RTVSPropertyOp8
 70
     1
102
RTVSPropertyOp9
 70
     1
102
RTVSPropertyOp10
 70
     1
102
RTVSPropertyOp11
 70
     1
102
RTVSPropertyOp12
 70
     1
102
RTVSPropertyOp13
 70
     1
102
RTVSPropertyOp14
 70
     1
102
RTVSPropertyOp15
 70
     1
102
RTVSPropertyOp16
 70
     1
102
RTVSPropertyOp17
 70
     1
102
RTVSPropertyOp18
 70
     1
102
RTVSPropertyOp19
 70
     1
102
RTVSPropertyOp20
 70
     1
102
RTVSPropertyOp21
 70
     1
102
RTVSPropertyOp22
 70
     1
102
RTVSPropertyOp23
 70
     1
102
RTVSPropertyOp24
 70
     1
102
RTVSPropertyOp25
 70
     1
102
RTVSPropertyOp26
 70
     1
102
RTVSPropertyOp27
 70
     1
102
RTVSPropertyOp28
 70
     1
102
RTVSPropertyOp29
 70
     1
102
RTVSPropertyOp30
 70
     1
102
RTVSPropertyOp31
 70
     1
102
RTVSPropertyOp32
 70
     1
  0
XRECORD
  5
80
102
{ACAD_REACTORS
330
7F
102
}
330
7F
100
AcDbXrecord
280
     1
102
RTVSPropertyOp0
 70
     1
102
RTVSPropertyOp1
 70
     1
102
RTVSPropertyOp2
 70
     1
102
RTVSPropertyOp3
 70
     1
102
RTVSPropertyOp4
 70
     1
102
RTVSPropertyOp5
 70
     1
102
RTVSPropertyOp6
 70
     1
102
RTVSPropertyOp7
 70
     1
102
RTVSPropertyOp8
 70
     1
102
RTVSPropertyOp9
 70
     1
102
RTVSPropertyOp10
 70
     1
102
RTVSPropertyOp11
 70
     1
102
RTVSPropertyOp12
 70
     1
102
RTVSPropertyOp13
 70
     1
102
RTVSPropertyOp14
 70
     1
102
RTVSPropertyOp15
 70
     1
102
RTVSPropertyOp16
 70
     1
102
RTVSPropertyOp17
 70
     1
102
RTVSPropertyOp18
 70
     1
102
RTVSPropertyOp19
 70
     1
102
RTVSPropertyOp20
 70
     1
102
RTVSPropertyOp21
 70
     1
102
RTVSPropertyOp22
 70
     1
102
RTVSPropertyOp23
 70
     1
102
RTVSPropertyOp24
 70
     1
102
RTVSPropertyOp25
 70
     1
102
RTVSPropertyOp26
 70
     1
102
RTVSPropertyOp27
 70
     1
102
RTVSPropertyOp28
 70
     1
102
RTVSPropertyOp29
 70
     1
102
RTVSPropertyOp30
 70
     1
102
RTVSPropertyOp31
 70
     1
102
RTVSPropertyOp32
 70
     1
  0
XRECORD
  5
74
102
{ACAD_REACTORS
330
73
102
}
330
73
100
AcDbXrecord
280
     1
102
RTVSPropertyOp0
 70
     1
102
RTVSPropertyOp1
 70
     1
102
RTVSPropertyOp2
 70
     1
102
RTVSPropertyOp3
 70
     1
102
RTVSPropertyOp4
 70
     1
102
RTVSPropertyOp5
 70
     1
102
RTVSPropertyOp6
 70
     1
102
RTVSPropertyOp7
 70
     1
102
RTVSPropertyOp8
 70
     1
102
RTVSPropertyOp9
 70
     1
102
RTVSPropertyOp10
 70
     1
102
RTVSPropertyOp11
 70
     1
102
RTVSPropertyOp12
 70
     1
102
RTVSPropertyOp13
 70
     1
102
RTVSPropertyOp14
 70
     1
102
RTVSPropertyOp15
 70
     1
102
RTVSPropertyOp16
 70
     1
102
RTVSPropertyOp17
 70
     1
102
RTVSPropertyOp18
 70
     1
102
RTVSPropertyOp19
 70
     1
102
RTVSPropertyOp20
 70
     1
102
RTVSPropertyOp21
 70
     1
102
RTVSPropertyOp22
 70
     1
102
RTVSPropertyOp23
 70
     1
102
RTVSPropertyOp24
 70
     1
102
RTVSPropertyOp25
 70
     1
102
RTVSPropertyOp26
 70
     1
102
RTVSPropertyOp27
 70
     1
102
RTVSPropertyOp28
 70
     1
102
RTVSPropertyOp29
 70
     1
102
RTVSPropertyOp30
 70
     1
102
RTVSPropertyOp31
 70
     1
102
RTVSPropertyOp32
 70
     1
  0
XRECORD
  5
76
102
{ACAD_REACTORS
330
75
102
}
330
75
100
AcDbXrecord
280
     1
102
RTVSPropertyOp0
 70
     1
102
RTVSPropertyOp1
 70
     1
102
RTVSPropertyOp2
 70
     1
102
RTVSPropertyOp3
 70
     1
102
RTVSPropertyOp4
 70
     1
102
RTVSPropertyOp5
 70
     1
102
RTVSPropertyOp6
 70
     1
102
RTVSPropertyOp7
 70
     1
102
RTVSPropertyOp8
 70
     1
102
RTVSPropertyOp9
 70
     1
102
RTVSPropertyOp10
 70
     1
102
RTVSPropertyOp11
 70
     1
102
RTVSPropertyOp12
 70
     1
102
RTVSPropertyOp13
 70
     1
102
RTVSPropertyOp14
 70
     1
102
RTVSPropertyOp15
 70
     1
102
RTVSPropertyOp16
 70
     1
102
RTVSPropertyOp17
 70
     1
102
RTVSPropertyOp18
 70
     1
102
RTVSPropertyOp19
 70
     1
102
RTVSPropertyOp20
 70
     1
102
RTVSPropertyOp21
 70
     1
102
RTVSPropertyOp22
 70
     1
102
RTVSPropertyOp23
 70
     1
102
RTVSPropertyOp24
 70
     1
102
RTVSPropertyOp25
 70
     1
102
RTVSPropertyOp26
 70
     1
102
RTVSPropertyOp27
 70
     1
102
RTVSPropertyOp28
 70
     1
102
RTVSPropertyOp29
 70
     1
102
RTVSPropertyOp30
 70
     1
102
RTVSPropertyOp31
 70
     1
102
RTVSPropertyOp32
 70
     1
  0
XRECORD
  5
7E
102
{ACAD_REACTORS
330
7D
102
}
330
7D
100
AcDbXrecord
280
     1
102
RTVSPropertyOp0
 70
     1
102
RTVSPropertyOp1
 70
     1
102
RTVSPropertyOp2
 70
     1
102
RTVSPropertyOp3
 70
     1
102
RTVSPropertyOp4
 70
     1
102
RTVSPropertyOp5
 70
     1
102
RTVSPropertyOp6
 70
     1
102
RTVSPropertyOp7
 70
     1
102
RTVSPropertyOp8
 70
     1
102
RTVSPropertyOp9
 70
     1
102
RTVSPropertyOp10
 70
     1
102
RTVSPropertyOp11
 70
     1
102
RTVSPropertyOp12
 70
     1
102
RTVSPropertyOp13
 70
     1
102
RTVSPropertyOp14
 70
     1
102
RTVSPropertyOp15
 70
     1
102
RTVSPropertyOp16
 70
     1
102
RTVSPropertyOp17
 70
     1
102
RTVSPropertyOp18
 70
     1
102
RTVSPropertyOp19
 70
     1
102
RTVSPropertyOp20
 70
     1
102
RTVSPropertyOp21
 70
     1
102
RTVSPropertyOp22
 70
     1
102
RTVSPropertyOp23
 70
     1
102
RTVSPropertyOp24
 70
     1
102
RTVSPropertyOp25
 70
     1
102
RTVSPropertyOp26
 70
     1
102
RTVSPropertyOp27
 70
     1
102
RTVSPropertyOp28
 70
     1
102
RTVSPropertyOp29
 70
     1
102
RTVSPropertyOp30
 70
     1
102
RTVSPropertyOp31
 70
     1
102
RTVSPropertyOp32
 70
     1
  0
XRECORD
  5
62
102
{ACAD_REACTORS
330
61
102
}
330
61
100
AcDbXrecord
280
     1
102
RTVSPropertyOp0
 70
     1
102
RTVSPropertyOp1
 70
     1
102
RTVSPropertyOp2
 70
     1
102
RTVSPropertyOp3
 70
     1
102
RTVSPropertyOp4
 70
     1
102
RTVSPropertyOp5
 70
     1
102
RTVSPropertyOp6
 70
     1
102
RTVSPropertyOp7
 70
     1
102
RTVSPropertyOp8
 70
     1
102
RTVSPropertyOp9
 70
     1
102
RTVSPropertyOp10
 70
     1
102
RTVSPropertyOp11
 70
     1
102
RTVSPropertyOp12
 70
     1
102
RTVSPropertyOp13
 70
     1
102
RTVSPropertyOp14
 70
     1
102
RTVSPropertyOp15
 70
     1
102
RTVSPropertyOp16
 70
     1
102
RTVSPropertyOp17
 70
     1
102
RTVSPropertyOp18
 70
     1
102
RTVSPropertyOp19
 70
     1
102
RTVSPropertyOp20
 70
     1
102
RTVSPropertyOp21
 70
     1
102
RTVSPropertyOp22
 70
     1
102
RTVSPropertyOp23
 70
     1
102
RTVSPropertyOp24
 70
     1
102
RTVSPropertyOp25
 70
     1
102
RTVSPropertyOp26
 70
     1
102
RTVSPropertyOp27
 70
     1
102
RTVSPropertyOp28
 70
     1
102
RTVSPropertyOp29
 70
     1
102
RTVSPropertyOp30
 70
     1
102
RTVSPropertyOp31
 70
     1
102
RTVSPropertyOp32
 70
     1
  0
XRECORD
  5
64
102
{ACAD_REACTORS
330
63
102
}
330
63
100
AcDbXrecord
280
     1
102
RTVSPropertyOp0
 70
     1
102
RTVSPropertyOp1
 70
     1
102
RTVSPropertyOp2
 70
     1
102
RTVSPropertyOp3
 70
     1
102
RTVSPropertyOp4
 70
     1
102
RTVSPropertyOp5
 70
     1
102
RTVSPropertyOp6
 70
     1
102
RTVSPropertyOp7
 70
     1
102
RTVSPropertyOp8
 70
     1
102
RTVSPropertyOp9
 70
     1
102
RTVSPropertyOp10
 70
     1
102
RTVSPropertyOp11
 70
     1
102
RTVSPropertyOp12
 70
     1
102
RTVSPropertyOp13
 70
     1
102
RTVSPropertyOp14
 70
     1
102
RTVSPropertyOp15
 70
     1
102
RTVSPropertyOp16
 70
     1
102
RTVSPropertyOp17
 70
     1
102
RTVSPropertyOp18
 70
     1
102
RTVSPropertyOp19
 70
     1
102
RTVSPropertyOp20
 70
     1
102
RTVSPropertyOp21
 70
     1
102
RTVSPropertyOp22
 70
     1
102
RTVSPropertyOp23
 70
     1
102
RTVSPropertyOp24
 70
     1
102
RTVSPropertyOp25
 70
     1
102
RTVSPropertyOp26
 70
     1
102
RTVSPropertyOp27
 70
     1
102
RTVSPropertyOp28
 70
     1
102
RTVSPropertyOp29
 70
     1
102
RTVSPropertyOp30
 70
     1
102
RTVSPropertyOp31
 70
     1
102
RTVSPropertyOp32
 70
     1
  0
XRECORD
  5
66
102
{ACAD_REACTORS
330
65
102
}
330
65
100
AcDbXrecord
280
     1
102
RTVSPropertyOp0
 70
     1
102
RTVSPropertyOp1
 70
     1
102
RTVSPropertyOp2
 70
     1
102
RTVSPropertyOp3
 70
     1
102
RTVSPropertyOp4
 70
     1
102
RTVSPropertyOp5
 70
     1
102
RTVSPropertyOp6
 70
     1
102
RTVSPropertyOp7
 70
     1
102
RTVSPropertyOp8
 70
     1
102
RTVSPropertyOp9
 70
     1
102
RTVSPropertyOp10
 70
     1
102
RTVSPropertyOp11
 70
     1
102
RTVSPropertyOp12
 70
     1
102
RTVSPropertyOp13
 70
     1
102
RTVSPropertyOp14
 70
     1
102
RTVSPropertyOp15
 70
     1
102
RTVSPropertyOp16
 70
     1
102
RTVSPropertyOp17
 70
     1
102
RTVSPropertyOp18
 70
     1
102
RTVSPropertyOp19
 70
     1
102
RTVSPropertyOp20
 70
     1
102
RTVSPropertyOp21
 70
     1
102
RTVSPropertyOp22
 70
     1
102
RTVSPropertyOp23
 70
     1
102
RTVSPropertyOp24
 70
     1
102
RTVSPropertyOp25
 70
     1
102
RTVSPropertyOp26
 70
     1
102
RTVSPropertyOp27
 70
     1
102
RTVSPropertyOp28
 70
     1
102
RTVSPropertyOp29
 70
     1
102
RTVSPropertyOp30
 70
     1
102
RTVSPropertyOp31
 70
     1
102
RTVSPropertyOp32
 70
     1
  0
XRECORD
  5
68
102
{ACAD_REACTORS
330
67
102
}
330
67
100
AcDbXrecord
280
     1
102
RTVSPropertyOp0
 70
     1
102
RTVSPropertyOp1
 70
     1
102
RTVSPropertyOp2
 70
     1
102
RTVSPropertyOp3
 70
     1
102
RTVSPropertyOp4
 70
     1
102
RTVSPropertyOp5
 70
     1
102
RTVSPropertyOp6
 70
     1
102
RTVSPropertyOp7
 70
     1
102
RTVSPropertyOp8
 70
     1
102
RTVSPropertyOp9
 70
     1
102
RTVSPropertyOp10
 70
     1
102
RTVSPropertyOp11
 70
     1
102
RTVSPropertyOp12
 70
     1
102
RTVSPropertyOp13
 70
     1
102
RTVSPropertyOp14
 70
     1
102
RTVSPropertyOp15
 70
     1
102
RTVSPropertyOp16
 70
     1
102
RTVSPropertyOp17
 70
     1
102
RTVSPropertyOp18
 70
     1
102
RTVSPropertyOp19
 70
     1
102
RTVSPropertyOp20
 70
     1
102
RTVSPropertyOp21
 70
     1
102
RTVSPropertyOp22
 70
     1
102
RTVSPropertyOp23
 70
     1
102
RTVSPropertyOp24
 70
     1
102
RTVSPropertyOp25
 70
     1
102
RTVSPropertyOp26
 70
     1
102
RTVSPropertyOp27
 70
     1
102
RTVSPropertyOp28
 70
     1
102
RTVSPropertyOp29
 70
     1
102
RTVSPropertyOp30
 70
     1
102
RTVSPropertyOp31
 70
     1
102
RTVSPropertyOp32
 70
     1
  0
XRECORD
  5
7C
102
{ACAD_REACTORS
330
7B
102
}
330
7B
100
AcDbXrecord
280
     1
102
RTVSPropertyOp0
 70
     1
102
RTVSPropertyOp1
 70
     1
102
RTVSPropertyOp2
 70
     1
102
RTVSPropertyOp3
 70
     1
102
RTVSPropertyOp4
 70
     1
102
RTVSPropertyOp5
 70
     1
102
RTVSPropertyOp6
 70
     1
102
RTVSPropertyOp7
 70
     1
102
RTVSPropertyOp8
 70
     1
102
RTVSPropertyOp9
 70
     1
102
RTVSPropertyOp10
 70
     1
102
RTVSPropertyOp11
 70
     1
102
RTVSPropertyOp12
 70
     1
102
RTVSPropertyOp13
 70
     1
102
RTVSPropertyOp14
 70
     1
102
RTVSPropertyOp15
 70
     1
102
RTVSPropertyOp16
 70
     1
102
RTVSPropertyOp17
 70
     1
102
RTVSPropertyOp18
 70
     1
102
RTVSPropertyOp19
 70
     1
102
RTVSPropertyOp20
 70
     1
102
RTVSPropertyOp21
 70
     1
102
RTVSPropertyOp22
 70
     1
102
RTVSPropertyOp23
 70
     1
102
RTVSPropertyOp24
 70
     1
102
RTVSPropertyOp25
 70
     1
102
RTVSPropertyOp26
 70
     1
102
RTVSPropertyOp27
 70
     1
102
RTVSPropertyOp28
 70
     1
102
RTVSPropertyOp29
 70
     1
102
RTVSPropertyOp30
 70
     1
102
RTVSPropertyOp31
 70
     1
102
RTVSPropertyOp32
 70
     1
  0
XRECORD
  5
72
102
{ACAD_REACTORS
330
71
102
}
330
71
100
AcDbXrecord
280
     1
102
RTVSPropertyOp0
 70
     1
102
RTVSPropertyOp1
 70
     1
102
RTVSPropertyOp2
 70
     1
102
RTVSPropertyOp3
 70
     1
102
RTVSPropertyOp4
 70
     1
102
RTVSPropertyOp5
 70
     1
102
RTVSPropertyOp6
 70
     1
102
RTVSPropertyOp7
 70
     1
102
RTVSPropertyOp8
 70
     1
102
RTVSPropertyOp9
 70
     1
102
RTVSPropertyOp10
 70
     1
102
RTVSPropertyOp11
 70
     1
102
RTVSPropertyOp12
 70
     1
102
RTVSPropertyOp13
 70
     1
102
RTVSPropertyOp14
 70
     1
102
RTVSPropertyOp15
 70
     1
102
RTVSPropertyOp16
 70
     1
102
RTVSPropertyOp17
 70
     1
102
RTVSPropertyOp18
 70
     1
102
RTVSPropertyOp19
 70
     1
102
RTVSPropertyOp20
 70
     1
102
RTVSPropertyOp21
 70
     1
102
RTVSPropertyOp22
 70
     1
102
RTVSPropertyOp23
 70
     1
102
RTVSPropertyOp24
 70
     1
102
RTVSPropertyOp25
 70
     1
102
RTVSPropertyOp26
 70
     1
102
RTVSPropertyOp27
 70
     1
102
RTVSPropertyOp28
 70
     1
102
RTVSPropertyOp29
 70
     1
102
RTVSPropertyOp30
 70
     1
102
RTVSPropertyOp31
 70
     1
102
RTVSPropertyOp32
 70
     1
  0
XRECORD
  5
7A
102
{ACAD_REACTORS
330
79
102
}
330
79
100
AcDbXrecord
280
     1
102
RTVSPropertyOp0
 70
     1
102
RTVSPropertyOp1
 70
     1
102
RTVSPropertyOp2
 70
     1
102
RTVSPropertyOp3
 70
     1
102
RTVSPropertyOp4
 70
     1
102
RTVSPropertyOp5
 70
     1
102
RTVSPropertyOp6
 70
     1
102
RTVSPropertyOp7
 70
     1
102
RTVSPropertyOp8
 70
     1
102
RTVSPropertyOp9
 70
     1
102
RTVSPropertyOp10
 70
     1
102
RTVSPropertyOp11
 70
     1
102
RTVSPropertyOp12
 70
     1
102
RTVSPropertyOp13
 70
     1
102
RTVSPropertyOp14
 70
     1
102
RTVSPropertyOp15
 70
     1
102
RTVSPropertyOp16
 70
     1
102
RTVSPropertyOp17
 70
     1
102
RTVSPropertyOp18
 70
     1
102
RTVSPropertyOp19
 70
     1
102
RTVSPropertyOp20
 70
     1
102
RTVSPropertyOp21
 70
     1
102
RTVSPropertyOp22
 70
     1
102
RTVSPropertyOp23
 70
     1
102
RTVSPropertyOp24
 70
     1
102
RTVSPropertyOp25
 70
     1
102
RTVSPropertyOp26
 70
     1
102
RTVSPropertyOp27
 70
     1
102
RTVSPropertyOp28
 70
     1
102
RTVSPropertyOp29
 70
     1
102
RTVSPropertyOp30
 70
     1
102
RTVSPropertyOp31
 70
     1
102
RTVSPropertyOp32
 70
     1
  0
ENDSEC
  0
EOF
