  0
SECTION
  2
HEADER
  9
$ACADVER
  1
AC1021
  9
$ACADMAINTVER
 70
    25
  9
$DWGCODEPAGE
  3
ANSI_1252
  9
$INSBASE
 10
0.0
 20
0.0
 30
0.0
  9
$EXTMIN
 10
302.2893
 20
54.1372
 30
0.0
  9
$EXTMAX
 10
410.4893
 20
138.3385
 30
0.0
  9
$LIMMIN
 10
0.0
 20
0.0
  9
$LIMMAX
 10
12.0
 20
9.0
  9
$ORTHOMODE
 70
     0
  9
$REGENMODE
 70
     1
  9
$FILLMODE
 70
     1
  9
$QTEXTMODE
 70
     0
  9
$MIRRTEXT
 70
     1
  9
$LTSCALE
 40
1.0
  9
$ATTMODE
 70
     1
  9
$TEXTSIZE
 40
0.2
  9
$TRACEWID
 40
0.05
  9
$TEXTSTYLE
  7
Standard
  9
$CLAYER
  8
0
  9
$CELTYPE
  6
ByLayer
  9
$CECOLOR
 62
   256
  9
$CELTSCALE
 40
1.0
  9
$DISPSILH
 70
     0
  9
$DIMSCALE
 40
1.0
  9
$DIMASZ
 40
0.18
  9
$DIMEXO
 40
0.0625
  9
$DIMDLI
 40
0.38
  9
$DIMRND
 40
0.0
  9
$DIMDLE
 40
0.0
  9
$DIMEXE
 40
0.18
  9
$DIMTP
 40
0.0
  9
$DIMTM
 40
0.0
  9
$DIMTXT
 40
0.18
  9
$DIMCEN
 40
0.09
  9
$DIMTSZ
 40
0.0
  9
$DIMTOL
 70
     0
  9
$DIMLIM
 70
     0
  9
$DIMTIH
 70
     1
  9
$DIMTOH
 70
     1
  9
$DIMSE1
 70
     0
  9
$DIMSE2
 70
     0
  9
$DIMTAD
 70
     0
  9
$DIMZIN
 70
     0
  9
$DIMBLK
  1

  9
$DIMASO
 70
     1
  9
$DIMSHO
 70
     1
  9
$DIMPOST
  1

  9
$DIMAPOST
  1

  9
$DIMALT
 70
     0
  9
$DIMALTD
 70
     2
  9
$DIMALTF
 40
25.4
  9
$DIMLFAC
 40
1.0
  9
$DIMTOFL
 70
     0
  9
$DIMTVP
 40
0.0
  9
$DIMTIX
 70
     0
  9
$DIMSOXD
 70
     0
  9
$DIMSAH
 70
     0
  9
$DIMBLK1
  1

  9
$DIMBLK2
  1

  9
$DIMSTYLE
  2
Standard
  9
$DIMCLRD
 70
     0
  9
$DIMCLRE
 70
     0
  9
$DIMCLRT
 70
     0
  9
$DIMTFAC
 40
1.0
  9
$DIMGAP
 40
0.09
  9
$DIMJUST
 70
     0
  9
$DIMSD1
 70
     0
  9
$DIMSD2
 70
     0
  9
$DIMTOLJ
 70
     1
  9
$DIMTZIN
 70
     0
  9
$DIMALTZ
 70
     0
  9
$DIMALTTZ
 70
     0
  9
$DIMUPT
 70
     0
  9
$DIMDEC
 70
     4
  9
$DIMTDEC
 70
     4
  9
$DIMALTU
 70
     2
  9
$DIMALTTD
 70
     2
  9
$DIMTXSTY
  7
Standard
  9
$DIMAUNIT
 70
     0
  9
$DIMADEC
 70
     0
  9
$DIMALTRND
 40
0.0
  9
$DIMAZIN
 70
     0
  9
$DIMDSEP
 70
    46
  9
$DIMATFIT
 70
     3
  9
$DIMFRAC
 70
     0
  9
$DIMLDRBLK
  1

  9
$DIMLUNIT
 70
     2
  9
$DIMLWD
 70
    -2
  9
$DIMLWE
 70
    -2
  9
$DIMTMOVE
 70
     0
  9
$DIMFXL
 40
1.0
  9
$DIMFXLON
 70
     0
  9
$DIMJOGANG
 40
0.7853981633974483
  9
$DIMTFILL
 70
     0
  9
$DIMTFILLCLR
 70
     0
  9
$DIMARCSYM
 70
     0
  9
$DIMLTYPE
  6

  9
$DIMLTEX1
  6

  9
$DIMLTEX2
  6

  9
$LUNITS
 70
     2
  9
$LUPREC
 70
     4
  9
$SKETCHINC
 40
0.1
  9
$FILLETRAD
 40
0.5
  9
$AUNITS
 70
     0
  9
$AUPREC
 70
     0
  9
$MENU
  1
.
  9
$ELEVATION
 40
0.0
  9
$PELEVATION
 40
0.0
  9
$THICKNESS
 40
0.0
  9
$LIMCHECK
 70
     0
  9
$CHAMFERA
 40
0.5
  9
$CHAMFERB
 40
0.5
  9
$CHAMFERC
 40
1.0
  9
$CHAMFERD
 40
0.0
  9
$SKPOLY
 70
     0
  9
$TDCREATE
 40
2457094.824217072
  9
$TDUCREATE
 40
2457094.949217072
  9
$TDUPDATE
 40
2457094.824217083
  9
$TDUUPDATE
 40
2457094.949217083
  9
$TDINDWG
 40
0.0000000116
  9
$TDUSRTIMER
 40
0.0000000116
  9
$USRTIMER
 70
     1
  9
$ANGBASE
 50
0.0
  9
$ANGDIR
 70
     0
  9
$PDMODE
 70
     0
  9
$PDSIZE
 40
0.0
  9
$PLINEWID
 40
0.0
  9
$SPLFRAME
 70
     0
  9
$SPLINETYPE
 70
     6
  9
$SPLINESEGS
 70
     8
  9
$HANDSEED
  5
89
  9
$SURFTAB1
 70
     6
  9
$SURFTAB2
 70
     6
  9
$SURFTYPE
 70
     6
  9
$SURFU
 70
     6
  9
$SURFV
 70
     6
  9
$UCSBASE
  2

  9
$UCSNAME
  2

  9
$UCSORG
 10
0.0
 20
0.0
 30
0.0
  9
$UCSXDIR
 10
1.0
 20
0.0
 30
0.0
  9
$UCSYDIR
 10
0.0
 20
1.0
 30
0.0
  9
$UCSORTHOREF
  2

  9
$UCSORTHOVIEW
 70
     0
  9
$UCSORGTOP
 10
0.0
 20
0.0
 30
0.0
  9
$UCSORGBOTTOM
 10
0.0
 20
0.0
 30
0.0
  9
$UCSORGLEFT
 10
0.0
 20
0.0
 30
0.0
  9
$UCSORGRIGHT
 10
0.0
 20
0.0
 30
0.0
  9
$UCSORGFRONT
 10
0.0
 20
0.0
 30
0.0
  9
$UCSORGBACK
 10
0.0
 20
0.0
 30
0.0
  9
$PUCSBASE
  2

  9
$PUCSNAME
  2

  9
$PUCSORG
 10
0.0
 20
0.0
 30
0.0
  9
$PUCSXDIR
 10
1.0
 20
0.0
 30
0.0
  9
$PUCSYDIR
 10
0.0
 20
1.0
 30
0.0
  9
$PUCSORTHOREF
  2

  9
$PUCSORTHOVIEW
 70
     0
  9
$PUCSORGTOP
 10
0.0
 20
0.0
 30
0.0
  9
$PUCSORGBOTTOM
 10
0.0
 20
0.0
 30
0.0
  9
$PUCSORGLEFT
 10
0.0
 20
0.0
 30
0.0
  9
$PUCSORGRIGHT
 10
0.0
 20
0.0
 30
0.0
  9
$PUCSORGFRONT
 10
0.0
 20
0.0
 30
0.0
  9
$PUCSORGBACK
 10
0.0
 20
0.0
 30
0.0
  9
$USERI1
 70
     0
  9
$USERI2
 70
     0
  9
$USERI3
 70
     0
  9
$USERI4
 70
     0
  9
$USERI5
 70
     0
  9
$USERR1
 40
0.0
  9
$USERR2
 40
0.0
  9
$USERR3
 40
0.0
  9
$USERR4
 40
0.0
  9
$USERR5
 40
0.0
  9
$WORLDVIEW
 70
     1
  9
$SHADEDGE
 70
     3
  9
$SHADEDIF
 70
    70
  9
$TILEMODE
 70
     1
  9
$MAXACTVP
 70
    64
  9
$PINSBASE
 10
0.0
 20
0.0
 30
0.0
  9
$PLIMCHECK
 70
     0
  9
$PEXTMIN
 10
1.000000000000000E+20
 20
1.000000000000000E+20
 30
1.000000000000000E+20
  9
$PEXTMAX
 10
-1.000000000000000E+20
 20
-1.000000000000000E+20
 30
-1.000000000000000E+20
  9
$PLIMMIN
 10
0.0
 20
0.0
  9
$PLIMMAX
 10
12.0
 20
9.0
  9
$UNITMODE
 70
     0
  9
$VISRETAIN
 70
     1
  9
$PLINEGEN
 70
     0
  9
$PSLTSCALE
 70
     1
  9
$TREEDEPTH
 70
  3020
  9
$CMLSTYLE
  2
Standard
  9
$CMLJUST
 70
     0
  9
$CMLSCALE
 40
1.0
  9
$PROXYGRAPHICS
 70
     1
  9
$MEASUREMENT
 70
     0
  9
$CELWEIGHT
370
    -1
  9
$ENDCAPS
280
     0
  9
$JOINSTYLE
280
     0
  9
$LWDISPLAY
290
     0
  9
$INSUNITS
 70
     4
  9
$HYPERLINKBASE
  1

  9
$STYLESHEET
  1

  9
$XEDIT
290
     1
  9
$CEPSNTYPE
380
     0
  9
$PSTYLEMODE
290
     1
  9
$FINGERPRINTGUID
  2
{B27B556E-4E3F-4E7F-877D-75AE874F004A}
  9
$VERSIONGUID
  2
{FAEB1C32-E019-11D5-929B-00C0DF256EC4}
  9
$EXTNAMES
290
     1
  9
$PSVPSCALE
 40
0.0
  9
$OLESTARTUP
290
     0
  9
$SORTENTS
280
   127
  9
$INDEXCTL
280
     0
  9
$HIDETEXT
280
     1
  9
$XCLIPFRAME
290
     0
  9
$HALOGAP
280
     0
  9
$OBSCOLOR
 70
   257
  9
$OBSLTYPE
280
     0
  9
$INTERSECTIONDISPLAY
280
     0
  9
$INTERSECTIONCOLOR
 70
   257
  9
$DIMASSOC
280
     2
  9
$PROJECTNAME
  1

  9
$CAMERADISPLAY
290
     0
  9
$LENSLENGTH
 40
50.0
  9
$CAMERAHEIGHT
 40
0.0
  9
$STEPSPERSEC
 40
2.0
  9
$STEPSIZE
 40
6.0
  9
$3DDWFPREC
 40
2.0
  9
$PSOLWIDTH
 40
0.25
  9
$PSOLHEIGHT
 40
4.0
  9
$LOFTANG1
 40
1.570796326794897
  9
$LOFTANG2
 40
1.570796326794897
  9
$LOFTMAG1
 40
0.0
  9
$LOFTMAG2
 40
0.0
  9
$LOFTPARAM
 70
     7
  9
$LOFTNORMALS
280
     1
  9
$LATITUDE
 40
37.795
  9
$LONGITUDE
 40
-122.394
  9
$NORTHDIRECTION
 40
0.0
  9
$TIMEZONE
 70
 -8000
  9
$LIGHTGLYPHDISPLAY
280
     1
  9
$TILEMODELIGHTSYNCH
280
     1
  9
$SOLIDHIST
280
     1
  9
$SHOWHIST
280
     1
  9
$DWFFRAME
280
     2
  9
$DGNFRAME
280
     2
  9
$REALWORLDSCALE
290
     1
  9
$INTERFERECOLOR
 62
   256
  9
$CSHADOW
280
     0
  9
$SHADOWPLANELOCATION
 40
0.0
  0
ENDSEC
  0
SECTION
  2
CLASSES
  0
CLASS
  1
ACDBDICTIONARYWDFLT
  2
AcDbDictionaryWithDefault
  3
ObjectDBX Classes
 90
        0
 91
        3
280
     0
281
     0
  0
CLASS
  1
VISUALSTYLE
  2
AcDbVisualStyle
  3
ObjectDBX Classes
 90
     4095
 91
        3
280
     0
281
     0
  0
CLASS
  1
SCALE
  2
AcDbScale
  3
ObjectDBX Classes
 90
     1153
 91
        3
280
     0
281
     0
  0
ENDSEC
  0
SECTION
  2
TABLES
  0
TABLE
  2
VPORT
  5
8
330
0
100
AcDbSymbolTable
 70
     1
  0
VPORT
  5
29
330
8
100
AcDbSymbolTableRecord
100
AcDbViewportTableRecord
  2
*Active
 70
     0
 10
0.0
 20
0.0
 11
1.0
 21
1.0
 12
10.42990654205607
 22
4.5
 13
0.0
 23
0.0
 14
0.5
 24
0.5
 15
0.5
 25
0.5
 16
0.0
 26
0.0
 36
1.0
 17
0.0
 27
0.0
 37
0.0
 40
9.0
 41
1.972972972850329
 42
50.0
 43
0.0
 44
0.0
 50
0.0
 51
0.0
 71
     0
 72
   100
 73
     1
 74
     3
 75
     0
 76
     0
 77
     0
 78
     0
281
     0
 65
     1
110
0.0
120
0.0
130
0.0
111
1.0
121
0.0
131
0.0
112
0.0
122
1.0
132
0.0
 79
     0
146
0.0
 60
     3
 61
     5
292
     1
282
     1
141
0.0
142
0.0
 63
   256
  0
ENDTAB
  0
TABLE
  2
LTYPE
  5
5
330
0
100
AcDbSymbolTable
 70
     1
  0
LTYPE
  5
14
330
5
100
AcDbSymbolTableRecord
100
AcDbLinetypeTableRecord
  2
ByBlock
 70
     0
  3

 72
    65
 73
     0
 40
0.0
  0
LTYPE
  5
15
330
5
100
AcDbSymbolTableRecord
100
AcDbLinetypeTableRecord
  2
ByLayer
 70
     0
  3

 72
    65
 73
     0
 40
0.0
  0
LTYPE
  5
16
330
5
100
AcDbSymbolTableRecord
100
AcDbLinetypeTableRecord
  2
Continuous
 70
     0
  3
Solid line
 72
    65
 73
     0
 40
0.0
  0
ENDTAB
  0
TABLE
  2
LAYER
  5
2
330
0
100
AcDbSymbolTable
 70
     2
  0
LAYER
  5
10
330
2
100
AcDbSymbolTableRecord
100
AcDbLayerTableRecord
  2
0
 70
     0
 62
     7
  6
Continuous
370
    -3
390
F
347
0
  0
LAYER
  5
5E
330
2
100
AcDbSymbolTableRecord
100
AcDbLayerTableRecord
  2
Camada 1
 70
     0
 62
     7
  6
Continuous
370
    -3
390
F
347
0
  0
ENDTAB
  0
TABLE
  2
STYLE
  5
3
330
0
100
AcDbSymbolTable
 70
     1
  0
STYLE
  5
11
330
3
100
AcDbSymbolTableRecord
100
AcDbTextStyleTableRecord
  2
Standard
 70
     0
 40
0.0
 41
1.0
 50
0.0
 71
     0
 42
0.2
  3
txt
  4

  0
ENDTAB
  0
TABLE
  2
VIEW
  5
6
330
0
100
AcDbSymbolTable
 70
     0
  0
ENDTAB
  0
TABLE
  2
UCS
  5
7
330
0
100
AcDbSymbolTable
 70
     0
  0
ENDTAB
  0
TABLE
  2
APPID
  5
9
330
0
100
AcDbSymbolTable
 70
     2
  0
APPID
  5
12
330
9
100
AcDbSymbolTableRecord
100
AcDbRegAppTableRecord
  2
ACAD
 70
     0
  0
APPID
  5
5D
330
9
100
AcDbSymbolTableRecord
100
AcDbRegAppTableRecord
  2
ODA
 70
     0
  0
ENDTAB
  0
TABLE
  2
DIMSTYLE
  5
A
330
0
100
AcDbSymbolTable
 70
     1
100
AcDbDimStyleTable
  0
DIMSTYLE
105
27
330
A
100
AcDbSymbolTableRecord
100
AcDbDimStyleTableRecord
  2
Standard
 70
     0
340
11
  0
ENDTAB
  0
TABLE
  2
BLOCK_RECORD
  5
1
330
0
100
AcDbSymbolTable
 70
     1
  0
BLOCK_RECORD
  5
1F
330
1
100
AcDbSymbolTableRecord
100
AcDbBlockTableRecord
  2
*Model_Space
340
22
 70
     0
280
     1
281
     0
  0
BLOCK_RECORD
  5
1B
330
1
100
AcDbSymbolTableRecord
100
AcDbBlockTableRecord
  2
*Paper_Space
340
1E
 70
     0
280
     1
281
     0
  0
BLOCK_RECORD
  5
23
330
1
100
AcDbSymbolTableRecord
100
AcDbBlockTableRecord
  2
*Paper_Space0
340
26
 70
     0
280
     1
281
     0
  0
ENDTAB
  0
ENDSEC
  0
SECTION
  2
BLOCKS
  0
BLOCK
  5
20
330
1F
100
AcDbEntity
  8
0
100
AcDbBlockBegin
  2
*Model_Space
 70
     0
 10
0.0
 20
0.0
 30
0.0
  3
*Model_Space
  1

  0
ENDBLK
  5
21
330
1F
100
AcDbEntity
  8
0
100
AcDbBlockEnd
  0
BLOCK
  5
1C
330
1B
100
AcDbEntity
 67
     1
  8
0
100
AcDbBlockBegin
  2
*Paper_Space
 70
     0
 10
0.0
 20
0.0
 30
0.0
  3
*Paper_Space
  1

  0
ENDBLK
  5
1D
330
1B
100
AcDbEntity
 67
     1
  8
0
100
AcDbBlockEnd
  0
BLOCK
  5
24
330
23
100
AcDbEntity
  8
0
100
AcDbBlockBegin
  2
*Paper_Space0
 70
     0
 10
0.0
 20
0.0
 30
0.0
  3
*Paper_Space0
  1

  0
ENDBLK
  5
25
330
23
100
AcDbEntity
  8
0
100
AcDbBlockEnd
  0
ENDSEC
  0
SECTION
  2
ENTITIES
  0
SPLINE
  5
5F
330
1F
100
AcDbEntity
  8
Camada 1
 62
   250
370
    20
100
AcDbSpline
210
0.0
220
0.0
230
1.0
 70
    11
 71
     3
 72
   144
 73
   140
 74
     0
 42
0.0000000001
 43
0.0000000001
 40
0.0
 40
0.0
 40
0.0
 40
0.0
 40
0.0285714285714286
 40
0.0285714285714286
 40
0.0285714285714286
 40
0.0285714285714286
 40
0.0571428571428571
 40
0.0571428571428571
 40
0.0571428571428571
 40
0.0571428571428571
 40
0.0857142857142857
 40
0.0857142857142857
 40
0.0857142857142857
 40
0.0857142857142857
 40
0.1142857142857143
 40
0.1142857142857143
 40
0.1142857142857143
 40
0.1142857142857143
 40
0.1428571428571428
 40
0.1428571428571428
 40
0.1428571428571428
 40
0.1428571428571428
 40
0.1714285714285714
 40
0.1714285714285714
 40
0.1714285714285714
 40
0.1714285714285714
 40
0.2
 40
0.2
 40
0.2
 40
0.2
 40
0.2285714285714286
 40
0.2285714285714286
 40
0.2285714285714286
 40
0.2285714285714286
 40
0.2571428571428572
 40
0.2571428571428572
 40
0.2571428571428572
 40
0.2571428571428572
 40
0.2857142857142858
 40
0.2857142857142858
 40
0.2857142857142858
 40
0.2857142857142858
 40
0.3142857142857143
 40
0.3142857142857143
 40
0.3142857142857143
 40
0.3142857142857143
 40
0.3428571428571429
 40
0.3428571428571429
 40
0.3428571428571429
 40
0.3428571428571429
 40
0.3714285714285715
 40
0.3714285714285715
 40
0.3714285714285715
 40
0.3714285714285715
 40
0.4000000000000001
 40
0.4000000000000001
 40
0.4000000000000001
 40
0.4000000000000001
 40
0.4285714285714287
 40
0.4285714285714287
 40
0.4285714285714287
 40
0.4285714285714287
 40
0.4571428571428572
 40
0.4571428571428572
 40
0.4571428571428572
 40
0.4571428571428572
 40
0.4857142857142858
 40
0.4857142857142858
 40
0.4857142857142858
 40
0.4857142857142858
 40
0.5142857142857143
 40
0.5142857142857143
 40
0.5142857142857143
 40
0.5142857142857143
 40
0.5428571428571429
 40
0.5428571428571429
 40
0.5428571428571429
 40
0.5428571428571429
 40
0.5714285714285715
 40
0.5714285714285715
 40
0.5714285714285715
 40
0.5714285714285715
 40
0.6000000000000001
 40
0.6000000000000001
 40
0.6000000000000001
 40
0.6000000000000001
 40
0.6285714285714287
 40
0.6285714285714287
 40
0.6285714285714287
 40
0.6285714285714287
 40
0.6571428571428573
 40
0.6571428571428573
 40
0.6571428571428573
 40
0.6571428571428573
 40
0.6857142857142858
 40
0.6857142857142858
 40
0.6857142857142858
 40
0.6857142857142858
 40
0.7142857142857144
 40
0.7142857142857144
 40
0.7142857142857144
 40
0.7142857142857144
 40
0.742857142857143
 40
0.742857142857143
 40
0.742857142857143
 40
0.742857142857143
 40
0.7714285714285716
 40
0.7714285714285716
 40
0.7714285714285716
 40
0.7714285714285716
 40
0.8000000000000002
 40
0.8000000000000002
 40
0.8000000000000002
 40
0.8000000000000002
 40
0.8285714285714287
 40
0.8285714285714287
 40
0.8285714285714287
 40
0.8285714285714287
 40
0.8571428571428573
 40
0.8571428571428573
 40
0.8571428571428573
 40
0.8571428571428573
 40
0.8857142857142859
 40
0.8857142857142859
 40
0.8857142857142859
 40
0.8857142857142859
 40
0.9142857142857145
 40
0.9142857142857145
 40
0.9142857142857145
 40
0.9142857142857145
 40
0.9428571428571431
 40
0.9428571428571431
 40
0.9428571428571431
 40
0.9428571428571431
 40
0.9714285714285716
 40
0.9714285714285716
 40
0.9714285714285716
 40
0.9714285714285716
 40
1.0
 40
1.0
 40
1.0
 40
1.0
 10
391.8867
 20
80.2468
 30
0.0
 10
391.8867
 20
80.2468
 30
0.0
 10
395.7932
 20
78.0256
 30
0.0
 10
395.7932
 20
78.0256
 30
0.0
 10
395.7932
 20
78.0256
 30
0.0
 10
391.0476
 20
72.8331
 30
0.0
 10
385.8399
 20
68.524
 30
0.0
 10
380.0487
 20
64.4848
 30
0.0
 10
380.0487
 20
64.4848
 30
0.0
 10
377.4908
 20
62.7008
 30
0.0
 10
374.9028
 20
60.9693
 30
0.0
 10
372.1479
 20
59.5007
 30
0.0
 10
372.1479
 20
59.5007
 30
0.0
 10
372.1479
 20
59.5007
 30
0.0
 10
369.7389
 20
58.2165
 30
0.0
 10
369.7389
 20
58.2165
 30
0.0
 10
369.7389
 20
58.2165
 30
0.0
 10
366.9526
 20
56.7312
 30
0.0
 10
364.058
 20
55.5648
 30
0.0
 10
360.9834
 20
54.8284
 30
0.0
 10
360.9834
 20
54.8284
 30
0.0
 10
359.8399
 20
54.5545
 30
0.0
 10
358.6873
 20
54.3545
 30
0.0
 10
357.5132
 20
54.274
 30
0.0
 10
357.5132
 20
54.274
 30
0.0
 10
356.3852
 20
54.1966
 30
0.0
 10
355.263
 20
54.2419
 30
0.0
 10
354.1425
 20
54.3896
 30
0.0
 10
354.1425
 20
54.3896
 30
0.0
 10
352.9479
 20
54.5471
 30
0.0
 10
351.7762
 20
54.8118
 30
0.0
 10
350.6188
 20
55.1439
 30
0.0
 10
350.6188
 20
55.1439
 30
0.0
 10
349.3702
 20
55.5022
 30
0.0
 10
348.1476
 20
55.9409
 30
0.0
 10
346.9448
 20
56.4307
 30
0.0
 10
346.9448
 20
56.4307
 30
0.0
 10
344.2621
 20
57.5231
 30
0.0
 10
341.6717
 20
58.8224
 30
0.0
 10
339.1982
 20
60.3303
 30
0.0
 10
339.1982
 20
60.3303
 30
0.0
 10
339.1982
 20
60.3303
 30
0.0
 10
336.7214
 20
61.8402
 30
0.0
 10
336.7214
 20
61.8402
 30
0.0
 10
336.7214
 20
61.8402
 30
0.0
 10
330.9609
 20
65.3519
 30
0.0
 10
321.8521
 20
73.277
 30
0.0
 10
316.7892
 20
77.7182
 30
0.0
 10
316.7892
 20
77.7182
 30
0.0
 10
316.7892
 20
77.7182
 30
0.0
 10
319.9628
 20
80.2468
 30
0.0
 10
319.9628
 20
80.2468
 30
0.0
 10
319.9628
 20
80.2468
 30
0.0
 10
319.9628
 20
80.2468
 30
0.0
 10
302.3893
 20
80.3346
 30
0.0
 10
302.3893
 20
80.3346
 30
0.0
 10
302.3893
 20
80.3346
 30
0.0
 10
302.3893
 20
80.3346
 30
0.0
 10
302.3893
 20
112.7961
 30
0.0
 10
302.3893
 20
112.7961
 30
0.0
 10
302.3893
 20
112.7961
 30
0.0
 10
309.4485
 20
112.7851
 30
0.0
 10
316.5076
 20
112.7741
 30
0.0
 10
323.5667
 20
112.7631
 30
0.0
 10
323.5667
 20
112.7631
 30
0.0
 10
322.8121
 20
113.8846
 30
0.0
 10
321.4591
 20
114.6972
 30
0.0
 10
319.8033
 20
115.3537
 30
0.0
 10
319.8033
 20
115.3537
 30
0.0
 10
319.8033
 20
115.3537
 30
0.0
 10
319.7669
 20
126.5964
 30
0.0
 10
319.7669
 20
126.5964
 30
0.0
 10
319.7669
 20
126.5964
 30
0.0
 10
319.7669
 20
126.5964
 30
0.0
 10
324.015
 20
126.8022
 30
0.0
 10
324.015
 20
126.8022
 30
0.0
 10
324.015
 20
126.8022
 30
0.0
 10
326.4981
 20
126.9225
 30
0.0
 10
328.9741
 20
127.1799
 30
0.0
 10
331.4222
 20
127.6158
 30
0.0
 10
331.4222
 20
127.6158
 30
0.0
 10
333.5941
 20
128.0024
 30
0.0
 10
335.7593
 20
128.4698
 30
0.0
 10
337.8644
 20
129.1354
 30
0.0
 10
337.8644
 20
129.1354
 30
0.0
 10
337.8644
 20
129.1354
 30
0.0
 10
340.1788
 20
129.8672
 30
0.0
 10
340.1788
 20
129.8672
 30
0.0
 10
340.1788
 20
129.8672
 30
0.0
 10
345.0813
 20
131.4173
 30
0.0
 10
349.6526
 20
133.7483
 30
0.0
 10
353.9321
 20
136.5836
 30
0.0
 10
353.9321
 20
136.5836
 30
0.0
 10
353.9321
 20
136.5836
 30
0.0
 10
356.4003
 20
138.2188
 30
0.0
 10
356.4003
 20
138.2188
 30
0.0
 10
356.4003
 20
138.2188
 30
0.0
 10
356.4003
 20
138.2188
 30
0.0
 10
358.8669
 20
136.5811
 30
0.0
 10
358.8669
 20
136.5811
 30
0.0
 10
358.8669
 20
136.5811
 30
0.0
 10
361.8929
 20
134.572
 30
0.0
 10
365.1006
 20
132.861
 30
0.0
 10
368.4472
 20
131.4503
 30
0.0
 10
368.4472
 20
131.4503
 30
0.0
 10
370.5379
 20
130.569
 30
0.0
 10
372.6763
 20
129.804
 30
0.0
 10
374.8518
 20
129.16
 30
0.0
 10
374.8518
 20
129.16
 30
0.0
 10
376.9952
 20
128.5255
 30
0.0
 10
379.1721
 20
128.0077
 30
0.0
 10
381.3729
 20
127.6157
 30
0.0
 10
381.3729
 20
127.6157
 30
0.0
 10
383.8213
 20
127.1796
 30
0.0
 10
386.297
 20
126.9217
 30
0.0
 10
388.7805
 20
126.802
 30
0.0
 10
388.7805
 20
126.802
 30
0.0
 10
388.7805
 20
126.802
 30
0.0
 10
393.0295
 20
126.5971
 30
0.0
 10
393.0295
 20
126.5971
 30
0.0
 10
393.0295
 20
126.5971
 30
0.0
 10
393.0295
 20
126.5971
 30
0.0
 10
392.9635
 20
116.0239
 30
0.0
 10
392.9635
 20
116.0239
 30
0.0
 10
392.9635
 20
116.0239
 30
0.0
 10
391.2769
 20
115.4521
 30
0.0
 10
390.1407
 20
114.3606
 30
0.0
 10
389.5052
 20
112.7961
 30
0.0
 10
389.5052
 20
112.7961
 30
0.0
 10
389.5052
 20
112.7961
 30
0.0
 10
410.3893
 20
112.7961
 30
0.0
 10
410.3893
 20
112.7961
 30
0.0
 10
410.3893
 20
112.7961
 30
0.0
 10
410.3893
 20
112.7961
 30
0.0
 10
410.3893
 20
80.3346
 30
0.0
 10
410.3893
 20
80.3346
 30
0.0
 10
410.3893
 20
80.3346
 30
0.0
 10
410.3893
 20
80.3346
 30
0.0
 10
391.8867
 20
80.2468
 30
0.0
 10
391.8867
 20
80.2468
 30
0.0
  0
SPLINE
  5
60
330
1F
100
AcDbEntity
  8
Camada 1
 62
   250
370
    20
100
AcDbSpline
210
0.0
220
0.0
230
1.0
 70
    11
 71
     3
 72
    44
 73
    40
 74
     0
 42
0.0000000001
 43
0.0000000001
 40
0.0
 40
0.0
 40
0.0
 40
0.0
 40
0.1
 40
0.1
 40
0.1
 40
0.1
 40
0.2
 40
0.2
 40
0.2
 40
0.2
 40
0.3
 40
0.3
 40
0.3
 40
0.3
 40
0.4
 40
0.4
 40
0.4
 40
0.4
 40
0.5
 40
0.5
 40
0.5
 40
0.5
 40
0.6
 40
0.6
 40
0.6
 40
0.6
 40
0.7
 40
0.7
 40
0.7
 40
0.7
 40
0.7999999999999999
 40
0.7999999999999999
 40
0.7999999999999999
 40
0.7999999999999999
 40
0.8999999999999999
 40
0.8999999999999999
 40
0.8999999999999999
 40
0.8999999999999999
 40
1.0
 40
1.0
 40
1.0
 40
1.0
 10
394.4609
 20
89.3051
 30
0.0
 10
394.4609
 20
89.3051
 30
0.0
 10
394.4609
 20
103.9566
 30
0.0
 10
394.4609
 20
103.9566
 30
0.0
 10
394.4609
 20
103.9566
 30
0.0
 10
394.4609
 20
103.9566
 30
0.0
 10
396.9776
 20
103.9566
 30
0.0
 10
396.9776
 20
103.9566
 30
0.0
 10
396.9776
 20
103.9566
 30
0.0
 10
396.9776
 20
103.9566
 30
0.0
 10
398.8037
 20
96.5024
 30
0.0
 10
398.8037
 20
96.5024
 30
0.0
 10
398.8037
 20
96.5024
 30
0.0
 10
398.8037
 20
96.5024
 30
0.0
 10
398.7989
 20
103.9566
 30
0.0
 10
398.7989
 20
103.9566
 30
0.0
 10
398.7989
 20
103.9566
 30
0.0
 10
398.7989
 20
103.9566
 30
0.0
 10
400.8446
 20
103.9566
 30
0.0
 10
400.8446
 20
103.9566
 30
0.0
 10
400.8446
 20
103.9566
 30
0.0
 10
400.8446
 20
103.9566
 30
0.0
 10
400.8446
 20
89.3051
 30
0.0
 10
400.8446
 20
89.3051
 30
0.0
 10
400.8446
 20
89.3051
 30
0.0
 10
400.8446
 20
89.3051
 30
0.0
 10
398.7188
 20
89.3051
 30
0.0
 10
398.7188
 20
89.3051
 30
0.0
 10
398.7188
 20
89.3051
 30
0.0
 10
398.7188
 20
89.3051
 30
0.0
 10
396.6053
 20
95.8714
 30
0.0
 10
396.6053
 20
95.8714
 30
0.0
 10
396.6053
 20
95.8714
 30
0.0
 10
396.6053
 20
95.8714
 30
0.0
 10
396.6478
 20
89.3051
 30
0.0
 10
396.6478
 20
89.3051
 30
0.0
 10
396.6478
 20
89.3051
 30
0.0
 10
396.6478
 20
89.3051
 30
0.0
 10
394.4609
 20
89.3051
 30
0.0
 10
394.4609
 20
89.3051
 30
0.0
  0
SPLINE
  5
61
330
1F
100
AcDbEntity
  8
Camada 1
 62
   250
370
    20
100
AcDbSpline
210
0.0
220
0.0
230
1.0
 70
    11
 71
     3
 72
    44
 73
    40
 74
     0
 42
0.0000000001
 43
0.0000000001
 40
0.0
 40
0.0
 40
0.0
 40
0.0
 40
0.1
 40
0.1
 40
0.1
 40
0.1
 40
0.2
 40
0.2
 40
0.2
 40
0.2
 40
0.3
 40
0.3
 40
0.3
 40
0.3
 40
0.4
 40
0.4
 40
0.4
 40
0.4
 40
0.5
 40
0.5
 40
0.5
 40
0.5
 40
0.6
 40
0.6
 40
0.6
 40
0.6
 40
0.7
 40
0.7
 40
0.7
 40
0.7
 40
0.7999999999999999
 40
0.7999999999999999
 40
0.7999999999999999
 40
0.7999999999999999
 40
0.8999999999999999
 40
0.8999999999999999
 40
0.8999999999999999
 40
0.8999999999999999
 40
1.0
 40
1.0
 40
1.0
 40
1.0
 10
390.1402
 20
101.5209
 30
0.0
 10
390.1402
 20
101.5209
 30
0.0
 10
390.1402
 20
91.7411
 30
0.0
 10
390.1402
 20
91.7411
 30
0.0
 10
390.1402
 20
91.7411
 30
0.0
 10
390.1402
 20
91.4778
 30
0.0
 10
390.19
 20
91.2906
 30
0.0
 10
390.294
 20
91.1762
 30
0.0
 10
390.294
 20
91.1762
 30
0.0
 10
390.394
 20
91.0653
 30
0.0
 10
390.5614
 20
91.0101
 30
0.0
 10
390.7927
 20
91.0101
 30
0.0
 10
390.7927
 20
91.0101
 30
0.0
 10
391.0423
 20
91.0101
 30
0.0
 10
391.2189
 20
91.0688
 30
0.0
 10
391.3186
 20
91.1832
 30
0.0
 10
391.3186
 20
91.1832
 30
0.0
 10
391.4223
 20
91.2978
 30
0.0
 10
391.4729
 20
91.4847
 30
0.0
 10
391.4729
 20
91.7411
 30
0.0
 10
391.4729
 20
91.7411
 30
0.0
 10
391.4729
 20
91.7411
 30
0.0
 10
391.4729
 20
101.5209
 30
0.0
 10
391.4729
 20
101.5209
 30
0.0
 10
391.4729
 20
101.5209
 30
0.0
 10
391.4729
 20
101.7839
 30
0.0
 10
391.4223
 20
101.9712
 30
0.0
 10
391.3186
 20
102.0783
 30
0.0
 10
391.3186
 20
102.0783
 30
0.0
 10
391.2189
 20
102.186
 30
0.0
 10
391.0423
 20
102.2414
 30
0.0
 10
390.7927
 20
102.2414
 30
0.0
 10
390.7927
 20
102.2414
 30
0.0
 10
390.5614
 20
102.2414
 30
0.0
 10
390.394
 20
102.1825
 30
0.0
 10
390.294
 20
102.0681
 30
0.0
 10
390.294
 20
102.0681
 30
0.0
 10
390.19
 20
101.9538
 30
0.0
 10
390.1402
 20
101.77
 30
0.0
 10
390.1402
 20
101.5209
 30
0.0
  0
SPLINE
  5
62
330
1F
100
AcDbEntity
  8
Camada 1
 62
   250
370
    20
100
AcDbSpline
210
0.0
220
0.0
230
1.0
 70
    11
 71
     3
 72
    44
 73
    40
 74
     0
 42
0.0000000001
 43
0.0000000001
 40
0.0
 40
0.0
 40
0.0
 40
0.0
 40
0.1
 40
0.1
 40
0.1
 40
0.1
 40
0.2
 40
0.2
 40
0.2
 40
0.2
 40
0.3
 40
0.3
 40
0.3
 40
0.3
 40
0.4
 40
0.4
 40
0.4
 40
0.4
 40
0.5
 40
0.5
 40
0.5
 40
0.5
 40
0.6
 40
0.6
 40
0.6
 40
0.6
 40
0.7
 40
0.7
 40
0.7
 40
0.7
 40
0.7999999999999999
 40
0.7999999999999999
 40
0.7999999999999999
 40
0.7999999999999999
 40
0.8999999999999999
 40
0.8999999999999999
 40
0.8999999999999999
 40
0.8999999999999999
 40
1.0
 40
1.0
 40
1.0
 40
1.0
 10
388.0603
 20
100.4914
 30
0.0
 10
388.0603
 20
101.8542
 30
0.0
 10
388.2728
 20
102.8276
 30
0.0
 10
388.6975
 20
103.4073
 30
0.0
 10
388.6975
 20
103.4073
 30
0.0
 10
389.1255
 20
103.9872
 30
0.0
 10
389.8286
 20
104.2754
 30
0.0
 10
390.8069
 20
104.2754
 30
0.0
 10
390.8069
 20
104.2754
 30
0.0
 10
391.7844
 20
104.2754
 30
0.0
 10
392.4873
 20
103.9907
 30
0.0
 10
392.9153
 20
103.4175
 30
0.0
 10
392.9153
 20
103.4175
 30
0.0
 10
393.3403
 20
102.8445
 30
0.0
 10
393.5532
 20
101.8679
 30
0.0
 10
393.5532
 20
100.4914
 30
0.0
 10
393.5532
 20
100.4914
 30
0.0
 10
393.5532
 20
100.4914
 30
0.0
 10
393.5532
 20
92.7604
 30
0.0
 10
393.5532
 20
92.7604
 30
0.0
 10
393.5532
 20
92.7604
 30
0.0
 10
393.5532
 20
91.3903
 30
0.0
 10
393.3403
 20
90.4172
 30
0.0
 10
392.9178
 20
89.8407
 30
0.0
 10
392.9178
 20
89.8407
 30
0.0
 10
392.4961
 20
89.2643
 30
0.0
 10
391.79
 20
88.9762
 30
0.0
 10
390.8069
 20
88.9762
 30
0.0
 10
390.8069
 20
88.9762
 30
0.0
 10
389.8233
 20
88.9762
 30
0.0
 10
389.1172
 20
89.2643
 30
0.0
 10
388.6954
 20
89.8407
 30
0.0
 10
388.6954
 20
89.8407
 30
0.0
 10
388.2728
 20
90.4172
 30
0.0
 10
388.0603
 20
91.3903
 30
0.0
 10
388.0603
 20
92.7604
 30
0.0
 10
388.0603
 20
92.7604
 30
0.0
 10
388.0603
 20
92.7604
 30
0.0
 10
388.0603
 20
100.4914
 30
0.0
 10
388.0603
 20
100.4914
 30
0.0
  0
SPLINE
  5
63
330
1F
100
AcDbEntity
  8
Camada 1
 62
   250
370
    20
100
AcDbSpline
210
0.0
220
0.0
230
1.0
 70
    11
 71
     3
 72
   136
 73
   132
 74
     0
 42
0.0000000001
 43
0.0000000001
 40
0.0
 40
0.0
 40
0.0
 40
0.0
 40
0.0303030303030303
 40
0.0303030303030303
 40
0.0303030303030303
 40
0.0303030303030303
 40
0.0606060606060606
 40
0.0606060606060606
 40
0.0606060606060606
 40
0.0606060606060606
 40
0.0909090909090909
 40
0.0909090909090909
 40
0.0909090909090909
 40
0.0909090909090909
 40
0.1212121212121212
 40
0.1212121212121212
 40
0.1212121212121212
 40
0.1212121212121212
 40
0.1515151515151515
 40
0.1515151515151515
 40
0.1515151515151515
 40
0.1515151515151515
 40
0.1818181818181818
 40
0.1818181818181818
 40
0.1818181818181818
 40
0.1818181818181818
 40
0.2121212121212121
 40
0.2121212121212121
 40
0.2121212121212121
 40
0.2121212121212121
 40
0.2424242424242424
 40
0.2424242424242424
 40
0.2424242424242424
 40
0.2424242424242424
 40
0.2727272727272727
 40
0.2727272727272727
 40
0.2727272727272727
 40
0.2727272727272727
 40
0.303030303030303
 40
0.303030303030303
 40
0.303030303030303
 40
0.303030303030303
 40
0.3333333333333333
 40
0.3333333333333333
 40
0.3333333333333333
 40
0.3333333333333333
 40
0.3636363636363635
 40
0.3636363636363635
 40
0.3636363636363635
 40
0.3636363636363635
 40
0.3939393939393938
 40
0.3939393939393938
 40
0.3939393939393938
 40
0.3939393939393938
 40
0.4242424242424241
 40
0.4242424242424241
 40
0.4242424242424241
 40
0.4242424242424241
 40
0.4545454545454544
 40
0.4545454545454544
 40
0.4545454545454544
 40
0.4545454545454544
 40
0.4848484848484846
 40
0.4848484848484846
 40
0.4848484848484846
 40
0.4848484848484846
 40
0.5151515151515149
 40
0.5151515151515149
 40
0.5151515151515149
 40
0.5151515151515149
 40
0.5454545454545452
 40
0.5454545454545452
 40
0.5454545454545452
 40
0.5454545454545452
 40
0.5757575757575755
 40
0.5757575757575755
 40
0.5757575757575755
 40
0.5757575757575755
 40
0.6060606060606057
 40
0.6060606060606057
 40
0.6060606060606057
 40
0.6060606060606057
 40
0.636363636363636
 40
0.636363636363636
 40
0.636363636363636
 40
0.636363636363636
 40
0.6666666666666663
 40
0.6666666666666663
 40
0.6666666666666663
 40
0.6666666666666663
 40
0.6969696969696966
 40
0.6969696969696966
 40
0.6969696969696966
 40
0.6969696969696966
 40
0.7272727272727268
 40
0.7272727272727268
 40
0.7272727272727268
 40
0.7272727272727268
 40
0.7575757575757571
 40
0.7575757575757571
 40
0.7575757575757571
 40
0.7575757575757571
 40
0.7878787878787874
 40
0.7878787878787874
 40
0.7878787878787874
 40
0.7878787878787874
 40
0.8181818181818177
 40
0.8181818181818177
 40
0.8181818181818177
 40
0.8181818181818177
 40
0.848484848484848
 40
0.848484848484848
 40
0.848484848484848
 40
0.848484848484848
 40
0.8787878787878782
 40
0.8787878787878782
 40
0.8787878787878782
 40
0.8787878787878782
 40
0.9090909090909085
 40
0.9090909090909085
 40
0.9090909090909085
 40
0.9090909090909085
 40
0.9393939393939388
 40
0.9393939393939388
 40
0.9393939393939388
 40
0.9393939393939388
 40
0.9696969696969691
 40
0.9696969696969691
 40
0.9696969696969691
 40
0.9696969696969691
 40
1.0
 40
1.0
 40
1.0
 40
1.0
 10
381.2852
 20
101.3253
 30
0.0
 10
381.2852
 20
102.2579
 30
0.0
 10
381.536
 20
102.9835
 30
0.0
 10
382.0399
 20
103.5024
 30
0.0
 10
382.0399
 20
103.5024
 30
0.0
 10
382.5442
 20
104.0176
 30
0.0
 10
383.2501
 20
104.2754
 30
0.0
 10
384.1557
 20
104.2754
 30
0.0
 10
384.1557
 20
104.2754
 30
0.0
 10
385.0669
 20
104.2754
 30
0.0
 10
385.7702
 20
104.0144
 30
0.0
 10
386.2655
 20
103.4955
 30
0.0
 10
386.2655
 20
103.4955
 30
0.0
 10
386.761
 20
102.9765
 30
0.0
 10
387.009
 20
102.2307
 30
0.0
 10
387.009
 20
101.2646
 30
0.0
 10
387.009
 20
101.2646
 30
0.0
 10
387.009
 20
101.2646
 30
0.0
 10
387.009
 20
98.8706
 30
0.0
 10
387.009
 20
98.8706
 30
0.0
 10
387.009
 20
98.8706
 30
0.0
 10
387.009
 20
98.8706
 30
0.0
 10
384.7417
 20
98.8706
 30
0.0
 10
384.7417
 20
98.8706
 30
0.0
 10
384.7417
 20
98.8706
 30
0.0
 10
384.7417
 20
98.8706
 30
0.0
 10
384.7417
 20
101.2358
 30
0.0
 10
384.7417
 20
101.2358
 30
0.0
 10
384.7417
 20
101.2358
 30
0.0
 10
384.7417
 20
101.5002
 30
0.0
 10
384.7115
 20
101.6847
 30
0.0
 10
384.6503
 20
101.7884
 30
0.0
 10
384.6503
 20
101.7884
 30
0.0
 10
384.5343
 20
101.9844
 30
0.0
 10
383.9564
 20
102.0043
 30
0.0
 10
383.8254
 20
101.7784
 30
0.0
 10
383.8254
 20
101.7784
 30
0.0
 10
383.7604
 20
101.6666
 30
0.0
 10
383.7284
 20
101.4859
 30
0.0
 10
383.7284
 20
101.2358
 30
0.0
 10
383.7284
 20
101.2358
 30
0.0
 10
383.7284
 20
101.2358
 30
0.0
 10
383.7284
 20
99.3663
 30
0.0
 10
383.7284
 20
99.3663
 30
0.0
 10
383.7284
 20
99.3663
 30
0.0
 10
383.7284
 20
99.1464
 30
0.0
 10
383.7509
 20
98.9555
 30
0.0
 10
383.7996
 20
98.7931
 30
0.0
 10
383.7996
 20
98.7931
 30
0.0
 10
383.8472
 20
98.6337
 30
0.0
 10
383.8975
 20
98.4498
 30
0.0
 10
384.0304
 20
98.322
 30
0.0
 10
384.0304
 20
98.322
 30
0.0
 10
384.0304
 20
98.322
 30
0.0
 10
386.391
 20
96.0391
 30
0.0
 10
386.391
 20
96.0391
 30
0.0
 10
386.391
 20
96.0391
 30
0.0
 10
386.6499
 20
95.789
 30
0.0
 10
386.7726
 20
95.4522
 30
0.0
 10
386.8663
 20
95.1337
 30
0.0
 10
386.8663
 20
95.1337
 30
0.0
 10
386.9603
 20
94.8152
 30
0.0
 10
387.009
 20
94.3097
 30
0.0
 10
387.009
 20
93.6147
 30
0.0
 10
387.009
 20
93.6147
 30
0.0
 10
387.009
 20
93.6147
 30
0.0
 10
387.009
 20
91.9058
 30
0.0
 10
387.009
 20
91.9058
 30
0.0
 10
387.009
 20
91.9058
 30
0.0
 10
387.009
 20
90.9665
 30
0.0
 10
386.761
 20
90.2407
 30
0.0
 10
386.263
 20
89.7357
 30
0.0
 10
386.263
 20
89.7357
 30
0.0
 10
385.7644
 20
89.2304
 30
0.0
 10
385.0553
 20
88.9762
 30
0.0
 10
384.1385
 20
88.9762
 30
0.0
 10
384.1385
 20
88.9762
 30
0.0
 10
383.199
 20
88.9762
 30
0.0
 10
382.4866
 20
89.2406
 30
0.0
 10
382.0058
 20
89.7695
 30
0.0
 10
382.0058
 20
89.7695
 30
0.0
 10
381.5246
 20
90.2982
 30
0.0
 10
381.2852
 20
91.0818
 30
0.0
 10
381.2852
 20
92.1125
 30
0.0
 10
381.2852
 20
92.1125
 30
0.0
 10
381.2852
 20
92.1125
 30
0.0
 10
381.2852
 20
94.4076
 30
0.0
 10
381.2852
 20
94.4076
 30
0.0
 10
381.2852
 20
94.4076
 30
0.0
 10
381.2852
 20
94.4076
 30
0.0
 10
383.582
 20
94.4076
 30
0.0
 10
383.582
 20
94.4076
 30
0.0
 10
383.582
 20
94.4076
 30
0.0
 10
383.582
 20
94.4076
 30
0.0
 10
383.582
 20
91.9058
 30
0.0
 10
383.582
 20
91.9058
 30
0.0
 10
383.582
 20
91.9058
 30
0.0
 10
383.582
 20
90.8698
 30
0.0
 10
384.7709
 20
91.1913
 30
0.0
 10
384.7709
 20
91.9058
 30
0.0
 10
384.7709
 20
91.9058
 30
0.0
 10
384.7709
 20
91.9058
 30
0.0
 10
384.7709
 20
93.4554
 30
0.0
 10
384.7709
 20
93.4554
 30
0.0
 10
384.7709
 20
93.4554
 30
0.0
 10
384.7709
 20
93.6655
 30
0.0
 10
384.7373
 20
93.8653
 30
0.0
 10
384.6739
 20
94.0453
 30
0.0
 10
384.6739
 20
94.0453
 30
0.0
 10
384.6097
 20
94.2276
 30
0.0
 10
384.5197
 20
94.4422
 30
0.0
 10
384.3434
 20
94.6387
 30
0.0
 10
384.3434
 20
94.6387
 30
0.0
 10
384.3434
 20
94.6387
 30
0.0
 10
381.9204
 20
97.3307
 30
0.0
 10
381.9204
 20
97.3307
 30
0.0
 10
381.9204
 20
97.3307
 30
0.0
 10
381.6664
 20
97.6133
 30
0.0
 10
381.5272
 20
97.9411
 30
0.0
 10
381.4305
 20
98.2498
 30
0.0
 10
381.4305
 20
98.2498
 30
0.0
 10
381.3335
 20
98.5583
 30
0.0
 10
381.2852
 20
99.267
 30
0.0
 10
381.2852
 20
99.786
 30
0.0
 10
381.2852
 20
99.786
 30
0.0
 10
381.2852
 20
99.786
 30
0.0
 10
381.2852
 20
100.0028
 30
0.0
 10
381.2852
 20
100.0028
 30
0.0
 10
381.2852
 20
100.0028
 30
0.0
 10
381.2852
 20
100.0028
 30
0.0
 10
381.2852
 20
101.3253
 30
0.0
 10
381.2852
 20
101.3253
 30
0.0
  0
SPLINE
  5
64
330
1F
100
AcDbEntity
  8
Camada 1
 62
   250
370
    20
100
AcDbSpline
210
0.0
220
0.0
230
1.0
 70
    11
 71
     3
 72
    20
 73
    16
 74
     0
 42
0.0000000001
 43
0.0000000001
 40
0.0
 40
0.0
 40
0.0
 40
0.0
 40
0.25
 40
0.25
 40
0.25
 40
0.25
 40
0.5
 40
0.5
 40
0.5
 40
0.5
 40
0.75
 40
0.75
 40
0.75
 40
0.75
 40
1.0
 40
1.0
 40
1.0
 40
1.0
 10
371.7469
 20
89.3051
 30
0.0
 10
371.7469
 20
89.3051
 30
0.0
 10
371.7469
 20
103.9566
 30
0.0
 10
371.7469
 20
103.9566
 30
0.0
 10
371.7469
 20
103.9566
 30
0.0
 10
371.7469
 20
103.9566
 30
0.0
 10
373.9992
 20
103.9566
 30
0.0
 10
373.9992
 20
103.9566
 30
0.0
 10
373.9992
 20
103.9566
 30
0.0
 10
373.9992
 20
103.9566
 30
0.0
 10
373.9992
 20
89.3051
 30
0.0
 10
373.9992
 20
89.3051
 30
0.0
 10
373.9992
 20
89.3051
 30
0.0
 10
373.9992
 20
89.3051
 30
0.0
 10
371.7469
 20
89.3051
 30
0.0
 10
371.7469
 20
89.3051
 30
0.0
  0
SPLINE
  5
65
330
1F
100
AcDbEntity
  8
Camada 1
 62
   250
370
    20
100
AcDbSpline
210
0.0
220
0.0
230
1.0
 70
    11
 71
     3
 72
    36
 73
    32
 74
     0
 42
0.0000000001
 43
0.0000000001
 40
0.0
 40
0.0
 40
0.0
 40
0.0
 40
0.125
 40
0.125
 40
0.125
 40
0.125
 40
0.25
 40
0.25
 40
0.25
 40
0.25
 40
0.375
 40
0.375
 40
0.375
 40
0.375
 40
0.5
 40
0.5
 40
0.5
 40
0.5
 40
0.625
 40
0.625
 40
0.625
 40
0.625
 40
0.75
 40
0.75
 40
0.75
 40
0.75
 40
0.875
 40
0.875
 40
0.875
 40
0.875
 40
1.0
 40
1.0
 40
1.0
 40
1.0
 10
367.0007
 20
89.3051
 30
0.0
 10
367.0007
 20
89.3051
 30
0.0
 10
365.1062
 20
103.9566
 30
0.0
 10
365.1062
 20
103.9566
 30
0.0
 10
365.1062
 20
103.9566
 30
0.0
 10
365.1062
 20
103.9566
 30
0.0
 10
367.2675
 20
103.9566
 30
0.0
 10
367.2675
 20
103.9566
 30
0.0
 10
367.2675
 20
103.9566
 30
0.0
 10
367.2675
 20
103.9566
 30
0.0
 10
368.0144
 20
94.8041
 30
0.0
 10
368.0144
 20
94.8041
 30
0.0
 10
368.0144
 20
94.8041
 30
0.0
 10
368.0144
 20
94.8041
 30
0.0
 10
368.0713
 20
94.8041
 30
0.0
 10
368.0713
 20
94.8041
 30
0.0
 10
368.0713
 20
94.8041
 30
0.0
 10
368.0713
 20
94.8041
 30
0.0
 10
368.9679
 20
103.9566
 30
0.0
 10
368.9679
 20
103.9566
 30
0.0
 10
368.9679
 20
103.9566
 30
0.0
 10
368.9679
 20
103.9566
 30
0.0
 10
371.0484
 20
103.9566
 30
0.0
 10
371.0484
 20
103.9566
 30
0.0
 10
371.0484
 20
103.9566
 30
0.0
 10
371.0484
 20
103.9566
 30
0.0
 10
369.2697
 20
89.3051
 30
0.0
 10
369.2697
 20
89.3051
 30
0.0
 10
369.2697
 20
89.3051
 30
0.0
 10
369.2697
 20
89.3051
 30
0.0
 10
367.0007
 20
89.3051
 30
0.0
 10
367.0007
 20
89.3051
 30
0.0
  0
SPLINE
  5
66
330
1F
100
AcDbEntity
  8
Camada 1
 62
   250
370
    20
100
AcDbSpline
210
0.0
220
0.0
230
1.0
 70
    11
 71
     3
 72
    20
 73
    16
 74
     0
 42
0.0000000001
 43
0.0000000001
 40
0.0
 40
0.0
 40
0.0
 40
0.0
 40
0.25
 40
0.25
 40
0.25
 40
0.25
 40
0.5
 40
0.5
 40
0.5
 40
0.5
 40
0.75
 40
0.75
 40
0.75
 40
0.75
 40
1.0
 40
1.0
 40
1.0
 40
1.0
 10
348.4827
 20
95.239
 30
0.0
 10
348.4827
 20
95.239
 30
0.0
 10
348.4827
 20
97.2363
 30
0.0
 10
348.4827
 20
97.2363
 30
0.0
 10
348.4827
 20
97.2363
 30
0.0
 10
348.4827
 20
97.2363
 30
0.0
 10
351.9739
 20
97.2363
 30
0.0
 10
351.9739
 20
97.2363
 30
0.0
 10
351.9739
 20
97.2363
 30
0.0
 10
351.9739
 20
97.2363
 30
0.0
 10
351.9739
 20
95.239
 30
0.0
 10
351.9739
 20
95.239
 30
0.0
 10
351.9739
 20
95.239
 30
0.0
 10
351.9739
 20
95.239
 30
0.0
 10
348.4827
 20
95.239
 30
0.0
 10
348.4827
 20
95.239
 30
0.0
  0
SPLINE
  5
67
330
1F
100
AcDbEntity
  8
Camada 1
 62
   250
370
    20
100
AcDbSpline
210
0.0
220
0.0
230
1.0
 70
    11
 71
     3
 72
    44
 73
    40
 74
     0
 42
0.0000000001
 43
0.0000000001
 40
0.0
 40
0.0
 40
0.0
 40
0.0
 40
0.1
 40
0.1
 40
0.1
 40
0.1
 40
0.2
 40
0.2
 40
0.2
 40
0.2
 40
0.3
 40
0.3
 40
0.3
 40
0.3
 40
0.4
 40
0.4
 40
0.4
 40
0.4
 40
0.5
 40
0.5
 40
0.5
 40
0.5
 40
0.6
 40
0.6
 40
0.6
 40
0.6
 40
0.7
 40
0.7
 40
0.7
 40
0.7
 40
0.7999999999999999
 40
0.7999999999999999
 40
0.7999999999999999
 40
0.7999999999999999
 40
0.8999999999999999
 40
0.8999999999999999
 40
0.8999999999999999
 40
0.8999999999999999
 40
1.0
 40
1.0
 40
1.0
 40
1.0
 10
344.4637
 20
89.3051
 30
0.0
 10
344.4637
 20
89.3051
 30
0.0
 10
344.4637
 20
94.859
 30
0.0
 10
344.4637
 20
94.859
 30
0.0
 10
344.4637
 20
94.859
 30
0.0
 10
344.4637
 20
94.859
 30
0.0
 10
342.6044
 20
103.9566
 30
0.0
 10
342.6044
 20
103.9566
 30
0.0
 10
342.6044
 20
103.9566
 30
0.0
 10
342.6044
 20
103.9566
 30
0.0
 10
344.6326
 20
103.9566
 30
0.0
 10
344.6326
 20
103.9566
 30
0.0
 10
344.6326
 20
103.9566
 30
0.0
 10
344.6326
 20
103.9566
 30
0.0
 10
345.4893
 20
98.2533
 30
0.0
 10
345.4893
 20
98.2533
 30
0.0
 10
345.4893
 20
98.2533
 30
0.0
 10
345.4893
 20
98.2533
 30
0.0
 10
345.589
 20
98.2533
 30
0.0
 10
345.589
 20
98.2533
 30
0.0
 10
345.589
 20
98.2533
 30
0.0
 10
345.589
 20
98.2533
 30
0.0
 10
346.4257
 20
103.9566
 30
0.0
 10
346.4257
 20
103.9566
 30
0.0
 10
346.4257
 20
103.9566
 30
0.0
 10
346.4257
 20
103.9566
 30
0.0
 10
348.4219
 20
103.9566
 30
0.0
 10
348.4219
 20
103.9566
 30
0.0
 10
348.4219
 20
103.9566
 30
0.0
 10
348.4219
 20
103.9566
 30
0.0
 10
346.6141
 20
94.859
 30
0.0
 10
346.6141
 20
94.859
 30
0.0
 10
346.6141
 20
94.859
 30
0.0
 10
346.6141
 20
94.859
 30
0.0
 10
346.6141
 20
89.3051
 30
0.0
 10
346.6141
 20
89.3051
 30
0.0
 10
346.6141
 20
89.3051
 30
0.0
 10
346.6141
 20
89.3051
 30
0.0
 10
344.4637
 20
89.3051
 30
0.0
 10
344.4637
 20
89.3051
 30
0.0
  0
SPLINE
  5
68
330
1F
100
AcDbEntity
  8
Camada 1
 62
   250
370
    20
100
AcDbSpline
210
0.0
220
0.0
230
1.0
 70
    11
 71
     3
 72
    52
 73
    48
 74
     0
 42
0.0000000001
 43
0.0000000001
 40
0.0
 40
0.0
 40
0.0
 40
0.0
 40
0.0833333333333333
 40
0.0833333333333333
 40
0.0833333333333333
 40
0.0833333333333333
 40
0.1666666666666667
 40
0.1666666666666667
 40
0.1666666666666667
 40
0.1666666666666667
 40
0.25
 40
0.25
 40
0.25
 40
0.25
 40
0.3333333333333333
 40
0.3333333333333333
 40
0.3333333333333333
 40
0.3333333333333333
 40
0.4166666666666666
 40
0.4166666666666666
 40
0.4166666666666666
 40
0.4166666666666666
 40
0.4999999999999999
 40
0.4999999999999999
 40
0.4999999999999999
 40
0.4999999999999999
 40
0.5833333333333333
 40
0.5833333333333333
 40
0.5833333333333333
 40
0.5833333333333333
 40
0.6666666666666666
 40
0.6666666666666666
 40
0.6666666666666666
 40
0.6666666666666666
 40
0.75
 40
0.75
 40
0.75
 40
0.75
 40
0.8333333333333334
 40
0.8333333333333334
 40
0.8333333333333334
 40
0.8333333333333334
 40
0.9166666666666667
 40
0.9166666666666667
 40
0.9166666666666667
 40
0.9166666666666667
 40
1.0
 40
1.0
 40
1.0
 40
1.0
 10
337.346
 20
89.3051
 30
0.0
 10
337.346
 20
89.3051
 30
0.0
 10
337.346
 20
103.9566
 30
0.0
 10
337.346
 20
103.9566
 30
0.0
 10
337.346
 20
103.9566
 30
0.0
 10
337.346
 20
103.9566
 30
0.0
 10
341.9247
 20
103.9566
 30
0.0
 10
341.9247
 20
103.9566
 30
0.0
 10
341.9247
 20
103.9566
 30
0.0
 10
341.9247
 20
103.9566
 30
0.0
 10
341.9247
 20
101.9187
 30
0.0
 10
341.9247
 20
101.9187
 30
0.0
 10
341.9247
 20
101.9187
 30
0.0
 10
341.9247
 20
101.9187
 30
0.0
 10
339.6514
 20
101.9187
 30
0.0
 10
339.6514
 20
101.9187
 30
0.0
 10
339.6514
 20
101.9187
 30
0.0
 10
339.6514
 20
101.9187
 30
0.0
 10
339.6514
 20
98.0478
 30
0.0
 10
339.6514
 20
98.0478
 30
0.0
 10
339.6514
 20
98.0478
 30
0.0
 10
339.6514
 20
98.0478
 30
0.0
 10
341.8735
 20
98.0478
 30
0.0
 10
341.8735
 20
98.0478
 30
0.0
 10
341.8735
 20
98.0478
 30
0.0
 10
341.8735
 20
98.0478
 30
0.0
 10
341.8735
 20
95.4111
 30
0.0
 10
341.8735
 20
95.4111
 30
0.0
 10
341.8735
 20
95.4111
 30
0.0
 10
341.8735
 20
95.4111
 30
0.0
 10
339.6514
 20
95.4111
 30
0.0
 10
339.6514
 20
95.4111
 30
0.0
 10
339.6514
 20
95.4111
 30
0.0
 10
339.6514
 20
95.4111
 30
0.0
 10
339.6514
 20
91.5191
 30
0.0
 10
339.6514
 20
91.5191
 30
0.0
 10
339.6514
 20
91.5191
 30
0.0
 10
339.6514
 20
91.5191
 30
0.0
 10
341.9247
 20
91.5191
 30
0.0
 10
341.9247
 20
91.5191
 30
0.0
 10
341.9247
 20
91.5191
 30
0.0
 10
341.9247
 20
91.5191
 30
0.0
 10
341.9247
 20
89.3051
 30
0.0
 10
341.9247
 20
89.3051
 30
0.0
 10
341.9247
 20
89.3051
 30
0.0
 10
341.9247
 20
89.3051
 30
0.0
 10
337.346
 20
89.3051
 30
0.0
 10
337.346
 20
89.3051
 30
0.0
  0
SPLINE
  5
69
330
1F
100
AcDbEntity
  8
Camada 1
 62
   250
370
    20
100
AcDbSpline
210
0.0
220
0.0
230
1.0
 70
    11
 71
     3
 72
    28
 73
    24
 74
     0
 42
0.0000000001
 43
0.0000000001
 40
0.0
 40
0.0
 40
0.0
 40
0.0
 40
0.1666666666666667
 40
0.1666666666666667
 40
0.1666666666666667
 40
0.1666666666666667
 40
0.3333333333333333
 40
0.3333333333333333
 40
0.3333333333333333
 40
0.3333333333333333
 40
0.5
 40
0.5
 40
0.5
 40
0.5
 40
0.6666666666666666
 40
0.6666666666666666
 40
0.6666666666666666
 40
0.6666666666666666
 40
0.8333333333333333
 40
0.8333333333333333
 40
0.8333333333333333
 40
0.8333333333333333
 40
1.0
 40
1.0
 40
1.0
 40
1.0
 10
332.1178
 20
89.3051
 30
0.0
 10
332.1178
 20
89.3051
 30
0.0
 10
332.1178
 20
103.9566
 30
0.0
 10
332.1178
 20
103.9566
 30
0.0
 10
332.1178
 20
103.9566
 30
0.0
 10
332.1178
 20
103.9566
 30
0.0
 10
334.3719
 20
103.9566
 30
0.0
 10
334.3719
 20
103.9566
 30
0.0
 10
334.3719
 20
103.9566
 30
0.0
 10
334.3719
 20
103.9566
 30
0.0
 10
334.3719
 20
91.5191
 30
0.0
 10
334.3719
 20
91.5191
 30
0.0
 10
334.3719
 20
91.5191
 30
0.0
 10
334.3719
 20
91.5191
 30
0.0
 10
336.6967
 20
91.5191
 30
0.0
 10
336.6967
 20
91.5191
 30
0.0
 10
336.6967
 20
91.5191
 30
0.0
 10
336.6967
 20
91.5191
 30
0.0
 10
336.6967
 20
89.3051
 30
0.0
 10
336.6967
 20
89.3051
 30
0.0
 10
336.6967
 20
89.3051
 30
0.0
 10
336.6967
 20
89.3051
 30
0.0
 10
332.1178
 20
89.3051
 30
0.0
 10
332.1178
 20
89.3051
 30
0.0
  0
SPLINE
  5
6A
330
1F
100
AcDbEntity
  8
Camada 1
 62
   250
370
    20
100
AcDbSpline
210
0.0
220
0.0
230
1.0
 70
    11
 71
     3
 72
    60
 73
    56
 74
     0
 42
0.0000000001
 43
0.0000000001
 40
0.0
 40
0.0
 40
0.0
 40
0.0
 40
0.0714285714285714
 40
0.0714285714285714
 40
0.0714285714285714
 40
0.0714285714285714
 40
0.1428571428571428
 40
0.1428571428571428
 40
0.1428571428571428
 40
0.1428571428571428
 40
0.2142857142857143
 40
0.2142857142857143
 40
0.2142857142857143
 40
0.2142857142857143
 40
0.2857142857142857
 40
0.2857142857142857
 40
0.2857142857142857
 40
0.2857142857142857
 40
0.3571428571428571
 40
0.3571428571428571
 40
0.3571428571428571
 40
0.3571428571428571
 40
0.4285714285714285
 40
0.4285714285714285
 40
0.4285714285714285
 40
0.4285714285714285
 40
0.4999999999999999
 40
0.4999999999999999
 40
0.4999999999999999
 40
0.4999999999999999
 40
0.5714285714285713
 40
0.5714285714285713
 40
0.5714285714285713
 40
0.5714285714285713
 40
0.6428571428571427
 40
0.6428571428571427
 40
0.6428571428571427
 40
0.6428571428571427
 40
0.7142857142857141
 40
0.7142857142857141
 40
0.7142857142857141
 40
0.7142857142857141
 40
0.7857142857142855
 40
0.7857142857142855
 40
0.7857142857142855
 40
0.7857142857142855
 40
0.8571428571428569
 40
0.8571428571428569
 40
0.8571428571428569
 40
0.8571428571428569
 40
0.9285714285714283
 40
0.9285714285714283
 40
0.9285714285714283
 40
0.9285714285714283
 40
1.0
 40
1.0
 40
1.0
 40
1.0
 10
325.49
 20
89.3051
 30
0.0
 10
325.49
 20
89.3051
 30
0.0
 10
325.49
 20
103.9566
 30
0.0
 10
325.49
 20
103.9566
 30
0.0
 10
325.49
 20
103.9566
 30
0.0
 10
325.49
 20
103.9566
 30
0.0
 10
328.3603
 20
103.9566
 30
0.0
 10
328.3603
 20
103.9566
 30
0.0
 10
328.3603
 20
103.9566
 30
0.0
 10
329.3624
 20
103.9566
 30
0.0
 10
330.0871
 20
103.7469
 30
0.0
 10
330.5387
 20
103.3261
 30
0.0
 10
330.5387
 20
103.3261
 30
0.0
 10
330.9885
 20
102.9069
 30
0.0
 10
331.3237
 20
102.2296
 30
0.0
 10
331.3237
 20
101.3049
 30
0.0
 10
331.3237
 20
101.3049
 30
0.0
 10
331.3237
 20
101.3049
 30
0.0
 10
331.3237
 20
98.5971
 30
0.0
 10
331.3237
 20
98.5971
 30
0.0
 10
331.3237
 20
98.5971
 30
0.0
 10
331.3237
 20
97.9067
 30
0.0
 10
331.5158
 20
96.8067
 30
0.0
 10
330.326
 20
96.6033
 30
0.0
 10
330.326
 20
96.6033
 30
0.0
 10
331.2546
 20
96.4056
 30
0.0
 10
331.3207
 20
95.4689
 30
0.0
 10
331.3207
 20
94.7714
 30
0.0
 10
331.3207
 20
94.7714
 30
0.0
 10
331.3207
 20
94.7714
 30
0.0
 10
331.3182
 20
89.3051
 30
0.0
 10
331.3182
 20
89.3051
 30
0.0
 10
331.3182
 20
89.3051
 30
0.0
 10
331.3182
 20
89.3051
 30
0.0
 10
329.3431
 20
89.3051
 30
0.0
 10
329.3431
 20
89.3051
 30
0.0
 10
329.3431
 20
89.3051
 30
0.0
 10
329.3431
 20
89.3051
 30
0.0
 10
329.3717
 20
93.7242
 30
0.0
 10
329.3717
 20
93.7242
 30
0.0
 10
329.3717
 20
93.7242
 30
0.0
 10
329.3791
 20
94.8421
 30
0.0
 10
329.21
 20
95.4313
 30
0.0
 10
328.3134
 20
95.4313
 30
0.0
 10
328.3134
 20
95.4313
 30
0.0
 10
328.3134
 20
95.4313
 30
0.0
 10
327.6636
 20
95.4313
 30
0.0
 10
327.6636
 20
95.4313
 30
0.0
 10
327.6636
 20
95.4313
 30
0.0
 10
327.6636
 20
95.4313
 30
0.0
 10
327.6636
 20
89.3051
 30
0.0
 10
327.6636
 20
89.3051
 30
0.0
 10
327.6636
 20
89.3051
 30
0.0
 10
327.6636
 20
89.3051
 30
0.0
 10
325.49
 20
89.3051
 30
0.0
 10
325.49
 20
89.3051
 30
0.0
  0
SPLINE
  5
6B
330
1F
100
AcDbEntity
  8
Camada 1
 62
   250
370
    20
100
AcDbSpline
210
0.0
220
0.0
230
1.0
 70
    11
 71
     3
 72
    32
 73
    28
 74
     0
 42
0.0000000001
 43
0.0000000001
 40
0.0
 40
0.0
 40
0.0
 40
0.0
 40
0.1428571428571428
 40
0.1428571428571428
 40
0.1428571428571428
 40
0.1428571428571428
 40
0.2857142857142857
 40
0.2857142857142857
 40
0.2857142857142857
 40
0.2857142857142857
 40
0.4285714285714285
 40
0.4285714285714285
 40
0.4285714285714285
 40
0.4285714285714285
 40
0.5714285714285714
 40
0.5714285714285714
 40
0.5714285714285714
 40
0.5714285714285714
 40
0.7142857142857142
 40
0.7142857142857142
 40
0.7142857142857142
 40
0.7142857142857142
 40
0.857142857142857
 40
0.857142857142857
 40
0.857142857142857
 40
0.857142857142857
 40
1.0
 40
1.0
 40
1.0
 40
1.0
 10
329.0928
 20
98.6075
 30
0.0
 10
329.0928
 20
98.6075
 30
0.0
 10
329.0928
 20
100.5466
 30
0.0
 10
329.0928
 20
100.5466
 30
0.0
 10
329.0928
 20
100.5466
 30
0.0
 10
329.0928
 20
100.8036
 30
0.0
 10
328.9968
 20
100.9744
 30
0.0
 10
328.8029
 20
101.0602
 30
0.0
 10
328.8029
 20
101.0602
 30
0.0
 10
328.6059
 20
101.1472
 30
0.0
 10
328.2176
 20
101.1915
 30
0.0
 10
327.6275
 20
101.1915
 30
0.0
 10
327.6275
 20
101.1915
 30
0.0
 10
327.6275
 20
101.1915
 30
0.0
 10
327.6275
 20
97.9626
 30
0.0
 10
327.6275
 20
97.9626
 30
0.0
 10
327.6275
 20
97.9626
 30
0.0
 10
327.6275
 20
97.9626
 30
0.0
 10
327.8671
 20
97.9626
 30
0.0
 10
327.8671
 20
97.9626
 30
0.0
 10
327.8671
 20
97.9626
 30
0.0
 10
328.3248
 20
97.9626
 30
0.0
 10
328.6458
 20
98.01
 30
0.0
 10
328.8228
 20
98.1039
 30
0.0
 10
328.8228
 20
98.1039
 30
0.0
 10
329.0007
 20
98.1983
 30
0.0
 10
329.0928
 20
98.3663
 30
0.0
 10
329.0928
 20
98.6075
 30
0.0
  0
SPLINE
  5
6C
330
1F
100
AcDbEntity
  8
Camada 1
 62
   250
370
    20
100
AcDbSpline
210
0.0
220
0.0
230
1.0
 70
    11
 71
     3
 72
    52
 73
    48
 74
     0
 42
0.0000000001
 43
0.0000000001
 40
0.0
 40
0.0
 40
0.0
 40
0.0
 40
0.0833333333333333
 40
0.0833333333333333
 40
0.0833333333333333
 40
0.0833333333333333
 40
0.1666666666666667
 40
0.1666666666666667
 40
0.1666666666666667
 40
0.1666666666666667
 40
0.25
 40
0.25
 40
0.25
 40
0.25
 40
0.3333333333333333
 40
0.3333333333333333
 40
0.3333333333333333
 40
0.3333333333333333
 40
0.4166666666666666
 40
0.4166666666666666
 40
0.4166666666666666
 40
0.4166666666666666
 40
0.4999999999999999
 40
0.4999999999999999
 40
0.4999999999999999
 40
0.4999999999999999
 40
0.5833333333333333
 40
0.5833333333333333
 40
0.5833333333333333
 40
0.5833333333333333
 40
0.6666666666666666
 40
0.6666666666666666
 40
0.6666666666666666
 40
0.6666666666666666
 40
0.75
 40
0.75
 40
0.75
 40
0.75
 40
0.8333333333333334
 40
0.8333333333333334
 40
0.8333333333333334
 40
0.8333333333333334
 40
0.9166666666666667
 40
0.9166666666666667
 40
0.9166666666666667
 40
0.9166666666666667
 40
1.0
 40
1.0
 40
1.0
 40
1.0
 10
311.9052
 20
89.3051
 30
0.0
 10
311.9052
 20
89.3051
 30
0.0
 10
311.9052
 20
103.9566
 30
0.0
 10
311.9052
 20
103.9566
 30
0.0
 10
311.9052
 20
103.9566
 30
0.0
 10
311.9052
 20
103.9566
 30
0.0
 10
313.8797
 20
103.9566
 30
0.0
 10
313.8797
 20
103.9566
 30
0.0
 10
313.8797
 20
103.9566
 30
0.0
 10
313.8797
 20
103.9566
 30
0.0
 10
313.8797
 20
98.0468
 30
0.0
 10
313.8797
 20
98.0468
 30
0.0
 10
313.8797
 20
98.0468
 30
0.0
 10
313.8797
 20
98.0468
 30
0.0
 10
315.5564
 20
98.0468
 30
0.0
 10
315.5564
 20
98.0468
 30
0.0
 10
315.5564
 20
98.0468
 30
0.0
 10
315.5564
 20
98.0468
 30
0.0
 10
315.5564
 20
103.9566
 30
0.0
 10
315.5564
 20
103.9566
 30
0.0
 10
315.5564
 20
103.9566
 30
0.0
 10
315.5564
 20
103.9566
 30
0.0
 10
317.7238
 20
103.9566
 30
0.0
 10
317.7238
 20
103.9566
 30
0.0
 10
317.7238
 20
103.9566
 30
0.0
 10
317.7238
 20
103.9566
 30
0.0
 10
317.7238
 20
89.3051
 30
0.0
 10
317.7238
 20
89.3051
 30
0.0
 10
317.7238
 20
89.3051
 30
0.0
 10
317.7238
 20
89.3051
 30
0.0
 10
315.5564
 20
89.3051
 30
0.0
 10
315.5564
 20
89.3051
 30
0.0
 10
315.5564
 20
89.3051
 30
0.0
 10
315.5564
 20
89.3051
 30
0.0
 10
315.5564
 20
95.3731
 30
0.0
 10
315.5564
 20
95.3731
 30
0.0
 10
315.5564
 20
95.3731
 30
0.0
 10
315.5564
 20
95.3731
 30
0.0
 10
313.8797
 20
95.3731
 30
0.0
 10
313.8797
 20
95.3731
 30
0.0
 10
313.8797
 20
95.3731
 30
0.0
 10
313.8797
 20
95.3731
 30
0.0
 10
313.8797
 20
89.3051
 30
0.0
 10
313.8797
 20
89.3051
 30
0.0
 10
313.8797
 20
89.3051
 30
0.0
 10
313.8797
 20
89.3051
 30
0.0
 10
311.9052
 20
89.3051
 30
0.0
 10
311.9052
 20
89.3051
 30
0.0
  0
SPLINE
  5
6D
330
1F
100
AcDbEntity
  8
Camada 1
 62
   250
370
    20
100
AcDbSpline
210
0.0
220
0.0
230
1.0
 70
    11
 71
     3
 72
    20
 73
    16
 74
     0
 42
0.0000000001
 43
0.0000000001
 40
0.0
 40
0.0
 40
0.0
 40
0.0
 40
0.25
 40
0.25
 40
0.25
 40
0.25
 40
0.5
 40
0.5
 40
0.5
 40
0.5
 40
0.75
 40
0.75
 40
0.75
 40
0.75
 40
1.0
 40
1.0
 40
1.0
 40
1.0
 10
321.0814
 20
95.3645
 30
0.0
 10
321.0814
 20
95.3645
 30
0.0
 10
322.2981
 20
95.3645
 30
0.0
 10
322.2981
 20
95.3645
 30
0.0
 10
322.2981
 20
95.3645
 30
0.0
 10
322.2981
 20
95.3645
 30
0.0
 10
321.7532
 20
100.4905
 30
0.0
 10
321.7532
 20
100.4905
 30
0.0
 10
321.7532
 20
100.4905
 30
0.0
 10
321.7532
 20
100.4905
 30
0.0
 10
321.6622
 20
100.4905
 30
0.0
 10
321.6622
 20
100.4905
 30
0.0
 10
321.6622
 20
100.4905
 30
0.0
 10
321.6622
 20
100.4905
 30
0.0
 10
321.0814
 20
95.3645
 30
0.0
 10
321.0814
 20
95.3645
 30
0.0
  0
SPLINE
  5
6E
330
1F
100
AcDbEntity
  8
Camada 1
 62
   250
370
    20
100
AcDbSpline
210
0.0
220
0.0
230
1.0
 70
    11
 71
     3
 72
    36
 73
    32
 74
     0
 42
0.0000000001
 43
0.0000000001
 40
0.0
 40
0.0
 40
0.0
 40
0.0
 40
0.125
 40
0.125
 40
0.125
 40
0.125
 40
0.25
 40
0.25
 40
0.25
 40
0.25
 40
0.375
 40
0.375
 40
0.375
 40
0.375
 40
0.5
 40
0.5
 40
0.5
 40
0.5
 40
0.625
 40
0.625
 40
0.625
 40
0.625
 40
0.75
 40
0.75
 40
0.75
 40
0.75
 40
0.875
 40
0.875
 40
0.875
 40
0.875
 40
1.0
 40
1.0
 40
1.0
 40
1.0
 10
318.3276
 20
89.3051
 30
0.0
 10
318.3276
 20
89.3051
 30
0.0
 10
320.1662
 20
103.9566
 30
0.0
 10
320.1662
 20
103.9566
 30
0.0
 10
320.1662
 20
103.9566
 30
0.0
 10
320.1662
 20
103.9566
 30
0.0
 10
323.3097
 20
103.9566
 30
0.0
 10
323.3097
 20
103.9566
 30
0.0
 10
323.3097
 20
103.9566
 30
0.0
 10
323.3097
 20
103.9566
 30
0.0
 10
324.8941
 20
89.3051
 30
0.0
 10
324.8941
 20
89.3051
 30
0.0
 10
324.8941
 20
89.3051
 30
0.0
 10
324.8941
 20
89.3051
 30
0.0
 10
322.8991
 20
89.3051
 30
0.0
 10
322.8991
 20
89.3051
 30
0.0
 10
322.8991
 20
89.3051
 30
0.0
 10
322.8991
 20
89.3051
 30
0.0
 10
322.4811
 20
93.2079
 30
0.0
 10
322.4811
 20
93.2079
 30
0.0
 10
322.4811
 20
93.2079
 30
0.0
 10
322.4811
 20
93.2079
 30
0.0
 10
320.8905
 20
93.2079
 30
0.0
 10
320.8905
 20
93.2079
 30
0.0
 10
320.8905
 20
93.2079
 30
0.0
 10
320.8905
 20
93.2079
 30
0.0
 10
320.398
 20
89.3051
 30
0.0
 10
320.398
 20
89.3051
 30
0.0
 10
320.398
 20
89.3051
 30
0.0
 10
320.398
 20
89.3051
 30
0.0
 10
318.3276
 20
89.3051
 30
0.0
 10
318.3276
 20
89.3051
 30
0.0
  0
SPLINE
  5
6F
330
1F
100
AcDbEntity
  8
Camada 1
 62
   250
370
    20
100
AcDbSpline
210
0.0
220
0.0
230
1.0
 70
    11
 71
     3
 72
    20
 73
    16
 74
     0
 42
0.0000000001
 43
0.0000000001
 40
0.0
 40
0.0
 40
0.0
 40
0.0
 40
0.25
 40
0.25
 40
0.25
 40
0.25
 40
0.5
 40
0.5
 40
0.5
 40
0.5
 40
0.75
 40
0.75
 40
0.75
 40
0.75
 40
1.0
 40
1.0
 40
1.0
 40
1.0
 10
361.9632
 20
95.3645
 30
0.0
 10
361.9632
 20
95.3645
 30
0.0
 10
363.1799
 20
95.3645
 30
0.0
 10
363.1799
 20
95.3645
 30
0.0
 10
363.1799
 20
95.3645
 30
0.0
 10
363.1799
 20
95.3645
 30
0.0
 10
362.635
 20
100.4905
 30
0.0
 10
362.635
 20
100.4905
 30
0.0
 10
362.635
 20
100.4905
 30
0.0
 10
362.635
 20
100.4905
 30
0.0
 10
362.544
 20
100.4905
 30
0.0
 10
362.544
 20
100.4905
 30
0.0
 10
362.544
 20
100.4905
 30
0.0
 10
362.544
 20
100.4905
 30
0.0
 10
361.9632
 20
95.3645
 30
0.0
 10
361.9632
 20
95.3645
 30
0.0
  0
SPLINE
  5
70
330
1F
100
AcDbEntity
  8
Camada 1
 62
   250
370
    20
100
AcDbSpline
210
0.0
220
0.0
230
1.0
 70
    11
 71
     3
 72
    36
 73
    32
 74
     0
 42
0.0000000001
 43
0.0000000001
 40
0.0
 40
0.0
 40
0.0
 40
0.0
 40
0.125
 40
0.125
 40
0.125
 40
0.125
 40
0.25
 40
0.25
 40
0.25
 40
0.25
 40
0.375
 40
0.375
 40
0.375
 40
0.375
 40
0.5
 40
0.5
 40
0.5
 40
0.5
 40
0.625
 40
0.625
 40
0.625
 40
0.625
 40
0.75
 40
0.75
 40
0.75
 40
0.75
 40
0.875
 40
0.875
 40
0.875
 40
0.875
 40
1.0
 40
1.0
 40
1.0
 40
1.0
 10
359.2377
 20
89.3051
 30
0.0
 10
359.2377
 20
89.3051
 30
0.0
 10
360.9624
 20
103.9566
 30
0.0
 10
360.9624
 20
103.9566
 30
0.0
 10
360.9624
 20
103.9566
 30
0.0
 10
360.9624
 20
103.9566
 30
0.0
 10
364.1059
 20
103.9566
 30
0.0
 10
364.1059
 20
103.9566
 30
0.0
 10
364.1059
 20
103.9566
 30
0.0
 10
364.1059
 20
103.9566
 30
0.0
 10
365.8044
 20
89.3051
 30
0.0
 10
365.8044
 20
89.3051
 30
0.0
 10
365.8044
 20
89.3051
 30
0.0
 10
365.8044
 20
89.3051
 30
0.0
 10
363.8092
 20
89.3051
 30
0.0
 10
363.8092
 20
89.3051
 30
0.0
 10
363.8092
 20
89.3051
 30
0.0
 10
363.8092
 20
89.3051
 30
0.0
 10
363.3912
 20
93.2079
 30
0.0
 10
363.3912
 20
93.2079
 30
0.0
 10
363.3912
 20
93.2079
 30
0.0
 10
363.3912
 20
93.2079
 30
0.0
 10
361.8005
 20
93.2079
 30
0.0
 10
361.8005
 20
93.2079
 30
0.0
 10
361.8005
 20
93.2079
 30
0.0
 10
361.8005
 20
93.2079
 30
0.0
 10
361.3083
 20
89.3051
 30
0.0
 10
361.3083
 20
89.3051
 30
0.0
 10
361.3083
 20
89.3051
 30
0.0
 10
361.3083
 20
89.3051
 30
0.0
 10
359.2377
 20
89.3051
 30
0.0
 10
359.2377
 20
89.3051
 30
0.0
  0
SPLINE
  5
71
330
1F
100
AcDbEntity
  8
Camada 1
 62
   250
370
    20
100
AcDbSpline
210
0.0
220
0.0
230
1.0
 70
    11
 71
     3
 72
    36
 73
    32
 74
     0
 42
0.0000000001
 43
0.0000000001
 40
0.0
 40
0.0
 40
0.0
 40
0.0
 40
0.125
 40
0.125
 40
0.125
 40
0.125
 40
0.25
 40
0.25
 40
0.25
 40
0.25
 40
0.375
 40
0.375
 40
0.375
 40
0.375
 40
0.5
 40
0.5
 40
0.5
 40
0.5
 40
0.625
 40
0.625
 40
0.625
 40
0.625
 40
0.75
 40
0.75
 40
0.75
 40
0.75
 40
0.875
 40
0.875
 40
0.875
 40
0.875
 40
1.0
 40
1.0
 40
1.0
 40
1.0
 10
353.1725
 20
89.3051
 30
0.0
 10
353.1725
 20
89.3051
 30
0.0
 10
353.1725
 20
103.9566
 30
0.0
 10
353.1725
 20
103.9566
 30
0.0
 10
353.1725
 20
103.9566
 30
0.0
 10
353.1725
 20
103.9566
 30
0.0
 10
356.0427
 20
103.9566
 30
0.0
 10
356.0427
 20
103.9566
 30
0.0
 10
356.0427
 20
103.9566
 30
0.0
 10
357.0878
 20
103.9566
 30
0.0
 10
357.828
 20
103.6852
 30
0.0
 10
358.2608
 20
103.1463
 30
0.0
 10
358.2608
 20
103.1463
 30
0.0
 10
358.6965
 20
102.607
 30
0.0
 10
358.9129
 20
101.6747
 30
0.0
 10
358.9129
 20
100.3522
 30
0.0
 10
358.9129
 20
100.3522
 30
0.0
 10
358.9129
 20
100.3522
 30
0.0
 10
358.9129
 20
92.9297
 30
0.0
 10
358.9129
 20
92.9297
 30
0.0
 10
358.9129
 20
92.9297
 30
0.0
 10
358.9129
 20
91.6107
 30
0.0
 10
358.6793
 20
90.6784
 30
0.0
 10
358.2128
 20
90.1291
 30
0.0
 10
358.2128
 20
90.1291
 30
0.0
 10
357.7456
 20
89.5798
 30
0.0
 10
356.9653
 20
89.3051
 30
0.0
 10
355.8748
 20
89.3051
 30
0.0
 10
355.8748
 20
89.3051
 30
0.0
 10
355.8748
 20
89.3051
 30
0.0
 10
353.1725
 20
89.3051
 30
0.0
 10
353.1725
 20
89.3051
 30
0.0
  0
SPLINE
  5
72
330
1F
100
AcDbEntity
  8
Camada 1
 62
   250
370
    20
100
AcDbSpline
210
0.0
220
0.0
230
1.0
 70
    11
 71
     3
 72
    32
 73
    28
 74
     0
 42
0.0000000001
 43
0.0000000001
 40
0.0
 40
0.0
 40
0.0
 40
0.0
 40
0.1428571428571428
 40
0.1428571428571428
 40
0.1428571428571428
 40
0.1428571428571428
 40
0.2857142857142857
 40
0.2857142857142857
 40
0.2857142857142857
 40
0.2857142857142857
 40
0.4285714285714285
 40
0.4285714285714285
 40
0.4285714285714285
 40
0.4285714285714285
 40
0.5714285714285714
 40
0.5714285714285714
 40
0.5714285714285714
 40
0.5714285714285714
 40
0.7142857142857142
 40
0.7142857142857142
 40
0.7142857142857142
 40
0.7142857142857142
 40
0.857142857142857
 40
0.857142857142857
 40
0.857142857142857
 40
0.857142857142857
 40
1.0
 40
1.0
 40
1.0
 40
1.0
 10
355.3227
 20
101.1627
 30
0.0
 10
355.3227
 20
101.1627
 30
0.0
 10
355.3227
 20
92.0552
 30
0.0
 10
355.3227
 20
92.0552
 30
0.0
 10
355.3227
 20
92.0552
 30
0.0
 10
355.3227
 20
92.0552
 30
0.0
 10
355.4565
 20
92.0552
 30
0.0
 10
355.4565
 20
92.0552
 30
0.0
 10
355.4565
 20
92.0552
 30
0.0
 10
355.7128
 20
92.0552
 30
0.0
 10
356.4517
 20
92.1102
 30
0.0
 10
356.557
 20
92.2187
 30
0.0
 10
356.557
 20
92.2187
 30
0.0
 10
356.6623
 20
92.3259
 30
0.0
 10
356.7164
 20
92.5036
 30
0.0
 10
356.7164
 20
92.7543
 30
0.0
 10
356.7164
 20
92.7543
 30
0.0
 10
356.7164
 20
92.7543
 30
0.0
 10
356.7164
 20
100.4278
 30
0.0
 10
356.7164
 20
100.4278
 30
0.0
 10
356.7164
 20
100.4278
 30
0.0
 10
356.7164
 20
100.7206
 30
0.0
 10
356.6628
 20
100.9168
 30
0.0
 10
356.554
 20
101.0147
 30
0.0
 10
356.554
 20
101.0147
 30
0.0
 10
356.4443
 20
101.114
 30
0.0
 10
355.6646
 20
101.1627
 30
0.0
 10
355.3227
 20
101.1627
 30
0.0
  0
SPLINE
  5
73
330
1F
100
AcDbEntity
  8
Camada 1
 62
   250
370
    20
100
AcDbSpline
210
0.0
220
0.0
230
1.0
 70
    11
 71
     3
 72
    36
 73
    32
 74
     0
 42
0.0000000001
 43
0.0000000001
 40
0.0
 40
0.0
 40
0.0
 40
0.0
 40
0.125
 40
0.125
 40
0.125
 40
0.125
 40
0.25
 40
0.25
 40
0.25
 40
0.25
 40
0.375
 40
0.375
 40
0.375
 40
0.375
 40
0.5
 40
0.5
 40
0.5
 40
0.5
 40
0.625
 40
0.625
 40
0.625
 40
0.625
 40
0.75
 40
0.75
 40
0.75
 40
0.75
 40
0.875
 40
0.875
 40
0.875
 40
0.875
 40
1.0
 40
1.0
 40
1.0
 40
1.0
 10
374.7266
 20
89.3051
 30
0.0
 10
374.7266
 20
89.3051
 30
0.0
 10
374.7266
 20
103.9566
 30
0.0
 10
374.7266
 20
103.9566
 30
0.0
 10
374.7266
 20
103.9566
 30
0.0
 10
374.7266
 20
103.9566
 30
0.0
 10
377.5968
 20
103.9566
 30
0.0
 10
377.5968
 20
103.9566
 30
0.0
 10
377.5968
 20
103.9566
 30
0.0
 10
378.6421
 20
103.9566
 30
0.0
 10
379.3824
 20
103.6852
 30
0.0
 10
379.8152
 20
103.1463
 30
0.0
 10
379.8152
 20
103.1463
 30
0.0
 10
380.2506
 20
102.607
 30
0.0
 10
380.4673
 20
101.6747
 30
0.0
 10
380.4673
 20
100.3522
 30
0.0
 10
380.4673
 20
100.3522
 30
0.0
 10
380.4673
 20
100.3522
 30
0.0
 10
380.4673
 20
92.9297
 30
0.0
 10
380.4673
 20
92.9297
 30
0.0
 10
380.4673
 20
92.9297
 30
0.0
 10
380.4673
 20
91.6107
 30
0.0
 10
380.2335
 20
90.6784
 30
0.0
 10
379.767
 20
90.1291
 30
0.0
 10
379.767
 20
90.1291
 30
0.0
 10
379.3
 20
89.5798
 30
0.0
 10
378.5194
 20
89.3051
 30
0.0
 10
377.4289
 20
89.3051
 30
0.0
 10
377.4289
 20
89.3051
 30
0.0
 10
377.4289
 20
89.3051
 30
0.0
 10
374.7266
 20
89.3051
 30
0.0
 10
374.7266
 20
89.3051
 30
0.0
  0
SPLINE
  5
74
330
1F
100
AcDbEntity
  8
Camada 1
 62
   250
370
    20
100
AcDbSpline
210
0.0
220
0.0
230
1.0
 70
    11
 71
     3
 72
    32
 73
    28
 74
     0
 42
0.0000000001
 43
0.0000000001
 40
0.0
 40
0.0
 40
0.0
 40
0.0
 40
0.1428571428571428
 40
0.1428571428571428
 40
0.1428571428571428
 40
0.1428571428571428
 40
0.2857142857142857
 40
0.2857142857142857
 40
0.2857142857142857
 40
0.2857142857142857
 40
0.4285714285714285
 40
0.4285714285714285
 40
0.4285714285714285
 40
0.4285714285714285
 40
0.5714285714285714
 40
0.5714285714285714
 40
0.5714285714285714
 40
0.5714285714285714
 40
0.7142857142857142
 40
0.7142857142857142
 40
0.7142857142857142
 40
0.7142857142857142
 40
0.857142857142857
 40
0.857142857142857
 40
0.857142857142857
 40
0.857142857142857
 40
1.0
 40
1.0
 40
1.0
 40
1.0
 10
376.8768
 20
101.1627
 30
0.0
 10
376.8768
 20
101.1627
 30
0.0
 10
376.8768
 20
92.0552
 30
0.0
 10
376.8768
 20
92.0552
 30
0.0
 10
376.8768
 20
92.0552
 30
0.0
 10
376.8768
 20
92.0552
 30
0.0
 10
377.0109
 20
92.0552
 30
0.0
 10
377.0109
 20
92.0552
 30
0.0
 10
377.0109
 20
92.0552
 30
0.0
 10
377.2672
 20
92.0552
 30
0.0
 10
378.0058
 20
92.1102
 30
0.0
 10
378.1111
 20
92.2187
 30
0.0
 10
378.1111
 20
92.2187
 30
0.0
 10
378.2165
 20
92.3259
 30
0.0
 10
378.2707
 20
92.5036
 30
0.0
 10
378.2707
 20
92.7543
 30
0.0
 10
378.2707
 20
92.7543
 30
0.0
 10
378.2707
 20
92.7543
 30
0.0
 10
378.2707
 20
100.4278
 30
0.0
 10
378.2707
 20
100.4278
 30
0.0
 10
378.2707
 20
100.4278
 30
0.0
 10
378.2707
 20
100.7206
 30
0.0
 10
378.2169
 20
100.9168
 30
0.0
 10
378.1084
 20
101.0147
 30
0.0
 10
378.1084
 20
101.0147
 30
0.0
 10
377.9984
 20
101.114
 30
0.0
 10
377.2187
 20
101.1627
 30
0.0
 10
376.8768
 20
101.1627
 30
0.0
  0
SPLINE
  5
75
330
1F
100
AcDbEntity
  8
Camada 1
 62
   250
370
    20
100
AcDbSpline
210
0.0
220
0.0
230
1.0
 70
    11
 71
     3
 72
    44
 73
    40
 74
     0
 42
0.0000000001
 43
0.0000000001
 40
0.0
 40
0.0
 40
0.0
 40
0.0
 40
0.1
 40
0.1
 40
0.1
 40
0.1
 40
0.2
 40
0.2
 40
0.2
 40
0.2
 40
0.3
 40
0.3
 40
0.3
 40
0.3
 40
0.4
 40
0.4
 40
0.4
 40
0.4
 40
0.5
 40
0.5
 40
0.5
 40
0.5
 40
0.6
 40
0.6
 40
0.6
 40
0.6
 40
0.7
 40
0.7
 40
0.7
 40
0.7
 40
0.7999999999999999
 40
0.7999999999999999
 40
0.7999999999999999
 40
0.7999999999999999
 40
0.8999999999999999
 40
0.8999999999999999
 40
0.8999999999999999
 40
0.8999999999999999
 40
1.0
 40
1.0
 40
1.0
 40
1.0
 10
352.0938
 20
125.0939
 30
0.0
 10
352.0938
 20
125.0939
 30
0.0
 10
352.0938
 20
122.7138
 30
0.0
 10
352.0938
 20
122.7138
 30
0.0
 10
352.0938
 20
122.7138
 30
0.0
 10
352.0938
 20
122.7138
 30
0.0
 10
355.1605
 20
124.1287
 30
0.0
 10
355.1605
 20
124.1287
 30
0.0
 10
355.1605
 20
124.1287
 30
0.0
 10
355.1605
 20
124.1287
 30
0.0
 10
355.1605
 20
110.8073
 30
0.0
 10
355.1605
 20
110.8073
 30
0.0
 10
355.1605
 20
110.8073
 30
0.0
 10
355.1605
 20
110.8073
 30
0.0
 10
356.3981
 20
110.8073
 30
0.0
 10
356.3981
 20
110.8073
 30
0.0
 10
356.3981
 20
110.8073
 30
0.0
 10
356.3981
 20
110.8073
 30
0.0
 10
357.6359
 20
110.8073
 30
0.0
 10
357.6359
 20
110.8073
 30
0.0
 10
357.6359
 20
110.8073
 30
0.0
 10
357.6359
 20
110.8073
 30
0.0
 10
357.6359
 20
124.1287
 30
0.0
 10
357.6359
 20
124.1287
 30
0.0
 10
357.6359
 20
124.1287
 30
0.0
 10
357.6359
 20
124.1287
 30
0.0
 10
360.7026
 20
122.7138
 30
0.0
 10
360.7026
 20
122.7138
 30
0.0
 10
360.7026
 20
122.7138
 30
0.0
 10
360.7026
 20
122.7138
 30
0.0
 10
360.7026
 20
125.0969
 30
0.0
 10
360.7026
 20
125.0969
 30
0.0
 10
360.7026
 20
125.0969
 30
0.0
 10
359.2407
 20
125.8318
 30
0.0
 10
357.8036
 20
126.6161
 30
0.0
 10
356.3937
 20
127.4512
 30
0.0
 10
356.3937
 20
127.4512
 30
0.0
 10
354.9907
 20
126.6094
 30
0.0
 10
353.5555
 20
125.8265
 30
0.0
 10
352.0938
 20
125.0939
 30
0.0
  0
SPLINE
  5
76
330
1F
100
AcDbEntity
  8
Camada 1
 62
   250
370
    20
100
AcDbSpline
210
0.0
220
0.0
230
1.0
 70
    11
 71
     3
 72
    36
 73
    32
 74
     0
 42
0.0000000001
 43
0.0000000001
 40
0.0
 40
0.0
 40
0.0
 40
0.0
 40
0.125
 40
0.125
 40
0.125
 40
0.125
 40
0.25
 40
0.25
 40
0.25
 40
0.25
 40
0.375
 40
0.375
 40
0.375
 40
0.375
 40
0.5
 40
0.5
 40
0.5
 40
0.5
 40
0.625
 40
0.625
 40
0.625
 40
0.625
 40
0.75
 40
0.75
 40
0.75
 40
0.75
 40
0.875
 40
0.875
 40
0.875
 40
0.875
 40
1.0
 40
1.0
 40
1.0
 40
1.0
 10
366.7817
 20
120.0097
 30
0.0
 10
366.7817
 20
120.0097
 30
0.0
 10
364.7406
 20
120.8741
 30
0.0
 10
364.7406
 20
120.8741
 30
0.0
 10
364.7406
 20
120.8741
 30
0.0
 10
364.0931
 20
121.148
 30
0.0
 10
363.7155
 20
120.54
 30
0.0
 10
363.7155
 20
120.1331
 30
0.0
 10
363.7155
 20
120.1331
 30
0.0
 10
363.7155
 20
120.1331
 30
0.0
 10
363.7155
 20
113.8165
 30
0.0
 10
363.7155
 20
113.8165
 30
0.0
 10
363.7155
 20
113.8165
 30
0.0
 10
363.7155
 20
113.4093
 30
0.0
 10
363.9593
 20
113.0753
 30
0.0
 10
364.2567
 20
113.0753
 30
0.0
 10
364.2567
 20
113.0753
 30
0.0
 10
364.2567
 20
113.0753
 30
0.0
 10
366.7817
 20
113.0753
 30
0.0
 10
366.7817
 20
113.0753
 30
0.0
 10
366.7817
 20
113.0753
 30
0.0
 10
367.0791
 20
113.0753
 30
0.0
 10
367.3227
 20
113.4089
 30
0.0
 10
367.3227
 20
113.8165
 30
0.0
 10
367.3227
 20
113.8165
 30
0.0
 10
367.3227
 20
113.8165
 30
0.0
 10
367.3227
 20
119.0602
 30
0.0
 10
367.3227
 20
119.0602
 30
0.0
 10
367.3227
 20
119.0602
 30
0.0
 10
367.3227
 20
119.5437
 30
0.0
 10
367.0659
 20
119.8893
 30
0.0
 10
366.7817
 20
120.0097
 30
0.0
  0
SPLINE
  5
77
330
1F
100
AcDbEntity
  8
Camada 1
 62
   250
370
    20
100
AcDbSpline
210
0.0
220
0.0
230
1.0
 70
    11
 71
     3
 72
    36
 73
    32
 74
     0
 42
0.0000000001
 43
0.0000000001
 40
0.0
 40
0.0
 40
0.0
 40
0.0
 40
0.125
 40
0.125
 40
0.125
 40
0.125
 40
0.25
 40
0.25
 40
0.25
 40
0.25
 40
0.375
 40
0.375
 40
0.375
 40
0.375
 40
0.5
 40
0.5
 40
0.5
 40
0.5
 40
0.625
 40
0.625
 40
0.625
 40
0.625
 40
0.75
 40
0.75
 40
0.75
 40
0.75
 40
0.875
 40
0.875
 40
0.875
 40
0.875
 40
1.0
 40
1.0
 40
1.0
 40
1.0
 10
368.2875
 20
121.9117
 30
0.0
 10
368.2875
 20
121.9117
 30
0.0
 10
363.8118
 20
123.7336
 30
0.0
 10
363.8118
 20
123.7336
 30
0.0
 10
363.8118
 20
123.7336
 30
0.0
 10
362.4355
 20
124.2938
 30
0.0
 10
361.5639
 20
123.1991
 30
0.0
 10
361.5639
 20
122.5468
 30
0.0
 10
361.5639
 20
122.5468
 30
0.0
 10
361.5639
 20
122.5468
 30
0.0
 10
361.5639
 20
111.9941
 30
0.0
 10
361.5639
 20
111.9941
 30
0.0
 10
361.5639
 20
111.9941
 30
0.0
 10
361.5639
 20
111.3413
 30
0.0
 10
362.0979
 20
110.8073
 30
0.0
 10
362.7507
 20
110.8073
 30
0.0
 10
362.7507
 20
110.8073
 30
0.0
 10
362.7507
 20
110.8073
 30
0.0
 10
368.2875
 20
110.8073
 30
0.0
 10
368.2875
 20
110.8073
 30
0.0
 10
368.2875
 20
110.8073
 30
0.0
 10
368.9396
 20
110.8073
 30
0.0
 10
369.4743
 20
111.3413
 30
0.0
 10
369.4743
 20
111.9941
 30
0.0
 10
369.4743
 20
111.9941
 30
0.0
 10
369.4743
 20
111.9941
 30
0.0
 10
369.4743
 20
120.3911
 30
0.0
 10
369.4743
 20
120.3911
 30
0.0
 10
369.4743
 20
120.3911
 30
0.0
 10
369.4743
 20
121.1654
 30
0.0
 10
368.892
 20
121.6656
 30
0.0
 10
368.2875
 20
121.9117
 30
0.0
  0
SPLINE
  5
78
330
1F
100
AcDbEntity
  8
Camada 1
 62
   250
370
    20
100
AcDbSpline
210
0.0
220
0.0
230
1.0
 70
    11
 71
     3
 72
    36
 73
    32
 74
     0
 42
0.0000000001
 43
0.0000000001
 40
0.0
 40
0.0
 40
0.0
 40
0.0
 40
0.125
 40
0.125
 40
0.125
 40
0.125
 40
0.25
 40
0.25
 40
0.25
 40
0.25
 40
0.375
 40
0.375
 40
0.375
 40
0.375
 40
0.5
 40
0.5
 40
0.5
 40
0.5
 40
0.625
 40
0.625
 40
0.625
 40
0.625
 40
0.75
 40
0.75
 40
0.75
 40
0.75
 40
0.875
 40
0.875
 40
0.875
 40
0.875
 40
1.0
 40
1.0
 40
1.0
 40
1.0
 10
345.9866
 20
120.0097
 30
0.0
 10
345.9866
 20
120.0097
 30
0.0
 10
348.0278
 20
120.8741
 30
0.0
 10
348.0278
 20
120.8741
 30
0.0
 10
348.0278
 20
120.8741
 30
0.0
 10
348.6752
 20
121.148
 30
0.0
 10
349.0529
 20
120.54
 30
0.0
 10
349.0529
 20
120.1331
 30
0.0
 10
349.0529
 20
120.1331
 30
0.0
 10
349.0529
 20
120.1331
 30
0.0
 10
349.0529
 20
113.8165
 30
0.0
 10
349.0529
 20
113.8165
 30
0.0
 10
349.0529
 20
113.8165
 30
0.0
 10
349.0529
 20
113.4093
 30
0.0
 10
348.809
 20
113.0753
 30
0.0
 10
348.5117
 20
113.0753
 30
0.0
 10
348.5117
 20
113.0753
 30
0.0
 10
348.5117
 20
113.0753
 30
0.0
 10
345.9866
 20
113.0753
 30
0.0
 10
345.9866
 20
113.0753
 30
0.0
 10
345.9866
 20
113.0753
 30
0.0
 10
345.6892
 20
113.0753
 30
0.0
 10
345.4454
 20
113.4089
 30
0.0
 10
345.4454
 20
113.8165
 30
0.0
 10
345.4454
 20
113.8165
 30
0.0
 10
345.4454
 20
113.8165
 30
0.0
 10
345.4454
 20
119.0602
 30
0.0
 10
345.4454
 20
119.0602
 30
0.0
 10
345.4454
 20
119.0602
 30
0.0
 10
345.4454
 20
119.5437
 30
0.0
 10
345.7024
 20
119.8893
 30
0.0
 10
345.9866
 20
120.0097
 30
0.0
  0
SPLINE
  5
79
330
1F
100
AcDbEntity
  8
Camada 1
 62
   250
370
    20
100
AcDbSpline
210
0.0
220
0.0
230
1.0
 70
    11
 71
     3
 72
    36
 73
    32
 74
     0
 42
0.0000000001
 43
0.0000000001
 40
0.0
 40
0.0
 40
0.0
 40
0.0
 40
0.125
 40
0.125
 40
0.125
 40
0.125
 40
0.25
 40
0.25
 40
0.25
 40
0.25
 40
0.375
 40
0.375
 40
0.375
 40
0.375
 40
0.5
 40
0.5
 40
0.5
 40
0.5
 40
0.625
 40
0.625
 40
0.625
 40
0.625
 40
0.75
 40
0.75
 40
0.75
 40
0.75
 40
0.875
 40
0.875
 40
0.875
 40
0.875
 40
1.0
 40
1.0
 40
1.0
 40
1.0
 10
344.4809
 20
121.9117
 30
0.0
 10
344.4809
 20
121.9117
 30
0.0
 10
348.9566
 20
123.7336
 30
0.0
 10
348.9566
 20
123.7336
 30
0.0
 10
348.9566
 20
123.7336
 30
0.0
 10
350.3327
 20
124.2938
 30
0.0
 10
351.2042
 20
123.1991
 30
0.0
 10
351.2042
 20
122.5468
 30
0.0
 10
351.2042
 20
122.5468
 30
0.0
 10
351.2042
 20
122.5468
 30
0.0
 10
351.2042
 20
111.9941
 30
0.0
 10
351.2042
 20
111.9941
 30
0.0
 10
351.2042
 20
111.9941
 30
0.0
 10
351.2042
 20
111.3413
 30
0.0
 10
350.6704
 20
110.8073
 30
0.0
 10
350.0174
 20
110.8073
 30
0.0
 10
350.0174
 20
110.8073
 30
0.0
 10
350.0174
 20
110.8073
 30
0.0
 10
344.4809
 20
110.8073
 30
0.0
 10
344.4809
 20
110.8073
 30
0.0
 10
344.4809
 20
110.8073
 30
0.0
 10
343.8286
 20
110.8073
 30
0.0
 10
343.2941
 20
111.3413
 30
0.0
 10
343.2941
 20
111.9941
 30
0.0
 10
343.2941
 20
111.9941
 30
0.0
 10
343.2941
 20
111.9941
 30
0.0
 10
343.2941
 20
120.3911
 30
0.0
 10
343.2941
 20
120.3911
 30
0.0
 10
343.2941
 20
120.3911
 30
0.0
 10
343.2941
 20
121.1654
 30
0.0
 10
343.8763
 20
121.6656
 30
0.0
 10
344.4809
 20
121.9117
 30
0.0
  0
SPLINE
  5
7A
330
1F
100
AcDbEntity
  8
Camada 1
 62
   250
370
    20
100
AcDbSpline
210
0.0
220
0.0
230
1.0
 70
    11
 71
     3
 72
    56
 73
    52
 74
     0
 42
0.0000000001
 43
0.0000000001
 40
0.0
 40
0.0
 40
0.0
 40
0.0
 40
0.0769230769230769
 40
0.0769230769230769
 40
0.0769230769230769
 40
0.0769230769230769
 40
0.1538461538461539
 40
0.1538461538461539
 40
0.1538461538461539
 40
0.1538461538461539
 40
0.2307692307692308
 40
0.2307692307692308
 40
0.2307692307692308
 40
0.2307692307692308
 40
0.3076923076923077
 40
0.3076923076923077
 40
0.3076923076923077
 40
0.3076923076923077
 40
0.3846153846153846
 40
0.3846153846153846
 40
0.3846153846153846
 40
0.3846153846153846
 40
0.4615384615384616
 40
0.4615384615384616
 40
0.4615384615384616
 40
0.4615384615384616
 40
0.5384615384615385
 40
0.5384615384615385
 40
0.5384615384615385
 40
0.5384615384615385
 40
0.6153846153846154
 40
0.6153846153846154
 40
0.6153846153846154
 40
0.6153846153846154
 40
0.6923076923076923
 40
0.6923076923076923
 40
0.6923076923076923
 40
0.6923076923076923
 40
0.7692307692307692
 40
0.7692307692307692
 40
0.7692307692307692
 40
0.7692307692307692
 40
0.846153846153846
 40
0.846153846153846
 40
0.846153846153846
 40
0.846153846153846
 40
0.9230769230769229
 40
0.9230769230769229
 40
0.9230769230769229
 40
0.9230769230769229
 40
1.0
 40
1.0
 40
1.0
 40
1.0
 10
333.154
 20
118.7914
 30
0.0
 10
333.154
 20
118.7914
 30
0.0
 10
333.154
 20
111.0089
 30
0.0
 10
333.154
 20
111.0089
 30
0.0
 10
333.154
 20
111.0089
 30
0.0
 10
333.154
 20
111.0089
 30
0.0
 10
333.189
 20
110.833
 30
0.0
 10
333.189
 20
110.833
 30
0.0
 10
333.189
 20
110.833
 30
0.0
 10
333.189
 20
110.833
 30
0.0
 10
335.3183
 20
110.833
 30
0.0
 10
335.3183
 20
110.833
 30
0.0
 10
335.3183
 20
110.833
 30
0.0
 10
335.3183
 20
110.833
 30
0.0
 10
335.3183
 20
114.9457
 30
0.0
 10
335.3183
 20
114.9457
 30
0.0
 10
335.3183
 20
114.9457
 30
0.0
 10
335.3183
 20
114.9457
 30
0.0
 10
337.3692
 20
110.8073
 30
0.0
 10
337.3692
 20
110.8073
 30
0.0
 10
337.3692
 20
110.8073
 30
0.0
 10
337.3692
 20
110.8073
 30
0.0
 10
339.3923
 20
115.0459
 30
0.0
 10
339.3923
 20
115.0459
 30
0.0
 10
339.3923
 20
115.0459
 30
0.0
 10
339.3923
 20
115.0459
 30
0.0
 10
339.3923
 20
110.8073
 30
0.0
 10
339.3923
 20
110.8073
 30
0.0
 10
339.3923
 20
110.8073
 30
0.0
 10
339.3923
 20
110.8073
 30
0.0
 10
341.5566
 20
110.8073
 30
0.0
 10
341.5566
 20
110.8073
 30
0.0
 10
341.5566
 20
110.8073
 30
0.0
 10
341.5566
 20
110.8073
 30
0.0
 10
341.5566
 20
120.8986
 30
0.0
 10
341.5566
 20
120.8986
 30
0.0
 10
341.5566
 20
120.8986
 30
0.0
 10
340.7479
 20
120.6409
 30
0.0
 10
339.9351
 20
120.3985
 30
0.0
 10
339.1176
 20
120.1709
 30
0.0
 10
339.1176
 20
120.1709
 30
0.0
 10
339.1176
 20
120.1709
 30
0.0
 10
337.488
 20
115.4363
 30
0.0
 10
337.488
 20
115.4363
 30
0.0
 10
337.488
 20
115.4363
 30
0.0
 10
337.488
 20
115.4363
 30
0.0
 10
335.4188
 20
119.2495
 30
0.0
 10
335.4188
 20
119.2495
 30
0.0
 10
335.4188
 20
119.2495
 30
0.0
 10
334.6663
 20
119.0844
 30
0.0
 10
333.9119
 20
118.9313
 30
0.0
 10
333.154
 20
118.7914
 30
0.0
  0
SPLINE
  5
7B
330
1F
100
AcDbEntity
  8
Camada 1
 62
   250
370
    20
100
AcDbSpline
210
0.0
220
0.0
230
1.0
 70
    11
 71
     3
 72
    44
 73
    40
 74
     0
 42
0.0000000001
 43
0.0000000001
 40
0.0
 40
0.0
 40
0.0
 40
0.0
 40
0.1
 40
0.1
 40
0.1
 40
0.1
 40
0.2
 40
0.2
 40
0.2
 40
0.2
 40
0.3
 40
0.3
 40
0.3
 40
0.3
 40
0.4
 40
0.4
 40
0.4
 40
0.4
 40
0.5
 40
0.5
 40
0.5
 40
0.5
 40
0.6
 40
0.6
 40
0.6
 40
0.6
 40
0.7
 40
0.7
 40
0.7
 40
0.7
 40
0.7999999999999999
 40
0.7999999999999999
 40
0.7999999999999999
 40
0.7999999999999999
 40
0.8999999999999999
 40
0.8999999999999999
 40
0.8999999999999999
 40
0.8999999999999999
 40
1.0
 40
1.0
 40
1.0
 40
1.0
 10
371.5075
 20
120.7237
 30
0.0
 10
371.5075
 20
120.7237
 30
0.0
 10
371.5075
 20
110.8409
 30
0.0
 10
371.5075
 20
110.8409
 30
0.0
 10
371.5075
 20
110.8409
 30
0.0
 10
372.1116
 20
110.8409
 30
0.0
 10
373.1137
 20
110.8409
 30
0.0
 10
373.7182
 20
110.8409
 30
0.0
 10
373.7182
 20
110.8409
 30
0.0
 10
373.7182
 20
110.8409
 30
0.0
 10
373.7182
 20
113.655
 30
0.0
 10
373.7182
 20
113.655
 30
0.0
 10
373.7182
 20
113.655
 30
0.0
 10
373.7182
 20
113.655
 30
0.0
 10
375.5434
 20
113.5534
 30
0.0
 10
375.5434
 20
113.5534
 30
0.0
 10
375.5434
 20
113.5534
 30
0.0
 10
377.2742
 20
113.4576
 30
0.0
 10
377.55
 20
112.2518
 30
0.0
 10
377.3906
 20
110.8073
 30
0.0
 10
377.3906
 20
110.8073
 30
0.0
 10
377.3906
 20
110.8073
 30
0.0
 10
379.4086
 20
110.8073
 30
0.0
 10
379.4086
 20
110.8073
 30
0.0
 10
379.4086
 20
110.8073
 30
0.0
 10
379.4223
 20
111.9361
 30
0.0
 10
379.5865
 20
113.23
 30
0.0
 10
378.4695
 20
114.2871
 30
0.0
 10
378.4695
 20
114.2871
 30
0.0
 10
379.3146
 20
114.923
 30
0.0
 10
379.6385
 20
115.6841
 30
0.0
 10
379.4081
 20
117.3239
 30
0.0
 10
379.4081
 20
117.3239
 30
0.0
 10
379.2302
 20
118.5917
 30
0.0
 10
378.3211
 20
119.0241
 30
0.0
 10
377.0485
 20
119.311
 30
0.0
 10
377.0485
 20
119.311
 30
0.0
 10
375.2237
 20
119.7225
 30
0.0
 10
373.4025
 20
120.1584
 30
0.0
 10
371.5075
 20
120.7237
 30
0.0
  0
SPLINE
  5
7C
330
1F
100
AcDbEntity
  8
Camada 1
 62
   250
370
    20
100
AcDbSpline
210
0.0
220
0.0
230
1.0
 70
    11
 71
     3
 72
    20
 73
    16
 74
     0
 42
0.0000000001
 43
0.0000000001
 40
0.0
 40
0.0
 40
0.0
 40
0.0
 40
0.25
 40
0.25
 40
0.25
 40
0.25
 40
0.5
 40
0.5
 40
0.5
 40
0.5
 40
0.75
 40
0.75
 40
0.75
 40
0.75
 40
1.0
 40
1.0
 40
1.0
 40
1.0
 10
373.6498
 20
118.1595
 30
0.0
 10
373.6498
 20
118.1595
 30
0.0
 10
373.6498
 20
115.5994
 30
0.0
 10
373.6498
 20
115.5994
 30
0.0
 10
373.6498
 20
115.5994
 30
0.0
 10
373.6498
 20
115.5994
 30
0.0
 10
376.1247
 20
115.3619
 30
0.0
 10
376.1247
 20
115.3619
 30
0.0
 10
376.1247
 20
115.3619
 30
0.0
 10
377.5982
 20
115.524
 30
0.0
 10
377.7748
 20
117.1676
 30
0.0
 10
376.1591
 20
117.7842
 30
0.0
 10
376.1591
 20
117.7842
 30
0.0
 10
376.1591
 20
117.7842
 30
0.0
 10
373.6498
 20
118.1595
 30
0.0
 10
373.6498
 20
118.1595
 30
0.0
  0
SPLINE
  5
7D
330
1F
100
AcDbEntity
  8
Camada 1
 62
   250
370
    20
100
AcDbSpline
210
0.0
220
0.0
230
1.0
 70
    11
 71
     3
 72
    44
 73
    40
 74
     0
 42
0.0000000001
 43
0.0000000001
 40
0.0
 40
0.0
 40
0.0
 40
0.0
 40
0.1
 40
0.1
 40
0.1
 40
0.1
 40
0.2
 40
0.2
 40
0.2
 40
0.2
 40
0.3
 40
0.3
 40
0.3
 40
0.3
 40
0.4
 40
0.4
 40
0.4
 40
0.4
 40
0.5
 40
0.5
 40
0.5
 40
0.5
 40
0.6
 40
0.6
 40
0.6
 40
0.6
 40
0.7
 40
0.7
 40
0.7
 40
0.7
 40
0.7999999999999999
 40
0.7999999999999999
 40
0.7999999999999999
 40
0.7999999999999999
 40
0.8999999999999999
 40
0.8999999999999999
 40
0.8999999999999999
 40
0.8999999999999999
 40
1.0
 40
1.0
 40
1.0
 40
1.0
 10
338.9084
 20
82.6628
 30
0.0
 10
338.9084
 20
82.6628
 30
0.0
 10
334.2109
 20
82.6628
 30
0.0
 10
334.2109
 20
82.6628
 30
0.0
 10
334.2109
 20
82.6628
 30
0.0
 10
333.5377
 20
82.6034
 30
0.0
 10
333.1795
 20
82.258
 30
0.0
 10
333.1371
 20
81.6258
 30
0.0
 10
333.1371
 20
81.6258
 30
0.0
 10
333.1371
 20
81.6258
 30
0.0
 10
333.1371
 20
77.107
 30
0.0
 10
333.1371
 20
77.107
 30
0.0
 10
333.1371
 20
77.107
 30
0.0
 10
333.1371
 20
75.6942
 30
0.0
 10
332.9306
 20
75.675
 30
0.0
 10
334.0207
 20
74.7513
 30
0.0
 10
334.0207
 20
74.7513
 30
0.0
 10
336.3332
 20
73.0676
 30
0.0
 10
337.6019
 20
72.1548
 30
0.0
 10
339.7913
 20
70.6302
 30
0.0
 10
339.7913
 20
70.6302
 30
0.0
 10
339.7913
 20
70.6302
 30
0.0
 10
339.7913
 20
73.2655
 30
0.0
 10
339.7913
 20
73.2655
 30
0.0
 10
339.7913
 20
73.2655
 30
0.0
 10
337.8956
 20
74.4748
 30
0.0
 10
337.2593
 20
75.0454
 30
0.0
 10
335.4554
 20
76.4417
 30
0.0
 10
335.4554
 20
76.4417
 30
0.0
 10
335.4554
 20
76.4417
 30
0.0
 10
335.4554
 20
80.4745
 30
0.0
 10
335.4554
 20
80.4745
 30
0.0
 10
335.4554
 20
80.4745
 30
0.0
 10
335.4554
 20
80.4745
 30
0.0
 10
338.9088
 20
80.4745
 30
0.0
 10
338.9088
 20
80.4745
 30
0.0
 10
338.9088
 20
80.4745
 30
0.0
 10
338.9088
 20
80.4745
 30
0.0
 10
338.9084
 20
82.6628
 30
0.0
 10
338.9084
 20
82.6628
 30
0.0
  0
SPLINE
  5
7E
330
1F
100
AcDbEntity
  8
Camada 1
 62
   250
370
    20
100
AcDbSpline
210
0.0
220
0.0
230
1.0
 70
    11
 71
     3
 72
    40
 73
    36
 74
     0
 42
0.0000000001
 43
0.0000000001
 40
0.0
 40
0.0
 40
0.0
 40
0.0
 40
0.1111111111111111
 40
0.1111111111111111
 40
0.1111111111111111
 40
0.1111111111111111
 40
0.2222222222222222
 40
0.2222222222222222
 40
0.2222222222222222
 40
0.2222222222222222
 40
0.3333333333333333
 40
0.3333333333333333
 40
0.3333333333333333
 40
0.3333333333333333
 40
0.4444444444444444
 40
0.4444444444444444
 40
0.4444444444444444
 40
0.4444444444444444
 40
0.5555555555555556
 40
0.5555555555555556
 40
0.5555555555555556
 40
0.5555555555555556
 40
0.6666666666666667
 40
0.6666666666666667
 40
0.6666666666666667
 40
0.6666666666666667
 40
0.7777777777777779
 40
0.7777777777777779
 40
0.7777777777777779
 40
0.7777777777777779
 40
0.8888888888888891
 40
0.8888888888888891
 40
0.8888888888888891
 40
0.8888888888888891
 40
1.0
 40
1.0
 40
1.0
 40
1.0
 10
340.042
 20
82.6628
 30
0.0
 10
340.042
 20
82.6628
 30
0.0
 10
342.8127
 20
75.6008
 30
0.0
 10
342.8127
 20
75.6008
 30
0.0
 10
342.8127
 20
75.6008
 30
0.0
 10
342.8127
 20
75.6008
 30
0.0
 10
342.8127
 20
68.6891
 30
0.0
 10
342.8127
 20
68.6891
 30
0.0
 10
342.8127
 20
68.6891
 30
0.0
 10
342.8127
 20
68.6891
 30
0.0
 10
345.229
 20
67.2954
 30
0.0
 10
345.229
 20
67.2954
 30
0.0
 10
345.229
 20
67.2954
 30
0.0
 10
345.229
 20
67.2954
 30
0.0
 10
345.229
 20
75.5692
 30
0.0
 10
345.229
 20
75.5692
 30
0.0
 10
345.229
 20
75.5692
 30
0.0
 10
345.229
 20
75.5692
 30
0.0
 10
348.7548
 20
82.6628
 30
0.0
 10
348.7548
 20
82.6628
 30
0.0
 10
348.7548
 20
82.6628
 30
0.0
 10
348.7548
 20
82.6628
 30
0.0
 10
346.2293
 20
82.6628
 30
0.0
 10
346.2293
 20
82.6628
 30
0.0
 10
346.2293
 20
82.6628
 30
0.0
 10
346.2293
 20
82.6628
 30
0.0
 10
344.1668
 20
78.3077
 30
0.0
 10
344.1668
 20
78.3077
 30
0.0
 10
344.1668
 20
78.3077
 30
0.0
 10
344.1668
 20
78.3077
 30
0.0
 10
342.5478
 20
82.6628
 30
0.0
 10
342.5478
 20
82.6628
 30
0.0
 10
342.5478
 20
82.6628
 30
0.0
 10
342.5478
 20
82.6628
 30
0.0
 10
340.042
 20
82.6628
 30
0.0
 10
340.042
 20
82.6628
 30
0.0
  0
SPLINE
  5
7F
330
1F
100
AcDbEntity
  8
Camada 1
 62
   250
370
    20
100
AcDbSpline
210
0.0
220
0.0
230
1.0
 70
    11
 71
     3
 72
    48
 73
    44
 74
     0
 42
0.0000000001
 43
0.0000000001
 40
0.0
 40
0.0
 40
0.0
 40
0.0
 40
0.0909090909090909
 40
0.0909090909090909
 40
0.0909090909090909
 40
0.0909090909090909
 40
0.1818181818181818
 40
0.1818181818181818
 40
0.1818181818181818
 40
0.1818181818181818
 40
0.2727272727272727
 40
0.2727272727272727
 40
0.2727272727272727
 40
0.2727272727272727
 40
0.3636363636363636
 40
0.3636363636363636
 40
0.3636363636363636
 40
0.3636363636363636
 40
0.4545454545454546
 40
0.4545454545454546
 40
0.4545454545454546
 40
0.4545454545454546
 40
0.5454545454545455
 40
0.5454545454545455
 40
0.5454545454545455
 40
0.5454545454545455
 40
0.6363636363636365
 40
0.6363636363636365
 40
0.6363636363636365
 40
0.6363636363636365
 40
0.7272727272727274
 40
0.7272727272727274
 40
0.7272727272727274
 40
0.7272727272727274
 40
0.8181818181818183
 40
0.8181818181818183
 40
0.8181818181818183
 40
0.8181818181818183
 40
0.9090909090909093
 40
0.9090909090909093
 40
0.9090909090909093
 40
0.9090909090909093
 40
1.0
 40
1.0
 40
1.0
 40
1.0
 10
355.746
 20
82.6767
 30
0.0
 10
355.746
 20
82.6767
 30
0.0
 10
351.9057
 20
82.6767
 30
0.0
 10
351.9057
 20
82.6767
 30
0.0
 10
351.9057
 20
82.6767
 30
0.0
 10
350.2559
 20
82.7071
 30
0.0
 10
349.4832
 20
82.0132
 30
0.0
 10
349.4384
 20
80.7186
 30
0.0
 10
349.4384
 20
80.7186
 30
0.0
 10
349.4384
 20
80.7186
 30
0.0
 10
349.4384
 20
66.8491
 30
0.0
 10
349.4384
 20
66.8491
 30
0.0
 10
349.4384
 20
66.8491
 30
0.0
 10
349.4048
 20
65.8636
 30
0.0
 10
349.5843
 20
65.26
 30
0.0
 10
350.3296
 20
64.8332
 30
0.0
 10
350.3296
 20
64.8332
 30
0.0
 10
352.0715
 20
64.0809
 30
0.0
 10
353.8842
 20
63.6123
 30
0.0
 10
355.746
 20
63.3367
 30
0.0
 10
355.746
 20
63.3367
 30
0.0
 10
355.746
 20
63.3367
 30
0.0
 10
355.746
 20
65.4544
 30
0.0
 10
355.746
 20
65.4544
 30
0.0
 10
355.746
 20
65.4544
 30
0.0
 10
354.5541
 20
65.7537
 30
0.0
 10
353.4223
 20
65.9815
 30
0.0
 10
352.3511
 20
66.3983
 30
0.0
 10
352.3511
 20
66.3983
 30
0.0
 10
351.8994
 20
66.6203
 30
0.0
 10
351.9871
 20
66.7962
 30
0.0
 10
351.9753
 20
67.4014
 30
0.0
 10
351.9753
 20
67.4014
 30
0.0
 10
351.9753
 20
67.4014
 30
0.0
 10
351.9753
 20
80.4346
 30
0.0
 10
351.9753
 20
80.4346
 30
0.0
 10
351.9753
 20
80.4346
 30
0.0
 10
351.9753
 20
80.4346
 30
0.0
 10
355.7467
 20
80.4346
 30
0.0
 10
355.7467
 20
80.4346
 30
0.0
 10
355.7467
 20
80.4346
 30
0.0
 10
355.7467
 20
80.4346
 30
0.0
 10
355.746
 20
82.6767
 30
0.0
 10
355.746
 20
82.6767
 30
0.0
  0
SPLINE
  5
80
330
1F
100
AcDbEntity
  8
Camada 1
 62
   250
370
    20
100
AcDbSpline
210
0.0
220
0.0
230
1.0
 70
    11
 71
     3
 72
    36
 73
    32
 74
     0
 42
0.0000000001
 43
0.0000000001
 40
0.0
 40
0.0
 40
0.0
 40
0.0
 40
0.125
 40
0.125
 40
0.125
 40
0.125
 40
0.25
 40
0.25
 40
0.25
 40
0.25
 40
0.375
 40
0.375
 40
0.375
 40
0.375
 40
0.5
 40
0.5
 40
0.5
 40
0.5
 40
0.625
 40
0.625
 40
0.625
 40
0.625
 40
0.75
 40
0.75
 40
0.75
 40
0.75
 40
0.875
 40
0.875
 40
0.875
 40
0.875
 40
1.0
 40
1.0
 40
1.0
 40
1.0
 10
359.7828
 20
82.6628
 30
0.0
 10
359.7828
 20
82.6628
 30
0.0
 10
357.275
 20
82.6628
 30
0.0
 10
357.275
 20
82.6628
 30
0.0
 10
357.275
 20
82.6628
 30
0.0
 10
357.275
 20
82.6628
 30
0.0
 10
357.275
 20
64.598
 30
0.0
 10
357.275
 20
64.598
 30
0.0
 10
357.275
 20
64.598
 30
0.0
 10
357.2589
 20
63.6376
 30
0.0
 10
357.4436
 20
63.2377
 30
0.0
 10
358.4536
 20
63.5325
 30
0.0
 10
358.4536
 20
63.5325
 30
0.0
 10
360.1424
 20
64.0252
 30
0.0
 10
361.8017
 20
64.5572
 30
0.0
 10
363.4536
 20
65.2709
 30
0.0
 10
363.4536
 20
65.2709
 30
0.0
 10
363.4536
 20
65.2709
 30
0.0
 10
363.4536
 20
67.6157
 30
0.0
 10
363.4536
 20
67.6157
 30
0.0
 10
363.4536
 20
67.6157
 30
0.0
 10
363.4536
 20
67.6157
 30
0.0
 10
360.614
 20
66.4691
 30
0.0
 10
360.614
 20
66.4691
 30
0.0
 10
360.614
 20
66.4691
 30
0.0
 10
359.9246
 20
66.1909
 30
0.0
 10
359.6961
 20
66.4248
 30
0.0
 10
359.758
 20
67.0718
 30
0.0
 10
359.758
 20
67.0718
 30
0.0
 10
359.758
 20
67.0718
 30
0.0
 10
359.7828
 20
82.6628
 30
0.0
 10
359.7828
 20
82.6628
 30
0.0
  0
SPLINE
  5
81
330
1F
100
AcDbEntity
  8
Camada 1
 62
   250
370
    20
100
AcDbSpline
210
0.0
220
0.0
230
1.0
 70
    11
 71
     3
 72
    64
 73
    60
 74
     0
 42
0.0000000001
 43
0.0000000001
 40
0.0
 40
0.0
 40
0.0
 40
0.0
 40
0.0666666666666667
 40
0.0666666666666667
 40
0.0666666666666667
 40
0.0666666666666667
 40
0.1333333333333333
 40
0.1333333333333333
 40
0.1333333333333333
 40
0.1333333333333333
 40
0.2
 40
0.2
 40
0.2
 40
0.2
 40
0.2666666666666667
 40
0.2666666666666667
 40
0.2666666666666667
 40
0.2666666666666667
 40
0.3333333333333333
 40
0.3333333333333333
 40
0.3333333333333333
 40
0.3333333333333333
 40
0.4
 40
0.4
 40
0.4
 40
0.4
 40
0.4666666666666666
 40
0.4666666666666666
 40
0.4666666666666666
 40
0.4666666666666666
 40
0.5333333333333333
 40
0.5333333333333333
 40
0.5333333333333333
 40
0.5333333333333333
 40
0.6
 40
0.6
 40
0.6
 40
0.6
 40
0.6666666666666666
 40
0.6666666666666666
 40
0.6666666666666666
 40
0.6666666666666666
 40
0.7333333333333333
 40
0.7333333333333333
 40
0.7333333333333333
 40
0.7333333333333333
 40
0.7999999999999999
 40
0.7999999999999999
 40
0.7999999999999999
 40
0.7999999999999999
 40
0.8666666666666666
 40
0.8666666666666666
 40
0.8666666666666666
 40
0.8666666666666666
 40
0.9333333333333332
 40
0.9333333333333332
 40
0.9333333333333332
 40
0.9333333333333332
 40
1.0
 40
1.0
 40
1.0
 40
1.0
 10
370.6172
 20
82.5846
 30
0.0
 10
370.6172
 20
82.5846
 30
0.0
 10
366.2744
 20
82.5846
 30
0.0
 10
366.2744
 20
82.5846
 30
0.0
 10
366.2744
 20
82.5846
 30
0.0
 10
364.8793
 20
82.5493
 30
0.0
 10
364.41
 20
82.1297
 30
0.0
 10
364.3898
 20
80.7991
 30
0.0
 10
364.3898
 20
80.7991
 30
0.0
 10
364.3898
 20
80.7991
 30
0.0
 10
364.3898
 20
68.2121
 30
0.0
 10
364.3898
 20
68.2121
 30
0.0
 10
364.3898
 20
68.2121
 30
0.0
 10
364.3943
 20
66.441
 30
0.0
 10
365.1514
 20
66.0372
 30
0.0
 10
366.5433
 20
66.7386
 30
0.0
 10
366.5433
 20
66.7386
 30
0.0
 10
366.5433
 20
66.7386
 30
0.0
 10
370.5121
 20
69.0473
 30
0.0
 10
370.5121
 20
69.0473
 30
0.0
 10
370.5121
 20
69.0473
 30
0.0
 10
370.5121
 20
69.0473
 30
0.0
 10
370.5121
 20
71.5983
 30
0.0
 10
370.5121
 20
71.5983
 30
0.0
 10
370.5121
 20
71.5983
 30
0.0
 10
370.5121
 20
71.5983
 30
0.0
 10
367.5878
 20
69.8114
 30
0.0
 10
367.5878
 20
69.8114
 30
0.0
 10
367.5878
 20
69.8114
 30
0.0
 10
367.01
 20
69.5179
 30
0.0
 10
366.749
 20
69.5161
 30
0.0
 10
366.8045
 20
70.1552
 30
0.0
 10
366.8045
 20
70.1552
 30
0.0
 10
366.8045
 20
70.1552
 30
0.0
 10
366.8045
 20
74.5337
 30
0.0
 10
366.8045
 20
74.5337
 30
0.0
 10
366.8045
 20
74.5337
 30
0.0
 10
366.8045
 20
74.5337
 30
0.0
 10
369.7436
 20
74.5337
 30
0.0
 10
369.7436
 20
74.5337
 30
0.0
 10
369.7436
 20
74.5337
 30
0.0
 10
369.7436
 20
74.5337
 30
0.0
 10
369.7436
 20
76.6662
 30
0.0
 10
369.7436
 20
76.6662
 30
0.0
 10
369.7436
 20
76.6662
 30
0.0
 10
369.7436
 20
76.6662
 30
0.0
 10
366.8699
 20
76.6634
 30
0.0
 10
366.8699
 20
76.6634
 30
0.0
 10
366.8699
 20
76.6634
 30
0.0
 10
366.8699
 20
76.6634
 30
0.0
 10
366.8699
 20
80.3423
 30
0.0
 10
366.8699
 20
80.3423
 30
0.0
 10
366.8699
 20
80.3423
 30
0.0
 10
366.8699
 20
80.3423
 30
0.0
 10
370.6198
 20
80.3423
 30
0.0
 10
370.6198
 20
80.3423
 30
0.0
 10
370.6198
 20
80.3423
 30
0.0
 10
370.6198
 20
80.3423
 30
0.0
 10
370.6172
 20
82.5846
 30
0.0
 10
370.6172
 20
82.5846
 30
0.0
  0
SPLINE
  5
82
330
1F
100
AcDbEntity
  8
Camada 1
 62
   250
370
    20
100
AcDbSpline
210
0.0
220
0.0
230
1.0
 70
    11
 71
     3
 72
    56
 73
    52
 74
     0
 42
0.0000000001
 43
0.0000000001
 40
0.0
 40
0.0
 40
0.0
 40
0.0
 40
0.0769230769230769
 40
0.0769230769230769
 40
0.0769230769230769
 40
0.0769230769230769
 40
0.1538461538461539
 40
0.1538461538461539
 40
0.1538461538461539
 40
0.1538461538461539
 40
0.2307692307692308
 40
0.2307692307692308
 40
0.2307692307692308
 40
0.2307692307692308
 40
0.3076923076923077
 40
0.3076923076923077
 40
0.3076923076923077
 40
0.3076923076923077
 40
0.3846153846153846
 40
0.3846153846153846
 40
0.3846153846153846
 40
0.3846153846153846
 40
0.4615384615384616
 40
0.4615384615384616
 40
0.4615384615384616
 40
0.4615384615384616
 40
0.5384615384615385
 40
0.5384615384615385
 40
0.5384615384615385
 40
0.5384615384615385
 40
0.6153846153846154
 40
0.6153846153846154
 40
0.6153846153846154
 40
0.6153846153846154
 40
0.6923076923076923
 40
0.6923076923076923
 40
0.6923076923076923
 40
0.6923076923076923
 40
0.7692307692307692
 40
0.7692307692307692
 40
0.7692307692307692
 40
0.7692307692307692
 40
0.846153846153846
 40
0.846153846153846
 40
0.846153846153846
 40
0.846153846153846
 40
0.9230769230769229
 40
0.9230769230769229
 40
0.9230769230769229
 40
0.9230769230769229
 40
1.0
 40
1.0
 40
1.0
 40
1.0
 10
379.3624
 20
82.6287
 30
0.0
 10
379.3624
 20
82.6287
 30
0.0
 10
373.3278
 20
82.6287
 30
0.0
 10
373.3278
 20
82.6287
 30
0.0
 10
373.3278
 20
82.6287
 30
0.0
 10
372.5809
 20
82.627
 30
0.0
 10
372.1712
 20
82.2051
 30
0.0
 10
372.0986
 20
81.3621
 30
0.0
 10
372.0986
 20
81.3621
 30
0.0
 10
372.0986
 20
81.3621
 30
0.0
 10
372.0986
 20
78.2068
 30
0.0
 10
372.0986
 20
78.2068
 30
0.0
 10
372.0986
 20
78.2068
 30
0.0
 10
372.0624
 20
77.081
 30
0.0
 10
372.4266
 20
76.7024
 30
0.0
 10
373.3805
 20
76.6497
 30
0.0
 10
373.3805
 20
76.6497
 30
0.0
 10
373.3805
 20
76.6497
 30
0.0
 10
376.855
 20
76.6497
 30
0.0
 10
376.855
 20
76.6497
 30
0.0
 10
376.855
 20
76.6497
 30
0.0
 10
378.3965
 20
76.6497
 30
0.0
 10
374.7686
 20
74.4611
 30
0.0
 10
372.5305
 20
72.928
 30
0.0
 10
372.5305
 20
72.928
 30
0.0
 10
372.5305
 20
72.928
 30
0.0
 10
372.5305
 20
70.3384
 30
0.0
 10
372.5305
 20
70.3384
 30
0.0
 10
372.5305
 20
70.3384
 30
0.0
 10
374.8994
 20
71.9175
 30
0.0
 10
376.5124
 20
73.0265
 30
0.0
 10
378.9279
 20
74.8489
 30
0.0
 10
378.9279
 20
74.8489
 30
0.0
 10
379.9706
 20
75.9362
 30
0.0
 10
379.9263
 20
78.5965
 30
0.0
 10
378.3116
 20
78.6679
 30
0.0
 10
378.3116
 20
78.6679
 30
0.0
 10
378.3116
 20
78.6679
 30
0.0
 10
374.5754
 20
78.6679
 30
0.0
 10
374.5754
 20
78.6679
 30
0.0
 10
374.5754
 20
78.6679
 30
0.0
 10
374.5754
 20
78.6679
 30
0.0
 10
374.5754
 20
80.4346
 30
0.0
 10
374.5754
 20
80.4346
 30
0.0
 10
374.5754
 20
80.4346
 30
0.0
 10
374.5754
 20
80.4346
 30
0.0
 10
379.3657
 20
80.4346
 30
0.0
 10
379.3657
 20
80.4346
 30
0.0
 10
379.3657
 20
80.4346
 30
0.0
 10
379.3657
 20
80.4346
 30
0.0
 10
379.3624
 20
82.6287
 30
0.0
 10
379.3624
 20
82.6287
 30
0.0
  0
SPLINE
  5
83
330
1F
100
AcDbEntity
  8
Camada 1
 62
   250
370
    20
100
AcDbSpline
210
0.0
220
0.0
230
1.0
 70
    11
 71
     3
 72
    20
 73
    16
 74
     0
 42
0.0000000001
 43
0.0000000001
 40
0.0
 40
0.0
 40
0.0
 40
0.0
 40
0.25
 40
0.25
 40
0.25
 40
0.25
 40
0.5
 40
0.5
 40
0.5
 40
0.5
 40
0.75
 40
0.75
 40
0.75
 40
0.75
 40
1.0
 40
1.0
 40
1.0
 40
1.0
 10
309.4555
 20
105.7298
 30
0.0
 10
309.4555
 20
105.7298
 30
0.0
 10
309.4555
 20
87.4008
 30
0.0
 10
309.4555
 20
87.4008
 30
0.0
 10
309.4555
 20
87.4008
 30
0.0
 10
309.4555
 20
87.4008
 30
0.0
 10
403.323
 20
87.4008
 30
0.0
 10
403.323
 20
87.4008
 30
0.0
 10
403.323
 20
87.4008
 30
0.0
 10
403.323
 20
87.4008
 30
0.0
 10
403.323
 20
105.7298
 30
0.0
 10
403.323
 20
105.7298
 30
0.0
 10
403.323
 20
105.7298
 30
0.0
 10
403.323
 20
105.7298
 30
0.0
 10
309.4555
 20
105.7298
 30
0.0
 10
309.4555
 20
105.7298
 30
0.0
  0
SPLINE
  5
84
330
1F
100
AcDbEntity
  8
Camada 1
 62
   250
370
    20
100
AcDbSpline
210
0.0
220
0.0
230
1.0
 70
    11
 71
     3
 72
    48
 73
    44
 74
     0
 42
0.0000000001
 43
0.0000000001
 40
0.0
 40
0.0
 40
0.0
 40
0.0
 40
0.0909090909090909
 40
0.0909090909090909
 40
0.0909090909090909
 40
0.0909090909090909
 40
0.1818181818181818
 40
0.1818181818181818
 40
0.1818181818181818
 40
0.1818181818181818
 40
0.2727272727272727
 40
0.2727272727272727
 40
0.2727272727272727
 40
0.2727272727272727
 40
0.3636363636363636
 40
0.3636363636363636
 40
0.3636363636363636
 40
0.3636363636363636
 40
0.4545454545454546
 40
0.4545454545454546
 40
0.4545454545454546
 40
0.4545454545454546
 40
0.5454545454545455
 40
0.5454545454545455
 40
0.5454545454545455
 40
0.5454545454545455
 40
0.6363636363636365
 40
0.6363636363636365
 40
0.6363636363636365
 40
0.6363636363636365
 40
0.7272727272727274
 40
0.7272727272727274
 40
0.7272727272727274
 40
0.7272727272727274
 40
0.8181818181818183
 40
0.8181818181818183
 40
0.8181818181818183
 40
0.8181818181818183
 40
0.9090909090909093
 40
0.9090909090909093
 40
0.9090909090909093
 40
0.9090909090909093
 40
1.0
 40
1.0
 40
1.0
 40
1.0
 10
330.4443
 20
84.3346
 30
0.0
 10
330.4877
 20
82.2399
 30
0.0
 10
329.3638
 20
79.059
 30
0.0
 10
327.7251
 20
77.2717
 30
0.0
 10
327.7251
 20
77.2717
 30
0.0
 10
331.62
 20
74.0001
 30
0.0
 10
335.693
 20
70.9418
 30
0.0
 10
339.9548
 20
68.1634
 30
0.0
 10
339.9548
 20
68.1634
 30
0.0
 10
342.7645
 20
66.332
 30
0.0
 10
345.7073
 20
64.7093
 30
0.0
 10
348.7703
 20
63.3418
 30
0.0
 10
348.7703
 20
63.3418
 30
0.0
 10
350.3978
 20
62.6153
 30
0.0
 10
352.0852
 20
62.0103
 30
0.0
 10
353.8297
 20
61.6333
 30
0.0
 10
353.8297
 20
61.6333
 30
0.0
 10
354.4838
 20
61.4918
 30
0.0
 10
355.1308
 20
61.3772
 30
0.0
 10
355.8003
 20
61.3406
 30
0.0
 10
355.8003
 20
61.3406
 30
0.0
 10
356.2095
 20
61.3183
 30
0.0
 10
356.6208
 20
61.2977
 30
0.0
 10
357.0305
 20
61.3255
 30
0.0
 10
357.0305
 20
61.3255
 30
0.0
 10
357.808
 20
61.3786
 30
0.0
 10
358.5768
 20
61.5183
 30
0.0
 10
359.3337
 20
61.7004
 30
0.0
 10
359.3337
 20
61.7004
 30
0.0
 10
365.4683
 20
63.1776
 30
0.0
 10
370.8953
 20
66.7168
 30
0.0
 10
376.0069
 20
70.2811
 30
0.0
 10
376.0069
 20
70.2811
 30
0.0
 10
379.1379
 20
72.464
 30
0.0
 10
382.1517
 20
74.812
 30
0.0
 10
385.0697
 20
77.2717
 30
0.0
 10
385.0697
 20
77.2717
 30
0.0
 10
383.4296
 20
79.0616
 30
0.0
 10
382.463
 20
81.5702
 30
0.0
 10
382.3563
 20
84.3346
 30
0.0
 10
382.3563
 20
84.3346
 30
0.0
 10
382.3563
 20
84.3346
 30
0.0
 10
330.4443
 20
84.3346
 30
0.0
 10
330.4443
 20
84.3346
 30
0.0
  0
SPLINE
  5
85
330
1F
100
AcDbEntity
  8
Camada 1
 62
   250
370
    20
100
AcDbSpline
210
0.0
220
0.0
230
1.0
 70
    11
 71
     3
 72
   168
 73
   164
 74
     0
 42
0.0000000001
 43
0.0000000001
 40
0.0
 40
0.0
 40
0.0
 40
0.0
 40
0.024390243902439
 40
0.024390243902439
 40
0.024390243902439
 40
0.024390243902439
 40
0.0487804878048781
 40
0.0487804878048781
 40
0.0487804878048781
 40
0.0487804878048781
 40
0.0731707317073171
 40
0.0731707317073171
 40
0.0731707317073171
 40
0.0731707317073171
 40
0.0975609756097561
 40
0.0975609756097561
 40
0.0975609756097561
 40
0.0975609756097561
 40
0.1219512195121951
 40
0.1219512195121951
 40
0.1219512195121951
 40
0.1219512195121951
 40
0.1463414634146341
 40
0.1463414634146341
 40
0.1463414634146341
 40
0.1463414634146341
 40
0.1707317073170732
 40
0.1707317073170732
 40
0.1707317073170732
 40
0.1707317073170732
 40
0.1951219512195122
 40
0.1951219512195122
 40
0.1951219512195122
 40
0.1951219512195122
 40
0.2195121951219512
 40
0.2195121951219512
 40
0.2195121951219512
 40
0.2195121951219512
 40
0.2439024390243902
 40
0.2439024390243902
 40
0.2439024390243902
 40
0.2439024390243902
 40
0.2682926829268292
 40
0.2682926829268292
 40
0.2682926829268292
 40
0.2682926829268292
 40
0.2926829268292683
 40
0.2926829268292683
 40
0.2926829268292683
 40
0.2926829268292683
 40
0.3170731707317073
 40
0.3170731707317073
 40
0.3170731707317073
 40
0.3170731707317073
 40
0.3414634146341464
 40
0.3414634146341464
 40
0.3414634146341464
 40
0.3414634146341464
 40
0.3658536585365854
 40
0.3658536585365854
 40
0.3658536585365854
 40
0.3658536585365854
 40
0.3902439024390245
 40
0.3902439024390245
 40
0.3902439024390245
 40
0.3902439024390245
 40
0.4146341463414635
 40
0.4146341463414635
 40
0.4146341463414635
 40
0.4146341463414635
 40
0.4390243902439026
 40
0.4390243902439026
 40
0.4390243902439026
 40
0.4390243902439026
 40
0.4634146341463416
 40
0.4634146341463416
 40
0.4634146341463416
 40
0.4634146341463416
 40
0.4878048780487806
 40
0.4878048780487806
 40
0.4878048780487806
 40
0.4878048780487806
 40
0.5121951219512196
 40
0.5121951219512196
 40
0.5121951219512196
 40
0.5121951219512196
 40
0.5365853658536587
 40
0.5365853658536587
 40
0.5365853658536587
 40
0.5365853658536587
 40
0.5609756097560977
 40
0.5609756097560977
 40
0.5609756097560977
 40
0.5609756097560977
 40
0.5853658536585368
 40
0.5853658536585368
 40
0.5853658536585368
 40
0.5853658536585368
 40
0.6097560975609758
 40
0.6097560975609758
 40
0.6097560975609758
 40
0.6097560975609758
 40
0.6341463414634149
 40
0.6341463414634149
 40
0.6341463414634149
 40
0.6341463414634149
 40
0.6585365853658539
 40
0.6585365853658539
 40
0.6585365853658539
 40
0.6585365853658539
 40
0.682926829268293
 40
0.682926829268293
 40
0.682926829268293
 40
0.682926829268293
 40
0.707317073170732
 40
0.707317073170732
 40
0.707317073170732
 40
0.707317073170732
 40
0.731707317073171
 40
0.731707317073171
 40
0.731707317073171
 40
0.731707317073171
 40
0.7560975609756101
 40
0.7560975609756101
 40
0.7560975609756101
 40
0.7560975609756101
 40
0.7804878048780491
 40
0.7804878048780491
 40
0.7804878048780491
 40
0.7804878048780491
 40
0.8048780487804882
 40
0.8048780487804882
 40
0.8048780487804882
 40
0.8048780487804882
 40
0.8292682926829272
 40
0.8292682926829272
 40
0.8292682926829272
 40
0.8292682926829272
 40
0.8536585365853663
 40
0.8536585365853663
 40
0.8536585365853663
 40
0.8536585365853663
 40
0.8780487804878053
 40
0.8780487804878053
 40
0.8780487804878053
 40
0.8780487804878053
 40
0.9024390243902444
 40
0.9024390243902444
 40
0.9024390243902444
 40
0.9024390243902444
 40
0.9268292682926834
 40
0.9268292682926834
 40
0.9268292682926834
 40
0.9268292682926834
 40
0.9512195121951225
 40
0.9512195121951225
 40
0.9512195121951225
 40
0.9512195121951225
 40
0.9756097560975615
 40
0.9756097560975615
 40
0.9756097560975615
 40
0.9756097560975615
 40
1.0
 40
1.0
 40
1.0
 40
1.0
 10
385.5828
 20
84.3346
 30
0.0
 10
385.464
 20
81.8369
 30
0.0
 10
386.8522
 20
79.0386
 30
0.0
 10
389.3995
 20
77.802
 30
0.0
 10
389.3995
 20
77.802
 30
0.0
 10
389.3995
 20
77.802
 30
0.0
 10
390.0284
 20
77.4969
 30
0.0
 10
390.0284
 20
77.4969
 30
0.0
 10
390.0284
 20
77.4969
 30
0.0
 10
390.0284
 20
77.4969
 30
0.0
 10
389.5029
 20
77.036
 30
0.0
 10
389.5029
 20
77.036
 30
0.0
 10
389.5029
 20
77.036
 30
0.0
 10
385.7514
 20
73.744
 30
0.0
 10
381.8552
 20
70.6214
 30
0.0
 10
377.7604
 20
67.7656
 30
0.0
 10
377.7604
 20
67.7656
 30
0.0
 10
375.3342
 20
66.0733
 30
0.0
 10
372.8794
 20
64.4235
 30
0.0
 10
370.2662
 20
63.0305
 30
0.0
 10
370.2662
 20
63.0305
 30
0.0
 10
370.2662
 20
63.0305
 30
0.0
 10
367.8572
 20
61.7463
 30
0.0
 10
367.8572
 20
61.7463
 30
0.0
 10
367.8572
 20
61.7463
 30
0.0
 10
365.3623
 20
60.4164
 30
0.0
 10
362.8052
 20
59.3779
 30
0.0
 10
360.0517
 20
58.7184
 30
0.0
 10
360.0517
 20
58.7184
 30
0.0
 10
359.1219
 20
58.4957
 30
0.0
 10
358.194
 20
58.33
 30
0.0
 10
357.2395
 20
58.2646
 30
0.0
 10
357.2395
 20
58.2646
 30
0.0
 10
356.3714
 20
58.205
 30
0.0
 10
355.5273
 20
58.2416
 30
0.0
 10
354.6652
 20
58.3553
 30
0.0
 10
354.6652
 20
58.3553
 30
0.0
 10
353.6647
 20
58.4871
 30
0.0
 10
352.6909
 20
58.7107
 30
0.0
 10
351.722
 20
58.9888
 30
0.0
 10
351.722
 20
58.9888
 30
0.0
 10
350.6099
 20
59.3078
 30
0.0
 10
349.5245
 20
59.6991
 30
0.0
 10
348.4534
 20
60.1353
 30
0.0
 10
348.4534
 20
60.1353
 30
0.0
 10
345.9643
 20
61.1488
 30
0.0
 10
343.575
 20
62.3469
 30
0.0
 10
341.2803
 20
63.7457
 30
0.0
 10
341.2803
 20
63.7457
 30
0.0
 10
341.2803
 20
63.7457
 30
0.0
 10
338.8035
 20
65.2556
 30
0.0
 10
338.8035
 20
65.2556
 30
0.0
 10
338.8035
 20
65.2556
 30
0.0
 10
333.2398
 20
68.6473
 30
0.0
 10
328.1823
 20
72.7475
 30
0.0
 10
323.2923
 20
77.0355
 30
0.0
 10
323.2923
 20
77.0355
 30
0.0
 10
323.2923
 20
77.0355
 30
0.0
 10
322.7671
 20
77.4962
 30
0.0
 10
322.7671
 20
77.4962
 30
0.0
 10
322.7671
 20
77.4962
 30
0.0
 10
322.7671
 20
77.4962
 30
0.0
 10
323.3955
 20
77.8017
 30
0.0
 10
323.3955
 20
77.8017
 30
0.0
 10
323.3955
 20
77.8017
 30
0.0
 10
325.944
 20
79.0402
 30
0.0
 10
327.1248
 20
82.0926
 30
0.0
 10
327.2159
 20
84.3346
 30
0.0
 10
327.2159
 20
84.3346
 30
0.0
 10
327.2159
 20
84.3346
 30
0.0
 10
306.3893
 20
84.3346
 30
0.0
 10
306.3893
 20
84.3346
 30
0.0
 10
306.3893
 20
84.3346
 30
0.0
 10
306.3893
 20
84.3346
 30
0.0
 10
306.3893
 20
108.7961
 30
0.0
 10
306.3893
 20
108.7961
 30
0.0
 10
306.3893
 20
108.7961
 30
0.0
 10
306.3893
 20
108.7961
 30
0.0
 10
328.3459
 20
108.7961
 30
0.0
 10
328.3459
 20
108.7961
 30
0.0
 10
328.3459
 20
108.7961
 30
0.0
 10
328.1406
 20
111.9268
 30
0.0
 10
327.9566
 20
114.621
 30
0.0
 10
324.5262
 20
115.9699
 30
0.0
 10
324.5262
 20
115.9699
 30
0.0
 10
324.5262
 20
115.9699
 30
0.0
 10
323.7669
 20
116.2682
 30
0.0
 10
323.7669
 20
116.2682
 30
0.0
 10
323.7669
 20
116.2682
 30
0.0
 10
323.7669
 20
116.2682
 30
0.0
 10
323.7669
 20
122.7855
 30
0.0
 10
323.7669
 20
122.7855
 30
0.0
 10
323.7669
 20
122.7855
 30
0.0
 10
323.7669
 20
122.7855
 30
0.0
 10
324.2086
 20
122.8069
 30
0.0
 10
324.2086
 20
122.8069
 30
0.0
 10
324.2086
 20
122.8069
 30
0.0
 10
326.865
 20
122.9345
 30
0.0
 10
329.5046
 20
123.2114
 30
0.0
 10
332.1234
 20
123.6777
 30
0.0
 10
332.1234
 20
123.6777
 30
0.0
 10
334.4702
 20
124.0955
 30
0.0
 10
336.7958
 20
124.6021
 30
0.0
 10
339.0703
 20
125.3215
 30
0.0
 10
339.0703
 20
125.3215
 30
0.0
 10
339.0703
 20
125.3215
 30
0.0
 10
341.3847
 20
126.0533
 30
0.0
 10
341.3847
 20
126.0533
 30
0.0
 10
341.3847
 20
126.0533
 30
0.0
 10
346.6526
 20
127.7192
 30
0.0
 10
351.5438
 20
130.1985
 30
0.0
 10
356.1413
 20
133.249
 30
0.0
 10
356.1413
 20
133.249
 30
0.0
 10
356.1413
 20
133.249
 30
0.0
 10
356.3979
 20
133.419
 30
0.0
 10
356.3979
 20
133.419
 30
0.0
 10
356.3979
 20
133.419
 30
0.0
 10
356.3979
 20
133.419
 30
0.0
 10
356.6544
 20
133.2487
 30
0.0
 10
356.6544
 20
133.2487
 30
0.0
 10
356.6544
 20
133.2487
 30
0.0
 10
359.8935
 20
131.0995
 30
0.0
 10
363.3116
 20
129.2743
 30
0.0
 10
366.8935
 20
127.7644
 30
0.0
 10
366.8935
 20
127.7644
 30
0.0
 10
369.1228
 20
126.8247
 30
0.0
 10
371.3966
 20
126.0111
 30
0.0
 10
373.7164
 20
125.3245
 30
0.0
 10
373.7164
 20
125.3245
 30
0.0
 10
376.0043
 20
124.6471
 30
0.0
 10
378.322
 20
124.0962
 30
0.0
 10
380.6714
 20
123.6777
 30
0.0
 10
380.6714
 20
123.6777
 30
0.0
 10
383.2916
 20
123.211
 30
0.0
 10
385.9303
 20
122.9349
 30
0.0
 10
388.5878
 20
122.8066
 30
0.0
 10
388.5878
 20
122.8066
 30
0.0
 10
388.5878
 20
122.8066
 30
0.0
 10
389.0295
 20
122.7853
 30
0.0
 10
389.0295
 20
122.7853
 30
0.0
 10
389.0295
 20
122.7853
 30
0.0
 10
389.0295
 20
122.7853
 30
0.0
 10
389.0295
 20
116.2682
 30
0.0
 10
389.0295
 20
116.2682
 30
0.0
 10
389.0295
 20
116.2682
 30
0.0
 10
389.0295
 20
116.2682
 30
0.0
 10
388.7349
 20
116.1527
 30
0.0
 10
388.7349
 20
116.1527
 30
0.0
 10
388.7349
 20
116.1527
 30
0.0
 10
384.8284
 20
114.6214
 30
0.0
 10
384.6999
 20
112.3894
 30
0.0
 10
384.3754
 20
108.7961
 30
0.0
 10
384.3754
 20
108.7961
 30
0.0
 10
384.3754
 20
108.7961
 30
0.0
 10
406.3893
 20
108.7961
 30
0.0
 10
406.3893
 20
108.7961
 30
0.0
 10
406.3893
 20
108.7961
 30
0.0
 10
406.3893
 20
108.7961
 30
0.0
 10
406.3893
 20
84.3346
 30
0.0
 10
406.3893
 20
84.3346
 30
0.0
 10
406.3893
 20
84.3346
 30
0.0
 10
406.3893
 20
84.3346
 30
0.0
 10
385.5828
 20
84.3346
 30
0.0
 10
385.5828
 20
84.3346
 30
0.0
  0
SPLINE
  5
86
330
1F
100
AcDbEntity
  8
Camada 1
 62
   250
370
    20
100
AcDbSpline
210
0.0
220
0.0
230
1.0
 70
    11
 71
     3
 72
    52
 73
    48
 74
     0
 42
0.0000000001
 43
0.0000000001
 40
0.0
 40
0.0
 40
0.0
 40
0.0
 40
0.0833333333333333
 40
0.0833333333333333
 40
0.0833333333333333
 40
0.0833333333333333
 40
0.1666666666666667
 40
0.1666666666666667
 40
0.1666666666666667
 40
0.1666666666666667
 40
0.25
 40
0.25
 40
0.25
 40
0.25
 40
0.3333333333333333
 40
0.3333333333333333
 40
0.3333333333333333
 40
0.3333333333333333
 40
0.4166666666666666
 40
0.4166666666666666
 40
0.4166666666666666
 40
0.4166666666666666
 40
0.4999999999999999
 40
0.4999999999999999
 40
0.4999999999999999
 40
0.4999999999999999
 40
0.5833333333333333
 40
0.5833333333333333
 40
0.5833333333333333
 40
0.5833333333333333
 40
0.6666666666666666
 40
0.6666666666666666
 40
0.6666666666666666
 40
0.6666666666666666
 40
0.75
 40
0.75
 40
0.75
 40
0.75
 40
0.8333333333333334
 40
0.8333333333333334
 40
0.8333333333333334
 40
0.8333333333333334
 40
0.9166666666666667
 40
0.9166666666666667
 40
0.9166666666666667
 40
0.9166666666666667
 40
1.0
 40
1.0
 40
1.0
 40
1.0
 10
331.4423
 20
108.7961
 30
0.0
 10
331.4423
 20
108.7961
 30
0.0
 10
381.2539
 20
108.7961
 30
0.0
 10
381.2539
 20
108.7961
 30
0.0
 10
381.2539
 20
108.7961
 30
0.0
 10
381.6736
 20
112.5998
 30
0.0
 10
381.7923
 20
115.4417
 30
0.0
 10
385.3712
 20
117.8354
 30
0.0
 10
385.3712
 20
117.8354
 30
0.0
 10
385.5649
 20
117.9651
 30
0.0
 10
385.7626
 20
118.0878
 30
0.0
 10
385.9632
 20
118.2059
 30
0.0
 10
385.9632
 20
118.2059
 30
0.0
 10
385.9632
 20
118.2059
 30
0.0
 10
385.9632
 20
119.9088
 30
0.0
 10
385.9632
 20
119.9088
 30
0.0
 10
385.9632
 20
119.9088
 30
0.0
 10
382.2973
 20
120.2097
 30
0.0
 10
378.6778
 20
120.858
 30
0.0
 10
375.1145
 20
121.7695
 30
0.0
 10
375.1145
 20
121.7695
 30
0.0
 10
371.9012
 20
122.5916
 30
0.0
 10
368.7589
 20
123.6503
 30
0.0
 10
365.7026
 20
124.9389
 30
0.0
 10
365.7026
 20
124.9389
 30
0.0
 10
362.4781
 20
126.2985
 30
0.0
 10
359.3632
 20
127.9101
 30
0.0
 10
356.3976
 20
129.7682
 30
0.0
 10
356.3976
 20
129.7682
 30
0.0
 10
354.8947
 20
128.8217
 30
0.0
 10
353.3444
 20
127.9528
 30
0.0
 10
351.7646
 20
127.1415
 30
0.0
 10
351.7646
 20
127.1415
 30
0.0
 10
347.5617
 20
124.9835
 30
0.0
 10
343.1428
 20
123.2253
 30
0.0
 10
338.5767
 20
122.004
 30
0.0
 10
338.5767
 20
122.004
 30
0.0
 10
334.728
 20
120.9745
 30
0.0
 10
330.8069
 20
120.2213
 30
0.0
 10
326.8332
 20
119.9074
 30
0.0
 10
326.8332
 20
119.9074
 30
0.0
 10
326.8332
 20
119.9074
 30
0.0
 10
326.8332
 20
118.2022
 30
0.0
 10
326.8332
 20
118.2022
 30
0.0
 10
326.8332
 20
118.2022
 30
0.0
 10
330.9296
 20
115.7217
 30
0.0
 10
330.9918
 20
113.1391
 30
0.0
 10
331.4423
 20
108.7961
 30
0.0
  0
ENDSEC
  0
SECTION
  2
OBJECTS
  0
DICTIONARY
  5
C
330
0
100
AcDbDictionary
281
     1
  3
ACAD_GROUP
350
D
  3
ACAD_LAYOUT
350
1A
  3
ACAD_MLEADERSTYLE
350
88
  3
ACAD_MLINESTYLE
350
17
  3
ACAD_PLOTSETTINGS
350
19
  3
ACAD_PLOTSTYLENAME
350
E
  3
ACAD_SCALELIST
350
3B
  3
ACAD_TABLESTYLE
350
87
  3
ACAD_VISUALSTYLE
350
2A
  0
DICTIONARY
  5
D
102
{ACAD_REACTORS
330
C
102
}
330
C
100
AcDbDictionary
281
     1
  0
DICTIONARY
  5
1A
102
{ACAD_REACTORS
330
C
102
}
330
C
100
AcDbDictionary
281
     1
  3
Layout1
350
1E
  3
Layout2
350
26
  3
Model
350
22
  0
DICTIONARY
  5
88
102
{ACAD_REACTORS
330
C
102
}
330
C
100
AcDbDictionary
281
     1
  0
DICTIONARY
  5
17
102
{ACAD_REACTORS
330
C
102
}
330
C
100
AcDbDictionary
281
     1
  3
Standard
350
18
  0
DICTIONARY
  5
19
102
{ACAD_REACTORS
330
C
102
}
330
C
100
AcDbDictionary
281
     1
  0
ACDBDICTIONARYWDFLT
  5
E
102
{ACAD_REACTORS
330
C
102
}
330
C
100
AcDbDictionary
281
     1
  3
Normal
350
F
100
AcDbDictionaryWithDefault
340
F
  0
DICTIONARY
  5
3B
102
{ACAD_REACTORS
330
C
102
}
330
C
100
AcDbDictionary
281
     1
  3
A0
350
3C
  3
A1
350
3D
  3
A2
350
3E
  3
A3
350
3F
  3
A4
350
40
  3
A5
350
41
  3
A6
350
42
  3
A7
350
43
  3
A8
350
44
  3
A9
350
45
  3
B0
350
46
  3
B1
350
47
  3
B2
350
48
  3
B3
350
49
  3
B4
350
4A
  3
B5
350
4B
  3
B6
350
4C
  3
B7
350
4D
  3
B8
350
4E
  3
B9
350
4F
  3
C0
350
50
  3
C1
350
51
  3
C2
350
52
  3
C3
350
53
  3
C4
350
54
  3
C5
350
55
  3
C6
350
56
  3
C7
350
57
  3
C8
350
58
  3
C9
350
59
  3
D0
350
5A
  3
D1
350
5B
  3
D2
350
5C
  0
DICTIONARY
  5
87
102
{ACAD_REACTORS
330
C
102
}
330
C
100
AcDbDictionary
281
     1
  0
DICTIONARY
  5
2A
102
{ACAD_REACTORS
330
C
102
}
330
C
100
AcDbDictionary
281
     1
  3
2dWireframe
350
2F
  3
3D Hidden
350
31
  3
3dWireframe
350
30
  3
Basic
350
32
  3
Brighten
350
36
  3
ColorChange
350
3A
  3
Conceptual
350
34
  3
Dim
350
35
  3
Facepattern
350
39
  3
Flat
350
2B
  3
FlatWithEdges
350
2C
  3
Gouraud
350
2D
  3
GouraudWithEdges
350
2E
  3
Linepattern
350
38
  3
Realistic
350
33
  3
Thicken
350
37
  0
LAYOUT
  5
1E
102
{ACAD_REACTORS
330
1A
102
}
330
1A
100
AcDbPlotSettings
  1

  2
none_device
  4

  6

 40
0.0
 41
0.0
 42
0.0
 43
0.0
 44
0.0
 45
0.0
 46
0.0
 47
0.0
 48
0.0
 49
0.0
140
0.0
141
0.0
142
1.0
143
1.0
 70
   688
 72
     0
 73
     0
 74
     5
  7

 75
    16
 76
     0
 77
     2
 78
   300
147
1.0
148
0.0
149
0.0
100
AcDbLayout
  1
Layout1
 70
     1
 71
     1
 10
0.0
 20
0.0
 11
12.0
 21
9.0
 12
0.0
 22
0.0
 32
0.0
 14
1.000000000000000E+20
 24
1.000000000000000E+20
 34
1.000000000000000E+20
 15
-1.000000000000000E+20
 25
-1.000000000000000E+20
 35
-1.000000000000000E+20
146
0.0
 13
0.0
 23
0.0
 33
0.0
 16
1.0
 26
0.0
 36
0.0
 17
0.0
 27
1.0
 37
0.0
 76
     0
330
1B
  0
LAYOUT
  5
26
102
{ACAD_REACTORS
330
1A
102
}
330
1A
100
AcDbPlotSettings
  1

  2
none_device
  4

  6

 40
0.0
 41
0.0
 42
0.0
 43
0.0
 44
0.0
 45
0.0
 46
0.0
 47
0.0
 48
0.0
 49
0.0
140
0.0
141
0.0
142
1.0
143
1.0
 70
   688
 72
     0
 73
     0
 74
     5
  7

 75
    16
 76
     0
 77
     2
 78
   300
147
1.0
148
0.0
149
0.0
100
AcDbLayout
  1
Layout2
 70
     1
 71
     2
 10
0.0
 20
0.0
 11
0.0
 21
0.0
 12
0.0
 22
0.0
 32
0.0
 14
0.0
 24
0.0
 34
0.0
 15
0.0
 25
0.0
 35
0.0
146
0.0
 13
0.0
 23
0.0
 33
0.0
 16
1.0
 26
0.0
 36
0.0
 17
0.0
 27
1.0
 37
0.0
 76
     0
330
23
  0
LAYOUT
  5
22
102
{ACAD_REACTORS
330
1A
102
}
330
1A
100
AcDbPlotSettings
  1

  2
none_device
  4

  6

 40
0.0
 41
0.0
 42
0.0
 43
0.0
 44
0.0
 45
0.0
 46
0.0
 47
0.0
 48
0.0
 49
0.0
140
0.0
141
0.0
142
1.0
143
1.0
 70
  1712
 72
     0
 73
     0
 74
     0
  7

 75
     0
 76
     0
 77
     2
 78
   300
147
1.0
148
0.0
149
0.0
100
AcDbLayout
  1
Model
 70
     1
 71
     0
 10
0.0
 20
0.0
 11
12.0
 21
9.0
 12
0.0
 22
0.0
 32
0.0
 14
302.2893
 24
54.1372
 34
0.0
 15
410.4893
 25
138.3385
 35
0.0
146
0.0
 13
0.0
 23
0.0
 33
0.0
 16
1.0
 26
0.0
 36
0.0
 17
0.0
 27
1.0
 37
0.0
 76
     0
330
1F
331
29
  0
MLINESTYLE
  5
18
102
{ACAD_REACTORS
330
17
102
}
330
17
100
AcDbMlineStyle
  2
Standard
 70
     0
  3

 62
   256
 51
90.0
 52
90.0
 71
     2
 49
0.5
 62
   256
  6
BYLAYER
 49
-0.5
 62
   256
  6
BYLAYER
  0
ACDBPLACEHOLDER
  5
F
102
{ACAD_REACTORS
330
E
102
}
330
E
  0
SCALE
  5
3C
102
{ACAD_REACTORS
330
3B
102
}
330
3B
100
AcDbScale
 70
     0
300
1:1
140
1.0
141
1.0
290
     1
  0
SCALE
  5
3D
102
{ACAD_REACTORS
330
3B
102
}
330
3B
100
AcDbScale
 70
     0
300
1:2
140
1.0
141
2.0
290
     0
  0
SCALE
  5
3E
102
{ACAD_REACTORS
330
3B
102
}
330
3B
100
AcDbScale
 70
     0
300
1:4
140
1.0
141
4.0
290
     0
  0
SCALE
  5
3F
102
{ACAD_REACTORS
330
3B
102
}
330
3B
100
AcDbScale
 70
     0
300
1:5
140
1.0
141
5.0
290
     0
  0
SCALE
  5
40
102
{ACAD_REACTORS
330
3B
102
}
330
3B
100
AcDbScale
 70
     0
300
1:8
140
1.0
141
8.0
290
     0
  0
SCALE
  5
41
102
{ACAD_REACTORS
330
3B
102
}
330
3B
100
AcDbScale
 70
     0
300
1:10
140
1.0
141
10.0
290
     0
  0
SCALE
  5
42
102
{ACAD_REACTORS
330
3B
102
}
330
3B
100
AcDbScale
 70
     0
300
1:16
140
1.0
141
16.0
290
     0
  0
SCALE
  5
43
102
{ACAD_REACTORS
330
3B
102
}
330
3B
100
AcDbScale
 70
     0
300
1:20
140
1.0
141
20.0
290
     0
  0
SCALE
  5
44
102
{ACAD_REACTORS
330
3B
102
}
330
3B
100
AcDbScale
 70
     0
300
1:30
140
1.0
141
30.0
290
     0
  0
SCALE
  5
45
102
{ACAD_REACTORS
330
3B
102
}
330
3B
100
AcDbScale
 70
     0
300
1:40
140
1.0
141
40.0
290
     0
  0
SCALE
  5
46
102
{ACAD_REACTORS
330
3B
102
}
330
3B
100
AcDbScale
 70
     0
300
1:50
140
1.0
141
50.0
290
     0
  0
SCALE
  5
47
102
{ACAD_REACTORS
330
3B
102
}
330
3B
100
AcDbScale
 70
     0
300
1:100
140
1.0
141
100.0
290
     0
  0
SCALE
  5
48
102
{ACAD_REACTORS
330
3B
102
}
330
3B
100
AcDbScale
 70
     0
300
2:1
140
2.0
141
1.0
290
     0
  0
SCALE
  5
49
102
{ACAD_REACTORS
330
3B
102
}
330
3B
100
AcDbScale
 70
     0
300
4:1
140
4.0
141
1.0
290
     0
  0
SCALE
  5
4A
102
{ACAD_REACTORS
330
3B
102
}
330
3B
100
AcDbScale
 70
     0
300
8:1
140
8.0
141
1.0
290
     0
  0
SCALE
  5
4B
102
{ACAD_REACTORS
330
3B
102
}
330
3B
100
AcDbScale
 70
     0
300
10:1
140
10.0
141
1.0
290
     0
  0
SCALE
  5
4C
102
{ACAD_REACTORS
330
3B
102
}
330
3B
100
AcDbScale
 70
     0
300
100:1
140
100.0
141
1.0
290
     0
  0
SCALE
  5
4D
102
{ACAD_REACTORS
330
3B
102
}
330
3B
100
AcDbScale
 70
     0
300
1/128\" = 1\'-0\"
140
0.0078125
141
12.0
290
     0
  0
SCALE
  5
4E
102
{ACAD_REACTORS
330
3B
102
}
330
3B
100
AcDbScale
 70
     0
300
1/64\" = 1\'-0\"
140
0.015625
141
12.0
290
     0
  0
SCALE
  5
4F
102
{ACAD_REACTORS
330
3B
102
}
330
3B
100
AcDbScale
 70
     0
300
1/32\" = 1\'-0\"
140
0.03125
141
12.0
290
     0
  0
SCALE
  5
50
102
{ACAD_REACTORS
330
3B
102
}
330
3B
100
AcDbScale
 70
     0
300
1/16\" = 1\'-0\"
140
0.0625
141
12.0
290
     0
  0
SCALE
  5
51
102
{ACAD_REACTORS
330
3B
102
}
330
3B
100
AcDbScale
 70
     0
300
3/32\" = 1\'-0\"
140
0.09375
141
12.0
290
     0
  0
SCALE
  5
52
102
{ACAD_REACTORS
330
3B
102
}
330
3B
100
AcDbScale
 70
     0
300
1/8\" = 1\'-0\"
140
0.125
141
12.0
290
     0
  0
SCALE
  5
53
102
{ACAD_REACTORS
330
3B
102
}
330
3B
100
AcDbScale
 70
     0
300
3/16\" = 1\'-0\"
140
0.1875
141
12.0
290
     0
  0
SCALE
  5
54
102
{ACAD_REACTORS
330
3B
102
}
330
3B
100
AcDbScale
 70
     0
300
1/4\" = 1\'-0\"
140
0.25
141
12.0
290
     0
  0
SCALE
  5
55
102
{ACAD_REACTORS
330
3B
102
}
330
3B
100
AcDbScale
 70
     0
300
3/8\" = 1\'-0\"
140
0.375
141
12.0
290
     0
  0
SCALE
  5
56
102
{ACAD_REACTORS
330
3B
102
}
330
3B
100
AcDbScale
 70
     0
300
1/2\" = 1\'-0\"
140
0.5
141
12.0
290
     0
  0
SCALE
  5
57
102
{ACAD_REACTORS
330
3B
102
}
330
3B
100
AcDbScale
 70
     0
300
3/4\" = 1\'-0\"
140
0.75
141
12.0
290
     0
  0
SCALE
  5
58
102
{ACAD_REACTORS
330
3B
102
}
330
3B
100
AcDbScale
 70
     0
300
1\" = 1\'-0\"
140
1.0
141
12.0
290
     0
  0
SCALE
  5
59
102
{ACAD_REACTORS
330
3B
102
}
330
3B
100
AcDbScale
 70
     0
300
1-1/2\" = 1\'-0\"
140
1.5
141
12.0
290
     0
  0
SCALE
  5
5A
102
{ACAD_REACTORS
330
3B
102
}
330
3B
100
AcDbScale
 70
     0
300
3\" = 1\'-0\"
140
3.0
141
12.0
290
     0
  0
SCALE
  5
5B
102
{ACAD_REACTORS
330
3B
102
}
330
3B
100
AcDbScale
 70
     0
300
6\" = 1\'-0\"
140
6.0
141
12.0
290
     0
  0
SCALE
  5
5C
102
{ACAD_REACTORS
330
3B
102
}
330
3B
100
AcDbScale
 70
     0
300
1\'-0\" = 1\'-0\"
140
12.0
141
12.0
290
     0
  0
VISUALSTYLE
  5
2F
102
{ACAD_REACTORS
330
2A
102
}
330
2A
100
AcDbVisualStyle
  2
2dWireframe
 70
     4
 71
     0
 72
     2
 73
     0
 90
        0
 40
-0.6
 41
-30.0
 62
     5
 63
     7
421
 16777215
 74
     1
 91
        4
 64
     7
 65
   257
 75
     1
175
     1
 42
1.0
 92
        0
 66
   257
 43
1.0
 76
     1
 77
     6
 78
     2
 67
     7
 79
     5
170
     0
171
     0
290
     0
174
     0
 93
        1
 44
0.0
173
     0
291
     0
 45
0.0
  0
VISUALSTYLE
  5
31
102
{ACAD_REACTORS
330
2A
102
}
330
2A
100
AcDbVisualStyle
  2
3D Hidden
 70
     6
 71
     1
 72
     2
 73
     2
 90
        0
 40
-0.6
 41
-30.0
 62
     5
 63
     7
421
 16777215
 74
     2
 91
        2
 64
     7
 65
   257
 75
     2
175
     1
 42
40.0
 92
        0
 66
   257
 43
1.0
 76
     1
 77
     6
 78
     2
 67
     7
 79
     3
170
     0
171
     0
290
     0
174
     0
 93
        1
 44
0.0
173
     0
291
     0
 45
0.0
  0
VISUALSTYLE
  5
30
102
{ACAD_REACTORS
330
2A
102
}
330
2A
100
AcDbVisualStyle
  2
3dWireframe
 70
     5
 71
     0
 72
     2
 73
     0
 90
        0
 40
-0.6
 41
-30.0
 62
     5
 63
     7
421
 16777215
 74
     1
 91
        4
 64
     7
 65
   257
 75
     1
175
     1
 42
1.0
 92
        0
 66
   257
 43
1.0
 76
     1
 77
     6
 78
     2
 67
     7
 79
     5
170
     0
171
     0
290
     0
174
     0
 93
        1
 44
0.0
173
     0
291
     0
 45
0.0
  0
VISUALSTYLE
  5
32
102
{ACAD_REACTORS
330
2A
102
}
330
2A
100
AcDbVisualStyle
  2
Basic
 70
     7
 71
     1
 72
     0
 73
     1
 90
        0
 40
-0.6
 41
-30.0
 62
     5
 63
     7
421
 16777215
 74
     0
 91
        4
 64
     7
 65
   257
 75
     1
175
     1
 42
1.0
 92
        8
 66
     7
 43
1.0
 76
     1
 77
     6
 78
     2
 67
     7
 79
     5
170
     0
171
     0
290
     0
174
     0
 93
        1
 44
0.0
173
     0
291
     1
 45
0.0
  0
VISUALSTYLE
  5
36
102
{ACAD_REACTORS
330
2A
102
}
330
2A
100
AcDbVisualStyle
  2
Brighten
 70
    12
 71
     2
 72
     2
 73
     0
 90
        0
 40
-0.6
 41
-30.0
 62
     5
 63
     7
421
 16777215
 74
     1
 91
        4
 64
     7
 65
   257
 75
     1
175
     1
 42
1.0
 92
        8
 66
     7
 43
1.0
 76
     1
 77
     6
 78
     2
 67
     7
 79
     5
170
     0
171
     0
290
     0
174
     0
 93
        1
 44
50.0
173
     0
291
     1
 45
0.0
  0
VISUALSTYLE
  5
3A
102
{ACAD_REACTORS
330
2A
102
}
330
2A
100
AcDbVisualStyle
  2
ColorChange
 70
    16
 71
     2
 72
     2
 73
     3
 90
        0
 40
-0.6
 41
-30.0
 62
     5
 63
     8
421
  8421504
 74
     1
 91
        4
 64
     7
 65
   257
 75
     1
175
     1
 42
1.0
 92
        8
 66
     8
424
  8421504
 43
1.0
 76
     1
 77
     6
 78
     2
 67
     7
 79
     5
170
     0
171
     0
290
     0
174
     0
 93
        1
 44
0.0
173
     0
291
     1
 45
0.0
  0
VISUALSTYLE
  5
34
102
{ACAD_REACTORS
330
2A
102
}
330
2A
100
AcDbVisualStyle
  2
Conceptual
 70
     9
 71
     3
 72
     2
 73
     0
 90
        0
 40
-0.6
 41
-30.0
 62
     5
 63
     7
421
 16777215
 74
     2
 91
        2
 64
     7
 65
   257
 75
     1
175
     1
 42
40.0
 92
        8
 66
     7
 43
1.0
 76
     1
 77
     6
 78
     2
 67
     7
 79
     3
170
     0
171
     0
290
     0
174
     0
 93
        1
 44
0.0
173
     0
291
     0
 45
0.0
  0
VISUALSTYLE
  5
35
102
{ACAD_REACTORS
330
2A
102
}
330
2A
100
AcDbVisualStyle
  2
Dim
 70
    11
 71
     2
 72
     2
 73
     0
 90
        0
 40
-0.6
 41
-30.0
 62
     5
 63
     7
421
 16777215
 74
     1
 91
        4
 64
     7
 65
   257
 75
     1
175
     1
 42
1.0
 92
        8
 66
     7
 43
1.0
 76
     1
 77
     6
 78
     2
 67
     7
 79
     5
170
     0
171
     0
290
     0
174
     0
 93
        1
 44
-50.0
173
     0
291
     1
 45
0.0
  0
VISUALSTYLE
  5
39
102
{ACAD_REACTORS
330
2A
102
}
330
2A
100
AcDbVisualStyle
  2
Facepattern
 70
    15
 71
     2
 72
     2
 73
     0
 90
        0
 40
-0.6
 41
-30.0
 62
     5
 63
     7
421
 16777215
 74
     1
 91
        4
 64
     7
 65
   257
 75
     1
175
     1
 42
1.0
 92
        8
 66
     7
 43
1.0
 76
     1
 77
     6
 78
     2
 67
     7
 79
     5
170
     0
171
     0
290
     0
174
     0
 93
        1
 44
0.0
173
     0
291
     1
 45
0.0
  0
VISUALSTYLE
  5
2B
102
{ACAD_REACTORS
330
2A
102
}
330
2A
100
AcDbVisualStyle
  2
Flat
 70
     0
 71
     2
 72
     1
 73
     1
 90
        2
 40
-0.6
 41
30.0
 62
     5
 63
     7
421
 16777215
 74
     0
 91
        4
 64
     7
 65
   257
 75
     1
175
     1
 42
1.0
 92
        8
 66
     7
 43
1.0
 76
     1
 77
     6
 78
     2
 67
     7
 79
     5
170
     0
171
     0
290
     0
174
     0
 93
       13
 44
0.0
173
     0
291
     1
 45
0.0
  0
VISUALSTYLE
  5
2C
102
{ACAD_REACTORS
330
2A
102
}
330
2A
100
AcDbVisualStyle
  2
FlatWithEdges
 70
     1
 71
     2
 72
     1
 73
     1
 90
        2
 40
-0.6
 41
30.0
 62
     5
 63
     7
421
 16777215
 74
     1
 91
        4
 64
     7
 65
   257
 75
     1
175
     1
 42
1.0
 92
        0
 66
   257
 43
1.0
 76
     1
 77
     6
 78
     2
 67
     7
 79
     5
170
     0
171
     0
290
     0
174
     0
 93
       13
 44
0.0
173
     0
291
     1
 45
0.0
  0
VISUALSTYLE
  5
2D
102
{ACAD_REACTORS
330
2A
102
}
330
2A
100
AcDbVisualStyle
  2
Gouraud
 70
     2
 71
     2
 72
     2
 73
     1
 90
        2
 40
-0.6
 41
30.0
 62
     5
 63
     7
421
 16777215
 74
     0
 91
        4
 64
     7
 65
   257
 75
     1
175
     1
 42
1.0
 92
        0
 66
     7
 43
1.0
 76
     1
 77
     6
 78
     2
 67
     7
 79
     5
170
     0
171
     0
290
     0
174
     0
 93
       13
 44
0.0
173
     0
291
     1
 45
0.0
  0
VISUALSTYLE
  5
2E
102
{ACAD_REACTORS
330
2A
102
}
330
2A
100
AcDbVisualStyle
  2
GouraudWithEdges
 70
     3
 71
     2
 72
     2
 73
     1
 90
        2
 40
-0.6
 41
30.0
 62
     5
 63
     7
421
 16777215
 74
     1
 91
        4
 64
     7
 65
   257
 75
     1
175
     1
 42
1.0
 92
        0
 66
   257
 43
1.0
 76
     1
 77
     6
 78
     2
 67
     7
 79
     5
170
     0
171
     0
290
     0
174
     0
 93
       13
 44
0.0
173
     0
291
     1
 45
0.0
  0
VISUALSTYLE
  5
38
102
{ACAD_REACTORS
330
2A
102
}
330
2A
100
AcDbVisualStyle
  2
Linepattern
 70
    14
 71
     2
 72
     2
 73
     0
 90
        0
 40
-0.6
 41
-30.0
 62
     5
 63
     7
421
 16777215
 74
     1
 91
        4
 64
     7
 65
   257
 75
     7
175
     7
 42
1.0
 92
        8
 66
     7
 43
1.0
 76
     1
 77
     6
 78
     2
 67
     7
 79
     5
170
     0
171
     0
290
     0
174
     0
 93
        1
 44
0.0
173
     0
291
     1
 45
0.0
  0
VISUALSTYLE
  5
33
102
{ACAD_REACTORS
330
2A
102
}
330
2A
100
AcDbVisualStyle
  2
Realistic
 70
     8
 71
     2
 72
     2
 73
     0
 90
        0
 40
-0.6
 41
-30.0
 62
     5
 63
     7
421
 16777215
 74
     1
 91
        0
 64
     7
 65
   257
 75
     1
175
     1
 42
1.0
 92
        8
 66
     8
424
  7895160
 43
1.0
 76
     1
 77
     6
 78
     2
 67
     7
 79
     5
170
     0
171
     0
290
     0
174
     0
 93
       13
 44
0.0
173
     0
291
     0
 45
0.0
  0
VISUALSTYLE
  5
37
102
{ACAD_REACTORS
330
2A
102
}
330
2A
100
AcDbVisualStyle
  2
Thicken
 70
    13
 71
     2
 72
     2
 73
     0
 90
        0
 40
-0.6
 41
-30.0
 62
     5
 63
     7
421
 16777215
 74
     1
 91
        4
 64
     7
 65
   257
 75
     1
175
     1
 42
1.0
 92
       12
 66
     7
 43
1.0
 76
     1
 77
     6
 78
     2
 67
     7
 79
     5
170
     0
171
     0
290
     0
174
     0
 93
        1
 44
0.0
173
     0
291
     1
 45
0.0
  0
ENDSEC
  0
EOF
