  0
SECTION
  2
HEADER
  9
$ACADVER
  1
AC1015
  9
$ACADMAINTVER
 70
     6
  9
$DWGCODEPAGE
  3
ANSI_1252
  9
$INSBASE
 10
0.0
 20
0.0
 30
0.0
  9
$EXTMIN
 10
-170.3141
 20
-94.1591
 30
0.0
  9
$EXTMAX
 10
180.3669
 20
156.0802
 30
0.0
  9
$LIMMIN
 10
0.0
 20
0.0
  9
$LIMMAX
 10
12.0
 20
9.0
  9
$ORTHOMODE
 70
     0
  9
$REGENMODE
 70
     1
  9
$FILLMODE
 70
     1
  9
$QTEXTMODE
 70
     0
  9
$MIRRTEXT
 70
     1
  9
$LTSCALE
 40
1.0
  9
$ATTMODE
 70
     1
  9
$TEXTSIZE
 40
0.2
  9
$TRACEWID
 40
0.05
  9
$TEXTSTYLE
  7
Standard
  9
$CLAYER
  8
0
  9
$CELTYPE
  6
ByLayer
  9
$CECOLOR
 62
   256
  9
$CELTSCALE
 40
1.0
  9
$DISPSILH
 70
     0
  9
$DIMSCALE
 40
1.0
  9
$DIMASZ
 40
0.18
  9
$DIMEXO
 40
0.0625
  9
$DIMDLI
 40
0.38
  9
$DIMRND
 40
0.0
  9
$DIMDLE
 40
0.0
  9
$DIMEXE
 40
0.18
  9
$DIMTP
 40
0.0
  9
$DIMTM
 40
0.0
  9
$DIMTXT
 40
0.18
  9
$DIMCEN
 40
0.09
  9
$DIMTSZ
 40
0.0
  9
$DIMTOL
 70
     0
  9
$DIMLIM
 70
     0
  9
$DIMTIH
 70
     1
  9
$DIMTOH
 70
     1
  9
$DIMSE1
 70
     0
  9
$DIMSE2
 70
     0
  9
$DIMTAD
 70
     0
  9
$DIMZIN
 70
     0
  9
$DIMBLK
  1

  9
$DIMASO
 70
     1
  9
$DIMSHO
 70
     1
  9
$DIMPOST
  1

  9
$DIMAPOST
  1

  9
$DIMALT
 70
     0
  9
$DIMALTD
 70
     2
  9
$DIMALTF
 40
25.4
  9
$DIMLFAC
 40
1.0
  9
$DIMTOFL
 70
     0
  9
$DIMTVP
 40
0.0
  9
$DIMTIX
 70
     0
  9
$DIMSOXD
 70
     0
  9
$DIMSAH
 70
     0
  9
$DIMBLK1
  1

  9
$DIMBLK2
  1

  9
$DIMSTYLE
  2
Standard
  9
$DIMCLRD
 70
     0
  9
$DIMCLRE
 70
     0
  9
$DIMCLRT
 70
     0
  9
$DIMTFAC
 40
1.0
  9
$DIMGAP
 40
0.09
  9
$DIMJUST
 70
     0
  9
$DIMSD1
 70
     0
  9
$DIMSD2
 70
     0
  9
$DIMTOLJ
 70
     1
  9
$DIMTZIN
 70
     0
  9
$DIMALTZ
 70
     0
  9
$DIMALTTZ
 70
     0
  9
$DIMUPT
 70
     0
  9
$DIMDEC
 70
     4
  9
$DIMTDEC
 70
     4
  9
$DIMALTU
 70
     2
  9
$DIMALTTD
 70
     2
  9
$DIMTXSTY
  7
Standard
  9
$DIMAUNIT
 70
     0
  9
$DIMADEC
 70
     0
  9
$DIMALTRND
 40
0.0
  9
$DIMAZIN
 70
     0
  9
$DIMDSEP
 70
    46
  9
$DIMATFIT
 70
     3
  9
$DIMFRAC
 70
     0
  9
$DIMLDRBLK
  1

  9
$DIMLUNIT
 70
     2
  9
$DIMLWD
 70
    -2
  9
$DIMLWE
 70
    -2
  9
$DIMTMOVE
 70
     0
  9
$LUNITS
 70
     2
  9
$LUPREC
 70
     4
  9
$SKETCHINC
 40
0.1
  9
$FILLETRAD
 40
0.5
  9
$AUNITS
 70
     0
  9
$AUPREC
 70
     0
  9
$MENU
  1
.
  9
$ELEVATION
 40
0.0
  9
$PELEVATION
 40
0.0
  9
$THICKNESS
 40
0.0
  9
$LIMCHECK
 70
     0
  9
$CHAMFERA
 40
0.5
  9
$CHAMFERB
 40
0.5
  9
$CHAMFERC
 40
1.0
  9
$CHAMFERD
 40
0.0
  9
$SKPOLY
 70
     0
  9
$TDCREATE
 40
2457268.926110463
  9
$TDUCREATE
 40
2457269.051110463
  9
$TDUPDATE
 40
2457268.926110486
  9
$TDUUPDATE
 40
2457269.051110486
  9
$TDINDWG
 40
0.0000000116
  9
$TDUSRTIMER
 40
0.0000000116
  9
$USRTIMER
 70
     1
  9
$ANGBASE
 50
0.0
  9
$ANGDIR
 70
     0
  9
$PDMODE
 70
     0
  9
$PDSIZE
 40
0.0
  9
$PLINEWID
 40
0.0
  9
$SPLFRAME
 70
     0
  9
$SPLINETYPE
 70
     6
  9
$SPLINESEGS
 70
     8
  9
$HANDSEED
  5
7A
  9
$SURFTAB1
 70
     6
  9
$SURFTAB2
 70
     6
  9
$SURFTYPE
 70
     6
  9
$SURFU
 70
     6
  9
$SURFV
 70
     6
  9
$UCSBASE
  2

  9
$UCSNAME
  2

  9
$UCSORG
 10
0.0
 20
0.0
 30
0.0
  9
$UCSXDIR
 10
1.0
 20
0.0
 30
0.0
  9
$UCSYDIR
 10
0.0
 20
1.0
 30
0.0
  9
$UCSORTHOREF
  2

  9
$UCSORTHOVIEW
 70
     0
  9
$UCSORGTOP
 10
0.0
 20
0.0
 30
0.0
  9
$UCSORGBOTTOM
 10
0.0
 20
0.0
 30
0.0
  9
$UCSORGLEFT
 10
0.0
 20
0.0
 30
0.0
  9
$UCSORGRIGHT
 10
0.0
 20
0.0
 30
0.0
  9
$UCSORGFRONT
 10
0.0
 20
0.0
 30
0.0
  9
$UCSORGBACK
 10
0.0
 20
0.0
 30
0.0
  9
$PUCSBASE
  2

  9
$PUCSNAME
  2

  9
$PUCSORG
 10
0.0
 20
0.0
 30
0.0
  9
$PUCSXDIR
 10
1.0
 20
0.0
 30
0.0
  9
$PUCSYDIR
 10
0.0
 20
1.0
 30
0.0
  9
$PUCSORTHOREF
  2

  9
$PUCSORTHOVIEW
 70
     0
  9
$PUCSORGTOP
 10
0.0
 20
0.0
 30
0.0
  9
$PUCSORGBOTTOM
 10
0.0
 20
0.0
 30
0.0
  9
$PUCSORGLEFT
 10
0.0
 20
0.0
 30
0.0
  9
$PUCSORGRIGHT
 10
0.0
 20
0.0
 30
0.0
  9
$PUCSORGFRONT
 10
0.0
 20
0.0
 30
0.0
  9
$PUCSORGBACK
 10
0.0
 20
0.0
 30
0.0
  9
$USERI1
 70
     0
  9
$USERI2
 70
     0
  9
$USERI3
 70
     0
  9
$USERI4
 70
     0
  9
$USERI5
 70
     0
  9
$USERR1
 40
0.0
  9
$USERR2
 40
0.0
  9
$USERR3
 40
0.0
  9
$USERR4
 40
0.0
  9
$USERR5
 40
0.0
  9
$WORLDVIEW
 70
     1
  9
$SHADEDGE
 70
     3
  9
$SHADEDIF
 70
    70
  9
$TILEMODE
 70
     1
  9
$MAXACTVP
 70
    64
  9
$PINSBASE
 10
0.0
 20
0.0
 30
0.0
  9
$PLIMCHECK
 70
     0
  9
$PEXTMIN
 10
1.000000000000000E+20
 20
1.000000000000000E+20
 30
1.000000000000000E+20
  9
$PEXTMAX
 10
-1.000000000000000E+20
 20
-1.000000000000000E+20
 30
-1.000000000000000E+20
  9
$PLIMMIN
 10
0.0
 20
0.0
  9
$PLIMMAX
 10
12.0
 20
9.0
  9
$UNITMODE
 70
     0
  9
$VISRETAIN
 70
     1
  9
$PLINEGEN
 70
     0
  9
$PSLTSCALE
 70
     1
  9
$TREEDEPTH
 70
  3020
  9
$CMLSTYLE
  2
Standard
  9
$CMLJUST
 70
     0
  9
$CMLSCALE
 40
1.0
  9
$PROXYGRAPHICS
 70
     1
  9
$MEASUREMENT
 70
     0
  9
$CELWEIGHT
370
    -1
  9
$ENDCAPS
280
     0
  9
$JOINSTYLE
280
     0
  9
$LWDISPLAY
290
     0
  9
$INSUNITS
 70
     4
  9
$HYPERLINKBASE
  1

  9
$STYLESHEET
  1

  9
$XEDIT
290
     1
  9
$CEPSNTYPE
380
     0
  9
$PSTYLEMODE
290
     1
  9
$FINGERPRINTGUID
  2
{48B1147C-0645-4BF3-9220-A9C31B8FA27D}
  9
$VERSIONGUID
  2
{FAEB1C32-E019-11D5-929B-00C0DF256EC4}
  9
$EXTNAMES
290
     1
  9
$PSVPSCALE
 40
0.0
  9
$OLESTARTUP
290
     0
  0
ENDSEC
  0
SECTION
  2
CLASSES
  0
CLASS
  1
ACDBDICTIONARYWDFLT
  2
AcDbDictionaryWithDefault
  3
ObjectDBX Classes
 90
        0
280
     0
281
     0
  0
CLASS
  1
VISUALSTYLE
  2
AcDbVisualStyle
  3
ObjectDBX Classes
 90
     4095
280
     0
281
     0
  0
CLASS
  1
MATERIAL
  2
AcDbMaterial
  3
ObjectDBX Classes
 90
     1153
280
     0
281
     0
  0
CLASS
  1
DICTIONARYVAR
  2
AcDbDictionaryVar
  3
ObjectDBX Classes
 90
        0
280
     0
281
     0
  0
CLASS
  1
ACDBPLACEHOLDER
  2
AcDbPlaceHolder
  3
ObjectDBX Classes
 90
        0
280
     0
281
     0
  0
CLASS
  1
LAYOUT
  2
AcDbLayout
  3
ObjectDBX Classes
 90
        0
280
     0
281
     0
  0
ENDSEC
  0
SECTION
  2
TABLES
  0
TABLE
  2
VPORT
  5
8
330
0
100
AcDbSymbolTable
 70
     1
  0
VPORT
  5
29
330
8
100
AcDbSymbolTableRecord
100
AcDbViewportTableRecord
  2
*Active
 70
     0
 10
0.0
 20
0.0
 11
1.0
 21
1.0
 12
10.42990654205607
 22
4.5
 13
0.0
 23
0.0
 14
0.5
 24
0.5
 15
0.5
 25
0.5
 16
0.0
 26
0.0
 36
1.0
 17
0.0
 27
0.0
 37
0.0
 40
9.0
 41
1.972972972850329
 42
50.0
 43
0.0
 44
0.0
 50
0.0
 51
0.0
 71
     0
 72
   100
 73
     1
 74
     3
 75
     0
 76
     0
 77
     0
 78
     0
281
     0
 65
     1
110
0.0
120
0.0
130
0.0
111
1.0
121
0.0
131
0.0
112
0.0
122
1.0
132
0.0
 79
     0
146
0.0
  0
ENDTAB
  0
TABLE
  2
LTYPE
  5
5
330
0
100
AcDbSymbolTable
 70
     1
  0
LTYPE
  5
14
330
5
100
AcDbSymbolTableRecord
100
AcDbLinetypeTableRecord
  2
ByBlock
 70
     0
  3

 72
    65
 73
     0
 40
0.0
  0
LTYPE
  5
15
330
5
100
AcDbSymbolTableRecord
100
AcDbLinetypeTableRecord
  2
ByLayer
 70
     0
  3

 72
    65
 73
     0
 40
0.0
  0
LTYPE
  5
16
330
5
100
AcDbSymbolTableRecord
100
AcDbLinetypeTableRecord
  2
Continuous
 70
     0
  3
Solid line
 72
    65
 73
     0
 40
0.0
  0
ENDTAB
  0
TABLE
  2
LAYER
  5
2
330
0
100
AcDbSymbolTable
 70
     2
  0
LAYER
  5
10
330
2
100
AcDbSymbolTableRecord
100
AcDbLayerTableRecord
  2
0
 70
     0
 62
     7
  6
Continuous
370
    -3
390
F
  0
LAYER
  5
40
330
2
100
AcDbSymbolTableRecord
100
AcDbLayerTableRecord
  2
Camada 1
 70
     0
 62
     7
  6
Continuous
370
    -3
390
F
  0
ENDTAB
  0
TABLE
  2
STYLE
  5
3
330
0
100
AcDbSymbolTable
 70
     1
  0
STYLE
  5
11
330
3
100
AcDbSymbolTableRecord
100
AcDbTextStyleTableRecord
  2
Standard
 70
     0
 40
0.0
 41
1.0
 50
0.0
 71
     0
 42
0.2
  3
txt
  4

  0
ENDTAB
  0
TABLE
  2
VIEW
  5
6
330
0
100
AcDbSymbolTable
 70
     0
  0
ENDTAB
  0
TABLE
  2
UCS
  5
7
330
0
100
AcDbSymbolTable
 70
     0
  0
ENDTAB
  0
TABLE
  2
APPID
  5
9
330
0
100
AcDbSymbolTable
 70
     2
  0
APPID
  5
12
330
9
100
AcDbSymbolTableRecord
100
AcDbRegAppTableRecord
  2
ACAD
 70
     0
  0
APPID
  5
3F
330
9
100
AcDbSymbolTableRecord
100
AcDbRegAppTableRecord
  2
ODA
 70
     0
  0
ENDTAB
  0
TABLE
  2
DIMSTYLE
  5
A
330
0
100
AcDbSymbolTable
 70
     1
100
AcDbDimStyleTable
  0
DIMSTYLE
105
27
330
A
100
AcDbSymbolTableRecord
100
AcDbDimStyleTableRecord
  2
Standard
 70
     0
178
     0
340
11
  0
ENDTAB
  0
TABLE
  2
BLOCK_RECORD
  5
1
330
0
100
AcDbSymbolTable
 70
     1
  0
BLOCK_RECORD
  5
1F
330
1
100
AcDbSymbolTableRecord
100
AcDbBlockTableRecord
  2
*Model_Space
340
22
  0
BLOCK_RECORD
  5
1B
330
1
100
AcDbSymbolTableRecord
100
AcDbBlockTableRecord
  2
*Paper_Space
340
1E
  0
BLOCK_RECORD
  5
23
330
1
100
AcDbSymbolTableRecord
100
AcDbBlockTableRecord
  2
*Paper_Space0
340
26
  0
ENDTAB
  0
ENDSEC
  0
SECTION
  2
BLOCKS
  0
BLOCK
  5
20
330
1F
100
AcDbEntity
  8
0
100
AcDbBlockBegin
  2
*Model_Space
 70
     0
 10
0.0
 20
0.0
 30
0.0
  3
*Model_Space
  1

  0
ENDBLK
  5
21
330
1F
100
AcDbEntity
  8
0
100
AcDbBlockEnd
  0
BLOCK
  5
1C
330
1B
100
AcDbEntity
 67
     1
  8
0
100
AcDbBlockBegin
  2
*Paper_Space
 70
     0
 10
0.0
 20
0.0
 30
0.0
  3
*Paper_Space
  1

  0
ENDBLK
  5
1D
330
1B
100
AcDbEntity
 67
     1
  8
0
100
AcDbBlockEnd
  0
BLOCK
  5
24
330
23
100
AcDbEntity
  8
0
100
AcDbBlockBegin
  2
*Paper_Space0
 70
     0
 10
0.0
 20
0.0
 30
0.0
  3
*Paper_Space0
  1

  0
ENDBLK
  5
25
330
23
100
AcDbEntity
  8
0
100
AcDbBlockEnd
  0
ENDSEC
  0
SECTION
  2
ENTITIES
  0
SPLINE
  5
41
330
1F
100
AcDbEntity
  8
Camada 1
 62
   250
370
     9
100
AcDbSpline
210
0.0
220
0.0
230
1.0
 70
    11
 71
     3
 72
   460
 73
   456
 74
     0
 42
0.0000000001
 43
0.0000000001
 12
1.0
 22
0.0
 32
0.0
 13
1.0
 23
0.0
 33
0.0
 40
0.0
 40
0.0
 40
0.0
 40
0.0
 40
0.008695652173913
 40
0.008695652173913
 40
0.008695652173913
 40
0.008695652173913
 40
0.0173913043478261
 40
0.0173913043478261
 40
0.0173913043478261
 40
0.0173913043478261
 40
0.0260869565217391
 40
0.0260869565217391
 40
0.0260869565217391
 40
0.0260869565217391
 40
0.0347826086956522
 40
0.0347826086956522
 40
0.0347826086956522
 40
0.0347826086956522
 40
0.0434782608695652
 40
0.0434782608695652
 40
0.0434782608695652
 40
0.0434782608695652
 40
0.0521739130434783
 40
0.0521739130434783
 40
0.0521739130434783
 40
0.0521739130434783
 40
0.0608695652173913
 40
0.0608695652173913
 40
0.0608695652173913
 40
0.0608695652173913
 40
0.0695652173913043
 40
0.0695652173913043
 40
0.0695652173913043
 40
0.0695652173913043
 40
0.0782608695652174
 40
0.0782608695652174
 40
0.0782608695652174
 40
0.0782608695652174
 40
0.0869565217391304
 40
0.0869565217391304
 40
0.0869565217391304
 40
0.0869565217391304
 40
0.0956521739130435
 40
0.0956521739130435
 40
0.0956521739130435
 40
0.0956521739130435
 40
0.1043478260869565
 40
0.1043478260869565
 40
0.1043478260869565
 40
0.1043478260869565
 40
0.1130434782608696
 40
0.1130434782608696
 40
0.1130434782608696
 40
0.1130434782608696
 40
0.1217391304347826
 40
0.1217391304347826
 40
0.1217391304347826
 40
0.1217391304347826
 40
0.1304347826086956
 40
0.1304347826086956
 40
0.1304347826086956
 40
0.1304347826086956
 40
0.1391304347826087
 40
0.1391304347826087
 40
0.1391304347826087
 40
0.1391304347826087
 40
0.1478260869565217
 40
0.1478260869565217
 40
0.1478260869565217
 40
0.1478260869565217
 40
0.1565217391304348
 40
0.1565217391304348
 40
0.1565217391304348
 40
0.1565217391304348
 40
0.1652173913043478
 40
0.1652173913043478
 40
0.1652173913043478
 40
0.1652173913043478
 40
0.1739130434782609
 40
0.1739130434782609
 40
0.1739130434782609
 40
0.1739130434782609
 40
0.1826086956521739
 40
0.1826086956521739
 40
0.1826086956521739
 40
0.1826086956521739
 40
0.191304347826087
 40
0.191304347826087
 40
0.191304347826087
 40
0.191304347826087
 40
0.2
 40
0.2
 40
0.2
 40
0.2
 40
0.208695652173913
 40
0.208695652173913
 40
0.208695652173913
 40
0.208695652173913
 40
0.2173913043478261
 40
0.2173913043478261
 40
0.2173913043478261
 40
0.2173913043478261
 40
0.2260869565217391
 40
0.2260869565217391
 40
0.2260869565217391
 40
0.2260869565217391
 40
0.2347826086956522
 40
0.2347826086956522
 40
0.2347826086956522
 40
0.2347826086956522
 40
0.2434782608695652
 40
0.2434782608695652
 40
0.2434782608695652
 40
0.2434782608695652
 40
0.2521739130434782
 40
0.2521739130434782
 40
0.2521739130434782
 40
0.2521739130434782
 40
0.2608695652173913
 40
0.2608695652173913
 40
0.2608695652173913
 40
0.2608695652173913
 40
0.2695652173913043
 40
0.2695652173913043
 40
0.2695652173913043
 40
0.2695652173913043
 40
0.2782608695652174
 40
0.2782608695652174
 40
0.2782608695652174
 40
0.2782608695652174
 40
0.2869565217391304
 40
0.2869565217391304
 40
0.2869565217391304
 40
0.2869565217391304
 40
0.2956521739130435
 40
0.2956521739130435
 40
0.2956521739130435
 40
0.2956521739130435
 40
0.3043478260869565
 40
0.3043478260869565
 40
0.3043478260869565
 40
0.3043478260869565
 40
0.3130434782608696
 40
0.3130434782608696
 40
0.3130434782608696
 40
0.3130434782608696
 40
0.3217391304347826
 40
0.3217391304347826
 40
0.3217391304347826
 40
0.3217391304347826
 40
0.3304347826086956
 40
0.3304347826086956
 40
0.3304347826086956
 40
0.3304347826086956
 40
0.3391304347826087
 40
0.3391304347826087
 40
0.3391304347826087
 40
0.3391304347826087
 40
0.3478260869565217
 40
0.3478260869565217
 40
0.3478260869565217
 40
0.3478260869565217
 40
0.3565217391304348
 40
0.3565217391304348
 40
0.3565217391304348
 40
0.3565217391304348
 40
0.3652173913043478
 40
0.3652173913043478
 40
0.3652173913043478
 40
0.3652173913043478
 40
0.3739130434782609
 40
0.3739130434782609
 40
0.3739130434782609
 40
0.3739130434782609
 40
0.3826086956521739
 40
0.3826086956521739
 40
0.3826086956521739
 40
0.3826086956521739
 40
0.391304347826087
 40
0.391304347826087
 40
0.391304347826087
 40
0.391304347826087
 40
0.4
 40
0.4
 40
0.4
 40
0.4
 40
0.4086956521739131
 40
0.4086956521739131
 40
0.4086956521739131
 40
0.4086956521739131
 40
0.4173913043478261
 40
0.4173913043478261
 40
0.4173913043478261
 40
0.4173913043478261
 40
0.4260869565217391
 40
0.4260869565217391
 40
0.4260869565217391
 40
0.4260869565217391
 40
0.4347826086956522
 40
0.4347826086956522
 40
0.4347826086956522
 40
0.4347826086956522
 40
0.4434782608695652
 40
0.4434782608695652
 40
0.4434782608695652
 40
0.4434782608695652
 40
0.4521739130434783
 40
0.4521739130434783
 40
0.4521739130434783
 40
0.4521739130434783
 40
0.4608695652173913
 40
0.4608695652173913
 40
0.4608695652173913
 40
0.4608695652173913
 40
0.4695652173913044
 40
0.4695652173913044
 40
0.4695652173913044
 40
0.4695652173913044
 40
0.4782608695652174
 40
0.4782608695652174
 40
0.4782608695652174
 40
0.4782608695652174
 40
0.4869565217391305
 40
0.4869565217391305
 40
0.4869565217391305
 40
0.4869565217391305
 40
0.4956521739130435
 40
0.4956521739130435
 40
0.4956521739130435
 40
0.4956521739130435
 40
0.5043478260869565
 40
0.5043478260869565
 40
0.5043478260869565
 40
0.5043478260869565
 40
0.5130434782608696
 40
0.5130434782608696
 40
0.5130434782608696
 40
0.5130434782608696
 40
0.5217391304347826
 40
0.5217391304347826
 40
0.5217391304347826
 40
0.5217391304347826
 40
0.5304347826086957
 40
0.5304347826086957
 40
0.5304347826086957
 40
0.5304347826086957
 40
0.5391304347826087
 40
0.5391304347826087
 40
0.5391304347826087
 40
0.5391304347826087
 40
0.5478260869565217
 40
0.5478260869565217
 40
0.5478260869565217
 40
0.5478260869565217
 40
0.5565217391304348
 40
0.5565217391304348
 40
0.5565217391304348
 40
0.5565217391304348
 40
0.5652173913043478
 40
0.5652173913043478
 40
0.5652173913043478
 40
0.5652173913043478
 40
0.5739130434782609
 40
0.5739130434782609
 40
0.5739130434782609
 40
0.5739130434782609
 40
0.5826086956521739
 40
0.5826086956521739
 40
0.5826086956521739
 40
0.5826086956521739
 40
0.591304347826087
 40
0.591304347826087
 40
0.591304347826087
 40
0.591304347826087
 40
0.6
 40
0.6
 40
0.6
 40
0.6
 40
0.6086956521739131
 40
0.6086956521739131
 40
0.6086956521739131
 40
0.6086956521739131
 40
0.6173913043478261
 40
0.6173913043478261
 40
0.6173913043478261
 40
0.6173913043478261
 40
0.6260869565217392
 40
0.6260869565217392
 40
0.6260869565217392
 40
0.6260869565217392
 40
0.6347826086956522
 40
0.6347826086956522
 40
0.6347826086956522
 40
0.6347826086956522
 40
0.6434782608695652
 40
0.6434782608695652
 40
0.6434782608695652
 40
0.6434782608695652
 40
0.6521739130434783
 40
0.6521739130434783
 40
0.6521739130434783
 40
0.6521739130434783
 40
0.6608695652173913
 40
0.6608695652173913
 40
0.6608695652173913
 40
0.6608695652173913
 40
0.6695652173913044
 40
0.6695652173913044
 40
0.6695652173913044
 40
0.6695652173913044
 40
0.6782608695652174
 40
0.6782608695652174
 40
0.6782608695652174
 40
0.6782608695652174
 40
0.6869565217391305
 40
0.6869565217391305
 40
0.6869565217391305
 40
0.6869565217391305
 40
0.6956521739130435
 40
0.6956521739130435
 40
0.6956521739130435
 40
0.6956521739130435
 40
0.7043478260869566
 40
0.7043478260869566
 40
0.7043478260869566
 40
0.7043478260869566
 40
0.7130434782608696
 40
0.7130434782608696
 40
0.7130434782608696
 40
0.7130434782608696
 40
0.7217391304347827
 40
0.7217391304347827
 40
0.7217391304347827
 40
0.7217391304347827
 40
0.7304347826086957
 40
0.7304347826086957
 40
0.7304347826086957
 40
0.7304347826086957
 40
0.7391304347826086
 40
0.7391304347826086
 40
0.7391304347826086
 40
0.7391304347826086
 40
0.7478260869565218
 40
0.7478260869565218
 40
0.7478260869565218
 40
0.7478260869565218
 40
0.7565217391304347
 40
0.7565217391304347
 40
0.7565217391304347
 40
0.7565217391304347
 40
0.7652173913043478
 40
0.7652173913043478
 40
0.7652173913043478
 40
0.7652173913043478
 40
0.7739130434782608
 40
0.7739130434782608
 40
0.7739130434782608
 40
0.7739130434782608
 40
0.782608695652174
 40
0.782608695652174
 40
0.782608695652174
 40
0.782608695652174
 40
0.7913043478260869
 40
0.7913043478260869
 40
0.7913043478260869
 40
0.7913043478260869
 40
0.8
 40
0.8
 40
0.8
 40
0.8
 40
0.808695652173913
 40
0.808695652173913
 40
0.808695652173913
 40
0.808695652173913
 40
0.8173913043478261
 40
0.8173913043478261
 40
0.8173913043478261
 40
0.8173913043478261
 40
0.8260869565217391
 40
0.8260869565217391
 40
0.8260869565217391
 40
0.8260869565217391
 40
0.8347826086956521
 40
0.8347826086956521
 40
0.8347826086956521
 40
0.8347826086956521
 40
0.8434782608695652
 40
0.8434782608695652
 40
0.8434782608695652
 40
0.8434782608695652
 40
0.8521739130434782
 40
0.8521739130434782
 40
0.8521739130434782
 40
0.8521739130434782
 40
0.8608695652173913
 40
0.8608695652173913
 40
0.8608695652173913
 40
0.8608695652173913
 40
0.8695652173913043
 40
0.8695652173913043
 40
0.8695652173913043
 40
0.8695652173913043
 40
0.8782608695652174
 40
0.8782608695652174
 40
0.8782608695652174
 40
0.8782608695652174
 40
0.8869565217391304
 40
0.8869565217391304
 40
0.8869565217391304
 40
0.8869565217391304
 40
0.8956521739130435
 40
0.8956521739130435
 40
0.8956521739130435
 40
0.8956521739130435
 40
0.9043478260869565
 40
0.9043478260869565
 40
0.9043478260869565
 40
0.9043478260869565
 40
0.9130434782608695
 40
0.9130434782608695
 40
0.9130434782608695
 40
0.9130434782608695
 40
0.9217391304347826
 40
0.9217391304347826
 40
0.9217391304347826
 40
0.9217391304347826
 40
0.9304347826086956
 40
0.9304347826086956
 40
0.9304347826086956
 40
0.9304347826086956
 40
0.9391304347826087
 40
0.9391304347826087
 40
0.9391304347826087
 40
0.9391304347826087
 40
0.9478260869565217
 40
0.9478260869565217
 40
0.9478260869565217
 40
0.9478260869565217
 40
0.9565217391304348
 40
0.9565217391304348
 40
0.9565217391304348
 40
0.9565217391304348
 40
0.9652173913043478
 40
0.9652173913043478
 40
0.9652173913043478
 40
0.9652173913043478
 40
0.9739130434782609
 40
0.9739130434782609
 40
0.9739130434782609
 40
0.9739130434782609
 40
0.9826086956521739
 40
0.9826086956521739
 40
0.9826086956521739
 40
0.9826086956521739
 40
1.0
 40
1.0
 40
1.0
 40
1.0
 10
103.5297
 20
77.58
 30
0.0
 10
103.5297
 20
77.58
 30
0.0
 10
109.0833
 20
77.2952
 30
0.0
 10
109.0833
 20
77.2952
 30
0.0
 10
109.0833
 20
77.2952
 30
0.0
 10
109.0833
 20
77.2952
 30
0.0
 10
114.4233
 20
76.4408
 30
0.0
 10
114.4233
 20
76.4408
 30
0.0
 10
114.4233
 20
76.4408
 30
0.0
 10
114.4233
 20
76.4408
 30
0.0
 10
119.6208
 20
75.1592
 30
0.0
 10
119.6208
 20
75.1592
 30
0.0
 10
119.6208
 20
75.1592
 30
0.0
 10
119.6208
 20
75.1592
 30
0.0
 10
124.6048
 20
73.308
 30
0.0
 10
124.6048
 20
73.308
 30
0.0
 10
124.6048
 20
73.308
 30
0.0
 10
124.6048
 20
73.308
 30
0.0
 10
129.3752
 20
71.0296
 30
0.0
 10
129.3752
 20
71.0296
 30
0.0
 10
129.3752
 20
71.0296
 30
0.0
 10
129.3752
 20
71.0296
 30
0.0
 10
133.8608
 20
68.324
 30
0.0
 10
133.8608
 20
68.324
 30
0.0
 10
133.8608
 20
68.324
 30
0.0
 10
133.8608
 20
68.324
 30
0.0
 10
137.9904
 20
65.1913
 30
0.0
 10
137.9904
 20
65.1913
 30
0.0
 10
137.9904
 20
65.1913
 30
0.0
 10
137.9904
 20
65.1913
 30
0.0
 10
141.8352
 20
61.7025
 30
0.0
 10
141.8352
 20
61.7025
 30
0.0
 10
141.8352
 20
61.7025
 30
0.0
 10
141.8352
 20
61.7025
 30
0.0
 10
145.3239
 20
57.8577
 30
0.0
 10
145.3239
 20
57.8577
 30
0.0
 10
145.3239
 20
57.8577
 30
0.0
 10
145.3239
 20
57.8577
 30
0.0
 10
148.4567
 20
53.6569
 30
0.0
 10
148.4567
 20
53.6569
 30
0.0
 10
148.4567
 20
53.6569
 30
0.0
 10
148.4567
 20
53.6569
 30
0.0
 10
151.1623
 20
49.1713
 30
0.0
 10
151.1623
 20
49.1713
 30
0.0
 10
151.1623
 20
49.1713
 30
0.0
 10
151.1623
 20
49.1713
 30
0.0
 10
153.4407
 20
44.4721
 30
0.0
 10
153.4407
 20
44.4721
 30
0.0
 10
153.4407
 20
44.4721
 30
0.0
 10
153.4407
 20
44.4721
 30
0.0
 10
155.2919
 20
39.4882
 30
0.0
 10
155.2919
 20
39.4882
 30
0.0
 10
155.2919
 20
39.4882
 30
0.0
 10
155.2919
 20
39.4882
 30
0.0
 10
156.6447
 20
34.2906
 30
0.0
 10
156.6447
 20
34.2906
 30
0.0
 10
156.6447
 20
34.2906
 30
0.0
 10
156.6447
 20
34.2906
 30
0.0
 10
157.4279
 20
28.8794
 30
0.0
 10
157.4279
 20
28.8794
 30
0.0
 10
157.4279
 20
28.8794
 30
0.0
 10
157.4279
 20
28.8794
 30
0.0
 10
157.7127
 20
23.397
 30
0.0
 10
157.7127
 20
23.397
 30
0.0
 10
157.7127
 20
23.397
 30
0.0
 10
157.7127
 20
23.397
 30
0.0
 10
157.4279
 20
17.8435
 30
0.0
 10
157.4279
 20
17.8435
 30
0.0
 10
157.4279
 20
17.8435
 30
0.0
 10
157.4279
 20
17.8435
 30
0.0
 10
156.6447
 20
12.4323
 30
0.0
 10
156.6447
 20
12.4323
 30
0.0
 10
156.6447
 20
12.4323
 30
0.0
 10
156.6447
 20
12.4323
 30
0.0
 10
155.2919
 20
7.2347
 30
0.0
 10
155.2919
 20
7.2347
 30
0.0
 10
155.2919
 20
7.2347
 30
0.0
 10
155.2919
 20
7.2347
 30
0.0
 10
153.4407
 20
2.2507
 30
0.0
 10
153.4407
 20
2.2507
 30
0.0
 10
153.4407
 20
2.2507
 30
0.0
 10
153.4407
 20
2.2507
 30
0.0
 10
151.1623
 20
-2.4485
 30
0.0
 10
151.1623
 20
-2.4485
 30
0.0
 10
151.1623
 20
-2.4485
 30
0.0
 10
151.1623
 20
-2.4485
 30
0.0
 10
148.4567
 20
-6.9341
 30
0.0
 10
148.4567
 20
-6.9341
 30
0.0
 10
148.4567
 20
-6.9341
 30
0.0
 10
148.4567
 20
-6.9341
 30
0.0
 10
145.3239
 20
-11.1348
 30
0.0
 10
145.3239
 20
-11.1348
 30
0.0
 10
145.3239
 20
-11.1348
 30
0.0
 10
145.3239
 20
-11.1348
 30
0.0
 10
141.8352
 20
-14.9796
 30
0.0
 10
141.8352
 20
-14.9796
 30
0.0
 10
141.8352
 20
-14.9796
 30
0.0
 10
141.8352
 20
-14.9796
 30
0.0
 10
137.9904
 20
-18.4684
 30
0.0
 10
137.9904
 20
-18.4684
 30
0.0
 10
137.9904
 20
-18.4684
 30
0.0
 10
137.9904
 20
-18.4684
 30
0.0
 10
133.8608
 20
-21.6012
 30
0.0
 10
133.8608
 20
-21.6012
 30
0.0
 10
133.8608
 20
-21.6012
 30
0.0
 10
133.8608
 20
-21.6012
 30
0.0
 10
129.3752
 20
-24.3068
 30
0.0
 10
129.3752
 20
-24.3068
 30
0.0
 10
129.3752
 20
-24.3068
 30
0.0
 10
129.3752
 20
-24.3068
 30
0.0
 10
124.6048
 20
-26.5852
 30
0.0
 10
124.6048
 20
-26.5852
 30
0.0
 10
124.6048
 20
-26.5852
 30
0.0
 10
124.6048
 20
-26.5852
 30
0.0
 10
119.6208
 20
-28.3652
 30
0.0
 10
119.6208
 20
-28.3652
 30
0.0
 10
119.6208
 20
-28.3652
 30
0.0
 10
119.6208
 20
-28.3652
 30
0.0
 10
114.4233
 20
-29.718
 30
0.0
 10
114.4233
 20
-29.718
 30
0.0
 10
114.4233
 20
-29.718
 30
0.0
 10
114.4233
 20
-29.718
 30
0.0
 10
109.0833
 20
-30.5724
 30
0.0
 10
109.0833
 20
-30.5724
 30
0.0
 10
109.0833
 20
-30.5724
 30
0.0
 10
109.0833
 20
-30.5724
 30
0.0
 10
103.5297
 20
-30.8572
 30
0.0
 10
103.5297
 20
-30.8572
 30
0.0
 10
103.5297
 20
-30.8572
 30
0.0
 10
103.5297
 20
-30.8572
 30
0.0
 10
97.9761
 20
-30.5724
 30
0.0
 10
97.9761
 20
-30.5724
 30
0.0
 10
97.9761
 20
-30.5724
 30
0.0
 10
97.9761
 20
-30.5724
 30
0.0
 10
92.6362
 20
-29.718
 30
0.0
 10
92.6362
 20
-29.718
 30
0.0
 10
92.6362
 20
-29.718
 30
0.0
 10
92.6362
 20
-29.718
 30
0.0
 10
87.4386
 20
-28.3652
 30
0.0
 10
87.4386
 20
-28.3652
 30
0.0
 10
87.4386
 20
-28.3652
 30
0.0
 10
87.4386
 20
-28.3652
 30
0.0
 10
82.4546
 20
-26.5852
 30
0.0
 10
82.4546
 20
-26.5852
 30
0.0
 10
82.4546
 20
-26.5852
 30
0.0
 10
82.4546
 20
-26.5852
 30
0.0
 10
77.6842
 20
-24.3068
 30
0.0
 10
77.6842
 20
-24.3068
 30
0.0
 10
77.6842
 20
-24.3068
 30
0.0
 10
77.6842
 20
-24.3068
 30
0.0
 10
73.1986
 20
-21.6012
 30
0.0
 10
73.1986
 20
-21.6012
 30
0.0
 10
73.1986
 20
-21.6012
 30
0.0
 10
73.1986
 20
-21.6012
 30
0.0
 10
69.0691
 20
-18.4684
 30
0.0
 10
69.0691
 20
-18.4684
 30
0.0
 10
69.0691
 20
-18.4684
 30
0.0
 10
69.0691
 20
-18.4684
 30
0.0
 10
65.2243
 20
-14.9796
 30
0.0
 10
65.2243
 20
-14.9796
 30
0.0
 10
65.2243
 20
-14.9796
 30
0.0
 10
65.2243
 20
-14.9796
 30
0.0
 10
61.7355
 20
-11.1348
 30
0.0
 10
61.7355
 20
-11.1348
 30
0.0
 10
61.7355
 20
-11.1348
 30
0.0
 10
61.7355
 20
-11.1348
 30
0.0
 10
58.6027
 20
-6.9341
 30
0.0
 10
58.6027
 20
-6.9341
 30
0.0
 10
58.6027
 20
-6.9341
 30
0.0
 10
58.6027
 20
-6.9341
 30
0.0
 10
55.8971
 20
-2.4485
 30
0.0
 10
55.8971
 20
-2.4485
 30
0.0
 10
55.8971
 20
-2.4485
 30
0.0
 10
55.8971
 20
-2.4485
 30
0.0
 10
53.5475
 20
2.2507
 30
0.0
 10
53.5475
 20
2.2507
 30
0.0
 10
53.5475
 20
2.2507
 30
0.0
 10
53.5475
 20
2.2507
 30
0.0
 10
51.7675
 20
7.2347
 30
0.0
 10
51.7675
 20
7.2347
 30
0.0
 10
51.7675
 20
7.2347
 30
0.0
 10
51.7675
 20
7.2347
 30
0.0
 10
50.4147
 20
12.4323
 30
0.0
 10
50.4147
 20
12.4323
 30
0.0
 10
50.4147
 20
12.4323
 30
0.0
 10
50.4147
 20
12.4323
 30
0.0
 10
49.6315
 20
17.8435
 30
0.0
 10
49.6315
 20
17.8435
 30
0.0
 10
49.6315
 20
17.8435
 30
0.0
 10
49.6315
 20
17.8435
 30
0.0
 10
49.3467
 20
23.397
 30
0.0
 10
49.3467
 20
23.397
 30
0.0
 10
49.3467
 20
23.397
 30
0.0
 10
49.3467
 20
23.397
 30
0.0
 10
49.4179
 20
27.1706
 30
0.0
 10
49.4179
 20
27.1706
 30
0.0
 10
49.4179
 20
27.1706
 30
0.0
 10
49.4179
 20
27.1706
 30
0.0
 10
49.8451
 20
30.8733
 30
0.0
 10
49.8451
 20
30.8733
 30
0.0
 10
49.8451
 20
30.8733
 30
0.0
 10
49.8451
 20
30.8733
 30
0.0
 10
50.4859
 20
34.5042
 30
0.0
 10
50.4859
 20
34.5042
 30
0.0
 10
50.4859
 20
34.5042
 30
0.0
 10
50.4859
 20
34.5042
 30
0.0
 10
51.3403
 20
38.0642
 30
0.0
 10
51.3403
 20
38.0642
 30
0.0
 10
51.3403
 20
38.0642
 30
0.0
 10
51.3403
 20
38.0642
 30
0.0
 10
52.4795
 20
41.553
 30
0.0
 10
52.4795
 20
41.553
 30
0.0
 10
52.4795
 20
41.553
 30
0.0
 10
52.4795
 20
41.553
 30
0.0
 10
53.7611
 20
44.8993
 30
0.0
 10
53.7611
 20
44.8993
 30
0.0
 10
53.7611
 20
44.8993
 30
0.0
 10
53.7611
 20
44.8993
 30
0.0
 10
55.3275
 20
48.1745
 30
0.0
 10
55.3275
 20
48.1745
 30
0.0
 10
55.3275
 20
48.1745
 30
0.0
 10
55.3275
 20
48.1745
 30
0.0
 10
57.0363
 20
51.2361
 30
0.0
 10
57.0363
 20
51.2361
 30
0.0
 10
57.0363
 20
51.2361
 30
0.0
 10
57.0363
 20
51.2361
 30
0.0
 10
58.9587
 20
54.2265
 30
0.0
 10
58.9587
 20
54.2265
 30
0.0
 10
58.9587
 20
54.2265
 30
0.0
 10
58.9587
 20
54.2265
 30
0.0
 10
61.0947
 20
57.1457
 30
0.0
 10
61.0947
 20
57.1457
 30
0.0
 10
61.0947
 20
57.1457
 30
0.0
 10
61.0947
 20
57.1457
 30
0.0
 10
63.3731
 20
59.7801
 30
0.0
 10
63.3731
 20
59.7801
 30
0.0
 10
63.3731
 20
59.7801
 30
0.0
 10
63.3731
 20
59.7801
 30
0.0
 10
65.8651
 20
62.3433
 30
0.0
 10
65.8651
 20
62.3433
 30
0.0
 10
65.8651
 20
62.3433
 30
0.0
 10
65.8651
 20
62.3433
 30
0.0
 10
68.4995
 20
64.7641
 30
0.0
 10
68.4995
 20
64.7641
 30
0.0
 10
68.4995
 20
64.7641
 30
0.0
 10
68.4995
 20
64.7641
 30
0.0
 10
71.2762
 20
66.9713
 30
0.0
 10
71.2762
 20
66.9713
 30
0.0
 10
71.2762
 20
66.9713
 30
0.0
 10
71.2762
 20
66.9713
 30
0.0
 10
74.1954
 20
68.9648
 30
0.0
 10
74.1954
 20
68.9648
 30
0.0
 10
74.1954
 20
68.9648
 30
0.0
 10
74.1954
 20
68.9648
 30
0.0
 10
77.257
 20
70.816
 30
0.0
 10
77.257
 20
70.816
 30
0.0
 10
77.257
 20
70.816
 30
0.0
 10
77.257
 20
70.816
 30
0.0
 10
80.6746
 20
58.7121
 30
0.0
 10
80.6746
 20
58.7121
 30
0.0
 10
80.6746
 20
58.7121
 30
0.0
 10
80.6746
 20
58.7121
 30
0.0
 10
82.3834
 20
52.8025
 30
0.0
 10
82.3834
 20
52.8025
 30
0.0
 10
82.3834
 20
52.8025
 30
0.0
 10
82.3834
 20
52.8025
 30
0.0
 10
84.3058
 20
47.1777
 30
0.0
 10
84.3058
 20
47.1777
 30
0.0
 10
84.3058
 20
47.1777
 30
0.0
 10
84.3058
 20
47.1777
 30
0.0
 10
86.4418
 20
41.8378
 30
0.0
 10
86.4418
 20
41.8378
 30
0.0
 10
86.4418
 20
41.8378
 30
0.0
 10
86.4418
 20
41.8378
 30
0.0
 10
88.8626
 20
36.925
 30
0.0
 10
88.8626
 20
36.925
 30
0.0
 10
88.8626
 20
36.925
 30
0.0
 10
88.8626
 20
36.925
 30
0.0
 10
91.5682
 20
32.5818
 30
0.0
 10
91.5682
 20
32.5818
 30
0.0
 10
91.5682
 20
32.5818
 30
0.0
 10
91.5682
 20
32.5818
 30
0.0
 10
93.0634
 20
30.5885
 30
0.0
 10
93.0634
 20
30.5885
 30
0.0
 10
93.0634
 20
30.5885
 30
0.0
 10
93.0634
 20
30.5885
 30
0.0
 10
94.7009
 20
28.8082
 30
0.0
 10
94.7009
 20
28.8082
 30
0.0
 10
94.7009
 20
28.8082
 30
0.0
 10
94.7009
 20
28.8082
 30
0.0
 10
94.1313
 20
26.245
 30
0.0
 10
94.1313
 20
26.245
 30
0.0
 10
94.1313
 20
26.245
 30
0.0
 10
94.1313
 20
26.245
 30
0.0
 10
93.9177
 20
23.8242
 30
0.0
 10
93.9177
 20
23.8242
 30
0.0
 10
93.9177
 20
23.8242
 30
0.0
 10
93.9177
 20
23.8242
 30
0.0
 10
94.1313
 20
21.7594
 30
0.0
 10
94.1313
 20
21.7594
 30
0.0
 10
94.1313
 20
21.7594
 30
0.0
 10
94.1313
 20
21.7594
 30
0.0
 10
94.7009
 20
19.837
 30
0.0
 10
94.7009
 20
19.837
 30
0.0
 10
94.7009
 20
19.837
 30
0.0
 10
94.7009
 20
19.837
 30
0.0
 10
95.4841
 20
18.2706
 30
0.0
 10
95.4841
 20
18.2706
 30
0.0
 10
95.4841
 20
18.2706
 30
0.0
 10
95.4841
 20
18.2706
 30
0.0
 10
96.6233
 20
16.8467
 30
0.0
 10
96.6233
 20
16.8467
 30
0.0
 10
96.6233
 20
16.8467
 30
0.0
 10
96.6233
 20
16.8467
 30
0.0
 10
97.9049
 20
15.7075
 30
0.0
 10
97.9049
 20
15.7075
 30
0.0
 10
97.9049
 20
15.7075
 30
0.0
 10
97.9049
 20
15.7075
 30
0.0
 10
99.3289
 20
14.8531
 30
0.0
 10
99.3289
 20
14.8531
 30
0.0
 10
99.3289
 20
14.8531
 30
0.0
 10
99.3289
 20
14.8531
 30
0.0
 10
100.8953
 20
14.2835
 30
0.0
 10
100.8953
 20
14.2835
 30
0.0
 10
100.8953
 20
14.2835
 30
0.0
 10
100.8953
 20
14.2835
 30
0.0
 10
102.5329
 20
13.9275
 30
0.0
 10
102.5329
 20
13.9275
 30
0.0
 10
102.5329
 20
13.9275
 30
0.0
 10
102.5329
 20
13.9275
 30
0.0
 10
104.2417
 20
13.7851
 30
0.0
 10
104.2417
 20
13.7851
 30
0.0
 10
104.2417
 20
13.7851
 30
0.0
 10
104.2417
 20
13.7851
 30
0.0
 10
105.8793
 20
13.9275
 30
0.0
 10
105.8793
 20
13.9275
 30
0.0
 10
105.8793
 20
13.9275
 30
0.0
 10
105.8793
 20
13.9275
 30
0.0
 10
107.5169
 20
14.3547
 30
0.0
 10
107.5169
 20
14.3547
 30
0.0
 10
107.5169
 20
14.3547
 30
0.0
 10
107.5169
 20
14.3547
 30
0.0
 10
109.0121
 20
15.0667
 30
0.0
 10
109.0121
 20
15.0667
 30
0.0
 10
109.0121
 20
15.0667
 30
0.0
 10
109.0121
 20
15.0667
 30
0.0
 10
110.4361
 20
15.9923
 30
0.0
 10
110.4361
 20
15.9923
 30
0.0
 10
110.4361
 20
15.9923
 30
0.0
 10
110.4361
 20
15.9923
 30
0.0
 10
111.6465
 20
17.2027
 30
0.0
 10
111.6465
 20
17.2027
 30
0.0
 10
111.6465
 20
17.2027
 30
0.0
 10
111.6465
 20
17.2027
 30
0.0
 10
112.4297
 20
18.1994
 30
0.0
 10
112.4297
 20
18.1994
 30
0.0
 10
112.4297
 20
18.1994
 30
0.0
 10
112.4297
 20
18.1994
 30
0.0
 10
112.9993
 20
19.4098
 30
0.0
 10
112.9993
 20
19.4098
 30
0.0
 10
112.9993
 20
19.4098
 30
0.0
 10
112.9993
 20
19.4098
 30
0.0
 10
113.4265
 20
20.7626
 30
0.0
 10
113.4265
 20
20.7626
 30
0.0
 10
113.4265
 20
20.7626
 30
0.0
 10
113.4265
 20
20.7626
 30
0.0
 10
113.5689
 20
22.329
 30
0.0
 10
113.5689
 20
22.329
 30
0.0
 10
113.5689
 20
22.329
 30
0.0
 10
113.5689
 20
22.329
 30
0.0
 10
113.3553
 20
25.533
 30
0.0
 10
113.3553
 20
25.533
 30
0.0
 10
113.3553
 20
25.533
 30
0.0
 10
113.3553
 20
25.533
 30
0.0
 10
112.8569
 20
27.0994
 30
0.0
 10
112.8569
 20
27.0994
 30
0.0
 10
112.8569
 20
27.0994
 30
0.0
 10
112.8569
 20
27.0994
 30
0.0
 10
112.2161
 20
28.5946
 30
0.0
 10
112.2161
 20
28.5946
 30
0.0
 10
112.2161
 20
28.5946
 30
0.0
 10
112.2161
 20
28.5946
 30
0.0
 10
111.2905
 20
29.9474
 30
0.0
 10
111.2905
 20
29.9474
 30
0.0
 10
111.2905
 20
29.9474
 30
0.0
 10
111.2905
 20
29.9474
 30
0.0
 10
110.1513
 20
31.0866
 30
0.0
 10
110.1513
 20
31.0866
 30
0.0
 10
110.1513
 20
31.0866
 30
0.0
 10
110.1513
 20
31.0866
 30
0.0
 10
108.7276
 20
32.0122
 30
0.0
 10
108.7276
 20
32.0122
 30
0.0
 10
108.7276
 20
32.0122
 30
0.0
 10
108.7276
 20
32.0122
 30
0.0
 10
107.0897
 20
32.653
 30
0.0
 10
107.0897
 20
32.653
 30
0.0
 10
107.0897
 20
32.653
 30
0.0
 10
107.0897
 20
32.653
 30
0.0
 10
105.1673
 20
32.9378
 30
0.0
 10
105.1673
 20
32.9378
 30
0.0
 10
105.1673
 20
32.9378
 30
0.0
 10
105.1673
 20
32.9378
 30
0.0
 10
103.0313
 20
32.8666
 30
0.0
 10
103.0313
 20
32.8666
 30
0.0
 10
103.0313
 20
32.8666
 30
0.0
 10
103.0313
 20
32.8666
 30
0.0
 10
100.6105
 20
32.297
 30
0.0
 10
100.6105
 20
32.297
 30
0.0
 10
100.6105
 20
32.297
 30
0.0
 10
100.6105
 20
32.297
 30
0.0
 10
97.9049
 20
31.229
 30
0.0
 10
97.9049
 20
31.229
 30
0.0
 10
97.9049
 20
31.229
 30
0.0
 10
97.9049
 20
31.229
 30
0.0
 10
96.6233
 20
32.9378
 30
0.0
 10
96.6233
 20
32.9378
 30
0.0
 10
96.6233
 20
32.9378
 30
0.0
 10
96.6233
 20
32.9378
 30
0.0
 10
95.4129
 20
34.8602
 30
0.0
 10
95.4129
 20
34.8602
 30
0.0
 10
95.4129
 20
34.8602
 30
0.0
 10
95.4129
 20
34.8602
 30
0.0
 10
93.277
 20
39.2746
 30
0.0
 10
93.277
 20
39.2746
 30
0.0
 10
93.277
 20
39.2746
 30
0.0
 10
93.277
 20
39.2746
 30
0.0
 10
91.3546
 20
44.2585
 30
0.0
 10
91.3546
 20
44.2585
 30
0.0
 10
91.3546
 20
44.2585
 30
0.0
 10
91.3546
 20
44.2585
 30
0.0
 10
89.717
 20
49.7409
 30
0.0
 10
89.717
 20
49.7409
 30
0.0
 10
89.717
 20
49.7409
 30
0.0
 10
89.717
 20
49.7409
 30
0.0
 10
86.6554
 20
61.6313
 30
0.0
 10
86.6554
 20
61.6313
 30
0.0
 10
86.6554
 20
61.6313
 30
0.0
 10
86.6554
 20
61.6313
 30
0.0
 10
83.665
 20
73.8064
 30
0.0
 10
83.665
 20
73.8064
 30
0.0
 10
83.665
 20
73.8064
 30
0.0
 10
83.665
 20
73.8064
 30
0.0
 10
88.3642
 20
75.444
 30
0.0
 10
88.3642
 20
75.444
 30
0.0
 10
88.3642
 20
75.444
 30
0.0
 10
88.3642
 20
75.444
 30
0.0
 10
93.277
 20
76.5832
 30
0.0
 10
93.277
 20
76.5832
 30
0.0
 10
93.277
 20
76.5832
 30
0.0
 10
93.277
 20
76.5832
 30
0.0
 10
98.3321
 20
77.2952
 30
0.0
 10
98.3321
 20
77.2952
 30
0.0
 10
98.3321
 20
77.2952
 30
0.0
 10
98.3321
 20
77.2952
 30
0.0
 10
103.5297
 20
77.58
 30
0.0
 10
103.5297
 20
77.58
 30
0.0
  0
SPLINE
  5
42
330
1F
100
AcDbEntity
  8
Camada 1
 62
   250
370
     9
100
AcDbSpline
210
0.0
220
0.0
230
1.0
 70
    11
 71
     3
 72
    40
 73
    36
 74
     0
 42
0.0000000001
 43
0.0000000001
 12
1.0
 22
0.0
 32
0.0
 13
1.0
 23
0.0
 33
0.0
 40
0.0
 40
0.0
 40
0.0
 40
0.0
 40
0.1
 40
0.1
 40
0.1
 40
0.1
 40
0.2
 40
0.2
 40
0.2
 40
0.2
 40
0.3
 40
0.3
 40
0.3
 40
0.3
 40
0.4
 40
0.4
 40
0.4
 40
0.4
 40
0.5
 40
0.5
 40
0.5
 40
0.5
 40
0.6
 40
0.6
 40
0.6
 40
0.6
 40
0.7
 40
0.7
 40
0.7
 40
0.7
 40
0.8
 40
0.8
 40
0.8
 40
0.8
 40
1.0
 40
1.0
 40
1.0
 40
1.0
 10
-25.4842
 20
18.1282
 30
0.0
 10
-25.4842
 20
18.1282
 30
0.0
 10
-27.8337
 20
5.6683
 30
0.0
 10
-27.8337
 20
5.6683
 30
0.0
 10
-27.8337
 20
5.6683
 30
0.0
 10
-27.8337
 20
5.6683
 30
0.0
 10
-14.6618
 20
6.6651
 30
0.0
 10
-14.6618
 20
6.6651
 30
0.0
 10
-14.6618
 20
6.6651
 30
0.0
 10
-14.6618
 20
6.6651
 30
0.0
 10
-16.157
 20
7.6619
 30
0.0
 10
-16.157
 20
7.6619
 30
0.0
 10
-16.157
 20
7.6619
 30
0.0
 10
-16.157
 20
7.6619
 30
0.0
 10
-17.4386
 20
8.8011
 30
0.0
 10
-17.4386
 20
8.8011
 30
0.0
 10
-17.4386
 20
8.8011
 30
0.0
 10
-17.4386
 20
8.8011
 30
0.0
 10
-18.649
 20
10.0115
 30
0.0
 10
-18.649
 20
10.0115
 30
0.0
 10
-18.649
 20
10.0115
 30
0.0
 10
-18.649
 20
10.0115
 30
0.0
 10
-19.6458
 20
11.3643
 30
0.0
 10
-19.6458
 20
11.3643
 30
0.0
 10
-19.6458
 20
11.3643
 30
0.0
 10
-19.6458
 20
11.3643
 30
0.0
 10
-21.4258
 20
14.4971
 30
0.0
 10
-21.4258
 20
14.4971
 30
0.0
 10
-21.4258
 20
14.4971
 30
0.0
 10
-21.4258
 20
14.4971
 30
0.0
 10
-22.565
 20
18.1282
 30
0.0
 10
-22.565
 20
18.1282
 30
0.0
 10
-22.565
 20
18.1282
 30
0.0
 10
-22.565
 20
18.1282
 30
0.0
 10
-25.4842
 20
18.1282
 30
0.0
 10
-25.4842
 20
18.1282
 30
0.0
  0
SPLINE
  5
43
330
1F
100
AcDbEntity
  8
Camada 1
 62
   250
370
     9
100
AcDbSpline
210
0.0
220
0.0
230
1.0
 70
    11
 71
     3
 72
    32
 73
    28
 74
     0
 42
0.0000000001
 43
0.0000000001
 12
1.0
 22
0.0
 32
0.0
 13
1.0
 23
0.0
 33
0.0
 40
0.0
 40
0.0
 40
0.0
 40
0.0
 40
0.125
 40
0.125
 40
0.125
 40
0.125
 40
0.25
 40
0.25
 40
0.25
 40
0.25
 40
0.375
 40
0.375
 40
0.375
 40
0.375
 40
0.5
 40
0.5
 40
0.5
 40
0.5
 40
0.625
 40
0.625
 40
0.625
 40
0.625
 40
0.75
 40
0.75
 40
0.75
 40
0.75
 40
1.0
 40
1.0
 40
1.0
 40
1.0
 10
-26.3386
 20
33.5786
 30
0.0
 10
-26.3386
 20
33.5786
 30
0.0
 10
-25.3418
 20
23.397
 30
0.0
 10
-25.3418
 20
23.397
 30
0.0
 10
-25.3418
 20
23.397
 30
0.0
 10
-25.3418
 20
23.397
 30
0.0
 10
-22.9922
 20
23.4682
 30
0.0
 10
-22.9922
 20
23.4682
 30
0.0
 10
-22.9922
 20
23.4682
 30
0.0
 10
-22.9922
 20
23.4682
 30
0.0
 10
-22.7074
 20
26.3874
 30
0.0
 10
-22.7074
 20
26.3874
 30
0.0
 10
-22.7074
 20
26.3874
 30
0.0
 10
-22.7074
 20
26.3874
 30
0.0
 10
-21.9954
 20
29.0218
 30
0.0
 10
-21.9954
 20
29.0218
 30
0.0
 10
-21.9954
 20
29.0218
 30
0.0
 10
-21.9954
 20
29.0218
 30
0.0
 10
-20.9986
 20
31.5138
 30
0.0
 10
-20.9986
 20
31.5138
 30
0.0
 10
-20.9986
 20
31.5138
 30
0.0
 10
-20.9986
 20
31.5138
 30
0.0
 10
-19.5746
 20
33.7922
 30
0.0
 10
-19.5746
 20
33.7922
 30
0.0
 10
-19.5746
 20
33.7922
 30
0.0
 10
-19.5746
 20
33.7922
 30
0.0
 10
-26.3386
 20
33.5786
 30
0.0
 10
-26.3386
 20
33.5786
 30
0.0
  0
SPLINE
  5
44
330
1F
100
AcDbEntity
  8
Camada 1
 62
   250
370
     9
100
AcDbSpline
210
0.0
220
0.0
230
1.0
 70
    11
 71
     3
 72
    32
 73
    28
 74
     0
 42
0.0000000001
 43
0.0000000001
 12
1.0
 22
0.0
 32
0.0
 13
1.0
 23
0.0
 33
0.0
 40
0.0
 40
0.0
 40
0.0
 40
0.0
 40
0.125
 40
0.125
 40
0.125
 40
0.125
 40
0.25
 40
0.25
 40
0.25
 40
0.25
 40
0.375
 40
0.375
 40
0.375
 40
0.375
 40
0.5
 40
0.5
 40
0.5
 40
0.5
 40
0.625
 40
0.625
 40
0.625
 40
0.625
 40
0.75
 40
0.75
 40
0.75
 40
0.75
 40
1.0
 40
1.0
 40
1.0
 40
1.0
 10
-81.8031
 20
31.3002
 30
0.0
 10
-81.8031
 20
31.3002
 30
0.0
 10
-38.2289
 20
32.5106
 30
0.0
 10
-38.2289
 20
32.5106
 30
0.0
 10
-38.2289
 20
32.5106
 30
0.0
 10
-38.2289
 20
32.5106
 30
0.0
 10
-36.5913
 20
23.6106
 30
0.0
 10
-36.5913
 20
23.6106
 30
0.0
 10
-36.5913
 20
23.6106
 30
0.0
 10
-36.5913
 20
23.6106
 30
0.0
 10
-79.0975
 20
23.397
 30
0.0
 10
-79.0975
 20
23.397
 30
0.0
 10
-79.0975
 20
23.397
 30
0.0
 10
-79.0975
 20
23.397
 30
0.0
 10
-79.0975
 20
25.533
 30
0.0
 10
-79.0975
 20
25.533
 30
0.0
 10
-79.0975
 20
25.533
 30
0.0
 10
-79.0975
 20
25.533
 30
0.0
 10
-79.5247
 20
27.5266
 30
0.0
 10
-79.5247
 20
27.5266
 30
0.0
 10
-79.5247
 20
27.5266
 30
0.0
 10
-79.5247
 20
27.5266
 30
0.0
 10
-80.4503
 20
29.449
 30
0.0
 10
-80.4503
 20
29.449
 30
0.0
 10
-80.4503
 20
29.449
 30
0.0
 10
-80.4503
 20
29.449
 30
0.0
 10
-81.8031
 20
31.3002
 30
0.0
 10
-81.8031
 20
31.3002
 30
0.0
  0
SPLINE
  5
45
330
1F
100
AcDbEntity
  8
Camada 1
 62
   250
370
     9
100
AcDbSpline
210
0.0
220
0.0
230
1.0
 70
    11
 71
     3
 72
    44
 73
    40
 74
     0
 42
0.0000000001
 43
0.0000000001
 12
1.0
 22
0.0
 32
0.0
 13
1.0
 23
0.0
 33
0.0
 40
0.0
 40
0.0
 40
0.0
 40
0.0
 40
0.0909090909090909
 40
0.0909090909090909
 40
0.0909090909090909
 40
0.0909090909090909
 40
0.1818181818181818
 40
0.1818181818181818
 40
0.1818181818181818
 40
0.1818181818181818
 40
0.2727272727272727
 40
0.2727272727272727
 40
0.2727272727272727
 40
0.2727272727272727
 40
0.3636363636363636
 40
0.3636363636363636
 40
0.3636363636363636
 40
0.3636363636363636
 40
0.4545454545454545
 40
0.4545454545454545
 40
0.4545454545454545
 40
0.4545454545454545
 40
0.5454545454545454
 40
0.5454545454545454
 40
0.5454545454545454
 40
0.5454545454545454
 40
0.6363636363636364
 40
0.6363636363636364
 40
0.6363636363636364
 40
0.6363636363636364
 40
0.7272727272727273
 40
0.7272727272727273
 40
0.7272727272727273
 40
0.7272727272727273
 40
0.8181818181818182
 40
0.8181818181818182
 40
0.8181818181818182
 40
0.8181818181818182
 40
1.0
 40
1.0
 40
1.0
 40
1.0
 10
-64.7152
 20
71.1008
 30
0.0
 10
-64.7152
 20
71.1008
 30
0.0
 10
-83.8679
 20
34.8602
 30
0.0
 10
-83.8679
 20
34.8602
 30
0.0
 10
-83.8679
 20
34.8602
 30
0.0
 10
-83.8679
 20
34.8602
 30
0.0
 10
-38.2289
 20
36.4978
 30
0.0
 10
-38.2289
 20
36.4978
 30
0.0
 10
-38.2289
 20
36.4978
 30
0.0
 10
-38.2289
 20
36.4978
 30
0.0
 10
-39.8665
 20
42.0514
 30
0.0
 10
-39.8665
 20
42.0514
 30
0.0
 10
-39.8665
 20
42.0514
 30
0.0
 10
-39.8665
 20
42.0514
 30
0.0
 10
-42.0025
 20
47.1777
 30
0.0
 10
-42.0025
 20
47.1777
 30
0.0
 10
-42.0025
 20
47.1777
 30
0.0
 10
-42.0025
 20
47.1777
 30
0.0
 10
-44.7081
 20
52.0193
 30
0.0
 10
-44.7081
 20
52.0193
 30
0.0
 10
-44.7081
 20
52.0193
 30
0.0
 10
-44.7081
 20
52.0193
 30
0.0
 10
-47.9121
 20
56.5049
 30
0.0
 10
-47.9121
 20
56.5049
 30
0.0
 10
-47.9121
 20
56.5049
 30
0.0
 10
-47.9121
 20
56.5049
 30
0.0
 10
-51.5432
 20
60.6345
 30
0.0
 10
-51.5432
 20
60.6345
 30
0.0
 10
-51.5432
 20
60.6345
 30
0.0
 10
-51.5432
 20
60.6345
 30
0.0
 10
-55.6016
 20
64.4793
 30
0.0
 10
-55.6016
 20
64.4793
 30
0.0
 10
-55.6016
 20
64.4793
 30
0.0
 10
-55.6016
 20
64.4793
 30
0.0
 10
-60.016
 20
67.9681
 30
0.0
 10
-60.016
 20
67.9681
 30
0.0
 10
-60.016
 20
67.9681
 30
0.0
 10
-60.016
 20
67.9681
 30
0.0
 10
-64.7152
 20
71.1008
 30
0.0
 10
-64.7152
 20
71.1008
 30
0.0
  0
SPLINE
  5
46
330
1F
100
AcDbEntity
  8
Camada 1
 62
   250
370
     9
100
AcDbSpline
210
0.0
220
0.0
230
1.0
 70
    11
 71
     3
 72
    56
 73
    52
 74
     0
 42
0.0000000001
 43
0.0000000001
 12
1.0
 22
0.0
 32
0.0
 13
1.0
 23
0.0
 33
0.0
 40
0.0
 40
0.0
 40
0.0
 40
0.0
 40
0.0714285714285714
 40
0.0714285714285714
 40
0.0714285714285714
 40
0.0714285714285714
 40
0.1428571428571428
 40
0.1428571428571428
 40
0.1428571428571428
 40
0.1428571428571428
 40
0.2142857142857143
 40
0.2142857142857143
 40
0.2142857142857143
 40
0.2142857142857143
 40
0.2857142857142857
 40
0.2857142857142857
 40
0.2857142857142857
 40
0.2857142857142857
 40
0.3571428571428572
 40
0.3571428571428572
 40
0.3571428571428572
 40
0.3571428571428572
 40
0.4285714285714285
 40
0.4285714285714285
 40
0.4285714285714285
 40
0.4285714285714285
 40
0.5
 40
0.5
 40
0.5
 40
0.5
 40
0.5714285714285714
 40
0.5714285714285714
 40
0.5714285714285714
 40
0.5714285714285714
 40
0.6428571428571429
 40
0.6428571428571429
 40
0.6428571428571429
 40
0.6428571428571429
 40
0.7142857142857143
 40
0.7142857142857143
 40
0.7142857142857143
 40
0.7142857142857143
 40
0.7857142857142857
 40
0.7857142857142857
 40
0.7857142857142857
 40
0.7857142857142857
 40
0.8571428571428571
 40
0.8571428571428571
 40
0.8571428571428571
 40
0.8571428571428571
 40
1.0
 40
1.0
 40
1.0
 40
1.0
 10
-80.3791
 20
17.9147
 30
0.0
 10
-80.3791
 20
17.9147
 30
0.0
 10
-37.5169
 20
17.8435
 30
0.0
 10
-37.5169
 20
17.8435
 30
0.0
 10
-37.5169
 20
17.8435
 30
0.0
 10
-37.5169
 20
17.8435
 30
0.0
 10
-40.4361
 20
5.5259
 30
0.0
 10
-40.4361
 20
5.5259
 30
0.0
 10
-40.4361
 20
5.5259
 30
0.0
 10
-40.4361
 20
5.5259
 30
0.0
 10
-90.0623
 20
1.8235
 30
0.0
 10
-90.0623
 20
1.8235
 30
0.0
 10
-90.0623
 20
1.8235
 30
0.0
 10
-90.0623
 20
1.8235
 30
0.0
 10
-88.9943
 20
3.3899
 30
0.0
 10
-88.9943
 20
3.3899
 30
0.0
 10
-88.9943
 20
3.3899
 30
0.0
 10
-88.9943
 20
3.3899
 30
0.0
 10
-87.9975
 20
5.7395
 30
0.0
 10
-87.9975
 20
5.7395
 30
0.0
 10
-87.9975
 20
5.7395
 30
0.0
 10
-87.9975
 20
5.7395
 30
0.0
 10
-87.7127
 20
7.0923
 30
0.0
 10
-87.7127
 20
7.0923
 30
0.0
 10
-87.7127
 20
7.0923
 30
0.0
 10
-87.7127
 20
7.0923
 30
0.0
 10
-87.6415
 20
8.3739
 30
0.0
 10
-87.6415
 20
8.3739
 30
0.0
 10
-87.6415
 20
8.3739
 30
0.0
 10
-87.6415
 20
8.3739
 30
0.0
 10
-87.9975
 20
9.5843
 30
0.0
 10
-87.9975
 20
9.5843
 30
0.0
 10
-87.9975
 20
9.5843
 30
0.0
 10
-87.9975
 20
9.5843
 30
0.0
 10
-88.7807
 20
10.7235
 30
0.0
 10
-88.7807
 20
10.7235
 30
0.0
 10
-88.7807
 20
10.7235
 30
0.0
 10
-88.7807
 20
10.7235
 30
0.0
 10
-85.6479
 20
12.2899
 30
0.0
 10
-85.6479
 20
12.2899
 30
0.0
 10
-85.6479
 20
12.2899
 30
0.0
 10
-85.6479
 20
12.2899
 30
0.0
 10
-83.2271
 20
13.9987
 30
0.0
 10
-83.2271
 20
13.9987
 30
0.0
 10
-83.2271
 20
13.9987
 30
0.0
 10
-83.2271
 20
13.9987
 30
0.0
 10
-81.4471
 20
15.9211
 30
0.0
 10
-81.4471
 20
15.9211
 30
0.0
 10
-81.4471
 20
15.9211
 30
0.0
 10
-81.4471
 20
15.9211
 30
0.0
 10
-80.3791
 20
17.9147
 30
0.0
 10
-80.3791
 20
17.9147
 30
0.0
  0
SPLINE
  5
47
330
1F
100
AcDbEntity
  8
Camada 1
 62
   250
370
     9
100
AcDbSpline
210
0.0
220
0.0
230
1.0
 70
    11
 71
     3
 72
   316
 73
   312
 74
     0
 42
0.0000000001
 43
0.0000000001
 12
1.0
 22
0.0
 32
0.0
 13
1.0
 23
0.0
 33
0.0
 40
0.0
 40
0.0
 40
0.0
 40
0.0
 40
0.0126582278481013
 40
0.0126582278481013
 40
0.0126582278481013
 40
0.0126582278481013
 40
0.0253164556962025
 40
0.0253164556962025
 40
0.0253164556962025
 40
0.0253164556962025
 40
0.0379746835443038
 40
0.0379746835443038
 40
0.0379746835443038
 40
0.0379746835443038
 40
0.0506329113924051
 40
0.0506329113924051
 40
0.0506329113924051
 40
0.0506329113924051
 40
0.0632911392405063
 40
0.0632911392405063
 40
0.0632911392405063
 40
0.0632911392405063
 40
0.0759493670886076
 40
0.0759493670886076
 40
0.0759493670886076
 40
0.0759493670886076
 40
0.0886075949367089
 40
0.0886075949367089
 40
0.0886075949367089
 40
0.0886075949367089
 40
0.1012658227848101
 40
0.1012658227848101
 40
0.1012658227848101
 40
0.1012658227848101
 40
0.1139240506329114
 40
0.1139240506329114
 40
0.1139240506329114
 40
0.1139240506329114
 40
0.1265822784810127
 40
0.1265822784810127
 40
0.1265822784810127
 40
0.1265822784810127
 40
0.1392405063291139
 40
0.1392405063291139
 40
0.1392405063291139
 40
0.1392405063291139
 40
0.1518987341772152
 40
0.1518987341772152
 40
0.1518987341772152
 40
0.1518987341772152
 40
0.1645569620253164
 40
0.1645569620253164
 40
0.1645569620253164
 40
0.1645569620253164
 40
0.1772151898734177
 40
0.1772151898734177
 40
0.1772151898734177
 40
0.1772151898734177
 40
0.189873417721519
 40
0.189873417721519
 40
0.189873417721519
 40
0.189873417721519
 40
0.2025316455696203
 40
0.2025316455696203
 40
0.2025316455696203
 40
0.2025316455696203
 40
0.2151898734177215
 40
0.2151898734177215
 40
0.2151898734177215
 40
0.2151898734177215
 40
0.2278481012658228
 40
0.2278481012658228
 40
0.2278481012658228
 40
0.2278481012658228
 40
0.2405063291139241
 40
0.2405063291139241
 40
0.2405063291139241
 40
0.2405063291139241
 40
0.2531645569620253
 40
0.2531645569620253
 40
0.2531645569620253
 40
0.2531645569620253
 40
0.2658227848101266
 40
0.2658227848101266
 40
0.2658227848101266
 40
0.2658227848101266
 40
0.2784810126582278
 40
0.2784810126582278
 40
0.2784810126582278
 40
0.2784810126582278
 40
0.2911392405063291
 40
0.2911392405063291
 40
0.2911392405063291
 40
0.2911392405063291
 40
0.3037974683544304
 40
0.3037974683544304
 40
0.3037974683544304
 40
0.3037974683544304
 40
0.3164556962025317
 40
0.3164556962025317
 40
0.3164556962025317
 40
0.3164556962025317
 40
0.3291139240506329
 40
0.3291139240506329
 40
0.3291139240506329
 40
0.3291139240506329
 40
0.3417721518987342
 40
0.3417721518987342
 40
0.3417721518987342
 40
0.3417721518987342
 40
0.3544303797468354
 40
0.3544303797468354
 40
0.3544303797468354
 40
0.3544303797468354
 40
0.3670886075949367
 40
0.3670886075949367
 40
0.3670886075949367
 40
0.3670886075949367
 40
0.379746835443038
 40
0.379746835443038
 40
0.379746835443038
 40
0.379746835443038
 40
0.3924050632911392
 40
0.3924050632911392
 40
0.3924050632911392
 40
0.3924050632911392
 40
0.4050632911392405
 40
0.4050632911392405
 40
0.4050632911392405
 40
0.4050632911392405
 40
0.4177215189873418
 40
0.4177215189873418
 40
0.4177215189873418
 40
0.4177215189873418
 40
0.4303797468354431
 40
0.4303797468354431
 40
0.4303797468354431
 40
0.4303797468354431
 40
0.4430379746835443
 40
0.4430379746835443
 40
0.4430379746835443
 40
0.4430379746835443
 40
0.4556962025316456
 40
0.4556962025316456
 40
0.4556962025316456
 40
0.4556962025316456
 40
0.4683544303797468
 40
0.4683544303797468
 40
0.4683544303797468
 40
0.4683544303797468
 40
0.4810126582278481
 40
0.4810126582278481
 40
0.4810126582278481
 40
0.4810126582278481
 40
0.4936708860759494
 40
0.4936708860759494
 40
0.4936708860759494
 40
0.4936708860759494
 40
0.5063291139240507
 40
0.5063291139240507
 40
0.5063291139240507
 40
0.5063291139240507
 40
0.5189873417721519
 40
0.5189873417721519
 40
0.5189873417721519
 40
0.5189873417721519
 40
0.5316455696202531
 40
0.5316455696202531
 40
0.5316455696202531
 40
0.5316455696202531
 40
0.5443037974683544
 40
0.5443037974683544
 40
0.5443037974683544
 40
0.5443037974683544
 40
0.5569620253164557
 40
0.5569620253164557
 40
0.5569620253164557
 40
0.5569620253164557
 40
0.569620253164557
 40
0.569620253164557
 40
0.569620253164557
 40
0.569620253164557
 40
0.5822784810126582
 40
0.5822784810126582
 40
0.5822784810126582
 40
0.5822784810126582
 40
0.5949367088607594
 40
0.5949367088607594
 40
0.5949367088607594
 40
0.5949367088607594
 40
0.6075949367088608
 40
0.6075949367088608
 40
0.6075949367088608
 40
0.6075949367088608
 40
0.620253164556962
 40
0.620253164556962
 40
0.620253164556962
 40
0.620253164556962
 40
0.6329113924050633
 40
0.6329113924050633
 40
0.6329113924050633
 40
0.6329113924050633
 40
0.6455696202531646
 40
0.6455696202531646
 40
0.6455696202531646
 40
0.6455696202531646
 40
0.6582278481012658
 40
0.6582278481012658
 40
0.6582278481012658
 40
0.6582278481012658
 40
0.6708860759493671
 40
0.6708860759493671
 40
0.6708860759493671
 40
0.6708860759493671
 40
0.6835443037974683
 40
0.6835443037974683
 40
0.6835443037974683
 40
0.6835443037974683
 40
0.6962025316455697
 40
0.6962025316455697
 40
0.6962025316455697
 40
0.6962025316455697
 40
0.7088607594936709
 40
0.7088607594936709
 40
0.7088607594936709
 40
0.7088607594936709
 40
0.7215189873417721
 40
0.7215189873417721
 40
0.7215189873417721
 40
0.7215189873417721
 40
0.7341772151898734
 40
0.7341772151898734
 40
0.7341772151898734
 40
0.7341772151898734
 40
0.7468354430379747
 40
0.7468354430379747
 40
0.7468354430379747
 40
0.7468354430379747
 40
0.759493670886076
 40
0.759493670886076
 40
0.759493670886076
 40
0.759493670886076
 40
0.7721518987341772
 40
0.7721518987341772
 40
0.7721518987341772
 40
0.7721518987341772
 40
0.7848101265822784
 40
0.7848101265822784
 40
0.7848101265822784
 40
0.7848101265822784
 40
0.7974683544303798
 40
0.7974683544303798
 40
0.7974683544303798
 40
0.7974683544303798
 40
0.810126582278481
 40
0.810126582278481
 40
0.810126582278481
 40
0.810126582278481
 40
0.8227848101265823
 40
0.8227848101265823
 40
0.8227848101265823
 40
0.8227848101265823
 40
0.8354430379746836
 40
0.8354430379746836
 40
0.8354430379746836
 40
0.8354430379746836
 40
0.8481012658227848
 40
0.8481012658227848
 40
0.8481012658227848
 40
0.8481012658227848
 40
0.8607594936708861
 40
0.8607594936708861
 40
0.8607594936708861
 40
0.8607594936708861
 40
0.8734177215189873
 40
0.8734177215189873
 40
0.8734177215189873
 40
0.8734177215189873
 40
0.8860759493670886
 40
0.8860759493670886
 40
0.8860759493670886
 40
0.8860759493670886
 40
0.8987341772151899
 40
0.8987341772151899
 40
0.8987341772151899
 40
0.8987341772151899
 40
0.9113924050632911
 40
0.9113924050632911
 40
0.9113924050632911
 40
0.9113924050632911
 40
0.9240506329113924
 40
0.9240506329113924
 40
0.9240506329113924
 40
0.9240506329113924
 40
0.9367088607594937
 40
0.9367088607594937
 40
0.9367088607594937
 40
0.9367088607594937
 40
0.9493670886075949
 40
0.9493670886075949
 40
0.9493670886075949
 40
0.9493670886075949
 40
0.9620253164556962
 40
0.9620253164556962
 40
0.9620253164556962
 40
0.9620253164556962
 40
0.9746835443037974
 40
0.9746835443037974
 40
0.9746835443037974
 40
0.9746835443037974
 40
1.0
 40
1.0
 40
1.0
 40
1.0
 10
-70.1264
 20
73.8064
 30
0.0
 10
-70.1264
 20
73.8064
 30
0.0
 10
-89.9199
 20
36.0706
 30
0.0
 10
-89.9199
 20
36.0706
 30
0.0
 10
-89.9199
 20
36.0706
 30
0.0
 10
-89.9199
 20
36.0706
 30
0.0
 10
-92.6255
 20
35.7858
 30
0.0
 10
-92.6255
 20
35.7858
 30
0.0
 10
-92.6255
 20
35.7858
 30
0.0
 10
-92.6255
 20
35.7858
 30
0.0
 10
-95.1175
 20
35.2874
 30
0.0
 10
-95.1175
 20
35.2874
 30
0.0
 10
-95.1175
 20
35.2874
 30
0.0
 10
-95.1175
 20
35.2874
 30
0.0
 10
-97.3247
 20
34.5042
 30
0.0
 10
-97.3247
 20
34.5042
 30
0.0
 10
-97.3247
 20
34.5042
 30
0.0
 10
-97.3247
 20
34.5042
 30
0.0
 10
-99.2471
 20
33.5074
 30
0.0
 10
-99.2471
 20
33.5074
 30
0.0
 10
-99.2471
 20
33.5074
 30
0.0
 10
-99.2471
 20
33.5074
 30
0.0
 10
-100.9558
 20
32.297
 30
0.0
 10
-100.9558
 20
32.297
 30
0.0
 10
-100.9558
 20
32.297
 30
0.0
 10
-100.9558
 20
32.297
 30
0.0
 10
-102.3798
 20
30.8733
 30
0.0
 10
-102.3798
 20
30.8733
 30
0.0
 10
-102.3798
 20
30.8733
 30
0.0
 10
-102.3798
 20
30.8733
 30
0.0
 10
-103.519
 20
29.3778
 30
0.0
 10
-103.519
 20
29.3778
 30
0.0
 10
-103.519
 20
29.3778
 30
0.0
 10
-103.519
 20
29.3778
 30
0.0
 10
-104.3734
 20
27.669
 30
0.0
 10
-104.3734
 20
27.669
 30
0.0
 10
-104.3734
 20
27.669
 30
0.0
 10
-104.3734
 20
27.669
 30
0.0
 10
-104.8718
 20
25.889
 30
0.0
 10
-104.8718
 20
25.889
 30
0.0
 10
-104.8718
 20
25.889
 30
0.0
 10
-104.8718
 20
25.889
 30
0.0
 10
-105.1566
 20
24.0378
 30
0.0
 10
-105.1566
 20
24.0378
 30
0.0
 10
-105.1566
 20
24.0378
 30
0.0
 10
-105.1566
 20
24.0378
 30
0.0
 10
-105.0854
 20
22.1866
 30
0.0
 10
-105.0854
 20
22.1866
 30
0.0
 10
-105.0854
 20
22.1866
 30
0.0
 10
-105.0854
 20
22.1866
 30
0.0
 10
-104.6582
 20
20.2642
 30
0.0
 10
-104.6582
 20
20.2642
 30
0.0
 10
-104.6582
 20
20.2642
 30
0.0
 10
-104.6582
 20
20.2642
 30
0.0
 10
-103.9462
 20
18.3418
 30
0.0
 10
-103.9462
 20
18.3418
 30
0.0
 10
-103.9462
 20
18.3418
 30
0.0
 10
-103.9462
 20
18.3418
 30
0.0
 10
-102.8782
 20
16.4195
 30
0.0
 10
-102.8782
 20
16.4195
 30
0.0
 10
-102.8782
 20
16.4195
 30
0.0
 10
-102.8782
 20
16.4195
 30
0.0
 10
-101.5254
 20
14.4971
 30
0.0
 10
-101.5254
 20
14.4971
 30
0.0
 10
-101.5254
 20
14.4971
 30
0.0
 10
-101.5254
 20
14.4971
 30
0.0
 10
-99.7454
 20
12.7171
 30
0.0
 10
-99.7454
 20
12.7171
 30
0.0
 10
-99.7454
 20
12.7171
 30
0.0
 10
-99.7454
 20
12.7171
 30
0.0
 10
-97.7519
 20
11.7203
 30
0.0
 10
-97.7519
 20
11.7203
 30
0.0
 10
-97.7519
 20
11.7203
 30
0.0
 10
-97.7519
 20
11.7203
 30
0.0
 10
-96.1143
 20
10.5099
 30
0.0
 10
-96.1143
 20
10.5099
 30
0.0
 10
-96.1143
 20
10.5099
 30
0.0
 10
-96.1143
 20
10.5099
 30
0.0
 10
-94.9751
 20
9.1571
 30
0.0
 10
-94.9751
 20
9.1571
 30
0.0
 10
-94.9751
 20
9.1571
 30
0.0
 10
-94.9751
 20
9.1571
 30
0.0
 10
-94.3343
 20
7.6619
 30
0.0
 10
-94.3343
 20
7.6619
 30
0.0
 10
-94.3343
 20
7.6619
 30
0.0
 10
-94.3343
 20
7.6619
 30
0.0
 10
-94.0495
 20
6.0955
 30
0.0
 10
-94.0495
 20
6.0955
 30
0.0
 10
-94.0495
 20
6.0955
 30
0.0
 10
-94.0495
 20
6.0955
 30
0.0
 10
-94.2631
 20
4.5291
 30
0.0
 10
-94.2631
 20
4.5291
 30
0.0
 10
-94.2631
 20
4.5291
 30
0.0
 10
-94.2631
 20
4.5291
 30
0.0
 10
-94.8327
 20
2.8915
 30
0.0
 10
-94.8327
 20
2.8915
 30
0.0
 10
-94.8327
 20
2.8915
 30
0.0
 10
-94.8327
 20
2.8915
 30
0.0
 10
-95.9719
 20
1.3963
 30
0.0
 10
-95.9719
 20
1.3963
 30
0.0
 10
-95.9719
 20
1.3963
 30
0.0
 10
-95.9719
 20
1.3963
 30
0.0
 10
-96.1143
 20
0.3283
 30
0.0
 10
-96.1143
 20
0.3283
 30
0.0
 10
-96.1143
 20
0.3283
 30
0.0
 10
-96.1143
 20
0.3283
 30
0.0
 10
-95.7583
 20
-0.5261
 30
0.0
 10
-95.7583
 20
-0.5261
 30
0.0
 10
-95.7583
 20
-0.5261
 30
0.0
 10
-95.7583
 20
-0.5261
 30
0.0
 10
-94.9751
 20
-1.3805
 30
0.0
 10
-94.9751
 20
-1.3805
 30
0.0
 10
-94.9751
 20
-1.3805
 30
0.0
 10
-94.9751
 20
-1.3805
 30
0.0
 10
-94.1207
 20
-2.3061
 30
0.0
 10
-94.1207
 20
-2.3061
 30
0.0
 10
-94.1207
 20
-2.3061
 30
0.0
 10
-94.1207
 20
-2.3061
 30
0.0
 10
-41.5753
 20
1.2539
 30
0.0
 10
-41.5753
 20
1.2539
 30
0.0
 10
-41.5753
 20
1.2539
 30
0.0
 10
-41.5753
 20
1.2539
 30
0.0
 10
-44.8505
 20
-4.0861
 30
0.0
 10
-44.8505
 20
-4.0861
 30
0.0
 10
-44.8505
 20
-4.0861
 30
0.0
 10
-44.8505
 20
-4.0861
 30
0.0
 10
-48.4105
 20
-8.9988
 30
0.0
 10
-48.4105
 20
-8.9988
 30
0.0
 10
-48.4105
 20
-8.9988
 30
0.0
 10
-48.4105
 20
-8.9988
 30
0.0
 10
-52.2552
 20
-13.342
 30
0.0
 10
-52.2552
 20
-13.342
 30
0.0
 10
-52.2552
 20
-13.342
 30
0.0
 10
-52.2552
 20
-13.342
 30
0.0
 10
-56.2424
 20
-17.1868
 30
0.0
 10
-56.2424
 20
-17.1868
 30
0.0
 10
-56.2424
 20
-17.1868
 30
0.0
 10
-56.2424
 20
-17.1868
 30
0.0
 10
-60.4432
 20
-20.5332
 30
0.0
 10
-60.4432
 20
-20.5332
 30
0.0
 10
-60.4432
 20
-20.5332
 30
0.0
 10
-60.4432
 20
-20.5332
 30
0.0
 10
-64.7864
 20
-23.4524
 30
0.0
 10
-64.7864
 20
-23.4524
 30
0.0
 10
-64.7864
 20
-23.4524
 30
0.0
 10
-64.7864
 20
-23.4524
 30
0.0
 10
-69.2717
 20
-25.8732
 30
0.0
 10
-69.2717
 20
-25.8732
 30
0.0
 10
-69.2717
 20
-25.8732
 30
0.0
 10
-69.2717
 20
-25.8732
 30
0.0
 10
-73.8288
 20
-27.7956
 30
0.0
 10
-73.8288
 20
-27.7956
 30
0.0
 10
-73.8288
 20
-27.7956
 30
0.0
 10
-73.8288
 20
-27.7956
 30
0.0
 10
-78.5279
 20
-29.2908
 30
0.0
 10
-78.5279
 20
-29.2908
 30
0.0
 10
-78.5279
 20
-29.2908
 30
0.0
 10
-78.5279
 20
-29.2908
 30
0.0
 10
-83.2271
 20
-30.3588
 30
0.0
 10
-83.2271
 20
-30.3588
 30
0.0
 10
-83.2271
 20
-30.3588
 30
0.0
 10
-83.2271
 20
-30.3588
 30
0.0
 10
-87.9263
 20
-30.9996
 30
0.0
 10
-87.9263
 20
-30.9996
 30
0.0
 10
-87.9263
 20
-30.9996
 30
0.0
 10
-87.9263
 20
-30.9996
 30
0.0
 10
-92.6967
 20
-31.142
 30
0.0
 10
-92.6967
 20
-31.142
 30
0.0
 10
-92.6967
 20
-31.142
 30
0.0
 10
-92.6967
 20
-31.142
 30
0.0
 10
-97.3247
 20
-30.9284
 30
0.0
 10
-97.3247
 20
-30.9284
 30
0.0
 10
-97.3247
 20
-30.9284
 30
0.0
 10
-97.3247
 20
-30.9284
 30
0.0
 10
-101.9526
 20
-30.3588
 30
0.0
 10
-101.9526
 20
-30.3588
 30
0.0
 10
-101.9526
 20
-30.3588
 30
0.0
 10
-101.9526
 20
-30.3588
 30
0.0
 10
-106.5094
 20
-29.362
 30
0.0
 10
-106.5094
 20
-29.362
 30
0.0
 10
-106.5094
 20
-29.362
 30
0.0
 10
-106.5094
 20
-29.362
 30
0.0
 10
-110.995
 20
-27.938
 30
0.0
 10
-110.995
 20
-27.938
 30
0.0
 10
-110.995
 20
-27.938
 30
0.0
 10
-110.995
 20
-27.938
 30
0.0
 10
-115.267
 20
-26.158
 30
0.0
 10
-115.267
 20
-26.158
 30
0.0
 10
-115.267
 20
-26.158
 30
0.0
 10
-115.267
 20
-26.158
 30
0.0
 10
-119.3966
 20
-24.022
 30
0.0
 10
-119.3966
 20
-24.022
 30
0.0
 10
-119.3966
 20
-24.022
 30
0.0
 10
-119.3966
 20
-24.022
 30
0.0
 10
-123.3126
 20
-21.6012
 30
0.0
 10
-123.3126
 20
-21.6012
 30
0.0
 10
-123.3126
 20
-21.6012
 30
0.0
 10
-123.3126
 20
-21.6012
 30
0.0
 10
-127.0149
 20
-18.7532
 30
0.0
 10
-127.0149
 20
-18.7532
 30
0.0
 10
-127.0149
 20
-18.7532
 30
0.0
 10
-127.0149
 20
-18.7532
 30
0.0
 10
-130.5037
 20
-15.6204
 30
0.0
 10
-130.5037
 20
-15.6204
 30
0.0
 10
-130.5037
 20
-15.6204
 30
0.0
 10
-130.5037
 20
-15.6204
 30
0.0
 10
-133.7077
 20
-12.1316
 30
0.0
 10
-133.7077
 20
-12.1316
 30
0.0
 10
-133.7077
 20
-12.1316
 30
0.0
 10
-133.7077
 20
-12.1316
 30
0.0
 10
-136.6269
 20
-8.2868
 30
0.0
 10
-136.6269
 20
-8.2868
 30
0.0
 10
-136.6269
 20
-8.2868
 30
0.0
 10
-136.6269
 20
-8.2868
 30
0.0
 10
-139.1901
 20
-4.2285
 30
0.0
 10
-139.1901
 20
-4.2285
 30
0.0
 10
-139.1901
 20
-4.2285
 30
0.0
 10
-139.1901
 20
-4.2285
 30
0.0
 10
-141.3973
 20
0.1859
 30
0.0
 10
-141.3973
 20
0.1859
 30
0.0
 10
-141.3973
 20
0.1859
 30
0.0
 10
-141.3973
 20
0.1859
 30
0.0
 10
-143.2485
 20
4.8851
 30
0.0
 10
-143.2485
 20
4.8851
 30
0.0
 10
-143.2485
 20
4.8851
 30
0.0
 10
-143.2485
 20
4.8851
 30
0.0
 10
-144.6725
 20
9.7979
 30
0.0
 10
-144.6725
 20
9.7979
 30
0.0
 10
-144.6725
 20
9.7979
 30
0.0
 10
-144.6725
 20
9.7979
 30
0.0
 10
-145.6693
 20
15.0667
 30
0.0
 10
-145.6693
 20
15.0667
 30
0.0
 10
-145.6693
 20
15.0667
 30
0.0
 10
-145.6693
 20
15.0667
 30
0.0
 10
-146.1677
 20
20.549
 30
0.0
 10
-146.1677
 20
20.549
 30
0.0
 10
-146.1677
 20
20.549
 30
0.0
 10
-146.1677
 20
20.549
 30
0.0
 10
-146.2389
 20
26.245
 30
0.0
 10
-146.2389
 20
26.245
 30
0.0
 10
-146.2389
 20
26.245
 30
0.0
 10
-146.2389
 20
26.245
 30
0.0
 10
-145.7405
 20
32.2258
 30
0.0
 10
-145.7405
 20
32.2258
 30
0.0
 10
-145.7405
 20
32.2258
 30
0.0
 10
-145.7405
 20
32.2258
 30
0.0
 10
-144.7437
 20
38.349
 30
0.0
 10
-144.7437
 20
38.349
 30
0.0
 10
-144.7437
 20
38.349
 30
0.0
 10
-144.7437
 20
38.349
 30
0.0
 10
-142.5365
 20
43.9025
 30
0.0
 10
-142.5365
 20
43.9025
 30
0.0
 10
-142.5365
 20
43.9025
 30
0.0
 10
-142.5365
 20
43.9025
 30
0.0
 10
-139.8309
 20
49.1001
 30
0.0
 10
-139.8309
 20
49.1001
 30
0.0
 10
-139.8309
 20
49.1001
 30
0.0
 10
-139.8309
 20
49.1001
 30
0.0
 10
-136.6269
 20
54.0129
 30
0.0
 10
-136.6269
 20
54.0129
 30
0.0
 10
-136.6269
 20
54.0129
 30
0.0
 10
-136.6269
 20
54.0129
 30
0.0
 10
-132.9245
 20
58.57
 30
0.0
 10
-132.9245
 20
58.57
 30
0.0
 10
-132.9245
 20
58.57
 30
0.0
 10
-132.9245
 20
58.57
 30
0.0
 10
-128.8661
 20
62.6993
 30
0.0
 10
-128.8661
 20
62.6993
 30
0.0
 10
-128.8661
 20
62.6993
 30
0.0
 10
-128.8661
 20
62.6993
 30
0.0
 10
-124.4517
 20
66.4017
 30
0.0
 10
-124.4517
 20
66.4017
 30
0.0
 10
-124.4517
 20
66.4017
 30
0.0
 10
-124.4517
 20
66.4017
 30
0.0
 10
-119.6814
 20
69.6056
 30
0.0
 10
-119.6814
 20
69.6056
 30
0.0
 10
-119.6814
 20
69.6056
 30
0.0
 10
-119.6814
 20
69.6056
 30
0.0
 10
-114.6974
 20
72.3824
 30
0.0
 10
-114.6974
 20
72.3824
 30
0.0
 10
-114.6974
 20
72.3824
 30
0.0
 10
-114.6974
 20
72.3824
 30
0.0
 10
-109.4286
 20
74.6608
 30
0.0
 10
-109.4286
 20
74.6608
 30
0.0
 10
-109.4286
 20
74.6608
 30
0.0
 10
-109.4286
 20
74.6608
 30
0.0
 10
-104.0174
 20
76.3699
 30
0.0
 10
-104.0174
 20
76.3699
 30
0.0
 10
-104.0174
 20
76.3699
 30
0.0
 10
-104.0174
 20
76.3699
 30
0.0
 10
-98.4639
 20
77.58
 30
0.0
 10
-98.4639
 20
77.58
 30
0.0
 10
-98.4639
 20
77.58
 30
0.0
 10
-98.4639
 20
77.58
 30
0.0
 10
-92.8391
 20
78.1496
 30
0.0
 10
-92.8391
 20
78.1496
 30
0.0
 10
-92.8391
 20
78.1496
 30
0.0
 10
-92.8391
 20
78.1496
 30
0.0
 10
-87.1431
 20
78.0784
 30
0.0
 10
-87.1431
 20
78.0784
 30
0.0
 10
-87.1431
 20
78.0784
 30
0.0
 10
-87.1431
 20
78.0784
 30
0.0
 10
-81.3759
 20
77.3664
 30
0.0
 10
-81.3759
 20
77.3664
 30
0.0
 10
-81.3759
 20
77.3664
 30
0.0
 10
-81.3759
 20
77.3664
 30
0.0
 10
-75.7511
 20
75.9424
 30
0.0
 10
-75.7511
 20
75.9424
 30
0.0
 10
-75.7511
 20
75.9424
 30
0.0
 10
-75.7511
 20
75.9424
 30
0.0
 10
-70.1264
 20
73.8064
 30
0.0
 10
-70.1264
 20
73.8064
 30
0.0
  0
SPLINE
  5
48
330
1F
100
AcDbEntity
  8
Camada 1
 62
   250
370
     9
100
AcDbSpline
210
0.0
220
0.0
230
1.0
 70
    11
 71
     3
 72
    56
 73
    52
 74
     0
 42
0.0000000001
 43
0.0000000001
 12
1.0
 22
0.0
 32
0.0
 13
1.0
 23
0.0
 33
0.0
 40
0.0
 40
0.0
 40
0.0
 40
0.0
 40
0.0714285714285714
 40
0.0714285714285714
 40
0.0714285714285714
 40
0.0714285714285714
 40
0.1428571428571428
 40
0.1428571428571428
 40
0.1428571428571428
 40
0.1428571428571428
 40
0.2142857142857143
 40
0.2142857142857143
 40
0.2142857142857143
 40
0.2142857142857143
 40
0.2857142857142857
 40
0.2857142857142857
 40
0.2857142857142857
 40
0.2857142857142857
 40
0.3571428571428572
 40
0.3571428571428572
 40
0.3571428571428572
 40
0.3571428571428572
 40
0.4285714285714285
 40
0.4285714285714285
 40
0.4285714285714285
 40
0.4285714285714285
 40
0.5
 40
0.5
 40
0.5
 40
0.5
 40
0.5714285714285714
 40
0.5714285714285714
 40
0.5714285714285714
 40
0.5714285714285714
 40
0.6428571428571429
 40
0.6428571428571429
 40
0.6428571428571429
 40
0.6428571428571429
 40
0.7142857142857143
 40
0.7142857142857143
 40
0.7142857142857143
 40
0.7142857142857143
 40
0.7857142857142857
 40
0.7857142857142857
 40
0.7857142857142857
 40
0.7857142857142857
 40
0.8571428571428571
 40
0.8571428571428571
 40
0.8571428571428571
 40
0.8571428571428571
 40
1.0
 40
1.0
 40
1.0
 40
1.0
 10
-40.9345
 20
116.5263
 30
0.0
 10
-40.9345
 20
116.5263
 30
0.0
 10
-16.157
 20
37.7794
 30
0.0
 10
-16.157
 20
37.7794
 30
0.0
 10
-16.157
 20
37.7794
 30
0.0
 10
-16.157
 20
37.7794
 30
0.0
 10
-26.7658
 20
37.1386
 30
0.0
 10
-26.7658
 20
37.1386
 30
0.0
 10
-26.7658
 20
37.1386
 30
0.0
 10
-26.7658
 20
37.1386
 30
0.0
 10
-28.4033
 20
43.6889
 30
0.0
 10
-28.4033
 20
43.6889
 30
0.0
 10
-28.4033
 20
43.6889
 30
0.0
 10
-28.4033
 20
43.6889
 30
0.0
 10
-30.7529
 20
49.9545
 30
0.0
 10
-30.7529
 20
49.9545
 30
0.0
 10
-30.7529
 20
49.9545
 30
0.0
 10
-30.7529
 20
49.9545
 30
0.0
 10
-33.8145
 20
55.9353
 30
0.0
 10
-33.8145
 20
55.9353
 30
0.0
 10
-33.8145
 20
55.9353
 30
0.0
 10
-33.8145
 20
55.9353
 30
0.0
 10
-37.5169
 20
61.6313
 30
0.0
 10
-37.5169
 20
61.6313
 30
0.0
 10
-37.5169
 20
61.6313
 30
0.0
 10
-37.5169
 20
61.6313
 30
0.0
 10
-39.5817
 20
64.3369
 30
0.0
 10
-39.5817
 20
64.3369
 30
0.0
 10
-39.5817
 20
64.3369
 30
0.0
 10
-39.5817
 20
64.3369
 30
0.0
 10
-41.8601
 20
67.0427
 30
0.0
 10
-41.8601
 20
67.0427
 30
0.0
 10
-41.8601
 20
67.0427
 30
0.0
 10
-41.8601
 20
67.0427
 30
0.0
 10
-44.3521
 20
69.6056
 30
0.0
 10
-44.3521
 20
69.6056
 30
0.0
 10
-44.3521
 20
69.6056
 30
0.0
 10
-44.3521
 20
69.6056
 30
0.0
 10
-46.9153
 20
72.1688
 30
0.0
 10
-46.9153
 20
72.1688
 30
0.0
 10
-46.9153
 20
72.1688
 30
0.0
 10
-46.9153
 20
72.1688
 30
0.0
 10
-52.6824
 20
77.0104
 30
0.0
 10
-52.6824
 20
77.0104
 30
0.0
 10
-52.6824
 20
77.0104
 30
0.0
 10
-52.6824
 20
77.0104
 30
0.0
 10
-59.0904
 20
81.496
 30
0.0
 10
-59.0904
 20
81.496
 30
0.0
 10
-59.0904
 20
81.496
 30
0.0
 10
-59.0904
 20
81.496
 30
0.0
 10
-40.9345
 20
116.5263
 30
0.0
 10
-40.9345
 20
116.5263
 30
0.0
  0
SPLINE
  5
49
330
1F
100
AcDbEntity
  8
Camada 1
 62
   250
370
     9
100
AcDbSpline
210
0.0
220
0.0
230
1.0
 70
    11
 71
     3
 72
    64
 73
    60
 74
     0
 42
0.0000000001
 43
0.0000000001
 12
1.0
 22
0.0
 32
0.0
 13
1.0
 23
0.0
 33
0.0
 40
0.0
 40
0.0
 40
0.0
 40
0.0
 40
0.0625
 40
0.0625
 40
0.0625
 40
0.0625
 40
0.125
 40
0.125
 40
0.125
 40
0.125
 40
0.1875
 40
0.1875
 40
0.1875
 40
0.1875
 40
0.25
 40
0.25
 40
0.25
 40
0.25
 40
0.3125
 40
0.3125
 40
0.3125
 40
0.3125
 40
0.375
 40
0.375
 40
0.375
 40
0.375
 40
0.4375
 40
0.4375
 40
0.4375
 40
0.4375
 40
0.5
 40
0.5
 40
0.5
 40
0.5
 40
0.5625
 40
0.5625
 40
0.5625
 40
0.5625
 40
0.625
 40
0.625
 40
0.625
 40
0.625
 40
0.6875
 40
0.6875
 40
0.6875
 40
0.6875
 40
0.75
 40
0.75
 40
0.75
 40
0.75
 40
0.8125
 40
0.8125
 40
0.8125
 40
0.8125
 40
0.875
 40
0.875
 40
0.875
 40
0.875
 40
1.0
 40
1.0
 40
1.0
 40
1.0
 10
-31.5361
 20
116.7399
 30
0.0
 10
-31.5361
 20
116.7399
 30
0.0
 10
-31.3225
 20
112.3967
 30
0.0
 10
-31.3225
 20
112.3967
 30
0.0
 10
-31.3225
 20
112.3967
 30
0.0
 10
-31.3225
 20
112.3967
 30
0.0
 10
-8.2538
 20
41.0546
 30
0.0
 10
-8.2538
 20
41.0546
 30
0.0
 10
-8.2538
 20
41.0546
 30
0.0
 10
-8.2538
 20
41.0546
 30
0.0
 10
-5.477
 20
41.4106
 30
0.0
 10
-5.477
 20
41.4106
 30
0.0
 10
-5.477
 20
41.4106
 30
0.0
 10
-5.477
 20
41.4106
 30
0.0
 10
-5.477
 20
61.7025
 30
0.0
 10
-5.477
 20
61.7025
 30
0.0
 10
-5.477
 20
61.7025
 30
0.0
 10
-5.477
 20
61.7025
 30
0.0
 10
-12.1698
 20
61.7025
 30
0.0
 10
-12.1698
 20
61.7025
 30
0.0
 10
-12.1698
 20
61.7025
 30
0.0
 10
-12.1698
 20
61.7025
 30
0.0
 10
-12.1698
 20
66.7579
 30
0.0
 10
-12.1698
 20
66.7579
 30
0.0
 10
-12.1698
 20
66.7579
 30
0.0
 10
-12.1698
 20
66.7579
 30
0.0
 10
5.3453
 20
66.7579
 30
0.0
 10
5.3453
 20
66.7579
 30
0.0
 10
5.3453
 20
66.7579
 30
0.0
 10
5.3453
 20
66.7579
 30
0.0
 10
5.3453
 20
61.7025
 30
0.0
 10
5.3453
 20
61.7025
 30
0.0
 10
5.3453
 20
61.7025
 30
0.0
 10
5.3453
 20
61.7025
 30
0.0
 10
-1.2763
 20
61.7025
 30
0.0
 10
-1.2763
 20
61.7025
 30
0.0
 10
-1.2763
 20
61.7025
 30
0.0
 10
-1.2763
 20
61.7025
 30
0.0
 10
-0.9203
 20
41.197
 30
0.0
 10
-0.9203
 20
41.197
 30
0.0
 10
-0.9203
 20
41.197
 30
0.0
 10
-0.9203
 20
41.197
 30
0.0
 10
2.0701
 20
40.6274
 30
0.0
 10
2.0701
 20
40.6274
 30
0.0
 10
2.0701
 20
40.6274
 30
0.0
 10
2.0701
 20
40.6274
 30
0.0
 10
4.9893
 20
39.4882
 30
0.0
 10
4.9893
 20
39.4882
 30
0.0
 10
4.9893
 20
39.4882
 30
0.0
 10
4.9893
 20
39.4882
 30
0.0
 10
67.2179
 20
106.7719
 30
0.0
 10
67.2179
 20
106.7719
 30
0.0
 10
67.2179
 20
106.7719
 30
0.0
 10
67.2179
 20
106.7719
 30
0.0
 10
65.7939
 20
116.5263
 30
0.0
 10
65.7939
 20
116.5263
 30
0.0
 10
65.7939
 20
116.5263
 30
0.0
 10
65.7939
 20
116.5263
 30
0.0
 10
-31.5361
 20
116.7399
 30
0.0
 10
-31.5361
 20
116.7399
 30
0.0
  0
SPLINE
  5
4A
330
1F
100
AcDbEntity
  8
Camada 1
 62
   250
370
     9
100
AcDbSpline
210
0.0
220
0.0
230
1.0
 70
    11
 71
     3
 72
    88
 73
    84
 74
     0
 42
0.0000000001
 43
0.0000000001
 12
1.0
 22
0.0
 32
0.0
 13
1.0
 23
0.0
 33
0.0
 40
0.0
 40
0.0
 40
0.0
 40
0.0
 40
0.0454545454545455
 40
0.0454545454545455
 40
0.0454545454545455
 40
0.0454545454545455
 40
0.0909090909090909
 40
0.0909090909090909
 40
0.0909090909090909
 40
0.0909090909090909
 40
0.1363636363636364
 40
0.1363636363636364
 40
0.1363636363636364
 40
0.1363636363636364
 40
0.1818181818181818
 40
0.1818181818181818
 40
0.1818181818181818
 40
0.1818181818181818
 40
0.2272727272727273
 40
0.2272727272727273
 40
0.2272727272727273
 40
0.2272727272727273
 40
0.2727272727272727
 40
0.2727272727272727
 40
0.2727272727272727
 40
0.2727272727272727
 40
0.3181818181818182
 40
0.3181818181818182
 40
0.3181818181818182
 40
0.3181818181818182
 40
0.3636363636363636
 40
0.3636363636363636
 40
0.3636363636363636
 40
0.3636363636363636
 40
0.4090909090909091
 40
0.4090909090909091
 40
0.4090909090909091
 40
0.4090909090909091
 40
0.4545454545454545
 40
0.4545454545454545
 40
0.4545454545454545
 40
0.4545454545454545
 40
0.5
 40
0.5
 40
0.5
 40
0.5
 40
0.5454545454545454
 40
0.5454545454545454
 40
0.5454545454545454
 40
0.5454545454545454
 40
0.5909090909090909
 40
0.5909090909090909
 40
0.5909090909090909
 40
0.5909090909090909
 40
0.6363636363636364
 40
0.6363636363636364
 40
0.6363636363636364
 40
0.6363636363636364
 40
0.6818181818181818
 40
0.6818181818181818
 40
0.6818181818181818
 40
0.6818181818181818
 40
0.7272727272727273
 40
0.7272727272727273
 40
0.7272727272727273
 40
0.7272727272727273
 40
0.7727272727272727
 40
0.7727272727272727
 40
0.7727272727272727
 40
0.7727272727272727
 40
0.8181818181818182
 40
0.8181818181818182
 40
0.8181818181818182
 40
0.8181818181818182
 40
0.8636363636363636
 40
0.8636363636363636
 40
0.8636363636363636
 40
0.8636363636363636
 40
0.9090909090909091
 40
0.9090909090909091
 40
0.9090909090909091
 40
0.9090909090909091
 40
1.0
 40
1.0
 40
1.0
 40
1.0
 10
69.3539
 20
147.8541
 30
0.0
 10
69.3539
 20
147.8541
 30
0.0
 10
71.9882
 20
128.9862
 30
0.0
 10
71.9882
 20
128.9862
 30
0.0
 10
71.9882
 20
128.9862
 30
0.0
 10
71.9882
 20
128.9862
 30
0.0
 10
74.2666
 20
128.9862
 30
0.0
 10
74.2666
 20
128.9862
 30
0.0
 10
74.2666
 20
128.9862
 30
0.0
 10
74.2666
 20
128.9862
 30
0.0
 10
75.4058
 20
121.1542
 30
0.0
 10
75.4058
 20
121.1542
 30
0.0
 10
75.4058
 20
121.1542
 30
0.0
 10
75.4058
 20
121.1542
 30
0.0
 10
80.8882
 20
122.5782
 30
0.0
 10
80.8882
 20
122.5782
 30
0.0
 10
80.8882
 20
122.5782
 30
0.0
 10
80.8882
 20
122.5782
 30
0.0
 10
85.445
 20
124.4294
 30
0.0
 10
85.445
 20
124.4294
 30
0.0
 10
85.445
 20
124.4294
 30
0.0
 10
85.445
 20
124.4294
 30
0.0
 10
89.0762
 20
126.4942
 30
0.0
 10
89.0762
 20
126.4942
 30
0.0
 10
89.0762
 20
126.4942
 30
0.0
 10
89.0762
 20
126.4942
 30
0.0
 10
90.5714
 20
127.6334
 30
0.0
 10
90.5714
 20
127.6334
 30
0.0
 10
90.5714
 20
127.6334
 30
0.0
 10
90.5714
 20
127.6334
 30
0.0
 10
91.853
 20
128.8438
 30
0.0
 10
91.853
 20
128.8438
 30
0.0
 10
91.853
 20
128.8438
 30
0.0
 10
91.853
 20
128.8438
 30
0.0
 10
92.921
 20
130.0542
 30
0.0
 10
92.921
 20
130.0542
 30
0.0
 10
92.921
 20
130.0542
 30
0.0
 10
92.921
 20
130.0542
 30
0.0
 10
93.7754
 20
131.3358
 30
0.0
 10
93.7754
 20
131.3358
 30
0.0
 10
93.7754
 20
131.3358
 30
0.0
 10
93.7754
 20
131.3358
 30
0.0
 10
94.8433
 20
133.899
 30
0.0
 10
94.8433
 20
133.899
 30
0.0
 10
94.8433
 20
133.899
 30
0.0
 10
94.8433
 20
133.899
 30
0.0
 10
95.1993
 20
136.4622
 30
0.0
 10
95.1993
 20
136.4622
 30
0.0
 10
95.1993
 20
136.4622
 30
0.0
 10
95.1993
 20
136.4622
 30
0.0
 10
94.7721
 20
138.9542
 30
0.0
 10
94.7721
 20
138.9542
 30
0.0
 10
94.7721
 20
138.9542
 30
0.0
 10
94.7721
 20
138.9542
 30
0.0
 10
93.7042
 20
141.3038
 30
0.0
 10
93.7042
 20
141.3038
 30
0.0
 10
93.7042
 20
141.3038
 30
0.0
 10
93.7042
 20
141.3038
 30
0.0
 10
91.9242
 20
143.44
 30
0.0
 10
91.9242
 20
143.44
 30
0.0
 10
91.9242
 20
143.44
 30
0.0
 10
91.9242
 20
143.44
 30
0.0
 10
89.5746
 20
145.2912
 30
0.0
 10
89.5746
 20
145.2912
 30
0.0
 10
89.5746
 20
145.2912
 30
0.0
 10
89.5746
 20
145.2912
 30
0.0
 10
86.5842
 20
146.7861
 30
0.0
 10
86.5842
 20
146.7861
 30
0.0
 10
86.5842
 20
146.7861
 30
0.0
 10
86.5842
 20
146.7861
 30
0.0
 10
83.0242
 20
147.8541
 30
0.0
 10
83.0242
 20
147.8541
 30
0.0
 10
83.0242
 20
147.8541
 30
0.0
 10
83.0242
 20
147.8541
 30
0.0
 10
78.8946
 20
148.4237
 30
0.0
 10
78.8946
 20
148.4237
 30
0.0
 10
78.8946
 20
148.4237
 30
0.0
 10
78.8946
 20
148.4237
 30
0.0
 10
74.3378
 20
148.4949
 30
0.0
 10
74.3378
 20
148.4949
 30
0.0
 10
74.3378
 20
148.4949
 30
0.0
 10
74.3378
 20
148.4949
 30
0.0
 10
69.3539
 20
147.8541
 30
0.0
 10
69.3539
 20
147.8541
 30
0.0
  0
SPLINE
  5
4B
330
1F
100
AcDbEntity
  8
Camada 1
 62
   250
370
     9
100
AcDbSpline
210
0.0
220
0.0
230
1.0
 70
    11
 71
     3
 72
   940
 73
   936
 74
     0
 42
0.0000000001
 43
0.0000000001
 12
1.0
 22
0.0
 32
0.0
 13
1.0
 23
0.0
 33
0.0
 40
0.0
 40
0.0
 40
0.0
 40
0.0
 40
0.0042553191489362
 40
0.0042553191489362
 40
0.0042553191489362
 40
0.0042553191489362
 40
0.0085106382978723
 40
0.0085106382978723
 40
0.0085106382978723
 40
0.0085106382978723
 40
0.0127659574468085
 40
0.0127659574468085
 40
0.0127659574468085
 40
0.0127659574468085
 40
0.0170212765957447
 40
0.0170212765957447
 40
0.0170212765957447
 40
0.0170212765957447
 40
0.0212765957446809
 40
0.0212765957446809
 40
0.0212765957446809
 40
0.0212765957446809
 40
0.025531914893617
 40
0.025531914893617
 40
0.025531914893617
 40
0.025531914893617
 40
0.0297872340425532
 40
0.0297872340425532
 40
0.0297872340425532
 40
0.0297872340425532
 40
0.0340425531914894
 40
0.0340425531914894
 40
0.0340425531914894
 40
0.0340425531914894
 40
0.0382978723404255
 40
0.0382978723404255
 40
0.0382978723404255
 40
0.0382978723404255
 40
0.0425531914893617
 40
0.0425531914893617
 40
0.0425531914893617
 40
0.0425531914893617
 40
0.0468085106382979
 40
0.0468085106382979
 40
0.0468085106382979
 40
0.0468085106382979
 40
0.051063829787234
 40
0.051063829787234
 40
0.051063829787234
 40
0.051063829787234
 40
0.0553191489361702
 40
0.0553191489361702
 40
0.0553191489361702
 40
0.0553191489361702
 40
0.0595744680851064
 40
0.0595744680851064
 40
0.0595744680851064
 40
0.0595744680851064
 40
0.0638297872340425
 40
0.0638297872340425
 40
0.0638297872340425
 40
0.0638297872340425
 40
0.0680851063829787
 40
0.0680851063829787
 40
0.0680851063829787
 40
0.0680851063829787
 40
0.0723404255319149
 40
0.0723404255319149
 40
0.0723404255319149
 40
0.0723404255319149
 40
0.0765957446808511
 40
0.0765957446808511
 40
0.0765957446808511
 40
0.0765957446808511
 40
0.0808510638297872
 40
0.0808510638297872
 40
0.0808510638297872
 40
0.0808510638297872
 40
0.0851063829787234
 40
0.0851063829787234
 40
0.0851063829787234
 40
0.0851063829787234
 40
0.0893617021276596
 40
0.0893617021276596
 40
0.0893617021276596
 40
0.0893617021276596
 40
0.0936170212765957
 40
0.0936170212765957
 40
0.0936170212765957
 40
0.0936170212765957
 40
0.0978723404255319
 40
0.0978723404255319
 40
0.0978723404255319
 40
0.0978723404255319
 40
0.1021276595744681
 40
0.1021276595744681
 40
0.1021276595744681
 40
0.1021276595744681
 40
0.1063829787234043
 40
0.1063829787234043
 40
0.1063829787234043
 40
0.1063829787234043
 40
0.1106382978723404
 40
0.1106382978723404
 40
0.1106382978723404
 40
0.1106382978723404
 40
0.1148936170212766
 40
0.1148936170212766
 40
0.1148936170212766
 40
0.1148936170212766
 40
0.1191489361702128
 40
0.1191489361702128
 40
0.1191489361702128
 40
0.1191489361702128
 40
0.1234042553191489
 40
0.1234042553191489
 40
0.1234042553191489
 40
0.1234042553191489
 40
0.1276595744680851
 40
0.1276595744680851
 40
0.1276595744680851
 40
0.1276595744680851
 40
0.1319148936170213
 40
0.1319148936170213
 40
0.1319148936170213
 40
0.1319148936170213
 40
0.1361702127659574
 40
0.1361702127659574
 40
0.1361702127659574
 40
0.1361702127659574
 40
0.1404255319148936
 40
0.1404255319148936
 40
0.1404255319148936
 40
0.1404255319148936
 40
0.1446808510638298
 40
0.1446808510638298
 40
0.1446808510638298
 40
0.1446808510638298
 40
0.148936170212766
 40
0.148936170212766
 40
0.148936170212766
 40
0.148936170212766
 40
0.1531914893617021
 40
0.1531914893617021
 40
0.1531914893617021
 40
0.1531914893617021
 40
0.1574468085106383
 40
0.1574468085106383
 40
0.1574468085106383
 40
0.1574468085106383
 40
0.1617021276595745
 40
0.1617021276595745
 40
0.1617021276595745
 40
0.1617021276595745
 40
0.1659574468085106
 40
0.1659574468085106
 40
0.1659574468085106
 40
0.1659574468085106
 40
0.1702127659574468
 40
0.1702127659574468
 40
0.1702127659574468
 40
0.1702127659574468
 40
0.174468085106383
 40
0.174468085106383
 40
0.174468085106383
 40
0.174468085106383
 40
0.1787234042553192
 40
0.1787234042553192
 40
0.1787234042553192
 40
0.1787234042553192
 40
0.1829787234042553
 40
0.1829787234042553
 40
0.1829787234042553
 40
0.1829787234042553
 40
0.1872340425531915
 40
0.1872340425531915
 40
0.1872340425531915
 40
0.1872340425531915
 40
0.1914893617021277
 40
0.1914893617021277
 40
0.1914893617021277
 40
0.1914893617021277
 40
0.1957446808510638
 40
0.1957446808510638
 40
0.1957446808510638
 40
0.1957446808510638
 40
0.2
 40
0.2
 40
0.2
 40
0.2
 40
0.2042553191489362
 40
0.2042553191489362
 40
0.2042553191489362
 40
0.2042553191489362
 40
0.2085106382978723
 40
0.2085106382978723
 40
0.2085106382978723
 40
0.2085106382978723
 40
0.2127659574468085
 40
0.2127659574468085
 40
0.2127659574468085
 40
0.2127659574468085
 40
0.2170212765957447
 40
0.2170212765957447
 40
0.2170212765957447
 40
0.2170212765957447
 40
0.2212765957446808
 40
0.2212765957446808
 40
0.2212765957446808
 40
0.2212765957446808
 40
0.225531914893617
 40
0.225531914893617
 40
0.225531914893617
 40
0.225531914893617
 40
0.2297872340425532
 40
0.2297872340425532
 40
0.2297872340425532
 40
0.2297872340425532
 40
0.2340425531914894
 40
0.2340425531914894
 40
0.2340425531914894
 40
0.2340425531914894
 40
0.2382978723404255
 40
0.2382978723404255
 40
0.2382978723404255
 40
0.2382978723404255
 40
0.2425531914893617
 40
0.2425531914893617
 40
0.2425531914893617
 40
0.2425531914893617
 40
0.2468085106382979
 40
0.2468085106382979
 40
0.2468085106382979
 40
0.2468085106382979
 40
0.251063829787234
 40
0.251063829787234
 40
0.251063829787234
 40
0.251063829787234
 40
0.2553191489361702
 40
0.2553191489361702
 40
0.2553191489361702
 40
0.2553191489361702
 40
0.2595744680851064
 40
0.2595744680851064
 40
0.2595744680851064
 40
0.2595744680851064
 40
0.2638297872340425
 40
0.2638297872340425
 40
0.2638297872340425
 40
0.2638297872340425
 40
0.2680851063829787
 40
0.2680851063829787
 40
0.2680851063829787
 40
0.2680851063829787
 40
0.2723404255319149
 40
0.2723404255319149
 40
0.2723404255319149
 40
0.2723404255319149
 40
0.2765957446808511
 40
0.2765957446808511
 40
0.2765957446808511
 40
0.2765957446808511
 40
0.2808510638297873
 40
0.2808510638297873
 40
0.2808510638297873
 40
0.2808510638297873
 40
0.2851063829787234
 40
0.2851063829787234
 40
0.2851063829787234
 40
0.2851063829787234
 40
0.2893617021276595
 40
0.2893617021276595
 40
0.2893617021276595
 40
0.2893617021276595
 40
0.2936170212765957
 40
0.2936170212765957
 40
0.2936170212765957
 40
0.2936170212765957
 40
0.2978723404255319
 40
0.2978723404255319
 40
0.2978723404255319
 40
0.2978723404255319
 40
0.3021276595744681
 40
0.3021276595744681
 40
0.3021276595744681
 40
0.3021276595744681
 40
0.3063829787234043
 40
0.3063829787234043
 40
0.3063829787234043
 40
0.3063829787234043
 40
0.3106382978723404
 40
0.3106382978723404
 40
0.3106382978723404
 40
0.3106382978723404
 40
0.3148936170212766
 40
0.3148936170212766
 40
0.3148936170212766
 40
0.3148936170212766
 40
0.3191489361702128
 40
0.3191489361702128
 40
0.3191489361702128
 40
0.3191489361702128
 40
0.323404255319149
 40
0.323404255319149
 40
0.323404255319149
 40
0.323404255319149
 40
0.3276595744680851
 40
0.3276595744680851
 40
0.3276595744680851
 40
0.3276595744680851
 40
0.3319148936170213
 40
0.3319148936170213
 40
0.3319148936170213
 40
0.3319148936170213
 40
0.3361702127659574
 40
0.3361702127659574
 40
0.3361702127659574
 40
0.3361702127659574
 40
0.3404255319148936
 40
0.3404255319148936
 40
0.3404255319148936
 40
0.3404255319148936
 40
0.3446808510638298
 40
0.3446808510638298
 40
0.3446808510638298
 40
0.3446808510638298
 40
0.348936170212766
 40
0.348936170212766
 40
0.348936170212766
 40
0.348936170212766
 40
0.3531914893617021
 40
0.3531914893617021
 40
0.3531914893617021
 40
0.3531914893617021
 40
0.3574468085106383
 40
0.3574468085106383
 40
0.3574468085106383
 40
0.3574468085106383
 40
0.3617021276595745
 40
0.3617021276595745
 40
0.3617021276595745
 40
0.3617021276595745
 40
0.3659574468085106
 40
0.3659574468085106
 40
0.3659574468085106
 40
0.3659574468085106
 40
0.3702127659574468
 40
0.3702127659574468
 40
0.3702127659574468
 40
0.3702127659574468
 40
0.374468085106383
 40
0.374468085106383
 40
0.374468085106383
 40
0.374468085106383
 40
0.3787234042553191
 40
0.3787234042553191
 40
0.3787234042553191
 40
0.3787234042553191
 40
0.3829787234042553
 40
0.3829787234042553
 40
0.3829787234042553
 40
0.3829787234042553
 40
0.3872340425531915
 40
0.3872340425531915
 40
0.3872340425531915
 40
0.3872340425531915
 40
0.3914893617021277
 40
0.3914893617021277
 40
0.3914893617021277
 40
0.3914893617021277
 40
0.3957446808510638
 40
0.3957446808510638
 40
0.3957446808510638
 40
0.3957446808510638
 40
0.4
 40
0.4
 40
0.4
 40
0.4
 40
0.4042553191489361
 40
0.4042553191489361
 40
0.4042553191489361
 40
0.4042553191489361
 40
0.4085106382978723
 40
0.4085106382978723
 40
0.4085106382978723
 40
0.4085106382978723
 40
0.4127659574468085
 40
0.4127659574468085
 40
0.4127659574468085
 40
0.4127659574468085
 40
0.4170212765957447
 40
0.4170212765957447
 40
0.4170212765957447
 40
0.4170212765957447
 40
0.4212765957446808
 40
0.4212765957446808
 40
0.4212765957446808
 40
0.4212765957446808
 40
0.425531914893617
 40
0.425531914893617
 40
0.425531914893617
 40
0.425531914893617
 40
0.4297872340425532
 40
0.4297872340425532
 40
0.4297872340425532
 40
0.4297872340425532
 40
0.4340425531914894
 40
0.4340425531914894
 40
0.4340425531914894
 40
0.4340425531914894
 40
0.4382978723404256
 40
0.4382978723404256
 40
0.4382978723404256
 40
0.4382978723404256
 40
0.4425531914893617
 40
0.4425531914893617
 40
0.4425531914893617
 40
0.4425531914893617
 40
0.4468085106382979
 40
0.4468085106382979
 40
0.4468085106382979
 40
0.4468085106382979
 40
0.451063829787234
 40
0.451063829787234
 40
0.451063829787234
 40
0.451063829787234
 40
0.4553191489361702
 40
0.4553191489361702
 40
0.4553191489361702
 40
0.4553191489361702
 40
0.4595744680851064
 40
0.4595744680851064
 40
0.4595744680851064
 40
0.4595744680851064
 40
0.4638297872340426
 40
0.4638297872340426
 40
0.4638297872340426
 40
0.4638297872340426
 40
0.4680851063829787
 40
0.4680851063829787
 40
0.4680851063829787
 40
0.4680851063829787
 40
0.4723404255319149
 40
0.4723404255319149
 40
0.4723404255319149
 40
0.4723404255319149
 40
0.4765957446808511
 40
0.4765957446808511
 40
0.4765957446808511
 40
0.4765957446808511
 40
0.4808510638297872
 40
0.4808510638297872
 40
0.4808510638297872
 40
0.4808510638297872
 40
0.4851063829787234
 40
0.4851063829787234
 40
0.4851063829787234
 40
0.4851063829787234
 40
0.4893617021276596
 40
0.4893617021276596
 40
0.4893617021276596
 40
0.4893617021276596
 40
0.4936170212765957
 40
0.4936170212765957
 40
0.4936170212765957
 40
0.4936170212765957
 40
0.4978723404255319
 40
0.4978723404255319
 40
0.4978723404255319
 40
0.4978723404255319
 40
0.502127659574468
 40
0.502127659574468
 40
0.502127659574468
 40
0.502127659574468
 40
0.5063829787234042
 40
0.5063829787234042
 40
0.5063829787234042
 40
0.5063829787234042
 40
0.5106382978723404
 40
0.5106382978723404
 40
0.5106382978723404
 40
0.5106382978723404
 40
0.5148936170212766
 40
0.5148936170212766
 40
0.5148936170212766
 40
0.5148936170212766
 40
0.5191489361702127
 40
0.5191489361702127
 40
0.5191489361702127
 40
0.5191489361702127
 40
0.5234042553191489
 40
0.5234042553191489
 40
0.5234042553191489
 40
0.5234042553191489
 40
0.5276595744680851
 40
0.5276595744680851
 40
0.5276595744680851
 40
0.5276595744680851
 40
0.5319148936170213
 40
0.5319148936170213
 40
0.5319148936170213
 40
0.5319148936170213
 40
0.5361702127659574
 40
0.5361702127659574
 40
0.5361702127659574
 40
0.5361702127659574
 40
0.5404255319148936
 40
0.5404255319148936
 40
0.5404255319148936
 40
0.5404255319148936
 40
0.5446808510638298
 40
0.5446808510638298
 40
0.5446808510638298
 40
0.5446808510638298
 40
0.548936170212766
 40
0.548936170212766
 40
0.548936170212766
 40
0.548936170212766
 40
0.5531914893617021
 40
0.5531914893617021
 40
0.5531914893617021
 40
0.5531914893617021
 40
0.5574468085106383
 40
0.5574468085106383
 40
0.5574468085106383
 40
0.5574468085106383
 40
0.5617021276595745
 40
0.5617021276595745
 40
0.5617021276595745
 40
0.5617021276595745
 40
0.5659574468085107
 40
0.5659574468085107
 40
0.5659574468085107
 40
0.5659574468085107
 40
0.5702127659574469
 40
0.5702127659574469
 40
0.5702127659574469
 40
0.5702127659574469
 40
0.574468085106383
 40
0.574468085106383
 40
0.574468085106383
 40
0.574468085106383
 40
0.5787234042553191
 40
0.5787234042553191
 40
0.5787234042553191
 40
0.5787234042553191
 40
0.5829787234042553
 40
0.5829787234042553
 40
0.5829787234042553
 40
0.5829787234042553
 40
0.5872340425531914
 40
0.5872340425531914
 40
0.5872340425531914
 40
0.5872340425531914
 40
0.5914893617021276
 40
0.5914893617021276
 40
0.5914893617021276
 40
0.5914893617021276
 40
0.5957446808510638
 40
0.5957446808510638
 40
0.5957446808510638
 40
0.5957446808510638
 40
0.6
 40
0.6
 40
0.6
 40
0.6
 40
0.6042553191489362
 40
0.6042553191489362
 40
0.6042553191489362
 40
0.6042553191489362
 40
0.6085106382978723
 40
0.6085106382978723
 40
0.6085106382978723
 40
0.6085106382978723
 40
0.6127659574468085
 40
0.6127659574468085
 40
0.6127659574468085
 40
0.6127659574468085
 40
0.6170212765957447
 40
0.6170212765957447
 40
0.6170212765957447
 40
0.6170212765957447
 40
0.6212765957446809
 40
0.6212765957446809
 40
0.6212765957446809
 40
0.6212765957446809
 40
0.625531914893617
 40
0.625531914893617
 40
0.625531914893617
 40
0.625531914893617
 40
0.6297872340425532
 40
0.6297872340425532
 40
0.6297872340425532
 40
0.6297872340425532
 40
0.6340425531914894
 40
0.6340425531914894
 40
0.6340425531914894
 40
0.6340425531914894
 40
0.6382978723404256
 40
0.6382978723404256
 40
0.6382978723404256
 40
0.6382978723404256
 40
0.6425531914893617
 40
0.6425531914893617
 40
0.6425531914893617
 40
0.6425531914893617
 40
0.6468085106382979
 40
0.6468085106382979
 40
0.6468085106382979
 40
0.6468085106382979
 40
0.6510638297872341
 40
0.6510638297872341
 40
0.6510638297872341
 40
0.6510638297872341
 40
0.6553191489361702
 40
0.6553191489361702
 40
0.6553191489361702
 40
0.6553191489361702
 40
0.6595744680851063
 40
0.6595744680851063
 40
0.6595744680851063
 40
0.6595744680851063
 40
0.6638297872340425
 40
0.6638297872340425
 40
0.6638297872340425
 40
0.6638297872340425
 40
0.6680851063829787
 40
0.6680851063829787
 40
0.6680851063829787
 40
0.6680851063829787
 40
0.6723404255319149
 40
0.6723404255319149
 40
0.6723404255319149
 40
0.6723404255319149
 40
0.676595744680851
 40
0.676595744680851
 40
0.676595744680851
 40
0.676595744680851
 40
0.6808510638297872
 40
0.6808510638297872
 40
0.6808510638297872
 40
0.6808510638297872
 40
0.6851063829787234
 40
0.6851063829787234
 40
0.6851063829787234
 40
0.6851063829787234
 40
0.6893617021276596
 40
0.6893617021276596
 40
0.6893617021276596
 40
0.6893617021276596
 40
0.6936170212765957
 40
0.6936170212765957
 40
0.6936170212765957
 40
0.6936170212765957
 40
0.6978723404255319
 40
0.6978723404255319
 40
0.6978723404255319
 40
0.6978723404255319
 40
0.7021276595744681
 40
0.7021276595744681
 40
0.7021276595744681
 40
0.7021276595744681
 40
0.7063829787234043
 40
0.7063829787234043
 40
0.7063829787234043
 40
0.7063829787234043
 40
0.7106382978723405
 40
0.7106382978723405
 40
0.7106382978723405
 40
0.7106382978723405
 40
0.7148936170212766
 40
0.7148936170212766
 40
0.7148936170212766
 40
0.7148936170212766
 40
0.7191489361702128
 40
0.7191489361702128
 40
0.7191489361702128
 40
0.7191489361702128
 40
0.723404255319149
 40
0.723404255319149
 40
0.723404255319149
 40
0.723404255319149
 40
0.7276595744680852
 40
0.7276595744680852
 40
0.7276595744680852
 40
0.7276595744680852
 40
0.7319148936170212
 40
0.7319148936170212
 40
0.7319148936170212
 40
0.7319148936170212
 40
0.7361702127659574
 40
0.7361702127659574
 40
0.7361702127659574
 40
0.7361702127659574
 40
0.7404255319148936
 40
0.7404255319148936
 40
0.7404255319148936
 40
0.7404255319148936
 40
0.7446808510638298
 40
0.7446808510638298
 40
0.7446808510638298
 40
0.7446808510638298
 40
0.7489361702127659
 40
0.7489361702127659
 40
0.7489361702127659
 40
0.7489361702127659
 40
0.7531914893617021
 40
0.7531914893617021
 40
0.7531914893617021
 40
0.7531914893617021
 40
0.7574468085106383
 40
0.7574468085106383
 40
0.7574468085106383
 40
0.7574468085106383
 40
0.7617021276595745
 40
0.7617021276595745
 40
0.7617021276595745
 40
0.7617021276595745
 40
0.7659574468085106
 40
0.7659574468085106
 40
0.7659574468085106
 40
0.7659574468085106
 40
0.7702127659574468
 40
0.7702127659574468
 40
0.7702127659574468
 40
0.7702127659574468
 40
0.774468085106383
 40
0.774468085106383
 40
0.774468085106383
 40
0.774468085106383
 40
0.7787234042553192
 40
0.7787234042553192
 40
0.7787234042553192
 40
0.7787234042553192
 40
0.7829787234042553
 40
0.7829787234042553
 40
0.7829787234042553
 40
0.7829787234042553
 40
0.7872340425531915
 40
0.7872340425531915
 40
0.7872340425531915
 40
0.7872340425531915
 40
0.7914893617021277
 40
0.7914893617021277
 40
0.7914893617021277
 40
0.7914893617021277
 40
0.7957446808510639
 40
0.7957446808510639
 40
0.7957446808510639
 40
0.7957446808510639
 40
0.8
 40
0.8
 40
0.8
 40
0.8
 40
0.8042553191489362
 40
0.8042553191489362
 40
0.8042553191489362
 40
0.8042553191489362
 40
0.8085106382978723
 40
0.8085106382978723
 40
0.8085106382978723
 40
0.8085106382978723
 40
0.8127659574468085
 40
0.8127659574468085
 40
0.8127659574468085
 40
0.8127659574468085
 40
0.8170212765957446
 40
0.8170212765957446
 40
0.8170212765957446
 40
0.8170212765957446
 40
0.8212765957446808
 40
0.8212765957446808
 40
0.8212765957446808
 40
0.8212765957446808
 40
0.825531914893617
 40
0.825531914893617
 40
0.825531914893617
 40
0.825531914893617
 40
0.8297872340425532
 40
0.8297872340425532
 40
0.8297872340425532
 40
0.8297872340425532
 40
0.8340425531914893
 40
0.8340425531914893
 40
0.8340425531914893
 40
0.8340425531914893
 40
0.8382978723404255
 40
0.8382978723404255
 40
0.8382978723404255
 40
0.8382978723404255
 40
0.8425531914893617
 40
0.8425531914893617
 40
0.8425531914893617
 40
0.8425531914893617
 40
0.8468085106382979
 40
0.8468085106382979
 40
0.8468085106382979
 40
0.8468085106382979
 40
0.851063829787234
 40
0.851063829787234
 40
0.851063829787234
 40
0.851063829787234
 40
0.8553191489361702
 40
0.8553191489361702
 40
0.8553191489361702
 40
0.8553191489361702
 40
0.8595744680851064
 40
0.8595744680851064
 40
0.8595744680851064
 40
0.8595744680851064
 40
0.8638297872340426
 40
0.8638297872340426
 40
0.8638297872340426
 40
0.8638297872340426
 40
0.8680851063829788
 40
0.8680851063829788
 40
0.8680851063829788
 40
0.8680851063829788
 40
0.8723404255319149
 40
0.8723404255319149
 40
0.8723404255319149
 40
0.8723404255319149
 40
0.8765957446808511
 40
0.8765957446808511
 40
0.8765957446808511
 40
0.8765957446808511
 40
0.8808510638297873
 40
0.8808510638297873
 40
0.8808510638297873
 40
0.8808510638297873
 40
0.8851063829787233
 40
0.8851063829787233
 40
0.8851063829787233
 40
0.8851063829787233
 40
0.8893617021276595
 40
0.8893617021276595
 40
0.8893617021276595
 40
0.8893617021276595
 40
0.8936170212765957
 40
0.8936170212765957
 40
0.8936170212765957
 40
0.8936170212765957
 40
0.8978723404255319
 40
0.8978723404255319
 40
0.8978723404255319
 40
0.8978723404255319
 40
0.902127659574468
 40
0.902127659574468
 40
0.902127659574468
 40
0.902127659574468
 40
0.9063829787234042
 40
0.9063829787234042
 40
0.9063829787234042
 40
0.9063829787234042
 40
0.9106382978723404
 40
0.9106382978723404
 40
0.9106382978723404
 40
0.9106382978723404
 40
0.9148936170212766
 40
0.9148936170212766
 40
0.9148936170212766
 40
0.9148936170212766
 40
0.9191489361702128
 40
0.9191489361702128
 40
0.9191489361702128
 40
0.9191489361702128
 40
0.9234042553191489
 40
0.9234042553191489
 40
0.9234042553191489
 40
0.9234042553191489
 40
0.9276595744680851
 40
0.9276595744680851
 40
0.9276595744680851
 40
0.9276595744680851
 40
0.9319148936170213
 40
0.9319148936170213
 40
0.9319148936170213
 40
0.9319148936170213
 40
0.9361702127659575
 40
0.9361702127659575
 40
0.9361702127659575
 40
0.9361702127659575
 40
0.9404255319148936
 40
0.9404255319148936
 40
0.9404255319148936
 40
0.9404255319148936
 40
0.9446808510638298
 40
0.9446808510638298
 40
0.9446808510638298
 40
0.9446808510638298
 40
0.948936170212766
 40
0.948936170212766
 40
0.948936170212766
 40
0.948936170212766
 40
0.9531914893617022
 40
0.9531914893617022
 40
0.9531914893617022
 40
0.9531914893617022
 40
0.9574468085106383
 40
0.9574468085106383
 40
0.9574468085106383
 40
0.9574468085106383
 40
0.9617021276595744
 40
0.9617021276595744
 40
0.9617021276595744
 40
0.9617021276595744
 40
0.9659574468085106
 40
0.9659574468085106
 40
0.9659574468085106
 40
0.9659574468085106
 40
0.9702127659574468
 40
0.9702127659574468
 40
0.9702127659574468
 40
0.9702127659574468
 40
0.9744680851063829
 40
0.9744680851063829
 40
0.9744680851063829
 40
0.9744680851063829
 40
0.9787234042553191
 40
0.9787234042553191
 40
0.9787234042553191
 40
0.9787234042553191
 40
0.9829787234042553
 40
0.9829787234042553
 40
0.9829787234042553
 40
0.9829787234042553
 40
0.9872340425531915
 40
0.9872340425531915
 40
0.9872340425531915
 40
0.9872340425531915
 40
0.9914893617021276
 40
0.9914893617021276
 40
0.9914893617021276
 40
0.9914893617021276
 40
1.0
 40
1.0
 40
1.0
 40
1.0
 10
130.2561
 20
-37.9108
 30
0.0
 10
130.2561
 20
-37.9108
 30
0.0
 10
126.4606
 20
-37.9113
 30
0.0
 10
126.4606
 20
-37.9113
 30
0.0
 10
126.4606
 20
-37.9113
 30
0.0
 10
126.4606
 20
-37.9113
 30
0.0
 10
126.4341
 20
-43.9445
 30
0.0
 10
126.4341
 20
-43.9445
 30
0.0
 10
126.4341
 20
-43.9445
 30
0.0
 10
126.4341
 20
-43.9445
 30
0.0
 10
79.9871
 20
-43.9189
 30
0.0
 10
79.9871
 20
-43.9189
 30
0.0
 10
79.9871
 20
-43.9189
 30
0.0
 10
79.9871
 20
-43.9189
 30
0.0
 10
79.9925
 20
-37.919
 30
0.0
 10
79.9925
 20
-37.919
 30
0.0
 10
79.9925
 20
-37.919
 30
0.0
 10
79.9925
 20
-37.919
 30
0.0
 10
76.5812
 20
-37.9196
 30
0.0
 10
76.5812
 20
-37.9196
 30
0.0
 10
76.5812
 20
-37.9196
 30
0.0
 10
76.5812
 20
-37.9196
 30
0.0
 10
74.3378
 20
-36.8379
 30
0.0
 10
74.3378
 20
-36.8379
 30
0.0
 10
74.3378
 20
-36.8379
 30
0.0
 10
74.3378
 20
-36.8379
 30
0.0
 10
70.5642
 20
-34.6307
 30
0.0
 10
70.5642
 20
-34.6307
 30
0.0
 10
70.5642
 20
-34.6307
 30
0.0
 10
70.5642
 20
-34.6307
 30
0.0
 10
66.8619
 20
-32.2099
 30
0.0
 10
66.8619
 20
-32.2099
 30
0.0
 10
66.8619
 20
-32.2099
 30
0.0
 10
66.8619
 20
-32.2099
 30
0.0
 10
63.3731
 20
-29.5044
 30
0.0
 10
63.3731
 20
-29.5044
 30
0.0
 10
63.3731
 20
-29.5044
 30
0.0
 10
63.3731
 20
-29.5044
 30
0.0
 10
60.0979
 20
-26.5852
 30
0.0
 10
60.0979
 20
-26.5852
 30
0.0
 10
60.0979
 20
-26.5852
 30
0.0
 10
60.0979
 20
-26.5852
 30
0.0
 10
56.9651
 20
-23.4524
 30
0.0
 10
56.9651
 20
-23.4524
 30
0.0
 10
56.9651
 20
-23.4524
 30
0.0
 10
56.9651
 20
-23.4524
 30
0.0
 10
54.0459
 20
-20.106
 30
0.0
 10
54.0459
 20
-20.106
 30
0.0
 10
54.0459
 20
-20.106
 30
0.0
 10
54.0459
 20
-20.106
 30
0.0
 10
51.3403
 20
-16.546
 30
0.0
 10
51.3403
 20
-16.546
 30
0.0
 10
51.3403
 20
-16.546
 30
0.0
 10
51.3403
 20
-16.546
 30
0.0
 10
48.8483
 20
-12.8436
 30
0.0
 10
48.8483
 20
-12.8436
 30
0.0
 10
48.8483
 20
-12.8436
 30
0.0
 10
48.8483
 20
-12.8436
 30
0.0
 10
46.6411
 20
-8.9276
 30
0.0
 10
46.6411
 20
-8.9276
 30
0.0
 10
46.6411
 20
-8.9276
 30
0.0
 10
46.6411
 20
-8.9276
 30
0.0
 10
44.5764
 20
-4.8693
 30
0.0
 10
44.5764
 20
-4.8693
 30
0.0
 10
44.5764
 20
-4.8693
 30
0.0
 10
44.5764
 20
-4.8693
 30
0.0
 10
42.8676
 20
-0.5973
 30
0.0
 10
42.8676
 20
-0.5973
 30
0.0
 10
42.8676
 20
-0.5973
 30
0.0
 10
42.8676
 20
-0.5973
 30
0.0
 10
41.3724
 20
3.7462
 30
0.0
 10
41.3724
 20
3.7462
 30
0.0
 10
41.3724
 20
3.7462
 30
0.0
 10
41.3724
 20
3.7462
 30
0.0
 10
40.0908
 20
8.3027
 30
0.0
 10
40.0908
 20
8.3027
 30
0.0
 10
40.0908
 20
8.3027
 30
0.0
 10
40.0908
 20
8.3027
 30
0.0
 10
39.1652
 20
12.9307
 30
0.0
 10
39.1652
 20
12.9307
 30
0.0
 10
39.1652
 20
12.9307
 30
0.0
 10
39.1652
 20
12.9307
 30
0.0
 10
38.5244
 20
17.6299
 30
0.0
 10
38.5244
 20
17.6299
 30
0.0
 10
38.5244
 20
17.6299
 30
0.0
 10
38.5244
 20
17.6299
 30
0.0
 10
38.2396
 20
22.4714
 30
0.0
 10
38.2396
 20
22.4714
 30
0.0
 10
38.2396
 20
22.4714
 30
0.0
 10
38.2396
 20
22.4714
 30
0.0
 10
38.1684
 20
27.3842
 30
0.0
 10
38.1684
 20
27.3842
 30
0.0
 10
38.1684
 20
27.3842
 30
0.0
 10
38.1684
 20
27.3842
 30
0.0
 10
38.5244
 20
32.4394
 30
0.0
 10
38.5244
 20
32.4394
 30
0.0
 10
38.5244
 20
32.4394
 30
0.0
 10
38.5244
 20
32.4394
 30
0.0
 10
39.1652
 20
37.4946
 30
0.0
 10
39.1652
 20
37.4946
 30
0.0
 10
39.1652
 20
37.4946
 30
0.0
 10
39.1652
 20
37.4946
 30
0.0
 10
41.3012
 20
44.8993
 30
0.0
 10
41.3012
 20
44.8993
 30
0.0
 10
41.3012
 20
44.8993
 30
0.0
 10
41.3012
 20
44.8993
 30
0.0
 10
44.0068
 20
51.8769
 30
0.0
 10
44.0068
 20
51.8769
 30
0.0
 10
44.0068
 20
51.8769
 30
0.0
 10
44.0068
 20
51.8769
 30
0.0
 10
47.2819
 20
58.4273
 30
0.0
 10
47.2819
 20
58.4273
 30
0.0
 10
47.2819
 20
58.4273
 30
0.0
 10
47.2819
 20
58.4273
 30
0.0
 10
49.1331
 20
61.5601
 30
0.0
 10
49.1331
 20
61.5601
 30
0.0
 10
49.1331
 20
61.5601
 30
0.0
 10
49.1331
 20
61.5601
 30
0.0
 10
51.1979
 20
64.4793
 30
0.0
 10
51.1979
 20
64.4793
 30
0.0
 10
51.1979
 20
64.4793
 30
0.0
 10
51.1979
 20
64.4793
 30
0.0
 10
53.4051
 20
67.3275
 30
0.0
 10
53.4051
 20
67.3275
 30
0.0
 10
53.4051
 20
67.3275
 30
0.0
 10
53.4051
 20
67.3275
 30
0.0
 10
55.8259
 20
70.0328
 30
0.0
 10
55.8259
 20
70.0328
 30
0.0
 10
55.8259
 20
70.0328
 30
0.0
 10
55.8259
 20
70.0328
 30
0.0
 10
58.3891
 20
72.6672
 30
0.0
 10
58.3891
 20
72.6672
 30
0.0
 10
58.3891
 20
72.6672
 30
0.0
 10
58.3891
 20
72.6672
 30
0.0
 10
61.1659
 20
75.088
 30
0.0
 10
61.1659
 20
75.088
 30
0.0
 10
61.1659
 20
75.088
 30
0.0
 10
61.1659
 20
75.088
 30
0.0
 10
64.1563
 20
77.3664
 30
0.0
 10
64.1563
 20
77.3664
 30
0.0
 10
64.1563
 20
77.3664
 30
0.0
 10
64.1563
 20
77.3664
 30
0.0
 10
67.3603
 20
79.4312
 30
0.0
 10
67.3603
 20
79.4312
 30
0.0
 10
67.3603
 20
79.4312
 30
0.0
 10
67.3603
 20
79.4312
 30
0.0
 10
70.7778
 20
81.4248
 30
0.0
 10
70.7778
 20
81.4248
 30
0.0
 10
70.7778
 20
81.4248
 30
0.0
 10
70.7778
 20
81.4248
 30
0.0
 10
74.409
 20
83.2048
 30
0.0
 10
74.409
 20
83.2048
 30
0.0
 10
74.409
 20
83.2048
 30
0.0
 10
74.409
 20
83.2048
 30
0.0
 10
69.2115
 20
100.9335
 30
0.0
 10
69.2115
 20
100.9335
 30
0.0
 10
69.2115
 20
100.9335
 30
0.0
 10
69.2115
 20
100.9335
 30
0.0
 10
9.9733
 20
35.7858
 30
0.0
 10
9.9733
 20
35.7858
 30
0.0
 10
9.9733
 20
35.7858
 30
0.0
 10
9.9733
 20
35.7858
 30
0.0
 10
11.7533
 20
33.5786
 30
0.0
 10
11.7533
 20
33.5786
 30
0.0
 10
11.7533
 20
33.5786
 30
0.0
 10
11.7533
 20
33.5786
 30
0.0
 10
13.2485
 20
31.229
 30
0.0
 10
13.2485
 20
31.229
 30
0.0
 10
13.2485
 20
31.229
 30
0.0
 10
13.2485
 20
31.229
 30
0.0
 10
14.3877
 20
28.8082
 30
0.0
 10
14.3877
 20
28.8082
 30
0.0
 10
14.3877
 20
28.8082
 30
0.0
 10
14.3877
 20
28.8082
 30
0.0
 10
15.0997
 20
26.3162
 30
0.0
 10
15.0997
 20
26.3162
 30
0.0
 10
15.0997
 20
26.3162
 30
0.0
 10
15.0997
 20
26.3162
 30
0.0
 10
15.5269
 20
23.753
 30
0.0
 10
15.5269
 20
23.753
 30
0.0
 10
15.5269
 20
23.753
 30
0.0
 10
15.5269
 20
23.753
 30
0.0
 10
15.5981
 20
21.261
 30
0.0
 10
15.5981
 20
21.261
 30
0.0
 10
15.5981
 20
21.261
 30
0.0
 10
15.5981
 20
21.261
 30
0.0
 10
15.3845
 20
18.769
 30
0.0
 10
15.3845
 20
18.769
 30
0.0
 10
15.3845
 20
18.769
 30
0.0
 10
15.3845
 20
18.769
 30
0.0
 10
14.8149
 20
16.3483
 30
0.0
 10
14.8149
 20
16.3483
 30
0.0
 10
14.8149
 20
16.3483
 30
0.0
 10
14.8149
 20
16.3483
 30
0.0
 10
13.9605
 20
14.0699
 30
0.0
 10
13.9605
 20
14.0699
 30
0.0
 10
13.9605
 20
14.0699
 30
0.0
 10
13.9605
 20
14.0699
 30
0.0
 10
12.7501
 20
11.8627
 30
0.0
 10
12.7501
 20
11.8627
 30
0.0
 10
12.7501
 20
11.8627
 30
0.0
 10
12.7501
 20
11.8627
 30
0.0
 10
11.2549
 20
9.8691
 30
0.0
 10
11.2549
 20
9.8691
 30
0.0
 10
11.2549
 20
9.8691
 30
0.0
 10
11.2549
 20
9.8691
 30
0.0
 10
9.4749
 20
8.0891
 30
0.0
 10
9.4749
 20
8.0891
 30
0.0
 10
9.4749
 20
8.0891
 30
0.0
 10
9.4749
 20
8.0891
 30
0.0
 10
7.4101
 20
6.5227
 30
0.0
 10
7.4101
 20
6.5227
 30
0.0
 10
7.4101
 20
6.5227
 30
0.0
 10
7.4101
 20
6.5227
 30
0.0
 10
5.0605
 20
5.1699
 30
0.0
 10
5.0605
 20
5.1699
 30
0.0
 10
5.0605
 20
5.1699
 30
0.0
 10
5.0605
 20
5.1699
 30
0.0
 10
2.4261
 20
4.1731
 30
0.0
 10
2.4261
 20
4.1731
 30
0.0
 10
2.4261
 20
4.1731
 30
0.0
 10
2.4261
 20
4.1731
 30
0.0
 10
-0.4219
 20
3.4614
 30
0.0
 10
-0.4219
 20
3.4614
 30
0.0
 10
-0.4219
 20
3.4614
 30
0.0
 10
-0.4219
 20
3.4614
 30
0.0
 10
-1.2051
 20
-15.478
 30
0.0
 10
-1.2051
 20
-15.478
 30
0.0
 10
-1.2051
 20
-15.478
 30
0.0
 10
-1.2051
 20
-15.478
 30
0.0
 10
5.5589
 20
-15.4068
 30
0.0
 10
5.5589
 20
-15.4068
 30
0.0
 10
5.5589
 20
-15.4068
 30
0.0
 10
5.5589
 20
-15.4068
 30
0.0
 10
5.5589
 20
-20.9604
 30
0.0
 10
5.5589
 20
-20.9604
 30
0.0
 10
5.5589
 20
-20.9604
 30
0.0
 10
5.5589
 20
-20.9604
 30
0.0
 10
-13.309
 20
-20.9604
 30
0.0
 10
-13.309
 20
-20.9604
 30
0.0
 10
-13.309
 20
-20.9604
 30
0.0
 10
-13.309
 20
-20.9604
 30
0.0
 10
-13.309
 20
-15.4068
 30
0.0
 10
-13.309
 20
-15.4068
 30
0.0
 10
-13.309
 20
-15.4068
 30
0.0
 10
-13.309
 20
-15.4068
 30
0.0
 10
-5.9754
 20
-15.4068
 30
0.0
 10
-5.9754
 20
-15.4068
 30
0.0
 10
-5.9754
 20
-15.4068
 30
0.0
 10
-5.9754
 20
-15.4068
 30
0.0
 10
-5.9042
 20
3.3187
 30
0.0
 10
-5.9042
 20
3.3187
 30
0.0
 10
-5.9042
 20
3.3187
 30
0.0
 10
-5.9042
 20
3.3187
 30
0.0
 10
-29.3289
 20
1.9659
 30
0.0
 10
-29.3289
 20
1.9659
 30
0.0
 10
-29.3289
 20
1.9659
 30
0.0
 10
-29.3289
 20
1.9659
 30
0.0
 10
-31.1089
 20
-2.7333
 30
0.0
 10
-31.1089
 20
-2.7333
 30
0.0
 10
-31.1089
 20
-2.7333
 30
0.0
 10
-31.1089
 20
-2.7333
 30
0.0
 10
-33.1737
 20
-7.1476
 30
0.0
 10
-33.1737
 20
-7.1476
 30
0.0
 10
-33.1737
 20
-7.1476
 30
0.0
 10
-33.1737
 20
-7.1476
 30
0.0
 10
-35.4521
 20
-11.3484
 30
0.0
 10
-35.4521
 20
-11.3484
 30
0.0
 10
-35.4521
 20
-11.3484
 30
0.0
 10
-35.4521
 20
-11.3484
 30
0.0
 10
-37.9441
 20
-15.2644
 30
0.0
 10
-37.9441
 20
-15.2644
 30
0.0
 10
-37.9441
 20
-15.2644
 30
0.0
 10
-37.9441
 20
-15.2644
 30
0.0
 10
-40.5785
 20
-18.9668
 30
0.0
 10
-40.5785
 20
-18.9668
 30
0.0
 10
-40.5785
 20
-18.9668
 30
0.0
 10
-40.5785
 20
-18.9668
 30
0.0
 10
-43.4265
 20
-22.3844
 30
0.0
 10
-43.4265
 20
-22.3844
 30
0.0
 10
-43.4265
 20
-22.3844
 30
0.0
 10
-43.4265
 20
-22.3844
 30
0.0
 10
-46.4169
 20
-25.5172
 30
0.0
 10
-46.4169
 20
-25.5172
 30
0.0
 10
-46.4169
 20
-25.5172
 30
0.0
 10
-46.4169
 20
-25.5172
 30
0.0
 10
-49.6209
 20
-28.4364
 30
0.0
 10
-49.6209
 20
-28.4364
 30
0.0
 10
-49.6209
 20
-28.4364
 30
0.0
 10
-49.6209
 20
-28.4364
 30
0.0
 10
-52.896
 20
-31.0708
 30
0.0
 10
-52.896
 20
-31.0708
 30
0.0
 10
-52.896
 20
-31.0708
 30
0.0
 10
-52.896
 20
-31.0708
 30
0.0
 10
-56.3136
 20
-33.4203
 30
0.0
 10
-56.3136
 20
-33.4203
 30
0.0
 10
-56.3136
 20
-33.4203
 30
0.0
 10
-56.3136
 20
-33.4203
 30
0.0
 10
-59.8736
 20
-35.5563
 30
0.0
 10
-59.8736
 20
-35.5563
 30
0.0
 10
-59.8736
 20
-35.5563
 30
0.0
 10
-59.8736
 20
-35.5563
 30
0.0
 10
-63.576
 20
-37.4075
 30
0.0
 10
-63.576
 20
-37.4075
 30
0.0
 10
-63.576
 20
-37.4075
 30
0.0
 10
-63.576
 20
-37.4075
 30
0.0
 10
-64.7716
 20
-37.9364
 30
0.0
 10
-64.7716
 20
-37.9364
 30
0.0
 10
-64.7716
 20
-37.9364
 30
0.0
 10
-64.7716
 20
-37.9364
 30
0.0
 10
-67.6509
 20
-37.9116
 30
0.0
 10
-67.6509
 20
-37.9116
 30
0.0
 10
-67.6509
 20
-37.9116
 30
0.0
 10
-67.6509
 20
-37.9116
 30
0.0
 10
-67.652
 20
-43.9177
 30
0.0
 10
-67.652
 20
-43.9177
 30
0.0
 10
-67.652
 20
-43.9177
 30
0.0
 10
-67.652
 20
-43.9177
 30
0.0
 10
-114.113
 20
-43.9203
 30
0.0
 10
-114.113
 20
-43.9203
 30
0.0
 10
-114.113
 20
-43.9203
 30
0.0
 10
-114.113
 20
-43.9203
 30
0.0
 10
-114.0831
 20
-37.9461
 30
0.0
 10
-114.0831
 20
-37.9461
 30
0.0
 10
-114.0831
 20
-37.9461
 30
0.0
 10
-114.0831
 20
-37.9461
 30
0.0
 10
-116.8433
 20
-37.9467
 30
0.0
 10
-116.8433
 20
-37.9467
 30
0.0
 10
-116.8433
 20
-37.9467
 30
0.0
 10
-116.8433
 20
-37.9467
 30
0.0
 10
-120.3222
 20
-36.4819
 30
0.0
 10
-120.3222
 20
-36.4819
 30
0.0
 10
-120.3222
 20
-36.4819
 30
0.0
 10
-120.3222
 20
-36.4819
 30
0.0
 10
-124.3805
 20
-34.4883
 30
0.0
 10
-124.3805
 20
-34.4883
 30
0.0
 10
-124.3805
 20
-34.4883
 30
0.0
 10
-124.3805
 20
-34.4883
 30
0.0
 10
-128.2965
 20
-32.2099
 30
0.0
 10
-128.2965
 20
-32.2099
 30
0.0
 10
-128.2965
 20
-32.2099
 30
0.0
 10
-142.5239
 20
-22.8973
 30
0.0
 10
-148.0846
 20
-16.783
 30
0.0
 10
-155.21
 20
0.6843
 30
0.0
 10
-155.21
 20
0.6843
 30
0.0
 10
-155.21
 20
0.6843
 30
0.0
 10
-156.9188
 20
6.1667
 30
0.0
 10
-156.9188
 20
6.1667
 30
0.0
 10
-156.9188
 20
6.1667
 30
0.0
 10
-156.9188
 20
6.1667
 30
0.0
 10
-158.058
 20
11.6491
 30
0.0
 10
-158.058
 20
11.6491
 30
0.0
 10
-158.058
 20
11.6491
 30
0.0
 10
-158.058
 20
11.6491
 30
0.0
 10
-158.77
 20
17.1315
 30
0.0
 10
-158.77
 20
17.1315
 30
0.0
 10
-158.77
 20
17.1315
 30
0.0
 10
-158.77
 20
17.1315
 30
0.0
 10
-159.0548
 20
22.6138
 30
0.0
 10
-159.0548
 20
22.6138
 30
0.0
 10
-159.0548
 20
22.6138
 30
0.0
 10
-159.0548
 20
22.6138
 30
0.0
 10
-158.8412
 20
28.025
 30
0.0
 10
-158.8412
 20
28.025
 30
0.0
 10
-158.8412
 20
28.025
 30
0.0
 10
-158.8412
 20
28.025
 30
0.0
 10
-158.2004
 20
33.2938
 30
0.0
 10
-158.2004
 20
33.2938
 30
0.0
 10
-158.2004
 20
33.2938
 30
0.0
 10
-158.2004
 20
33.2938
 30
0.0
 10
-157.1324
 20
38.5626
 30
0.0
 10
-157.1324
 20
38.5626
 30
0.0
 10
-157.1324
 20
38.5626
 30
0.0
 10
-157.1324
 20
38.5626
 30
0.0
 10
-155.7084
 20
43.6889
 30
0.0
 10
-155.7084
 20
43.6889
 30
0.0
 10
-155.7084
 20
43.6889
 30
0.0
 10
-155.7084
 20
43.6889
 30
0.0
 10
-153.8572
 20
48.6732
 30
0.0
 10
-153.8572
 20
48.6732
 30
0.0
 10
-153.8572
 20
48.6732
 30
0.0
 10
-153.8572
 20
48.6732
 30
0.0
 10
-151.65
 20
53.4433
 30
0.0
 10
-151.65
 20
53.4433
 30
0.0
 10
-151.65
 20
53.4433
 30
0.0
 10
-151.65
 20
53.4433
 30
0.0
 10
-149.0868
 20
58.0713
 30
0.0
 10
-149.0868
 20
58.0713
 30
0.0
 10
-149.0868
 20
58.0713
 30
0.0
 10
-149.0868
 20
58.0713
 30
0.0
 10
-146.1677
 20
62.4857
 30
0.0
 10
-146.1677
 20
62.4857
 30
0.0
 10
-146.1677
 20
62.4857
 30
0.0
 10
-146.1677
 20
62.4857
 30
0.0
 10
-142.8925
 20
66.6153
 30
0.0
 10
-142.8925
 20
66.6153
 30
0.0
 10
-142.8925
 20
66.6153
 30
0.0
 10
-142.8925
 20
66.6153
 30
0.0
 10
-139.3325
 20
70.5312
 30
0.0
 10
-139.3325
 20
70.5312
 30
0.0
 10
-139.3325
 20
70.5312
 30
0.0
 10
-139.3325
 20
70.5312
 30
0.0
 10
-135.4877
 20
74.1624
 30
0.0
 10
-135.4877
 20
74.1624
 30
0.0
 10
-135.4877
 20
74.1624
 30
0.0
 10
-135.4877
 20
74.1624
 30
0.0
 10
-131.2869
 20
77.5088
 30
0.0
 10
-131.2869
 20
77.5088
 30
0.0
 10
-131.2869
 20
77.5088
 30
0.0
 10
-131.2869
 20
77.5088
 30
0.0
 10
-126.8725
 20
80.4992
 30
0.0
 10
-126.8725
 20
80.4992
 30
0.0
 10
-126.8725
 20
80.4992
 30
0.0
 10
-126.8725
 20
80.4992
 30
0.0
 10
-122.2446
 20
83.1336
 30
0.0
 10
-122.2446
 20
83.1336
 30
0.0
 10
-122.2446
 20
83.1336
 30
0.0
 10
-122.2446
 20
83.1336
 30
0.0
 10
-117.3318
 20
85.3408
 30
0.0
 10
-117.3318
 20
85.3408
 30
0.0
 10
-117.3318
 20
85.3408
 30
0.0
 10
-117.3318
 20
85.3408
 30
0.0
 10
-112.2054
 20
87.2632
 30
0.0
 10
-112.2054
 20
87.2632
 30
0.0
 10
-112.2054
 20
87.2632
 30
0.0
 10
-112.2054
 20
87.2632
 30
0.0
 10
-106.7942
 20
88.6872
 30
0.0
 10
-106.7942
 20
88.6872
 30
0.0
 10
-106.7942
 20
88.6872
 30
0.0
 10
-106.7942
 20
88.6872
 30
0.0
 10
-101.3118
 20
89.684
 30
0.0
 10
-101.3118
 20
89.684
 30
0.0
 10
-101.3118
 20
89.684
 30
0.0
 10
-101.3118
 20
89.684
 30
0.0
 10
-95.5447
 20
90.1824
 30
0.0
 10
-95.5447
 20
90.1824
 30
0.0
 10
-95.5447
 20
90.1824
 30
0.0
 10
-95.5447
 20
90.1824
 30
0.0
 10
-89.7063
 20
90.2536
 30
0.0
 10
-89.7063
 20
90.2536
 30
0.0
 10
-89.7063
 20
90.2536
 30
0.0
 10
-89.7063
 20
90.2536
 30
0.0
 10
-83.6543
 20
89.7552
 30
0.0
 10
-83.6543
 20
89.7552
 30
0.0
 10
-83.6543
 20
89.7552
 30
0.0
 10
-83.6543
 20
89.7552
 30
0.0
 10
-77.4599
 20
88.7584
 30
0.0
 10
-77.4599
 20
88.7584
 30
0.0
 10
-77.4599
 20
88.7584
 30
0.0
 10
-77.4599
 20
88.7584
 30
0.0
 10
-71.1944
 20
87.192
 30
0.0
 10
-71.1944
 20
87.192
 30
0.0
 10
-71.1944
 20
87.192
 30
0.0
 10
-71.1944
 20
87.192
 30
0.0
 10
-64.7864
 20
85.056
 30
0.0
 10
-64.7864
 20
85.056
 30
0.0
 10
-64.7864
 20
85.056
 30
0.0
 10
-64.7864
 20
85.056
 30
0.0
 10
-43.0705
 20
124.287
 30
0.0
 10
-43.0705
 20
124.287
 30
0.0
 10
-43.0705
 20
124.287
 30
0.0
 10
-43.0705
 20
124.287
 30
0.0
 10
-45.5625
 20
129.3422
 30
0.0
 10
-45.5625
 20
129.3422
 30
0.0
 10
-45.5625
 20
129.3422
 30
0.0
 10
-45.5625
 20
129.3422
 30
0.0
 10
-43.0705
 20
129.3422
 30
0.0
 10
-43.0705
 20
129.3422
 30
0.0
 10
-43.0705
 20
129.3422
 30
0.0
 10
-43.0705
 20
129.3422
 30
0.0
 10
-46.6305
 20
140.8766
 30
0.0
 10
-46.6305
 20
140.8766
 30
0.0
 10
-46.6305
 20
140.8766
 30
0.0
 10
-46.6305
 20
140.8766
 30
0.0
 10
-50.9737
 20
141.8734
 30
0.0
 10
-50.9737
 20
141.8734
 30
0.0
 10
-50.9737
 20
141.8734
 30
0.0
 10
-50.9737
 20
141.8734
 30
0.0
 10
-54.7472
 20
142.9414
 30
0.0
 10
-54.7472
 20
142.9414
 30
0.0
 10
-54.7472
 20
142.9414
 30
0.0
 10
-54.7472
 20
142.9414
 30
0.0
 10
-57.88
 20
144.152
 30
0.0
 10
-57.88
 20
144.152
 30
0.0
 10
-57.88
 20
144.152
 30
0.0
 10
-57.88
 20
144.152
 30
0.0
 10
-60.372
 20
145.576
 30
0.0
 10
-60.372
 20
145.576
 30
0.0
 10
-60.372
 20
145.576
 30
0.0
 10
-60.372
 20
145.576
 30
0.0
 10
-62.2944
 20
147.1421
 30
0.0
 10
-62.2944
 20
147.1421
 30
0.0
 10
-62.2944
 20
147.1421
 30
0.0
 10
-62.2944
 20
147.1421
 30
0.0
 10
-63.6472
 20
148.9221
 30
0.0
 10
-63.6472
 20
148.9221
 30
0.0
 10
-63.6472
 20
148.9221
 30
0.0
 10
-63.6472
 20
148.9221
 30
0.0
 10
-64.5016
 20
150.9157
 30
0.0
 10
-64.5016
 20
150.9157
 30
0.0
 10
-64.5016
 20
150.9157
 30
0.0
 10
-64.5016
 20
150.9157
 30
0.0
 10
-64.7864
 20
153.1944
 30
0.0
 10
-64.7864
 20
153.1944
 30
0.0
 10
-64.7864
 20
153.1944
 30
0.0
 10
-64.7864
 20
153.1944
 30
0.0
 10
-64.1456
 20
154.4045
 30
0.0
 10
-64.1456
 20
154.4045
 30
0.0
 10
-64.1456
 20
154.4045
 30
0.0
 10
-64.1456
 20
154.4045
 30
0.0
 10
-62.864
 20
155.1877
 30
0.0
 10
-62.864
 20
155.1877
 30
0.0
 10
-62.864
 20
155.1877
 30
0.0
 10
-62.864
 20
155.1877
 30
0.0
 10
-60.8704
 20
155.7573
 30
0.0
 10
-60.8704
 20
155.7573
 30
0.0
 10
-60.8704
 20
155.7573
 30
0.0
 10
-60.8704
 20
155.7573
 30
0.0
 10
-58.3072
 20
156.0421
 30
0.0
 10
-58.3072
 20
156.0421
 30
0.0
 10
-58.3072
 20
156.0421
 30
0.0
 10
-58.3072
 20
156.0421
 30
0.0
 10
-51.8992
 20
156.0421
 30
0.0
 10
-51.8992
 20
156.0421
 30
0.0
 10
-51.8992
 20
156.0421
 30
0.0
 10
-51.8992
 20
156.0421
 30
0.0
 10
-44.1385
 20
155.3301
 30
0.0
 10
-44.1385
 20
155.3301
 30
0.0
 10
-44.1385
 20
155.3301
 30
0.0
 10
-44.1385
 20
155.3301
 30
0.0
 10
-27.2641
 20
153.1944
 30
0.0
 10
-27.2641
 20
153.1944
 30
0.0
 10
-27.2641
 20
153.1944
 30
0.0
 10
-27.2641
 20
153.1944
 30
0.0
 10
-19.5034
 20
152.2685
 30
0.0
 10
-19.5034
 20
152.2685
 30
0.0
 10
-19.5034
 20
152.2685
 30
0.0
 10
-19.5034
 20
152.2685
 30
0.0
 10
-12.8818
 20
151.7701
 30
0.0
 10
-12.8818
 20
151.7701
 30
0.0
 10
-12.8818
 20
151.7701
 30
0.0
 10
-12.8818
 20
151.7701
 30
0.0
 10
-9.749
 20
150.7733
 30
0.0
 10
-9.749
 20
150.7733
 30
0.0
 10
-9.749
 20
150.7733
 30
0.0
 10
-9.749
 20
150.7733
 30
0.0
 10
-8.8946
 20
150.2037
 30
0.0
 10
-8.8946
 20
150.2037
 30
0.0
 10
-8.8946
 20
150.2037
 30
0.0
 10
-8.8946
 20
150.2037
 30
0.0
 10
-8.4674
 20
149.4917
 30
0.0
 10
-8.4674
 20
149.4917
 30
0.0
 10
-8.4674
 20
149.4917
 30
0.0
 10
-8.4674
 20
149.4917
 30
0.0
 10
-8.6098
 20
148.7797
 30
0.0
 10
-8.6098
 20
148.7797
 30
0.0
 10
-8.6098
 20
148.7797
 30
0.0
 10
-8.6098
 20
148.7797
 30
0.0
 10
-9.1794
 20
147.9253
 30
0.0
 10
-9.1794
 20
147.9253
 30
0.0
 10
-9.1794
 20
147.9253
 30
0.0
 10
-9.1794
 20
147.9253
 30
0.0
 10
-10.2474
 20
146.9997
 30
0.0
 10
-10.2474
 20
146.9997
 30
0.0
 10
-10.2474
 20
146.9997
 30
0.0
 10
-10.2474
 20
146.9997
 30
0.0
 10
-11.7426
 20
146.0029
 30
0.0
 10
-11.7426
 20
146.0029
 30
0.0
 10
-11.7426
 20
146.0029
 30
0.0
 10
-11.7426
 20
146.0029
 30
0.0
 10
-18.3642
 20
143.7957
 30
0.0
 10
-18.3642
 20
143.7957
 30
0.0
 10
-18.3642
 20
143.7957
 30
0.0
 10
-18.3642
 20
143.7957
 30
0.0
 10
-25.2706
 20
142.1582
 30
0.0
 10
-25.2706
 20
142.1582
 30
0.0
 10
-25.2706
 20
142.1582
 30
0.0
 10
-25.2706
 20
142.1582
 30
0.0
 10
-32.4617
 20
141.1614
 30
0.0
 10
-32.4617
 20
141.1614
 30
0.0
 10
-32.4617
 20
141.1614
 30
0.0
 10
-32.4617
 20
141.1614
 30
0.0
 10
-40.0801
 20
140.8054
 30
0.0
 10
-40.0801
 20
140.8054
 30
0.0
 10
-40.0801
 20
140.8054
 30
0.0
 10
-40.0801
 20
140.8054
 30
0.0
 10
-37.2321
 20
129.3422
 30
0.0
 10
-37.2321
 20
129.3422
 30
0.0
 10
-37.2321
 20
129.3422
 30
0.0
 10
-37.2321
 20
129.3422
 30
0.0
 10
-34.9537
 20
129.3422
 30
0.0
 10
-34.9537
 20
129.3422
 30
0.0
 10
-34.9537
 20
129.3422
 30
0.0
 10
-34.9537
 20
129.3422
 30
0.0
 10
-33.2449
 20
125.355
 30
0.0
 10
-33.2449
 20
125.355
 30
0.0
 10
-33.2449
 20
125.355
 30
0.0
 10
-33.2449
 20
125.355
 30
0.0
 10
64.2987
 20
125.5686
 30
0.0
 10
64.2987
 20
125.5686
 30
0.0
 10
64.2987
 20
125.5686
 30
0.0
 10
64.2987
 20
125.5686
 30
0.0
 10
64.0139
 20
128.7014
 30
0.0
 10
64.0139
 20
128.7014
 30
0.0
 10
64.0139
 20
128.7014
 30
0.0
 10
64.0139
 20
128.7014
 30
0.0
 10
66.2211
 20
128.7014
 30
0.0
 10
66.2211
 20
128.7014
 30
0.0
 10
66.2211
 20
128.7014
 30
0.0
 10
66.2211
 20
128.7014
 30
0.0
 10
62.9459
 20
141.4462
 30
0.0
 10
62.9459
 20
141.4462
 30
0.0
 10
62.9459
 20
141.4462
 30
0.0
 10
62.9459
 20
141.4462
 30
0.0
 10
59.5283
 20
154.2621
 30
0.0
 10
59.5283
 20
154.2621
 30
0.0
 10
59.5283
 20
154.2621
 30
0.0
 10
59.5283
 20
154.2621
 30
0.0
 10
65.4379
 20
154.9741
 30
0.0
 10
65.4379
 20
154.9741
 30
0.0
 10
65.4379
 20
154.9741
 30
0.0
 10
65.4379
 20
154.9741
 30
0.0
 10
71.0626
 20
155.2589
 30
0.0
 10
71.0626
 20
155.2589
 30
0.0
 10
71.0626
 20
155.2589
 30
0.0
 10
71.0626
 20
155.2589
 30
0.0
 10
76.4026
 20
155.1165
 30
0.0
 10
76.4026
 20
155.1165
 30
0.0
 10
76.4026
 20
155.1165
 30
0.0
 10
76.4026
 20
155.1165
 30
0.0
 10
81.4578
 20
154.476
 30
0.0
 10
81.4578
 20
154.476
 30
0.0
 10
81.4578
 20
154.476
 30
0.0
 10
81.4578
 20
154.476
 30
0.0
 10
86.2282
 20
153.4792
 30
0.0
 10
86.2282
 20
153.4792
 30
0.0
 10
86.2282
 20
153.4792
 30
0.0
 10
86.2282
 20
153.4792
 30
0.0
 10
90.6426
 20
152.1261
 30
0.0
 10
90.6426
 20
152.1261
 30
0.0
 10
90.6426
 20
152.1261
 30
0.0
 10
90.6426
 20
152.1261
 30
0.0
 10
94.7009
 20
150.2749
 30
0.0
 10
94.7009
 20
150.2749
 30
0.0
 10
94.7009
 20
150.2749
 30
0.0
 10
94.7009
 20
150.2749
 30
0.0
 10
98.4745
 20
148.0677
 30
0.0
 10
98.4745
 20
148.0677
 30
0.0
 10
98.4745
 20
148.0677
 30
0.0
 10
98.4745
 20
148.0677
 30
0.0
 10
108.8697
 20
154.7608
 30
0.0
 10
108.8697
 20
154.7608
 30
0.0
 10
108.8697
 20
154.7608
 30
0.0
 10
108.8697
 20
154.7608
 30
0.0
 10
110.0801
 20
155.2589
 30
0.0
 10
110.0801
 20
155.2589
 30
0.0
 10
110.0801
 20
155.2589
 30
0.0
 10
110.0801
 20
155.2589
 30
0.0
 10
111.2193
 20
155.2589
 30
0.0
 10
111.2193
 20
155.2589
 30
0.0
 10
111.2193
 20
155.2589
 30
0.0
 10
111.2193
 20
155.2589
 30
0.0
 10
112.4297
 20
154.8317
 30
0.0
 10
112.4297
 20
154.8317
 30
0.0
 10
112.4297
 20
154.8317
 30
0.0
 10
112.4297
 20
154.8317
 30
0.0
 10
113.4265
 20
154.0488
 30
0.0
 10
113.4265
 20
154.0488
 30
0.0
 10
113.4265
 20
154.0488
 30
0.0
 10
113.4265
 20
154.0488
 30
0.0
 10
114.2809
 20
152.9096
 30
0.0
 10
114.2809
 20
152.9096
 30
0.0
 10
114.2809
 20
152.9096
 30
0.0
 10
114.2809
 20
152.9096
 30
0.0
 10
114.9217
 20
151.4141
 30
0.0
 10
114.9217
 20
151.4141
 30
0.0
 10
114.9217
 20
151.4141
 30
0.0
 10
114.9217
 20
151.4141
 30
0.0
 10
115.2065
 20
149.7053
 30
0.0
 10
115.2065
 20
149.7053
 30
0.0
 10
115.2065
 20
149.7053
 30
0.0
 10
115.2065
 20
149.7053
 30
0.0
 10
115.1353
 20
147.7117
 30
0.0
 10
115.1353
 20
147.7117
 30
0.0
 10
115.1353
 20
147.7117
 30
0.0
 10
115.1353
 20
147.7117
 30
0.0
 10
114.3521
 20
141.8022
 30
0.0
 10
114.3521
 20
141.8022
 30
0.0
 10
114.3521
 20
141.8022
 30
0.0
 10
114.3521
 20
141.8022
 30
0.0
 10
114.2809
 20
136.3198
 30
0.0
 10
114.2809
 20
136.3198
 30
0.0
 10
114.2809
 20
136.3198
 30
0.0
 10
114.2809
 20
136.3198
 30
0.0
 10
114.9929
 20
131.1934
 30
0.0
 10
114.9929
 20
131.1934
 30
0.0
 10
114.9929
 20
131.1934
 30
0.0
 10
114.9929
 20
131.1934
 30
0.0
 10
116.4169
 20
126.423
 30
0.0
 10
116.4169
 20
126.423
 30
0.0
 10
116.4169
 20
126.423
 30
0.0
 10
116.4169
 20
126.423
 30
0.0
 10
114.7081
 20
126.2806
 30
0.0
 10
114.7081
 20
126.2806
 30
0.0
 10
114.7081
 20
126.2806
 30
0.0
 10
114.7081
 20
126.2806
 30
0.0
 10
113.2129
 20
126.779
 30
0.0
 10
113.2129
 20
126.779
 30
0.0
 10
113.2129
 20
126.779
 30
0.0
 10
113.2129
 20
126.779
 30
0.0
 10
111.8601
 20
127.9894
 30
0.0
 10
111.8601
 20
127.9894
 30
0.0
 10
111.8601
 20
127.9894
 30
0.0
 10
111.8601
 20
127.9894
 30
0.0
 10
110.7209
 20
129.7694
 30
0.0
 10
110.7209
 20
129.7694
 30
0.0
 10
110.7209
 20
129.7694
 30
0.0
 10
110.7209
 20
129.7694
 30
0.0
 10
109.7241
 20
132.2614
 30
0.0
 10
109.7241
 20
132.2614
 30
0.0
 10
109.7241
 20
132.2614
 30
0.0
 10
109.7241
 20
132.2614
 30
0.0
 10
108.9409
 20
135.3945
 30
0.0
 10
108.9409
 20
135.3945
 30
0.0
 10
108.9409
 20
135.3945
 30
0.0
 10
108.9409
 20
135.3945
 30
0.0
 10
108.3713
 20
139.1678
 30
0.0
 10
108.3713
 20
139.1678
 30
0.0
 10
108.3713
 20
139.1678
 30
0.0
 10
108.3713
 20
139.1678
 30
0.0
 10
107.9441
 20
143.5824
 30
0.0
 10
107.9441
 20
143.5824
 30
0.0
 10
107.9441
 20
143.5824
 30
0.0
 10
107.9441
 20
143.5824
 30
0.0
 10
101.7497
 20
140.5918
 30
0.0
 10
101.7497
 20
140.5918
 30
0.0
 10
101.7497
 20
140.5918
 30
0.0
 10
101.7497
 20
140.5918
 30
0.0
 10
101.9633
 20
137.9574
 30
0.0
 10
101.9633
 20
137.9574
 30
0.0
 10
101.9633
 20
137.9574
 30
0.0
 10
101.9633
 20
137.9574
 30
0.0
 10
101.9633
 20
135.3945
 30
0.0
 10
101.9633
 20
135.3945
 30
0.0
 10
101.9633
 20
135.3945
 30
0.0
 10
101.9633
 20
135.3945
 30
0.0
 10
101.6785
 20
132.9734
 30
0.0
 10
101.6785
 20
132.9734
 30
0.0
 10
101.6785
 20
132.9734
 30
0.0
 10
101.6785
 20
132.9734
 30
0.0
 10
101.1801
 20
130.695
 30
0.0
 10
101.1801
 20
130.695
 30
0.0
 10
101.1801
 20
130.695
 30
0.0
 10
101.1801
 20
130.695
 30
0.0
 10
100.3969
 20
128.4878
 30
0.0
 10
100.3969
 20
128.4878
 30
0.0
 10
100.3969
 20
128.4878
 30
0.0
 10
100.3969
 20
128.4878
 30
0.0
 10
99.3289
 20
126.423
 30
0.0
 10
99.3289
 20
126.423
 30
0.0
 10
99.3289
 20
126.423
 30
0.0
 10
99.3289
 20
126.423
 30
0.0
 10
98.1185
 20
124.5006
 30
0.0
 10
98.1185
 20
124.5006
 30
0.0
 10
98.1185
 20
124.5006
 30
0.0
 10
98.1185
 20
124.5006
 30
0.0
 10
96.5521
 20
122.6494
 30
0.0
 10
96.5521
 20
122.6494
 30
0.0
 10
96.5521
 20
122.6494
 30
0.0
 10
96.5521
 20
122.6494
 30
0.0
 10
94.7721
 20
120.9406
 30
0.0
 10
94.7721
 20
120.9406
 30
0.0
 10
94.7721
 20
120.9406
 30
0.0
 10
94.7721
 20
120.9406
 30
0.0
 10
92.7786
 20
119.303
 30
0.0
 10
92.7786
 20
119.303
 30
0.0
 10
92.7786
 20
119.303
 30
0.0
 10
92.7786
 20
119.303
 30
0.0
 10
90.5002
 20
117.8079
 30
0.0
 10
90.5002
 20
117.8079
 30
0.0
 10
90.5002
 20
117.8079
 30
0.0
 10
90.5002
 20
117.8079
 30
0.0
 10
88.0082
 20
116.4551
 30
0.0
 10
88.0082
 20
116.4551
 30
0.0
 10
88.0082
 20
116.4551
 30
0.0
 10
88.0082
 20
116.4551
 30
0.0
 10
83.094
 20
114.3478
 30
0.0
 10
83.094
 20
114.3478
 30
0.0
 10
83.094
 20
114.3478
 30
0.0
 10
83.094
 20
114.3478
 30
0.0
 10
76.33
 20
112.4254
 30
0.0
 10
76.33
 20
112.4254
 30
0.0
 10
76.33
 20
112.4254
 30
0.0
 10
76.33
 20
112.4254
 30
0.0
 10
80.8882
 20
85.9104
 30
0.0
 10
80.8882
 20
85.9104
 30
0.0
 10
80.8882
 20
85.9104
 30
0.0
 10
80.8882
 20
85.9104
 30
0.0
 10
88.0794
 20
87.904
 30
0.0
 10
88.0794
 20
87.904
 30
0.0
 10
88.0794
 20
87.904
 30
0.0
 10
88.0794
 20
87.904
 30
0.0
 10
95.0569
 20
89.1856
 30
0.0
 10
95.0569
 20
89.1856
 30
0.0
 10
95.0569
 20
89.1856
 30
0.0
 10
95.0569
 20
89.1856
 30
0.0
 10
101.8209
 20
89.7552
 30
0.0
 10
101.8209
 20
89.7552
 30
0.0
 10
101.8209
 20
89.7552
 30
0.0
 10
101.8209
 20
89.7552
 30
0.0
 10
108.4428
 20
89.684
 30
0.0
 10
108.4428
 20
89.684
 30
0.0
 10
108.4428
 20
89.684
 30
0.0
 10
108.4428
 20
89.684
 30
0.0
 10
114.8505
 20
88.972
 30
0.0
 10
114.8505
 20
88.972
 30
0.0
 10
114.8505
 20
88.972
 30
0.0
 10
114.8505
 20
88.972
 30
0.0
 10
120.9736
 20
87.6904
 30
0.0
 10
120.9736
 20
87.6904
 30
0.0
 10
120.9736
 20
87.6904
 30
0.0
 10
120.9736
 20
87.6904
 30
0.0
 10
126.8123
 20
85.8392
 30
0.0
 10
126.8123
 20
85.8392
 30
0.0
 10
126.8123
 20
85.8392
 30
0.0
 10
126.8123
 20
85.8392
 30
0.0
 10
132.4368
 20
83.4896
 30
0.0
 10
132.4368
 20
83.4896
 30
0.0
 10
132.4368
 20
83.4896
 30
0.0
 10
132.4368
 20
83.4896
 30
0.0
 10
137.7056
 20
80.7128
 30
0.0
 10
137.7056
 20
80.7128
 30
0.0
 10
137.7056
 20
80.7128
 30
0.0
 10
137.7056
 20
80.7128
 30
0.0
 10
142.6895
 20
77.4376
 30
0.0
 10
142.6895
 20
77.4376
 30
0.0
 10
142.6895
 20
77.4376
 30
0.0
 10
142.6895
 20
77.4376
 30
0.0
 10
147.3175
 20
73.7352
 30
0.0
 10
147.3175
 20
73.7352
 30
0.0
 10
147.3175
 20
73.7352
 30
0.0
 10
147.3175
 20
73.7352
 30
0.0
 10
151.5895
 20
69.6768
 30
0.0
 10
151.5895
 20
69.6768
 30
0.0
 10
151.5895
 20
69.6768
 30
0.0
 10
151.5895
 20
69.6768
 30
0.0
 10
155.5055
 20
65.2625
 30
0.0
 10
155.5055
 20
65.2625
 30
0.0
 10
155.5055
 20
65.2625
 30
0.0
 10
155.5055
 20
65.2625
 30
0.0
 10
158.9943
 20
60.5633
 30
0.0
 10
158.9943
 20
60.5633
 30
0.0
 10
158.9943
 20
60.5633
 30
0.0
 10
158.9943
 20
60.5633
 30
0.0
 10
162.1274
 20
55.6505
 30
0.0
 10
162.1274
 20
55.6505
 30
0.0
 10
162.1274
 20
55.6505
 30
0.0
 10
162.1274
 20
55.6505
 30
0.0
 10
164.8327
 20
50.3817
 30
0.0
 10
164.8327
 20
50.3817
 30
0.0
 10
164.8327
 20
50.3817
 30
0.0
 10
164.8327
 20
50.3817
 30
0.0
 10
167.0398
 20
44.9705
 30
0.0
 10
167.0398
 20
44.9705
 30
0.0
 10
167.0398
 20
44.9705
 30
0.0
 10
167.0398
 20
44.9705
 30
0.0
 10
168.7486
 20
39.417
 30
0.0
 10
168.7486
 20
39.417
 30
0.0
 10
168.7486
 20
39.417
 30
0.0
 10
168.7486
 20
39.417
 30
0.0
 10
170.0302
 20
33.721
 30
0.0
 10
170.0302
 20
33.721
 30
0.0
 10
170.0302
 20
33.721
 30
0.0
 10
170.0302
 20
33.721
 30
0.0
 10
170.7422
 20
27.8826
 30
0.0
 10
170.7422
 20
27.8826
 30
0.0
 10
170.7422
 20
27.8826
 30
0.0
 10
170.7422
 20
27.8826
 30
0.0
 10
170.9558
 20
22.0442
 30
0.0
 10
170.9558
 20
22.0442
 30
0.0
 10
170.9558
 20
22.0442
 30
0.0
 10
170.9558
 20
22.0442
 30
0.0
 10
170.671
 20
16.1347
 30
0.0
 10
170.671
 20
16.1347
 30
0.0
 10
170.671
 20
16.1347
 30
0.0
 10
170.671
 20
16.1347
 30
0.0
 10
169.7454
 20
10.2963
 30
0.0
 10
169.7454
 20
10.2963
 30
0.0
 10
169.7454
 20
10.2963
 30
0.0
 10
169.7454
 20
10.2963
 30
0.0
 10
168.2502
 20
4.4579
 30
0.0
 10
168.2502
 20
4.4579
 30
0.0
 10
168.2502
 20
4.4579
 30
0.0
 10
168.2502
 20
4.4579
 30
0.0
 10
166.1855
 20
-1.3093
 30
0.0
 10
166.1855
 20
-1.3093
 30
0.0
 10
166.1855
 20
-1.3093
 30
0.0
 10
166.1855
 20
-1.3093
 30
0.0
 10
163.4799
 20
-7.0053
 30
0.0
 10
163.4799
 20
-7.0053
 30
0.0
 10
163.4799
 20
-7.0053
 30
0.0
 10
163.4799
 20
-7.0053
 30
0.0
 10
160.1335
 20
-12.4876
 30
0.0
 10
160.1335
 20
-12.4876
 30
0.0
 10
160.1335
 20
-12.4876
 30
0.0
 10
160.1335
 20
-12.4876
 30
0.0
 10
156.1463
 20
-17.8276
 30
0.0
 10
156.1463
 20
-17.8276
 30
0.0
 10
156.1463
 20
-17.8276
 30
0.0
 10
156.1463
 20
-17.8276
 30
0.0
 10
153.8679
 20
-20.3908
 30
0.0
 10
153.8679
 20
-20.3908
 30
0.0
 10
153.8679
 20
-20.3908
 30
0.0
 10
153.8679
 20
-20.3908
 30
0.0
 10
151.4471
 20
-22.954
 30
0.0
 10
151.4471
 20
-22.954
 30
0.0
 10
151.4471
 20
-22.954
 30
0.0
 10
151.4471
 20
-22.954
 30
0.0
 10
148.8127
 20
-25.3748
 30
0.0
 10
148.8127
 20
-25.3748
 30
0.0
 10
148.8127
 20
-25.3748
 30
0.0
 10
148.8127
 20
-25.3748
 30
0.0
 10
146.0359
 20
-27.7956
 30
0.0
 10
146.0359
 20
-27.7956
 30
0.0
 10
146.0359
 20
-27.7956
 30
0.0
 10
146.0359
 20
-27.7956
 30
0.0
 10
139.9128
 20
-32.3523
 30
0.0
 10
139.9128
 20
-32.3523
 30
0.0
 10
139.9128
 20
-32.3523
 30
0.0
 10
139.9128
 20
-32.3523
 30
0.0
 10
133.0776
 20
-36.6243
 30
0.0
 10
133.0776
 20
-36.6243
 30
0.0
 10
133.0776
 20
-36.6243
 30
0.0
 10
133.0776
 20
-36.6243
 30
0.0
 10
130.2561
 20
-37.9108
 30
0.0
 10
130.2561
 20
-37.9108
 30
0.0
  0
LWPOLYLINE
  5
4C
330
1F
100
AcDbEntity
  8
Camada 1
 62
   240
370
     9
100
AcDbPolyline
 90
        5
 70
     1
 43
0.0
 10
-115.2519
 20
-77.1591
 10
-68.7949
 20
-77.1591
 10
-68.7949
 20
-70.9591
 10
-115.2519
 20
-70.9591
 10
-115.2519
 20
-77.1591
  0
LWPOLYLINE
  5
4D
330
1F
100
AcDbEntity
  8
Camada 1
 62
   240
370
     9
100
AcDbPolyline
 90
        5
 70
     1
 43
0.0
 10
78.8491
 20
-77.1591
 10
125.3045
 20
-77.1591
 10
125.3045
 20
-70.9591
 10
78.8491
 20
-70.9591
 10
78.8491
 20
-77.1591
  0
SPLINE
  5
4E
330
1F
100
AcDbEntity
  8
Camada 1
 62
   250
370
    20
100
AcDbSpline
210
0.0
220
0.0
230
1.0
 70
    11
 71
     3
 72
    36
 73
    32
 74
     0
 42
0.0000000001
 43
0.0000000001
 12
1.0
 22
0.0
 32
0.0
 13
1.0
 23
0.0
 33
0.0
 40
0.0
 40
0.0
 40
0.0
 40
0.0
 40
0.1111111111111111
 40
0.1111111111111111
 40
0.1111111111111111
 40
0.1111111111111111
 40
0.2222222222222222
 40
0.2222222222222222
 40
0.2222222222222222
 40
0.2222222222222222
 40
0.3333333333333333
 40
0.3333333333333333
 40
0.3333333333333333
 40
0.3333333333333333
 40
0.4444444444444444
 40
0.4444444444444444
 40
0.4444444444444444
 40
0.4444444444444444
 40
0.5555555555555556
 40
0.5555555555555556
 40
0.5555555555555556
 40
0.5555555555555556
 40
0.6666666666666666
 40
0.6666666666666666
 40
0.6666666666666666
 40
0.6666666666666666
 40
0.7777777777777778
 40
0.7777777777777778
 40
0.7777777777777778
 40
0.7777777777777778
 40
1.0
 40
1.0
 40
1.0
 40
1.0
 10
-164.7142
 20
-54.0591
 30
0.0
 10
-164.7142
 20
-54.0591
 30
0.0
 10
174.767
 20
-54.0591
 30
0.0
 10
174.767
 20
-54.0591
 30
0.0
 10
174.767
 20
-54.0591
 30
0.0
 10
177.792
 20
-54.0591
 30
0.0
 10
180.2669
 20
-56.534
 30
0.0
 10
180.2669
 20
-59.559
 30
0.0
 10
180.2669
 20
-59.559
 30
0.0
 10
180.2669
 20
-59.559
 30
0.0
 10
180.2669
 20
-88.5592
 30
0.0
 10
180.2669
 20
-88.5592
 30
0.0
 10
180.2669
 20
-88.5592
 30
0.0
 10
180.2669
 20
-91.5842
 30
0.0
 10
177.792
 20
-94.0591
 30
0.0
 10
174.767
 20
-94.0591
 30
0.0
 10
174.767
 20
-94.0591
 30
0.0
 10
174.767
 20
-94.0591
 30
0.0
 10
-164.7142
 20
-94.0591
 30
0.0
 10
-164.7142
 20
-94.0591
 30
0.0
 10
-164.7142
 20
-94.0591
 30
0.0
 10
-167.7392
 20
-94.0591
 30
0.0
 10
-170.2141
 20
-91.5842
 30
0.0
 10
-170.2141
 20
-88.5592
 30
0.0
 10
-170.2141
 20
-88.5592
 30
0.0
 10
-170.2141
 20
-88.5592
 30
0.0
 10
-170.2141
 20
-59.559
 30
0.0
 10
-170.2141
 20
-59.559
 30
0.0
 10
-170.2141
 20
-59.559
 30
0.0
 10
-170.2141
 20
-56.534
 30
0.0
 10
-167.7392
 20
-54.0591
 30
0.0
 10
-164.7142
 20
-54.0591
 30
0.0
  0
ENDSEC
  0
SECTION
  2
OBJECTS
  0
DICTIONARY
  5
C
330
0
100
AcDbDictionary
281
     1
  3
ACAD_GROUP
350
D
  3
ACAD_LAYOUT
350
1A
  3
ACAD_MATERIAL
350
3B
  3
ACAD_MLEADERSTYLE
350
51
  3
ACAD_MLINESTYLE
350
17
  3
ACAD_PLOTSETTINGS
350
19
  3
ACAD_PLOTSTYLENAME
350
E
  3
ACAD_VISUALSTYLE
350
2A
  3
AcDbVariableDictionary
350
4F
  0
DICTIONARY
  5
D
102
{ACAD_REACTORS
330
C
102
}
330
C
100
AcDbDictionary
281
     1
  0
DICTIONARY
  5
1A
102
{ACAD_REACTORS
330
C
102
}
330
C
100
AcDbDictionary
281
     1
  3
Layout1
350
1E
  3
Layout2
350
26
  3
Model
350
22
  0
DICTIONARY
  5
3B
102
{ACAD_REACTORS
330
C
102
}
330
C
100
AcDbDictionary
281
     1
  3
ByBlock
350
3D
  3
ByLayer
350
3C
  3
Global
350
3E
  0
DICTIONARY
  5
51
102
{ACAD_REACTORS
330
C
102
}
330
C
100
AcDbDictionary
281
     1
  0
DICTIONARY
  5
17
102
{ACAD_REACTORS
330
C
102
}
330
C
100
AcDbDictionary
281
     1
  3
Standard
350
18
  0
DICTIONARY
  5
19
102
{ACAD_REACTORS
330
C
102
}
330
C
100
AcDbDictionary
281
     1
  0
ACDBDICTIONARYWDFLT
  5
E
102
{ACAD_REACTORS
330
C
102
}
330
C
100
AcDbDictionary
281
     1
  3
Normal
350
F
100
AcDbDictionaryWithDefault
340
F
  0
DICTIONARY
  5
2A
102
{ACAD_REACTORS
330
C
102
}
330
C
100
AcDbDictionary
281
     1
  3
2dWireframe
350
2F
  3
3D Hidden
350
31
  3
3dWireframe
350
30
  3
Basic
350
32
  3
Brighten
350
36
  3
ColorChange
350
3A
  3
Conceptual
350
34
  3
Dim
350
35
  3
Facepattern
350
39
  3
Flat
350
2B
  3
FlatWithEdges
350
2C
  3
Gouraud
350
2D
  3
GouraudWithEdges
350
2E
  3
Linepattern
350
38
  3
Realistic
350
33
  3
Thicken
350
37
  0
DICTIONARY
  5
4F
102
{ACAD_REACTORS
330
C
102
}
330
C
100
AcDbDictionary
281
     1
  3
DIMASSOC
350
52
  3
HIDETEXT
350
53
  0
LAYOUT
  5
1E
102
{ACAD_REACTORS
330
1A
102
}
330
1A
100
AcDbPlotSettings
  1

  2
none_device
  4

  6

 40
0.0
 41
0.0
 42
0.0
 43
0.0
 44
0.0
 45
0.0
 46
0.0
 47
0.0
 48
0.0
 49
0.0
140
0.0
141
0.0
142
1.0
143
1.0
 70
   688
 72
     0
 73
     0
 74
     5
  7

 75
    16
147
1.0
148
0.0
149
0.0
100
AcDbLayout
  1
Layout1
 70
     1
 71
     1
 10
0.0
 20
0.0
 11
12.0
 21
9.0
 12
0.0
 22
0.0
 32
0.0
 14
1.000000000000000E+20
 24
1.000000000000000E+20
 34
1.000000000000000E+20
 15
-1.000000000000000E+20
 25
-1.000000000000000E+20
 35
-1.000000000000000E+20
146
0.0
 13
0.0
 23
0.0
 33
0.0
 16
1.0
 26
0.0
 36
0.0
 17
0.0
 27
1.0
 37
0.0
 76
     0
330
1B
  0
LAYOUT
  5
26
102
{ACAD_REACTORS
330
1A
102
}
330
1A
100
AcDbPlotSettings
  1

  2
none_device
  4

  6

 40
0.0
 41
0.0
 42
0.0
 43
0.0
 44
0.0
 45
0.0
 46
0.0
 47
0.0
 48
0.0
 49
0.0
140
0.0
141
0.0
142
1.0
143
1.0
 70
   688
 72
     0
 73
     0
 74
     5
  7

 75
    16
147
1.0
148
0.0
149
0.0
100
AcDbLayout
  1
Layout2
 70
     1
 71
     2
 10
0.0
 20
0.0
 11
0.0
 21
0.0
 12
0.0
 22
0.0
 32
0.0
 14
0.0
 24
0.0
 34
0.0
 15
0.0
 25
0.0
 35
0.0
146
0.0
 13
0.0
 23
0.0
 33
0.0
 16
1.0
 26
0.0
 36
0.0
 17
0.0
 27
1.0
 37
0.0
 76
     0
330
23
  0
LAYOUT
  5
22
102
{ACAD_REACTORS
330
1A
102
}
330
1A
100
AcDbPlotSettings
  1

  2
none_device
  4

  6

 40
0.0
 41
0.0
 42
0.0
 43
0.0
 44
0.0
 45
0.0
 46
0.0
 47
0.0
 48
0.0
 49
0.0
140
0.0
141
0.0
142
1.0
143
1.0
 70
  1712
 72
     0
 73
     0
 74
     0
  7

 75
     0
147
1.0
148
0.0
149
0.0
100
AcDbLayout
  1
Model
 70
     1
 71
     0
 10
0.0
 20
0.0
 11
12.0
 21
9.0
 12
0.0
 22
0.0
 32
0.0
 14
-170.3141
 24
-94.1591
 34
0.0
 15
180.3669
 25
156.0802
 35
0.0
146
0.0
 13
0.0
 23
0.0
 33
0.0
 16
1.0
 26
0.0
 36
0.0
 17
0.0
 27
1.0
 37
0.0
 76
     0
330
1F
331
29
  0
MATERIAL
  5
3D
102
{ACAD_REACTORS
330
3B
102
}
102
{ACAD_XDICTIONARY
360
76
102
}
330
3B
100
AcDbMaterial
  1
ByBlock
  0
MATERIAL
  5
3C
102
{ACAD_REACTORS
330
3B
102
}
102
{ACAD_XDICTIONARY
360
74
102
}
330
3B
100
AcDbMaterial
  1
ByLayer
  0
MATERIAL
  5
3E
102
{ACAD_REACTORS
330
3B
102
}
102
{ACAD_XDICTIONARY
360
78
102
}
330
3B
100
AcDbMaterial
  1
Global
  0
MLINESTYLE
  5
18
102
{ACAD_REACTORS
330
17
102
}
330
17
100
AcDbMlineStyle
  2
Standard
 70
     0
  3

 62
   256
 51
90.0
 52
90.0
 71
     2
 49
0.5
 62
   256
  6
BYLAYER
 49
-0.5
 62
   256
  6
BYLAYER
  0
ACDBPLACEHOLDER
  5
F
102
{ACAD_REACTORS
330
E
102
}
330
E
  0
VISUALSTYLE
  5
2F
102
{ACAD_REACTORS
330
2A
102
}
102
{ACAD_XDICTIONARY
360
5C
102
}
330
2A
100
AcDbVisualStyle
  2
2dWireframe
 70
     4
 71
     0
 72
     2
 73
     0
 90
        0
 40
-0.6
 41
-30.0
 62
     5
 63
     7
 74
     1
 91
        4
 64
     7
 65
   257
 75
     1
175
     1
 42
1.0
 92
        0
 66
   257
 43
1.0
 76
     1
 77
     6
 78
     2
 67
     7
 79
     5
170
     0
171
     0
290
     0
174
     0
 93
        1
 44
0.0
173
     0
291
     0
 45
0.0
1001
ACAD
1000
AcDbSavedByObjectVersion
1070
     0
  0
VISUALSTYLE
  5
31
102
{ACAD_REACTORS
330
2A
102
}
102
{ACAD_XDICTIONARY
360
60
102
}
330
2A
100
AcDbVisualStyle
  2
3D Hidden
 70
     6
 71
     1
 72
     2
 73
     2
 90
        0
 40
-0.6
 41
-30.0
 62
     5
 63
     7
 74
     2
 91
        2
 64
     7
 65
   257
 75
     2
175
     1
 42
40.0
 92
        0
 66
   257
 43
1.0
 76
     1
 77
     6
 78
     2
 67
     7
 79
     3
170
     0
171
     0
290
     0
174
     0
 93
        1
 44
0.0
173
     0
291
     0
 45
0.0
1001
ACAD
1000
AcDbSavedByObjectVersion
1070
     0
  0
VISUALSTYLE
  5
30
102
{ACAD_REACTORS
330
2A
102
}
102
{ACAD_XDICTIONARY
360
5E
102
}
330
2A
100
AcDbVisualStyle
  2
3dWireframe
 70
     5
 71
     0
 72
     2
 73
     0
 90
        0
 40
-0.6
 41
-30.0
 62
     5
 63
     7
 74
     1
 91
        4
 64
     7
 65
   257
 75
     1
175
     1
 42
1.0
 92
        0
 66
   257
 43
1.0
 76
     1
 77
     6
 78
     2
 67
     7
 79
     5
170
     0
171
     0
290
     0
174
     0
 93
        1
 44
0.0
173
     0
291
     0
 45
0.0
1001
ACAD
1000
AcDbSavedByObjectVersion
1070
     0
  0
VISUALSTYLE
  5
32
102
{ACAD_REACTORS
330
2A
102
}
102
{ACAD_XDICTIONARY
360
62
102
}
330
2A
100
AcDbVisualStyle
  2
Basic
 70
     7
 71
     1
 72
     0
 73
     1
 90
        0
 40
-0.6
 41
-30.0
 62
     5
 63
     7
 74
     0
 91
        4
 64
     7
 65
   257
 75
     1
175
     1
 42
1.0
 92
        8
 66
     7
 43
1.0
 76
     1
 77
     6
 78
     2
 67
     7
 79
     5
170
     0
171
     0
290
     0
174
     0
 93
        1
 44
0.0
173
     0
291
     1
 45
0.0
1001
ACAD
1000
AcDbSavedByObjectVersion
1070
     0
  0
VISUALSTYLE
  5
36
102
{ACAD_REACTORS
330
2A
102
}
102
{ACAD_XDICTIONARY
360
6A
102
}
330
2A
100
AcDbVisualStyle
  2
Brighten
 70
    12
 71
     2
 72
     2
 73
     0
 90
        0
 40
-0.6
 41
-30.0
 62
     5
 63
     7
 74
     1
 91
        4
 64
     7
 65
   257
 75
     1
175
     1
 42
1.0
 92
        8
 66
     7
 43
1.0
 76
     1
 77
     6
 78
     2
 67
     7
 79
     5
170
     0
171
     0
290
     0
174
     0
 93
        1
 44
50.0
173
     0
291
     1
 45
0.0
1001
ACAD
1000
AcDbSavedByObjectVersion
1070
     0
  0
VISUALSTYLE
  5
3A
102
{ACAD_REACTORS
330
2A
102
}
102
{ACAD_XDICTIONARY
360
72
102
}
330
2A
100
AcDbVisualStyle
  2
ColorChange
 70
    16
 71
     2
 72
     2
 73
     3
 90
        0
 40
-0.6
 41
-30.0
 62
     5
 63
     8
 74
     1
 91
        4
 64
     7
 65
   257
 75
     1
175
     1
 42
1.0
 92
        8
 66
     8
 43
1.0
 76
     1
 77
     6
 78
     2
 67
     7
 79
     5
170
     0
171
     0
290
     0
174
     0
 93
        1
 44
0.0
173
     0
291
     1
 45
0.0
1001
ACAD
1000
AcDbSavedByObjectVersion
1070
     0
  0
VISUALSTYLE
  5
34
102
{ACAD_REACTORS
330
2A
102
}
102
{ACAD_XDICTIONARY
360
66
102
}
330
2A
100
AcDbVisualStyle
  2
Conceptual
 70
     9
 71
     3
 72
     2
 73
     0
 90
        0
 40
-0.6
 41
-30.0
 62
     5
 63
     7
 74
     2
 91
        2
 64
     7
 65
   257
 75
     1
175
     1
 42
40.0
 92
        8
 66
     7
 43
1.0
 76
     1
 77
     6
 78
     2
 67
     7
 79
     3
170
     0
171
     0
290
     0
174
     0
 93
        1
 44
0.0
173
     0
291
     0
 45
0.0
1001
ACAD
1000
AcDbSavedByObjectVersion
1070
     0
  0
VISUALSTYLE
  5
35
102
{ACAD_REACTORS
330
2A
102
}
102
{ACAD_XDICTIONARY
360
68
102
}
330
2A
100
AcDbVisualStyle
  2
Dim
 70
    11
 71
     2
 72
     2
 73
     0
 90
        0
 40
-0.6
 41
-30.0
 62
     5
 63
     7
 74
     1
 91
        4
 64
     7
 65
   257
 75
     1
175
     1
 42
1.0
 92
        8
 66
     7
 43
1.0
 76
     1
 77
     6
 78
     2
 67
     7
 79
     5
170
     0
171
     0
290
     0
174
     0
 93
        1
 44
-50.0
173
     0
291
     1
 45
0.0
1001
ACAD
1000
AcDbSavedByObjectVersion
1070
     0
  0
VISUALSTYLE
  5
39
102
{ACAD_REACTORS
330
2A
102
}
102
{ACAD_XDICTIONARY
360
70
102
}
330
2A
100
AcDbVisualStyle
  2
Facepattern
 70
    15
 71
     2
 72
     2
 73
     0
 90
        0
 40
-0.6
 41
-30.0
 62
     5
 63
     7
 74
     1
 91
        4
 64
     7
 65
   257
 75
     1
175
     1
 42
1.0
 92
        8
 66
     7
 43
1.0
 76
     1
 77
     6
 78
     2
 67
     7
 79
     5
170
     0
171
     0
290
     0
174
     0
 93
        1
 44
0.0
173
     0
291
     1
 45
0.0
1001
ACAD
1000
AcDbSavedByObjectVersion
1070
     0
  0
VISUALSTYLE
  5
2B
102
{ACAD_REACTORS
330
2A
102
}
102
{ACAD_XDICTIONARY
360
54
102
}
330
2A
100
AcDbVisualStyle
  2
Flat
 70
     0
 71
     2
 72
     1
 73
     1
 90
        2
 40
-0.6
 41
30.0
 62
     5
 63
     7
 74
     0
 91
        4
 64
     7
 65
   257
 75
     1
175
     1
 42
1.0
 92
        8
 66
     7
 43
1.0
 76
     1
 77
     6
 78
     2
 67
     7
 79
     5
170
     0
171
     0
290
     0
174
     0
 93
       13
 44
0.0
173
     0
291
     1
 45
0.0
1001
ACAD
1000
AcDbSavedByObjectVersion
1070
     0
  0
VISUALSTYLE
  5
2C
102
{ACAD_REACTORS
330
2A
102
}
102
{ACAD_XDICTIONARY
360
56
102
}
330
2A
100
AcDbVisualStyle
  2
FlatWithEdges
 70
     1
 71
     2
 72
     1
 73
     1
 90
        2
 40
-0.6
 41
30.0
 62
     5
 63
     7
 74
     1
 91
        4
 64
     7
 65
   257
 75
     1
175
     1
 42
1.0
 92
        0
 66
   257
 43
1.0
 76
     1
 77
     6
 78
     2
 67
     7
 79
     5
170
     0
171
     0
290
     0
174
     0
 93
       13
 44
0.0
173
     0
291
     1
 45
0.0
1001
ACAD
1000
AcDbSavedByObjectVersion
1070
     0
  0
VISUALSTYLE
  5
2D
102
{ACAD_REACTORS
330
2A
102
}
102
{ACAD_XDICTIONARY
360
58
102
}
330
2A
100
AcDbVisualStyle
  2
Gouraud
 70
     2
 71
     2
 72
     2
 73
     1
 90
        2
 40
-0.6
 41
30.0
 62
     5
 63
     7
 74
     0
 91
        4
 64
     7
 65
   257
 75
     1
175
     1
 42
1.0
 92
        0
 66
     7
 43
1.0
 76
     1
 77
     6
 78
     2
 67
     7
 79
     5
170
     0
171
     0
290
     0
174
     0
 93
       13
 44
0.0
173
     0
291
     1
 45
0.0
1001
ACAD
1000
AcDbSavedByObjectVersion
1070
     0
  0
VISUALSTYLE
  5
2E
102
{ACAD_REACTORS
330
2A
102
}
102
{ACAD_XDICTIONARY
360
5A
102
}
330
2A
100
AcDbVisualStyle
  2
GouraudWithEdges
 70
     3
 71
     2
 72
     2
 73
     1
 90
        2
 40
-0.6
 41
30.0
 62
     5
 63
     7
 74
     1
 91
        4
 64
     7
 65
   257
 75
     1
175
     1
 42
1.0
 92
        0
 66
   257
 43
1.0
 76
     1
 77
     6
 78
     2
 67
     7
 79
     5
170
     0
171
     0
290
     0
174
     0
 93
       13
 44
0.0
173
     0
291
     1
 45
0.0
1001
ACAD
1000
AcDbSavedByObjectVersion
1070
     0
  0
VISUALSTYLE
  5
38
102
{ACAD_REACTORS
330
2A
102
}
102
{ACAD_XDICTIONARY
360
6E
102
}
330
2A
100
AcDbVisualStyle
  2
Linepattern
 70
    14
 71
     2
 72
     2
 73
     0
 90
        0
 40
-0.6
 41
-30.0
 62
     5
 63
     7
 74
     1
 91
        4
 64
     7
 65
   257
 75
     7
175
     7
 42
1.0
 92
        8
 66
     7
 43
1.0
 76
     1
 77
     6
 78
     2
 67
     7
 79
     5
170
     0
171
     0
290
     0
174
     0
 93
        1
 44
0.0
173
     0
291
     1
 45
0.0
1001
ACAD
1000
AcDbSavedByObjectVersion
1070
     0
  0
VISUALSTYLE
  5
33
102
{ACAD_REACTORS
330
2A
102
}
102
{ACAD_XDICTIONARY
360
64
102
}
330
2A
100
AcDbVisualStyle
  2
Realistic
 70
     8
 71
     2
 72
     2
 73
     0
 90
        0
 40
-0.6
 41
-30.0
 62
     5
 63
     7
 74
     1
 91
        0
 64
     7
 65
   257
 75
     1
175
     1
 42
1.0
 92
        8
 66
     8
 43
1.0
 76
     1
 77
     6
 78
     2
 67
     7
 79
     5
170
     0
171
     0
290
     0
174
     0
 93
       13
 44
0.0
173
     0
291
     0
 45
0.0
1001
ACAD
1000
AcDbSavedByObjectVersion
1070
     0
  0
VISUALSTYLE
  5
37
102
{ACAD_REACTORS
330
2A
102
}
102
{ACAD_XDICTIONARY
360
6C
102
}
330
2A
100
AcDbVisualStyle
  2
Thicken
 70
    13
 71
     2
 72
     2
 73
     0
 90
        0
 40
-0.6
 41
-30.0
 62
     5
 63
     7
 74
     1
 91
        4
 64
     7
 65
   257
 75
     1
175
     1
 42
1.0
 92
       12
 66
     7
 43
1.0
 76
     1
 77
     6
 78
     2
 67
     7
 79
     5
170
     0
171
     0
290
     0
174
     0
 93
        1
 44
0.0
173
     0
291
     1
 45
0.0
1001
ACAD
1000
AcDbSavedByObjectVersion
1070
     0
  0
DICTIONARYVAR
  5
52
102
{ACAD_REACTORS
330
4F
102
}
330
4F
100
DictionaryVariables
280
     0
  1
2
  0
DICTIONARYVAR
  5
53
102
{ACAD_REACTORS
330
4F
102
}
330
4F
100
DictionaryVariables
280
     0
  1
1
  0
DICTIONARY
  5
76
330
3D
100
AcDbDictionary
280
     1
281
     1
  3
ACAD_XREC_ROUNDTRIP
360
77
  0
DICTIONARY
  5
74
330
3C
100
AcDbDictionary
280
     1
281
     1
  3
ACAD_XREC_ROUNDTRIP
360
75
  0
DICTIONARY
  5
78
330
3E
100
AcDbDictionary
280
     1
281
     1
  3
ACAD_XREC_ROUNDTRIP
360
79
  0
DICTIONARY
  5
5C
330
2F
100
AcDbDictionary
280
     1
281
     1
  3
ACAD_XREC_ROUNDTRIP
360
5D
  0
DICTIONARY
  5
60
330
31
100
AcDbDictionary
280
     1
281
     1
  3
ACAD_XREC_ROUNDTRIP
360
61
  0
DICTIONARY
  5
5E
330
30
100
AcDbDictionary
280
     1
281
     1
  3
ACAD_XREC_ROUNDTRIP
360
5F
  0
DICTIONARY
  5
62
330
32
100
AcDbDictionary
280
     1
281
     1
  3
ACAD_XREC_ROUNDTRIP
360
63
  0
DICTIONARY
  5
6A
330
36
100
AcDbDictionary
280
     1
281
     1
  3
ACAD_XREC_ROUNDTRIP
360
6B
  0
DICTIONARY
  5
72
330
3A
100
AcDbDictionary
280
     1
281
     1
  3
ACAD_XREC_ROUNDTRIP
360
73
  0
DICTIONARY
  5
66
330
34
100
AcDbDictionary
280
     1
281
     1
  3
ACAD_XREC_ROUNDTRIP
360
67
  0
DICTIONARY
  5
68
330
35
100
AcDbDictionary
280
     1
281
     1
  3
ACAD_XREC_ROUNDTRIP
360
69
  0
DICTIONARY
  5
70
330
39
100
AcDbDictionary
280
     1
281
     1
  3
ACAD_XREC_ROUNDTRIP
360
71
  0
DICTIONARY
  5
54
330
2B
100
AcDbDictionary
280
     1
281
     1
  3
ACAD_XREC_ROUNDTRIP
360
55
  0
DICTIONARY
  5
56
330
2C
100
AcDbDictionary
280
     1
281
     1
  3
ACAD_XREC_ROUNDTRIP
360
57
  0
DICTIONARY
  5
58
330
2D
100
AcDbDictionary
280
     1
281
     1
  3
ACAD_XREC_ROUNDTRIP
360
59
  0
DICTIONARY
  5
5A
330
2E
100
AcDbDictionary
280
     1
281
     1
  3
ACAD_XREC_ROUNDTRIP
360
5B
  0
DICTIONARY
  5
6E
330
38
100
AcDbDictionary
280
     1
281
     1
  3
ACAD_XREC_ROUNDTRIP
360
6F
  0
DICTIONARY
  5
64
330
33
100
AcDbDictionary
280
     1
281
     1
  3
ACAD_XREC_ROUNDTRIP
360
65
  0
DICTIONARY
  5
6C
330
37
100
AcDbDictionary
280
     1
281
     1
  3
ACAD_XREC_ROUNDTRIP
360
6D
  0
XRECORD
  5
77
102
{ACAD_REACTORS
330
76
102
}
330
76
100
AcDbXrecord
280
     1
102
MATERIAL
148
0.0
149
0.0
149
0.0
 93
        0
 94
      127
282
     0
 72
     1
 77
     1
171
     1
175
     1
179
     1
273
     0
  0
XRECORD
  5
75
102
{ACAD_REACTORS
330
74
102
}
330
74
100
AcDbXrecord
280
     1
102
MATERIAL
148
0.0
149
0.0
149
0.0
 93
        0
 94
      127
282
     0
 72
     1
 77
     1
171
     1
175
     1
179
     1
273
     0
  0
XRECORD
  5
79
102
{ACAD_REACTORS
330
78
102
}
330
78
100
AcDbXrecord
280
     1
102
MATERIAL
148
0.0
149
0.0
149
0.0
 93
        0
 94
      127
282
     0
 72
     1
 77
     1
171
     1
175
     1
179
     1
273
     0
  0
XRECORD
  5
5D
102
{ACAD_REACTORS
330
5C
102
}
330
5C
100
AcDbXrecord
280
     1
102
RTVSPropertyOp0
 70
     1
102
RTVSPropertyOp1
 70
     1
102
RTVSPropertyOp2
 70
     1
102
RTVSPropertyOp3
 70
     1
102
RTVSPropertyOp4
 70
     1
102
RTVSPropertyOp5
 70
     1
102
RTVSPropertyOp6
 70
     1
102
RTVSPropertyOp7
 70
     1
102
RTVSPropertyOp8
 70
     1
102
RTVSPropertyOp9
 70
     1
102
RTVSPropertyOp10
 70
     1
102
RTVSPropertyOp11
 70
     1
102
RTVSPropertyOp12
 70
     1
102
RTVSPropertyOp13
 70
     1
102
RTVSPropertyOp14
 70
     1
102
RTVSPropertyOp15
 70
     1
102
RTVSPropertyOp16
 70
     1
102
RTVSPropertyOp17
 70
     1
102
RTVSPropertyOp18
 70
     1
102
RTVSPropertyOp19
 70
     1
102
RTVSPropertyOp20
 70
     1
102
RTVSPropertyOp21
 70
     1
102
RTVSPropertyOp22
 70
     1
102
RTVSPropertyOp23
 70
     1
102
RTVSPropertyOp24
 70
     1
102
RTVSPropertyOp25
 70
     1
102
RTVSPropertyOp26
 70
     1
102
RTVSPropertyOp27
 70
     1
102
RTVSPropertyOp28
 70
     1
102
RTVSPropertyOp29
 70
     1
102
RTVSPropertyOp30
 70
     1
102
RTVSPropertyOp31
 70
     1
102
RTVSPropertyOp32
 70
     1
  0
XRECORD
  5
61
102
{ACAD_REACTORS
330
60
102
}
330
60
100
AcDbXrecord
280
     1
102
RTVSPropertyOp0
 70
     1
102
RTVSPropertyOp1
 70
     1
102
RTVSPropertyOp2
 70
     1
102
RTVSPropertyOp3
 70
     1
102
RTVSPropertyOp4
 70
     1
102
RTVSPropertyOp5
 70
     1
102
RTVSPropertyOp6
 70
     1
102
RTVSPropertyOp7
 70
     1
102
RTVSPropertyOp8
 70
     1
102
RTVSPropertyOp9
 70
     1
102
RTVSPropertyOp10
 70
     1
102
RTVSPropertyOp11
 70
     1
102
RTVSPropertyOp12
 70
     1
102
RTVSPropertyOp13
 70
     1
102
RTVSPropertyOp14
 70
     1
102
RTVSPropertyOp15
 70
     1
102
RTVSPropertyOp16
 70
     1
102
RTVSPropertyOp17
 70
     1
102
RTVSPropertyOp18
 70
     1
102
RTVSPropertyOp19
 70
     1
102
RTVSPropertyOp20
 70
     1
102
RTVSPropertyOp21
 70
     1
102
RTVSPropertyOp22
 70
     1
102
RTVSPropertyOp23
 70
     1
102
RTVSPropertyOp24
 70
     1
102
RTVSPropertyOp25
 70
     1
102
RTVSPropertyOp26
 70
     1
102
RTVSPropertyOp27
 70
     1
102
RTVSPropertyOp28
 70
     1
102
RTVSPropertyOp29
 70
     1
102
RTVSPropertyOp30
 70
     1
102
RTVSPropertyOp31
 70
     1
102
RTVSPropertyOp32
 70
     1
  0
XRECORD
  5
5F
102
{ACAD_REACTORS
330
5E
102
}
330
5E
100
AcDbXrecord
280
     1
102
RTVSPropertyOp0
 70
     1
102
RTVSPropertyOp1
 70
     1
102
RTVSPropertyOp2
 70
     1
102
RTVSPropertyOp3
 70
     1
102
RTVSPropertyOp4
 70
     1
102
RTVSPropertyOp5
 70
     1
102
RTVSPropertyOp6
 70
     1
102
RTVSPropertyOp7
 70
     1
102
RTVSPropertyOp8
 70
     1
102
RTVSPropertyOp9
 70
     1
102
RTVSPropertyOp10
 70
     1
102
RTVSPropertyOp11
 70
     1
102
RTVSPropertyOp12
 70
     1
102
RTVSPropertyOp13
 70
     1
102
RTVSPropertyOp14
 70
     1
102
RTVSPropertyOp15
 70
     1
102
RTVSPropertyOp16
 70
     1
102
RTVSPropertyOp17
 70
     1
102
RTVSPropertyOp18
 70
     1
102
RTVSPropertyOp19
 70
     1
102
RTVSPropertyOp20
 70
     1
102
RTVSPropertyOp21
 70
     1
102
RTVSPropertyOp22
 70
     1
102
RTVSPropertyOp23
 70
     1
102
RTVSPropertyOp24
 70
     1
102
RTVSPropertyOp25
 70
     1
102
RTVSPropertyOp26
 70
     1
102
RTVSPropertyOp27
 70
     1
102
RTVSPropertyOp28
 70
     1
102
RTVSPropertyOp29
 70
     1
102
RTVSPropertyOp30
 70
     1
102
RTVSPropertyOp31
 70
     1
102
RTVSPropertyOp32
 70
     1
  0
XRECORD
  5
63
102
{ACAD_REACTORS
330
62
102
}
330
62
100
AcDbXrecord
280
     1
102
RTVSPropertyOp0
 70
     1
102
RTVSPropertyOp1
 70
     1
102
RTVSPropertyOp2
 70
     1
102
RTVSPropertyOp3
 70
     1
102
RTVSPropertyOp4
 70
     1
102
RTVSPropertyOp5
 70
     1
102
RTVSPropertyOp6
 70
     1
102
RTVSPropertyOp7
 70
     1
102
RTVSPropertyOp8
 70
     1
102
RTVSPropertyOp9
 70
     1
102
RTVSPropertyOp10
 70
     1
102
RTVSPropertyOp11
 70
     1
102
RTVSPropertyOp12
 70
     1
102
RTVSPropertyOp13
 70
     1
102
RTVSPropertyOp14
 70
     1
102
RTVSPropertyOp15
 70
     1
102
RTVSPropertyOp16
 70
     1
102
RTVSPropertyOp17
 70
     1
102
RTVSPropertyOp18
 70
     1
102
RTVSPropertyOp19
 70
     1
102
RTVSPropertyOp20
 70
     1
102
RTVSPropertyOp21
 70
     1
102
RTVSPropertyOp22
 70
     1
102
RTVSPropertyOp23
 70
     1
102
RTVSPropertyOp24
 70
     1
102
RTVSPropertyOp25
 70
     1
102
RTVSPropertyOp26
 70
     1
102
RTVSPropertyOp27
 70
     1
102
RTVSPropertyOp28
 70
     1
102
RTVSPropertyOp29
 70
     1
102
RTVSPropertyOp30
 70
     1
102
RTVSPropertyOp31
 70
     1
102
RTVSPropertyOp32
 70
     1
  0
XRECORD
  5
6B
102
{ACAD_REACTORS
330
6A
102
}
330
6A
100
AcDbXrecord
280
     1
102
RTVSPropertyOp0
 70
     1
102
RTVSPropertyOp1
 70
     1
102
RTVSPropertyOp2
 70
     1
102
RTVSPropertyOp3
 70
     1
102
RTVSPropertyOp4
 70
     1
102
RTVSPropertyOp5
 70
     1
102
RTVSPropertyOp6
 70
     1
102
RTVSPropertyOp7
 70
     1
102
RTVSPropertyOp8
 70
     1
102
RTVSPropertyOp9
 70
     1
102
RTVSPropertyOp10
 70
     1
102
RTVSPropertyOp11
 70
     1
102
RTVSPropertyOp12
 70
     1
102
RTVSPropertyOp13
 70
     1
102
RTVSPropertyOp14
 70
     1
102
RTVSPropertyOp15
 70
     1
102
RTVSPropertyOp16
 70
     1
102
RTVSPropertyOp17
 70
     1
102
RTVSPropertyOp18
 70
     1
102
RTVSPropertyOp19
 70
     1
102
RTVSPropertyOp20
 70
     1
102
RTVSPropertyOp21
 70
     1
102
RTVSPropertyOp22
 70
     1
102
RTVSPropertyOp23
 70
     1
102
RTVSPropertyOp24
 70
     1
102
RTVSPropertyOp25
 70
     1
102
RTVSPropertyOp26
 70
     1
102
RTVSPropertyOp27
 70
     1
102
RTVSPropertyOp28
 70
     1
102
RTVSPropertyOp29
 70
     1
102
RTVSPropertyOp30
 70
     1
102
RTVSPropertyOp31
 70
     1
102
RTVSPropertyOp32
 70
     1
  0
XRECORD
  5
73
102
{ACAD_REACTORS
330
72
102
}
330
72
100
AcDbXrecord
280
     1
102
RTVSPropertyOp0
 70
     1
102
RTVSPropertyOp1
 70
     1
102
RTVSPropertyOp2
 70
     1
102
RTVSPropertyOp3
 70
     1
102
RTVSPropertyOp4
 70
     1
102
RTVSPropertyOp5
 70
     1
102
RTVSPropertyOp6
 70
     1
102
RTVSPropertyOp7
 70
     1
102
RTVSPropertyOp8
 70
     1
102
RTVSPropertyOp9
 70
     1
102
RTVSPropertyOp10
 70
     1
102
RTVSPropertyOp11
 70
     1
102
RTVSPropertyOp12
 70
     1
102
RTVSPropertyOp13
 70
     1
102
RTVSPropertyOp14
 70
     1
102
RTVSPropertyOp15
 70
     1
102
RTVSPropertyOp16
 70
     1
102
RTVSPropertyOp17
 70
     1
102
RTVSPropertyOp18
 70
     1
102
RTVSPropertyOp19
 70
     1
102
RTVSPropertyOp20
 70
     1
102
RTVSPropertyOp21
 70
     1
102
RTVSPropertyOp22
 70
     1
102
RTVSPropertyOp23
 70
     1
102
RTVSPropertyOp24
 70
     1
102
RTVSPropertyOp25
 70
     1
102
RTVSPropertyOp26
 70
     1
102
RTVSPropertyOp27
 70
     1
102
RTVSPropertyOp28
 70
     1
102
RTVSPropertyOp29
 70
     1
102
RTVSPropertyOp30
 70
     1
102
RTVSPropertyOp31
 70
     1
102
RTVSPropertyOp32
 70
     1
  0
XRECORD
  5
67
102
{ACAD_REACTORS
330
66
102
}
330
66
100
AcDbXrecord
280
     1
102
RTVSPropertyOp0
 70
     1
102
RTVSPropertyOp1
 70
     1
102
RTVSPropertyOp2
 70
     1
102
RTVSPropertyOp3
 70
     1
102
RTVSPropertyOp4
 70
     1
102
RTVSPropertyOp5
 70
     1
102
RTVSPropertyOp6
 70
     1
102
RTVSPropertyOp7
 70
     1
102
RTVSPropertyOp8
 70
     1
102
RTVSPropertyOp9
 70
     1
102
RTVSPropertyOp10
 70
     1
102
RTVSPropertyOp11
 70
     1
102
RTVSPropertyOp12
 70
     1
102
RTVSPropertyOp13
 70
     1
102
RTVSPropertyOp14
 70
     1
102
RTVSPropertyOp15
 70
     1
102
RTVSPropertyOp16
 70
     1
102
RTVSPropertyOp17
 70
     1
102
RTVSPropertyOp18
 70
     1
102
RTVSPropertyOp19
 70
     1
102
RTVSPropertyOp20
 70
     1
102
RTVSPropertyOp21
 70
     1
102
RTVSPropertyOp22
 70
     1
102
RTVSPropertyOp23
 70
     1
102
RTVSPropertyOp24
 70
     1
102
RTVSPropertyOp25
 70
     1
102
RTVSPropertyOp26
 70
     1
102
RTVSPropertyOp27
 70
     1
102
RTVSPropertyOp28
 70
     1
102
RTVSPropertyOp29
 70
     1
102
RTVSPropertyOp30
 70
     1
102
RTVSPropertyOp31
 70
     1
102
RTVSPropertyOp32
 70
     1
  0
XRECORD
  5
69
102
{ACAD_REACTORS
330
68
102
}
330
68
100
AcDbXrecord
280
     1
102
RTVSPropertyOp0
 70
     1
102
RTVSPropertyOp1
 70
     1
102
RTVSPropertyOp2
 70
     1
102
RTVSPropertyOp3
 70
     1
102
RTVSPropertyOp4
 70
     1
102
RTVSPropertyOp5
 70
     1
102
RTVSPropertyOp6
 70
     1
102
RTVSPropertyOp7
 70
     1
102
RTVSPropertyOp8
 70
     1
102
RTVSPropertyOp9
 70
     1
102
RTVSPropertyOp10
 70
     1
102
RTVSPropertyOp11
 70
     1
102
RTVSPropertyOp12
 70
     1
102
RTVSPropertyOp13
 70
     1
102
RTVSPropertyOp14
 70
     1
102
RTVSPropertyOp15
 70
     1
102
RTVSPropertyOp16
 70
     1
102
RTVSPropertyOp17
 70
     1
102
RTVSPropertyOp18
 70
     1
102
RTVSPropertyOp19
 70
     1
102
RTVSPropertyOp20
 70
     1
102
RTVSPropertyOp21
 70
     1
102
RTVSPropertyOp22
 70
     1
102
RTVSPropertyOp23
 70
     1
102
RTVSPropertyOp24
 70
     1
102
RTVSPropertyOp25
 70
     1
102
RTVSPropertyOp26
 70
     1
102
RTVSPropertyOp27
 70
     1
102
RTVSPropertyOp28
 70
     1
102
RTVSPropertyOp29
 70
     1
102
RTVSPropertyOp30
 70
     1
102
RTVSPropertyOp31
 70
     1
102
RTVSPropertyOp32
 70
     1
  0
XRECORD
  5
71
102
{ACAD_REACTORS
330
70
102
}
330
70
100
AcDbXrecord
280
     1
102
RTVSPropertyOp0
 70
     1
102
RTVSPropertyOp1
 70
     1
102
RTVSPropertyOp2
 70
     1
102
RTVSPropertyOp3
 70
     1
102
RTVSPropertyOp4
 70
     1
102
RTVSPropertyOp5
 70
     1
102
RTVSPropertyOp6
 70
     1
102
RTVSPropertyOp7
 70
     1
102
RTVSPropertyOp8
 70
     1
102
RTVSPropertyOp9
 70
     1
102
RTVSPropertyOp10
 70
     1
102
RTVSPropertyOp11
 70
     1
102
RTVSPropertyOp12
 70
     1
102
RTVSPropertyOp13
 70
     1
102
RTVSPropertyOp14
 70
     1
102
RTVSPropertyOp15
 70
     1
102
RTVSPropertyOp16
 70
     1
102
RTVSPropertyOp17
 70
     1
102
RTVSPropertyOp18
 70
     1
102
RTVSPropertyOp19
 70
     1
102
RTVSPropertyOp20
 70
     1
102
RTVSPropertyOp21
 70
     1
102
RTVSPropertyOp22
 70
     1
102
RTVSPropertyOp23
 70
     1
102
RTVSPropertyOp24
 70
     1
102
RTVSPropertyOp25
 70
     1
102
RTVSPropertyOp26
 70
     1
102
RTVSPropertyOp27
 70
     1
102
RTVSPropertyOp28
 70
     1
102
RTVSPropertyOp29
 70
     1
102
RTVSPropertyOp30
 70
     1
102
RTVSPropertyOp31
 70
     1
102
RTVSPropertyOp32
 70
     1
  0
XRECORD
  5
55
102
{ACAD_REACTORS
330
54
102
}
330
54
100
AcDbXrecord
280
     1
102
RTVSPropertyOp0
 70
     1
102
RTVSPropertyOp1
 70
     1
102
RTVSPropertyOp2
 70
     1
102
RTVSPropertyOp3
 70
     1
102
RTVSPropertyOp4
 70
     1
102
RTVSPropertyOp5
 70
     1
102
RTVSPropertyOp6
 70
     1
102
RTVSPropertyOp7
 70
     1
102
RTVSPropertyOp8
 70
     1
102
RTVSPropertyOp9
 70
     1
102
RTVSPropertyOp10
 70
     1
102
RTVSPropertyOp11
 70
     1
102
RTVSPropertyOp12
 70
     1
102
RTVSPropertyOp13
 70
     1
102
RTVSPropertyOp14
 70
     1
102
RTVSPropertyOp15
 70
     1
102
RTVSPropertyOp16
 70
     1
102
RTVSPropertyOp17
 70
     1
102
RTVSPropertyOp18
 70
     1
102
RTVSPropertyOp19
 70
     1
102
RTVSPropertyOp20
 70
     1
102
RTVSPropertyOp21
 70
     1
102
RTVSPropertyOp22
 70
     1
102
RTVSPropertyOp23
 70
     1
102
RTVSPropertyOp24
 70
     1
102
RTVSPropertyOp25
 70
     1
102
RTVSPropertyOp26
 70
     1
102
RTVSPropertyOp27
 70
     1
102
RTVSPropertyOp28
 70
     1
102
RTVSPropertyOp29
 70
     1
102
RTVSPropertyOp30
 70
     1
102
RTVSPropertyOp31
 70
     1
102
RTVSPropertyOp32
 70
     1
  0
XRECORD
  5
57
102
{ACAD_REACTORS
330
56
102
}
330
56
100
AcDbXrecord
280
     1
102
RTVSPropertyOp0
 70
     1
102
RTVSPropertyOp1
 70
     1
102
RTVSPropertyOp2
 70
     1
102
RTVSPropertyOp3
 70
     1
102
RTVSPropertyOp4
 70
     1
102
RTVSPropertyOp5
 70
     1
102
RTVSPropertyOp6
 70
     1
102
RTVSPropertyOp7
 70
     1
102
RTVSPropertyOp8
 70
     1
102
RTVSPropertyOp9
 70
     1
102
RTVSPropertyOp10
 70
     1
102
RTVSPropertyOp11
 70
     1
102
RTVSPropertyOp12
 70
     1
102
RTVSPropertyOp13
 70
     1
102
RTVSPropertyOp14
 70
     1
102
RTVSPropertyOp15
 70
     1
102
RTVSPropertyOp16
 70
     1
102
RTVSPropertyOp17
 70
     1
102
RTVSPropertyOp18
 70
     1
102
RTVSPropertyOp19
 70
     1
102
RTVSPropertyOp20
 70
     1
102
RTVSPropertyOp21
 70
     1
102
RTVSPropertyOp22
 70
     1
102
RTVSPropertyOp23
 70
     1
102
RTVSPropertyOp24
 70
     1
102
RTVSPropertyOp25
 70
     1
102
RTVSPropertyOp26
 70
     1
102
RTVSPropertyOp27
 70
     1
102
RTVSPropertyOp28
 70
     1
102
RTVSPropertyOp29
 70
     1
102
RTVSPropertyOp30
 70
     1
102
RTVSPropertyOp31
 70
     1
102
RTVSPropertyOp32
 70
     1
  0
XRECORD
  5
59
102
{ACAD_REACTORS
330
58
102
}
330
58
100
AcDbXrecord
280
     1
102
RTVSPropertyOp0
 70
     1
102
RTVSPropertyOp1
 70
     1
102
RTVSPropertyOp2
 70
     1
102
RTVSPropertyOp3
 70
     1
102
RTVSPropertyOp4
 70
     1
102
RTVSPropertyOp5
 70
     1
102
RTVSPropertyOp6
 70
     1
102
RTVSPropertyOp7
 70
     1
102
RTVSPropertyOp8
 70
     1
102
RTVSPropertyOp9
 70
     1
102
RTVSPropertyOp10
 70
     1
102
RTVSPropertyOp11
 70
     1
102
RTVSPropertyOp12
 70
     1
102
RTVSPropertyOp13
 70
     1
102
RTVSPropertyOp14
 70
     1
102
RTVSPropertyOp15
 70
     1
102
RTVSPropertyOp16
 70
     1
102
RTVSPropertyOp17
 70
     1
102
RTVSPropertyOp18
 70
     1
102
RTVSPropertyOp19
 70
     1
102
RTVSPropertyOp20
 70
     1
102
RTVSPropertyOp21
 70
     1
102
RTVSPropertyOp22
 70
     1
102
RTVSPropertyOp23
 70
     1
102
RTVSPropertyOp24
 70
     1
102
RTVSPropertyOp25
 70
     1
102
RTVSPropertyOp26
 70
     1
102
RTVSPropertyOp27
 70
     1
102
RTVSPropertyOp28
 70
     1
102
RTVSPropertyOp29
 70
     1
102
RTVSPropertyOp30
 70
     1
102
RTVSPropertyOp31
 70
     1
102
RTVSPropertyOp32
 70
     1
  0
XRECORD
  5
5B
102
{ACAD_REACTORS
330
5A
102
}
330
5A
100
AcDbXrecord
280
     1
102
RTVSPropertyOp0
 70
     1
102
RTVSPropertyOp1
 70
     1
102
RTVSPropertyOp2
 70
     1
102
RTVSPropertyOp3
 70
     1
102
RTVSPropertyOp4
 70
     1
102
RTVSPropertyOp5
 70
     1
102
RTVSPropertyOp6
 70
     1
102
RTVSPropertyOp7
 70
     1
102
RTVSPropertyOp8
 70
     1
102
RTVSPropertyOp9
 70
     1
102
RTVSPropertyOp10
 70
     1
102
RTVSPropertyOp11
 70
     1
102
RTVSPropertyOp12
 70
     1
102
RTVSPropertyOp13
 70
     1
102
RTVSPropertyOp14
 70
     1
102
RTVSPropertyOp15
 70
     1
102
RTVSPropertyOp16
 70
     1
102
RTVSPropertyOp17
 70
     1
102
RTVSPropertyOp18
 70
     1
102
RTVSPropertyOp19
 70
     1
102
RTVSPropertyOp20
 70
     1
102
RTVSPropertyOp21
 70
     1
102
RTVSPropertyOp22
 70
     1
102
RTVSPropertyOp23
 70
     1
102
RTVSPropertyOp24
 70
     1
102
RTVSPropertyOp25
 70
     1
102
RTVSPropertyOp26
 70
     1
102
RTVSPropertyOp27
 70
     1
102
RTVSPropertyOp28
 70
     1
102
RTVSPropertyOp29
 70
     1
102
RTVSPropertyOp30
 70
     1
102
RTVSPropertyOp31
 70
     1
102
RTVSPropertyOp32
 70
     1
  0
XRECORD
  5
6F
102
{ACAD_REACTORS
330
6E
102
}
330
6E
100
AcDbXrecord
280
     1
102
RTVSPropertyOp0
 70
     1
102
RTVSPropertyOp1
 70
     1
102
RTVSPropertyOp2
 70
     1
102
RTVSPropertyOp3
 70
     1
102
RTVSPropertyOp4
 70
     1
102
RTVSPropertyOp5
 70
     1
102
RTVSPropertyOp6
 70
     1
102
RTVSPropertyOp7
 70
     1
102
RTVSPropertyOp8
 70
     1
102
RTVSPropertyOp9
 70
     1
102
RTVSPropertyOp10
 70
     1
102
RTVSPropertyOp11
 70
     1
102
RTVSPropertyOp12
 70
     1
102
RTVSPropertyOp13
 70
     1
102
RTVSPropertyOp14
 70
     1
102
RTVSPropertyOp15
 70
     1
102
RTVSPropertyOp16
 70
     1
102
RTVSPropertyOp17
 70
     1
102
RTVSPropertyOp18
 70
     1
102
RTVSPropertyOp19
 70
     1
102
RTVSPropertyOp20
 70
     1
102
RTVSPropertyOp21
 70
     1
102
RTVSPropertyOp22
 70
     1
102
RTVSPropertyOp23
 70
     1
102
RTVSPropertyOp24
 70
     1
102
RTVSPropertyOp25
 70
     1
102
RTVSPropertyOp26
 70
     1
102
RTVSPropertyOp27
 70
     1
102
RTVSPropertyOp28
 70
     1
102
RTVSPropertyOp29
 70
     1
102
RTVSPropertyOp30
 70
     1
102
RTVSPropertyOp31
 70
     1
102
RTVSPropertyOp32
 70
     1
  0
XRECORD
  5
65
102
{ACAD_REACTORS
330
64
102
}
330
64
100
AcDbXrecord
280
     1
102
RTVSPropertyOp0
 70
     1
102
RTVSPropertyOp1
 70
     1
102
RTVSPropertyOp2
 70
     1
102
RTVSPropertyOp3
 70
     1
102
RTVSPropertyOp4
 70
     1
102
RTVSPropertyOp5
 70
     1
102
RTVSPropertyOp6
 70
     1
102
RTVSPropertyOp7
 70
     1
102
RTVSPropertyOp8
 70
     1
102
RTVSPropertyOp9
 70
     1
102
RTVSPropertyOp10
 70
     1
102
RTVSPropertyOp11
 70
     1
102
RTVSPropertyOp12
 70
     1
102
RTVSPropertyOp13
 70
     1
102
RTVSPropertyOp14
 70
     1
102
RTVSPropertyOp15
 70
     1
102
RTVSPropertyOp16
 70
     1
102
RTVSPropertyOp17
 70
     1
102
RTVSPropertyOp18
 70
     1
102
RTVSPropertyOp19
 70
     1
102
RTVSPropertyOp20
 70
     1
102
RTVSPropertyOp21
 70
     1
102
RTVSPropertyOp22
 70
     1
102
RTVSPropertyOp23
 70
     1
102
RTVSPropertyOp24
 70
     1
102
RTVSPropertyOp25
 70
     1
102
RTVSPropertyOp26
 70
     1
102
RTVSPropertyOp27
 70
     1
102
RTVSPropertyOp28
 70
     1
102
RTVSPropertyOp29
 70
     1
102
RTVSPropertyOp30
 70
     1
102
RTVSPropertyOp31
 70
     1
102
RTVSPropertyOp32
 70
     1
  0
XRECORD
  5
6D
102
{ACAD_REACTORS
330
6C
102
}
330
6C
100
AcDbXrecord
280
     1
102
RTVSPropertyOp0
 70
     1
102
RTVSPropertyOp1
 70
     1
102
RTVSPropertyOp2
 70
     1
102
RTVSPropertyOp3
 70
     1
102
RTVSPropertyOp4
 70
     1
102
RTVSPropertyOp5
 70
     1
102
RTVSPropertyOp6
 70
     1
102
RTVSPropertyOp7
 70
     1
102
RTVSPropertyOp8
 70
     1
102
RTVSPropertyOp9
 70
     1
102
RTVSPropertyOp10
 70
     1
102
RTVSPropertyOp11
 70
     1
102
RTVSPropertyOp12
 70
     1
102
RTVSPropertyOp13
 70
     1
102
RTVSPropertyOp14
 70
     1
102
RTVSPropertyOp15
 70
     1
102
RTVSPropertyOp16
 70
     1
102
RTVSPropertyOp17
 70
     1
102
RTVSPropertyOp18
 70
     1
102
RTVSPropertyOp19
 70
     1
102
RTVSPropertyOp20
 70
     1
102
RTVSPropertyOp21
 70
     1
102
RTVSPropertyOp22
 70
     1
102
RTVSPropertyOp23
 70
     1
102
RTVSPropertyOp24
 70
     1
102
RTVSPropertyOp25
 70
     1
102
RTVSPropertyOp26
 70
     1
102
RTVSPropertyOp27
 70
     1
102
RTVSPropertyOp28
 70
     1
102
RTVSPropertyOp29
 70
     1
102
RTVSPropertyOp30
 70
     1
102
RTVSPropertyOp31
 70
     1
102
RTVSPropertyOp32
 70
     1
  0
ENDSEC
  0
EOF
