  0
SECTION
  2
HEADER
  9
$ACADVER
  1
AC1015
  9
$ACADMAINTVER
 70
     6
  9
$DWGCODEPAGE
  3
ANSI_1252
  9
$INSBASE
 10
0.0
 20
0.0
 30
0.0
  9
$EXTMIN
 10
-77.225
 20
-101.0113
 30
0.0
  9
$EXTMAX
 10
77.225
 20
101.0113
 30
0.0
  9
$LIMMIN
 10
0.0
 20
0.0
  9
$LIMMAX
 10
12.0
 20
9.0
  9
$ORTHOMODE
 70
     0
  9
$REGENMODE
 70
     1
  9
$FILLMODE
 70
     1
  9
$QTEXTMODE
 70
     0
  9
$MIRRTEXT
 70
     1
  9
$LTSCALE
 40
1.0
  9
$ATTMODE
 70
     1
  9
$TEXTSIZE
 40
0.2
  9
$TRACEWID
 40
0.05
  9
$TEXTSTYLE
  7
Standard
  9
$CLAYER
  8
0
  9
$CELTYPE
  6
ByLayer
  9
$CECOLOR
 62
   256
  9
$CELTSCALE
 40
1.0
  9
$DISPSILH
 70
     0
  9
$DIMSCALE
 40
1.0
  9
$DIMASZ
 40
0.18
  9
$DIMEXO
 40
0.0625
  9
$DIMDLI
 40
0.38
  9
$DIMRND
 40
0.0
  9
$DIMDLE
 40
0.0
  9
$DIMEXE
 40
0.18
  9
$DIMTP
 40
0.0
  9
$DIMTM
 40
0.0
  9
$DIMTXT
 40
0.18
  9
$DIMCEN
 40
0.09
  9
$DIMTSZ
 40
0.0
  9
$DIMTOL
 70
     0
  9
$DIMLIM
 70
     0
  9
$DIMTIH
 70
     1
  9
$DIMTOH
 70
     1
  9
$DIMSE1
 70
     0
  9
$DIMSE2
 70
     0
  9
$DIMTAD
 70
     0
  9
$DIMZIN
 70
     0
  9
$DIMBLK
  1

  9
$DIMASO
 70
     1
  9
$DIMSHO
 70
     1
  9
$DIMPOST
  1

  9
$DIMAPOST
  1

  9
$DIMALT
 70
     0
  9
$DIMALTD
 70
     2
  9
$DIMALTF
 40
25.4
  9
$DIMLFAC
 40
1.0
  9
$DIMTOFL
 70
     0
  9
$DIMTVP
 40
0.0
  9
$DIMTIX
 70
     0
  9
$DIMSOXD
 70
     0
  9
$DIMSAH
 70
     0
  9
$DIMBLK1
  1

  9
$DIMBLK2
  1

  9
$DIMSTYLE
  2
Standard
  9
$DIMCLRD
 70
     0
  9
$DIMCLRE
 70
     0
  9
$DIMCLRT
 70
     0
  9
$DIMTFAC
 40
1.0
  9
$DIMGAP
 40
0.09
  9
$DIMJUST
 70
     0
  9
$DIMSD1
 70
     0
  9
$DIMSD2
 70
     0
  9
$DIMTOLJ
 70
     1
  9
$DIMTZIN
 70
     0
  9
$DIMALTZ
 70
     0
  9
$DIMALTTZ
 70
     0
  9
$DIMUPT
 70
     0
  9
$DIMDEC
 70
     4
  9
$DIMTDEC
 70
     4
  9
$DIMALTU
 70
     2
  9
$DIMALTTD
 70
     2
  9
$DIMTXSTY
  7
Standard
  9
$DIMAUNIT
 70
     0
  9
$DIMADEC
 70
     0
  9
$DIMALTRND
 40
0.0
  9
$DIMAZIN
 70
     0
  9
$DIMDSEP
 70
    46
  9
$DIMATFIT
 70
     3
  9
$DIMFRAC
 70
     0
  9
$DIMLDRBLK
  1

  9
$DIMLUNIT
 70
     2
  9
$DIMLWD
 70
    -2
  9
$DIMLWE
 70
    -2
  9
$DIMTMOVE
 70
     0
  9
$LUNITS
 70
     2
  9
$LUPREC
 70
     4
  9
$SKETCHINC
 40
0.1
  9
$FILLETRAD
 40
0.5
  9
$AUNITS
 70
     0
  9
$AUPREC
 70
     0
  9
$MENU
  1
.
  9
$ELEVATION
 40
0.0
  9
$PELEVATION
 40
0.0
  9
$THICKNESS
 40
0.0
  9
$LIMCHECK
 70
     0
  9
$CHAMFERA
 40
0.5
  9
$CHAMFERB
 40
0.5
  9
$CHAMFERC
 40
1.0
  9
$CHAMFERD
 40
0.0
  9
$SKPOLY
 70
     0
  9
$TDCREATE
 40
2457268.92283125
  9
$TDUCREATE
 40
2457269.04783125
  9
$TDUPDATE
 40
2457268.922831597
  9
$TDUUPDATE
 40
2457269.047831597
  9
$TDINDWG
 40
0.0000000116
  9
$TDUSRTIMER
 40
0.0000000116
  9
$USRTIMER
 70
     1
  9
$ANGBASE
 50
0.0
  9
$ANGDIR
 70
     0
  9
$PDMODE
 70
     0
  9
$PDSIZE
 40
0.0
  9
$PLINEWID
 40
0.0
  9
$SPLFRAME
 70
     0
  9
$SPLINETYPE
 70
     6
  9
$SPLINESEGS
 70
     8
  9
$HANDSEED
  5
E8
  9
$SURFTAB1
 70
     6
  9
$SURFTAB2
 70
     6
  9
$SURFTYPE
 70
     6
  9
$SURFU
 70
     6
  9
$SURFV
 70
     6
  9
$UCSBASE
  2

  9
$UCSNAME
  2

  9
$UCSORG
 10
0.0
 20
0.0
 30
0.0
  9
$UCSXDIR
 10
1.0
 20
0.0
 30
0.0
  9
$UCSYDIR
 10
0.0
 20
1.0
 30
0.0
  9
$UCSORTHOREF
  2

  9
$UCSORTHOVIEW
 70
     0
  9
$UCSORGTOP
 10
0.0
 20
0.0
 30
0.0
  9
$UCSORGBOTTOM
 10
0.0
 20
0.0
 30
0.0
  9
$UCSORGLEFT
 10
0.0
 20
0.0
 30
0.0
  9
$UCSORGRIGHT
 10
0.0
 20
0.0
 30
0.0
  9
$UCSORGFRONT
 10
0.0
 20
0.0
 30
0.0
  9
$UCSORGBACK
 10
0.0
 20
0.0
 30
0.0
  9
$PUCSBASE
  2

  9
$PUCSNAME
  2

  9
$PUCSORG
 10
0.0
 20
0.0
 30
0.0
  9
$PUCSXDIR
 10
1.0
 20
0.0
 30
0.0
  9
$PUCSYDIR
 10
0.0
 20
1.0
 30
0.0
  9
$PUCSORTHOREF
  2

  9
$PUCSORTHOVIEW
 70
     0
  9
$PUCSORGTOP
 10
0.0
 20
0.0
 30
0.0
  9
$PUCSORGBOTTOM
 10
0.0
 20
0.0
 30
0.0
  9
$PUCSORGLEFT
 10
0.0
 20
0.0
 30
0.0
  9
$PUCSORGRIGHT
 10
0.0
 20
0.0
 30
0.0
  9
$PUCSORGFRONT
 10
0.0
 20
0.0
 30
0.0
  9
$PUCSORGBACK
 10
0.0
 20
0.0
 30
0.0
  9
$USERI1
 70
     0
  9
$USERI2
 70
     0
  9
$USERI3
 70
     0
  9
$USERI4
 70
     0
  9
$USERI5
 70
     0
  9
$USERR1
 40
0.0
  9
$USERR2
 40
0.0
  9
$USERR3
 40
0.0
  9
$USERR4
 40
0.0
  9
$USERR5
 40
0.0
  9
$WORLDVIEW
 70
     1
  9
$SHADEDGE
 70
     3
  9
$SHADEDIF
 70
    70
  9
$TILEMODE
 70
     1
  9
$MAXACTVP
 70
    64
  9
$PINSBASE
 10
0.0
 20
0.0
 30
0.0
  9
$PLIMCHECK
 70
     0
  9
$PEXTMIN
 10
1.000000000000000E+20
 20
1.000000000000000E+20
 30
1.000000000000000E+20
  9
$PEXTMAX
 10
-1.000000000000000E+20
 20
-1.000000000000000E+20
 30
-1.000000000000000E+20
  9
$PLIMMIN
 10
0.0
 20
0.0
  9
$PLIMMAX
 10
12.0
 20
9.0
  9
$UNITMODE
 70
     0
  9
$VISRETAIN
 70
     1
  9
$PLINEGEN
 70
     0
  9
$PSLTSCALE
 70
     1
  9
$TREEDEPTH
 70
  3020
  9
$CMLSTYLE
  2
Standard
  9
$CMLJUST
 70
     0
  9
$CMLSCALE
 40
1.0
  9
$PROXYGRAPHICS
 70
     1
  9
$MEASUREMENT
 70
     0
  9
$CELWEIGHT
370
    -1
  9
$ENDCAPS
280
     0
  9
$JOINSTYLE
280
     0
  9
$LWDISPLAY
290
     0
  9
$INSUNITS
 70
     4
  9
$HYPERLINKBASE
  1

  9
$STYLESHEET
  1

  9
$XEDIT
290
     1
  9
$CEPSNTYPE
380
     0
  9
$PSTYLEMODE
290
     1
  9
$FINGERPRINTGUID
  2
{4328DBA9-367F-4367-906C-CB0301B35F7E}
  9
$VERSIONGUID
  2
{FAEB1C32-E019-11D5-929B-00C0DF256EC4}
  9
$EXTNAMES
290
     1
  9
$PSVPSCALE
 40
0.0
  9
$OLESTARTUP
290
     0
  0
ENDSEC
  0
SECTION
  2
CLASSES
  0
CLASS
  1
ACDBDICTIONARYWDFLT
  2
AcDbDictionaryWithDefault
  3
ObjectDBX Classes
 90
        0
280
     0
281
     0
  0
CLASS
  1
VISUALSTYLE
  2
AcDbVisualStyle
  3
ObjectDBX Classes
 90
     4095
280
     0
281
     0
  0
CLASS
  1
MATERIAL
  2
AcDbMaterial
  3
ObjectDBX Classes
 90
     1153
280
     0
281
     0
  0
CLASS
  1
DICTIONARYVAR
  2
AcDbDictionaryVar
  3
ObjectDBX Classes
 90
        0
280
     0
281
     0
  0
CLASS
  1
ACDBPLACEHOLDER
  2
AcDbPlaceHolder
  3
ObjectDBX Classes
 90
        0
280
     0
281
     0
  0
CLASS
  1
LAYOUT
  2
AcDbLayout
  3
ObjectDBX Classes
 90
        0
280
     0
281
     0
  0
ENDSEC
  0
SECTION
  2
TABLES
  0
TABLE
  2
VPORT
  5
8
330
0
100
AcDbSymbolTable
 70
     1
  0
VPORT
  5
29
330
8
100
AcDbSymbolTableRecord
100
AcDbViewportTableRecord
  2
*Active
 70
     0
 10
0.0
 20
0.0
 11
1.0
 21
1.0
 12
10.42990654205607
 22
4.5
 13
0.0
 23
0.0
 14
0.5
 24
0.5
 15
0.5
 25
0.5
 16
0.0
 26
0.0
 36
1.0
 17
0.0
 27
0.0
 37
0.0
 40
9.0
 41
1.972972972850329
 42
50.0
 43
0.0
 44
0.0
 50
0.0
 51
0.0
 71
     0
 72
   100
 73
     1
 74
     3
 75
     0
 76
     0
 77
     0
 78
     0
281
     0
 65
     1
110
0.0
120
0.0
130
0.0
111
1.0
121
0.0
131
0.0
112
0.0
122
1.0
132
0.0
 79
     0
146
0.0
  0
ENDTAB
  0
TABLE
  2
LTYPE
  5
5
330
0
100
AcDbSymbolTable
 70
     1
  0
LTYPE
  5
14
330
5
100
AcDbSymbolTableRecord
100
AcDbLinetypeTableRecord
  2
ByBlock
 70
     0
  3

 72
    65
 73
     0
 40
0.0
  0
LTYPE
  5
15
330
5
100
AcDbSymbolTableRecord
100
AcDbLinetypeTableRecord
  2
ByLayer
 70
     0
  3

 72
    65
 73
     0
 40
0.0
  0
LTYPE
  5
16
330
5
100
AcDbSymbolTableRecord
100
AcDbLinetypeTableRecord
  2
Continuous
 70
     0
  3
Solid line
 72
    65
 73
     0
 40
0.0
  0
ENDTAB
  0
TABLE
  2
LAYER
  5
2
330
0
100
AcDbSymbolTable
 70
     2
  0
LAYER
  5
10
330
2
100
AcDbSymbolTableRecord
100
AcDbLayerTableRecord
  2
0
 70
     0
 62
     7
  6
Continuous
370
    -3
390
F
  0
LAYER
  5
40
330
2
100
AcDbSymbolTableRecord
100
AcDbLayerTableRecord
  2
Camada 1
 70
     0
 62
     7
  6
Continuous
370
    -3
390
F
  0
ENDTAB
  0
TABLE
  2
STYLE
  5
3
330
0
100
AcDbSymbolTable
 70
     1
  0
STYLE
  5
11
330
3
100
AcDbSymbolTableRecord
100
AcDbTextStyleTableRecord
  2
Standard
 70
     0
 40
0.0
 41
1.0
 50
0.0
 71
     0
 42
0.2
  3
txt
  4

  0
ENDTAB
  0
TABLE
  2
VIEW
  5
6
330
0
100
AcDbSymbolTable
 70
     0
  0
ENDTAB
  0
TABLE
  2
UCS
  5
7
330
0
100
AcDbSymbolTable
 70
     0
  0
ENDTAB
  0
TABLE
  2
APPID
  5
9
330
0
100
AcDbSymbolTable
 70
     2
  0
APPID
  5
12
330
9
100
AcDbSymbolTableRecord
100
AcDbRegAppTableRecord
  2
ACAD
 70
     0
  0
APPID
  5
3F
330
9
100
AcDbSymbolTableRecord
100
AcDbRegAppTableRecord
  2
ODA
 70
     0
  0
ENDTAB
  0
TABLE
  2
DIMSTYLE
  5
A
330
0
100
AcDbSymbolTable
 70
     1
100
AcDbDimStyleTable
  0
DIMSTYLE
105
27
330
A
100
AcDbSymbolTableRecord
100
AcDbDimStyleTableRecord
  2
Standard
 70
     0
178
     0
340
11
  0
ENDTAB
  0
TABLE
  2
BLOCK_RECORD
  5
1
330
0
100
AcDbSymbolTable
 70
     1
  0
BLOCK_RECORD
  5
1F
330
1
100
AcDbSymbolTableRecord
100
AcDbBlockTableRecord
  2
*Model_Space
340
22
  0
BLOCK_RECORD
  5
1B
330
1
100
AcDbSymbolTableRecord
100
AcDbBlockTableRecord
  2
*Paper_Space
340
1E
  0
BLOCK_RECORD
  5
23
330
1
100
AcDbSymbolTableRecord
100
AcDbBlockTableRecord
  2
*Paper_Space0
340
26
  0
ENDTAB
  0
ENDSEC
  0
SECTION
  2
BLOCKS
  0
BLOCK
  5
20
330
1F
100
AcDbEntity
  8
0
100
AcDbBlockBegin
  2
*Model_Space
 70
     0
 10
0.0
 20
0.0
 30
0.0
  3
*Model_Space
  1

  0
ENDBLK
  5
21
330
1F
100
AcDbEntity
  8
0
100
AcDbBlockEnd
  0
BLOCK
  5
1C
330
1B
100
AcDbEntity
 67
     1
  8
0
100
AcDbBlockBegin
  2
*Paper_Space
 70
     0
 10
0.0
 20
0.0
 30
0.0
  3
*Paper_Space
  1

  0
ENDBLK
  5
1D
330
1B
100
AcDbEntity
 67
     1
  8
0
100
AcDbBlockEnd
  0
BLOCK
  5
24
330
23
100
AcDbEntity
  8
0
100
AcDbBlockBegin
  2
*Paper_Space0
 70
     0
 10
0.0
 20
0.0
 30
0.0
  3
*Paper_Space0
  1

  0
ENDBLK
  5
25
330
23
100
AcDbEntity
  8
0
100
AcDbBlockEnd
  0
ENDSEC
  0
SECTION
  2
ENTITIES
  0
SPLINE
  5
41
330
1F
100
AcDbEntity
  8
Camada 1
 62
   250
370
     9
100
AcDbSpline
210
0.0
220
0.0
230
1.0
 70
     8
 71
     3
 72
    72
 73
    68
 74
     0
 42
0.0000000001
 43
0.0000000001
 12
1.0
 22
0.0
 32
0.0
 13
1.0
 23
0.0
 33
0.0
 40
0.0
 40
0.0
 40
0.0
 40
0.0
 40
0.0555555555555556
 40
0.0555555555555556
 40
0.0555555555555556
 40
0.0555555555555556
 40
0.1111111111111111
 40
0.1111111111111111
 40
0.1111111111111111
 40
0.1111111111111111
 40
0.1666666666666667
 40
0.1666666666666667
 40
0.1666666666666667
 40
0.1666666666666667
 40
0.2222222222222222
 40
0.2222222222222222
 40
0.2222222222222222
 40
0.2222222222222222
 40
0.2777777777777778
 40
0.2777777777777778
 40
0.2777777777777778
 40
0.2777777777777778
 40
0.3333333333333333
 40
0.3333333333333333
 40
0.3333333333333333
 40
0.3333333333333333
 40
0.3888888888888889
 40
0.3888888888888889
 40
0.3888888888888889
 40
0.3888888888888889
 40
0.4444444444444444
 40
0.4444444444444444
 40
0.4444444444444444
 40
0.4444444444444444
 40
0.5
 40
0.5
 40
0.5
 40
0.5
 40
0.5555555555555556
 40
0.5555555555555556
 40
0.5555555555555556
 40
0.5555555555555556
 40
0.6111111111111112
 40
0.6111111111111112
 40
0.6111111111111112
 40
0.6111111111111112
 40
0.6666666666666666
 40
0.6666666666666666
 40
0.6666666666666666
 40
0.6666666666666666
 40
0.7222222222222222
 40
0.7222222222222222
 40
0.7222222222222222
 40
0.7222222222222222
 40
0.7777777777777778
 40
0.7777777777777778
 40
0.7777777777777778
 40
0.7777777777777778
 40
0.8333333333333334
 40
0.8333333333333334
 40
0.8333333333333334
 40
0.8333333333333334
 40
0.8888888888888888
 40
0.8888888888888888
 40
0.8888888888888888
 40
0.8888888888888888
 40
1.0
 40
1.0
 40
1.0
 40
1.0
 10
2.0304
 20
-99.249
 30
0.0
 10
3.496
 20
-100.7129
 30
0.0
 10
5.8571
 20
-100.6603
 30
0.0
 10
7.3342
 20
-99.8377
 30
0.0
 10
7.3342
 20
-99.8377
 30
0.0
 10
7.8845
 20
-99.5569
 30
0.0
 10
8.2314
 20
-98.9682
 30
0.0
 10
8.4658
 20
-98.4109
 30
0.0
 10
8.4658
 20
-98.4109
 30
0.0
 10
10.6732
 20
-101.0047
 30
0.0
 10
13.8018
 20
-101.6412
 30
0.0
 10
17.0111
 20
-100.2413
 30
0.0
 10
17.0111
 20
-100.2413
 30
0.0
 10
19.2944
 20
-99.1755
 30
0.0
 10
20.6438
 20
-97.7173
 30
0.0
 10
20.6202
 20
-93.7136
 30
0.0
 10
20.6202
 20
-93.7136
 30
0.0
 10
22.868
 20
-97.0104
 30
0.0
 10
26.1691
 20
-99.723
 30
0.0
 10
29.1288
 20
-100.6498
 30
0.0
 10
29.1288
 20
-100.6498
 30
0.0
 10
34.5232
 20
-101.996
 30
0.0
 10
40.1303
 20
-97.2567
 30
0.0
 10
36.9173
 20
-91.7499
 30
0.0
 10
36.9173
 20
-91.7499
 30
0.0
 10
35.0719
 20
-88.2568
 30
0.0
 10
31.3888
 20
-87.1891
 30
0.0
 10
29.3084
 20
-89.3211
 30
0.0
 10
29.3084
 20
-89.3211
 30
0.0
 10
27.9791
 20
-90.9453
 30
0.0
 10
27.5344
 20
-93.2256
 30
0.0
 10
29.2196
 20
-94.6488
 30
0.0
 10
29.2196
 20
-94.6488
 30
0.0
 10
34.1276
 20
-97.7062
 30
0.0
 10
34.1447
 20
-92.2497
 30
0.0
 10
32.7419
 20
-92.8136
 30
0.0
 10
32.7419
 20
-92.8136
 30
0.0
 10
31.6549
 20
-93.3992
 30
0.0
 10
30.336
 20
-93.1459
 30
0.0
 10
30.6107
 20
-91.5114
 30
0.0
 10
30.6107
 20
-91.5114
 30
0.0
 10
30.8576
 20
-90.1152
 30
0.0
 10
33.363
 20
-90.4808
 30
0.0
 10
34.5768
 20
-92.5769
 30
0.0
 10
34.5768
 20
-92.5769
 30
0.0
 10
37.0054
 20
-96.4845
 30
0.0
 10
33.2731
 20
-99.5119
 30
0.0
 10
28.8349
 20
-97.9044
 30
0.0
 10
28.8349
 20
-97.9044
 30
0.0
 10
21.3568
 20
-93.4598
 30
0.0
 10
21.3664
 20
-87.8709
 30
0.0
 10
15.8117
 20
-86.3614
 30
0.0
 10
15.8117
 20
-86.3614
 30
0.0
 10
30.5495
 20
-81.9832
 30
0.0
 10
44.6528
 20
-74.4217
 30
0.0
 10
54.9914
 20
-62.0481
 30
0.0
 10
54.9914
 20
-62.0481
 30
0.0
 10
71.4309
 20
-42.4564
 30
0.0
 10
77.4836
 20
-21.8049
 30
0.0
 10
77.1693
 20
6.7461
 30
0.0
 10
77.1693
 20
6.7461
 30
0.0
 10
75.6931
 20
31.6128
 30
0.0
 10
68.279
 20
50.775
 30
0.0
 10
53.4239
 20
68.2488
 30
0.0
 10
53.4239
 20
68.2488
 30
0.0
 10
39.445
 20
81.7541
 30
0.0
 10
25.3264
 20
89.3963
 30
0.0
 10
11.0263
 20
89.4021
 30
0.0
  0
SPLINE
  5
42
330
1F
100
AcDbEntity
  8
Camada 1
 62
   250
370
     9
100
AcDbSpline
210
0.0
220
0.0
230
1.0
 70
     8
 71
     3
 72
    84
 73
    80
 74
     0
 42
0.0000000001
 43
0.0000000001
 12
1.0
 22
0.0
 32
0.0
 13
1.0
 23
0.0
 33
0.0
 40
0.0
 40
0.0
 40
0.0
 40
0.0
 40
0.0476190476190476
 40
0.0476190476190476
 40
0.0476190476190476
 40
0.0476190476190476
 40
0.0952380952380952
 40
0.0952380952380952
 40
0.0952380952380952
 40
0.0952380952380952
 40
0.1428571428571428
 40
0.1428571428571428
 40
0.1428571428571428
 40
0.1428571428571428
 40
0.1904761904761905
 40
0.1904761904761905
 40
0.1904761904761905
 40
0.1904761904761905
 40
0.2380952380952381
 40
0.2380952380952381
 40
0.2380952380952381
 40
0.2380952380952381
 40
0.2857142857142857
 40
0.2857142857142857
 40
0.2857142857142857
 40
0.2857142857142857
 40
0.3333333333333333
 40
0.3333333333333333
 40
0.3333333333333333
 40
0.3333333333333333
 40
0.3809523809523809
 40
0.3809523809523809
 40
0.3809523809523809
 40
0.3809523809523809
 40
0.4285714285714285
 40
0.4285714285714285
 40
0.4285714285714285
 40
0.4285714285714285
 40
0.4761904761904762
 40
0.4761904761904762
 40
0.4761904761904762
 40
0.4761904761904762
 40
0.5238095238095238
 40
0.5238095238095238
 40
0.5238095238095238
 40
0.5238095238095238
 40
0.5714285714285714
 40
0.5714285714285714
 40
0.5714285714285714
 40
0.5714285714285714
 40
0.6190476190476191
 40
0.6190476190476191
 40
0.6190476190476191
 40
0.6190476190476191
 40
0.6666666666666666
 40
0.6666666666666666
 40
0.6666666666666666
 40
0.6666666666666666
 40
0.7142857142857143
 40
0.7142857142857143
 40
0.7142857142857143
 40
0.7142857142857143
 40
0.7619047619047619
 40
0.7619047619047619
 40
0.7619047619047619
 40
0.7619047619047619
 40
0.8095238095238095
 40
0.8095238095238095
 40
0.8095238095238095
 40
0.8095238095238095
 40
0.8571428571428571
 40
0.8571428571428571
 40
0.8571428571428571
 40
0.8571428571428571
 40
0.9047619047619048
 40
0.9047619047619048
 40
0.9047619047619048
 40
0.9047619047619048
 40
1.0
 40
1.0
 40
1.0
 40
1.0
 10
2.039
 20
-99.2696
 30
0.0
 10
0.5719
 20
-100.7124
 30
0.0
 10
-1.774
 20
-100.6564
 30
0.0
 10
-3.244
 20
-99.8377
 30
0.0
 10
-3.244
 20
-99.8377
 30
0.0
 10
-3.7942
 20
-99.5569
 30
0.0
 10
-4.1411
 20
-98.9682
 30
0.0
 10
-4.3755
 20
-98.4109
 30
0.0
 10
-4.3755
 20
-98.4109
 30
0.0
 10
-6.583
 20
-101.0047
 30
0.0
 10
-9.7116
 20
-101.6412
 30
0.0
 10
-12.9208
 20
-100.2413
 30
0.0
 10
-12.9208
 20
-100.2413
 30
0.0
 10
-15.2042
 20
-99.1755
 30
0.0
 10
-16.5535
 20
-97.7173
 30
0.0
 10
-16.5299
 20
-93.7136
 30
0.0
 10
-16.5299
 20
-93.7136
 30
0.0
 10
-18.7778
 20
-97.0104
 30
0.0
 10
-22.0788
 20
-99.723
 30
0.0
 10
-25.0386
 20
-100.6498
 30
0.0
 10
-25.0386
 20
-100.6498
 30
0.0
 10
-30.433
 20
-101.996
 30
0.0
 10
-36.0401
 20
-97.2567
 30
0.0
 10
-32.8271
 20
-91.7499
 30
0.0
 10
-32.8271
 20
-91.7499
 30
0.0
 10
-30.9817
 20
-88.2568
 30
0.0
 10
-27.2985
 20
-87.1891
 30
0.0
 10
-25.2181
 20
-89.3211
 30
0.0
 10
-25.2181
 20
-89.3211
 30
0.0
 10
-23.8888
 20
-90.9453
 30
0.0
 10
-23.4442
 20
-93.2256
 30
0.0
 10
-25.1293
 20
-94.6488
 30
0.0
 10
-25.1293
 20
-94.6488
 30
0.0
 10
-30.0373
 20
-97.7062
 30
0.0
 10
-30.0544
 20
-92.2497
 30
0.0
 10
-28.6515
 20
-92.8136
 30
0.0
 10
-28.6515
 20
-92.8136
 30
0.0
 10
-27.5647
 20
-93.3992
 30
0.0
 10
-26.2457
 20
-93.1459
 30
0.0
 10
-26.5204
 20
-91.5114
 30
0.0
 10
-26.5204
 20
-91.5114
 30
0.0
 10
-26.7674
 20
-90.1152
 30
0.0
 10
-29.2727
 20
-90.4808
 30
0.0
 10
-30.4866
 20
-92.5769
 30
0.0
 10
-30.4866
 20
-92.5769
 30
0.0
 10
-32.9151
 20
-96.4845
 30
0.0
 10
-29.1829
 20
-99.5119
 30
0.0
 10
-24.7446
 20
-97.9044
 30
0.0
 10
-24.7446
 20
-97.9044
 30
0.0
 10
-17.2664
 20
-93.4598
 30
0.0
 10
-17.3992
 20
-87.8749
 30
0.0
 10
-11.8446
 20
-86.3654
 30
0.0
 10
-11.8446
 20
-86.3654
 30
0.0
 10
-35.6843
 20
-80.5722
 30
0.0
 10
-55.7948
 20
-65.6817
 30
0.0
 10
-67.3802
 20
-39.8401
 30
0.0
 10
-67.3802
 20
-39.8401
 30
0.0
 10
-81.0092
 20
-8.5245
 30
0.0
 10
-79.2611
 20
17.8593
 30
0.0
 10
-69.2488
 20
41.3388
 30
0.0
 10
-69.2488
 20
41.3388
 30
0.0
 10
-58.4101
 20
67.1615
 30
0.0
 10
-40.5429
 20
82.1503
 30
0.0
 10
-15.341
 20
88.7683
 30
0.0
 10
-15.341
 20
88.7683
 30
0.0
 10
-22.1352
 20
94.8015
 30
0.0
 10
-14.262
 20
103.3471
 30
0.0
 10
-6.5417
 20
99.798
 30
0.0
 10
-6.5417
 20
99.798
 30
0.0
 10
-3.9732
 20
98.356
 30
0.0
 10
-1.1318
 20
98.1088
 30
0.0
 10
0.208
 20
98.8939
 30
0.0
 10
0.208
 20
98.8939
 30
0.0
 10
2.1235
 20
100.1555
 30
0.0
 10
4.1432
 20
101.0635
 30
0.0
 10
6.4609
 20
100.9583
 30
0.0
 10
6.4609
 20
100.9583
 30
0.0
 10
14.2742
 20
100.7289
 30
0.0
 10
16.0769
 20
94.1931
 30
0.0
 10
11.0263
 20
89.4021
 30
0.0
  0
SPLINE
  5
43
330
1F
100
AcDbEntity
  8
Camada 1
 62
   250
370
     9
100
AcDbSpline
210
0.0
220
0.0
230
1.0
 70
    11
 71
     3
 72
    76
 73
    72
 74
     0
 42
0.0000000001
 43
0.0000000001
 12
1.0
 22
0.0
 32
0.0
 13
1.0
 23
0.0
 33
0.0
 40
0.0
 40
0.0
 40
0.0
 40
0.0
 40
0.0526315789473684
 40
0.0526315789473684
 40
0.0526315789473684
 40
0.0526315789473684
 40
0.1052631578947368
 40
0.1052631578947368
 40
0.1052631578947368
 40
0.1052631578947368
 40
0.1578947368421053
 40
0.1578947368421053
 40
0.1578947368421053
 40
0.1578947368421053
 40
0.2105263157894737
 40
0.2105263157894737
 40
0.2105263157894737
 40
0.2105263157894737
 40
0.2631578947368421
 40
0.2631578947368421
 40
0.2631578947368421
 40
0.2631578947368421
 40
0.3157894736842105
 40
0.3157894736842105
 40
0.3157894736842105
 40
0.3157894736842105
 40
0.3684210526315789
 40
0.3684210526315789
 40
0.3684210526315789
 40
0.3684210526315789
 40
0.4210526315789473
 40
0.4210526315789473
 40
0.4210526315789473
 40
0.4210526315789473
 40
0.4736842105263158
 40
0.4736842105263158
 40
0.4736842105263158
 40
0.4736842105263158
 40
0.5263157894736842
 40
0.5263157894736842
 40
0.5263157894736842
 40
0.5263157894736842
 40
0.5789473684210527
 40
0.5789473684210527
 40
0.5789473684210527
 40
0.5789473684210527
 40
0.631578947368421
 40
0.631578947368421
 40
0.631578947368421
 40
0.631578947368421
 40
0.6842105263157895
 40
0.6842105263157895
 40
0.6842105263157895
 40
0.6842105263157895
 40
0.7368421052631579
 40
0.7368421052631579
 40
0.7368421052631579
 40
0.7368421052631579
 40
0.7894736842105263
 40
0.7894736842105263
 40
0.7894736842105263
 40
0.7894736842105263
 40
0.8421052631578947
 40
0.8421052631578947
 40
0.8421052631578947
 40
0.8421052631578947
 40
0.8947368421052632
 40
0.8947368421052632
 40
0.8947368421052632
 40
0.8947368421052632
 40
1.0
 40
1.0
 40
1.0
 40
1.0
 10
13.9888
 20
-87.8617
 30
0.0
 10
14.0447
 20
-87.8815
 30
0.0
 10
14.0999
 20
-87.9018
 30
0.0
 10
14.1546
 20
-87.9224
 30
0.0
 10
14.1546
 20
-87.9224
 30
0.0
 10
17.7543
 20
-89.2769
 30
0.0
 10
18.8573
 20
-92.3436
 30
0.0
 10
17.7781
 20
-96.3636
 30
0.0
 10
17.7781
 20
-96.3636
 30
0.0
 10
16.5906
 20
-99.1094
 30
0.0
 10
10.589
 20
-99.5771
 30
0.0
 10
10.2895
 20
-95.6534
 30
0.0
 10
10.2895
 20
-95.6534
 30
0.0
 10
10.6788
 20
-92.796
 30
0.0
 10
12.9283
 20
-92.7368
 30
0.0
 10
13.7327
 20
-93.4068
 30
0.0
 10
13.7327
 20
-93.4068
 30
0.0
 10
14.3775
 20
-93.9432
 30
0.0
 10
13.4135
 20
-95.2944
 30
0.0
 10
11.74
 20
-94.1141
 30
0.0
 10
11.74
 20
-94.1141
 30
0.0
 10
12.4717
 20
-97.966
 30
0.0
 10
17.6947
 20
-96.2126
 30
0.0
 10
16.1774
 20
-92.6922
 30
0.0
 10
16.1774
 20
-92.6922
 30
0.0
 10
15.1906
 20
-90.7543
 30
0.0
 10
13.1009
 20
-90.2629
 30
0.0
 10
10.9828
 20
-90.9102
 30
0.0
 10
10.9828
 20
-90.9102
 30
0.0
 10
10.8924
 20
-90.9378
 30
0.0
 10
10.8019
 20
-90.9673
 30
0.0
 10
10.7114
 20
-90.9991
 30
0.0
 10
10.7114
 20
-90.9991
 30
0.0
 10
9.901
 20
-91.3984
 30
0.0
 10
8.9668
 20
-92.2339
 30
0.0
 10
8.4403
 20
-93.3052
 30
0.0
 10
8.4403
 20
-93.3052
 30
0.0
 10
8.1868
 20
-93.8208
 30
0.0
 10
8.0278
 20
-94.3909
 30
0.0
 10
8.0225
 20
-94.9934
 30
0.0
 10
8.0225
 20
-94.9934
 30
0.0
 10
7.842
 20
-94.7664
 30
0.0
 10
7.658
 20
-94.5204
 30
0.0
 10
7.3806
 20
-94.3034
 30
0.0
 10
7.3806
 20
-94.3034
 30
0.0
 10
6.9333
 20
-93.9534
 30
0.0
 10
6.2431
 20
-93.6786
 30
0.0
 10
4.9323
 20
-93.6797
 30
0.0
 10
4.9323
 20
-93.6797
 30
0.0
 10
3.7169
 20
-93.8544
 30
0.0
 10
3.6864
 20
-96.0431
 30
0.0
 10
4.8728
 20
-96.1861
 30
0.0
 10
4.8728
 20
-96.1861
 30
0.0
 10
5.0538
 20
-96.1685
 30
0.0
 10
5.2238
 20
-96.1699
 30
0.0
 10
5.3816
 20
-96.1864
 30
0.0
 10
5.3816
 20
-96.1864
 30
0.0
 10
6.4396
 20
-96.2975
 30
0.0
 10
6.9407
 20
-97.0991
 30
0.0
 10
6.4118
 20
-97.5475
 30
0.0
 10
6.4118
 20
-97.5475
 30
0.0
 10
5.3131
 20
-97.9221
 30
0.0
 10
4.4427
 20
-97.9822
 30
0.0
 10
3.8842
 20
-97.597
 30
0.0
 10
3.8842
 20
-97.597
 30
0.0
 10
3.168
 20
-97.103
 30
0.0
 10
2.9649
 20
-95.8765
 30
0.0
 10
3.452
 20
-93.6406
 30
0.0
 10
3.452
 20
-93.6406
 30
0.0
 10
4.6786
 20
-88.6374
 30
0.0
 10
7.711
 20
-86.5506
 30
0.0
 10
13.9888
 20
-87.8617
 30
0.0
  0
SPLINE
  5
44
330
1F
100
AcDbEntity
  8
Camada 1
 62
   250
370
     9
100
AcDbSpline
210
0.0
220
0.0
230
1.0
 70
    11
 71
     3
 72
    16
 73
    12
 74
     0
 42
0.0000000001
 43
0.0000000001
 12
1.0
 22
0.0
 32
0.0
 13
1.0
 23
0.0
 33
0.0
 40
0.0
 40
0.0
 40
0.0
 40
0.0
 40
0.25
 40
0.25
 40
0.25
 40
0.25
 40
0.5
 40
0.5
 40
0.5
 40
0.5
 40
1.0
 40
1.0
 40
1.0
 40
1.0
 10
4.5173
 20
-87.0394
 30
0.0
 10
4.5173
 20
-87.0394
 30
0.0
 10
-0.1624
 20
-87.0648
 30
0.0
 10
-0.1624
 20
-87.0648
 30
0.0
 10
-0.1624
 20
-87.0648
 30
0.0
 10
-0.1624
 20
-87.0648
 30
0.0
 10
1.8638
 20
-89.571
 30
0.0
 10
1.8638
 20
-89.571
 30
0.0
 10
1.8638
 20
-89.571
 30
0.0
 10
1.8638
 20
-89.571
 30
0.0
 10
4.5173
 20
-87.0394
 30
0.0
 10
4.5173
 20
-87.0394
 30
0.0
  0
SPLINE
  5
45
330
1F
100
AcDbEntity
  8
Camada 1
 62
   250
370
     9
100
AcDbSpline
210
0.0
220
0.0
230
1.0
 70
    11
 71
     3
 72
    76
 73
    72
 74
     0
 42
0.0000000001
 43
0.0000000001
 12
1.0
 22
0.0
 32
0.0
 13
1.0
 23
0.0
 33
0.0
 40
0.0
 40
0.0
 40
0.0
 40
0.0
 40
0.0526315789473684
 40
0.0526315789473684
 40
0.0526315789473684
 40
0.0526315789473684
 40
0.1052631578947368
 40
0.1052631578947368
 40
0.1052631578947368
 40
0.1052631578947368
 40
0.1578947368421053
 40
0.1578947368421053
 40
0.1578947368421053
 40
0.1578947368421053
 40
0.2105263157894737
 40
0.2105263157894737
 40
0.2105263157894737
 40
0.2105263157894737
 40
0.2631578947368421
 40
0.2631578947368421
 40
0.2631578947368421
 40
0.2631578947368421
 40
0.3157894736842105
 40
0.3157894736842105
 40
0.3157894736842105
 40
0.3157894736842105
 40
0.3684210526315789
 40
0.3684210526315789
 40
0.3684210526315789
 40
0.3684210526315789
 40
0.4210526315789473
 40
0.4210526315789473
 40
0.4210526315789473
 40
0.4210526315789473
 40
0.4736842105263158
 40
0.4736842105263158
 40
0.4736842105263158
 40
0.4736842105263158
 40
0.5263157894736842
 40
0.5263157894736842
 40
0.5263157894736842
 40
0.5263157894736842
 40
0.5789473684210527
 40
0.5789473684210527
 40
0.5789473684210527
 40
0.5789473684210527
 40
0.631578947368421
 40
0.631578947368421
 40
0.631578947368421
 40
0.631578947368421
 40
0.6842105263157895
 40
0.6842105263157895
 40
0.6842105263157895
 40
0.6842105263157895
 40
0.7368421052631579
 40
0.7368421052631579
 40
0.7368421052631579
 40
0.7368421052631579
 40
0.7894736842105263
 40
0.7894736842105263
 40
0.7894736842105263
 40
0.7894736842105263
 40
0.8421052631578947
 40
0.8421052631578947
 40
0.8421052631578947
 40
0.8421052631578947
 40
0.8947368421052632
 40
0.8947368421052632
 40
0.8947368421052632
 40
0.8947368421052632
 40
1.0
 40
1.0
 40
1.0
 40
1.0
 10
-9.8985
 20
-87.8617
 30
0.0
 10
-9.9498
 20
-87.8799
 30
0.0
 10
-10.0004
 20
-87.8986
 30
0.0
 10
-10.0507
 20
-87.9174
 30
0.0
 10
-10.0507
 20
-87.9174
 30
0.0
 10
-13.6613
 20
-89.2694
 30
0.0
 10
-14.7683
 20
-92.3386
 30
0.0
 10
-13.6878
 20
-96.3636
 30
0.0
 10
-13.6878
 20
-96.3636
 30
0.0
 10
-12.5004
 20
-99.1094
 30
0.0
 10
-6.4988
 20
-99.5771
 30
0.0
 10
-6.1993
 20
-95.6534
 30
0.0
 10
-6.1993
 20
-95.6534
 30
0.0
 10
-6.5886
 20
-92.796
 30
0.0
 10
-8.838
 20
-92.7368
 30
0.0
 10
-9.6424
 20
-93.4068
 30
0.0
 10
-9.6424
 20
-93.4068
 30
0.0
 10
-10.2872
 20
-93.9432
 30
0.0
 10
-9.3232
 20
-95.2944
 30
0.0
 10
-7.6496
 20
-94.1141
 30
0.0
 10
-7.6496
 20
-94.1141
 30
0.0
 10
-8.3814
 20
-97.966
 30
0.0
 10
-13.6045
 20
-96.2126
 30
0.0
 10
-12.0872
 20
-92.6922
 30
0.0
 10
-12.0872
 20
-92.6922
 30
0.0
 10
-11.0875
 20
-90.7289
 30
0.0
 10
-8.9556
 20
-90.2502
 30
0.0
 10
-6.8092
 20
-90.9362
 30
0.0
 10
-6.8092
 20
-90.9362
 30
0.0
 10
-6.7465
 20
-90.9563
 30
0.0
 10
-6.6839
 20
-90.9771
 30
0.0
 10
-6.6212
 20
-90.9991
 30
0.0
 10
-6.6212
 20
-90.9991
 30
0.0
 10
-5.8493
 20
-91.3794
 30
0.0
 10
-4.965
 20
-92.1555
 30
0.0
 10
-4.4277
 20
-93.1541
 30
0.0
 10
-4.4277
 20
-93.1541
 30
0.0
 10
-4.1294
 20
-93.7085
 30
0.0
 10
-3.938
 20
-94.3314
 30
0.0
 10
-3.9322
 20
-94.9934
 30
0.0
 10
-3.9322
 20
-94.9934
 30
0.0
 10
-3.7404
 20
-94.7521
 30
0.0
 10
-3.5448
 20
-94.4895
 30
0.0
 10
-3.2371
 20
-94.2629
 30
0.0
 10
-3.2371
 20
-94.2629
 30
0.0
 10
-2.7885
 20
-93.9324
 30
0.0
 10
-2.1018
 20
-93.6786
 30
0.0
 10
-0.842
 20
-93.6797
 30
0.0
 10
-0.842
 20
-93.6797
 30
0.0
 10
0.3734
 20
-93.8544
 30
0.0
 10
0.4039
 20
-96.0431
 30
0.0
 10
-0.7825
 20
-96.1861
 30
0.0
 10
-0.7825
 20
-96.1861
 30
0.0
 10
-0.9221
 20
-96.1725
 30
0.0
 10
-1.0552
 20
-96.1703
 30
0.0
 10
-1.1812
 20
-96.1775
 30
0.0
 10
-1.1812
 20
-96.1775
 30
0.0
 10
-2.3141
 20
-96.2424
 30
0.0
 10
-2.8685
 20
-97.0838
 30
0.0
 10
-2.3215
 20
-97.5475
 30
0.0
 10
-2.3215
 20
-97.5475
 30
0.0
 10
-1.1717
 20
-97.9395
 30
0.0
 10
-0.2721
 20
-97.9868
 30
0.0
 10
0.2818
 20
-97.54
 30
0.0
 10
0.2818
 20
-97.54
 30
0.0
 10
0.9359
 20
-97.0123
 30
0.0
 10
1.1077
 20
-95.7953
 30
0.0
 10
0.6383
 20
-93.6406
 30
0.0
 10
0.6383
 20
-93.6406
 30
0.0
 10
-0.5883
 20
-88.6374
 30
0.0
 10
-3.6207
 20
-86.5506
 30
0.0
 10
-9.8985
 20
-87.8617
 30
0.0
  0
SPLINE
  5
46
330
1F
100
AcDbEntity
  8
Camada 1
 62
   250
370
     9
100
AcDbSpline
210
0.0
220
0.0
230
1.0
 70
     8
 71
     3
 72
    12
 73
     8
 74
     0
 42
0.0000000001
 43
0.0000000001
 12
1.0
 22
0.0
 32
0.0
 13
1.0
 23
0.0
 33
0.0
 40
0.0
 40
0.0
 40
0.0
 40
0.0
 40
0.3333333333333333
 40
0.3333333333333333
 40
0.3333333333333333
 40
0.3333333333333333
 40
1.0
 40
1.0
 40
1.0
 40
1.0
 10
-30.0692
 20
78.4819
 30
0.0
 10
-56.2752
 20
66.3955
 30
0.0
 10
-72.7685
 20
37.674
 30
0.0
 10
-74.0812
 20
5.8848
 30
0.0
 10
-74.0812
 20
5.8848
 30
0.0
 10
-73.768
 20
-36.834
 30
0.0
 10
-48.1742
 20
-68.5626
 30
0.0
 10
-28.4765
 20
-77.1576
 30
0.0
  0
SPLINE
  5
47
330
1F
100
AcDbEntity
  8
Camada 1
 62
   250
370
     9
100
AcDbSpline
210
0.0
220
0.0
230
1.0
 70
     8
 71
     3
 72
    12
 73
     8
 74
     0
 42
0.0000000001
 43
0.0000000001
 12
1.0
 22
0.0
 32
0.0
 13
1.0
 23
0.0
 33
0.0
 40
0.0
 40
0.0
 40
0.0
 40
0.0
 40
0.3333333333333333
 40
0.3333333333333333
 40
0.3333333333333333
 40
0.3333333333333333
 40
1.0
 40
1.0
 40
1.0
 40
1.0
 10
-28.4765
 20
-77.1576
 30
0.0
 10
-47.7532
 20
-60.7442
 30
0.0
 10
-63.3236
 20
-34.4525
 30
0.0
 10
-61.9237
 20
7.2754
 30
0.0
 10
-61.9237
 20
7.2754
 30
0.0
 10
-61.1587
 20
39.8127
 30
0.0
 10
-48.5107
 20
60.4488
 30
0.0
 10
-29.8264
 20
78.4819
 30
0.0
  0
SPLINE
  5
48
330
1F
100
AcDbEntity
  8
Camada 1
 62
   250
370
     9
100
AcDbSpline
210
0.0
220
0.0
230
1.0
 70
    11
 71
     3
 72
    36
 73
    32
 74
     0
 42
0.0000000001
 43
0.0000000001
 12
1.0
 22
0.0
 32
0.0
 13
1.0
 23
0.0
 33
0.0
 40
0.0
 40
0.0
 40
0.0
 40
0.0
 40
0.1111111111111111
 40
0.1111111111111111
 40
0.1111111111111111
 40
0.1111111111111111
 40
0.2222222222222222
 40
0.2222222222222222
 40
0.2222222222222222
 40
0.2222222222222222
 40
0.3333333333333333
 40
0.3333333333333333
 40
0.3333333333333333
 40
0.3333333333333333
 40
0.4444444444444444
 40
0.4444444444444444
 40
0.4444444444444444
 40
0.4444444444444444
 40
0.5555555555555556
 40
0.5555555555555556
 40
0.5555555555555556
 40
0.5555555555555556
 40
0.6666666666666666
 40
0.6666666666666666
 40
0.6666666666666666
 40
0.6666666666666666
 40
0.7777777777777778
 40
0.7777777777777778
 40
0.7777777777777778
 40
0.7777777777777778
 40
1.0
 40
1.0
 40
1.0
 40
1.0
 10
-19.9632
 20
83.6997
 30
0.0
 10
-28.7901
 20
73.6334
 30
0.0
 10
-39.1056
 20
52.1445
 30
0.0
 10
-42.4173
 20
9.5103
 30
0.0
 10
-42.4173
 20
9.5103
 30
0.0
 10
-43.156
 20
-13.5494
 30
0.0
 10
-40.1779
 20
-32.6919
 30
0.0
 10
-33.8045
 20
-51.091
 30
0.0
 10
-33.8045
 20
-51.091
 30
0.0
 10
-35.9905
 20
-55.1128
 30
0.0
 10
-34.5001
 20
-58.2919
 30
0.0
 10
-30.3392
 20
-59.679
 30
0.0
 10
-30.3392
 20
-59.679
 30
0.0
 10
-27.4098
 20
-67.0607
 30
0.0
 10
-25.1628
 20
-70.5681
 30
0.0
 10
-17.894
 20
-77.7891
 30
0.0
 10
-17.894
 20
-77.7891
 30
0.0
 10
-29.0541
 20
-71.6856
 30
0.0
 10
-34.8699
 20
-69.2005
 30
0.0
 10
-44.9964
 20
-53.2531
 30
0.0
 10
-44.9964
 20
-53.2531
 30
0.0
 10
-56.1002
 20
-32.8321
 30
0.0
 10
-59.5285
 20
-14.8787
 30
0.0
 10
-58.7903
 20
7.8794
 30
0.0
 10
-58.7903
 20
7.8794
 30
0.0
 10
-58.8804
 20
38.3159
 30
0.0
 10
-42.1298
 20
63.4792
 30
0.0
 10
-30.5997
 20
74.854
 30
0.0
 10
-30.5997
 20
74.854
 30
0.0
 10
-26.7029
 20
78.6983
 30
0.0
 10
-21.9197
 20
81.6399
 30
0.0
 10
-19.9632
 20
83.6997
 30
0.0
  0
SPLINE
  5
49
330
1F
100
AcDbEntity
  8
Camada 1
 62
   250
370
     9
100
AcDbSpline
210
0.0
220
0.0
230
1.0
 70
     8
 71
     3
 72
    20
 73
    16
 74
     0
 42
0.0000000001
 43
0.0000000001
 12
1.0
 22
0.0
 32
0.0
 13
1.0
 23
0.0
 33
0.0
 40
0.0
 40
0.0
 40
0.0
 40
0.0
 40
0.2
 40
0.2
 40
0.2
 40
0.2
 40
0.4
 40
0.4
 40
0.4
 40
0.4
 40
0.6
 40
0.6
 40
0.6
 40
0.6
 40
1.0
 40
1.0
 40
1.0
 40
1.0
 10
-33.9439
 20
-40.6224
 30
0.0
 10
-33.9439
 20
-40.6224
 30
0.0
 10
-30.4817
 20
-34.9405
 30
0.0
 10
-30.4817
 20
-34.9405
 30
0.0
 10
-30.4817
 20
-34.9405
 30
0.0
 10
-35.8203
 20
-24.1831
 30
0.0
 10
-36.7846
 20
-13.4255
 30
0.0
 10
-32.5609
 20
-2.668
 30
0.0
 10
-32.5609
 20
-2.668
 30
0.0
 10
-30.2141
 20
2.8184
 30
0.0
 10
-29.2738
 20
4.6341
 30
0.0
 10
-25.4598
 20
8.9589
 30
0.0
 10
-25.4598
 20
8.9589
 30
0.0
 10
-26.1916
 20
36.176
 30
0.0
 10
-23.0979
 20
67.7745
 30
0.0
 10
-14.8288
 20
84.0026
 30
0.0
  0
SPLINE
  5
4A
330
1F
100
AcDbEntity
  8
Camada 1
 62
   250
370
     9
100
AcDbSpline
210
0.0
220
0.0
230
1.0
 70
     8
 71
     3
 72
    12
 73
     8
 74
     0
 42
0.0000000001
 43
0.0000000001
 12
1.0
 22
0.0
 32
0.0
 13
1.0
 23
0.0
 33
0.0
 40
0.0
 40
0.0
 40
0.0
 40
0.0
 40
0.3333333333333333
 40
0.3333333333333333
 40
0.3333333333333333
 40
0.3333333333333333
 40
1.0
 40
1.0
 40
1.0
 40
1.0
 10
-14.8288
 20
84.0026
 30
0.0
 10
-27.9654
 20
72.6161
 30
0.0
 10
-36.3972
 20
44.3182
 30
0.0
 10
-38.7899
 20
16.9359
 30
0.0
 10
-38.7899
 20
16.9359
 30
0.0
 10
-40.5157
 20
-3.8026
 30
0.0
 10
-38.6466
 20
-23.741
 30
0.0
 10
-33.9439
 20
-40.6224
 30
0.0
  0
SPLINE
  5
4B
330
1F
100
AcDbEntity
  8
Camada 1
 62
   250
370
     9
100
AcDbSpline
210
0.0
220
0.0
230
1.0
 70
    11
 71
     3
 72
    16
 73
    12
 74
     0
 42
0.0000000001
 43
0.0000000001
 12
1.0
 22
0.0
 32
0.0
 13
1.0
 23
0.0
 33
0.0
 40
0.0
 40
0.0
 40
0.0
 40
0.0
 40
0.25
 40
0.25
 40
0.25
 40
0.25
 40
0.5
 40
0.5
 40
0.5
 40
0.5
 40
1.0
 40
1.0
 40
1.0
 40
1.0
 10
-25.4918
 20
4.8543
 30
0.0
 10
-25.4918
 20
4.8543
 30
0.0
 10
-24.7894
 20
-25.5219
 30
0.0
 10
-24.7894
 20
-25.5219
 30
0.0
 10
-24.7894
 20
-25.5219
 30
0.0
 10
-26.7628
 20
-26.6812
 30
0.0
 10
-28.0685
 20
-28.3288
 30
0.0
 10
-29.4155
 20
-31.6771
 30
0.0
 10
-29.4155
 20
-31.6771
 30
0.0
 10
-34.2252
 20
-20.5353
 30
0.0
 10
-33.8668
 20
-7.4833
 30
0.0
 10
-25.4918
 20
4.8543
 30
0.0
  0
SPLINE
  5
4C
330
1F
100
AcDbEntity
  8
Camada 1
 62
   250
370
     9
100
AcDbSpline
210
0.0
220
0.0
230
1.0
 70
    11
 71
     3
 72
    16
 73
    12
 74
     0
 42
0.0000000001
 43
0.0000000001
 12
1.0
 22
0.0
 32
0.0
 13
1.0
 23
0.0
 33
0.0
 40
0.0
 40
0.0
 40
0.0
 40
0.0
 40
0.25
 40
0.25
 40
0.25
 40
0.25
 40
0.5
 40
0.5
 40
0.5
 40
0.5
 40
1.0
 40
1.0
 40
1.0
 40
1.0
 10
-17.3517
 20
-40.5439
 30
0.0
 10
-17.3517
 20
-40.5439
 30
0.0
 10
-19.9439
 20
-41.3726
 30
0.0
 10
-19.9439
 20
-41.3726
 30
0.0
 10
-19.9439
 20
-41.3726
 30
0.0
 10
-19.9439
 20
-41.3726
 30
0.0
 10
-16.9598
 20
-44.0515
 30
0.0
 10
-16.9598
 20
-44.0515
 30
0.0
 10
-16.9598
 20
-44.0515
 30
0.0
 10
-16.9598
 20
-44.0515
 30
0.0
 10
-17.3517
 20
-40.5439
 30
0.0
 10
-17.3517
 20
-40.5439
 30
0.0
  0
SPLINE
  5
4D
330
1F
100
AcDbEntity
  8
Camada 1
 62
   250
370
     9
100
AcDbSpline
210
0.0
220
0.0
230
1.0
 70
    11
 71
     3
 72
    24
 73
    20
 74
     0
 42
0.0000000001
 43
0.0000000001
 12
1.0
 22
0.0
 32
0.0
 13
1.0
 23
0.0
 33
0.0
 40
0.0
 40
0.0
 40
0.0
 40
0.0
 40
0.1666666666666667
 40
0.1666666666666667
 40
0.1666666666666667
 40
0.1666666666666667
 40
0.3333333333333333
 40
0.3333333333333333
 40
0.3333333333333333
 40
0.3333333333333333
 40
0.5
 40
0.5
 40
0.5
 40
0.5
 40
0.6666666666666666
 40
0.6666666666666666
 40
0.6666666666666666
 40
0.6666666666666666
 40
1.0
 40
1.0
 40
1.0
 40
1.0
 10
-21.9081
 20
-43.9419
 30
0.0
 10
-21.9081
 20
-43.9419
 30
0.0
 10
-21.9081
 20
-43.9419
 30
0.0
 10
-21.9081
 20
-43.9419
 30
0.0
 10
-21.9081
 20
-43.9419
 30
0.0
 10
-21.9081
 20
-43.9419
 30
0.0
 10
-25.8796
 20
-51.0906
 30
0.0
 10
-25.8796
 20
-51.0906
 30
0.0
 10
-25.8796
 20
-51.0906
 30
0.0
 10
-27.1694
 20
-54.1603
 30
0.0
 10
-27.8083
 20
-58.5147
 30
0.0
 10
-26.0942
 20
-62.2136
 30
0.0
 10
-26.0942
 20
-62.2136
 30
0.0
 10
-20.5833
 20
-72.7971
 30
0.0
 10
-14.3597
 20
-77.639
 30
0.0
 10
-8.0194
 20
-82.2037
 30
0.0
 10
-8.0194
 20
-82.2037
 30
0.0
 10
-15.1206
 20
-70.1192
 30
0.0
 10
-20.0311
 20
-55.6446
 30
0.0
 10
-21.9081
 20
-43.9419
 30
0.0
  0
SPLINE
  5
4E
330
1F
100
AcDbEntity
  8
Camada 1
 62
   250
370
     9
100
AcDbSpline
210
0.0
220
0.0
230
1.0
 70
    11
 71
     3
 72
    16
 73
    12
 74
     0
 42
0.0000000001
 43
0.0000000001
 12
1.0
 22
0.0
 32
0.0
 13
1.0
 23
0.0
 33
0.0
 40
0.0
 40
0.0
 40
0.0
 40
0.0
 40
0.25
 40
0.25
 40
0.25
 40
0.25
 40
0.5
 40
0.5
 40
0.5
 40
0.5
 40
1.0
 40
1.0
 40
1.0
 40
1.0
 10
-33.5644
 20
-41.3445
 30
0.0
 10
-33.5644
 20
-41.3445
 30
0.0
 10
-32.9279
 20
-43.3669
 30
0.0
 10
-32.9279
 20
-43.3669
 30
0.0
 10
-32.9279
 20
-43.3669
 30
0.0
 10
-32.9279
 20
-43.3669
 30
0.0
 10
-27.0556
 20
-36.8378
 30
0.0
 10
-27.0556
 20
-36.8378
 30
0.0
 10
-27.0556
 20
-36.8378
 30
0.0
 10
-27.0556
 20
-36.8378
 30
0.0
 10
-33.5644
 20
-41.3445
 30
0.0
 10
-33.5644
 20
-41.3445
 30
0.0
  0
SPLINE
  5
4F
330
1F
100
AcDbEntity
  8
Camada 1
 62
   250
370
     9
100
AcDbSpline
210
0.0
220
0.0
230
1.0
 70
    11
 71
     3
 72
    36
 73
    32
 74
     0
 42
0.0000000001
 43
0.0000000001
 12
1.0
 22
0.0
 32
0.0
 13
1.0
 23
0.0
 33
0.0
 40
0.0
 40
0.0
 40
0.0
 40
0.0
 40
0.1111111111111111
 40
0.1111111111111111
 40
0.1111111111111111
 40
0.1111111111111111
 40
0.2222222222222222
 40
0.2222222222222222
 40
0.2222222222222222
 40
0.2222222222222222
 40
0.3333333333333333
 40
0.3333333333333333
 40
0.3333333333333333
 40
0.3333333333333333
 40
0.4444444444444444
 40
0.4444444444444444
 40
0.4444444444444444
 40
0.4444444444444444
 40
0.5555555555555556
 40
0.5555555555555556
 40
0.5555555555555556
 40
0.5555555555555556
 40
0.6666666666666666
 40
0.6666666666666666
 40
0.6666666666666666
 40
0.6666666666666666
 40
0.7777777777777778
 40
0.7777777777777778
 40
0.7777777777777778
 40
0.7777777777777778
 40
1.0
 40
1.0
 40
1.0
 40
1.0
 10
-32.1778
 20
-44.873
 30
0.0
 10
-32.1778
 20
-44.873
 30
0.0
 10
-31.2435
 20
-47.7357
 30
0.0
 10
-31.2435
 20
-47.7357
 30
0.0
 10
-31.2435
 20
-47.7357
 30
0.0
 10
-31.2435
 20
-47.7357
 30
0.0
 10
-25.0066
 20
-40.3331
 30
0.0
 10
-25.0066
 20
-40.3331
 30
0.0
 10
-25.0066
 20
-40.3331
 30
0.0
 10
-19.8518
 20
-37.2625
 30
0.0
 10
-15.2658
 20
-33.8818
 30
0.0
 10
-11.718
 20
-29.8468
 30
0.0
 10
-11.718
 20
-29.8468
 30
0.0
 10
-10.7154
 20
-28.7066
 30
0.0
 10
-10.7208
 20
-27.2006
 30
0.0
 10
-12.6219
 20
-25.8994
 30
0.0
 10
-12.6219
 20
-25.8994
 30
0.0
 10
-12.9225
 20
-25.6302
 30
0.0
 10
-13.3156
 20
-26.186
 30
0.0
 10
-13.0437
 20
-26.4117
 30
0.0
 10
-13.0437
 20
-26.4117
 30
0.0
 10
-10.8036
 20
-28.0303
 30
0.0
 10
-11.7278
 20
-29.4036
 30
0.0
 10
-13.4355
 20
-30.8714
 30
0.0
 10
-13.4355
 20
-30.8714
 30
0.0
 10
-16.9289
 20
-34.0944
 30
0.0
 10
-20.9298
 20
-37.0003
 30
0.0
 10
-25.067
 20
-39.821
 30
0.0
 10
-25.067
 20
-39.821
 30
0.0
 10
-25.067
 20
-39.821
 30
0.0
 10
-32.1778
 20
-44.873
 30
0.0
 10
-32.1778
 20
-44.873
 30
0.0
  0
SPLINE
  5
50
330
1F
100
AcDbEntity
  8
Camada 1
 62
   250
370
     9
100
AcDbSpline
210
0.0
220
0.0
230
1.0
 70
    11
 71
     3
 72
    28
 73
    24
 74
     0
 42
0.0000000001
 43
0.0000000001
 12
1.0
 22
0.0
 32
0.0
 13
1.0
 23
0.0
 33
0.0
 40
0.0
 40
0.0
 40
0.0
 40
0.0
 40
0.1428571428571428
 40
0.1428571428571428
 40
0.1428571428571428
 40
0.1428571428571428
 40
0.2857142857142857
 40
0.2857142857142857
 40
0.2857142857142857
 40
0.2857142857142857
 40
0.4285714285714285
 40
0.4285714285714285
 40
0.4285714285714285
 40
0.4285714285714285
 40
0.5714285714285714
 40
0.5714285714285714
 40
0.5714285714285714
 40
0.5714285714285714
 40
0.7142857142857143
 40
0.7142857142857143
 40
0.7142857142857143
 40
0.7142857142857143
 40
1.0
 40
1.0
 40
1.0
 40
1.0
 10
-25.3535
 20
-37.6737
 30
0.0
 10
-25.5747
 20
-37.8824
 30
0.0
 10
-25.3607
 20
-38.2258
 30
0.0
 10
-25.0522
 20
-38.0052
 30
0.0
 10
-25.0522
 20
-38.0052
 30
0.0
 10
-21.108
 20
-35.2606
 30
0.0
 10
-17.5926
 20
-32.9433
 30
0.0
 10
-14.0086
 20
-29.7186
 30
0.0
 10
-14.0086
 20
-29.7186
 30
0.0
 10
-13.7001
 20
-29.3814
 30
0.0
 10
-13.6209
 20
-28.9833
 30
0.0
 10
-13.9332
 20
-28.3626
 30
0.0
 10
-13.9332
 20
-28.3626
 30
0.0
 10
-14.0363
 20
-28.1881
 30
0.0
 10
-14.4142
 20
-28.3941
 30
0.0
 10
-14.2647
 20
-28.664
 30
0.0
 10
-14.2647
 20
-28.664
 30
0.0
 10
-14.1747
 20
-28.9804
 30
0.0
 10
-14.2718
 20
-29.2667
 30
0.0
 10
-14.6564
 20
-29.6131
 30
0.0
 10
-14.6564
 20
-29.6131
 30
0.0
 10
-17.4933
 20
-32.3
 30
0.0
 10
-21.1023
 20
-34.8167
 30
0.0
 10
-25.3535
 20
-37.6737
 30
0.0
  0
SPLINE
  5
51
330
1F
100
AcDbEntity
  8
Camada 1
 62
   250
370
     9
100
AcDbSpline
210
0.0
220
0.0
230
1.0
 70
    11
 71
     3
 72
    28
 73
    24
 74
     0
 42
0.0000000001
 43
0.0000000001
 12
1.0
 22
0.0
 32
0.0
 13
1.0
 23
0.0
 33
0.0
 40
0.0
 40
0.0
 40
0.0
 40
0.0
 40
0.1428571428571428
 40
0.1428571428571428
 40
0.1428571428571428
 40
0.1428571428571428
 40
0.2857142857142857
 40
0.2857142857142857
 40
0.2857142857142857
 40
0.2857142857142857
 40
0.4285714285714285
 40
0.4285714285714285
 40
0.4285714285714285
 40
0.4285714285714285
 40
0.5714285714285714
 40
0.5714285714285714
 40
0.5714285714285714
 40
0.5714285714285714
 40
0.7142857142857143
 40
0.7142857142857143
 40
0.7142857142857143
 40
0.7142857142857143
 40
1.0
 40
1.0
 40
1.0
 40
1.0
 10
-24.6915
 20
-34.9782
 30
0.0
 10
-24.8374
 20
-35.1159
 30
0.0
 10
-24.6962
 20
-35.3425
 30
0.0
 10
-24.4927
 20
-35.197
 30
0.0
 10
-24.4927
 20
-35.197
 30
0.0
 10
-21.8903
 20
-33.3861
 30
0.0
 10
-19.5709
 20
-31.8572
 30
0.0
 10
-17.2063
 20
-29.7296
 30
0.0
 10
-17.2063
 20
-29.7296
 30
0.0
 10
-17.0027
 20
-29.5071
 30
0.0
 10
-16.9505
 20
-29.2444
 30
0.0
 10
-17.1565
 20
-28.8349
 30
0.0
 10
-17.1565
 20
-28.8349
 30
0.0
 10
-17.2245
 20
-28.7198
 30
0.0
 10
-17.4739
 20
-28.8557
 30
0.0
 10
-17.3753
 20
-29.0337
 30
0.0
 10
-17.3753
 20
-29.0337
 30
0.0
 10
-17.3158
 20
-29.2425
 30
0.0
 10
-17.3799
 20
-29.4314
 30
0.0
 10
-17.6337
 20
-29.66
 30
0.0
 10
-17.6337
 20
-29.66
 30
0.0
 10
-19.5054
 20
-31.4327
 30
0.0
 10
-21.8866
 20
-33.0932
 30
0.0
 10
-24.6915
 20
-34.9782
 30
0.0
  0
SPLINE
  5
52
330
1F
100
AcDbEntity
  8
Camada 1
 62
   250
370
     9
100
AcDbSpline
210
0.0
220
0.0
230
1.0
 70
    11
 71
     3
 72
    28
 73
    24
 74
     0
 42
0.0000000001
 43
0.0000000001
 12
1.0
 22
0.0
 32
0.0
 13
1.0
 23
0.0
 33
0.0
 40
0.0
 40
0.0
 40
0.0
 40
0.0
 40
0.1428571428571428
 40
0.1428571428571428
 40
0.1428571428571428
 40
0.1428571428571428
 40
0.2857142857142857
 40
0.2857142857142857
 40
0.2857142857142857
 40
0.2857142857142857
 40
0.4285714285714285
 40
0.4285714285714285
 40
0.4285714285714285
 40
0.4285714285714285
 40
0.5714285714285714
 40
0.5714285714285714
 40
0.5714285714285714
 40
0.5714285714285714
 40
0.7142857142857143
 40
0.7142857142857143
 40
0.7142857142857143
 40
0.7142857142857143
 40
1.0
 40
1.0
 40
1.0
 40
1.0
 10
-25.9071
 20
-33.5315
 30
0.0
 10
-26.0287
 20
-33.6584
 30
0.0
 10
-25.8952
 20
-33.8505
 30
0.0
 10
-25.7235
 20
-33.7142
 30
0.0
 10
-25.7235
 20
-33.7142
 30
0.0
 10
-23.5257
 20
-32.0154
 30
0.0
 10
-21.5632
 20
-30.5758
 30
0.0
 10
-19.5873
 20
-28.6102
 30
0.0
 10
-19.5873
 20
-28.6102
 30
0.0
 10
-19.4189
 20
-28.4066
 30
0.0
 10
-19.3848
 20
-28.1745
 30
0.0
 10
-19.583
 20
-27.8252
 30
0.0
 10
-19.583
 20
-27.8252
 30
0.0
 10
-19.6476
 20
-27.7274
 30
0.0
 10
-19.8598
 20
-27.8572
 30
0.0
 10
-19.7657
 20
-28.0088
 30
0.0
 10
-19.7657
 20
-28.0088
 30
0.0
 10
-19.7046
 20
-28.1888
 30
0.0
 10
-19.7524
 20
-28.3569
 30
0.0
 10
-19.9644
 20
-28.5681
 30
0.0
 10
-19.9644
 20
-28.5681
 30
0.0
 10
-21.5245
 20
-30.2015
 30
0.0
 10
-23.5353
 20
-31.759
 30
0.0
 10
-25.9071
 20
-33.5315
 30
0.0
  0
SPLINE
  5
53
330
1F
100
AcDbEntity
  8
Camada 1
 62
   250
370
     9
100
AcDbSpline
210
0.0
220
0.0
230
1.0
 70
    11
 71
     3
 72
    16
 73
    12
 74
     0
 42
0.0000000001
 43
0.0000000001
 12
1.0
 22
0.0
 32
0.0
 13
1.0
 23
0.0
 33
0.0
 40
0.0
 40
0.0
 40
0.0
 40
0.0
 40
0.25
 40
0.25
 40
0.25
 40
0.25
 40
0.5
 40
0.5
 40
0.5
 40
0.5
 40
1.0
 40
1.0
 40
1.0
 40
1.0
 10
-0.5595
 20
-83.6188
 30
0.0
 10
-7.8131
 20
-77.9577
 30
0.0
 10
-15.744
 20
-61.4454
 30
0.0
 10
-18.2982
 20
-47.2804
 30
0.0
 10
-18.2982
 20
-47.2804
 30
0.0
 10
-13.9816
 20
-49.608
 30
0.0
 10
-4.959
 20
-53.2551
 30
0.0
 10
-0.7238
 20
-52.8243
 30
0.0
 10
-0.7238
 20
-52.8243
 30
0.0
 10
-0.7238
 20
-52.8243
 30
0.0
 10
-0.5595
 20
-83.6188
 30
0.0
 10
-0.5595
 20
-83.6188
 30
0.0
  0
SPLINE
  5
54
330
1F
100
AcDbEntity
  8
Camada 1
 62
   250
370
     9
100
AcDbSpline
210
0.0
220
0.0
230
1.0
 70
    11
 71
     3
 72
    48
 73
    44
 74
     0
 42
0.0000000001
 43
0.0000000001
 12
1.0
 22
0.0
 32
0.0
 13
1.0
 23
0.0
 33
0.0
 40
0.0
 40
0.0
 40
0.0
 40
0.0
 40
0.0833333333333333
 40
0.0833333333333333
 40
0.0833333333333333
 40
0.0833333333333333
 40
0.1666666666666667
 40
0.1666666666666667
 40
0.1666666666666667
 40
0.1666666666666667
 40
0.25
 40
0.25
 40
0.25
 40
0.25
 40
0.3333333333333333
 40
0.3333333333333333
 40
0.3333333333333333
 40
0.3333333333333333
 40
0.4166666666666667
 40
0.4166666666666667
 40
0.4166666666666667
 40
0.4166666666666667
 40
0.5
 40
0.5
 40
0.5
 40
0.5
 40
0.5833333333333334
 40
0.5833333333333334
 40
0.5833333333333334
 40
0.5833333333333334
 40
0.6666666666666666
 40
0.6666666666666666
 40
0.6666666666666666
 40
0.6666666666666666
 40
0.75
 40
0.75
 40
0.75
 40
0.75
 40
0.8333333333333334
 40
0.8333333333333334
 40
0.8333333333333334
 40
0.8333333333333334
 40
1.0
 40
1.0
 40
1.0
 40
1.0
 10
-14.5478
 20
-39.6757
 30
0.0
 10
-14.5478
 20
-39.6757
 30
0.0
 10
-14.0979
 20
-46.0415
 30
0.0
 10
-14.0979
 20
-46.0415
 30
0.0
 10
-14.0979
 20
-46.0415
 30
0.0
 10
-11.0701
 20
-47.9
 30
0.0
 10
-6.8038
 20
-49.635
 30
0.0
 10
-0.7024
 20
-50.158
 30
0.0
 10
-0.7024
 20
-50.158
 30
0.0
 10
-0.7024
 20
-50.158
 30
0.0
 10
-1.3964
 20
16.6041
 30
0.0
 10
-1.3964
 20
16.6041
 30
0.0
 10
-1.3964
 20
16.6041
 30
0.0
 10
-7.3074
 20
15.8105
 30
0.0
 10
-17.8446
 20
11.3227
 30
0.0
 10
-22.6155
 20
7.6966
 30
0.0
 10
-22.6155
 20
7.6966
 30
0.0
 10
-22.6155
 20
7.6966
 30
0.0
 10
-22.0301
 20
-23.8249
 30
0.0
 10
-22.0301
 20
-23.8249
 30
0.0
 10
-22.0301
 20
-23.8249
 30
0.0
 10
-18.6827
 20
-22.597
 30
0.0
 10
-15.8212
 20
-18.9416
 30
0.0
 10
-14.6533
 20
-17.2417
 30
0.0
 10
-14.6533
 20
-17.2417
 30
0.0
 10
-12.4417
 20
-13.5763
 30
0.0
 10
-5.6253
 20
-13.3326
 30
0.0
 10
-5.2818
 20
-19.3208
 30
0.0
 10
-5.2818
 20
-19.3208
 30
0.0
 10
-5.2818
 20
-19.3208
 30
0.0
 10
-3.0821
 20
-21.7917
 30
0.0
 10
-3.0821
 20
-21.7917
 30
0.0
 10
-3.0821
 20
-21.7917
 30
0.0
 10
-3.0821
 20
-21.7917
 30
0.0
 10
-5.9448
 20
-21.4603
 30
0.0
 10
-5.9448
 20
-21.4603
 30
0.0
 10
-5.9448
 20
-21.4603
 30
0.0
 10
-5.8695
 20
-22.4345
 30
0.0
 10
-6.4619
 20
-22.8365
 30
0.0
 10
-7.5117
 20
-22.8464
 30
0.0
 10
-7.5117
 20
-22.8464
 30
0.0
 10
-7.1724
 20
-31.5627
 30
0.0
 10
-9.101
 20
-36.7454
 30
0.0
 10
-14.5478
 20
-39.6757
 30
0.0
  0
SPLINE
  5
55
330
1F
100
AcDbEntity
  8
Camada 1
 62
   250
370
     9
100
AcDbSpline
210
0.0
220
0.0
230
1.0
 70
    11
 71
     3
 72
    20
 73
    16
 74
     0
 42
0.0000000001
 43
0.0000000001
 12
1.0
 22
0.0
 32
0.0
 13
1.0
 23
0.0
 33
0.0
 40
0.0
 40
0.0
 40
0.0
 40
0.0
 40
0.2
 40
0.2
 40
0.2
 40
0.2
 40
0.4
 40
0.4
 40
0.4
 40
0.4
 40
0.6
 40
0.6
 40
0.6
 40
0.6
 40
1.0
 40
1.0
 40
1.0
 40
1.0
 10
-8.609
 20
-18.374
 30
0.0
 10
-8.9235
 20
-18.374
 30
0.0
 10
-9.1784
 20
-18.629
 30
0.0
 10
-9.1784
 20
-18.9435
 30
0.0
 10
-9.1784
 20
-18.9435
 30
0.0
 10
-9.1785
 20
-19.258
 30
0.0
 10
-8.9235
 20
-19.513
 30
0.0
 10
-8.609
 20
-19.513
 30
0.0
 10
-8.609
 20
-19.513
 30
0.0
 10
-8.2944
 20
-19.513
 30
0.0
 10
-8.0395
 20
-19.258
 30
0.0
 10
-8.0395
 20
-18.9435
 30
0.0
 10
-8.0395
 20
-18.9435
 30
0.0
 10
-8.0394
 20
-18.629
 30
0.0
 10
-8.2944
 20
-18.374
 30
0.0
 10
-8.609
 20
-18.374
 30
0.0
  0
SPLINE
  5
56
330
1F
100
AcDbEntity
  8
Camada 1
 62
   250
370
     9
100
AcDbSpline
210
0.0
220
0.0
230
1.0
 70
    27
 71
     3
 72
     8
 73
     4
 74
     0
 42
0.0000000001
 43
0.0000000001
 12
1.0
 22
0.0
 32
0.0
 13
1.0
 23
0.0
 33
0.0
 40
0.0
 40
0.0
 40
0.0
 40
0.0
 40
1.0
 40
1.0
 40
1.0
 40
1.0
 10
-8.609
 20
-18.374
 30
0.0
 10
-8.609
 20
-18.374
 30
0.0
 10
-8.609
 20
-18.374
 30
0.0
 10
-8.609
 20
-18.374
 30
0.0
  0
SPLINE
  5
57
330
1F
100
AcDbEntity
  8
Camada 1
 62
   250
370
     9
100
AcDbSpline
210
0.0
220
0.0
230
1.0
 70
    27
 71
     3
 72
     8
 73
     4
 74
     0
 42
0.0000000001
 43
0.0000000001
 12
1.0
 22
0.0
 32
0.0
 13
1.0
 23
0.0
 33
0.0
 40
0.0
 40
0.0
 40
0.0
 40
0.0
 40
1.0
 40
1.0
 40
1.0
 40
1.0
 10
-9.1784
 20
-18.9435
 30
0.0
 10
-9.1784
 20
-18.9435
 30
0.0
 10
-9.1784
 20
-18.9435
 30
0.0
 10
-9.1784
 20
-18.9435
 30
0.0
  0
SPLINE
  5
58
330
1F
100
AcDbEntity
  8
Camada 1
 62
   250
370
     9
100
AcDbSpline
210
0.0
220
0.0
230
1.0
 70
    27
 71
     3
 72
     8
 73
     4
 74
     0
 42
0.0000000001
 43
0.0000000001
 12
1.0
 22
0.0
 32
0.0
 13
1.0
 23
0.0
 33
0.0
 40
0.0
 40
0.0
 40
0.0
 40
0.0
 40
1.0
 40
1.0
 40
1.0
 40
1.0
 10
-8.609
 20
-19.513
 30
0.0
 10
-8.609
 20
-19.513
 30
0.0
 10
-8.609
 20
-19.513
 30
0.0
 10
-8.609
 20
-19.513
 30
0.0
  0
SPLINE
  5
59
330
1F
100
AcDbEntity
  8
Camada 1
 62
   250
370
     9
100
AcDbSpline
210
0.0
220
0.0
230
1.0
 70
    27
 71
     3
 72
     8
 73
     4
 74
     0
 42
0.0000000001
 43
0.0000000001
 12
1.0
 22
0.0
 32
0.0
 13
1.0
 23
0.0
 33
0.0
 40
0.0
 40
0.0
 40
0.0
 40
0.0
 40
1.0
 40
1.0
 40
1.0
 40
1.0
 10
-8.0395
 20
-18.9435
 30
0.0
 10
-8.0395
 20
-18.9435
 30
0.0
 10
-8.0395
 20
-18.9435
 30
0.0
 10
-8.0395
 20
-18.9435
 30
0.0
  0
SPLINE
  5
5A
330
1F
100
AcDbEntity
  8
Camada 1
 62
   250
370
     9
100
AcDbSpline
210
0.0
220
0.0
230
1.0
 70
    27
 71
     3
 72
     8
 73
     4
 74
     0
 42
0.0000000001
 43
0.0000000001
 12
1.0
 22
0.0
 32
0.0
 13
1.0
 23
0.0
 33
0.0
 40
0.0
 40
0.0
 40
0.0
 40
0.0
 40
1.0
 40
1.0
 40
1.0
 40
1.0
 10
-8.609
 20
-18.374
 30
0.0
 10
-8.609
 20
-18.374
 30
0.0
 10
-8.609
 20
-18.374
 30
0.0
 10
-8.609
 20
-18.374
 30
0.0
  0
SPLINE
  5
5B
330
1F
100
AcDbEntity
  8
Camada 1
 62
   250
370
     9
100
AcDbSpline
210
0.0
220
0.0
230
1.0
 70
    11
 71
     3
 72
    20
 73
    16
 74
     0
 42
0.0000000001
 43
0.0000000001
 12
1.0
 22
0.0
 32
0.0
 13
1.0
 23
0.0
 33
0.0
 40
0.0
 40
0.0
 40
0.0
 40
0.0
 40
0.2
 40
0.2
 40
0.2
 40
0.2
 40
0.4
 40
0.4
 40
0.4
 40
0.4
 40
0.6
 40
0.6
 40
0.6
 40
0.6
 40
1.0
 40
1.0
 40
1.0
 40
1.0
 10
-8.609
 20
-18.374
 30
0.0
 10
-8.9235
 20
-18.374
 30
0.0
 10
-9.1784
 20
-18.629
 30
0.0
 10
-9.1784
 20
-18.9435
 30
0.0
 10
-9.1784
 20
-18.9435
 30
0.0
 10
-9.1785
 20
-19.258
 30
0.0
 10
-8.9235
 20
-19.513
 30
0.0
 10
-8.609
 20
-19.513
 30
0.0
 10
-8.609
 20
-19.513
 30
0.0
 10
-8.2944
 20
-19.513
 30
0.0
 10
-8.0395
 20
-19.258
 30
0.0
 10
-8.0395
 20
-18.9435
 30
0.0
 10
-8.0395
 20
-18.9435
 30
0.0
 10
-8.0394
 20
-18.629
 30
0.0
 10
-8.2944
 20
-18.374
 30
0.0
 10
-8.609
 20
-18.374
 30
0.0
  0
SPLINE
  5
5C
330
1F
100
AcDbEntity
  8
Camada 1
 62
   250
370
     9
100
AcDbSpline
210
0.0
220
0.0
230
1.0
 70
    11
 71
     3
 72
    20
 73
    16
 74
     0
 42
0.0000000001
 43
0.0000000001
 12
1.0
 22
0.0
 32
0.0
 13
1.0
 23
0.0
 33
0.0
 40
0.0
 40
0.0
 40
0.0
 40
0.0
 40
0.2
 40
0.2
 40
0.2
 40
0.2
 40
0.4
 40
0.4
 40
0.4
 40
0.4
 40
0.6
 40
0.6
 40
0.6
 40
0.6
 40
1.0
 40
1.0
 40
1.0
 40
1.0
 10
-8.609
 20
-18.374
 30
0.0
 10
-8.9235
 20
-18.374
 30
0.0
 10
-9.1784
 20
-18.629
 30
0.0
 10
-9.1784
 20
-18.9435
 30
0.0
 10
-9.1784
 20
-18.9435
 30
0.0
 10
-9.1785
 20
-19.258
 30
0.0
 10
-8.9235
 20
-19.513
 30
0.0
 10
-8.609
 20
-19.513
 30
0.0
 10
-8.609
 20
-19.513
 30
0.0
 10
-8.2944
 20
-19.513
 30
0.0
 10
-8.0395
 20
-19.258
 30
0.0
 10
-8.0395
 20
-18.9435
 30
0.0
 10
-8.0395
 20
-18.9435
 30
0.0
 10
-8.0394
 20
-18.629
 30
0.0
 10
-8.2944
 20
-18.374
 30
0.0
 10
-8.609
 20
-18.374
 30
0.0
  0
SPLINE
  5
5D
330
1F
100
AcDbEntity
  8
Camada 1
 62
   250
370
     9
100
AcDbSpline
210
0.0
220
0.0
230
1.0
 70
    11
 71
     3
 72
    20
 73
    16
 74
     0
 42
0.0000000001
 43
0.0000000001
 12
1.0
 22
0.0
 32
0.0
 13
1.0
 23
0.0
 33
0.0
 40
0.0
 40
0.0
 40
0.0
 40
0.0
 40
0.2
 40
0.2
 40
0.2
 40
0.2
 40
0.4
 40
0.4
 40
0.4
 40
0.4
 40
0.6
 40
0.6
 40
0.6
 40
0.6
 40
1.0
 40
1.0
 40
1.0
 40
1.0
 10
-8.609
 20
-18.374
 30
0.0
 10
-8.9235
 20
-18.374
 30
0.0
 10
-9.1784
 20
-18.629
 30
0.0
 10
-9.1784
 20
-18.9435
 30
0.0
 10
-9.1784
 20
-18.9435
 30
0.0
 10
-9.1785
 20
-19.258
 30
0.0
 10
-8.9235
 20
-19.513
 30
0.0
 10
-8.609
 20
-19.513
 30
0.0
 10
-8.609
 20
-19.513
 30
0.0
 10
-8.2944
 20
-19.513
 30
0.0
 10
-8.0395
 20
-19.258
 30
0.0
 10
-8.0395
 20
-18.9435
 30
0.0
 10
-8.0395
 20
-18.9435
 30
0.0
 10
-8.0394
 20
-18.629
 30
0.0
 10
-8.2944
 20
-18.374
 30
0.0
 10
-8.609
 20
-18.374
 30
0.0
  0
SPLINE
  5
5E
330
1F
100
AcDbEntity
  8
Camada 1
 62
   250
370
     9
100
AcDbSpline
210
0.0
220
0.0
230
1.0
 70
    11
 71
     3
 72
    20
 73
    16
 74
     0
 42
0.0000000001
 43
0.0000000001
 12
1.0
 22
0.0
 32
0.0
 13
1.0
 23
0.0
 33
0.0
 40
0.0
 40
0.0
 40
0.0
 40
0.0
 40
0.2
 40
0.2
 40
0.2
 40
0.2
 40
0.4
 40
0.4
 40
0.4
 40
0.4
 40
0.6
 40
0.6
 40
0.6
 40
0.6
 40
1.0
 40
1.0
 40
1.0
 40
1.0
 10
-8.609
 20
-18.374
 30
0.0
 10
-8.9235
 20
-18.374
 30
0.0
 10
-9.1784
 20
-18.629
 30
0.0
 10
-9.1784
 20
-18.9435
 30
0.0
 10
-9.1784
 20
-18.9435
 30
0.0
 10
-9.1785
 20
-19.258
 30
0.0
 10
-8.9235
 20
-19.513
 30
0.0
 10
-8.609
 20
-19.513
 30
0.0
 10
-8.609
 20
-19.513
 30
0.0
 10
-8.2944
 20
-19.513
 30
0.0
 10
-8.0395
 20
-19.258
 30
0.0
 10
-8.0395
 20
-18.9435
 30
0.0
 10
-8.0395
 20
-18.9435
 30
0.0
 10
-8.0394
 20
-18.629
 30
0.0
 10
-8.2944
 20
-18.374
 30
0.0
 10
-8.609
 20
-18.374
 30
0.0
  0
SPLINE
  5
5F
330
1F
100
AcDbEntity
  8
Camada 1
 62
   250
370
     9
100
AcDbSpline
210
0.0
220
0.0
230
1.0
 70
    11
 71
     3
 72
    20
 73
    16
 74
     0
 42
0.0000000001
 43
0.0000000001
 12
1.0
 22
0.0
 32
0.0
 13
1.0
 23
0.0
 33
0.0
 40
0.0
 40
0.0
 40
0.0
 40
0.0
 40
0.2
 40
0.2
 40
0.2
 40
0.2
 40
0.4
 40
0.4
 40
0.4
 40
0.4
 40
0.6
 40
0.6
 40
0.6
 40
0.6
 40
1.0
 40
1.0
 40
1.0
 40
1.0
 10
-8.609
 20
-18.374
 30
0.0
 10
-8.9235
 20
-18.374
 30
0.0
 10
-9.1784
 20
-18.629
 30
0.0
 10
-9.1784
 20
-18.9435
 30
0.0
 10
-9.1784
 20
-18.9435
 30
0.0
 10
-9.1785
 20
-19.258
 30
0.0
 10
-8.9235
 20
-19.513
 30
0.0
 10
-8.609
 20
-19.513
 30
0.0
 10
-8.609
 20
-19.513
 30
0.0
 10
-8.2944
 20
-19.513
 30
0.0
 10
-8.0395
 20
-19.258
 30
0.0
 10
-8.0395
 20
-18.9435
 30
0.0
 10
-8.0395
 20
-18.9435
 30
0.0
 10
-8.0394
 20
-18.629
 30
0.0
 10
-8.2944
 20
-18.374
 30
0.0
 10
-8.609
 20
-18.374
 30
0.0
  0
SPLINE
  5
60
330
1F
100
AcDbEntity
  8
Camada 1
 62
   250
370
     9
100
AcDbSpline
210
0.0
220
0.0
230
1.0
 70
    11
 71
     3
 72
    20
 73
    16
 74
     0
 42
0.0000000001
 43
0.0000000001
 12
1.0
 22
0.0
 32
0.0
 13
1.0
 23
0.0
 33
0.0
 40
0.0
 40
0.0
 40
0.0
 40
0.0
 40
0.2
 40
0.2
 40
0.2
 40
0.2
 40
0.4
 40
0.4
 40
0.4
 40
0.4
 40
0.6
 40
0.6
 40
0.6
 40
0.6
 40
1.0
 40
1.0
 40
1.0
 40
1.0
 10
-8.609
 20
-18.374
 30
0.0
 10
-8.9235
 20
-18.374
 30
0.0
 10
-9.1784
 20
-18.629
 30
0.0
 10
-9.1784
 20
-18.9435
 30
0.0
 10
-9.1784
 20
-18.9435
 30
0.0
 10
-9.1785
 20
-19.258
 30
0.0
 10
-8.9235
 20
-19.513
 30
0.0
 10
-8.609
 20
-19.513
 30
0.0
 10
-8.609
 20
-19.513
 30
0.0
 10
-8.2944
 20
-19.513
 30
0.0
 10
-8.0395
 20
-19.258
 30
0.0
 10
-8.0395
 20
-18.9435
 30
0.0
 10
-8.0395
 20
-18.9435
 30
0.0
 10
-8.0394
 20
-18.629
 30
0.0
 10
-8.2944
 20
-18.374
 30
0.0
 10
-8.609
 20
-18.374
 30
0.0
  0
SPLINE
  5
61
330
1F
100
AcDbEntity
  8
Camada 1
 62
   250
370
     9
100
AcDbSpline
210
0.0
220
0.0
230
1.0
 70
    11
 71
     3
 72
    20
 73
    16
 74
     0
 42
0.0000000001
 43
0.0000000001
 12
1.0
 22
0.0
 32
0.0
 13
1.0
 23
0.0
 33
0.0
 40
0.0
 40
0.0
 40
0.0
 40
0.0
 40
0.2
 40
0.2
 40
0.2
 40
0.2
 40
0.4
 40
0.4
 40
0.4
 40
0.4
 40
0.6
 40
0.6
 40
0.6
 40
0.6
 40
1.0
 40
1.0
 40
1.0
 40
1.0
 10
-8.609
 20
-18.374
 30
0.0
 10
-8.9235
 20
-18.374
 30
0.0
 10
-9.1784
 20
-18.629
 30
0.0
 10
-9.1784
 20
-18.9435
 30
0.0
 10
-9.1784
 20
-18.9435
 30
0.0
 10
-9.1785
 20
-19.258
 30
0.0
 10
-8.9235
 20
-19.513
 30
0.0
 10
-8.609
 20
-19.513
 30
0.0
 10
-8.609
 20
-19.513
 30
0.0
 10
-8.2944
 20
-19.513
 30
0.0
 10
-8.0395
 20
-19.258
 30
0.0
 10
-8.0395
 20
-18.9435
 30
0.0
 10
-8.0395
 20
-18.9435
 30
0.0
 10
-8.0394
 20
-18.629
 30
0.0
 10
-8.2944
 20
-18.374
 30
0.0
 10
-8.609
 20
-18.374
 30
0.0
  0
SPLINE
  5
62
330
1F
100
AcDbEntity
  8
Camada 1
 62
   250
370
     9
100
AcDbSpline
210
0.0
220
0.0
230
1.0
 70
    11
 71
     3
 72
    20
 73
    16
 74
     0
 42
0.0000000001
 43
0.0000000001
 12
1.0
 22
0.0
 32
0.0
 13
1.0
 23
0.0
 33
0.0
 40
0.0
 40
0.0
 40
0.0
 40
0.0
 40
0.2
 40
0.2
 40
0.2
 40
0.2
 40
0.4
 40
0.4
 40
0.4
 40
0.4
 40
0.6
 40
0.6
 40
0.6
 40
0.6
 40
1.0
 40
1.0
 40
1.0
 40
1.0
 10
-8.609
 20
-18.374
 30
0.0
 10
-8.9235
 20
-18.374
 30
0.0
 10
-9.1784
 20
-18.629
 30
0.0
 10
-9.1784
 20
-18.9435
 30
0.0
 10
-9.1784
 20
-18.9435
 30
0.0
 10
-9.1785
 20
-19.258
 30
0.0
 10
-8.9235
 20
-19.513
 30
0.0
 10
-8.609
 20
-19.513
 30
0.0
 10
-8.609
 20
-19.513
 30
0.0
 10
-8.2944
 20
-19.513
 30
0.0
 10
-8.0395
 20
-19.258
 30
0.0
 10
-8.0395
 20
-18.9435
 30
0.0
 10
-8.0395
 20
-18.9435
 30
0.0
 10
-8.0394
 20
-18.629
 30
0.0
 10
-8.2944
 20
-18.374
 30
0.0
 10
-8.609
 20
-18.374
 30
0.0
  0
SPLINE
  5
63
330
1F
100
AcDbEntity
  8
Camada 1
 62
   250
370
     9
100
AcDbSpline
210
0.0
220
0.0
230
1.0
 70
    11
 71
     3
 72
    20
 73
    16
 74
     0
 42
0.0000000001
 43
0.0000000001
 12
1.0
 22
0.0
 32
0.0
 13
1.0
 23
0.0
 33
0.0
 40
0.0
 40
0.0
 40
0.0
 40
0.0
 40
0.2
 40
0.2
 40
0.2
 40
0.2
 40
0.4
 40
0.4
 40
0.4
 40
0.4
 40
0.6
 40
0.6
 40
0.6
 40
0.6
 40
1.0
 40
1.0
 40
1.0
 40
1.0
 10
-8.609
 20
-18.374
 30
0.0
 10
-8.9235
 20
-18.374
 30
0.0
 10
-9.1784
 20
-18.629
 30
0.0
 10
-9.1784
 20
-18.9435
 30
0.0
 10
-9.1784
 20
-18.9435
 30
0.0
 10
-9.1785
 20
-19.258
 30
0.0
 10
-8.9235
 20
-19.513
 30
0.0
 10
-8.609
 20
-19.513
 30
0.0
 10
-8.609
 20
-19.513
 30
0.0
 10
-8.2944
 20
-19.513
 30
0.0
 10
-8.0395
 20
-19.258
 30
0.0
 10
-8.0395
 20
-18.9435
 30
0.0
 10
-8.0395
 20
-18.9435
 30
0.0
 10
-8.0394
 20
-18.629
 30
0.0
 10
-8.2944
 20
-18.374
 30
0.0
 10
-8.609
 20
-18.374
 30
0.0
  0
SPLINE
  5
64
330
1F
100
AcDbEntity
  8
Camada 1
 62
   250
370
     9
100
AcDbSpline
210
0.0
220
0.0
230
1.0
 70
    11
 71
     3
 72
    20
 73
    16
 74
     0
 42
0.0000000001
 43
0.0000000001
 12
1.0
 22
0.0
 32
0.0
 13
1.0
 23
0.0
 33
0.0
 40
0.0
 40
0.0
 40
0.0
 40
0.0
 40
0.2
 40
0.2
 40
0.2
 40
0.2
 40
0.4
 40
0.4
 40
0.4
 40
0.4
 40
0.6
 40
0.6
 40
0.6
 40
0.6
 40
1.0
 40
1.0
 40
1.0
 40
1.0
 10
-8.609
 20
-18.374
 30
0.0
 10
-8.9235
 20
-18.374
 30
0.0
 10
-9.1784
 20
-18.629
 30
0.0
 10
-9.1784
 20
-18.9435
 30
0.0
 10
-9.1784
 20
-18.9435
 30
0.0
 10
-9.1785
 20
-19.258
 30
0.0
 10
-8.9235
 20
-19.513
 30
0.0
 10
-8.609
 20
-19.513
 30
0.0
 10
-8.609
 20
-19.513
 30
0.0
 10
-8.2944
 20
-19.513
 30
0.0
 10
-8.0395
 20
-19.258
 30
0.0
 10
-8.0395
 20
-18.9435
 30
0.0
 10
-8.0395
 20
-18.9435
 30
0.0
 10
-8.0394
 20
-18.629
 30
0.0
 10
-8.2944
 20
-18.374
 30
0.0
 10
-8.609
 20
-18.374
 30
0.0
  0
SPLINE
  5
65
330
1F
100
AcDbEntity
  8
Camada 1
 62
   250
370
     9
100
AcDbSpline
210
0.0
220
0.0
230
1.0
 70
    11
 71
     3
 72
    20
 73
    16
 74
     0
 42
0.0000000001
 43
0.0000000001
 12
1.0
 22
0.0
 32
0.0
 13
1.0
 23
0.0
 33
0.0
 40
0.0
 40
0.0
 40
0.0
 40
0.0
 40
0.2
 40
0.2
 40
0.2
 40
0.2
 40
0.4
 40
0.4
 40
0.4
 40
0.4
 40
0.6
 40
0.6
 40
0.6
 40
0.6
 40
1.0
 40
1.0
 40
1.0
 40
1.0
 10
-8.609
 20
-18.374
 30
0.0
 10
-8.9235
 20
-18.374
 30
0.0
 10
-9.1784
 20
-18.629
 30
0.0
 10
-9.1784
 20
-18.9435
 30
0.0
 10
-9.1784
 20
-18.9435
 30
0.0
 10
-9.1785
 20
-19.258
 30
0.0
 10
-8.9235
 20
-19.513
 30
0.0
 10
-8.609
 20
-19.513
 30
0.0
 10
-8.609
 20
-19.513
 30
0.0
 10
-8.2944
 20
-19.513
 30
0.0
 10
-8.0395
 20
-19.258
 30
0.0
 10
-8.0395
 20
-18.9435
 30
0.0
 10
-8.0395
 20
-18.9435
 30
0.0
 10
-8.0394
 20
-18.629
 30
0.0
 10
-8.2944
 20
-18.374
 30
0.0
 10
-8.609
 20
-18.374
 30
0.0
  0
SPLINE
  5
66
330
1F
100
AcDbEntity
  8
Camada 1
 62
   250
370
     9
100
AcDbSpline
210
0.0
220
0.0
230
1.0
 70
    11
 71
     3
 72
    20
 73
    16
 74
     0
 42
0.0000000001
 43
0.0000000001
 12
1.0
 22
0.0
 32
0.0
 13
1.0
 23
0.0
 33
0.0
 40
0.0
 40
0.0
 40
0.0
 40
0.0
 40
0.2
 40
0.2
 40
0.2
 40
0.2
 40
0.4
 40
0.4
 40
0.4
 40
0.4
 40
0.6
 40
0.6
 40
0.6
 40
0.6
 40
1.0
 40
1.0
 40
1.0
 40
1.0
 10
-8.609
 20
-18.374
 30
0.0
 10
-8.9235
 20
-18.374
 30
0.0
 10
-9.1784
 20
-18.629
 30
0.0
 10
-9.1784
 20
-18.9435
 30
0.0
 10
-9.1784
 20
-18.9435
 30
0.0
 10
-9.1785
 20
-19.258
 30
0.0
 10
-8.9235
 20
-19.513
 30
0.0
 10
-8.609
 20
-19.513
 30
0.0
 10
-8.609
 20
-19.513
 30
0.0
 10
-8.2944
 20
-19.513
 30
0.0
 10
-8.0395
 20
-19.258
 30
0.0
 10
-8.0395
 20
-18.9435
 30
0.0
 10
-8.0395
 20
-18.9435
 30
0.0
 10
-8.0394
 20
-18.629
 30
0.0
 10
-8.2944
 20
-18.374
 30
0.0
 10
-8.609
 20
-18.374
 30
0.0
  0
SPLINE
  5
67
330
1F
100
AcDbEntity
  8
Camada 1
 62
   250
370
     9
100
AcDbSpline
210
0.0
220
0.0
230
1.0
 70
    11
 71
     3
 72
    20
 73
    16
 74
     0
 42
0.0000000001
 43
0.0000000001
 12
1.0
 22
0.0
 32
0.0
 13
1.0
 23
0.0
 33
0.0
 40
0.0
 40
0.0
 40
0.0
 40
0.0
 40
0.2
 40
0.2
 40
0.2
 40
0.2
 40
0.4
 40
0.4
 40
0.4
 40
0.4
 40
0.6
 40
0.6
 40
0.6
 40
0.6
 40
1.0
 40
1.0
 40
1.0
 40
1.0
 10
-8.609
 20
-18.374
 30
0.0
 10
-8.9235
 20
-18.374
 30
0.0
 10
-9.1784
 20
-18.629
 30
0.0
 10
-9.1784
 20
-18.9435
 30
0.0
 10
-9.1784
 20
-18.9435
 30
0.0
 10
-9.1785
 20
-19.258
 30
0.0
 10
-8.9235
 20
-19.513
 30
0.0
 10
-8.609
 20
-19.513
 30
0.0
 10
-8.609
 20
-19.513
 30
0.0
 10
-8.2944
 20
-19.513
 30
0.0
 10
-8.0395
 20
-19.258
 30
0.0
 10
-8.0395
 20
-18.9435
 30
0.0
 10
-8.0395
 20
-18.9435
 30
0.0
 10
-8.0394
 20
-18.629
 30
0.0
 10
-8.2944
 20
-18.374
 30
0.0
 10
-8.609
 20
-18.374
 30
0.0
  0
SPLINE
  5
68
330
1F
100
AcDbEntity
  8
Camada 1
 62
   250
370
     9
100
AcDbSpline
210
0.0
220
0.0
230
1.0
 70
    11
 71
     3
 72
    20
 73
    16
 74
     0
 42
0.0000000001
 43
0.0000000001
 12
1.0
 22
0.0
 32
0.0
 13
1.0
 23
0.0
 33
0.0
 40
0.0
 40
0.0
 40
0.0
 40
0.0
 40
0.2
 40
0.2
 40
0.2
 40
0.2
 40
0.4
 40
0.4
 40
0.4
 40
0.4
 40
0.6
 40
0.6
 40
0.6
 40
0.6
 40
1.0
 40
1.0
 40
1.0
 40
1.0
 10
-8.609
 20
-18.374
 30
0.0
 10
-8.9235
 20
-18.374
 30
0.0
 10
-9.1784
 20
-18.629
 30
0.0
 10
-9.1784
 20
-18.9435
 30
0.0
 10
-9.1784
 20
-18.9435
 30
0.0
 10
-9.1785
 20
-19.258
 30
0.0
 10
-8.9235
 20
-19.513
 30
0.0
 10
-8.609
 20
-19.513
 30
0.0
 10
-8.609
 20
-19.513
 30
0.0
 10
-8.2944
 20
-19.513
 30
0.0
 10
-8.0395
 20
-19.258
 30
0.0
 10
-8.0395
 20
-18.9435
 30
0.0
 10
-8.0395
 20
-18.9435
 30
0.0
 10
-8.0394
 20
-18.629
 30
0.0
 10
-8.2944
 20
-18.374
 30
0.0
 10
-8.609
 20
-18.374
 30
0.0
  0
SPLINE
  5
69
330
1F
100
AcDbEntity
  8
Camada 1
 62
   250
370
     9
100
AcDbSpline
210
0.0
220
0.0
230
1.0
 70
    11
 71
     3
 72
    20
 73
    16
 74
     0
 42
0.0000000001
 43
0.0000000001
 12
1.0
 22
0.0
 32
0.0
 13
1.0
 23
0.0
 33
0.0
 40
0.0
 40
0.0
 40
0.0
 40
0.0
 40
0.2
 40
0.2
 40
0.2
 40
0.2
 40
0.4
 40
0.4
 40
0.4
 40
0.4
 40
0.6
 40
0.6
 40
0.6
 40
0.6
 40
1.0
 40
1.0
 40
1.0
 40
1.0
 10
-8.609
 20
-18.374
 30
0.0
 10
-8.9235
 20
-18.374
 30
0.0
 10
-9.1784
 20
-18.629
 30
0.0
 10
-9.1784
 20
-18.9435
 30
0.0
 10
-9.1784
 20
-18.9435
 30
0.0
 10
-9.1785
 20
-19.258
 30
0.0
 10
-8.9235
 20
-19.513
 30
0.0
 10
-8.609
 20
-19.513
 30
0.0
 10
-8.609
 20
-19.513
 30
0.0
 10
-8.2944
 20
-19.513
 30
0.0
 10
-8.0395
 20
-19.258
 30
0.0
 10
-8.0395
 20
-18.9435
 30
0.0
 10
-8.0395
 20
-18.9435
 30
0.0
 10
-8.0394
 20
-18.629
 30
0.0
 10
-8.2944
 20
-18.374
 30
0.0
 10
-8.609
 20
-18.374
 30
0.0
  0
SPLINE
  5
6A
330
1F
100
AcDbEntity
  8
Camada 1
 62
   250
370
     9
100
AcDbSpline
210
0.0
220
0.0
230
1.0
 70
    11
 71
     3
 72
    20
 73
    16
 74
     0
 42
0.0000000001
 43
0.0000000001
 12
1.0
 22
0.0
 32
0.0
 13
1.0
 23
0.0
 33
0.0
 40
0.0
 40
0.0
 40
0.0
 40
0.0
 40
0.2
 40
0.2
 40
0.2
 40
0.2
 40
0.4
 40
0.4
 40
0.4
 40
0.4
 40
0.6
 40
0.6
 40
0.6
 40
0.6
 40
1.0
 40
1.0
 40
1.0
 40
1.0
 10
-8.609
 20
-18.374
 30
0.0
 10
-8.9235
 20
-18.374
 30
0.0
 10
-9.1784
 20
-18.629
 30
0.0
 10
-9.1784
 20
-18.9435
 30
0.0
 10
-9.1784
 20
-18.9435
 30
0.0
 10
-9.1785
 20
-19.258
 30
0.0
 10
-8.9235
 20
-19.513
 30
0.0
 10
-8.609
 20
-19.513
 30
0.0
 10
-8.609
 20
-19.513
 30
0.0
 10
-8.2944
 20
-19.513
 30
0.0
 10
-8.0395
 20
-19.258
 30
0.0
 10
-8.0395
 20
-18.9435
 30
0.0
 10
-8.0395
 20
-18.9435
 30
0.0
 10
-8.0394
 20
-18.629
 30
0.0
 10
-8.2944
 20
-18.374
 30
0.0
 10
-8.609
 20
-18.374
 30
0.0
  0
SPLINE
  5
6B
330
1F
100
AcDbEntity
  8
Camada 1
 62
   250
370
     9
100
AcDbSpline
210
0.0
220
0.0
230
1.0
 70
    11
 71
     3
 72
    20
 73
    16
 74
     0
 42
0.0000000001
 43
0.0000000001
 12
1.0
 22
0.0
 32
0.0
 13
1.0
 23
0.0
 33
0.0
 40
0.0
 40
0.0
 40
0.0
 40
0.0
 40
0.2
 40
0.2
 40
0.2
 40
0.2
 40
0.4
 40
0.4
 40
0.4
 40
0.4
 40
0.6
 40
0.6
 40
0.6
 40
0.6
 40
1.0
 40
1.0
 40
1.0
 40
1.0
 10
-8.609
 20
-18.374
 30
0.0
 10
-8.9235
 20
-18.374
 30
0.0
 10
-9.1784
 20
-18.629
 30
0.0
 10
-9.1784
 20
-18.9435
 30
0.0
 10
-9.1784
 20
-18.9435
 30
0.0
 10
-9.1785
 20
-19.258
 30
0.0
 10
-8.9235
 20
-19.513
 30
0.0
 10
-8.609
 20
-19.513
 30
0.0
 10
-8.609
 20
-19.513
 30
0.0
 10
-8.2944
 20
-19.513
 30
0.0
 10
-8.0395
 20
-19.258
 30
0.0
 10
-8.0395
 20
-18.9435
 30
0.0
 10
-8.0395
 20
-18.9435
 30
0.0
 10
-8.0394
 20
-18.629
 30
0.0
 10
-8.2944
 20
-18.374
 30
0.0
 10
-8.609
 20
-18.374
 30
0.0
  0
SPLINE
  5
6C
330
1F
100
AcDbEntity
  8
Camada 1
 62
   250
370
     9
100
AcDbSpline
210
0.0
220
0.0
230
1.0
 70
    11
 71
     3
 72
    20
 73
    16
 74
     0
 42
0.0000000001
 43
0.0000000001
 12
1.0
 22
0.0
 32
0.0
 13
1.0
 23
0.0
 33
0.0
 40
0.0
 40
0.0
 40
0.0
 40
0.0
 40
0.2
 40
0.2
 40
0.2
 40
0.2
 40
0.4
 40
0.4
 40
0.4
 40
0.4
 40
0.6
 40
0.6
 40
0.6
 40
0.6
 40
1.0
 40
1.0
 40
1.0
 40
1.0
 10
-8.609
 20
-18.374
 30
0.0
 10
-8.9235
 20
-18.374
 30
0.0
 10
-9.1784
 20
-18.629
 30
0.0
 10
-9.1784
 20
-18.9435
 30
0.0
 10
-9.1784
 20
-18.9435
 30
0.0
 10
-9.1785
 20
-19.258
 30
0.0
 10
-8.9235
 20
-19.513
 30
0.0
 10
-8.609
 20
-19.513
 30
0.0
 10
-8.609
 20
-19.513
 30
0.0
 10
-8.2944
 20
-19.513
 30
0.0
 10
-8.0395
 20
-19.258
 30
0.0
 10
-8.0395
 20
-18.9435
 30
0.0
 10
-8.0395
 20
-18.9435
 30
0.0
 10
-8.0394
 20
-18.629
 30
0.0
 10
-8.2944
 20
-18.374
 30
0.0
 10
-8.609
 20
-18.374
 30
0.0
  0
SPLINE
  5
6D
330
1F
100
AcDbEntity
  8
Camada 1
 62
   250
370
     9
100
AcDbSpline
210
0.0
220
0.0
230
1.0
 70
    11
 71
     3
 72
    20
 73
    16
 74
     0
 42
0.0000000001
 43
0.0000000001
 12
1.0
 22
0.0
 32
0.0
 13
1.0
 23
0.0
 33
0.0
 40
0.0
 40
0.0
 40
0.0
 40
0.0
 40
0.2
 40
0.2
 40
0.2
 40
0.2
 40
0.4
 40
0.4
 40
0.4
 40
0.4
 40
0.6
 40
0.6
 40
0.6
 40
0.6
 40
1.0
 40
1.0
 40
1.0
 40
1.0
 10
-8.609
 20
-18.374
 30
0.0
 10
-8.9235
 20
-18.374
 30
0.0
 10
-9.1784
 20
-18.629
 30
0.0
 10
-9.1784
 20
-18.9435
 30
0.0
 10
-9.1784
 20
-18.9435
 30
0.0
 10
-9.1785
 20
-19.258
 30
0.0
 10
-8.9235
 20
-19.513
 30
0.0
 10
-8.609
 20
-19.513
 30
0.0
 10
-8.609
 20
-19.513
 30
0.0
 10
-8.2944
 20
-19.513
 30
0.0
 10
-8.0395
 20
-19.258
 30
0.0
 10
-8.0395
 20
-18.9435
 30
0.0
 10
-8.0395
 20
-18.9435
 30
0.0
 10
-8.0394
 20
-18.629
 30
0.0
 10
-8.2944
 20
-18.374
 30
0.0
 10
-8.609
 20
-18.374
 30
0.0
  0
SPLINE
  5
6E
330
1F
100
AcDbEntity
  8
Camada 1
 62
   250
370
     9
100
AcDbSpline
210
0.0
220
0.0
230
1.0
 70
    11
 71
     3
 72
    20
 73
    16
 74
     0
 42
0.0000000001
 43
0.0000000001
 12
1.0
 22
0.0
 32
0.0
 13
1.0
 23
0.0
 33
0.0
 40
0.0
 40
0.0
 40
0.0
 40
0.0
 40
0.2
 40
0.2
 40
0.2
 40
0.2
 40
0.4
 40
0.4
 40
0.4
 40
0.4
 40
0.6
 40
0.6
 40
0.6
 40
0.6
 40
1.0
 40
1.0
 40
1.0
 40
1.0
 10
-8.609
 20
-18.374
 30
0.0
 10
-8.9235
 20
-18.374
 30
0.0
 10
-9.1784
 20
-18.629
 30
0.0
 10
-9.1784
 20
-18.9435
 30
0.0
 10
-9.1784
 20
-18.9435
 30
0.0
 10
-9.1785
 20
-19.258
 30
0.0
 10
-8.9235
 20
-19.513
 30
0.0
 10
-8.609
 20
-19.513
 30
0.0
 10
-8.609
 20
-19.513
 30
0.0
 10
-8.2944
 20
-19.513
 30
0.0
 10
-8.0395
 20
-19.258
 30
0.0
 10
-8.0395
 20
-18.9435
 30
0.0
 10
-8.0395
 20
-18.9435
 30
0.0
 10
-8.0394
 20
-18.629
 30
0.0
 10
-8.2944
 20
-18.374
 30
0.0
 10
-8.609
 20
-18.374
 30
0.0
  0
SPLINE
  5
6F
330
1F
100
AcDbEntity
  8
Camada 1
 62
   250
370
     9
100
AcDbSpline
210
0.0
220
0.0
230
1.0
 70
    11
 71
     3
 72
    16
 73
    12
 74
     0
 42
0.0000000001
 43
0.0000000001
 12
1.0
 22
0.0
 32
0.0
 13
1.0
 23
0.0
 33
0.0
 40
0.0
 40
0.0
 40
0.0
 40
0.0
 40
0.25
 40
0.25
 40
0.25
 40
0.25
 40
0.5
 40
0.5
 40
0.5
 40
0.5
 40
1.0
 40
1.0
 40
1.0
 40
1.0
 10
-22.5047
 20
11.3571
 30
0.0
 10
-17.7872
 20
14.6841
 30
0.0
 10
-7.0989
 20
19.0725
 30
0.0
 10
-1.4173
 20
19.3462
 30
0.0
 10
-1.4173
 20
19.3462
 30
0.0
 10
-2.3668
 20
43.0423
 30
0.0
 10
-2.4782
 20
64.6325
 30
0.0
 10
-3.757
 20
86.1921
 30
0.0
 10
-3.757
 20
86.1921
 30
0.0
 10
-22.0024
 20
79.3783
 30
0.0
 10
-22.806
 20
29.3565
 30
0.0
 10
-22.5047
 20
11.3571
 30
0.0
  0
SPLINE
  5
70
330
1F
100
AcDbEntity
  8
Camada 1
 62
   250
370
     9
100
AcDbSpline
210
0.0
220
0.0
230
1.0
 70
    11
 71
     3
 72
    16
 73
    12
 74
     0
 42
0.0000000001
 43
0.0000000001
 12
1.0
 22
0.0
 32
0.0
 13
1.0
 23
0.0
 33
0.0
 40
0.0
 40
0.0
 40
0.0
 40
0.0
 40
0.25
 40
0.25
 40
0.25
 40
0.25
 40
0.5
 40
0.5
 40
0.5
 40
0.5
 40
1.0
 40
1.0
 40
1.0
 40
1.0
 10
2.3592
 20
-83.6746
 30
0.0
 10
8.465
 20
-75.247
 30
0.0
 10
13.2071
 20
-62.6501
 30
0.0
 10
15.7318
 20
-48.3044
 30
0.0
 10
15.7318
 20
-48.3044
 30
0.0
 10
11.4149
 20
-50.632
 30
0.0
 10
6.4782
 20
-52.3247
 30
0.0
 10
2.3234
 20
-52.7185
 30
0.0
 10
2.3234
 20
-52.7185
 30
0.0
 10
2.3234
 20
-52.7185
 30
0.0
 10
2.3592
 20
-83.6746
 30
0.0
 10
2.3592
 20
-83.6746
 30
0.0
  0
SPLINE
  5
71
330
1F
100
AcDbEntity
  8
Camada 1
 62
   250
370
     9
100
AcDbSpline
210
0.0
220
0.0
230
1.0
 70
    11
 71
     3
 72
    20
 73
    16
 74
     0
 42
0.0000000001
 43
0.0000000001
 12
1.0
 22
0.0
 32
0.0
 13
1.0
 23
0.0
 33
0.0
 40
0.0
 40
0.0
 40
0.0
 40
0.0
 40
0.2
 40
0.2
 40
0.2
 40
0.2
 40
0.4
 40
0.4
 40
0.4
 40
0.4
 40
0.6
 40
0.6
 40
0.6
 40
0.6
 40
1.0
 40
1.0
 40
1.0
 40
1.0
 10
1.624
 20
16.5533
 30
0.0
 10
1.624
 20
16.5533
 30
0.0
 10
2.2966
 20
-49.9442
 30
0.0
 10
2.2966
 20
-49.9442
 30
0.0
 10
2.2966
 20
-49.9442
 30
0.0
 10
7.7458
 20
-48.9629
 30
0.0
 10
12.7742
 20
-47.2029
 30
0.0
 10
16.1843
 20
-44.9759
 30
0.0
 10
16.1843
 20
-44.9759
 30
0.0
 10
17.8092
 20
-30.7105
 30
0.0
 10
18.5662
 20
-11.3834
 30
0.0
 10
17.4653
 20
10.4452
 30
0.0
 10
17.4653
 20
10.4452
 30
0.0
 10
11.2756
 20
15.0138
 30
0.0
 10
6.0458
 20
16.4442
 30
0.0
 10
1.624
 20
16.5533
 30
0.0
  0
SPLINE
  5
72
330
1F
100
AcDbEntity
  8
Camada 1
 62
   250
370
     9
100
AcDbSpline
210
0.0
220
0.0
230
1.0
 70
    11
 71
     3
 72
    40
 73
    36
 74
     0
 42
0.0000000001
 43
0.0000000001
 12
1.0
 22
0.0
 32
0.0
 13
1.0
 23
0.0
 33
0.0
 40
0.0
 40
0.0
 40
0.0
 40
0.0
 40
0.1
 40
0.1
 40
0.1
 40
0.1
 40
0.2
 40
0.2
 40
0.2
 40
0.2
 40
0.3
 40
0.3
 40
0.3
 40
0.3
 40
0.4
 40
0.4
 40
0.4
 40
0.4
 40
0.5
 40
0.5
 40
0.5
 40
0.5
 40
0.6
 40
0.6
 40
0.6
 40
0.6
 40
0.7
 40
0.7
 40
0.7
 40
0.7
 40
0.8
 40
0.8
 40
0.8
 40
0.8
 40
1.0
 40
1.0
 40
1.0
 40
1.0
 10
17.418
 20
17.2496
 30
0.0
 10
17.418
 20
17.2496
 30
0.0
 10
17.5083
 20
13.4227
 30
0.0
 10
17.5083
 20
13.4227
 30
0.0
 10
17.5083
 20
13.4227
 30
0.0
 10
12.3896
 20
16.8828
 30
0.0
 10
7.4808
 20
19.0338
 30
0.0
 10
1.6391
 20
19.2796
 30
0.0
 10
1.6391
 20
19.2796
 30
0.0
 10
0.8407
 20
41.665
 30
0.0
 10
0.5713
 20
63.8918
 30
0.0
 10
-0.7564
 20
86.436
 30
0.0
 10
-0.7564
 20
86.436
 30
0.0
 10
9.5285
 20
83.0707
 30
0.0
 10
13.9235
 20
61.5578
 30
0.0
 10
17.119
 20
40.5746
 30
0.0
 10
17.119
 20
40.5746
 30
0.0
 10
11.1402
 20
45.6301
 30
0.0
 10
5.8559
 20
41.0281
 30
0.0
 10
6.539
 20
36.384
 30
0.0
 10
6.539
 20
36.384
 30
0.0
 10
6.539
 20
36.384
 30
0.0
 10
3.9174
 20
34.1843
 30
0.0
 10
3.9174
 20
34.1843
 30
0.0
 10
3.9174
 20
34.1843
 30
0.0
 10
3.9174
 20
34.1843
 30
0.0
 10
7.0211
 20
34.7267
 30
0.0
 10
7.0211
 20
34.7267
 30
0.0
 10
7.0211
 20
34.7267
 30
0.0
 10
7.2177
 20
33.8815
 30
0.0
 10
7.6337
 20
33.806
 30
0.0
 10
8.6343
 20
33.845
 30
0.0
 10
8.6343
 20
33.845
 30
0.0
 10
8.1997
 20
24.175
 30
0.0
 10
11.5844
 20
19.2053
 30
0.0
 10
17.418
 20
17.2496
 30
0.0
  0
SPLINE
  5
73
330
1F
100
AcDbEntity
  8
Camada 1
 62
   250
370
     9
100
AcDbSpline
210
0.0
220
0.0
230
1.0
 70
    11
 71
     3
 72
    28
 73
    24
 74
     0
 42
0.0000000001
 43
0.0000000001
 12
1.0
 22
0.0
 32
0.0
 13
1.0
 23
0.0
 33
0.0
 40
0.0
 40
0.0
 40
0.0
 40
0.0
 40
0.1428571428571428
 40
0.1428571428571428
 40
0.1428571428571428
 40
0.1428571428571428
 40
0.2857142857142857
 40
0.2857142857142857
 40
0.2857142857142857
 40
0.2857142857142857
 40
0.4285714285714285
 40
0.4285714285714285
 40
0.4285714285714285
 40
0.4285714285714285
 40
0.5714285714285714
 40
0.5714285714285714
 40
0.5714285714285714
 40
0.5714285714285714
 40
0.7142857142857143
 40
0.7142857142857143
 40
0.7142857142857143
 40
0.7142857142857143
 40
1.0
 40
1.0
 40
1.0
 40
1.0
 10
-24.5149
 20
-43.8011
 30
0.0
 10
-24.2757
 20
-43.4941
 30
0.0
 10
-24.6473
 20
-43.0936
 30
0.0
 10
-24.9705
 20
-43.4204
 30
0.0
 10
-24.9705
 20
-43.4204
 30
0.0
 10
-27.9077
 20
-46.081
 30
0.0
 10
-29.8032
 20
-49.3769
 30
0.0
 10
-31.688
 20
-53.082
 30
0.0
 10
-31.688
 20
-53.082
 30
0.0
 10
-32.0741
 20
-53.9137
 30
0.0
 10
-32.1496
 20
-54.502
 30
0.0
 10
-32.1359
 20
-55.7059
 30
0.0
 10
-32.1359
 20
-55.7059
 30
0.0
 10
-32.0543
 20
-56.2886
 30
0.0
 10
-31.468
 20
-56.3927
 30
0.0
 10
-31.4323
 20
-55.7382
 30
0.0
 10
-31.4323
 20
-55.7382
 30
0.0
 10
-31.4848
 20
-54.5974
 30
0.0
 10
-31.3808
 20
-54.1
 30
0.0
 10
-31.0291
 20
-53.1392
 30
0.0
 10
-31.0291
 20
-53.1392
 30
0.0
 10
-29.0012
 20
-48.9899
 30
0.0
 10
-26.809
 20
-46.0778
 30
0.0
 10
-24.5149
 20
-43.8011
 30
0.0
  0
SPLINE
  5
74
330
1F
100
AcDbEntity
  8
Camada 1
 62
   250
370
     9
100
AcDbSpline
210
0.0
220
0.0
230
1.0
 70
    11
 71
     3
 72
    28
 73
    24
 74
     0
 42
0.0000000001
 43
0.0000000001
 12
1.0
 22
0.0
 32
0.0
 13
1.0
 23
0.0
 33
0.0
 40
0.0
 40
0.0
 40
0.0
 40
0.0
 40
0.1428571428571428
 40
0.1428571428571428
 40
0.1428571428571428
 40
0.1428571428571428
 40
0.2857142857142857
 40
0.2857142857142857
 40
0.2857142857142857
 40
0.2857142857142857
 40
0.4285714285714285
 40
0.4285714285714285
 40
0.4285714285714285
 40
0.4285714285714285
 40
0.5714285714285714
 40
0.5714285714285714
 40
0.5714285714285714
 40
0.5714285714285714
 40
0.7142857142857143
 40
0.7142857142857143
 40
0.7142857142857143
 40
0.7142857142857143
 40
1.0
 40
1.0
 40
1.0
 40
1.0
 10
-23.7848
 20
-44.7338
 30
0.0
 10
-23.5781
 20
-44.4412
 30
0.0
 10
-23.9372
 20
-44.089
 30
0.0
 10
-24.2203
 20
-44.4035
 30
0.0
 10
-24.2203
 20
-44.4035
 30
0.0
 10
-26.806
 20
-46.9774
 30
0.0
 10
-28.4062
 20
-50.0904
 30
0.0
 10
-29.9788
 20
-53.5791
 30
0.0
 10
-29.9788
 20
-53.5791
 30
0.0
 10
-30.2979
 20
-54.3606
 30
0.0
 10
-30.3419
 20
-54.9049
 30
0.0
 10
-30.2771
 20
-56.0113
 30
0.0
 10
-30.2771
 20
-56.0113
 30
0.0
 10
-30.1768
 20
-56.5437
 30
0.0
 10
-29.6332
 20
-56.614
 30
0.0
 10
-29.6286
 20
-56.0106
 30
0.0
 10
-29.6286
 20
-56.0106
 30
0.0
 10
-29.7264
 20
-54.9638
 30
0.0
 10
-29.6523
 20
-54.5019
 30
0.0
 10
-29.3705
 20
-53.6031
 30
0.0
 10
-29.3705
 20
-53.6031
 30
0.0
 10
-27.6855
 20
-49.6997
 30
0.0
 10
-25.7957
 20
-46.9268
 30
0.0
 10
-23.7848
 20
-44.7338
 30
0.0
  0
SPLINE
  5
75
330
1F
100
AcDbEntity
  8
Camada 1
 62
   250
370
     9
100
AcDbSpline
210
0.0
220
0.0
230
1.0
 70
    11
 71
     3
 72
    28
 73
    24
 74
     0
 42
0.0000000001
 43
0.0000000001
 12
1.0
 22
0.0
 32
0.0
 13
1.0
 23
0.0
 33
0.0
 40
0.0
 40
0.0
 40
0.0
 40
0.0
 40
0.1428571428571428
 40
0.1428571428571428
 40
0.1428571428571428
 40
0.1428571428571428
 40
0.2857142857142857
 40
0.2857142857142857
 40
0.2857142857142857
 40
0.2857142857142857
 40
0.4285714285714285
 40
0.4285714285714285
 40
0.4285714285714285
 40
0.4285714285714285
 40
0.5714285714285714
 40
0.5714285714285714
 40
0.5714285714285714
 40
0.5714285714285714
 40
0.7142857142857143
 40
0.7142857142857143
 40
0.7142857142857143
 40
0.7142857142857143
 40
1.0
 40
1.0
 40
1.0
 40
1.0
 10
28.2284
 20
19.3908
 30
0.0
 10
28.4796
 20
19.1538
 30
0.0
 10
28.2365
 20
18.7636
 30
0.0
 10
27.8861
 20
19.0142
 30
0.0
 10
27.8861
 20
19.0142
 30
0.0
 10
23.4062
 20
22.1316
 30
0.0
 10
19.4133
 20
24.7637
 30
0.0
 10
15.3425
 20
28.4265
 30
0.0
 10
15.3425
 20
28.4265
 30
0.0
 10
14.992
 20
28.8095
 30
0.0
 10
14.8719
 20
29.8944
 30
0.0
 10
17.6072
 20
32.3169
 30
0.0
 10
17.6072
 20
32.3169
 30
0.0
 10
17.7242
 20
32.5151
 30
0.0
 10
18.1534
 20
32.2812
 30
0.0
 10
17.9837
 20
31.9746
 30
0.0
 10
17.9837
 20
31.9746
 30
0.0
 10
17.8814
 20
31.6153
 30
0.0
 10
15.3492
 20
29.6772
 30
0.0
 10
16.0783
 20
28.5462
 30
0.0
 10
16.0783
 20
28.5462
 30
0.0
 10
19.3005
 20
25.4944
 30
0.0
 10
23.3997
 20
22.6359
 30
0.0
 10
28.2284
 20
19.3908
 30
0.0
  0
SPLINE
  5
76
330
1F
100
AcDbEntity
  8
Camada 1
 62
   250
370
     9
100
AcDbSpline
210
0.0
220
0.0
230
1.0
 70
    11
 71
     3
 72
    28
 73
    24
 74
     0
 42
0.0000000001
 43
0.0000000001
 12
1.0
 22
0.0
 32
0.0
 13
1.0
 23
0.0
 33
0.0
 40
0.0
 40
0.0
 40
0.0
 40
0.0
 40
0.1428571428571428
 40
0.1428571428571428
 40
0.1428571428571428
 40
0.1428571428571428
 40
0.2857142857142857
 40
0.2857142857142857
 40
0.2857142857142857
 40
0.2857142857142857
 40
0.4285714285714285
 40
0.4285714285714285
 40
0.4285714285714285
 40
0.4285714285714285
 40
0.5714285714285714
 40
0.5714285714285714
 40
0.5714285714285714
 40
0.5714285714285714
 40
0.7142857142857143
 40
0.7142857142857143
 40
0.7142857142857143
 40
0.7142857142857143
 40
1.0
 40
1.0
 40
1.0
 40
1.0
 10
27.2787
 20
22.6364
 30
0.0
 10
27.4246
 20
22.4987
 30
0.0
 10
27.2834
 20
22.272
 30
0.0
 10
27.0799
 20
22.4176
 30
0.0
 10
27.0799
 20
22.4176
 30
0.0
 10
24.4775
 20
24.2284
 30
0.0
 10
22.1581
 20
25.7573
 30
0.0
 10
19.7935
 20
27.8851
 30
0.0
 10
19.7935
 20
27.8851
 30
0.0
 10
18.7462
 20
28.8006
 30
0.0
 10
18.9351
 20
29.9068
 30
0.0
 10
19.8341
 20
30.8136
 30
0.0
 10
19.8341
 20
30.8136
 30
0.0
 10
19.9925
 20
31.004
 30
0.0
 10
20.3777
 20
30.7025
 30
0.0
 10
20.1132
 20
30.3888
 30
0.0
 10
20.1132
 20
30.3888
 30
0.0
 10
20.0537
 20
30.18
 30
0.0
 10
18.8372
 20
29.3132
 30
0.0
 10
20.2209
 20
27.9546
 30
0.0
 10
20.2209
 20
27.9546
 30
0.0
 10
22.0927
 20
26.1818
 30
0.0
 10
24.4737
 20
24.5213
 30
0.0
 10
27.2787
 20
22.6364
 30
0.0
  0
SPLINE
  5
77
330
1F
100
AcDbEntity
  8
Camada 1
 62
   250
370
     9
100
AcDbSpline
210
0.0
220
0.0
230
1.0
 70
    11
 71
     3
 72
    28
 73
    24
 74
     0
 42
0.0000000001
 43
0.0000000001
 12
1.0
 22
0.0
 32
0.0
 13
1.0
 23
0.0
 33
0.0
 40
0.0
 40
0.0
 40
0.0
 40
0.0
 40
0.1428571428571428
 40
0.1428571428571428
 40
0.1428571428571428
 40
0.1428571428571428
 40
0.2857142857142857
 40
0.2857142857142857
 40
0.2857142857142857
 40
0.2857142857142857
 40
0.4285714285714285
 40
0.4285714285714285
 40
0.4285714285714285
 40
0.4285714285714285
 40
0.5714285714285714
 40
0.5714285714285714
 40
0.5714285714285714
 40
0.5714285714285714
 40
0.7142857142857143
 40
0.7142857142857143
 40
0.7142857142857143
 40
0.7142857142857143
 40
1.0
 40
1.0
 40
1.0
 40
1.0
 10
28.1171
 20
24.0408
 30
0.0
 10
28.2388
 20
23.9139
 30
0.0
 10
28.1053
 20
23.722
 30
0.0
 10
27.9336
 20
23.8582
 30
0.0
 10
27.9336
 20
23.8582
 30
0.0
 10
25.7359
 20
25.5569
 30
0.0
 10
23.7733
 20
26.9966
 30
0.0
 10
21.7974
 20
28.9622
 30
0.0
 10
21.7974
 20
28.9622
 30
0.0
 10
21.3202
 20
29.4068
 30
0.0
 10
22.2539
 20
30.4902
 30
0.0
 10
22.8968
 20
30.7643
 30
0.0
 10
22.8968
 20
30.7643
 30
0.0
 10
23.1459
 20
30.8695
 30
0.0
 10
23.2713
 20
30.6908
 30
0.0
 10
23.1961
 20
30.5429
 30
0.0
 10
23.1961
 20
30.5429
 30
0.0
 10
23.135
 20
30.3629
 30
0.0
 10
21.7705
 20
29.5826
 30
0.0
 10
22.1746
 20
29.0043
 30
0.0
 10
22.1746
 20
29.0043
 30
0.0
 10
23.7346
 20
27.3709
 30
0.0
 10
25.7455
 20
25.8134
 30
0.0
 10
28.1171
 20
24.0408
 30
0.0
  0
SPLINE
  5
78
330
1F
100
AcDbEntity
  8
Camada 1
 62
   250
370
     9
100
AcDbSpline
210
0.0
220
0.0
230
1.0
 70
    11
 71
     3
 72
    20
 73
    16
 74
     0
 42
0.0000000001
 43
0.0000000001
 12
1.0
 22
0.0
 32
0.0
 13
1.0
 23
0.0
 33
0.0
 40
0.0
 40
0.0
 40
0.0
 40
0.0
 40
0.2
 40
0.2
 40
0.2
 40
0.2
 40
0.4
 40
0.4
 40
0.4
 40
0.4
 40
0.6
 40
0.6
 40
0.6
 40
0.6
 40
1.0
 40
1.0
 40
1.0
 40
1.0
 10
27.0755
 20
14.1325
 30
0.0
 10
26.8593
 20
14.4561
 30
0.0
 10
27.259
 20
14.8285
 30
0.0
 10
27.5576
 20
14.4791
 30
0.0
 10
27.5576
 20
14.4791
 30
0.0
 10
28.7359
 20
13.2442
 30
0.0
 10
35.153
 20
5.8587
 30
0.0
 10
35.7298
 20
4.2383
 30
0.0
 10
35.7298
 20
4.2383
 30
0.0
 10
35.8922
 20
3.9192
 30
0.0
 10
35.4986
 20
3.5055
 30
0.0
 10
35.0434
 20
4.221
 30
0.0
 10
35.0434
 20
4.221
 30
0.0
 10
34.4187
 20
5.7383
 30
0.0
 10
28.3183
 20
12.9104
 30
0.0
 10
27.0755
 20
14.1325
 30
0.0
  0
SPLINE
  5
79
330
1F
100
AcDbEntity
  8
Camada 1
 62
   250
370
     9
100
AcDbSpline
210
0.0
220
0.0
230
1.0
 70
    11
 71
     3
 72
    20
 73
    16
 74
     0
 42
0.0000000001
 43
0.0000000001
 12
1.0
 22
0.0
 32
0.0
 13
1.0
 23
0.0
 33
0.0
 40
0.0
 40
0.0
 40
0.0
 40
0.0
 40
0.2
 40
0.2
 40
0.2
 40
0.2
 40
0.4
 40
0.4
 40
0.4
 40
0.4
 40
0.6
 40
0.6
 40
0.6
 40
0.6
 40
1.0
 40
1.0
 40
1.0
 40
1.0
 10
25.6533
 20
13.1366
 30
0.0
 10
25.4684
 20
13.4435
 30
0.0
 10
25.8523
 20
13.7686
 30
0.0
 10
26.1117
 20
13.4344
 30
0.0
 10
26.1117
 20
13.4344
 30
0.0
 10
28.2902
 20
10.9245
 30
0.0
 10
32.7094
 20
4.9955
 30
0.0
 10
33.5442
 20
1.4131
 30
0.0
 10
33.5442
 20
1.4131
 30
0.0
 10
33.5108
 20
0.9649
 30
0.0
 10
33.0004
 20
1.0678
 30
0.0
 10
32.8674
 20
1.5514
 30
0.0
 10
32.8674
 20
1.5514
 30
0.0
 10
32.0481
 20
4.8753
 30
0.0
 10
27.6845
 20
10.569
 30
0.0
 10
25.6533
 20
13.1366
 30
0.0
  0
SPLINE
  5
7A
330
1F
100
AcDbEntity
  8
Camada 1
 62
   250
370
     9
100
AcDbSpline
210
0.0
220
0.0
230
1.0
 70
    11
 71
     3
 72
    28
 73
    24
 74
     0
 42
0.0000000001
 43
0.0000000001
 12
1.0
 22
0.0
 32
0.0
 13
1.0
 23
0.0
 33
0.0
 40
0.0
 40
0.0
 40
0.0
 40
0.0
 40
0.1428571428571428
 40
0.1428571428571428
 40
0.1428571428571428
 40
0.1428571428571428
 40
0.2857142857142857
 40
0.2857142857142857
 40
0.2857142857142857
 40
0.2857142857142857
 40
0.4285714285714285
 40
0.4285714285714285
 40
0.4285714285714285
 40
0.4285714285714285
 40
0.5714285714285714
 40
0.5714285714285714
 40
0.5714285714285714
 40
0.5714285714285714
 40
0.7142857142857143
 40
0.7142857142857143
 40
0.7142857142857143
 40
0.7142857142857143
 40
1.0
 40
1.0
 40
1.0
 40
1.0
 10
38.8598
 20
14.8769
 30
0.0
 10
38.8598
 20
14.8769
 30
0.0
 10
39.9638
 20
4.6361
 30
0.0
 10
39.9638
 20
4.6361
 30
0.0
 10
39.9638
 20
4.6361
 30
0.0
 10
37.7948
 20
7.7036
 30
0.0
 10
32.4466
 20
12.4895
 30
0.0
 10
29.8493
 20
15.2739
 30
0.0
 10
29.8493
 20
15.2739
 30
0.0
 10
29.8493
 20
15.2739
 30
0.0
 10
33.3448
 20
15.3944
 30
0.0
 10
33.3448
 20
15.3944
 30
0.0
 10
33.3448
 20
15.3944
 30
0.0
 10
33.3448
 20
15.3944
 30
0.0
 10
29.9699
 20
19.8542
 30
0.0
 10
29.9699
 20
19.8542
 30
0.0
 10
29.9699
 20
19.8542
 30
0.0
 10
29.6862
 20
20.2441
 30
0.0
 10
29.9972
 20
20.6545
 30
0.0
 10
30.452
 20
20.3965
 30
0.0
 10
30.452
 20
20.3965
 30
0.0
 10
30.452
 20
20.3965
 30
0.0
 10
38.8598
 20
14.8769
 30
0.0
 10
38.8598
 20
14.8769
 30
0.0
  0
SPLINE
  5
7B
330
1F
100
AcDbEntity
  8
Camada 1
 62
   250
370
     9
100
AcDbSpline
210
0.0
220
0.0
230
1.0
 70
     8
 71
     3
 72
     8
 73
     4
 74
     0
 42
0.0000000001
 43
0.0000000001
 12
1.0
 22
0.0
 32
0.0
 13
1.0
 23
0.0
 33
0.0
 40
0.0
 40
0.0
 40
0.0
 40
0.0
 40
1.0
 40
1.0
 40
1.0
 40
1.0
 10
38.2757
 20
18.634
 30
0.0
 10
33.6948
 20
48.6034
 30
0.0
 10
27.5605
 20
76.1049
 30
0.0
 10
8.8601
 20
84.7606
 30
0.0
  0
SPLINE
  5
7C
330
1F
100
AcDbEntity
  8
Camada 1
 62
   250
370
     9
100
AcDbSpline
210
0.0
220
0.0
230
1.0
 70
     8
 71
     3
 72
    12
 73
     8
 74
     0
 42
0.0000000001
 43
0.0000000001
 12
1.0
 22
0.0
 32
0.0
 13
1.0
 23
0.0
 33
0.0
 40
0.0
 40
0.0
 40
0.0
 40
0.0
 40
0.3333333333333333
 40
0.3333333333333333
 40
0.3333333333333333
 40
0.3333333333333333
 40
1.0
 40
1.0
 40
1.0
 40
1.0
 10
8.8601
 20
84.7606
 30
0.0
 10
16.2539
 20
66.3904
 30
0.0
 10
19.5647
 20
47.5639
 30
0.0
 10
20.5511
 20
37.9037
 30
0.0
 10
20.5511
 20
37.9037
 30
0.0
 10
28.2836
 20
33.5492
 30
0.0
 10
32.3189
 20
27.0905
 30
0.0
 10
38.2757
 20
18.634
 30
0.0
  0
SPLINE
  5
7D
330
1F
100
AcDbEntity
  8
Camada 1
 62
   250
370
     9
100
AcDbSpline
210
0.0
220
0.0
230
1.0
 70
    11
 71
     3
 72
    16
 73
    12
 74
     0
 42
0.0000000001
 43
0.0000000001
 12
1.0
 22
0.0
 32
0.0
 13
1.0
 23
0.0
 33
0.0
 40
0.0
 40
0.0
 40
0.0
 40
0.0
 40
0.25
 40
0.25
 40
0.25
 40
0.25
 40
0.5
 40
0.5
 40
0.5
 40
0.5
 40
1.0
 40
1.0
 40
1.0
 40
1.0
 10
20.5653
 20
7.2669
 30
0.0
 10
20.5653
 20
7.2669
 30
0.0
 10
21.0405
 20
-11.5411
 30
0.0
 10
21.0405
 20
-11.5411
 30
0.0
 10
21.0405
 20
-11.5411
 30
0.0
 10
22.6572
 20
-9.7975
 30
0.0
 10
25.9322
 20
-8.2017
 30
0.0
 10
29.2366
 20
-8.6276
 30
0.0
 10
29.2366
 20
-8.6276
 30
0.0
 10
27.2613
 20
-2.5473
 30
0.0
 10
24.5052
 20
2.747
 30
0.0
 10
20.5653
 20
7.2669
 30
0.0
  0
SPLINE
  5
7E
330
1F
100
AcDbEntity
  8
Camada 1
 62
   250
370
     9
100
AcDbSpline
210
0.0
220
0.0
230
1.0
 70
    11
 71
     3
 72
    16
 73
    12
 74
     0
 42
0.0000000001
 43
0.0000000001
 12
1.0
 22
0.0
 32
0.0
 13
1.0
 23
0.0
 33
0.0
 40
0.0
 40
0.0
 40
0.0
 40
0.0
 40
0.25
 40
0.25
 40
0.25
 40
0.25
 40
0.5
 40
0.5
 40
0.5
 40
0.5
 40
1.0
 40
1.0
 40
1.0
 40
1.0
 10
20.7457
 20
-23.1946
 30
0.0
 10
23.5982
 20
-25.0499
 30
0.0
 10
26.6789
 20
-25.6702
 30
0.0
 10
29.6924
 20
-22.7031
 30
0.0
 10
29.6924
 20
-22.7031
 30
0.0
 10
27.8569
 20
-32.6172
 30
0.0
 10
24.4679
 20
-37.5226
 30
0.0
 10
19.5146
 20
-42.6135
 30
0.0
 10
19.5146
 20
-42.6135
 30
0.0
 10
19.5146
 20
-42.6135
 30
0.0
 10
20.7457
 20
-23.1946
 30
0.0
 10
20.7457
 20
-23.1946
 30
0.0
  0
SPLINE
  5
7F
330
1F
100
AcDbEntity
  8
Camada 1
 62
   250
370
     9
100
AcDbSpline
210
0.0
220
0.0
230
1.0
 70
    11
 71
     3
 72
    28
 73
    24
 74
     0
 42
0.0000000001
 43
0.0000000001
 12
1.0
 22
0.0
 32
0.0
 13
1.0
 23
0.0
 33
0.0
 40
0.0
 40
0.0
 40
0.0
 40
0.0
 40
0.1428571428571428
 40
0.1428571428571428
 40
0.1428571428571428
 40
0.1428571428571428
 40
0.2857142857142857
 40
0.2857142857142857
 40
0.2857142857142857
 40
0.2857142857142857
 40
0.4285714285714285
 40
0.4285714285714285
 40
0.4285714285714285
 40
0.4285714285714285
 40
0.5714285714285714
 40
0.5714285714285714
 40
0.5714285714285714
 40
0.5714285714285714
 40
0.7142857142857143
 40
0.7142857142857143
 40
0.7142857142857143
 40
0.7142857142857143
 40
1.0
 40
1.0
 40
1.0
 40
1.0
 10
29.6568
 20
-10.9279
 30
0.0
 10
29.9273
 20
-12.7168
 30
0.0
 10
30.1082
 20
-14.7756
 30
0.0
 10
30.0935
 20
-16.9234
 30
0.0
 10
30.0935
 20
-16.9234
 30
0.0
 10
27.3074
 20
-13.131
 30
0.0
 10
22.8965
 20
-16.0857
 30
0.0
 10
22.8226
 20
-18.9038
 30
0.0
 10
22.8226
 20
-18.9038
 30
0.0
 10
22.9514
 20
-21.0484
 30
0.0
 10
26.5009
 20
-21.4297
 30
0.0
 10
26.5893
 20
-19.0545
 30
0.0
 10
26.5893
 20
-19.0545
 30
0.0
 10
30.3013
 20
-22.5229
 30
0.0
 10
23.7009
 20
-23.8826
 30
0.0
 10
21.4364
 20
-20.4406
 30
0.0
 10
21.4364
 20
-20.4406
 30
0.0
 10
20.8396
 20
-19.6133
 30
0.0
 10
21.119
 20
-15.3867
 30
0.0
 10
21.5277
 20
-13.9854
 30
0.0
 10
21.5277
 20
-13.9854
 30
0.0
 10
23.8746
 20
-11.7339
 30
0.0
 10
26.4257
 20
-10.6081
 30
0.0
 10
29.6568
 20
-10.9279
 30
0.0
  0
SPLINE
  5
80
330
1F
100
AcDbEntity
  8
Camada 1
 62
   250
370
     9
100
AcDbSpline
210
0.0
220
0.0
230
1.0
 70
    11
 71
     3
 72
    12
 73
     8
 74
     0
 42
0.0000000001
 43
0.0000000001
 12
1.0
 22
0.0
 32
0.0
 13
1.0
 23
0.0
 33
0.0
 40
0.0
 40
0.0
 40
0.0
 40
0.0
 40
0.3333333333333333
 40
0.3333333333333333
 40
0.3333333333333333
 40
0.3333333333333333
 40
1.0
 40
1.0
 40
1.0
 40
1.0
 10
32.8222
 20
-12.8534
 30
0.0
 10
35.4325
 20
-14.9615
 30
0.0
 10
35.7061
 20
-17.8167
 30
0.0
 10
32.6414
 20
-19.6635
 30
0.0
 10
32.6414
 20
-19.6635
 30
0.0
 10
32.6414
 20
-19.6635
 30
0.0
 10
32.8222
 20
-12.8534
 30
0.0
 10
32.8222
 20
-12.8534
 30
0.0
  0
SPLINE
  5
81
330
1F
100
AcDbEntity
  8
Camada 1
 62
   250
370
     9
100
AcDbSpline
210
0.0
220
0.0
230
1.0
 70
    11
 71
     3
 72
    32
 73
    28
 74
     0
 42
0.0000000001
 43
0.0000000001
 12
1.0
 22
0.0
 32
0.0
 13
1.0
 23
0.0
 33
0.0
 40
0.0
 40
0.0
 40
0.0
 40
0.0
 40
0.125
 40
0.125
 40
0.125
 40
0.125
 40
0.25
 40
0.25
 40
0.25
 40
0.25
 40
0.375
 40
0.375
 40
0.375
 40
0.375
 40
0.5
 40
0.5
 40
0.5
 40
0.5
 40
0.625
 40
0.625
 40
0.625
 40
0.625
 40
0.75
 40
0.75
 40
0.75
 40
0.75
 40
1.0
 40
1.0
 40
1.0
 40
1.0
 10
20.5428
 20
15.2631
 30
0.0
 10
20.5428
 20
15.2631
 30
0.0
 10
20.5921
 20
11.1517
 30
0.0
 10
20.5921
 20
11.1517
 30
0.0
 10
20.5921
 20
11.1517
 30
0.0
 10
26.5243
 20
5.006
 30
0.0
 10
31.084
 20
-1.9331
 30
0.0
 10
32.5553
 20
-10.1278
 30
0.0
 10
32.5553
 20
-10.1278
 30
0.0
 10
32.5553
 20
-10.1278
 30
0.0
 10
39.7364
 20
-15.2975
 30
0.0
 10
39.7364
 20
-15.2975
 30
0.0
 10
39.7364
 20
-15.2975
 30
0.0
 10
39.7364
 20
-15.2975
 30
0.0
 10
40.1224
 20
0.6583
 30
0.0
 10
40.1224
 20
0.6583
 30
0.0
 10
40.1224
 20
0.6583
 30
0.0
 10
40.1224
 20
0.6583
 30
0.0
 10
32.3142
 20
-2.5945
 30
0.0
 10
32.3142
 20
-2.5945
 30
0.0
 10
32.3142
 20
-2.5945
 30
0.0
 10
29.6715
 20
3.6763
 30
0.0
 10
26.4439
 20
9.5566
 30
0.0
 10
22.8371
 20
15.1842
 30
0.0
 10
22.8371
 20
15.1842
 30
0.0
 10
22.8371
 20
15.1842
 30
0.0
 10
20.5428
 20
15.2631
 30
0.0
 10
20.5428
 20
15.2631
 30
0.0
  0
SPLINE
  5
82
330
1F
100
AcDbEntity
  8
Camada 1
 62
   250
370
     9
100
AcDbSpline
210
0.0
220
0.0
230
1.0
 70
     8
 71
     3
 72
    12
 73
     8
 74
     0
 42
0.0000000001
 43
0.0000000001
 12
1.0
 22
0.0
 32
0.0
 13
1.0
 23
0.0
 33
0.0
 40
0.0
 40
0.0
 40
0.0
 40
0.0
 40
0.3333333333333333
 40
0.3333333333333333
 40
0.3333333333333333
 40
0.3333333333333333
 40
1.0
 40
1.0
 40
1.0
 40
1.0
 10
7.477
 20
-82.4014
 30
0.0
 10
8.3675
 20
-82.4749
 30
0.0
 10
9.2305
 20
-82.4179
 30
0.0
 10
10.0504
 20
-82.1561
 30
0.0
 10
10.0504
 20
-82.1561
 30
0.0
 10
26.0627
 20
-75.7419
 30
0.0
 10
38.0692
 20
-50.4878
 30
0.0
 10
39.2824
 20
-19.3939
 30
0.0
  0
SPLINE
  5
83
330
1F
100
AcDbEntity
  8
Camada 1
 62
   250
370
     9
100
AcDbSpline
210
0.0
220
0.0
230
1.0
 70
     8
 71
     3
 72
    16
 73
    12
 74
     0
 42
0.0000000001
 43
0.0000000001
 12
1.0
 22
0.0
 32
0.0
 13
1.0
 23
0.0
 33
0.0
 40
0.0
 40
0.0
 40
0.0
 40
0.0
 40
0.25
 40
0.25
 40
0.25
 40
0.25
 40
0.5
 40
0.5
 40
0.5
 40
0.5
 40
1.0
 40
1.0
 40
1.0
 40
1.0
 10
39.2824
 20
-19.3939
 30
0.0
 10
39.2824
 20
-19.3939
 30
0.0
 10
32.584
 20
-22.557
 30
0.0
 10
32.584
 20
-22.557
 30
0.0
 10
32.584
 20
-22.557
 30
0.0
 10
30.8951
 20
-33.6094
 30
0.0
 10
25.1291
 20
-41.1154
 30
0.0
 10
18.6161
 20
-47.0221
 30
0.0
 10
18.6161
 20
-47.0221
 30
0.0
 10
17.6298
 20
-59.2045
 30
0.0
 10
13.3944
 20
-70.8616
 30
0.0
 10
7.477
 20
-82.4014
 30
0.0
  0
SPLINE
  5
84
330
1F
100
AcDbEntity
  8
Camada 1
 62
   250
370
     9
100
AcDbSpline
210
0.0
220
0.0
230
1.0
 70
    11
 71
     3
 72
    20
 73
    16
 74
     0
 42
0.0000000001
 43
0.0000000001
 12
1.0
 22
0.0
 32
0.0
 13
1.0
 23
0.0
 33
0.0
 40
0.0
 40
0.0
 40
0.0
 40
0.0
 40
0.2
 40
0.2
 40
0.2
 40
0.2
 40
0.4
 40
0.4
 40
0.4
 40
0.4
 40
0.6
 40
0.6
 40
0.6
 40
0.6
 40
1.0
 40
1.0
 40
1.0
 40
1.0
 10
10.1489
 20
39.5371
 30
0.0
 10
9.8344
 20
39.5371
 30
0.0
 10
9.5795
 20
39.2821
 30
0.0
 10
9.5795
 20
38.9676
 30
0.0
 10
9.5795
 20
38.9676
 30
0.0
 10
9.5794
 20
38.6531
 30
0.0
 10
9.8344
 20
38.3981
 30
0.0
 10
10.1489
 20
38.3981
 30
0.0
 10
10.1489
 20
38.3981
 30
0.0
 10
10.4635
 20
38.3981
 30
0.0
 10
10.7184
 20
38.6531
 30
0.0
 10
10.7184
 20
38.9676
 30
0.0
 10
10.7184
 20
38.9676
 30
0.0
 10
10.7185
 20
39.2821
 30
0.0
 10
10.4635
 20
39.5371
 30
0.0
 10
10.1489
 20
39.5371
 30
0.0
  0
SPLINE
  5
85
330
1F
100
AcDbEntity
  8
Camada 1
 62
   250
370
     9
100
AcDbSpline
210
0.0
220
0.0
230
1.0
 70
    27
 71
     3
 72
     8
 73
     4
 74
     0
 42
0.0000000001
 43
0.0000000001
 12
1.0
 22
0.0
 32
0.0
 13
1.0
 23
0.0
 33
0.0
 40
0.0
 40
0.0
 40
0.0
 40
0.0
 40
1.0
 40
1.0
 40
1.0
 40
1.0
 10
10.1489
 20
39.5371
 30
0.0
 10
10.1489
 20
39.5371
 30
0.0
 10
10.1489
 20
39.5371
 30
0.0
 10
10.1489
 20
39.5371
 30
0.0
  0
SPLINE
  5
86
330
1F
100
AcDbEntity
  8
Camada 1
 62
   250
370
     9
100
AcDbSpline
210
0.0
220
0.0
230
1.0
 70
    27
 71
     3
 72
     8
 73
     4
 74
     0
 42
0.0000000001
 43
0.0000000001
 12
1.0
 22
0.0
 32
0.0
 13
1.0
 23
0.0
 33
0.0
 40
0.0
 40
0.0
 40
0.0
 40
0.0
 40
1.0
 40
1.0
 40
1.0
 40
1.0
 10
9.5795
 20
38.9676
 30
0.0
 10
9.5795
 20
38.9676
 30
0.0
 10
9.5795
 20
38.9676
 30
0.0
 10
9.5795
 20
38.9676
 30
0.0
  0
SPLINE
  5
87
330
1F
100
AcDbEntity
  8
Camada 1
 62
   250
370
     9
100
AcDbSpline
210
0.0
220
0.0
230
1.0
 70
    27
 71
     3
 72
     8
 73
     4
 74
     0
 42
0.0000000001
 43
0.0000000001
 12
1.0
 22
0.0
 32
0.0
 13
1.0
 23
0.0
 33
0.0
 40
0.0
 40
0.0
 40
0.0
 40
0.0
 40
1.0
 40
1.0
 40
1.0
 40
1.0
 10
10.1489
 20
38.3981
 30
0.0
 10
10.1489
 20
38.3981
 30
0.0
 10
10.1489
 20
38.3981
 30
0.0
 10
10.1489
 20
38.3981
 30
0.0
  0
SPLINE
  5
88
330
1F
100
AcDbEntity
  8
Camada 1
 62
   250
370
     9
100
AcDbSpline
210
0.0
220
0.0
230
1.0
 70
    27
 71
     3
 72
     8
 73
     4
 74
     0
 42
0.0000000001
 43
0.0000000001
 12
1.0
 22
0.0
 32
0.0
 13
1.0
 23
0.0
 33
0.0
 40
0.0
 40
0.0
 40
0.0
 40
0.0
 40
1.0
 40
1.0
 40
1.0
 40
1.0
 10
10.7184
 20
38.9676
 30
0.0
 10
10.7184
 20
38.9676
 30
0.0
 10
10.7184
 20
38.9676
 30
0.0
 10
10.7184
 20
38.9676
 30
0.0
  0
SPLINE
  5
89
330
1F
100
AcDbEntity
  8
Camada 1
 62
   250
370
     9
100
AcDbSpline
210
0.0
220
0.0
230
1.0
 70
    27
 71
     3
 72
     8
 73
     4
 74
     0
 42
0.0000000001
 43
0.0000000001
 12
1.0
 22
0.0
 32
0.0
 13
1.0
 23
0.0
 33
0.0
 40
0.0
 40
0.0
 40
0.0
 40
0.0
 40
1.0
 40
1.0
 40
1.0
 40
1.0
 10
10.1489
 20
39.5371
 30
0.0
 10
10.1489
 20
39.5371
 30
0.0
 10
10.1489
 20
39.5371
 30
0.0
 10
10.1489
 20
39.5371
 30
0.0
  0
SPLINE
  5
8A
330
1F
100
AcDbEntity
  8
Camada 1
 62
   250
370
     9
100
AcDbSpline
210
0.0
220
0.0
230
1.0
 70
    11
 71
     3
 72
    20
 73
    16
 74
     0
 42
0.0000000001
 43
0.0000000001
 12
1.0
 22
0.0
 32
0.0
 13
1.0
 23
0.0
 33
0.0
 40
0.0
 40
0.0
 40
0.0
 40
0.0
 40
0.2
 40
0.2
 40
0.2
 40
0.2
 40
0.4
 40
0.4
 40
0.4
 40
0.4
 40
0.6
 40
0.6
 40
0.6
 40
0.6
 40
1.0
 40
1.0
 40
1.0
 40
1.0
 10
10.1489
 20
39.5371
 30
0.0
 10
9.8344
 20
39.5371
 30
0.0
 10
9.5795
 20
39.2821
 30
0.0
 10
9.5795
 20
38.9676
 30
0.0
 10
9.5795
 20
38.9676
 30
0.0
 10
9.5794
 20
38.6531
 30
0.0
 10
9.8344
 20
38.3981
 30
0.0
 10
10.1489
 20
38.3981
 30
0.0
 10
10.1489
 20
38.3981
 30
0.0
 10
10.4635
 20
38.3981
 30
0.0
 10
10.7184
 20
38.6531
 30
0.0
 10
10.7184
 20
38.9676
 30
0.0
 10
10.7184
 20
38.9676
 30
0.0
 10
10.7185
 20
39.2821
 30
0.0
 10
10.4635
 20
39.5371
 30
0.0
 10
10.1489
 20
39.5371
 30
0.0
  0
SPLINE
  5
8B
330
1F
100
AcDbEntity
  8
Camada 1
 62
   250
370
     9
100
AcDbSpline
210
0.0
220
0.0
230
1.0
 70
    11
 71
     3
 72
    20
 73
    16
 74
     0
 42
0.0000000001
 43
0.0000000001
 12
1.0
 22
0.0
 32
0.0
 13
1.0
 23
0.0
 33
0.0
 40
0.0
 40
0.0
 40
0.0
 40
0.0
 40
0.2
 40
0.2
 40
0.2
 40
0.2
 40
0.4
 40
0.4
 40
0.4
 40
0.4
 40
0.6
 40
0.6
 40
0.6
 40
0.6
 40
1.0
 40
1.0
 40
1.0
 40
1.0
 10
10.1489
 20
39.5371
 30
0.0
 10
9.8344
 20
39.5371
 30
0.0
 10
9.5795
 20
39.2821
 30
0.0
 10
9.5795
 20
38.9676
 30
0.0
 10
9.5795
 20
38.9676
 30
0.0
 10
9.5794
 20
38.6531
 30
0.0
 10
9.8344
 20
38.3981
 30
0.0
 10
10.1489
 20
38.3981
 30
0.0
 10
10.1489
 20
38.3981
 30
0.0
 10
10.4635
 20
38.3981
 30
0.0
 10
10.7184
 20
38.6531
 30
0.0
 10
10.7184
 20
38.9676
 30
0.0
 10
10.7184
 20
38.9676
 30
0.0
 10
10.7185
 20
39.2821
 30
0.0
 10
10.4635
 20
39.5371
 30
0.0
 10
10.1489
 20
39.5371
 30
0.0
  0
SPLINE
  5
8C
330
1F
100
AcDbEntity
  8
Camada 1
 62
   250
370
     9
100
AcDbSpline
210
0.0
220
0.0
230
1.0
 70
    11
 71
     3
 72
    20
 73
    16
 74
     0
 42
0.0000000001
 43
0.0000000001
 12
1.0
 22
0.0
 32
0.0
 13
1.0
 23
0.0
 33
0.0
 40
0.0
 40
0.0
 40
0.0
 40
0.0
 40
0.2
 40
0.2
 40
0.2
 40
0.2
 40
0.4
 40
0.4
 40
0.4
 40
0.4
 40
0.6
 40
0.6
 40
0.6
 40
0.6
 40
1.0
 40
1.0
 40
1.0
 40
1.0
 10
10.1489
 20
39.5371
 30
0.0
 10
9.8344
 20
39.5371
 30
0.0
 10
9.5795
 20
39.2821
 30
0.0
 10
9.5795
 20
38.9676
 30
0.0
 10
9.5795
 20
38.9676
 30
0.0
 10
9.5794
 20
38.6531
 30
0.0
 10
9.8344
 20
38.3981
 30
0.0
 10
10.1489
 20
38.3981
 30
0.0
 10
10.1489
 20
38.3981
 30
0.0
 10
10.4635
 20
38.3981
 30
0.0
 10
10.7184
 20
38.6531
 30
0.0
 10
10.7184
 20
38.9676
 30
0.0
 10
10.7184
 20
38.9676
 30
0.0
 10
10.7185
 20
39.2821
 30
0.0
 10
10.4635
 20
39.5371
 30
0.0
 10
10.1489
 20
39.5371
 30
0.0
  0
SPLINE
  5
8D
330
1F
100
AcDbEntity
  8
Camada 1
 62
   250
370
     9
100
AcDbSpline
210
0.0
220
0.0
230
1.0
 70
    11
 71
     3
 72
    20
 73
    16
 74
     0
 42
0.0000000001
 43
0.0000000001
 12
1.0
 22
0.0
 32
0.0
 13
1.0
 23
0.0
 33
0.0
 40
0.0
 40
0.0
 40
0.0
 40
0.0
 40
0.2
 40
0.2
 40
0.2
 40
0.2
 40
0.4
 40
0.4
 40
0.4
 40
0.4
 40
0.6
 40
0.6
 40
0.6
 40
0.6
 40
1.0
 40
1.0
 40
1.0
 40
1.0
 10
10.1489
 20
39.5371
 30
0.0
 10
9.8344
 20
39.5371
 30
0.0
 10
9.5795
 20
39.2821
 30
0.0
 10
9.5795
 20
38.9676
 30
0.0
 10
9.5795
 20
38.9676
 30
0.0
 10
9.5794
 20
38.6531
 30
0.0
 10
9.8344
 20
38.3981
 30
0.0
 10
10.1489
 20
38.3981
 30
0.0
 10
10.1489
 20
38.3981
 30
0.0
 10
10.4635
 20
38.3981
 30
0.0
 10
10.7184
 20
38.6531
 30
0.0
 10
10.7184
 20
38.9676
 30
0.0
 10
10.7184
 20
38.9676
 30
0.0
 10
10.7185
 20
39.2821
 30
0.0
 10
10.4635
 20
39.5371
 30
0.0
 10
10.1489
 20
39.5371
 30
0.0
  0
SPLINE
  5
8E
330
1F
100
AcDbEntity
  8
Camada 1
 62
   250
370
     9
100
AcDbSpline
210
0.0
220
0.0
230
1.0
 70
    11
 71
     3
 72
    20
 73
    16
 74
     0
 42
0.0000000001
 43
0.0000000001
 12
1.0
 22
0.0
 32
0.0
 13
1.0
 23
0.0
 33
0.0
 40
0.0
 40
0.0
 40
0.0
 40
0.0
 40
0.2
 40
0.2
 40
0.2
 40
0.2
 40
0.4
 40
0.4
 40
0.4
 40
0.4
 40
0.6
 40
0.6
 40
0.6
 40
0.6
 40
1.0
 40
1.0
 40
1.0
 40
1.0
 10
10.1489
 20
39.5371
 30
0.0
 10
9.8344
 20
39.5371
 30
0.0
 10
9.5795
 20
39.2821
 30
0.0
 10
9.5795
 20
38.9676
 30
0.0
 10
9.5795
 20
38.9676
 30
0.0
 10
9.5794
 20
38.6531
 30
0.0
 10
9.8344
 20
38.3981
 30
0.0
 10
10.1489
 20
38.3981
 30
0.0
 10
10.1489
 20
38.3981
 30
0.0
 10
10.4635
 20
38.3981
 30
0.0
 10
10.7184
 20
38.6531
 30
0.0
 10
10.7184
 20
38.9676
 30
0.0
 10
10.7184
 20
38.9676
 30
0.0
 10
10.7185
 20
39.2821
 30
0.0
 10
10.4635
 20
39.5371
 30
0.0
 10
10.1489
 20
39.5371
 30
0.0
  0
SPLINE
  5
8F
330
1F
100
AcDbEntity
  8
Camada 1
 62
   250
370
     9
100
AcDbSpline
210
0.0
220
0.0
230
1.0
 70
    11
 71
     3
 72
    20
 73
    16
 74
     0
 42
0.0000000001
 43
0.0000000001
 12
1.0
 22
0.0
 32
0.0
 13
1.0
 23
0.0
 33
0.0
 40
0.0
 40
0.0
 40
0.0
 40
0.0
 40
0.2
 40
0.2
 40
0.2
 40
0.2
 40
0.4
 40
0.4
 40
0.4
 40
0.4
 40
0.6
 40
0.6
 40
0.6
 40
0.6
 40
1.0
 40
1.0
 40
1.0
 40
1.0
 10
10.1489
 20
39.5371
 30
0.0
 10
9.8344
 20
39.5371
 30
0.0
 10
9.5795
 20
39.2821
 30
0.0
 10
9.5795
 20
38.9676
 30
0.0
 10
9.5795
 20
38.9676
 30
0.0
 10
9.5794
 20
38.6531
 30
0.0
 10
9.8344
 20
38.3981
 30
0.0
 10
10.1489
 20
38.3981
 30
0.0
 10
10.1489
 20
38.3981
 30
0.0
 10
10.4635
 20
38.3981
 30
0.0
 10
10.7184
 20
38.6531
 30
0.0
 10
10.7184
 20
38.9676
 30
0.0
 10
10.7184
 20
38.9676
 30
0.0
 10
10.7185
 20
39.2821
 30
0.0
 10
10.4635
 20
39.5371
 30
0.0
 10
10.1489
 20
39.5371
 30
0.0
  0
SPLINE
  5
90
330
1F
100
AcDbEntity
  8
Camada 1
 62
   250
370
     9
100
AcDbSpline
210
0.0
220
0.0
230
1.0
 70
    11
 71
     3
 72
    20
 73
    16
 74
     0
 42
0.0000000001
 43
0.0000000001
 12
1.0
 22
0.0
 32
0.0
 13
1.0
 23
0.0
 33
0.0
 40
0.0
 40
0.0
 40
0.0
 40
0.0
 40
0.2
 40
0.2
 40
0.2
 40
0.2
 40
0.4
 40
0.4
 40
0.4
 40
0.4
 40
0.6
 40
0.6
 40
0.6
 40
0.6
 40
1.0
 40
1.0
 40
1.0
 40
1.0
 10
10.1489
 20
39.5371
 30
0.0
 10
9.8344
 20
39.5371
 30
0.0
 10
9.5795
 20
39.2821
 30
0.0
 10
9.5795
 20
38.9676
 30
0.0
 10
9.5795
 20
38.9676
 30
0.0
 10
9.5794
 20
38.6531
 30
0.0
 10
9.8344
 20
38.3981
 30
0.0
 10
10.1489
 20
38.3981
 30
0.0
 10
10.1489
 20
38.3981
 30
0.0
 10
10.4635
 20
38.3981
 30
0.0
 10
10.7184
 20
38.6531
 30
0.0
 10
10.7184
 20
38.9676
 30
0.0
 10
10.7184
 20
38.9676
 30
0.0
 10
10.7185
 20
39.2821
 30
0.0
 10
10.4635
 20
39.5371
 30
0.0
 10
10.1489
 20
39.5371
 30
0.0
  0
SPLINE
  5
91
330
1F
100
AcDbEntity
  8
Camada 1
 62
   250
370
     9
100
AcDbSpline
210
0.0
220
0.0
230
1.0
 70
    11
 71
     3
 72
    20
 73
    16
 74
     0
 42
0.0000000001
 43
0.0000000001
 12
1.0
 22
0.0
 32
0.0
 13
1.0
 23
0.0
 33
0.0
 40
0.0
 40
0.0
 40
0.0
 40
0.0
 40
0.2
 40
0.2
 40
0.2
 40
0.2
 40
0.4
 40
0.4
 40
0.4
 40
0.4
 40
0.6
 40
0.6
 40
0.6
 40
0.6
 40
1.0
 40
1.0
 40
1.0
 40
1.0
 10
10.1489
 20
39.5371
 30
0.0
 10
9.8344
 20
39.5371
 30
0.0
 10
9.5795
 20
39.2821
 30
0.0
 10
9.5795
 20
38.9676
 30
0.0
 10
9.5795
 20
38.9676
 30
0.0
 10
9.5794
 20
38.6531
 30
0.0
 10
9.8344
 20
38.3981
 30
0.0
 10
10.1489
 20
38.3981
 30
0.0
 10
10.1489
 20
38.3981
 30
0.0
 10
10.4635
 20
38.3981
 30
0.0
 10
10.7184
 20
38.6531
 30
0.0
 10
10.7184
 20
38.9676
 30
0.0
 10
10.7184
 20
38.9676
 30
0.0
 10
10.7185
 20
39.2821
 30
0.0
 10
10.4635
 20
39.5371
 30
0.0
 10
10.1489
 20
39.5371
 30
0.0
  0
SPLINE
  5
92
330
1F
100
AcDbEntity
  8
Camada 1
 62
   250
370
     9
100
AcDbSpline
210
0.0
220
0.0
230
1.0
 70
    11
 71
     3
 72
    20
 73
    16
 74
     0
 42
0.0000000001
 43
0.0000000001
 12
1.0
 22
0.0
 32
0.0
 13
1.0
 23
0.0
 33
0.0
 40
0.0
 40
0.0
 40
0.0
 40
0.0
 40
0.2
 40
0.2
 40
0.2
 40
0.2
 40
0.4
 40
0.4
 40
0.4
 40
0.4
 40
0.6
 40
0.6
 40
0.6
 40
0.6
 40
1.0
 40
1.0
 40
1.0
 40
1.0
 10
10.1489
 20
39.5371
 30
0.0
 10
9.8344
 20
39.5371
 30
0.0
 10
9.5795
 20
39.2821
 30
0.0
 10
9.5795
 20
38.9676
 30
0.0
 10
9.5795
 20
38.9676
 30
0.0
 10
9.5794
 20
38.6531
 30
0.0
 10
9.8344
 20
38.3981
 30
0.0
 10
10.1489
 20
38.3981
 30
0.0
 10
10.1489
 20
38.3981
 30
0.0
 10
10.4635
 20
38.3981
 30
0.0
 10
10.7184
 20
38.6531
 30
0.0
 10
10.7184
 20
38.9676
 30
0.0
 10
10.7184
 20
38.9676
 30
0.0
 10
10.7185
 20
39.2821
 30
0.0
 10
10.4635
 20
39.5371
 30
0.0
 10
10.1489
 20
39.5371
 30
0.0
  0
SPLINE
  5
93
330
1F
100
AcDbEntity
  8
Camada 1
 62
   250
370
     9
100
AcDbSpline
210
0.0
220
0.0
230
1.0
 70
    11
 71
     3
 72
    20
 73
    16
 74
     0
 42
0.0000000001
 43
0.0000000001
 12
1.0
 22
0.0
 32
0.0
 13
1.0
 23
0.0
 33
0.0
 40
0.0
 40
0.0
 40
0.0
 40
0.0
 40
0.2
 40
0.2
 40
0.2
 40
0.2
 40
0.4
 40
0.4
 40
0.4
 40
0.4
 40
0.6
 40
0.6
 40
0.6
 40
0.6
 40
1.0
 40
1.0
 40
1.0
 40
1.0
 10
10.1489
 20
39.5371
 30
0.0
 10
9.8344
 20
39.5371
 30
0.0
 10
9.5795
 20
39.2821
 30
0.0
 10
9.5795
 20
38.9676
 30
0.0
 10
9.5795
 20
38.9676
 30
0.0
 10
9.5794
 20
38.6531
 30
0.0
 10
9.8344
 20
38.3981
 30
0.0
 10
10.1489
 20
38.3981
 30
0.0
 10
10.1489
 20
38.3981
 30
0.0
 10
10.4635
 20
38.3981
 30
0.0
 10
10.7184
 20
38.6531
 30
0.0
 10
10.7184
 20
38.9676
 30
0.0
 10
10.7184
 20
38.9676
 30
0.0
 10
10.7185
 20
39.2821
 30
0.0
 10
10.4635
 20
39.5371
 30
0.0
 10
10.1489
 20
39.5371
 30
0.0
  0
SPLINE
  5
94
330
1F
100
AcDbEntity
  8
Camada 1
 62
   250
370
     9
100
AcDbSpline
210
0.0
220
0.0
230
1.0
 70
    11
 71
     3
 72
    20
 73
    16
 74
     0
 42
0.0000000001
 43
0.0000000001
 12
1.0
 22
0.0
 32
0.0
 13
1.0
 23
0.0
 33
0.0
 40
0.0
 40
0.0
 40
0.0
 40
0.0
 40
0.2
 40
0.2
 40
0.2
 40
0.2
 40
0.4
 40
0.4
 40
0.4
 40
0.4
 40
0.6
 40
0.6
 40
0.6
 40
0.6
 40
1.0
 40
1.0
 40
1.0
 40
1.0
 10
10.1489
 20
39.5371
 30
0.0
 10
9.8344
 20
39.5371
 30
0.0
 10
9.5795
 20
39.2821
 30
0.0
 10
9.5795
 20
38.9676
 30
0.0
 10
9.5795
 20
38.9676
 30
0.0
 10
9.5794
 20
38.6531
 30
0.0
 10
9.8344
 20
38.3981
 30
0.0
 10
10.1489
 20
38.3981
 30
0.0
 10
10.1489
 20
38.3981
 30
0.0
 10
10.4635
 20
38.3981
 30
0.0
 10
10.7184
 20
38.6531
 30
0.0
 10
10.7184
 20
38.9676
 30
0.0
 10
10.7184
 20
38.9676
 30
0.0
 10
10.7185
 20
39.2821
 30
0.0
 10
10.4635
 20
39.5371
 30
0.0
 10
10.1489
 20
39.5371
 30
0.0
  0
SPLINE
  5
95
330
1F
100
AcDbEntity
  8
Camada 1
 62
   250
370
     9
100
AcDbSpline
210
0.0
220
0.0
230
1.0
 70
    11
 71
     3
 72
    20
 73
    16
 74
     0
 42
0.0000000001
 43
0.0000000001
 12
1.0
 22
0.0
 32
0.0
 13
1.0
 23
0.0
 33
0.0
 40
0.0
 40
0.0
 40
0.0
 40
0.0
 40
0.2
 40
0.2
 40
0.2
 40
0.2
 40
0.4
 40
0.4
 40
0.4
 40
0.4
 40
0.6
 40
0.6
 40
0.6
 40
0.6
 40
1.0
 40
1.0
 40
1.0
 40
1.0
 10
10.1489
 20
39.5371
 30
0.0
 10
9.8344
 20
39.5371
 30
0.0
 10
9.5795
 20
39.2821
 30
0.0
 10
9.5795
 20
38.9676
 30
0.0
 10
9.5795
 20
38.9676
 30
0.0
 10
9.5794
 20
38.6531
 30
0.0
 10
9.8344
 20
38.3981
 30
0.0
 10
10.1489
 20
38.3981
 30
0.0
 10
10.1489
 20
38.3981
 30
0.0
 10
10.4635
 20
38.3981
 30
0.0
 10
10.7184
 20
38.6531
 30
0.0
 10
10.7184
 20
38.9676
 30
0.0
 10
10.7184
 20
38.9676
 30
0.0
 10
10.7185
 20
39.2821
 30
0.0
 10
10.4635
 20
39.5371
 30
0.0
 10
10.1489
 20
39.5371
 30
0.0
  0
SPLINE
  5
96
330
1F
100
AcDbEntity
  8
Camada 1
 62
   250
370
     9
100
AcDbSpline
210
0.0
220
0.0
230
1.0
 70
    11
 71
     3
 72
    20
 73
    16
 74
     0
 42
0.0000000001
 43
0.0000000001
 12
1.0
 22
0.0
 32
0.0
 13
1.0
 23
0.0
 33
0.0
 40
0.0
 40
0.0
 40
0.0
 40
0.0
 40
0.2
 40
0.2
 40
0.2
 40
0.2
 40
0.4
 40
0.4
 40
0.4
 40
0.4
 40
0.6
 40
0.6
 40
0.6
 40
0.6
 40
1.0
 40
1.0
 40
1.0
 40
1.0
 10
10.1489
 20
39.5371
 30
0.0
 10
9.8344
 20
39.5371
 30
0.0
 10
9.5795
 20
39.2821
 30
0.0
 10
9.5795
 20
38.9676
 30
0.0
 10
9.5795
 20
38.9676
 30
0.0
 10
9.5794
 20
38.6531
 30
0.0
 10
9.8344
 20
38.3981
 30
0.0
 10
10.1489
 20
38.3981
 30
0.0
 10
10.1489
 20
38.3981
 30
0.0
 10
10.4635
 20
38.3981
 30
0.0
 10
10.7184
 20
38.6531
 30
0.0
 10
10.7184
 20
38.9676
 30
0.0
 10
10.7184
 20
38.9676
 30
0.0
 10
10.7185
 20
39.2821
 30
0.0
 10
10.4635
 20
39.5371
 30
0.0
 10
10.1489
 20
39.5371
 30
0.0
  0
SPLINE
  5
97
330
1F
100
AcDbEntity
  8
Camada 1
 62
   250
370
     9
100
AcDbSpline
210
0.0
220
0.0
230
1.0
 70
    11
 71
     3
 72
    20
 73
    16
 74
     0
 42
0.0000000001
 43
0.0000000001
 12
1.0
 22
0.0
 32
0.0
 13
1.0
 23
0.0
 33
0.0
 40
0.0
 40
0.0
 40
0.0
 40
0.0
 40
0.2
 40
0.2
 40
0.2
 40
0.2
 40
0.4
 40
0.4
 40
0.4
 40
0.4
 40
0.6
 40
0.6
 40
0.6
 40
0.6
 40
1.0
 40
1.0
 40
1.0
 40
1.0
 10
10.1489
 20
39.5371
 30
0.0
 10
9.8344
 20
39.5371
 30
0.0
 10
9.5795
 20
39.2821
 30
0.0
 10
9.5795
 20
38.9676
 30
0.0
 10
9.5795
 20
38.9676
 30
0.0
 10
9.5794
 20
38.6531
 30
0.0
 10
9.8344
 20
38.3981
 30
0.0
 10
10.1489
 20
38.3981
 30
0.0
 10
10.1489
 20
38.3981
 30
0.0
 10
10.4635
 20
38.3981
 30
0.0
 10
10.7184
 20
38.6531
 30
0.0
 10
10.7184
 20
38.9676
 30
0.0
 10
10.7184
 20
38.9676
 30
0.0
 10
10.7185
 20
39.2821
 30
0.0
 10
10.4635
 20
39.5371
 30
0.0
 10
10.1489
 20
39.5371
 30
0.0
  0
SPLINE
  5
98
330
1F
100
AcDbEntity
  8
Camada 1
 62
   250
370
     9
100
AcDbSpline
210
0.0
220
0.0
230
1.0
 70
    11
 71
     3
 72
    20
 73
    16
 74
     0
 42
0.0000000001
 43
0.0000000001
 12
1.0
 22
0.0
 32
0.0
 13
1.0
 23
0.0
 33
0.0
 40
0.0
 40
0.0
 40
0.0
 40
0.0
 40
0.2
 40
0.2
 40
0.2
 40
0.2
 40
0.4
 40
0.4
 40
0.4
 40
0.4
 40
0.6
 40
0.6
 40
0.6
 40
0.6
 40
1.0
 40
1.0
 40
1.0
 40
1.0
 10
10.1489
 20
39.5371
 30
0.0
 10
9.8344
 20
39.5371
 30
0.0
 10
9.5795
 20
39.2821
 30
0.0
 10
9.5795
 20
38.9676
 30
0.0
 10
9.5795
 20
38.9676
 30
0.0
 10
9.5794
 20
38.6531
 30
0.0
 10
9.8344
 20
38.3981
 30
0.0
 10
10.1489
 20
38.3981
 30
0.0
 10
10.1489
 20
38.3981
 30
0.0
 10
10.4635
 20
38.3981
 30
0.0
 10
10.7184
 20
38.6531
 30
0.0
 10
10.7184
 20
38.9676
 30
0.0
 10
10.7184
 20
38.9676
 30
0.0
 10
10.7185
 20
39.2821
 30
0.0
 10
10.4635
 20
39.5371
 30
0.0
 10
10.1489
 20
39.5371
 30
0.0
  0
SPLINE
  5
99
330
1F
100
AcDbEntity
  8
Camada 1
 62
   250
370
     9
100
AcDbSpline
210
0.0
220
0.0
230
1.0
 70
    11
 71
     3
 72
    20
 73
    16
 74
     0
 42
0.0000000001
 43
0.0000000001
 12
1.0
 22
0.0
 32
0.0
 13
1.0
 23
0.0
 33
0.0
 40
0.0
 40
0.0
 40
0.0
 40
0.0
 40
0.2
 40
0.2
 40
0.2
 40
0.2
 40
0.4
 40
0.4
 40
0.4
 40
0.4
 40
0.6
 40
0.6
 40
0.6
 40
0.6
 40
1.0
 40
1.0
 40
1.0
 40
1.0
 10
10.1489
 20
39.5371
 30
0.0
 10
9.8344
 20
39.5371
 30
0.0
 10
9.5795
 20
39.2821
 30
0.0
 10
9.5795
 20
38.9676
 30
0.0
 10
9.5795
 20
38.9676
 30
0.0
 10
9.5794
 20
38.6531
 30
0.0
 10
9.8344
 20
38.3981
 30
0.0
 10
10.1489
 20
38.3981
 30
0.0
 10
10.1489
 20
38.3981
 30
0.0
 10
10.4635
 20
38.3981
 30
0.0
 10
10.7184
 20
38.6531
 30
0.0
 10
10.7184
 20
38.9676
 30
0.0
 10
10.7184
 20
38.9676
 30
0.0
 10
10.7185
 20
39.2821
 30
0.0
 10
10.4635
 20
39.5371
 30
0.0
 10
10.1489
 20
39.5371
 30
0.0
  0
SPLINE
  5
9A
330
1F
100
AcDbEntity
  8
Camada 1
 62
   250
370
     9
100
AcDbSpline
210
0.0
220
0.0
230
1.0
 70
    11
 71
     3
 72
    20
 73
    16
 74
     0
 42
0.0000000001
 43
0.0000000001
 12
1.0
 22
0.0
 32
0.0
 13
1.0
 23
0.0
 33
0.0
 40
0.0
 40
0.0
 40
0.0
 40
0.0
 40
0.2
 40
0.2
 40
0.2
 40
0.2
 40
0.4
 40
0.4
 40
0.4
 40
0.4
 40
0.6
 40
0.6
 40
0.6
 40
0.6
 40
1.0
 40
1.0
 40
1.0
 40
1.0
 10
10.1489
 20
39.5371
 30
0.0
 10
9.8344
 20
39.5371
 30
0.0
 10
9.5795
 20
39.2821
 30
0.0
 10
9.5795
 20
38.9676
 30
0.0
 10
9.5795
 20
38.9676
 30
0.0
 10
9.5794
 20
38.6531
 30
0.0
 10
9.8344
 20
38.3981
 30
0.0
 10
10.1489
 20
38.3981
 30
0.0
 10
10.1489
 20
38.3981
 30
0.0
 10
10.4635
 20
38.3981
 30
0.0
 10
10.7184
 20
38.6531
 30
0.0
 10
10.7184
 20
38.9676
 30
0.0
 10
10.7184
 20
38.9676
 30
0.0
 10
10.7185
 20
39.2821
 30
0.0
 10
10.4635
 20
39.5371
 30
0.0
 10
10.1489
 20
39.5371
 30
0.0
  0
SPLINE
  5
9B
330
1F
100
AcDbEntity
  8
Camada 1
 62
   250
370
     9
100
AcDbSpline
210
0.0
220
0.0
230
1.0
 70
    11
 71
     3
 72
    20
 73
    16
 74
     0
 42
0.0000000001
 43
0.0000000001
 12
1.0
 22
0.0
 32
0.0
 13
1.0
 23
0.0
 33
0.0
 40
0.0
 40
0.0
 40
0.0
 40
0.0
 40
0.2
 40
0.2
 40
0.2
 40
0.2
 40
0.4
 40
0.4
 40
0.4
 40
0.4
 40
0.6
 40
0.6
 40
0.6
 40
0.6
 40
1.0
 40
1.0
 40
1.0
 40
1.0
 10
10.1489
 20
39.5371
 30
0.0
 10
9.8344
 20
39.5371
 30
0.0
 10
9.5795
 20
39.2821
 30
0.0
 10
9.5795
 20
38.9676
 30
0.0
 10
9.5795
 20
38.9676
 30
0.0
 10
9.5794
 20
38.6531
 30
0.0
 10
9.8344
 20
38.3981
 30
0.0
 10
10.1489
 20
38.3981
 30
0.0
 10
10.1489
 20
38.3981
 30
0.0
 10
10.4635
 20
38.3981
 30
0.0
 10
10.7184
 20
38.6531
 30
0.0
 10
10.7184
 20
38.9676
 30
0.0
 10
10.7184
 20
38.9676
 30
0.0
 10
10.7185
 20
39.2821
 30
0.0
 10
10.4635
 20
39.5371
 30
0.0
 10
10.1489
 20
39.5371
 30
0.0
  0
SPLINE
  5
9C
330
1F
100
AcDbEntity
  8
Camada 1
 62
   250
370
     9
100
AcDbSpline
210
0.0
220
0.0
230
1.0
 70
    11
 71
     3
 72
    20
 73
    16
 74
     0
 42
0.0000000001
 43
0.0000000001
 12
1.0
 22
0.0
 32
0.0
 13
1.0
 23
0.0
 33
0.0
 40
0.0
 40
0.0
 40
0.0
 40
0.0
 40
0.2
 40
0.2
 40
0.2
 40
0.2
 40
0.4
 40
0.4
 40
0.4
 40
0.4
 40
0.6
 40
0.6
 40
0.6
 40
0.6
 40
1.0
 40
1.0
 40
1.0
 40
1.0
 10
10.1489
 20
39.5371
 30
0.0
 10
9.8344
 20
39.5371
 30
0.0
 10
9.5795
 20
39.2821
 30
0.0
 10
9.5795
 20
38.9676
 30
0.0
 10
9.5795
 20
38.9676
 30
0.0
 10
9.5794
 20
38.6531
 30
0.0
 10
9.8344
 20
38.3981
 30
0.0
 10
10.1489
 20
38.3981
 30
0.0
 10
10.1489
 20
38.3981
 30
0.0
 10
10.4635
 20
38.3981
 30
0.0
 10
10.7184
 20
38.6531
 30
0.0
 10
10.7184
 20
38.9676
 30
0.0
 10
10.7184
 20
38.9676
 30
0.0
 10
10.7185
 20
39.2821
 30
0.0
 10
10.4635
 20
39.5371
 30
0.0
 10
10.1489
 20
39.5371
 30
0.0
  0
SPLINE
  5
9D
330
1F
100
AcDbEntity
  8
Camada 1
 62
   250
370
     9
100
AcDbSpline
210
0.0
220
0.0
230
1.0
 70
    11
 71
     3
 72
    20
 73
    16
 74
     0
 42
0.0000000001
 43
0.0000000001
 12
1.0
 22
0.0
 32
0.0
 13
1.0
 23
0.0
 33
0.0
 40
0.0
 40
0.0
 40
0.0
 40
0.0
 40
0.2
 40
0.2
 40
0.2
 40
0.2
 40
0.4
 40
0.4
 40
0.4
 40
0.4
 40
0.6
 40
0.6
 40
0.6
 40
0.6
 40
1.0
 40
1.0
 40
1.0
 40
1.0
 10
10.1489
 20
39.5371
 30
0.0
 10
9.8344
 20
39.5371
 30
0.0
 10
9.5795
 20
39.2821
 30
0.0
 10
9.5795
 20
38.9676
 30
0.0
 10
9.5795
 20
38.9676
 30
0.0
 10
9.5794
 20
38.6531
 30
0.0
 10
9.8344
 20
38.3981
 30
0.0
 10
10.1489
 20
38.3981
 30
0.0
 10
10.1489
 20
38.3981
 30
0.0
 10
10.4635
 20
38.3981
 30
0.0
 10
10.7184
 20
38.6531
 30
0.0
 10
10.7184
 20
38.9676
 30
0.0
 10
10.7184
 20
38.9676
 30
0.0
 10
10.7185
 20
39.2821
 30
0.0
 10
10.4635
 20
39.5371
 30
0.0
 10
10.1489
 20
39.5371
 30
0.0
  0
SPLINE
  5
9E
330
1F
100
AcDbEntity
  8
Camada 1
 62
   250
370
     9
100
AcDbSpline
210
0.0
220
0.0
230
1.0
 70
    11
 71
     3
 72
    24
 73
    20
 74
     0
 42
0.0000000001
 43
0.0000000001
 12
1.0
 22
0.0
 32
0.0
 13
1.0
 23
0.0
 33
0.0
 40
0.0
 40
0.0
 40
0.0
 40
0.0
 40
0.1666666666666667
 40
0.1666666666666667
 40
0.1666666666666667
 40
0.1666666666666667
 40
0.3333333333333333
 40
0.3333333333333333
 40
0.3333333333333333
 40
0.3333333333333333
 40
0.5
 40
0.5
 40
0.5
 40
0.5
 40
0.6666666666666666
 40
0.6666666666666666
 40
0.6666666666666666
 40
0.6666666666666666
 40
1.0
 40
1.0
 40
1.0
 40
1.0
 10
-5.2126
 20
96.4846
 30
0.0
 10
-7.119
 20
94.188
 30
0.0
 10
-6.9825
 20
92.232
 30
0.0
 10
-5.0318
 20
90.5786
 30
0.0
 10
-5.0318
 20
90.5786
 30
0.0
 10
-5.0318
 20
90.5786
 30
0.0
 10
-9.1902
 20
90.247
 30
0.0
 10
-9.1902
 20
90.247
 30
0.0
 10
-9.1902
 20
90.247
 30
0.0
 10
-7.7268
 20
93.7377
 30
0.0
 10
-8.5842
 20
95.9972
 30
0.0
 10
-11.5707
 20
94.9478
 30
0.0
 10
-11.5707
 20
94.9478
 30
0.0
 10
-13.4753
 20
94.2593
 30
0.0
 10
-12.8398
 20
91.5983
 30
0.0
 10
-11.0886
 20
91.8441
 30
0.0
 10
-11.0886
 20
91.8441
 30
0.0
 10
-19.3787
 20
90.0865
 30
0.0
 10
-14.9026
 20
102.9398
 30
0.0
 10
-5.2126
 20
96.4846
 30
0.0
  0
SPLINE
  5
9F
330
1F
100
AcDbEntity
  8
Camada 1
 62
   250
370
     9
100
AcDbSpline
210
0.0
220
0.0
230
1.0
 70
    11
 71
     3
 72
    24
 73
    20
 74
     0
 42
0.0000000001
 43
0.0000000001
 12
1.0
 22
0.0
 32
0.0
 13
1.0
 23
0.0
 33
0.0
 40
0.0
 40
0.0
 40
0.0
 40
0.0
 40
0.1666666666666667
 40
0.1666666666666667
 40
0.1666666666666667
 40
0.1666666666666667
 40
0.3333333333333333
 40
0.3333333333333333
 40
0.3333333333333333
 40
0.3333333333333333
 40
0.5
 40
0.5
 40
0.5
 40
0.5
 40
0.6666666666666666
 40
0.6666666666666666
 40
0.6666666666666666
 40
0.6666666666666666
 40
1.0
 40
1.0
 40
1.0
 40
1.0
 10
0.489
 20
96.3037
 30
0.0
 10
2.5154
 20
94.1123
 30
0.0
 10
2.4836
 20
92.1518
 30
0.0
 10
0.6241
 20
90.3964
 30
0.0
 10
0.6241
 20
90.3964
 30
0.0
 10
0.6241
 20
90.3964
 30
0.0
 10
4.7943
 20
90.2877
 30
0.0
 10
4.7943
 20
90.2877
 30
0.0
 10
4.7943
 20
90.2877
 30
0.0
 10
3.1465
 20
93.6952
 30
0.0
 10
3.8818
 20
95.9972
 30
0.0
 10
6.9201
 20
95.109
 30
0.0
 10
6.9201
 20
95.109
 30
0.0
 10
8.8588
 20
94.5233
 30
0.0
 10
8.3664
 20
91.8321
 30
0.0
 10
6.6046
 20
91.9839
 30
0.0
 10
6.6046
 20
91.9839
 30
0.0
 10
14.9768
 20
90.672
 30
0.0
 10
9.8201
 20
103.2677
 30
0.0
 10
0.489
 20
96.3037
 30
0.0
  0
SPLINE
  5
A0
330
1F
100
AcDbEntity
  8
Camada 1
 62
   250
370
     9
100
AcDbSpline
210
0.0
220
0.0
230
1.0
 70
    11
 71
     3
 72
    20
 73
    16
 74
     0
 42
0.0000000001
 43
0.0000000001
 12
1.0
 22
0.0
 32
0.0
 13
1.0
 23
0.0
 33
0.0
 40
0.0
 40
0.0
 40
0.0
 40
0.0
 40
0.2
 40
0.2
 40
0.2
 40
0.2
 40
0.4
 40
0.4
 40
0.4
 40
0.4
 40
0.6
 40
0.6
 40
0.6
 40
0.6
 40
1.0
 40
1.0
 40
1.0
 40
1.0
 10
-0.5873
 20
93.8028
 30
0.0
 10
-0.5873
 20
94.6598
 30
0.0
 10
-1.3022
 20
95.3546
 30
0.0
 10
-2.1842
 20
95.3546
 30
0.0
 10
-2.1842
 20
95.3546
 30
0.0
 10
-3.0662
 20
95.3546
 30
0.0
 10
-3.7812
 20
94.6598
 30
0.0
 10
-3.7812
 20
93.8028
 30
0.0
 10
-3.7812
 20
93.8028
 30
0.0
 10
-3.7813
 20
92.9458
 30
0.0
 10
-3.0663
 20
92.251
 30
0.0
 10
-2.1843
 20
92.251
 30
0.0
 10
-2.1843
 20
92.251
 30
0.0
 10
-1.3023
 20
92.251
 30
0.0
 10
-0.5873
 20
92.9458
 30
0.0
 10
-0.5873
 20
93.8028
 30
0.0
  0
SPLINE
  5
A1
330
1F
100
AcDbEntity
  8
Camada 1
 62
   250
370
     9
100
AcDbSpline
210
0.0
220
0.0
230
1.0
 70
    27
 71
     3
 72
     8
 73
     4
 74
     0
 42
0.0000000001
 43
0.0000000001
 12
1.0
 22
0.0
 32
0.0
 13
1.0
 23
0.0
 33
0.0
 40
0.0
 40
0.0
 40
0.0
 40
0.0
 40
1.0
 40
1.0
 40
1.0
 40
1.0
 10
-0.5873
 20
93.8028
 30
0.0
 10
-0.5873
 20
93.8028
 30
0.0
 10
-0.5873
 20
93.8028
 30
0.0
 10
-0.5873
 20
93.8028
 30
0.0
  0
SPLINE
  5
A2
330
1F
100
AcDbEntity
  8
Camada 1
 62
   250
370
     9
100
AcDbSpline
210
0.0
220
0.0
230
1.0
 70
    27
 71
     3
 72
     8
 73
     4
 74
     0
 42
0.0000000001
 43
0.0000000001
 12
1.0
 22
0.0
 32
0.0
 13
1.0
 23
0.0
 33
0.0
 40
0.0
 40
0.0
 40
0.0
 40
0.0
 40
1.0
 40
1.0
 40
1.0
 40
1.0
 10
-2.1842
 20
95.3546
 30
0.0
 10
-2.1842
 20
95.3546
 30
0.0
 10
-2.1842
 20
95.3546
 30
0.0
 10
-2.1842
 20
95.3546
 30
0.0
  0
SPLINE
  5
A3
330
1F
100
AcDbEntity
  8
Camada 1
 62
   250
370
     9
100
AcDbSpline
210
0.0
220
0.0
230
1.0
 70
    27
 71
     3
 72
     8
 73
     4
 74
     0
 42
0.0000000001
 43
0.0000000001
 12
1.0
 22
0.0
 32
0.0
 13
1.0
 23
0.0
 33
0.0
 40
0.0
 40
0.0
 40
0.0
 40
0.0
 40
1.0
 40
1.0
 40
1.0
 40
1.0
 10
-3.7812
 20
93.8028
 30
0.0
 10
-3.7812
 20
93.8028
 30
0.0
 10
-3.7812
 20
93.8028
 30
0.0
 10
-3.7812
 20
93.8028
 30
0.0
  0
SPLINE
  5
A4
330
1F
100
AcDbEntity
  8
Camada 1
 62
   250
370
     9
100
AcDbSpline
210
0.0
220
0.0
230
1.0
 70
    27
 71
     3
 72
     8
 73
     4
 74
     0
 42
0.0000000001
 43
0.0000000001
 12
1.0
 22
0.0
 32
0.0
 13
1.0
 23
0.0
 33
0.0
 40
0.0
 40
0.0
 40
0.0
 40
0.0
 40
1.0
 40
1.0
 40
1.0
 40
1.0
 10
-2.1843
 20
92.251
 30
0.0
 10
-2.1843
 20
92.251
 30
0.0
 10
-2.1843
 20
92.251
 30
0.0
 10
-2.1843
 20
92.251
 30
0.0
  0
SPLINE
  5
A5
330
1F
100
AcDbEntity
  8
Camada 1
 62
   250
370
     9
100
AcDbSpline
210
0.0
220
0.0
230
1.0
 70
    27
 71
     3
 72
     8
 73
     4
 74
     0
 42
0.0000000001
 43
0.0000000001
 12
1.0
 22
0.0
 32
0.0
 13
1.0
 23
0.0
 33
0.0
 40
0.0
 40
0.0
 40
0.0
 40
0.0
 40
1.0
 40
1.0
 40
1.0
 40
1.0
 10
-0.5873
 20
93.8028
 30
0.0
 10
-0.5873
 20
93.8028
 30
0.0
 10
-0.5873
 20
93.8028
 30
0.0
 10
-0.5873
 20
93.8028
 30
0.0
  0
SPLINE
  5
A6
330
1F
100
AcDbEntity
  8
Camada 1
 62
   250
370
     9
100
AcDbSpline
210
0.0
220
0.0
230
1.0
 70
    11
 71
     3
 72
    20
 73
    16
 74
     0
 42
0.0000000001
 43
0.0000000001
 12
1.0
 22
0.0
 32
0.0
 13
1.0
 23
0.0
 33
0.0
 40
0.0
 40
0.0
 40
0.0
 40
0.0
 40
0.2
 40
0.2
 40
0.2
 40
0.2
 40
0.4
 40
0.4
 40
0.4
 40
0.4
 40
0.6
 40
0.6
 40
0.6
 40
0.6
 40
1.0
 40
1.0
 40
1.0
 40
1.0
 10
-0.5873
 20
93.8028
 30
0.0
 10
-0.5873
 20
94.6598
 30
0.0
 10
-1.3022
 20
95.3546
 30
0.0
 10
-2.1842
 20
95.3546
 30
0.0
 10
-2.1842
 20
95.3546
 30
0.0
 10
-3.0662
 20
95.3546
 30
0.0
 10
-3.7812
 20
94.6598
 30
0.0
 10
-3.7812
 20
93.8028
 30
0.0
 10
-3.7812
 20
93.8028
 30
0.0
 10
-3.7813
 20
92.9458
 30
0.0
 10
-3.0663
 20
92.251
 30
0.0
 10
-2.1843
 20
92.251
 30
0.0
 10
-2.1843
 20
92.251
 30
0.0
 10
-1.3023
 20
92.251
 30
0.0
 10
-0.5873
 20
92.9458
 30
0.0
 10
-0.5873
 20
93.8028
 30
0.0
  0
SPLINE
  5
A7
330
1F
100
AcDbEntity
  8
Camada 1
 62
   250
370
     9
100
AcDbSpline
210
0.0
220
0.0
230
1.0
 70
    11
 71
     3
 72
    20
 73
    16
 74
     0
 42
0.0000000001
 43
0.0000000001
 12
1.0
 22
0.0
 32
0.0
 13
1.0
 23
0.0
 33
0.0
 40
0.0
 40
0.0
 40
0.0
 40
0.0
 40
0.2
 40
0.2
 40
0.2
 40
0.2
 40
0.4
 40
0.4
 40
0.4
 40
0.4
 40
0.6
 40
0.6
 40
0.6
 40
0.6
 40
1.0
 40
1.0
 40
1.0
 40
1.0
 10
-0.5873
 20
93.8028
 30
0.0
 10
-0.5873
 20
94.6598
 30
0.0
 10
-1.3022
 20
95.3546
 30
0.0
 10
-2.1842
 20
95.3546
 30
0.0
 10
-2.1842
 20
95.3546
 30
0.0
 10
-3.0662
 20
95.3546
 30
0.0
 10
-3.7812
 20
94.6598
 30
0.0
 10
-3.7812
 20
93.8028
 30
0.0
 10
-3.7812
 20
93.8028
 30
0.0
 10
-3.7813
 20
92.9458
 30
0.0
 10
-3.0663
 20
92.251
 30
0.0
 10
-2.1843
 20
92.251
 30
0.0
 10
-2.1843
 20
92.251
 30
0.0
 10
-1.3023
 20
92.251
 30
0.0
 10
-0.5873
 20
92.9458
 30
0.0
 10
-0.5873
 20
93.8028
 30
0.0
  0
SPLINE
  5
A8
330
1F
100
AcDbEntity
  8
Camada 1
 62
   250
370
     9
100
AcDbSpline
210
0.0
220
0.0
230
1.0
 70
    11
 71
     3
 72
    20
 73
    16
 74
     0
 42
0.0000000001
 43
0.0000000001
 12
1.0
 22
0.0
 32
0.0
 13
1.0
 23
0.0
 33
0.0
 40
0.0
 40
0.0
 40
0.0
 40
0.0
 40
0.2
 40
0.2
 40
0.2
 40
0.2
 40
0.4
 40
0.4
 40
0.4
 40
0.4
 40
0.6
 40
0.6
 40
0.6
 40
0.6
 40
1.0
 40
1.0
 40
1.0
 40
1.0
 10
-0.5873
 20
93.8028
 30
0.0
 10
-0.5873
 20
94.6598
 30
0.0
 10
-1.3022
 20
95.3546
 30
0.0
 10
-2.1842
 20
95.3546
 30
0.0
 10
-2.1842
 20
95.3546
 30
0.0
 10
-3.0662
 20
95.3546
 30
0.0
 10
-3.7812
 20
94.6598
 30
0.0
 10
-3.7812
 20
93.8028
 30
0.0
 10
-3.7812
 20
93.8028
 30
0.0
 10
-3.7813
 20
92.9458
 30
0.0
 10
-3.0663
 20
92.251
 30
0.0
 10
-2.1843
 20
92.251
 30
0.0
 10
-2.1843
 20
92.251
 30
0.0
 10
-1.3023
 20
92.251
 30
0.0
 10
-0.5873
 20
92.9458
 30
0.0
 10
-0.5873
 20
93.8028
 30
0.0
  0
SPLINE
  5
A9
330
1F
100
AcDbEntity
  8
Camada 1
 62
   250
370
     9
100
AcDbSpline
210
0.0
220
0.0
230
1.0
 70
    11
 71
     3
 72
    20
 73
    16
 74
     0
 42
0.0000000001
 43
0.0000000001
 12
1.0
 22
0.0
 32
0.0
 13
1.0
 23
0.0
 33
0.0
 40
0.0
 40
0.0
 40
0.0
 40
0.0
 40
0.2
 40
0.2
 40
0.2
 40
0.2
 40
0.4
 40
0.4
 40
0.4
 40
0.4
 40
0.6
 40
0.6
 40
0.6
 40
0.6
 40
1.0
 40
1.0
 40
1.0
 40
1.0
 10
-0.5873
 20
93.8028
 30
0.0
 10
-0.5873
 20
94.6598
 30
0.0
 10
-1.3022
 20
95.3546
 30
0.0
 10
-2.1842
 20
95.3546
 30
0.0
 10
-2.1842
 20
95.3546
 30
0.0
 10
-3.0662
 20
95.3546
 30
0.0
 10
-3.7812
 20
94.6598
 30
0.0
 10
-3.7812
 20
93.8028
 30
0.0
 10
-3.7812
 20
93.8028
 30
0.0
 10
-3.7813
 20
92.9458
 30
0.0
 10
-3.0663
 20
92.251
 30
0.0
 10
-2.1843
 20
92.251
 30
0.0
 10
-2.1843
 20
92.251
 30
0.0
 10
-1.3023
 20
92.251
 30
0.0
 10
-0.5873
 20
92.9458
 30
0.0
 10
-0.5873
 20
93.8028
 30
0.0
  0
SPLINE
  5
AA
330
1F
100
AcDbEntity
  8
Camada 1
 62
   250
370
     9
100
AcDbSpline
210
0.0
220
0.0
230
1.0
 70
    11
 71
     3
 72
    20
 73
    16
 74
     0
 42
0.0000000001
 43
0.0000000001
 12
1.0
 22
0.0
 32
0.0
 13
1.0
 23
0.0
 33
0.0
 40
0.0
 40
0.0
 40
0.0
 40
0.0
 40
0.2
 40
0.2
 40
0.2
 40
0.2
 40
0.4
 40
0.4
 40
0.4
 40
0.4
 40
0.6
 40
0.6
 40
0.6
 40
0.6
 40
1.0
 40
1.0
 40
1.0
 40
1.0
 10
-0.5873
 20
93.8028
 30
0.0
 10
-0.5873
 20
94.6598
 30
0.0
 10
-1.3022
 20
95.3546
 30
0.0
 10
-2.1842
 20
95.3546
 30
0.0
 10
-2.1842
 20
95.3546
 30
0.0
 10
-3.0662
 20
95.3546
 30
0.0
 10
-3.7812
 20
94.6598
 30
0.0
 10
-3.7812
 20
93.8028
 30
0.0
 10
-3.7812
 20
93.8028
 30
0.0
 10
-3.7813
 20
92.9458
 30
0.0
 10
-3.0663
 20
92.251
 30
0.0
 10
-2.1843
 20
92.251
 30
0.0
 10
-2.1843
 20
92.251
 30
0.0
 10
-1.3023
 20
92.251
 30
0.0
 10
-0.5873
 20
92.9458
 30
0.0
 10
-0.5873
 20
93.8028
 30
0.0
  0
SPLINE
  5
AB
330
1F
100
AcDbEntity
  8
Camada 1
 62
   250
370
     9
100
AcDbSpline
210
0.0
220
0.0
230
1.0
 70
    11
 71
     3
 72
    20
 73
    16
 74
     0
 42
0.0000000001
 43
0.0000000001
 12
1.0
 22
0.0
 32
0.0
 13
1.0
 23
0.0
 33
0.0
 40
0.0
 40
0.0
 40
0.0
 40
0.0
 40
0.2
 40
0.2
 40
0.2
 40
0.2
 40
0.4
 40
0.4
 40
0.4
 40
0.4
 40
0.6
 40
0.6
 40
0.6
 40
0.6
 40
1.0
 40
1.0
 40
1.0
 40
1.0
 10
-0.5873
 20
93.8028
 30
0.0
 10
-0.5873
 20
94.6598
 30
0.0
 10
-1.3022
 20
95.3546
 30
0.0
 10
-2.1842
 20
95.3546
 30
0.0
 10
-2.1842
 20
95.3546
 30
0.0
 10
-3.0662
 20
95.3546
 30
0.0
 10
-3.7812
 20
94.6598
 30
0.0
 10
-3.7812
 20
93.8028
 30
0.0
 10
-3.7812
 20
93.8028
 30
0.0
 10
-3.7813
 20
92.9458
 30
0.0
 10
-3.0663
 20
92.251
 30
0.0
 10
-2.1843
 20
92.251
 30
0.0
 10
-2.1843
 20
92.251
 30
0.0
 10
-1.3023
 20
92.251
 30
0.0
 10
-0.5873
 20
92.9458
 30
0.0
 10
-0.5873
 20
93.8028
 30
0.0
  0
SPLINE
  5
AC
330
1F
100
AcDbEntity
  8
Camada 1
 62
   250
370
     9
100
AcDbSpline
210
0.0
220
0.0
230
1.0
 70
    11
 71
     3
 72
    20
 73
    16
 74
     0
 42
0.0000000001
 43
0.0000000001
 12
1.0
 22
0.0
 32
0.0
 13
1.0
 23
0.0
 33
0.0
 40
0.0
 40
0.0
 40
0.0
 40
0.0
 40
0.2
 40
0.2
 40
0.2
 40
0.2
 40
0.4
 40
0.4
 40
0.4
 40
0.4
 40
0.6
 40
0.6
 40
0.6
 40
0.6
 40
1.0
 40
1.0
 40
1.0
 40
1.0
 10
-0.5873
 20
93.8028
 30
0.0
 10
-0.5873
 20
94.6598
 30
0.0
 10
-1.3022
 20
95.3546
 30
0.0
 10
-2.1842
 20
95.3546
 30
0.0
 10
-2.1842
 20
95.3546
 30
0.0
 10
-3.0662
 20
95.3546
 30
0.0
 10
-3.7812
 20
94.6598
 30
0.0
 10
-3.7812
 20
93.8028
 30
0.0
 10
-3.7812
 20
93.8028
 30
0.0
 10
-3.7813
 20
92.9458
 30
0.0
 10
-3.0663
 20
92.251
 30
0.0
 10
-2.1843
 20
92.251
 30
0.0
 10
-2.1843
 20
92.251
 30
0.0
 10
-1.3023
 20
92.251
 30
0.0
 10
-0.5873
 20
92.9458
 30
0.0
 10
-0.5873
 20
93.8028
 30
0.0
  0
SPLINE
  5
AD
330
1F
100
AcDbEntity
  8
Camada 1
 62
   250
370
     9
100
AcDbSpline
210
0.0
220
0.0
230
1.0
 70
    11
 71
     3
 72
    20
 73
    16
 74
     0
 42
0.0000000001
 43
0.0000000001
 12
1.0
 22
0.0
 32
0.0
 13
1.0
 23
0.0
 33
0.0
 40
0.0
 40
0.0
 40
0.0
 40
0.0
 40
0.2
 40
0.2
 40
0.2
 40
0.2
 40
0.4
 40
0.4
 40
0.4
 40
0.4
 40
0.6
 40
0.6
 40
0.6
 40
0.6
 40
1.0
 40
1.0
 40
1.0
 40
1.0
 10
-0.5873
 20
93.8028
 30
0.0
 10
-0.5873
 20
94.6598
 30
0.0
 10
-1.3022
 20
95.3546
 30
0.0
 10
-2.1842
 20
95.3546
 30
0.0
 10
-2.1842
 20
95.3546
 30
0.0
 10
-3.0662
 20
95.3546
 30
0.0
 10
-3.7812
 20
94.6598
 30
0.0
 10
-3.7812
 20
93.8028
 30
0.0
 10
-3.7812
 20
93.8028
 30
0.0
 10
-3.7813
 20
92.9458
 30
0.0
 10
-3.0663
 20
92.251
 30
0.0
 10
-2.1843
 20
92.251
 30
0.0
 10
-2.1843
 20
92.251
 30
0.0
 10
-1.3023
 20
92.251
 30
0.0
 10
-0.5873
 20
92.9458
 30
0.0
 10
-0.5873
 20
93.8028
 30
0.0
  0
SPLINE
  5
AE
330
1F
100
AcDbEntity
  8
Camada 1
 62
   250
370
     9
100
AcDbSpline
210
0.0
220
0.0
230
1.0
 70
    11
 71
     3
 72
    20
 73
    16
 74
     0
 42
0.0000000001
 43
0.0000000001
 12
1.0
 22
0.0
 32
0.0
 13
1.0
 23
0.0
 33
0.0
 40
0.0
 40
0.0
 40
0.0
 40
0.0
 40
0.2
 40
0.2
 40
0.2
 40
0.2
 40
0.4
 40
0.4
 40
0.4
 40
0.4
 40
0.6
 40
0.6
 40
0.6
 40
0.6
 40
1.0
 40
1.0
 40
1.0
 40
1.0
 10
-0.5873
 20
93.8028
 30
0.0
 10
-0.5873
 20
94.6598
 30
0.0
 10
-1.3022
 20
95.3546
 30
0.0
 10
-2.1842
 20
95.3546
 30
0.0
 10
-2.1842
 20
95.3546
 30
0.0
 10
-3.0662
 20
95.3546
 30
0.0
 10
-3.7812
 20
94.6598
 30
0.0
 10
-3.7812
 20
93.8028
 30
0.0
 10
-3.7812
 20
93.8028
 30
0.0
 10
-3.7813
 20
92.9458
 30
0.0
 10
-3.0663
 20
92.251
 30
0.0
 10
-2.1843
 20
92.251
 30
0.0
 10
-2.1843
 20
92.251
 30
0.0
 10
-1.3023
 20
92.251
 30
0.0
 10
-0.5873
 20
92.9458
 30
0.0
 10
-0.5873
 20
93.8028
 30
0.0
  0
SPLINE
  5
AF
330
1F
100
AcDbEntity
  8
Camada 1
 62
   250
370
     9
100
AcDbSpline
210
0.0
220
0.0
230
1.0
 70
    11
 71
     3
 72
    20
 73
    16
 74
     0
 42
0.0000000001
 43
0.0000000001
 12
1.0
 22
0.0
 32
0.0
 13
1.0
 23
0.0
 33
0.0
 40
0.0
 40
0.0
 40
0.0
 40
0.0
 40
0.2
 40
0.2
 40
0.2
 40
0.2
 40
0.4
 40
0.4
 40
0.4
 40
0.4
 40
0.6
 40
0.6
 40
0.6
 40
0.6
 40
1.0
 40
1.0
 40
1.0
 40
1.0
 10
-0.5873
 20
93.8028
 30
0.0
 10
-0.5873
 20
94.6598
 30
0.0
 10
-1.3022
 20
95.3546
 30
0.0
 10
-2.1842
 20
95.3546
 30
0.0
 10
-2.1842
 20
95.3546
 30
0.0
 10
-3.0662
 20
95.3546
 30
0.0
 10
-3.7812
 20
94.6598
 30
0.0
 10
-3.7812
 20
93.8028
 30
0.0
 10
-3.7812
 20
93.8028
 30
0.0
 10
-3.7813
 20
92.9458
 30
0.0
 10
-3.0663
 20
92.251
 30
0.0
 10
-2.1843
 20
92.251
 30
0.0
 10
-2.1843
 20
92.251
 30
0.0
 10
-1.3023
 20
92.251
 30
0.0
 10
-0.5873
 20
92.9458
 30
0.0
 10
-0.5873
 20
93.8028
 30
0.0
  0
SPLINE
  5
B0
330
1F
100
AcDbEntity
  8
Camada 1
 62
   250
370
     9
100
AcDbSpline
210
0.0
220
0.0
230
1.0
 70
    11
 71
     3
 72
    20
 73
    16
 74
     0
 42
0.0000000001
 43
0.0000000001
 12
1.0
 22
0.0
 32
0.0
 13
1.0
 23
0.0
 33
0.0
 40
0.0
 40
0.0
 40
0.0
 40
0.0
 40
0.2
 40
0.2
 40
0.2
 40
0.2
 40
0.4
 40
0.4
 40
0.4
 40
0.4
 40
0.6
 40
0.6
 40
0.6
 40
0.6
 40
1.0
 40
1.0
 40
1.0
 40
1.0
 10
-0.5873
 20
93.8028
 30
0.0
 10
-0.5873
 20
94.6598
 30
0.0
 10
-1.3022
 20
95.3546
 30
0.0
 10
-2.1842
 20
95.3546
 30
0.0
 10
-2.1842
 20
95.3546
 30
0.0
 10
-3.0662
 20
95.3546
 30
0.0
 10
-3.7812
 20
94.6598
 30
0.0
 10
-3.7812
 20
93.8028
 30
0.0
 10
-3.7812
 20
93.8028
 30
0.0
 10
-3.7813
 20
92.9458
 30
0.0
 10
-3.0663
 20
92.251
 30
0.0
 10
-2.1843
 20
92.251
 30
0.0
 10
-2.1843
 20
92.251
 30
0.0
 10
-1.3023
 20
92.251
 30
0.0
 10
-0.5873
 20
92.9458
 30
0.0
 10
-0.5873
 20
93.8028
 30
0.0
  0
SPLINE
  5
B1
330
1F
100
AcDbEntity
  8
Camada 1
 62
   250
370
     9
100
AcDbSpline
210
0.0
220
0.0
230
1.0
 70
    11
 71
     3
 72
    20
 73
    16
 74
     0
 42
0.0000000001
 43
0.0000000001
 12
1.0
 22
0.0
 32
0.0
 13
1.0
 23
0.0
 33
0.0
 40
0.0
 40
0.0
 40
0.0
 40
0.0
 40
0.2
 40
0.2
 40
0.2
 40
0.2
 40
0.4
 40
0.4
 40
0.4
 40
0.4
 40
0.6
 40
0.6
 40
0.6
 40
0.6
 40
1.0
 40
1.0
 40
1.0
 40
1.0
 10
-0.5873
 20
93.8028
 30
0.0
 10
-0.5873
 20
94.6598
 30
0.0
 10
-1.3022
 20
95.3546
 30
0.0
 10
-2.1842
 20
95.3546
 30
0.0
 10
-2.1842
 20
95.3546
 30
0.0
 10
-3.0662
 20
95.3546
 30
0.0
 10
-3.7812
 20
94.6598
 30
0.0
 10
-3.7812
 20
93.8028
 30
0.0
 10
-3.7812
 20
93.8028
 30
0.0
 10
-3.7813
 20
92.9458
 30
0.0
 10
-3.0663
 20
92.251
 30
0.0
 10
-2.1843
 20
92.251
 30
0.0
 10
-2.1843
 20
92.251
 30
0.0
 10
-1.3023
 20
92.251
 30
0.0
 10
-0.5873
 20
92.9458
 30
0.0
 10
-0.5873
 20
93.8028
 30
0.0
  0
SPLINE
  5
B2
330
1F
100
AcDbEntity
  8
Camada 1
 62
   250
370
     9
100
AcDbSpline
210
0.0
220
0.0
230
1.0
 70
    11
 71
     3
 72
    20
 73
    16
 74
     0
 42
0.0000000001
 43
0.0000000001
 12
1.0
 22
0.0
 32
0.0
 13
1.0
 23
0.0
 33
0.0
 40
0.0
 40
0.0
 40
0.0
 40
0.0
 40
0.2
 40
0.2
 40
0.2
 40
0.2
 40
0.4
 40
0.4
 40
0.4
 40
0.4
 40
0.6
 40
0.6
 40
0.6
 40
0.6
 40
1.0
 40
1.0
 40
1.0
 40
1.0
 10
-0.5873
 20
93.8028
 30
0.0
 10
-0.5873
 20
94.6598
 30
0.0
 10
-1.3022
 20
95.3546
 30
0.0
 10
-2.1842
 20
95.3546
 30
0.0
 10
-2.1842
 20
95.3546
 30
0.0
 10
-3.0662
 20
95.3546
 30
0.0
 10
-3.7812
 20
94.6598
 30
0.0
 10
-3.7812
 20
93.8028
 30
0.0
 10
-3.7812
 20
93.8028
 30
0.0
 10
-3.7813
 20
92.9458
 30
0.0
 10
-3.0663
 20
92.251
 30
0.0
 10
-2.1843
 20
92.251
 30
0.0
 10
-2.1843
 20
92.251
 30
0.0
 10
-1.3023
 20
92.251
 30
0.0
 10
-0.5873
 20
92.9458
 30
0.0
 10
-0.5873
 20
93.8028
 30
0.0
  0
SPLINE
  5
B3
330
1F
100
AcDbEntity
  8
Camada 1
 62
   250
370
     9
100
AcDbSpline
210
0.0
220
0.0
230
1.0
 70
    11
 71
     3
 72
    20
 73
    16
 74
     0
 42
0.0000000001
 43
0.0000000001
 12
1.0
 22
0.0
 32
0.0
 13
1.0
 23
0.0
 33
0.0
 40
0.0
 40
0.0
 40
0.0
 40
0.0
 40
0.2
 40
0.2
 40
0.2
 40
0.2
 40
0.4
 40
0.4
 40
0.4
 40
0.4
 40
0.6
 40
0.6
 40
0.6
 40
0.6
 40
1.0
 40
1.0
 40
1.0
 40
1.0
 10
-0.5873
 20
93.8028
 30
0.0
 10
-0.5873
 20
94.6598
 30
0.0
 10
-1.3022
 20
95.3546
 30
0.0
 10
-2.1842
 20
95.3546
 30
0.0
 10
-2.1842
 20
95.3546
 30
0.0
 10
-3.0662
 20
95.3546
 30
0.0
 10
-3.7812
 20
94.6598
 30
0.0
 10
-3.7812
 20
93.8028
 30
0.0
 10
-3.7812
 20
93.8028
 30
0.0
 10
-3.7813
 20
92.9458
 30
0.0
 10
-3.0663
 20
92.251
 30
0.0
 10
-2.1843
 20
92.251
 30
0.0
 10
-2.1843
 20
92.251
 30
0.0
 10
-1.3023
 20
92.251
 30
0.0
 10
-0.5873
 20
92.9458
 30
0.0
 10
-0.5873
 20
93.8028
 30
0.0
  0
SPLINE
  5
B4
330
1F
100
AcDbEntity
  8
Camada 1
 62
   250
370
     9
100
AcDbSpline
210
0.0
220
0.0
230
1.0
 70
    11
 71
     3
 72
    20
 73
    16
 74
     0
 42
0.0000000001
 43
0.0000000001
 12
1.0
 22
0.0
 32
0.0
 13
1.0
 23
0.0
 33
0.0
 40
0.0
 40
0.0
 40
0.0
 40
0.0
 40
0.2
 40
0.2
 40
0.2
 40
0.2
 40
0.4
 40
0.4
 40
0.4
 40
0.4
 40
0.6
 40
0.6
 40
0.6
 40
0.6
 40
1.0
 40
1.0
 40
1.0
 40
1.0
 10
-0.5873
 20
93.8028
 30
0.0
 10
-0.5873
 20
94.6598
 30
0.0
 10
-1.3022
 20
95.3546
 30
0.0
 10
-2.1842
 20
95.3546
 30
0.0
 10
-2.1842
 20
95.3546
 30
0.0
 10
-3.0662
 20
95.3546
 30
0.0
 10
-3.7812
 20
94.6598
 30
0.0
 10
-3.7812
 20
93.8028
 30
0.0
 10
-3.7812
 20
93.8028
 30
0.0
 10
-3.7813
 20
92.9458
 30
0.0
 10
-3.0663
 20
92.251
 30
0.0
 10
-2.1843
 20
92.251
 30
0.0
 10
-2.1843
 20
92.251
 30
0.0
 10
-1.3023
 20
92.251
 30
0.0
 10
-0.5873
 20
92.9458
 30
0.0
 10
-0.5873
 20
93.8028
 30
0.0
  0
SPLINE
  5
B5
330
1F
100
AcDbEntity
  8
Camada 1
 62
   250
370
     9
100
AcDbSpline
210
0.0
220
0.0
230
1.0
 70
    11
 71
     3
 72
    20
 73
    16
 74
     0
 42
0.0000000001
 43
0.0000000001
 12
1.0
 22
0.0
 32
0.0
 13
1.0
 23
0.0
 33
0.0
 40
0.0
 40
0.0
 40
0.0
 40
0.0
 40
0.2
 40
0.2
 40
0.2
 40
0.2
 40
0.4
 40
0.4
 40
0.4
 40
0.4
 40
0.6
 40
0.6
 40
0.6
 40
0.6
 40
1.0
 40
1.0
 40
1.0
 40
1.0
 10
-0.5873
 20
93.8028
 30
0.0
 10
-0.5873
 20
94.6598
 30
0.0
 10
-1.3022
 20
95.3546
 30
0.0
 10
-2.1842
 20
95.3546
 30
0.0
 10
-2.1842
 20
95.3546
 30
0.0
 10
-3.0662
 20
95.3546
 30
0.0
 10
-3.7812
 20
94.6598
 30
0.0
 10
-3.7812
 20
93.8028
 30
0.0
 10
-3.7812
 20
93.8028
 30
0.0
 10
-3.7813
 20
92.9458
 30
0.0
 10
-3.0663
 20
92.251
 30
0.0
 10
-2.1843
 20
92.251
 30
0.0
 10
-2.1843
 20
92.251
 30
0.0
 10
-1.3023
 20
92.251
 30
0.0
 10
-0.5873
 20
92.9458
 30
0.0
 10
-0.5873
 20
93.8028
 30
0.0
  0
SPLINE
  5
B6
330
1F
100
AcDbEntity
  8
Camada 1
 62
   250
370
     9
100
AcDbSpline
210
0.0
220
0.0
230
1.0
 70
    11
 71
     3
 72
    20
 73
    16
 74
     0
 42
0.0000000001
 43
0.0000000001
 12
1.0
 22
0.0
 32
0.0
 13
1.0
 23
0.0
 33
0.0
 40
0.0
 40
0.0
 40
0.0
 40
0.0
 40
0.2
 40
0.2
 40
0.2
 40
0.2
 40
0.4
 40
0.4
 40
0.4
 40
0.4
 40
0.6
 40
0.6
 40
0.6
 40
0.6
 40
1.0
 40
1.0
 40
1.0
 40
1.0
 10
-0.5873
 20
93.8028
 30
0.0
 10
-0.5873
 20
94.6598
 30
0.0
 10
-1.3022
 20
95.3546
 30
0.0
 10
-2.1842
 20
95.3546
 30
0.0
 10
-2.1842
 20
95.3546
 30
0.0
 10
-3.0662
 20
95.3546
 30
0.0
 10
-3.7812
 20
94.6598
 30
0.0
 10
-3.7812
 20
93.8028
 30
0.0
 10
-3.7812
 20
93.8028
 30
0.0
 10
-3.7813
 20
92.9458
 30
0.0
 10
-3.0663
 20
92.251
 30
0.0
 10
-2.1843
 20
92.251
 30
0.0
 10
-2.1843
 20
92.251
 30
0.0
 10
-1.3023
 20
92.251
 30
0.0
 10
-0.5873
 20
92.9458
 30
0.0
 10
-0.5873
 20
93.8028
 30
0.0
  0
SPLINE
  5
B7
330
1F
100
AcDbEntity
  8
Camada 1
 62
   250
370
     9
100
AcDbSpline
210
0.0
220
0.0
230
1.0
 70
    11
 71
     3
 72
    20
 73
    16
 74
     0
 42
0.0000000001
 43
0.0000000001
 12
1.0
 22
0.0
 32
0.0
 13
1.0
 23
0.0
 33
0.0
 40
0.0
 40
0.0
 40
0.0
 40
0.0
 40
0.2
 40
0.2
 40
0.2
 40
0.2
 40
0.4
 40
0.4
 40
0.4
 40
0.4
 40
0.6
 40
0.6
 40
0.6
 40
0.6
 40
1.0
 40
1.0
 40
1.0
 40
1.0
 10
-0.5873
 20
93.8028
 30
0.0
 10
-0.5873
 20
94.6598
 30
0.0
 10
-1.3022
 20
95.3546
 30
0.0
 10
-2.1842
 20
95.3546
 30
0.0
 10
-2.1842
 20
95.3546
 30
0.0
 10
-3.0662
 20
95.3546
 30
0.0
 10
-3.7812
 20
94.6598
 30
0.0
 10
-3.7812
 20
93.8028
 30
0.0
 10
-3.7812
 20
93.8028
 30
0.0
 10
-3.7813
 20
92.9458
 30
0.0
 10
-3.0663
 20
92.251
 30
0.0
 10
-2.1843
 20
92.251
 30
0.0
 10
-2.1843
 20
92.251
 30
0.0
 10
-1.3023
 20
92.251
 30
0.0
 10
-0.5873
 20
92.9458
 30
0.0
 10
-0.5873
 20
93.8028
 30
0.0
  0
SPLINE
  5
B8
330
1F
100
AcDbEntity
  8
Camada 1
 62
   250
370
     9
100
AcDbSpline
210
0.0
220
0.0
230
1.0
 70
    11
 71
     3
 72
    20
 73
    16
 74
     0
 42
0.0000000001
 43
0.0000000001
 12
1.0
 22
0.0
 32
0.0
 13
1.0
 23
0.0
 33
0.0
 40
0.0
 40
0.0
 40
0.0
 40
0.0
 40
0.2
 40
0.2
 40
0.2
 40
0.2
 40
0.4
 40
0.4
 40
0.4
 40
0.4
 40
0.6
 40
0.6
 40
0.6
 40
0.6
 40
1.0
 40
1.0
 40
1.0
 40
1.0
 10
-0.5873
 20
93.8028
 30
0.0
 10
-0.5873
 20
94.6598
 30
0.0
 10
-1.3022
 20
95.3546
 30
0.0
 10
-2.1842
 20
95.3546
 30
0.0
 10
-2.1842
 20
95.3546
 30
0.0
 10
-3.0662
 20
95.3546
 30
0.0
 10
-3.7812
 20
94.6598
 30
0.0
 10
-3.7812
 20
93.8028
 30
0.0
 10
-3.7812
 20
93.8028
 30
0.0
 10
-3.7813
 20
92.9458
 30
0.0
 10
-3.0663
 20
92.251
 30
0.0
 10
-2.1843
 20
92.251
 30
0.0
 10
-2.1843
 20
92.251
 30
0.0
 10
-1.3023
 20
92.251
 30
0.0
 10
-0.5873
 20
92.9458
 30
0.0
 10
-0.5873
 20
93.8028
 30
0.0
  0
SPLINE
  5
B9
330
1F
100
AcDbEntity
  8
Camada 1
 62
   250
370
     9
100
AcDbSpline
210
0.0
220
0.0
230
1.0
 70
    11
 71
     3
 72
    20
 73
    16
 74
     0
 42
0.0000000001
 43
0.0000000001
 12
1.0
 22
0.0
 32
0.0
 13
1.0
 23
0.0
 33
0.0
 40
0.0
 40
0.0
 40
0.0
 40
0.0
 40
0.2
 40
0.2
 40
0.2
 40
0.2
 40
0.4
 40
0.4
 40
0.4
 40
0.4
 40
0.6
 40
0.6
 40
0.6
 40
0.6
 40
1.0
 40
1.0
 40
1.0
 40
1.0
 10
-0.5873
 20
93.8028
 30
0.0
 10
-0.5873
 20
94.6598
 30
0.0
 10
-1.3022
 20
95.3546
 30
0.0
 10
-2.1842
 20
95.3546
 30
0.0
 10
-2.1842
 20
95.3546
 30
0.0
 10
-3.0662
 20
95.3546
 30
0.0
 10
-3.7812
 20
94.6598
 30
0.0
 10
-3.7812
 20
93.8028
 30
0.0
 10
-3.7812
 20
93.8028
 30
0.0
 10
-3.7813
 20
92.9458
 30
0.0
 10
-3.0663
 20
92.251
 30
0.0
 10
-2.1843
 20
92.251
 30
0.0
 10
-2.1843
 20
92.251
 30
0.0
 10
-1.3023
 20
92.251
 30
0.0
 10
-0.5873
 20
92.9458
 30
0.0
 10
-0.5873
 20
93.8028
 30
0.0
  0
SPLINE
  5
BA
330
1F
100
AcDbEntity
  8
Camada 1
 62
   250
370
     9
100
AcDbSpline
210
0.0
220
0.0
230
1.0
 70
     8
 71
     3
 72
    12
 73
     8
 74
     0
 42
0.0000000001
 43
0.0000000001
 12
1.0
 22
0.0
 32
0.0
 13
1.0
 23
0.0
 33
0.0
 40
0.0
 40
0.0
 40
0.0
 40
0.0
 40
0.3333333333333333
 40
0.3333333333333333
 40
0.3333333333333333
 40
0.3333333333333333
 40
1.0
 40
1.0
 40
1.0
 40
1.0
 10
29.3443
 20
81.725
 30
0.0
 10
57.8407
 20
69.3374
 30
0.0
 10
72.3233
 20
37.3565
 30
0.0
 10
74.1651
 20
5.8848
 30
0.0
 10
74.1651
 20
5.8848
 30
0.0
 10
75.238
 20
-34.6645
 30
0.0
 10
55.4649
 20
-66.6965
 30
0.0
 10
28.8364
 20
-78.1843
 30
0.0
  0
SPLINE
  5
BB
330
1F
100
AcDbEntity
  8
Camada 1
 62
   250
370
     9
100
AcDbSpline
210
0.0
220
0.0
230
1.0
 70
     8
 71
     3
 72
    12
 73
     8
 74
     0
 42
0.0000000001
 43
0.0000000001
 12
1.0
 22
0.0
 32
0.0
 13
1.0
 23
0.0
 33
0.0
 40
0.0
 40
0.0
 40
0.0
 40
0.0
 40
0.3333333333333333
 40
0.3333333333333333
 40
0.3333333333333333
 40
0.3333333333333333
 40
1.0
 40
1.0
 40
1.0
 40
1.0
 10
28.8365
 20
-78.1843
 30
0.0
 10
48.1131
 20
-61.7709
 30
0.0
 10
64.8609
 20
-34.4525
 30
0.0
 10
63.4609
 20
7.2754
 30
0.0
 10
63.4609
 20
7.2754
 30
0.0
 10
62.6959
 20
39.8127
 30
0.0
 10
48.0285
 20
63.692
 30
0.0
 10
29.3443
 20
81.725
 30
0.0
  0
SPLINE
  5
BC
330
1F
100
AcDbEntity
  8
Camada 1
 62
   250
370
     9
100
AcDbSpline
210
0.0
220
0.0
230
1.0
 70
    11
 71
     3
 72
    28
 73
    24
 74
     0
 42
0.0000000001
 43
0.0000000001
 12
1.0
 22
0.0
 32
0.0
 13
1.0
 23
0.0
 33
0.0
 40
0.0
 40
0.0
 40
0.0
 40
0.0
 40
0.1428571428571428
 40
0.1428571428571428
 40
0.1428571428571428
 40
0.1428571428571428
 40
0.2857142857142857
 40
0.2857142857142857
 40
0.2857142857142857
 40
0.2857142857142857
 40
0.4285714285714285
 40
0.4285714285714285
 40
0.4285714285714285
 40
0.4285714285714285
 40
0.5714285714285714
 40
0.5714285714285714
 40
0.5714285714285714
 40
0.5714285714285714
 40
0.7142857142857143
 40
0.7142857142857143
 40
0.7142857142857143
 40
0.7142857142857143
 40
1.0
 40
1.0
 40
1.0
 40
1.0
 10
19.7822
 20
83.311
 30
0.0
 10
27.9091
 20
73.4834
 30
0.0
 10
37.4669
 20
52.6266
 30
0.0
 10
42.5865
 20
9.5103
 30
0.0
 10
42.5865
 20
9.5103
 30
0.0
 10
45.0387
 20
-23.6677
 30
0.0
 10
37.8862
 20
-67.3013
 30
0.0
 10
19.6303
 20
-78.7533
 30
0.0
 10
19.6303
 20
-78.7533
 30
0.0
 10
33.9152
 20
-73.647
 30
0.0
 10
41.8967
 20
-61.3195
 30
0.0
 10
50.5414
 20
-44.843
 30
0.0
 10
50.5414
 20
-44.843
 30
0.0
 10
58.5762
 20
-28.3378
 30
0.0
 10
60.9944
 20
-12.4446
 30
0.0
 10
60.256
 20
10.3135
 30
0.0
 10
60.256
 20
10.3135
 30
0.0
 10
59.6053
 20
40.1149
 30
0.0
 10
44.0693
 20
62.5965
 30
0.0
 10
30.2902
 20
75.9294
 30
0.0
 10
30.2902
 20
75.9294
 30
0.0
 10
26.3564
 20
79.7357
 30
0.0
 10
22.0055
 20
81.6938
 30
0.0
 10
19.7822
 20
83.311
 30
0.0
  0
ENDSEC
  0
SECTION
  2
OBJECTS
  0
DICTIONARY
  5
C
330
0
100
AcDbDictionary
281
     1
  3
ACAD_GROUP
350
D
  3
ACAD_LAYOUT
350
1A
  3
ACAD_MATERIAL
350
3B
  3
ACAD_MLEADERSTYLE
350
BF
  3
ACAD_MLINESTYLE
350
17
  3
ACAD_PLOTSETTINGS
350
19
  3
ACAD_PLOTSTYLENAME
350
E
  3
ACAD_VISUALSTYLE
350
2A
  3
AcDbVariableDictionary
350
BD
  0
DICTIONARY
  5
D
102
{ACAD_REACTORS
330
C
102
}
330
C
100
AcDbDictionary
281
     1
  0
DICTIONARY
  5
1A
102
{ACAD_REACTORS
330
C
102
}
330
C
100
AcDbDictionary
281
     1
  3
Layout1
350
1E
  3
Layout2
350
26
  3
Model
350
22
  0
DICTIONARY
  5
3B
102
{ACAD_REACTORS
330
C
102
}
330
C
100
AcDbDictionary
281
     1
  3
ByBlock
350
3D
  3
ByLayer
350
3C
  3
Global
350
3E
  0
DICTIONARY
  5
BF
102
{ACAD_REACTORS
330
C
102
}
330
C
100
AcDbDictionary
281
     1
  0
DICTIONARY
  5
17
102
{ACAD_REACTORS
330
C
102
}
330
C
100
AcDbDictionary
281
     1
  3
Standard
350
18
  0
DICTIONARY
  5
19
102
{ACAD_REACTORS
330
C
102
}
330
C
100
AcDbDictionary
281
     1
  0
ACDBDICTIONARYWDFLT
  5
E
102
{ACAD_REACTORS
330
C
102
}
330
C
100
AcDbDictionary
281
     1
  3
Normal
350
F
100
AcDbDictionaryWithDefault
340
F
  0
DICTIONARY
  5
2A
102
{ACAD_REACTORS
330
C
102
}
330
C
100
AcDbDictionary
281
     1
  3
2dWireframe
350
2F
  3
3D Hidden
350
31
  3
3dWireframe
350
30
  3
Basic
350
32
  3
Brighten
350
36
  3
ColorChange
350
3A
  3
Conceptual
350
34
  3
Dim
350
35
  3
Facepattern
350
39
  3
Flat
350
2B
  3
FlatWithEdges
350
2C
  3
Gouraud
350
2D
  3
GouraudWithEdges
350
2E
  3
Linepattern
350
38
  3
Realistic
350
33
  3
Thicken
350
37
  0
DICTIONARY
  5
BD
102
{ACAD_REACTORS
330
C
102
}
330
C
100
AcDbDictionary
281
     1
  3
DIMASSOC
350
C0
  3
HIDETEXT
350
C1
  0
LAYOUT
  5
1E
102
{ACAD_REACTORS
330
1A
102
}
330
1A
100
AcDbPlotSettings
  1

  2
none_device
  4

  6

 40
0.0
 41
0.0
 42
0.0
 43
0.0
 44
0.0
 45
0.0
 46
0.0
 47
0.0
 48
0.0
 49
0.0
140
0.0
141
0.0
142
1.0
143
1.0
 70
   688
 72
     0
 73
     0
 74
     5
  7

 75
    16
147
1.0
148
0.0
149
0.0
100
AcDbLayout
  1
Layout1
 70
     1
 71
     1
 10
0.0
 20
0.0
 11
12.0
 21
9.0
 12
0.0
 22
0.0
 32
0.0
 14
1.000000000000000E+20
 24
1.000000000000000E+20
 34
1.000000000000000E+20
 15
-1.000000000000000E+20
 25
-1.000000000000000E+20
 35
-1.000000000000000E+20
146
0.0
 13
0.0
 23
0.0
 33
0.0
 16
1.0
 26
0.0
 36
0.0
 17
0.0
 27
1.0
 37
0.0
 76
     0
330
1B
  0
LAYOUT
  5
26
102
{ACAD_REACTORS
330
1A
102
}
330
1A
100
AcDbPlotSettings
  1

  2
none_device
  4

  6

 40
0.0
 41
0.0
 42
0.0
 43
0.0
 44
0.0
 45
0.0
 46
0.0
 47
0.0
 48
0.0
 49
0.0
140
0.0
141
0.0
142
1.0
143
1.0
 70
   688
 72
     0
 73
     0
 74
     5
  7

 75
    16
147
1.0
148
0.0
149
0.0
100
AcDbLayout
  1
Layout2
 70
     1
 71
     2
 10
0.0
 20
0.0
 11
0.0
 21
0.0
 12
0.0
 22
0.0
 32
0.0
 14
0.0
 24
0.0
 34
0.0
 15
0.0
 25
0.0
 35
0.0
146
0.0
 13
0.0
 23
0.0
 33
0.0
 16
1.0
 26
0.0
 36
0.0
 17
0.0
 27
1.0
 37
0.0
 76
     0
330
23
  0
LAYOUT
  5
22
102
{ACAD_REACTORS
330
1A
102
}
330
1A
100
AcDbPlotSettings
  1

  2
none_device
  4

  6

 40
0.0
 41
0.0
 42
0.0
 43
0.0
 44
0.0
 45
0.0
 46
0.0
 47
0.0
 48
0.0
 49
0.0
140
0.0
141
0.0
142
1.0
143
1.0
 70
  1712
 72
     0
 73
     0
 74
     0
  7

 75
     0
147
1.0
148
0.0
149
0.0
100
AcDbLayout
  1
Model
 70
     1
 71
     0
 10
0.0
 20
0.0
 11
12.0
 21
9.0
 12
0.0
 22
0.0
 32
0.0
 14
-77.225
 24
-101.0113
 34
0.0
 15
77.225
 25
101.0113
 35
0.0
146
0.0
 13
0.0
 23
0.0
 33
0.0
 16
1.0
 26
0.0
 36
0.0
 17
0.0
 27
1.0
 37
0.0
 76
     0
330
1F
331
29
  0
MATERIAL
  5
3D
102
{ACAD_REACTORS
330
3B
102
}
102
{ACAD_XDICTIONARY
360
E4
102
}
330
3B
100
AcDbMaterial
  1
ByBlock
  0
MATERIAL
  5
3C
102
{ACAD_REACTORS
330
3B
102
}
102
{ACAD_XDICTIONARY
360
E2
102
}
330
3B
100
AcDbMaterial
  1
ByLayer
  0
MATERIAL
  5
3E
102
{ACAD_REACTORS
330
3B
102
}
102
{ACAD_XDICTIONARY
360
E6
102
}
330
3B
100
AcDbMaterial
  1
Global
  0
MLINESTYLE
  5
18
102
{ACAD_REACTORS
330
17
102
}
330
17
100
AcDbMlineStyle
  2
Standard
 70
     0
  3

 62
   256
 51
90.0
 52
90.0
 71
     2
 49
0.5
 62
   256
  6
BYLAYER
 49
-0.5
 62
   256
  6
BYLAYER
  0
ACDBPLACEHOLDER
  5
F
102
{ACAD_REACTORS
330
E
102
}
330
E
  0
VISUALSTYLE
  5
2F
102
{ACAD_REACTORS
330
2A
102
}
102
{ACAD_XDICTIONARY
360
CA
102
}
330
2A
100
AcDbVisualStyle
  2
2dWireframe
 70
     4
 71
     0
 72
     2
 73
     0
 90
        0
 40
-0.6
 41
-30.0
 62
     5
 63
     7
 74
     1
 91
        4
 64
     7
 65
   257
 75
     1
175
     1
 42
1.0
 92
        0
 66
   257
 43
1.0
 76
     1
 77
     6
 78
     2
 67
     7
 79
     5
170
     0
171
     0
290
     0
174
     0
 93
        1
 44
0.0
173
     0
291
     0
 45
0.0
1001
ACAD
1000
AcDbSavedByObjectVersion
1070
     0
  0
VISUALSTYLE
  5
31
102
{ACAD_REACTORS
330
2A
102
}
102
{ACAD_XDICTIONARY
360
CE
102
}
330
2A
100
AcDbVisualStyle
  2
3D Hidden
 70
     6
 71
     1
 72
     2
 73
     2
 90
        0
 40
-0.6
 41
-30.0
 62
     5
 63
     7
 74
     2
 91
        2
 64
     7
 65
   257
 75
     2
175
     1
 42
40.0
 92
        0
 66
   257
 43
1.0
 76
     1
 77
     6
 78
     2
 67
     7
 79
     3
170
     0
171
     0
290
     0
174
     0
 93
        1
 44
0.0
173
     0
291
     0
 45
0.0
1001
ACAD
1000
AcDbSavedByObjectVersion
1070
     0
  0
VISUALSTYLE
  5
30
102
{ACAD_REACTORS
330
2A
102
}
102
{ACAD_XDICTIONARY
360
CC
102
}
330
2A
100
AcDbVisualStyle
  2
3dWireframe
 70
     5
 71
     0
 72
     2
 73
     0
 90
        0
 40
-0.6
 41
-30.0
 62
     5
 63
     7
 74
     1
 91
        4
 64
     7
 65
   257
 75
     1
175
     1
 42
1.0
 92
        0
 66
   257
 43
1.0
 76
     1
 77
     6
 78
     2
 67
     7
 79
     5
170
     0
171
     0
290
     0
174
     0
 93
        1
 44
0.0
173
     0
291
     0
 45
0.0
1001
ACAD
1000
AcDbSavedByObjectVersion
1070
     0
  0
VISUALSTYLE
  5
32
102
{ACAD_REACTORS
330
2A
102
}
102
{ACAD_XDICTIONARY
360
D0
102
}
330
2A
100
AcDbVisualStyle
  2
Basic
 70
     7
 71
     1
 72
     0
 73
     1
 90
        0
 40
-0.6
 41
-30.0
 62
     5
 63
     7
 74
     0
 91
        4
 64
     7
 65
   257
 75
     1
175
     1
 42
1.0
 92
        8
 66
     7
 43
1.0
 76
     1
 77
     6
 78
     2
 67
     7
 79
     5
170
     0
171
     0
290
     0
174
     0
 93
        1
 44
0.0
173
     0
291
     1
 45
0.0
1001
ACAD
1000
AcDbSavedByObjectVersion
1070
     0
  0
VISUALSTYLE
  5
36
102
{ACAD_REACTORS
330
2A
102
}
102
{ACAD_XDICTIONARY
360
D8
102
}
330
2A
100
AcDbVisualStyle
  2
Brighten
 70
    12
 71
     2
 72
     2
 73
     0
 90
        0
 40
-0.6
 41
-30.0
 62
     5
 63
     7
 74
     1
 91
        4
 64
     7
 65
   257
 75
     1
175
     1
 42
1.0
 92
        8
 66
     7
 43
1.0
 76
     1
 77
     6
 78
     2
 67
     7
 79
     5
170
     0
171
     0
290
     0
174
     0
 93
        1
 44
50.0
173
     0
291
     1
 45
0.0
1001
ACAD
1000
AcDbSavedByObjectVersion
1070
     0
  0
VISUALSTYLE
  5
3A
102
{ACAD_REACTORS
330
2A
102
}
102
{ACAD_XDICTIONARY
360
E0
102
}
330
2A
100
AcDbVisualStyle
  2
ColorChange
 70
    16
 71
     2
 72
     2
 73
     3
 90
        0
 40
-0.6
 41
-30.0
 62
     5
 63
     8
 74
     1
 91
        4
 64
     7
 65
   257
 75
     1
175
     1
 42
1.0
 92
        8
 66
     8
 43
1.0
 76
     1
 77
     6
 78
     2
 67
     7
 79
     5
170
     0
171
     0
290
     0
174
     0
 93
        1
 44
0.0
173
     0
291
     1
 45
0.0
1001
ACAD
1000
AcDbSavedByObjectVersion
1070
     0
  0
VISUALSTYLE
  5
34
102
{ACAD_REACTORS
330
2A
102
}
102
{ACAD_XDICTIONARY
360
D4
102
}
330
2A
100
AcDbVisualStyle
  2
Conceptual
 70
     9
 71
     3
 72
     2
 73
     0
 90
        0
 40
-0.6
 41
-30.0
 62
     5
 63
     7
 74
     2
 91
        2
 64
     7
 65
   257
 75
     1
175
     1
 42
40.0
 92
        8
 66
     7
 43
1.0
 76
     1
 77
     6
 78
     2
 67
     7
 79
     3
170
     0
171
     0
290
     0
174
     0
 93
        1
 44
0.0
173
     0
291
     0
 45
0.0
1001
ACAD
1000
AcDbSavedByObjectVersion
1070
     0
  0
VISUALSTYLE
  5
35
102
{ACAD_REACTORS
330
2A
102
}
102
{ACAD_XDICTIONARY
360
D6
102
}
330
2A
100
AcDbVisualStyle
  2
Dim
 70
    11
 71
     2
 72
     2
 73
     0
 90
        0
 40
-0.6
 41
-30.0
 62
     5
 63
     7
 74
     1
 91
        4
 64
     7
 65
   257
 75
     1
175
     1
 42
1.0
 92
        8
 66
     7
 43
1.0
 76
     1
 77
     6
 78
     2
 67
     7
 79
     5
170
     0
171
     0
290
     0
174
     0
 93
        1
 44
-50.0
173
     0
291
     1
 45
0.0
1001
ACAD
1000
AcDbSavedByObjectVersion
1070
     0
  0
VISUALSTYLE
  5
39
102
{ACAD_REACTORS
330
2A
102
}
102
{ACAD_XDICTIONARY
360
DE
102
}
330
2A
100
AcDbVisualStyle
  2
Facepattern
 70
    15
 71
     2
 72
     2
 73
     0
 90
        0
 40
-0.6
 41
-30.0
 62
     5
 63
     7
 74
     1
 91
        4
 64
     7
 65
   257
 75
     1
175
     1
 42
1.0
 92
        8
 66
     7
 43
1.0
 76
     1
 77
     6
 78
     2
 67
     7
 79
     5
170
     0
171
     0
290
     0
174
     0
 93
        1
 44
0.0
173
     0
291
     1
 45
0.0
1001
ACAD
1000
AcDbSavedByObjectVersion
1070
     0
  0
VISUALSTYLE
  5
2B
102
{ACAD_REACTORS
330
2A
102
}
102
{ACAD_XDICTIONARY
360
C2
102
}
330
2A
100
AcDbVisualStyle
  2
Flat
 70
     0
 71
     2
 72
     1
 73
     1
 90
        2
 40
-0.6
 41
30.0
 62
     5
 63
     7
 74
     0
 91
        4
 64
     7
 65
   257
 75
     1
175
     1
 42
1.0
 92
        8
 66
     7
 43
1.0
 76
     1
 77
     6
 78
     2
 67
     7
 79
     5
170
     0
171
     0
290
     0
174
     0
 93
       13
 44
0.0
173
     0
291
     1
 45
0.0
1001
ACAD
1000
AcDbSavedByObjectVersion
1070
     0
  0
VISUALSTYLE
  5
2C
102
{ACAD_REACTORS
330
2A
102
}
102
{ACAD_XDICTIONARY
360
C4
102
}
330
2A
100
AcDbVisualStyle
  2
FlatWithEdges
 70
     1
 71
     2
 72
     1
 73
     1
 90
        2
 40
-0.6
 41
30.0
 62
     5
 63
     7
 74
     1
 91
        4
 64
     7
 65
   257
 75
     1
175
     1
 42
1.0
 92
        0
 66
   257
 43
1.0
 76
     1
 77
     6
 78
     2
 67
     7
 79
     5
170
     0
171
     0
290
     0
174
     0
 93
       13
 44
0.0
173
     0
291
     1
 45
0.0
1001
ACAD
1000
AcDbSavedByObjectVersion
1070
     0
  0
VISUALSTYLE
  5
2D
102
{ACAD_REACTORS
330
2A
102
}
102
{ACAD_XDICTIONARY
360
C6
102
}
330
2A
100
AcDbVisualStyle
  2
Gouraud
 70
     2
 71
     2
 72
     2
 73
     1
 90
        2
 40
-0.6
 41
30.0
 62
     5
 63
     7
 74
     0
 91
        4
 64
     7
 65
   257
 75
     1
175
     1
 42
1.0
 92
        0
 66
     7
 43
1.0
 76
     1
 77
     6
 78
     2
 67
     7
 79
     5
170
     0
171
     0
290
     0
174
     0
 93
       13
 44
0.0
173
     0
291
     1
 45
0.0
1001
ACAD
1000
AcDbSavedByObjectVersion
1070
     0
  0
VISUALSTYLE
  5
2E
102
{ACAD_REACTORS
330
2A
102
}
102
{ACAD_XDICTIONARY
360
C8
102
}
330
2A
100
AcDbVisualStyle
  2
GouraudWithEdges
 70
     3
 71
     2
 72
     2
 73
     1
 90
        2
 40
-0.6
 41
30.0
 62
     5
 63
     7
 74
     1
 91
        4
 64
     7
 65
   257
 75
     1
175
     1
 42
1.0
 92
        0
 66
   257
 43
1.0
 76
     1
 77
     6
 78
     2
 67
     7
 79
     5
170
     0
171
     0
290
     0
174
     0
 93
       13
 44
0.0
173
     0
291
     1
 45
0.0
1001
ACAD
1000
AcDbSavedByObjectVersion
1070
     0
  0
VISUALSTYLE
  5
38
102
{ACAD_REACTORS
330
2A
102
}
102
{ACAD_XDICTIONARY
360
DC
102
}
330
2A
100
AcDbVisualStyle
  2
Linepattern
 70
    14
 71
     2
 72
     2
 73
     0
 90
        0
 40
-0.6
 41
-30.0
 62
     5
 63
     7
 74
     1
 91
        4
 64
     7
 65
   257
 75
     7
175
     7
 42
1.0
 92
        8
 66
     7
 43
1.0
 76
     1
 77
     6
 78
     2
 67
     7
 79
     5
170
     0
171
     0
290
     0
174
     0
 93
        1
 44
0.0
173
     0
291
     1
 45
0.0
1001
ACAD
1000
AcDbSavedByObjectVersion
1070
     0
  0
VISUALSTYLE
  5
33
102
{ACAD_REACTORS
330
2A
102
}
102
{ACAD_XDICTIONARY
360
D2
102
}
330
2A
100
AcDbVisualStyle
  2
Realistic
 70
     8
 71
     2
 72
     2
 73
     0
 90
        0
 40
-0.6
 41
-30.0
 62
     5
 63
     7
 74
     1
 91
        0
 64
     7
 65
   257
 75
     1
175
     1
 42
1.0
 92
        8
 66
     8
 43
1.0
 76
     1
 77
     6
 78
     2
 67
     7
 79
     5
170
     0
171
     0
290
     0
174
     0
 93
       13
 44
0.0
173
     0
291
     0
 45
0.0
1001
ACAD
1000
AcDbSavedByObjectVersion
1070
     0
  0
VISUALSTYLE
  5
37
102
{ACAD_REACTORS
330
2A
102
}
102
{ACAD_XDICTIONARY
360
DA
102
}
330
2A
100
AcDbVisualStyle
  2
Thicken
 70
    13
 71
     2
 72
     2
 73
     0
 90
        0
 40
-0.6
 41
-30.0
 62
     5
 63
     7
 74
     1
 91
        4
 64
     7
 65
   257
 75
     1
175
     1
 42
1.0
 92
       12
 66
     7
 43
1.0
 76
     1
 77
     6
 78
     2
 67
     7
 79
     5
170
     0
171
     0
290
     0
174
     0
 93
        1
 44
0.0
173
     0
291
     1
 45
0.0
1001
ACAD
1000
AcDbSavedByObjectVersion
1070
     0
  0
DICTIONARYVAR
  5
C0
102
{ACAD_REACTORS
330
BD
102
}
330
BD
100
DictionaryVariables
280
     0
  1
2
  0
DICTIONARYVAR
  5
C1
102
{ACAD_REACTORS
330
BD
102
}
330
BD
100
DictionaryVariables
280
     0
  1
1
  0
DICTIONARY
  5
E4
330
3D
100
AcDbDictionary
280
     1
281
     1
  3
ACAD_XREC_ROUNDTRIP
360
E5
  0
DICTIONARY
  5
E2
330
3C
100
AcDbDictionary
280
     1
281
     1
  3
ACAD_XREC_ROUNDTRIP
360
E3
  0
DICTIONARY
  5
E6
330
3E
100
AcDbDictionary
280
     1
281
     1
  3
ACAD_XREC_ROUNDTRIP
360
E7
  0
DICTIONARY
  5
CA
330
2F
100
AcDbDictionary
280
     1
281
     1
  3
ACAD_XREC_ROUNDTRIP
360
CB
  0
DICTIONARY
  5
CE
330
31
100
AcDbDictionary
280
     1
281
     1
  3
ACAD_XREC_ROUNDTRIP
360
CF
  0
DICTIONARY
  5
CC
330
30
100
AcDbDictionary
280
     1
281
     1
  3
ACAD_XREC_ROUNDTRIP
360
CD
  0
DICTIONARY
  5
D0
330
32
100
AcDbDictionary
280
     1
281
     1
  3
ACAD_XREC_ROUNDTRIP
360
D1
  0
DICTIONARY
  5
D8
330
36
100
AcDbDictionary
280
     1
281
     1
  3
ACAD_XREC_ROUNDTRIP
360
D9
  0
DICTIONARY
  5
E0
330
3A
100
AcDbDictionary
280
     1
281
     1
  3
ACAD_XREC_ROUNDTRIP
360
E1
  0
DICTIONARY
  5
D4
330
34
100
AcDbDictionary
280
     1
281
     1
  3
ACAD_XREC_ROUNDTRIP
360
D5
  0
DICTIONARY
  5
D6
330
35
100
AcDbDictionary
280
     1
281
     1
  3
ACAD_XREC_ROUNDTRIP
360
D7
  0
DICTIONARY
  5
DE
330
39
100
AcDbDictionary
280
     1
281
     1
  3
ACAD_XREC_ROUNDTRIP
360
DF
  0
DICTIONARY
  5
C2
330
2B
100
AcDbDictionary
280
     1
281
     1
  3
ACAD_XREC_ROUNDTRIP
360
C3
  0
DICTIONARY
  5
C4
330
2C
100
AcDbDictionary
280
     1
281
     1
  3
ACAD_XREC_ROUNDTRIP
360
C5
  0
DICTIONARY
  5
C6
330
2D
100
AcDbDictionary
280
     1
281
     1
  3
ACAD_XREC_ROUNDTRIP
360
C7
  0
DICTIONARY
  5
C8
330
2E
100
AcDbDictionary
280
     1
281
     1
  3
ACAD_XREC_ROUNDTRIP
360
C9
  0
DICTIONARY
  5
DC
330
38
100
AcDbDictionary
280
     1
281
     1
  3
ACAD_XREC_ROUNDTRIP
360
DD
  0
DICTIONARY
  5
D2
330
33
100
AcDbDictionary
280
     1
281
     1
  3
ACAD_XREC_ROUNDTRIP
360
D3
  0
DICTIONARY
  5
DA
330
37
100
AcDbDictionary
280
     1
281
     1
  3
ACAD_XREC_ROUNDTRIP
360
DB
  0
XRECORD
  5
E5
102
{ACAD_REACTORS
330
E4
102
}
330
E4
100
AcDbXrecord
280
     1
102
MATERIAL
148
0.0
149
0.0
149
0.0
 93
        0
 94
      127
282
     0
 72
     1
 77
     1
171
     1
175
     1
179
     1
273
     0
  0
XRECORD
  5
E3
102
{ACAD_REACTORS
330
E2
102
}
330
E2
100
AcDbXrecord
280
     1
102
MATERIAL
148
0.0
149
0.0
149
0.0
 93
        0
 94
      127
282
     0
 72
     1
 77
     1
171
     1
175
     1
179
     1
273
     0
  0
XRECORD
  5
E7
102
{ACAD_REACTORS
330
E6
102
}
330
E6
100
AcDbXrecord
280
     1
102
MATERIAL
148
0.0
149
0.0
149
0.0
 93
        0
 94
      127
282
     0
 72
     1
 77
     1
171
     1
175
     1
179
     1
273
     0
  0
XRECORD
  5
CB
102
{ACAD_REACTORS
330
CA
102
}
330
CA
100
AcDbXrecord
280
     1
102
RTVSPropertyOp0
 70
     1
102
RTVSPropertyOp1
 70
     1
102
RTVSPropertyOp2
 70
     1
102
RTVSPropertyOp3
 70
     1
102
RTVSPropertyOp4
 70
     1
102
RTVSPropertyOp5
 70
     1
102
RTVSPropertyOp6
 70
     1
102
RTVSPropertyOp7
 70
     1
102
RTVSPropertyOp8
 70
     1
102
RTVSPropertyOp9
 70
     1
102
RTVSPropertyOp10
 70
     1
102
RTVSPropertyOp11
 70
     1
102
RTVSPropertyOp12
 70
     1
102
RTVSPropertyOp13
 70
     1
102
RTVSPropertyOp14
 70
     1
102
RTVSPropertyOp15
 70
     1
102
RTVSPropertyOp16
 70
     1
102
RTVSPropertyOp17
 70
     1
102
RTVSPropertyOp18
 70
     1
102
RTVSPropertyOp19
 70
     1
102
RTVSPropertyOp20
 70
     1
102
RTVSPropertyOp21
 70
     1
102
RTVSPropertyOp22
 70
     1
102
RTVSPropertyOp23
 70
     1
102
RTVSPropertyOp24
 70
     1
102
RTVSPropertyOp25
 70
     1
102
RTVSPropertyOp26
 70
     1
102
RTVSPropertyOp27
 70
     1
102
RTVSPropertyOp28
 70
     1
102
RTVSPropertyOp29
 70
     1
102
RTVSPropertyOp30
 70
     1
102
RTVSPropertyOp31
 70
     1
102
RTVSPropertyOp32
 70
     1
  0
XRECORD
  5
CF
102
{ACAD_REACTORS
330
CE
102
}
330
CE
100
AcDbXrecord
280
     1
102
RTVSPropertyOp0
 70
     1
102
RTVSPropertyOp1
 70
     1
102
RTVSPropertyOp2
 70
     1
102
RTVSPropertyOp3
 70
     1
102
RTVSPropertyOp4
 70
     1
102
RTVSPropertyOp5
 70
     1
102
RTVSPropertyOp6
 70
     1
102
RTVSPropertyOp7
 70
     1
102
RTVSPropertyOp8
 70
     1
102
RTVSPropertyOp9
 70
     1
102
RTVSPropertyOp10
 70
     1
102
RTVSPropertyOp11
 70
     1
102
RTVSPropertyOp12
 70
     1
102
RTVSPropertyOp13
 70
     1
102
RTVSPropertyOp14
 70
     1
102
RTVSPropertyOp15
 70
     1
102
RTVSPropertyOp16
 70
     1
102
RTVSPropertyOp17
 70
     1
102
RTVSPropertyOp18
 70
     1
102
RTVSPropertyOp19
 70
     1
102
RTVSPropertyOp20
 70
     1
102
RTVSPropertyOp21
 70
     1
102
RTVSPropertyOp22
 70
     1
102
RTVSPropertyOp23
 70
     1
102
RTVSPropertyOp24
 70
     1
102
RTVSPropertyOp25
 70
     1
102
RTVSPropertyOp26
 70
     1
102
RTVSPropertyOp27
 70
     1
102
RTVSPropertyOp28
 70
     1
102
RTVSPropertyOp29
 70
     1
102
RTVSPropertyOp30
 70
     1
102
RTVSPropertyOp31
 70
     1
102
RTVSPropertyOp32
 70
     1
  0
XRECORD
  5
CD
102
{ACAD_REACTORS
330
CC
102
}
330
CC
100
AcDbXrecord
280
     1
102
RTVSPropertyOp0
 70
     1
102
RTVSPropertyOp1
 70
     1
102
RTVSPropertyOp2
 70
     1
102
RTVSPropertyOp3
 70
     1
102
RTVSPropertyOp4
 70
     1
102
RTVSPropertyOp5
 70
     1
102
RTVSPropertyOp6
 70
     1
102
RTVSPropertyOp7
 70
     1
102
RTVSPropertyOp8
 70
     1
102
RTVSPropertyOp9
 70
     1
102
RTVSPropertyOp10
 70
     1
102
RTVSPropertyOp11
 70
     1
102
RTVSPropertyOp12
 70
     1
102
RTVSPropertyOp13
 70
     1
102
RTVSPropertyOp14
 70
     1
102
RTVSPropertyOp15
 70
     1
102
RTVSPropertyOp16
 70
     1
102
RTVSPropertyOp17
 70
     1
102
RTVSPropertyOp18
 70
     1
102
RTVSPropertyOp19
 70
     1
102
RTVSPropertyOp20
 70
     1
102
RTVSPropertyOp21
 70
     1
102
RTVSPropertyOp22
 70
     1
102
RTVSPropertyOp23
 70
     1
102
RTVSPropertyOp24
 70
     1
102
RTVSPropertyOp25
 70
     1
102
RTVSPropertyOp26
 70
     1
102
RTVSPropertyOp27
 70
     1
102
RTVSPropertyOp28
 70
     1
102
RTVSPropertyOp29
 70
     1
102
RTVSPropertyOp30
 70
     1
102
RTVSPropertyOp31
 70
     1
102
RTVSPropertyOp32
 70
     1
  0
XRECORD
  5
D1
102
{ACAD_REACTORS
330
D0
102
}
330
D0
100
AcDbXrecord
280
     1
102
RTVSPropertyOp0
 70
     1
102
RTVSPropertyOp1
 70
     1
102
RTVSPropertyOp2
 70
     1
102
RTVSPropertyOp3
 70
     1
102
RTVSPropertyOp4
 70
     1
102
RTVSPropertyOp5
 70
     1
102
RTVSPropertyOp6
 70
     1
102
RTVSPropertyOp7
 70
     1
102
RTVSPropertyOp8
 70
     1
102
RTVSPropertyOp9
 70
     1
102
RTVSPropertyOp10
 70
     1
102
RTVSPropertyOp11
 70
     1
102
RTVSPropertyOp12
 70
     1
102
RTVSPropertyOp13
 70
     1
102
RTVSPropertyOp14
 70
     1
102
RTVSPropertyOp15
 70
     1
102
RTVSPropertyOp16
 70
     1
102
RTVSPropertyOp17
 70
     1
102
RTVSPropertyOp18
 70
     1
102
RTVSPropertyOp19
 70
     1
102
RTVSPropertyOp20
 70
     1
102
RTVSPropertyOp21
 70
     1
102
RTVSPropertyOp22
 70
     1
102
RTVSPropertyOp23
 70
     1
102
RTVSPropertyOp24
 70
     1
102
RTVSPropertyOp25
 70
     1
102
RTVSPropertyOp26
 70
     1
102
RTVSPropertyOp27
 70
     1
102
RTVSPropertyOp28
 70
     1
102
RTVSPropertyOp29
 70
     1
102
RTVSPropertyOp30
 70
     1
102
RTVSPropertyOp31
 70
     1
102
RTVSPropertyOp32
 70
     1
  0
XRECORD
  5
D9
102
{ACAD_REACTORS
330
D8
102
}
330
D8
100
AcDbXrecord
280
     1
102
RTVSPropertyOp0
 70
     1
102
RTVSPropertyOp1
 70
     1
102
RTVSPropertyOp2
 70
     1
102
RTVSPropertyOp3
 70
     1
102
RTVSPropertyOp4
 70
     1
102
RTVSPropertyOp5
 70
     1
102
RTVSPropertyOp6
 70
     1
102
RTVSPropertyOp7
 70
     1
102
RTVSPropertyOp8
 70
     1
102
RTVSPropertyOp9
 70
     1
102
RTVSPropertyOp10
 70
     1
102
RTVSPropertyOp11
 70
     1
102
RTVSPropertyOp12
 70
     1
102
RTVSPropertyOp13
 70
     1
102
RTVSPropertyOp14
 70
     1
102
RTVSPropertyOp15
 70
     1
102
RTVSPropertyOp16
 70
     1
102
RTVSPropertyOp17
 70
     1
102
RTVSPropertyOp18
 70
     1
102
RTVSPropertyOp19
 70
     1
102
RTVSPropertyOp20
 70
     1
102
RTVSPropertyOp21
 70
     1
102
RTVSPropertyOp22
 70
     1
102
RTVSPropertyOp23
 70
     1
102
RTVSPropertyOp24
 70
     1
102
RTVSPropertyOp25
 70
     1
102
RTVSPropertyOp26
 70
     1
102
RTVSPropertyOp27
 70
     1
102
RTVSPropertyOp28
 70
     1
102
RTVSPropertyOp29
 70
     1
102
RTVSPropertyOp30
 70
     1
102
RTVSPropertyOp31
 70
     1
102
RTVSPropertyOp32
 70
     1
  0
XRECORD
  5
E1
102
{ACAD_REACTORS
330
E0
102
}
330
E0
100
AcDbXrecord
280
     1
102
RTVSPropertyOp0
 70
     1
102
RTVSPropertyOp1
 70
     1
102
RTVSPropertyOp2
 70
     1
102
RTVSPropertyOp3
 70
     1
102
RTVSPropertyOp4
 70
     1
102
RTVSPropertyOp5
 70
     1
102
RTVSPropertyOp6
 70
     1
102
RTVSPropertyOp7
 70
     1
102
RTVSPropertyOp8
 70
     1
102
RTVSPropertyOp9
 70
     1
102
RTVSPropertyOp10
 70
     1
102
RTVSPropertyOp11
 70
     1
102
RTVSPropertyOp12
 70
     1
102
RTVSPropertyOp13
 70
     1
102
RTVSPropertyOp14
 70
     1
102
RTVSPropertyOp15
 70
     1
102
RTVSPropertyOp16
 70
     1
102
RTVSPropertyOp17
 70
     1
102
RTVSPropertyOp18
 70
     1
102
RTVSPropertyOp19
 70
     1
102
RTVSPropertyOp20
 70
     1
102
RTVSPropertyOp21
 70
     1
102
RTVSPropertyOp22
 70
     1
102
RTVSPropertyOp23
 70
     1
102
RTVSPropertyOp24
 70
     1
102
RTVSPropertyOp25
 70
     1
102
RTVSPropertyOp26
 70
     1
102
RTVSPropertyOp27
 70
     1
102
RTVSPropertyOp28
 70
     1
102
RTVSPropertyOp29
 70
     1
102
RTVSPropertyOp30
 70
     1
102
RTVSPropertyOp31
 70
     1
102
RTVSPropertyOp32
 70
     1
  0
XRECORD
  5
D5
102
{ACAD_REACTORS
330
D4
102
}
330
D4
100
AcDbXrecord
280
     1
102
RTVSPropertyOp0
 70
     1
102
RTVSPropertyOp1
 70
     1
102
RTVSPropertyOp2
 70
     1
102
RTVSPropertyOp3
 70
     1
102
RTVSPropertyOp4
 70
     1
102
RTVSPropertyOp5
 70
     1
102
RTVSPropertyOp6
 70
     1
102
RTVSPropertyOp7
 70
     1
102
RTVSPropertyOp8
 70
     1
102
RTVSPropertyOp9
 70
     1
102
RTVSPropertyOp10
 70
     1
102
RTVSPropertyOp11
 70
     1
102
RTVSPropertyOp12
 70
     1
102
RTVSPropertyOp13
 70
     1
102
RTVSPropertyOp14
 70
     1
102
RTVSPropertyOp15
 70
     1
102
RTVSPropertyOp16
 70
     1
102
RTVSPropertyOp17
 70
     1
102
RTVSPropertyOp18
 70
     1
102
RTVSPropertyOp19
 70
     1
102
RTVSPropertyOp20
 70
     1
102
RTVSPropertyOp21
 70
     1
102
RTVSPropertyOp22
 70
     1
102
RTVSPropertyOp23
 70
     1
102
RTVSPropertyOp24
 70
     1
102
RTVSPropertyOp25
 70
     1
102
RTVSPropertyOp26
 70
     1
102
RTVSPropertyOp27
 70
     1
102
RTVSPropertyOp28
 70
     1
102
RTVSPropertyOp29
 70
     1
102
RTVSPropertyOp30
 70
     1
102
RTVSPropertyOp31
 70
     1
102
RTVSPropertyOp32
 70
     1
  0
XRECORD
  5
D7
102
{ACAD_REACTORS
330
D6
102
}
330
D6
100
AcDbXrecord
280
     1
102
RTVSPropertyOp0
 70
     1
102
RTVSPropertyOp1
 70
     1
102
RTVSPropertyOp2
 70
     1
102
RTVSPropertyOp3
 70
     1
102
RTVSPropertyOp4
 70
     1
102
RTVSPropertyOp5
 70
     1
102
RTVSPropertyOp6
 70
     1
102
RTVSPropertyOp7
 70
     1
102
RTVSPropertyOp8
 70
     1
102
RTVSPropertyOp9
 70
     1
102
RTVSPropertyOp10
 70
     1
102
RTVSPropertyOp11
 70
     1
102
RTVSPropertyOp12
 70
     1
102
RTVSPropertyOp13
 70
     1
102
RTVSPropertyOp14
 70
     1
102
RTVSPropertyOp15
 70
     1
102
RTVSPropertyOp16
 70
     1
102
RTVSPropertyOp17
 70
     1
102
RTVSPropertyOp18
 70
     1
102
RTVSPropertyOp19
 70
     1
102
RTVSPropertyOp20
 70
     1
102
RTVSPropertyOp21
 70
     1
102
RTVSPropertyOp22
 70
     1
102
RTVSPropertyOp23
 70
     1
102
RTVSPropertyOp24
 70
     1
102
RTVSPropertyOp25
 70
     1
102
RTVSPropertyOp26
 70
     1
102
RTVSPropertyOp27
 70
     1
102
RTVSPropertyOp28
 70
     1
102
RTVSPropertyOp29
 70
     1
102
RTVSPropertyOp30
 70
     1
102
RTVSPropertyOp31
 70
     1
102
RTVSPropertyOp32
 70
     1
  0
XRECORD
  5
DF
102
{ACAD_REACTORS
330
DE
102
}
330
DE
100
AcDbXrecord
280
     1
102
RTVSPropertyOp0
 70
     1
102
RTVSPropertyOp1
 70
     1
102
RTVSPropertyOp2
 70
     1
102
RTVSPropertyOp3
 70
     1
102
RTVSPropertyOp4
 70
     1
102
RTVSPropertyOp5
 70
     1
102
RTVSPropertyOp6
 70
     1
102
RTVSPropertyOp7
 70
     1
102
RTVSPropertyOp8
 70
     1
102
RTVSPropertyOp9
 70
     1
102
RTVSPropertyOp10
 70
     1
102
RTVSPropertyOp11
 70
     1
102
RTVSPropertyOp12
 70
     1
102
RTVSPropertyOp13
 70
     1
102
RTVSPropertyOp14
 70
     1
102
RTVSPropertyOp15
 70
     1
102
RTVSPropertyOp16
 70
     1
102
RTVSPropertyOp17
 70
     1
102
RTVSPropertyOp18
 70
     1
102
RTVSPropertyOp19
 70
     1
102
RTVSPropertyOp20
 70
     1
102
RTVSPropertyOp21
 70
     1
102
RTVSPropertyOp22
 70
     1
102
RTVSPropertyOp23
 70
     1
102
RTVSPropertyOp24
 70
     1
102
RTVSPropertyOp25
 70
     1
102
RTVSPropertyOp26
 70
     1
102
RTVSPropertyOp27
 70
     1
102
RTVSPropertyOp28
 70
     1
102
RTVSPropertyOp29
 70
     1
102
RTVSPropertyOp30
 70
     1
102
RTVSPropertyOp31
 70
     1
102
RTVSPropertyOp32
 70
     1
  0
XRECORD
  5
C3
102
{ACAD_REACTORS
330
C2
102
}
330
C2
100
AcDbXrecord
280
     1
102
RTVSPropertyOp0
 70
     1
102
RTVSPropertyOp1
 70
     1
102
RTVSPropertyOp2
 70
     1
102
RTVSPropertyOp3
 70
     1
102
RTVSPropertyOp4
 70
     1
102
RTVSPropertyOp5
 70
     1
102
RTVSPropertyOp6
 70
     1
102
RTVSPropertyOp7
 70
     1
102
RTVSPropertyOp8
 70
     1
102
RTVSPropertyOp9
 70
     1
102
RTVSPropertyOp10
 70
     1
102
RTVSPropertyOp11
 70
     1
102
RTVSPropertyOp12
 70
     1
102
RTVSPropertyOp13
 70
     1
102
RTVSPropertyOp14
 70
     1
102
RTVSPropertyOp15
 70
     1
102
RTVSPropertyOp16
 70
     1
102
RTVSPropertyOp17
 70
     1
102
RTVSPropertyOp18
 70
     1
102
RTVSPropertyOp19
 70
     1
102
RTVSPropertyOp20
 70
     1
102
RTVSPropertyOp21
 70
     1
102
RTVSPropertyOp22
 70
     1
102
RTVSPropertyOp23
 70
     1
102
RTVSPropertyOp24
 70
     1
102
RTVSPropertyOp25
 70
     1
102
RTVSPropertyOp26
 70
     1
102
RTVSPropertyOp27
 70
     1
102
RTVSPropertyOp28
 70
     1
102
RTVSPropertyOp29
 70
     1
102
RTVSPropertyOp30
 70
     1
102
RTVSPropertyOp31
 70
     1
102
RTVSPropertyOp32
 70
     1
  0
XRECORD
  5
C5
102
{ACAD_REACTORS
330
C4
102
}
330
C4
100
AcDbXrecord
280
     1
102
RTVSPropertyOp0
 70
     1
102
RTVSPropertyOp1
 70
     1
102
RTVSPropertyOp2
 70
     1
102
RTVSPropertyOp3
 70
     1
102
RTVSPropertyOp4
 70
     1
102
RTVSPropertyOp5
 70
     1
102
RTVSPropertyOp6
 70
     1
102
RTVSPropertyOp7
 70
     1
102
RTVSPropertyOp8
 70
     1
102
RTVSPropertyOp9
 70
     1
102
RTVSPropertyOp10
 70
     1
102
RTVSPropertyOp11
 70
     1
102
RTVSPropertyOp12
 70
     1
102
RTVSPropertyOp13
 70
     1
102
RTVSPropertyOp14
 70
     1
102
RTVSPropertyOp15
 70
     1
102
RTVSPropertyOp16
 70
     1
102
RTVSPropertyOp17
 70
     1
102
RTVSPropertyOp18
 70
     1
102
RTVSPropertyOp19
 70
     1
102
RTVSPropertyOp20
 70
     1
102
RTVSPropertyOp21
 70
     1
102
RTVSPropertyOp22
 70
     1
102
RTVSPropertyOp23
 70
     1
102
RTVSPropertyOp24
 70
     1
102
RTVSPropertyOp25
 70
     1
102
RTVSPropertyOp26
 70
     1
102
RTVSPropertyOp27
 70
     1
102
RTVSPropertyOp28
 70
     1
102
RTVSPropertyOp29
 70
     1
102
RTVSPropertyOp30
 70
     1
102
RTVSPropertyOp31
 70
     1
102
RTVSPropertyOp32
 70
     1
  0
XRECORD
  5
C7
102
{ACAD_REACTORS
330
C6
102
}
330
C6
100
AcDbXrecord
280
     1
102
RTVSPropertyOp0
 70
     1
102
RTVSPropertyOp1
 70
     1
102
RTVSPropertyOp2
 70
     1
102
RTVSPropertyOp3
 70
     1
102
RTVSPropertyOp4
 70
     1
102
RTVSPropertyOp5
 70
     1
102
RTVSPropertyOp6
 70
     1
102
RTVSPropertyOp7
 70
     1
102
RTVSPropertyOp8
 70
     1
102
RTVSPropertyOp9
 70
     1
102
RTVSPropertyOp10
 70
     1
102
RTVSPropertyOp11
 70
     1
102
RTVSPropertyOp12
 70
     1
102
RTVSPropertyOp13
 70
     1
102
RTVSPropertyOp14
 70
     1
102
RTVSPropertyOp15
 70
     1
102
RTVSPropertyOp16
 70
     1
102
RTVSPropertyOp17
 70
     1
102
RTVSPropertyOp18
 70
     1
102
RTVSPropertyOp19
 70
     1
102
RTVSPropertyOp20
 70
     1
102
RTVSPropertyOp21
 70
     1
102
RTVSPropertyOp22
 70
     1
102
RTVSPropertyOp23
 70
     1
102
RTVSPropertyOp24
 70
     1
102
RTVSPropertyOp25
 70
     1
102
RTVSPropertyOp26
 70
     1
102
RTVSPropertyOp27
 70
     1
102
RTVSPropertyOp28
 70
     1
102
RTVSPropertyOp29
 70
     1
102
RTVSPropertyOp30
 70
     1
102
RTVSPropertyOp31
 70
     1
102
RTVSPropertyOp32
 70
     1
  0
XRECORD
  5
C9
102
{ACAD_REACTORS
330
C8
102
}
330
C8
100
AcDbXrecord
280
     1
102
RTVSPropertyOp0
 70
     1
102
RTVSPropertyOp1
 70
     1
102
RTVSPropertyOp2
 70
     1
102
RTVSPropertyOp3
 70
     1
102
RTVSPropertyOp4
 70
     1
102
RTVSPropertyOp5
 70
     1
102
RTVSPropertyOp6
 70
     1
102
RTVSPropertyOp7
 70
     1
102
RTVSPropertyOp8
 70
     1
102
RTVSPropertyOp9
 70
     1
102
RTVSPropertyOp10
 70
     1
102
RTVSPropertyOp11
 70
     1
102
RTVSPropertyOp12
 70
     1
102
RTVSPropertyOp13
 70
     1
102
RTVSPropertyOp14
 70
     1
102
RTVSPropertyOp15
 70
     1
102
RTVSPropertyOp16
 70
     1
102
RTVSPropertyOp17
 70
     1
102
RTVSPropertyOp18
 70
     1
102
RTVSPropertyOp19
 70
     1
102
RTVSPropertyOp20
 70
     1
102
RTVSPropertyOp21
 70
     1
102
RTVSPropertyOp22
 70
     1
102
RTVSPropertyOp23
 70
     1
102
RTVSPropertyOp24
 70
     1
102
RTVSPropertyOp25
 70
     1
102
RTVSPropertyOp26
 70
     1
102
RTVSPropertyOp27
 70
     1
102
RTVSPropertyOp28
 70
     1
102
RTVSPropertyOp29
 70
     1
102
RTVSPropertyOp30
 70
     1
102
RTVSPropertyOp31
 70
     1
102
RTVSPropertyOp32
 70
     1
  0
XRECORD
  5
DD
102
{ACAD_REACTORS
330
DC
102
}
330
DC
100
AcDbXrecord
280
     1
102
RTVSPropertyOp0
 70
     1
102
RTVSPropertyOp1
 70
     1
102
RTVSPropertyOp2
 70
     1
102
RTVSPropertyOp3
 70
     1
102
RTVSPropertyOp4
 70
     1
102
RTVSPropertyOp5
 70
     1
102
RTVSPropertyOp6
 70
     1
102
RTVSPropertyOp7
 70
     1
102
RTVSPropertyOp8
 70
     1
102
RTVSPropertyOp9
 70
     1
102
RTVSPropertyOp10
 70
     1
102
RTVSPropertyOp11
 70
     1
102
RTVSPropertyOp12
 70
     1
102
RTVSPropertyOp13
 70
     1
102
RTVSPropertyOp14
 70
     1
102
RTVSPropertyOp15
 70
     1
102
RTVSPropertyOp16
 70
     1
102
RTVSPropertyOp17
 70
     1
102
RTVSPropertyOp18
 70
     1
102
RTVSPropertyOp19
 70
     1
102
RTVSPropertyOp20
 70
     1
102
RTVSPropertyOp21
 70
     1
102
RTVSPropertyOp22
 70
     1
102
RTVSPropertyOp23
 70
     1
102
RTVSPropertyOp24
 70
     1
102
RTVSPropertyOp25
 70
     1
102
RTVSPropertyOp26
 70
     1
102
RTVSPropertyOp27
 70
     1
102
RTVSPropertyOp28
 70
     1
102
RTVSPropertyOp29
 70
     1
102
RTVSPropertyOp30
 70
     1
102
RTVSPropertyOp31
 70
     1
102
RTVSPropertyOp32
 70
     1
  0
XRECORD
  5
D3
102
{ACAD_REACTORS
330
D2
102
}
330
D2
100
AcDbXrecord
280
     1
102
RTVSPropertyOp0
 70
     1
102
RTVSPropertyOp1
 70
     1
102
RTVSPropertyOp2
 70
     1
102
RTVSPropertyOp3
 70
     1
102
RTVSPropertyOp4
 70
     1
102
RTVSPropertyOp5
 70
     1
102
RTVSPropertyOp6
 70
     1
102
RTVSPropertyOp7
 70
     1
102
RTVSPropertyOp8
 70
     1
102
RTVSPropertyOp9
 70
     1
102
RTVSPropertyOp10
 70
     1
102
RTVSPropertyOp11
 70
     1
102
RTVSPropertyOp12
 70
     1
102
RTVSPropertyOp13
 70
     1
102
RTVSPropertyOp14
 70
     1
102
RTVSPropertyOp15
 70
     1
102
RTVSPropertyOp16
 70
     1
102
RTVSPropertyOp17
 70
     1
102
RTVSPropertyOp18
 70
     1
102
RTVSPropertyOp19
 70
     1
102
RTVSPropertyOp20
 70
     1
102
RTVSPropertyOp21
 70
     1
102
RTVSPropertyOp22
 70
     1
102
RTVSPropertyOp23
 70
     1
102
RTVSPropertyOp24
 70
     1
102
RTVSPropertyOp25
 70
     1
102
RTVSPropertyOp26
 70
     1
102
RTVSPropertyOp27
 70
     1
102
RTVSPropertyOp28
 70
     1
102
RTVSPropertyOp29
 70
     1
102
RTVSPropertyOp30
 70
     1
102
RTVSPropertyOp31
 70
     1
102
RTVSPropertyOp32
 70
     1
  0
XRECORD
  5
DB
102
{ACAD_REACTORS
330
DA
102
}
330
DA
100
AcDbXrecord
280
     1
102
RTVSPropertyOp0
 70
     1
102
RTVSPropertyOp1
 70
     1
102
RTVSPropertyOp2
 70
     1
102
RTVSPropertyOp3
 70
     1
102
RTVSPropertyOp4
 70
     1
102
RTVSPropertyOp5
 70
     1
102
RTVSPropertyOp6
 70
     1
102
RTVSPropertyOp7
 70
     1
102
RTVSPropertyOp8
 70
     1
102
RTVSPropertyOp9
 70
     1
102
RTVSPropertyOp10
 70
     1
102
RTVSPropertyOp11
 70
     1
102
RTVSPropertyOp12
 70
     1
102
RTVSPropertyOp13
 70
     1
102
RTVSPropertyOp14
 70
     1
102
RTVSPropertyOp15
 70
     1
102
RTVSPropertyOp16
 70
     1
102
RTVSPropertyOp17
 70
     1
102
RTVSPropertyOp18
 70
     1
102
RTVSPropertyOp19
 70
     1
102
RTVSPropertyOp20
 70
     1
102
RTVSPropertyOp21
 70
     1
102
RTVSPropertyOp22
 70
     1
102
RTVSPropertyOp23
 70
     1
102
RTVSPropertyOp24
 70
     1
102
RTVSPropertyOp25
 70
     1
102
RTVSPropertyOp26
 70
     1
102
RTVSPropertyOp27
 70
     1
102
RTVSPropertyOp28
 70
     1
102
RTVSPropertyOp29
 70
     1
102
RTVSPropertyOp30
 70
     1
102
RTVSPropertyOp31
 70
     1
102
RTVSPropertyOp32
 70
     1
  0
ENDSEC
  0
EOF
