  0
SECTION
  2
ENTITIES
  0
POLYLINE
  5
3E8
  100
AcDbEntity
  8
Layer 1
  62
0
  100
AcDb2dPolyline
 66
     1
  10
0
  20
0
  30
0
  70
1
  0
VERTEX
  5
3E9
  100
AcDbEntity
  8
Layer 1
  62
0
  100
AcDb2dVertex
  10
7.79539
  20
2.12316
  30
0.00000
  42
0.3910
  70
32
  0
VERTEX
  5
3EA
  100
AcDbEntity
  8
Layer 1
  62
0
  100
AcDb2dVertex
  10
7.93614
  20
2.32296
  30
0.00000
  42
0.2242
  70
32
  0
VERTEX
  5
3EB
  100
AcDbEntity
  8
Layer 1
  62
0
  100
AcDb2dVertex
  10
7.89894
  20
2.36126
  30
0.00000
  42
0.1241
  70
32
  0
VERTEX
  5
3EC
  100
AcDbEntity
  8
Layer 1
  62
0
  100
AcDb2dVertex
  10
7.77449
  20
2.37536
  30
0.00000
  42
0.1160
  70
32
  0
VERTEX
  5
3ED
  100
AcDbEntity
  8
Layer 1
  62
0
  100
AcDb2dVertex
  10
7.28964
  20
2.18486
  30
0.00000
  42
0.2580
  70
32
  0
VERTEX
  5
3EE
  100
AcDbEntity
  8
Layer 1
  62
0
  100
AcDb2dVertex
  10
7.25169
  20
2.12211
  30
0.00000
  42
0.2960
  70
32
  0
VERTEX
  5
3EF
  100
AcDbEntity
  8
Layer 1
  62
0
  100
AcDb2dVertex
  10
7.28449
  20
2.07416
  30
0.00000
  42
0.1635
  70
32
  0
VERTEX
  5
3F0
  100
AcDbEntity
  8
Layer 1
  62
0
  100
AcDb2dVertex
  10
7.38389
  20
2.05586
  30
0.00000
  70
32
  0
VERTEX
  5
3F1
  100
AcDbEntity
  8
Layer 1
  62
0
  100
AcDb2dVertex
  10
7.43219
  20
2.06816
  30
0.00000
  42
-0.0873
  70
32
  0
VERTEX
  5
3F2
  100
AcDbEntity
  8
Layer 1
  62
0
  100
AcDb2dVertex
  10
7.79539
  20
2.12316
  30
0.00000
  70
32
  0
SEQEND
  5
3F3
  100
AcDbEntity
  8
Layer 1
  62
0
  0
POLYLINE
  5
3F4
  100
AcDbEntity
  8
Layer 1
  62
0
  100
AcDb2dPolyline
 66
     1
  10
0
  20
0
  30
0
  70
1
  0
VERTEX
  5
3F5
  100
AcDbEntity
  8
Layer 1
  62
0
  100
AcDb2dVertex
  10
8.27979
  20
2.09111
  30
0.00000
  70
32
  0
VERTEX
  5
3F6
  100
AcDbEntity
  8
Layer 1
  62
0
  100
AcDb2dVertex
  10
8.30114
  20
2.09161
  30
0.00000
  42
0.5307
  70
32
  0
VERTEX
  5
3F7
  100
AcDbEntity
  8
Layer 1
  62
0
  100
AcDb2dVertex
  10
8.37984
  20
2.28976
  30
0.00000
  70
32
  0
VERTEX
  5
3F8
  100
AcDbEntity
  8
Layer 1
  62
0
  100
AcDb2dVertex
  10
8.35429
  20
2.32106
  30
0.00000
  42
0.0812
  70
32
  0
VERTEX
  5
3F9
  100
AcDbEntity
  8
Layer 1
  62
0
  100
AcDb2dVertex
  10
8.30889
  20
2.36236
  30
0.00000
  42
0.2744
  70
32
  0
VERTEX
  5
3FA
  100
AcDbEntity
  8
Layer 1
  62
0
  100
AcDb2dVertex
  10
8.28239
  20
2.36231
  30
0.00000
  42
0.1537
  70
32
  0
VERTEX
  5
3FB
  100
AcDbEntity
  8
Layer 1
  62
0
  100
AcDb2dVertex
  10
8.25239
  20
2.32861
  30
0.00000
  70
32
  0
VERTEX
  5
3FC
  100
AcDbEntity
  8
Layer 1
  62
0
  100
AcDb2dVertex
  10
8.23894
  20
2.30031
  30
0.00000
  42
-0.3505
  70
32
  0
VERTEX
  5
3FD
  100
AcDbEntity
  8
Layer 1
  62
0
  100
AcDb2dVertex
  10
8.12089
  20
2.22761
  30
0.00000
  42
-0.0268
  70
32
  0
VERTEX
  5
3FE
  100
AcDbEntity
  8
Layer 1
  62
0
  100
AcDb2dVertex
  10
8.05914
  20
2.23761
  30
0.00000
  42
0.2817
  70
32
  0
VERTEX
  5
3FF
  100
AcDbEntity
  8
Layer 1
  62
0
  100
AcDb2dVertex
  10
8.03124
  20
2.22871
  30
0.00000
  42
0.2251
  70
32
  0
VERTEX
  5
400
  100
AcDbEntity
  8
Layer 1
  62
0
  100
AcDb2dVertex
  10
8.03464
  20
2.19566
  30
0.00000
  42
0.1784
  70
32
  0
VERTEX
  5
401
  100
AcDbEntity
  8
Layer 1
  62
0
  100
AcDb2dVertex
  10
8.13069
  20
2.13341
  30
0.00000
  42
0.0068
  70
32
  0
VERTEX
  5
402
  100
AcDbEntity
  8
Layer 1
  62
0
  100
AcDb2dVertex
  10
8.27979
  20
2.09111
  30
0.00000
  70
32
  0
SEQEND
  5
403
  100
AcDbEntity
  8
Layer 1
  62
0
  0
POLYLINE
  5
404
  100
AcDbEntity
  8
Layer 1
  62
0
  100
AcDb2dPolyline
 66
     1
  10
0
  20
0
  30
0
  70
1
  0
VERTEX
  5
405
  100
AcDbEntity
  8
Layer 1
  62
0
  100
AcDb2dVertex
  10
11.69669
  20
2.34161
  30
0.00000
  70
32
  0
VERTEX
  5
406
  100
AcDbEntity
  8
Layer 1
  62
0
  100
AcDb2dVertex
  10
11.67689
  20
2.31856
  30
0.00000
  42
0.5025
  70
32
  0
VERTEX
  5
407
  100
AcDbEntity
  8
Layer 1
  62
0
  100
AcDb2dVertex
  10
11.68649
  20
2.26356
  30
0.00000
  70
32
  0
VERTEX
  5
408
  100
AcDbEntity
  8
Layer 1
  62
0
  100
AcDb2dVertex
  10
11.70999
  20
2.26026
  30
0.00000
  42
0.0182
  70
32
  0
VERTEX
  5
409
  100
AcDbEntity
  8
Layer 1
  62
0
  100
AcDb2dVertex
  10
12.06264
  20
2.28116
  30
0.00000
  42
0.2184
  70
32
  0
VERTEX
  5
40A
  100
AcDbEntity
  8
Layer 1
  62
0
  100
AcDb2dVertex
  10
12.13784
  20
2.32826
  30
0.00000
  42
0.0420
  70
32
  0
VERTEX
  5
40B
  100
AcDbEntity
  8
Layer 1
  62
0
  100
AcDb2dVertex
  10
12.18794
  20
2.43256
  30
0.00000
  42
0.1260
  70
32
  0
VERTEX
  5
40C
  100
AcDbEntity
  8
Layer 1
  62
0
  100
AcDb2dVertex
  10
12.19449
  20
2.48666
  30
0.00000
  42
0.3697
  70
32
  0
VERTEX
  5
40D
  100
AcDbEntity
  8
Layer 1
  62
0
  100
AcDb2dVertex
  10
12.17539
  20
2.50516
  30
0.00000
  70
32
  0
VERTEX
  5
40E
  100
AcDbEntity
  8
Layer 1
  62
0
  100
AcDb2dVertex
  10
12.16009
  20
2.50081
  30
0.00000
  42
-0.0348
  70
32
  0
VERTEX
  5
40F
  100
AcDbEntity
  8
Layer 1
  62
0
  100
AcDb2dVertex
  10
12.05424
  20
2.44261
  30
0.00000
  42
-0.4061
  70
32
  0
VERTEX
  5
410
  100
AcDbEntity
  8
Layer 1
  62
0
  100
AcDb2dVertex
  10
11.96724
  20
2.47206
  30
0.00000
  70
32
  0
VERTEX
  5
411
  100
AcDbEntity
  8
Layer 1
  62
0
  100
AcDb2dVertex
  10
11.96164
  20
2.49681
  30
0.00000
  42
-0.0328
  70
32
  0
VERTEX
  5
412
  100
AcDbEntity
  8
Layer 1
  62
0
  100
AcDb2dVertex
  10
11.93964
  20
2.56461
  30
0.00000
  42
0.5531
  70
32
  0
VERTEX
  5
413
  100
AcDbEntity
  8
Layer 1
  62
0
  100
AcDb2dVertex
  10
11.90979
  20
2.56461
  30
0.00000
  42
0.1643
  70
32
  0
VERTEX
  5
414
  100
AcDbEntity
  8
Layer 1
  62
0
  100
AcDb2dVertex
  10
11.89659
  20
2.52146
  30
0.00000
  42
-0.2453
  70
32
  0
VERTEX
  5
415
  100
AcDbEntity
  8
Layer 1
  62
0
  100
AcDb2dVertex
  10
11.85709
  20
2.45131
  30
0.00000
  42
-0.0114
  70
32
  0
VERTEX
  5
416
  100
AcDbEntity
  8
Layer 1
  62
0
  100
AcDb2dVertex
  10
11.69669
  20
2.34161
  30
0.00000
  70
32
  0
SEQEND
  5
417
  100
AcDbEntity
  8
Layer 1
  62
0
  0
POLYLINE
  5
418
  100
AcDbEntity
  8
Layer 1
  62
0
  100
AcDb2dPolyline
 66
     1
  10
0
  20
0
  30
0
  70
1
  0
VERTEX
  5
419
  100
AcDbEntity
  8
Layer 1
  62
0
  100
AcDb2dVertex
  10
12.88839
  20
2.38931
  30
0.00000
  42
0.0579
  70
32
  0
VERTEX
  5
41A
  100
AcDbEntity
  8
Layer 1
  62
0
  100
AcDb2dVertex
  10
12.95214
  20
2.49626
  30
0.00000
  42
-0.0224
  70
32
  0
VERTEX
  5
41B
  100
AcDbEntity
  8
Layer 1
  62
0
  100
AcDb2dVertex
  10
13.03309
  20
2.63086
  30
0.00000
  42
0.4763
  70
32
  0
VERTEX
  5
41C
  100
AcDbEntity
  8
Layer 1
  62
0
  100
AcDb2dVertex
  10
13.01909
  20
2.66376
  30
0.00000
  70
32
  0
VERTEX
  5
41D
  100
AcDbEntity
  8
Layer 1
  62
0
  100
AcDb2dVertex
  10
12.99774
  20
2.66501
  30
0.00000
  42
0.1586
  70
32
  0
VERTEX
  5
41E
  100
AcDbEntity
  8
Layer 1
  62
0
  100
AcDb2dVertex
  10
12.94714
  20
2.65386
  30
0.00000
  42
-0.1118
  70
32
  0
VERTEX
  5
41F
  100
AcDbEntity
  8
Layer 1
  62
0
  100
AcDb2dVertex
  10
12.74209
  20
2.59156
  30
0.00000
  70
32
  0
VERTEX
  5
420
  100
AcDbEntity
  8
Layer 1
  62
0
  100
AcDb2dVertex
  10
12.70989
  20
2.58871
  30
0.00000
  42
0.2443
  70
32
  0
VERTEX
  5
421
  100
AcDbEntity
  8
Layer 1
  62
0
  100
AcDb2dVertex
  10
12.66944
  20
2.56246
  30
0.00000
  42
-0.0281
  70
32
  0
VERTEX
  5
422
  100
AcDbEntity
  8
Layer 1
  62
0
  100
AcDb2dVertex
  10
12.61399
  20
2.46491
  30
0.00000
  42
0.0285
  70
32
  0
VERTEX
  5
423
  100
AcDbEntity
  8
Layer 1
  62
0
  100
AcDb2dVertex
  10
12.56619
  20
2.38761
  30
0.00000
  42
0.2934
  70
32
  0
VERTEX
  5
424
  100
AcDbEntity
  8
Layer 1
  62
0
  100
AcDb2dVertex
  10
12.56689
  20
2.37811
  30
0.00000
  42
0.2216
  70
32
  0
VERTEX
  5
425
  100
AcDbEntity
  8
Layer 1
  62
0
  100
AcDb2dVertex
  10
12.60559
  20
2.36006
  30
0.00000
  42
0.0058
  70
32
  0
VERTEX
  5
426
  100
AcDbEntity
  8
Layer 1
  62
0
  100
AcDb2dVertex
  10
12.81279
  20
2.36161
  30
0.00000
  42
0.1908
  70
32
  0
VERTEX
  5
427
  100
AcDbEntity
  8
Layer 1
  62
0
  100
AcDb2dVertex
  10
12.88839
  20
2.38931
  30
0.00000
  70
32
  0
SEQEND
  5
428
  100
AcDbEntity
  8
Layer 1
  62
0
  0
POLYLINE
  5
429
  100
AcDbEntity
  8
Layer 1
  62
0
  100
AcDb2dPolyline
 66
     1
  10
0
  20
0
  30
0
  70
1
  0
VERTEX
  5
42A
  100
AcDbEntity
  8
Layer 1
  62
0
  100
AcDb2dVertex
  10
1.24354
  20
8.84551
  30
0.00000
  42
0.0061
  70
32
  0
VERTEX
  5
42B
  100
AcDbEntity
  8
Layer 1
  62
0
  100
AcDb2dVertex
  10
2.56619
  20
6.18021
  30
0.00000
  42
0.2132
  70
32
  0
VERTEX
  5
42C
  100
AcDbEntity
  8
Layer 1
  62
0
  100
AcDb2dVertex
  10
2.64184
  20
6.13141
  30
0.00000
  70
32
  0
VERTEX
  5
42D
  100
AcDbEntity
  8
Layer 1
  62
0
  100
AcDb2dVertex
  10
5.27319
  20
5.65036
  30
0.00000
  42
0.0805
  70
32
  0
VERTEX
  5
42E
  100
AcDbEntity
  8
Layer 1
  62
0
  100
AcDb2dVertex
  10
5.37609
  20
5.63256
  30
0.00000
  42
0.5009
  70
32
  0
VERTEX
  5
42F
  100
AcDbEntity
  8
Layer 1
  62
0
  100
AcDb2dVertex
  10
5.44689
  20
5.72551
  30
0.00000
  70
32
  0
VERTEX
  5
430
  100
AcDbEntity
  8
Layer 1
  62
0
  100
AcDb2dVertex
  10
5.43954
  20
5.75936
  30
0.00000
  42
-0.0192
  70
32
  0
VERTEX
  5
431
  100
AcDbEntity
  8
Layer 1
  62
0
  100
AcDb2dVertex
  10
5.40734
  20
5.83076
  30
0.00000
  42
0.1345
  70
32
  0
VERTEX
  5
432
  100
AcDbEntity
  8
Layer 1
  62
0
  100
AcDb2dVertex
  10
5.37064
  20
5.87191
  30
0.00000
  42
0.2398
  70
32
  0
VERTEX
  5
433
  100
AcDbEntity
  8
Layer 1
  62
0
  100
AcDb2dVertex
  10
5.32834
  20
5.87136
  30
0.00000
  42
0.0329
  70
32
  0
VERTEX
  5
434
  100
AcDbEntity
  8
Layer 1
  62
0
  100
AcDb2dVertex
  10
5.28099
  20
5.83541
  30
0.00000
  42
0.0164
  70
32
  0
VERTEX
  5
435
  100
AcDbEntity
  8
Layer 1
  62
0
  100
AcDb2dVertex
  10
5.23089
  20
5.79806
  30
0.00000
  42
-0.2749
  70
32
  0
VERTEX
  5
436
  100
AcDbEntity
  8
Layer 1
  62
0
  100
AcDb2dVertex
  10
5.15164
  20
5.78331
  30
0.00000
  42
-0.3147
  70
32
  0
VERTEX
  5
437
  100
AcDbEntity
  8
Layer 1
  62
0
  100
AcDb2dVertex
  10
5.10694
  20
5.87541
  30
0.00000
  42
-0.0641
  70
32
  0
VERTEX
  5
438
  100
AcDbEntity
  8
Layer 1
  62
0
  100
AcDb2dVertex
  10
5.14299
  20
6.00141
  30
0.00000
  42
0.0079
  70
32
  0
VERTEX
  5
439
  100
AcDbEntity
  8
Layer 1
  62
0
  100
AcDb2dVertex
  10
5.20069
  20
6.19736
  30
0.00000
  42
0.1691
  70
32
  0
VERTEX
  5
43A
  100
AcDbEntity
  8
Layer 1
  62
0
  100
AcDb2dVertex
  10
5.17274
  20
6.36976
  30
0.00000
  70
32
  0
VERTEX
  5
43B
  100
AcDbEntity
  8
Layer 1
  62
0
  100
AcDb2dVertex
  10
5.16034
  20
6.39781
  30
0.00000
  42
-0.1370
  70
32
  0
VERTEX
  5
43C
  100
AcDbEntity
  8
Layer 1
  62
0
  100
AcDb2dVertex
  10
5.16464
  20
6.45586
  30
0.00000
  42
0.0590
  70
32
  0
VERTEX
  5
43D
  100
AcDbEntity
  8
Layer 1
  62
0
  100
AcDb2dVertex
  10
5.21119
  20
6.74396
  30
0.00000
  42
0.0898
  70
32
  0
VERTEX
  5
43E
  100
AcDbEntity
  8
Layer 1
  62
0
  100
AcDb2dVertex
  10
5.19024
  20
6.81796
  30
0.00000
  42
0.2596
  70
32
  0
VERTEX
  5
43F
  100
AcDbEntity
  8
Layer 1
  62
0
  100
AcDb2dVertex
  10
5.14454
  20
6.84121
  30
0.00000
  42
0.0668
  70
32
  0
VERTEX
  5
440
  100
AcDbEntity
  8
Layer 1
  62
0
  100
AcDb2dVertex
  10
5.03119
  20
6.82071
  30
0.00000
  42
-0.1491
  70
32
  0
VERTEX
  5
441
  100
AcDbEntity
  8
Layer 1
  62
0
  100
AcDb2dVertex
  10
4.92959
  20
6.81701
  30
0.00000
  42
-0.3972
  70
32
  0
VERTEX
  5
442
  100
AcDbEntity
  8
Layer 1
  62
0
  100
AcDb2dVertex
  10
4.89794
  20
6.87686
  30
0.00000
  42
-0.0550
  70
32
  0
VERTEX
  5
443
  100
AcDbEntity
  8
Layer 1
  62
0
  100
AcDb2dVertex
  10
4.94724
  20
6.98996
  30
0.00000
  42
0.0630
  70
32
  0
VERTEX
  5
444
  100
AcDbEntity
  8
Layer 1
  62
0
  100
AcDb2dVertex
  10
4.98009
  20
7.06511
  30
0.00000
  42
0.2741
  70
32
  0
VERTEX
  5
445
  100
AcDbEntity
  8
Layer 1
  62
0
  100
AcDb2dVertex
  10
4.96409
  20
7.13601
  30
0.00000
  42
0.0832
  70
32
  0
VERTEX
  5
446
  100
AcDbEntity
  8
Layer 1
  62
0
  100
AcDb2dVertex
  10
4.86754
  20
7.19326
  30
0.00000
  70
32
  0
VERTEX
  5
447
  100
AcDbEntity
  8
Layer 1
  62
0
  100
AcDb2dVertex
  10
1.21089
  20
9.13591
  30
0.00000
  42
0.1225
  70
32
  0
VERTEX
  5
448
  100
AcDbEntity
  8
Layer 1
  62
0
  100
AcDb2dVertex
  10
1.15394
  20
9.14686
  30
0.00000
  42
0.3172
  70
32
  0
VERTEX
  5
449
  100
AcDbEntity
  8
Layer 1
  62
0
  100
AcDb2dVertex
  10
1.11744
  20
9.12111
  30
0.00000
  42
0.1733
  70
32
  0
VERTEX
  5
44A
  100
AcDbEntity
  8
Layer 1
  62
0
  100
AcDb2dVertex
  10
1.12014
  20
9.06651
  30
0.00000
  42
0.0312
  70
32
  0
VERTEX
  5
44B
  100
AcDbEntity
  8
Layer 1
  62
0
  100
AcDb2dVertex
  10
1.24354
  20
8.84551
  30
0.00000
  70
32
  0
SEQEND
  5
44C
  100
AcDbEntity
  8
Layer 1
  62
0
  0
POLYLINE
  5
44D
  100
AcDbEntity
  8
Layer 1
  62
0
  100
AcDb2dPolyline
 66
     1
  10
0
  20
0
  30
0
  70
1
  0
VERTEX
  5
44E
  100
AcDbEntity
  8
Layer 1
  62
0
  100
AcDb2dVertex
  10
1.38949
  20
9.27611
  30
0.00000
  70
32
  0
VERTEX
  5
44F
  100
AcDbEntity
  8
Layer 1
  62
0
  100
AcDb2dVertex
  10
1.33959
  20
9.23931
  30
0.00000
  42
0.3628
  70
32
  0
VERTEX
  5
450
  100
AcDbEntity
  8
Layer 1
  62
0
  100
AcDb2dVertex
  10
1.35164
  20
9.16926
  30
0.00000
  42
0.0764
  70
32
  0
VERTEX
  5
451
  100
AcDbEntity
  8
Layer 1
  62
0
  100
AcDb2dVertex
  10
1.43804
  20
9.11366
  30
0.00000
  70
32
  0
VERTEX
  5
452
  100
AcDbEntity
  8
Layer 1
  62
0
  100
AcDb2dVertex
  10
4.79624
  20
7.33706
  30
0.00000
  42
0.2325
  70
32
  0
VERTEX
  5
453
  100
AcDbEntity
  8
Layer 1
  62
0
  100
AcDb2dVertex
  10
4.84299
  20
7.33866
  30
0.00000
  42
0.2185
  70
32
  0
VERTEX
  5
454
  100
AcDbEntity
  8
Layer 1
  62
0
  100
AcDb2dVertex
  10
4.86529
  20
7.37796
  30
0.00000
  42
0.0479
  70
32
  0
VERTEX
  5
455
  100
AcDbEntity
  8
Layer 1
  62
0
  100
AcDb2dVertex
  10
4.86564
  20
7.50051
  30
0.00000
  42
-0.0554
  70
32
  0
VERTEX
  5
456
  100
AcDbEntity
  8
Layer 1
  62
0
  100
AcDb2dVertex
  10
4.89264
  20
7.81461
  30
0.00000
  42
0.2296
  70
32
  0
VERTEX
  5
457
  100
AcDbEntity
  8
Layer 1
  62
0
  100
AcDb2dVertex
  10
4.87994
  20
7.85461
  30
0.00000
  42
0.0979
  70
32
  0
VERTEX
  5
458
  100
AcDbEntity
  8
Layer 1
  62
0
  100
AcDb2dVertex
  10
4.84839
  20
7.87356
  30
0.00000
  42
-0.0812
  70
32
  0
VERTEX
  5
459
  100
AcDbEntity
  8
Layer 1
  62
0
  100
AcDb2dVertex
  10
4.82164
  20
7.88846
  30
0.00000
  42
-0.3509
  70
32
  0
VERTEX
  5
45A
  100
AcDbEntity
  8
Layer 1
  62
0
  100
AcDb2dVertex
  10
4.81074
  20
7.94651
  30
0.00000
  42
-0.0898
  70
32
  0
VERTEX
  5
45B
  100
AcDbEntity
  8
Layer 1
  62
0
  100
AcDb2dVertex
  10
4.85309
  20
8.00421
  30
0.00000
  42
0.1599
  70
32
  0
VERTEX
  5
45C
  100
AcDbEntity
  8
Layer 1
  62
0
  100
AcDb2dVertex
  10
5.05529
  20
8.36826
  30
0.00000
  42
0.2107
  70
32
  0
VERTEX
  5
45D
  100
AcDbEntity
  8
Layer 1
  62
0
  100
AcDb2dVertex
  10
5.04054
  20
8.41291
  30
0.00000
  42
0.0989
  70
32
  0
VERTEX
  5
45E
  100
AcDbEntity
  8
Layer 1
  62
0
  100
AcDb2dVertex
  10
5.00694
  20
8.43396
  30
0.00000
  42
-0.0822
  70
32
  0
VERTEX
  5
45F
  100
AcDbEntity
  8
Layer 1
  62
0
  100
AcDb2dVertex
  10
4.97839
  20
8.45051
  30
0.00000
  42
-0.2474
  70
32
  0
VERTEX
  5
460
  100
AcDbEntity
  8
Layer 1
  62
0
  100
AcDb2dVertex
  10
4.96239
  20
8.49416
  30
0.00000
  42
-0.0998
  70
32
  0
VERTEX
  5
461
  100
AcDbEntity
  8
Layer 1
  62
0
  100
AcDb2dVertex
  10
4.99229
  20
8.55481
  30
0.00000
  42
0.0258
  70
32
  0
VERTEX
  5
462
  100
AcDbEntity
  8
Layer 1
  62
0
  100
AcDb2dVertex
  10
5.07234
  20
8.69651
  30
0.00000
  42
0.1585
  70
32
  0
VERTEX
  5
463
  100
AcDbEntity
  8
Layer 1
  62
0
  100
AcDb2dVertex
  10
5.09059
  20
8.88846
  30
0.00000
  70
32
  0
VERTEX
  5
464
  100
AcDbEntity
  8
Layer 1
  62
0
  100
AcDb2dVertex
  10
5.08249
  20
8.90966
  30
0.00000
  42
0.1874
  70
32
  0
VERTEX
  5
465
  100
AcDbEntity
  8
Layer 1
  62
0
  100
AcDb2dVertex
  10
5.04209
  20
8.93421
  30
0.00000
  42
-0.0260
  70
32
  0
VERTEX
  5
466
  100
AcDbEntity
  8
Layer 1
  62
0
  100
AcDb2dVertex
  10
4.93564
  20
8.96356
  30
0.00000
  42
-0.2483
  70
32
  0
VERTEX
  5
467
  100
AcDbEntity
  8
Layer 1
  62
0
  100
AcDb2dVertex
  10
4.91604
  20
9.00151
  30
0.00000
  42
-0.1093
  70
32
  0
VERTEX
  5
468
  100
AcDbEntity
  8
Layer 1
  62
0
  100
AcDb2dVertex
  10
4.93179
  20
9.06321
  30
0.00000
  42
0.0167
  70
32
  0
VERTEX
  5
469
  100
AcDbEntity
  8
Layer 1
  62
0
  100
AcDb2dVertex
  10
5.01914
  20
9.24746
  30
0.00000
  42
0.5742
  70
32
  0
VERTEX
  5
46A
  100
AcDbEntity
  8
Layer 1
  62
0
  100
AcDb2dVertex
  10
4.97439
  20
9.28436
  30
0.00000
  42
0.0453
  70
32
  0
VERTEX
  5
46B
  100
AcDbEntity
  8
Layer 1
  62
0
  100
AcDb2dVertex
  10
4.95839
  20
9.27821
  30
0.00000
  42
-0.0976
  70
32
  0
VERTEX
  5
46C
  100
AcDbEntity
  8
Layer 1
  62
0
  100
AcDb2dVertex
  10
4.92299
  20
9.26871
  30
0.00000
  42
-0.2925
  70
32
  0
VERTEX
  5
46D
  100
AcDbEntity
  8
Layer 1
  62
0
  100
AcDb2dVertex
  10
4.88284
  20
9.29266
  30
0.00000
  42
-0.1127
  70
32
  0
VERTEX
  5
46E
  100
AcDbEntity
  8
Layer 1
  62
0
  100
AcDb2dVertex
  10
4.86789
  20
9.35701
  30
0.00000
  42
-0.0959
  70
32
  0
VERTEX
  5
46F
  100
AcDbEntity
  8
Layer 1
  62
0
  100
AcDb2dVertex
  10
4.95859
  20
9.93451
  30
0.00000
  70
32
  0
VERTEX
  5
470
  100
AcDbEntity
  8
Layer 1
  62
0
  100
AcDb2dVertex
  10
4.98199
  20
9.99086
  30
0.00000
  42
0.3491
  70
32
  0
VERTEX
  5
471
  100
AcDbEntity
  8
Layer 1
  62
0
  100
AcDb2dVertex
  10
4.96744
  20
10.01746
  30
0.00000
  42
0.1663
  70
32
  0
VERTEX
  5
472
  100
AcDbEntity
  8
Layer 1
  62
0
  100
AcDb2dVertex
  10
4.92349
  20
10.02126
  30
0.00000
  42
-0.0055
  70
32
  0
VERTEX
  5
473
  100
AcDbEntity
  8
Layer 1
  62
0
  100
AcDb2dVertex
  10
4.78834
  20
9.97511
  30
0.00000
  42
-0.2249
  70
32
  0
VERTEX
  5
474
  100
AcDbEntity
  8
Layer 1
  62
0
  100
AcDb2dVertex
  10
4.70934
  20
9.98796
  30
0.00000
  42
-0.2799
  70
32
  0
VERTEX
  5
475
  100
AcDbEntity
  8
Layer 1
  62
0
  100
AcDb2dVertex
  10
4.70194
  20
10.00981
  30
0.00000
  42
-0.1018
  70
32
  0
VERTEX
  5
476
  100
AcDbEntity
  8
Layer 1
  62
0
  100
AcDb2dVertex
  10
4.72639
  20
10.06411
  30
0.00000
  42
0.1116
  70
32
  0
VERTEX
  5
477
  100
AcDbEntity
  8
Layer 1
  62
0
  100
AcDb2dVertex
  10
4.89899
  20
10.43316
  30
0.00000
  42
0.0626
  70
32
  0
VERTEX
  5
478
  100
AcDbEntity
  8
Layer 1
  62
0
  100
AcDb2dVertex
  10
4.89219
  20
10.49261
  30
0.00000
  42
0.2623
  70
32
  0
VERTEX
  5
479
  100
AcDbEntity
  8
Layer 1
  62
0
  100
AcDb2dVertex
  10
4.84424
  20
10.54086
  30
0.00000
  70
32
  0
VERTEX
  5
47A
  100
AcDbEntity
  8
Layer 1
  62
0
  100
AcDb2dVertex
  10
4.80014
  20
10.55196
  30
0.00000
  70
32
  0
VERTEX
  5
47B
  100
AcDbEntity
  8
Layer 1
  62
0
  100
AcDb2dVertex
  10
4.78089
  20
10.55916
  30
0.00000
  42
-0.2234
  70
32
  0
VERTEX
  5
47C
  100
AcDbEntity
  8
Layer 1
  62
0
  100
AcDb2dVertex
  10
4.76424
  20
10.59976
  30
0.00000
  42
-0.0988
  70
32
  0
VERTEX
  5
47D
  100
AcDbEntity
  8
Layer 1
  62
0
  100
AcDb2dVertex
  10
4.78079
  20
10.66376
  30
0.00000
  42
0.0113
  70
32
  0
VERTEX
  5
47E
  100
AcDbEntity
  8
Layer 1
  62
0
  100
AcDb2dVertex
  10
4.83519
  20
10.78516
  30
0.00000
  42
0.1294
  70
32
  0
VERTEX
  5
47F
  100
AcDbEntity
  8
Layer 1
  62
0
  100
AcDb2dVertex
  10
4.84709
  20
10.84481
  30
0.00000
  42
0.3242
  70
32
  0
VERTEX
  5
480
  100
AcDbEntity
  8
Layer 1
  62
0
  100
AcDb2dVertex
  10
4.79744
  20
10.89506
  30
0.00000
  42
0.0600
  70
32
  0
VERTEX
  5
481
  100
AcDbEntity
  8
Layer 1
  62
0
  100
AcDb2dVertex
  10
4.74874
  20
10.89911
  30
0.00000
  42
-0.0506
  70
32
  0
VERTEX
  5
482
  100
AcDbEntity
  8
Layer 1
  62
0
  100
AcDb2dVertex
  10
4.70759
  20
10.90176
  30
0.00000
  42
-0.3731
  70
32
  0
VERTEX
  5
483
  100
AcDbEntity
  8
Layer 1
  62
0
  100
AcDb2dVertex
  10
4.66304
  20
10.94696
  30
0.00000
  42
-0.1174
  70
32
  0
VERTEX
  5
484
  100
AcDbEntity
  8
Layer 1
  62
0
  100
AcDb2dVertex
  10
4.66629
  20
10.95966
  30
0.00000
  42
-0.0377
  70
32
  0
VERTEX
  5
485
  100
AcDbEntity
  8
Layer 1
  62
0
  100
AcDb2dVertex
  10
4.68769
  20
10.99386
  30
0.00000
  42
-0.0185
  70
32
  0
VERTEX
  5
486
  100
AcDbEntity
  8
Layer 1
  62
0
  100
AcDb2dVertex
  10
4.72159
  20
11.04116
  30
0.00000
  42
0.1530
  70
32
  0
VERTEX
  5
487
  100
AcDbEntity
  8
Layer 1
  62
0
  100
AcDb2dVertex
  10
4.73884
  20
11.08676
  30
0.00000
  42
0.4371
  70
32
  0
VERTEX
  5
488
  100
AcDbEntity
  8
Layer 1
  62
0
  100
AcDb2dVertex
  10
4.71779
  20
11.10701
  30
0.00000
  70
32
  0
VERTEX
  5
489
  100
AcDbEntity
  8
Layer 1
  62
0
  100
AcDb2dVertex
  10
4.69439
  20
11.10216
  30
0.00000
  70
32
  0
VERTEX
  5
48A
  100
AcDbEntity
  8
Layer 1
  62
0
  100
AcDb2dVertex
  10
1.38949
  20
9.27611
  30
0.00000
  70
32
  0
SEQEND
  5
48B
  100
AcDbEntity
  8
Layer 1
  62
0
  0
POLYLINE
  5
48C
  100
AcDbEntity
  8
Layer 1
  62
0
  100
AcDb2dPolyline
 66
     1
  10
0
  20
0
  30
0
  70
1
  0
VERTEX
  5
48D
  100
AcDbEntity
  8
Layer 1
  62
0
  100
AcDb2dVertex
  10
12.32684
  20
10.26381
  30
0.00000
  42
-0.0246
  70
32
  0
VERTEX
  5
48E
  100
AcDbEntity
  8
Layer 1
  62
0
  100
AcDb2dVertex
  10
12.62664
  20
10.16386
  30
0.00000
  42
-0.1062
  70
32
  0
VERTEX
  5
48F
  100
AcDbEntity
  8
Layer 1
  62
0
  100
AcDb2dVertex
  10
13.07864
  20
10.06756
  30
0.00000
  42
-0.0064
  70
32
  0
VERTEX
  5
490
  100
AcDbEntity
  8
Layer 1
  62
0
  100
AcDb2dVertex
  10
13.57594
  20
9.70001
  30
0.00000
  42
-0.2159
  70
32
  0
VERTEX
  5
491
  100
AcDbEntity
  8
Layer 1
  62
0
  100
AcDb2dVertex
  10
13.61494
  20
9.62156
  30
0.00000
  42
-0.0143
  70
32
  0
VERTEX
  5
492
  100
AcDbEntity
  8
Layer 1
  62
0
  100
AcDb2dVertex
  10
13.63114
  20
9.54446
  30
0.00000
  42
0.1323
  70
32
  0
VERTEX
  5
493
  100
AcDbEntity
  8
Layer 1
  62
0
  100
AcDb2dVertex
  10
13.65254
  20
9.50686
  30
0.00000
  42
0.3971
  70
32
  0
VERTEX
  5
494
  100
AcDbEntity
  8
Layer 1
  62
0
  100
AcDb2dVertex
  10
13.68084
  20
9.50586
  30
0.00000
  42
0.1959
  70
32
  0
VERTEX
  5
495
  100
AcDbEntity
  8
Layer 1
  62
0
  100
AcDb2dVertex
  10
13.69544
  20
9.54631
  30
0.00000
  42
0.1119
  70
32
  0
VERTEX
  5
496
  100
AcDbEntity
  8
Layer 1
  62
0
  100
AcDb2dVertex
  10
12.94594
  20
11.34696
  30
0.00000
  42
0.0864
  70
32
  0
VERTEX
  5
497
  100
AcDbEntity
  8
Layer 1
  62
0
  100
AcDb2dVertex
  10
12.69864
  20
11.64681
  30
0.00000
  42
0.3043
  70
32
  0
VERTEX
  5
498
  100
AcDbEntity
  8
Layer 1
  62
0
  100
AcDb2dVertex
  10
12.61779
  20
11.64466
  30
0.00000
  42
0.1060
  70
32
  0
VERTEX
  5
499
  100
AcDbEntity
  8
Layer 1
  62
0
  100
AcDb2dVertex
  10
12.51944
  20
11.54276
  30
0.00000
  42
0.0117
  70
32
  0
VERTEX
  5
49A
  100
AcDbEntity
  8
Layer 1
  62
0
  100
AcDb2dVertex
  10
11.52264
  20
10.36161
  30
0.00000
  70
32
  0
VERTEX
  5
49B
  100
AcDbEntity
  8
Layer 1
  62
0
  100
AcDb2dVertex
  10
11.51594
  20
10.34386
  30
0.00000
  42
0.3090
  70
32
  0
VERTEX
  5
49C
  100
AcDbEntity
  8
Layer 1
  62
0
  100
AcDb2dVertex
  10
11.53524
  20
10.31701
  30
0.00000
  42
0.1088
  70
32
  0
VERTEX
  5
49D
  100
AcDbEntity
  8
Layer 1
  62
0
  100
AcDb2dVertex
  10
11.59084
  20
10.30971
  30
0.00000
  42
0.0387
  70
32
  0
VERTEX
  5
49E
  100
AcDbEntity
  8
Layer 1
  62
0
  100
AcDb2dVertex
  10
12.32684
  20
10.26381
  30
0.00000
  70
32
  0
SEQEND
  5
49F
  100
AcDbEntity
  8
Layer 1
  62
0
  0
POLYLINE
  5
4A0
  100
AcDbEntity
  8
Layer 1
  62
0
  100
AcDb2dPolyline
 66
     1
  10
0
  20
0
  30
0
  70
1
  0
VERTEX
  5
4A1
  100
AcDbEntity
  8
Layer 1
  62
0
  100
AcDb2dVertex
  10
9.52729
  20
10.15306
  30
0.00000
  42
-0.0146
  70
32
  0
VERTEX
  5
4A2
  100
AcDbEntity
  8
Layer 1
  62
0
  100
AcDb2dVertex
  10
9.81864
  20
10.21831
  30
0.00000
  42
0.2278
  70
32
  0
VERTEX
  5
4A3
  100
AcDbEntity
  8
Layer 1
  62
0
  100
AcDb2dVertex
  10
9.84514
  20
10.25026
  30
0.00000
  70
32
  0
VERTEX
  5
4A4
  100
AcDbEntity
  8
Layer 1
  62
0
  100
AcDb2dVertex
  10
9.86729
  20
10.35166
  30
0.00000
  42
0.0258
  70
32
  0
VERTEX
  5
4A5
  100
AcDbEntity
  8
Layer 1
  62
0
  100
AcDb2dVertex
  10
9.96869
  20
10.84606
  30
0.00000
  70
32
  0
VERTEX
  5
4A6
  100
AcDbEntity
  8
Layer 1
  62
0
  100
AcDb2dVertex
  10
10.40994
  20
13.01721
  30
0.00000
  42
0.2359
  70
32
  0
VERTEX
  5
4A7
  100
AcDbEntity
  8
Layer 1
  62
0
  100
AcDb2dVertex
  10
10.38934
  20
13.06916
  30
0.00000
  42
0.1114
  70
32
  0
VERTEX
  5
4A8
  100
AcDbEntity
  8
Layer 1
  62
0
  100
AcDb2dVertex
  10
10.32064
  20
13.10681
  30
0.00000
  42
0.1148
  70
32
  0
VERTEX
  5
4A9
  100
AcDbEntity
  8
Layer 1
  62
0
  100
AcDb2dVertex
  10
8.37674
  20
13.11926
  30
0.00000
  42
0.0140
  70
32
  0
VERTEX
  5
4AA
  100
AcDbEntity
  8
Layer 1
  62
0
  100
AcDb2dVertex
  10
7.95994
  20
12.98451
  30
0.00000
  42
0.1441
  70
32
  0
VERTEX
  5
4AB
  100
AcDbEntity
  8
Layer 1
  62
0
  100
AcDb2dVertex
  10
7.92239
  20
12.95626
  30
0.00000
  42
0.1992
  70
32
  0
VERTEX
  5
4AC
  100
AcDbEntity
  8
Layer 1
  62
0
  100
AcDb2dVertex
  10
7.91879
  20
12.91116
  30
0.00000
  70
32
  0
VERTEX
  5
4AD
  100
AcDbEntity
  8
Layer 1
  62
0
  100
AcDb2dVertex
  10
8.77054
  20
10.02261
  30
0.00000
  42
0.2188
  70
32
  0
VERTEX
  5
4AE
  100
AcDbEntity
  8
Layer 1
  62
0
  100
AcDb2dVertex
  10
8.80459
  20
9.98596
  30
0.00000
  42
0.1718
  70
32
  0
VERTEX
  5
4AF
  100
AcDbEntity
  8
Layer 1
  62
0
  100
AcDb2dVertex
  10
8.85484
  20
9.99201
  30
0.00000
  42
-0.0976
  70
32
  0
VERTEX
  5
4B0
  100
AcDbEntity
  8
Layer 1
  62
0
  100
AcDb2dVertex
  10
9.52729
  20
10.15306
  30
0.00000
  70
32
  0
SEQEND
  5
4B1
  100
AcDbEntity
  8
Layer 1
  62
0
  0
POLYLINE
  5
4B2
  100
AcDbEntity
  8
Layer 1
  62
0
  100
AcDb2dPolyline
 66
     1
  10
0
  20
0
  30
0
  70
1
  0
VERTEX
  5
4B3
  100
AcDbEntity
  8
Layer 1
  62
0
  100
AcDb2dVertex
  10
7.62504
  20
12.86256
  30
0.00000
  42
0.0102
  70
32
  0
VERTEX
  5
4B4
  100
AcDbEntity
  8
Layer 1
  62
0
  100
AcDb2dVertex
  10
7.11499
  20
12.60226
  30
0.00000
  42
0.1698
  70
32
  0
VERTEX
  5
4B5
  100
AcDbEntity
  8
Layer 1
  62
0
  100
AcDb2dVertex
  10
7.08569
  20
12.56276
  30
0.00000
  42
0.3774
  70
32
  0
VERTEX
  5
4B6
  100
AcDbEntity
  8
Layer 1
  62
0
  100
AcDb2dVertex
  10
7.10279
  20
12.53301
  30
0.00000
  70
32
  0
VERTEX
  5
4B7
  100
AcDbEntity
  8
Layer 1
  62
0
  100
AcDb2dVertex
  10
7.12674
  20
12.52776
  30
0.00000
  42
0.0460
  70
32
  0
VERTEX
  5
4B8
  100
AcDbEntity
  8
Layer 1
  62
0
  100
AcDb2dVertex
  10
7.16669
  20
12.51381
  30
0.00000
  42
-0.2364
  70
32
  0
VERTEX
  5
4B9
  100
AcDbEntity
  8
Layer 1
  62
0
  100
AcDb2dVertex
  10
7.18974
  20
12.48811
  30
0.00000
  42
-0.2113
  70
32
  0
VERTEX
  5
4BA
  100
AcDbEntity
  8
Layer 1
  62
0
  100
AcDb2dVertex
  10
7.17969
  20
12.42346
  30
0.00000
  70
32
  0
VERTEX
  5
4BB
  100
AcDbEntity
  8
Layer 1
  62
0
  100
AcDb2dVertex
  10
7.13299
  20
12.35191
  30
0.00000
  42
0.3853
  70
32
  0
VERTEX
  5
4BC
  100
AcDbEntity
  8
Layer 1
  62
0
  100
AcDb2dVertex
  10
7.15479
  20
12.28811
  30
0.00000
  42
-0.0563
  70
32
  0
VERTEX
  5
4BD
  100
AcDbEntity
  8
Layer 1
  62
0
  100
AcDb2dVertex
  10
7.24464
  20
12.22211
  30
0.00000
  42
-0.1628
  70
32
  0
VERTEX
  5
4BE
  100
AcDbEntity
  8
Layer 1
  62
0
  100
AcDb2dVertex
  10
7.27444
  20
12.16636
  30
0.00000
  70
32
  0
VERTEX
  5
4BF
  100
AcDbEntity
  8
Layer 1
  62
0
  100
AcDb2dVertex
  10
7.28744
  20
12.07636
  30
0.00000
  42
0.1248
  70
32
  0
VERTEX
  5
4C0
  100
AcDbEntity
  8
Layer 1
  62
0
  100
AcDb2dVertex
  10
7.31469
  20
12.03211
  30
0.00000
  42
-0.0241
  70
32
  0
VERTEX
  5
4C1
  100
AcDbEntity
  8
Layer 1
  62
0
  100
AcDb2dVertex
  10
7.37319
  20
11.96871
  30
0.00000
  42
-0.2305
  70
32
  0
VERTEX
  5
4C2
  100
AcDbEntity
  8
Layer 1
  62
0
  100
AcDb2dVertex
  10
7.37444
  20
11.91946
  30
0.00000
  42
-0.0217
  70
32
  0
VERTEX
  5
4C3
  100
AcDbEntity
  8
Layer 1
  62
0
  100
AcDb2dVertex
  10
7.30374
  20
11.79551
  30
0.00000
  42
0.2383
  70
32
  0
VERTEX
  5
4C4
  100
AcDbEntity
  8
Layer 1
  62
0
  100
AcDb2dVertex
  10
7.29789
  20
11.75036
  30
0.00000
  42
0.1480
  70
32
  0
VERTEX
  5
4C5
  100
AcDbEntity
  8
Layer 1
  62
0
  100
AcDb2dVertex
  10
7.34454
  20
11.70996
  30
0.00000
  42
-0.0586
  70
32
  0
VERTEX
  5
4C6
  100
AcDbEntity
  8
Layer 1
  62
0
  100
AcDb2dVertex
  10
7.59054
  20
11.52601
  30
0.00000
  42
-0.3017
  70
32
  0
VERTEX
  5
4C7
  100
AcDbEntity
  8
Layer 1
  62
0
  100
AcDb2dVertex
  10
7.60309
  20
11.44811
  30
0.00000
  70
32
  0
VERTEX
  5
4C8
  100
AcDbEntity
  8
Layer 1
  62
0
  100
AcDb2dVertex
  10
7.55104
  20
11.37491
  30
0.00000
  42
0.2874
  70
32
  0
VERTEX
  5
4C9
  100
AcDbEntity
  8
Layer 1
  62
0
  100
AcDb2dVertex
  10
7.53682
  20
11.29220
  30
0.00000
  42
0.2874
  70
32
  0
VERTEX
  5
4CA
  100
AcDbEntity
  8
Layer 1
  62
0
  100
AcDb2dVertex
  10
7.60504
  20
11.24331
  30
0.00000
  42
0.0262
  70
32
  0
VERTEX
  5
4CB
  100
AcDbEntity
  8
Layer 1
  62
0
  100
AcDb2dVertex
  10
7.74544
  20
11.22701
  30
0.00000
  42
-0.3031
  70
32
  0
VERTEX
  5
4CC
  100
AcDbEntity
  8
Layer 1
  62
0
  100
AcDb2dVertex
  10
7.79544
  20
11.19001
  30
0.00000
  42
-0.0732
  70
32
  0
VERTEX
  5
4CD
  100
AcDbEntity
  8
Layer 1
  62
0
  100
AcDb2dVertex
  10
7.79744
  20
11.13256
  30
0.00000
  42
0.2189
  70
32
  0
VERTEX
  5
4CE
  100
AcDbEntity
  8
Layer 1
  62
0
  100
AcDb2dVertex
  10
7.87559
  20
10.89881
  30
0.00000
  42
-0.0068
  70
32
  0
VERTEX
  5
4CF
  100
AcDbEntity
  8
Layer 1
  62
0
  100
AcDb2dVertex
  10
7.95839
  20
10.77601
  30
0.00000
  42
-0.2076
  70
32
  0
VERTEX
  5
4D0
  100
AcDbEntity
  8
Layer 1
  62
0
  100
AcDb2dVertex
  10
7.96914
  20
10.69106
  30
0.00000
  42
-0.0662
  70
32
  0
VERTEX
  5
4D1
  100
AcDbEntity
  8
Layer 1
  62
0
  100
AcDb2dVertex
  10
7.94609
  20
10.64846
  30
0.00000
  42
0.0495
  70
32
  0
VERTEX
  5
4D2
  100
AcDbEntity
  8
Layer 1
  62
0
  100
AcDb2dVertex
  10
7.92779
  20
10.61711
  30
0.00000
  42
0.2231
  70
32
  0
VERTEX
  5
4D3
  100
AcDbEntity
  8
Layer 1
  62
0
  100
AcDb2dVertex
  10
7.92659
  20
10.57456
  30
0.00000
  42
0.0694
  70
32
  0
VERTEX
  5
4D4
  100
AcDbEntity
  8
Layer 1
  62
0
  100
AcDb2dVertex
  10
7.97644
  20
10.50181
  30
0.00000
  42
0.0827
  70
32
  0
VERTEX
  5
4D5
  100
AcDbEntity
  8
Layer 1
  62
0
  100
AcDb2dVertex
  10
7.99224
  20
10.49186
  30
0.00000
  42
0.0197
  70
32
  0
VERTEX
  5
4D6
  100
AcDbEntity
  8
Layer 1
  62
0
  100
AcDb2dVertex
  10
8.06509
  20
10.46466
  30
0.00000
  70
32
  0
VERTEX
  5
4D7
  100
AcDbEntity
  8
Layer 1
  62
0
  100
AcDb2dVertex
  10
8.09664
  20
10.45596
  30
0.00000
  42
-0.2477
  70
32
  0
VERTEX
  5
4D8
  100
AcDbEntity
  8
Layer 1
  62
0
  100
AcDb2dVertex
  10
8.12859
  20
10.41641
  30
0.00000
  42
-0.0927
  70
32
  0
VERTEX
  5
4D9
  100
AcDbEntity
  8
Layer 1
  62
0
  100
AcDb2dVertex
  10
8.13099
  20
10.35836
  30
0.00000
  42
0.0590
  70
32
  0
VERTEX
  5
4DA
  100
AcDbEntity
  8
Layer 1
  62
0
  100
AcDb2dVertex
  10
8.13004
  20
10.32121
  30
0.00000
  42
0.2836
  70
32
  0
VERTEX
  5
4DB
  100
AcDbEntity
  8
Layer 1
  62
0
  100
AcDb2dVertex
  10
8.15279
  20
10.28411
  30
0.00000
  42
0.1720
  70
32
  0
VERTEX
  5
4DC
  100
AcDbEntity
  8
Layer 1
  62
0
  100
AcDb2dVertex
  10
8.20599
  20
10.27661
  30
0.00000
  42
0.0216
  70
32
  0
VERTEX
  5
4DD
  100
AcDbEntity
  8
Layer 1
  62
0
  100
AcDb2dVertex
  10
8.30264
  20
10.29001
  30
0.00000
  42
-0.2290
  70
32
  0
VERTEX
  5
4DE
  100
AcDbEntity
  8
Layer 1
  62
0
  100
AcDb2dVertex
  10
8.35454
  20
10.26361
  30
0.00000
  42
-0.1110
  70
32
  0
VERTEX
  5
4DF
  100
AcDbEntity
  8
Layer 1
  62
0
  100
AcDb2dVertex
  10
8.40284
  20
10.15841
  30
0.00000
  70
32
  0
VERTEX
  5
4E0
  100
AcDbEntity
  8
Layer 1
  62
0
  100
AcDb2dVertex
  10
8.41409
  20
10.12366
  30
0.00000
  42
0.2243
  70
32
  0
VERTEX
  5
4E1
  100
AcDbEntity
  8
Layer 1
  62
0
  100
AcDb2dVertex
  10
8.45409
  20
10.08426
  30
0.00000
  42
0.0279
  70
32
  0
VERTEX
  5
4E2
  100
AcDbEntity
  8
Layer 1
  62
0
  100
AcDb2dVertex
  10
8.56359
  20
10.06556
  30
0.00000
  42
0.0732
  70
32
  0
VERTEX
  5
4E3
  100
AcDbEntity
  8
Layer 1
  62
0
  100
AcDb2dVertex
  10
8.62329
  20
10.06501
  30
0.00000
  42
0.2743
  70
32
  0
VERTEX
  5
4E4
  100
AcDbEntity
  8
Layer 1
  62
0
  100
AcDb2dVertex
  10
8.63659
  20
10.07561
  30
0.00000
  42
0.1703
  70
32
  0
VERTEX
  5
4E5
  100
AcDbEntity
  8
Layer 1
  62
0
  100
AcDb2dVertex
  10
8.63714
  20
10.12811
  30
0.00000
  42
-0.0058
  70
32
  0
VERTEX
  5
4E6
  100
AcDbEntity
  8
Layer 1
  62
0
  100
AcDb2dVertex
  10
8.11729
  20
11.89736
  30
0.00000
  70
32
  0
VERTEX
  5
4E7
  100
AcDbEntity
  8
Layer 1
  62
0
  100
AcDb2dVertex
  10
7.82444
  20
12.84076
  30
0.00000
  42
0.1065
  70
32
  0
VERTEX
  5
4E8
  100
AcDbEntity
  8
Layer 1
  62
0
  100
AcDb2dVertex
  10
7.78909
  20
12.89851
  30
0.00000
  42
0.2323
  70
32
  0
VERTEX
  5
4E9
  100
AcDbEntity
  8
Layer 1
  62
0
  100
AcDb2dVertex
  10
7.74549
  20
12.91051
  30
0.00000
  42
0.0920
  70
32
  0
VERTEX
  5
4EA
  100
AcDbEntity
  8
Layer 1
  62
0
  100
AcDb2dVertex
  10
7.62504
  20
12.86256
  30
0.00000
  70
32
  0
SEQEND
  5
4EB
  100
AcDbEntity
  8
Layer 1
  62
0
  0
POLYLINE
  5
4EC
  100
AcDbEntity
  8
Layer 1
  62
0
  100
AcDb2dPolyline
 66
     1
  10
0
  20
0
  30
0
  70
1
  0
VERTEX
  5
4ED
  100
AcDbEntity
  8
Layer 1
  62
0
  100
AcDb2dVertex
  10
10.67944
  20
10.21206
  30
0.00000
  42
-0.1784
  70
32
  0
VERTEX
  5
4EE
  100
AcDbEntity
  8
Layer 1
  62
0
  100
AcDb2dVertex
  10
11.17699
  20
10.25641
  30
0.00000
  70
32
  0
VERTEX
  5
4EF
  100
AcDbEntity
  8
Layer 1
  62
0
  100
AcDb2dVertex
  10
11.23174
  20
10.24966
  30
0.00000
  42
0.1945
  70
32
  0
VERTEX
  5
4F0
  100
AcDbEntity
  8
Layer 1
  62
0
  100
AcDb2dVertex
  10
11.36359
  20
10.34616
  30
0.00000
  42
-0.0265
  70
32
  0
VERTEX
  5
4F1
  100
AcDbEntity
  8
Layer 1
  62
0
  100
AcDb2dVertex
  10
11.47019
  20
10.46191
  30
0.00000
  70
32
  0
VERTEX
  5
4F2
  100
AcDbEntity
  8
Layer 1
  62
0
  100
AcDb2dVertex
  10
12.56254
  20
11.74951
  30
0.00000
  42
0.1467
  70
32
  0
VERTEX
  5
4F3
  100
AcDbEntity
  8
Layer 1
  62
0
  100
AcDb2dVertex
  10
12.58219
  20
11.79206
  30
0.00000
  42
0.1694
  70
32
  0
VERTEX
  5
4F4
  100
AcDbEntity
  8
Layer 1
  62
0
  100
AcDb2dVertex
  10
12.56529
  20
11.82931
  30
0.00000
  42
0.1304
  70
32
  0
VERTEX
  5
4F5
  100
AcDbEntity
  8
Layer 1
  62
0
  100
AcDb2dVertex
  10
10.63124
  20
13.02026
  30
0.00000
  42
0.0824
  70
32
  0
VERTEX
  5
4F6
  100
AcDbEntity
  8
Layer 1
  62
0
  100
AcDb2dVertex
  10
10.55889
  20
13.02451
  30
0.00000
  42
0.3010
  70
32
  0
VERTEX
  5
4F7
  100
AcDbEntity
  8
Layer 1
  62
0
  100
AcDb2dVertex
  10
10.51134
  20
12.98866
  30
0.00000
  70
32
  0
VERTEX
  5
4F8
  100
AcDbEntity
  8
Layer 1
  62
0
  100
AcDb2dVertex
  10
9.93474
  20
10.16051
  30
0.00000
  42
0.1574
  70
32
  0
VERTEX
  5
4F9
  100
AcDbEntity
  8
Layer 1
  62
0
  100
AcDb2dVertex
  10
9.94349
  20
10.10611
  30
0.00000
  42
0.2648
  70
32
  0
VERTEX
  5
4FA
  100
AcDbEntity
  8
Layer 1
  62
0
  100
AcDb2dVertex
  10
9.97914
  20
10.08791
  30
0.00000
  42
0.0799
  70
32
  0
VERTEX
  5
4FB
  100
AcDbEntity
  8
Layer 1
  62
0
  100
AcDb2dVertex
  10
10.08189
  20
10.11546
  30
0.00000
  42
-0.0509
  70
32
  0
VERTEX
  5
4FC
  100
AcDbEntity
  8
Layer 1
  62
0
  100
AcDb2dVertex
  10
10.67944
  20
10.21206
  30
0.00000
  70
32
  0
SEQEND
  5
4FD
  100
AcDbEntity
  8
Layer 1
  62
0
  0
POLYLINE
  5
4FE
  100
AcDbEntity
  8
Layer 1
  62
0
  100
AcDb2dPolyline
 66
     1
  10
0
  20
0
  30
0
  70
1
  0
VERTEX
  5
4FF
  100
AcDbEntity
  8
Layer 1
  62
0
  100
AcDb2dVertex
  10
4.30504
  20
12.15981
  30
0.00000
  42
0.2391
  70
32
  0
VERTEX
  5
500
  100
AcDbEntity
  8
Layer 1
  62
0
  100
AcDb2dVertex
  10
4.22449
  20
12.13971
  30
0.00000
  42
0.0081
  70
32
  0
VERTEX
  5
501
  100
AcDbEntity
  8
Layer 1
  62
0
  100
AcDb2dVertex
  10
3.95434
  20
11.90591
  30
0.00000
  42
0.1230
  70
32
  0
VERTEX
  5
502
  100
AcDbEntity
  8
Layer 1
  62
0
  100
AcDb2dVertex
  10
3.92874
  20
11.85496
  30
0.00000
  42
0.2789
  70
32
  0
VERTEX
  5
503
  100
AcDbEntity
  8
Layer 1
  62
0
  100
AcDb2dVertex
  10
3.93537
  20
11.83568
  30
0.00000
  42
0.2790
  70
32
  0
VERTEX
  5
504
  100
AcDbEntity
  8
Layer 1
  62
0
  100
AcDb2dVertex
  10
3.95554
  20
11.83261
  30
0.00000
  42
0.0728
  70
32
  0
VERTEX
  5
505
  100
AcDbEntity
  8
Layer 1
  62
0
  100
AcDb2dVertex
  10
4.00939
  20
11.87266
  30
0.00000
  42
-0.0131
  70
32
  0
VERTEX
  5
506
  100
AcDbEntity
  8
Layer 1
  62
0
  100
AcDb2dVertex
  10
4.11029
  20
11.94431
  30
0.00000
  42
-0.1330
  70
32
  0
VERTEX
  5
507
  100
AcDbEntity
  8
Layer 1
  62
0
  100
AcDb2dVertex
  10
4.16959
  20
11.96146
  30
0.00000
  42
-0.4686
  70
32
  0
VERTEX
  5
508
  100
AcDbEntity
  8
Layer 1
  62
0
  100
AcDb2dVertex
  10
4.20404
  20
11.92016
  30
0.00000
  42
-0.1558
  70
32
  0
VERTEX
  5
509
  100
AcDbEntity
  8
Layer 1
  62
0
  100
AcDb2dVertex
  10
4.17919
  20
11.87516
  30
0.00000
  42
-0.0273
  70
32
  0
VERTEX
  5
50A
  100
AcDbEntity
  8
Layer 1
  62
0
  100
AcDb2dVertex
  10
4.07564
  20
11.78846
  30
0.00000
  42
0.0599
  70
32
  0
VERTEX
  5
50B
  100
AcDbEntity
  8
Layer 1
  62
0
  100
AcDb2dVertex
  10
3.92379
  20
11.57656
  30
0.00000
  42
0.3094
  70
32
  0
VERTEX
  5
50C
  100
AcDbEntity
  8
Layer 1
  62
0
  100
AcDb2dVertex
  10
3.93329
  20
11.50286
  30
0.00000
  42
0.3125
  70
32
  0
VERTEX
  5
50D
  100
AcDbEntity
  8
Layer 1
  62
0
  100
AcDb2dVertex
  10
4.05194
  20
11.49586
  30
0.00000
  70
32
  0
VERTEX
  5
50E
  100
AcDbEntity
  8
Layer 1
  62
0
  100
AcDb2dVertex
  10
4.14969
  20
11.55511
  30
0.00000
  42
-0.1219
  70
32
  0
VERTEX
  5
50F
  100
AcDbEntity
  8
Layer 1
  62
0
  100
AcDb2dVertex
  10
4.20094
  20
11.57536
  30
0.00000
  42
-0.2830
  70
32
  0
VERTEX
  5
510
  100
AcDbEntity
  8
Layer 1
  62
0
  100
AcDb2dVertex
  10
4.23905
  20
11.55911
  30
0.00000
  42
-0.2830
  70
32
  0
VERTEX
  5
511
  100
AcDbEntity
  8
Layer 1
  62
0
  100
AcDb2dVertex
  10
4.24174
  20
11.51776
  30
0.00000
  42
-0.0676
  70
32
  0
VERTEX
  5
512
  100
AcDbEntity
  8
Layer 1
  62
0
  100
AcDb2dVertex
  10
4.21734
  20
11.47706
  30
0.00000
  42
0.0535
  70
32
  0
VERTEX
  5
513
  100
AcDbEntity
  8
Layer 1
  62
0
  100
AcDb2dVertex
  10
4.19714
  20
11.44536
  30
0.00000
  42
0.5127
  70
32
  0
VERTEX
  5
514
  100
AcDbEntity
  8
Layer 1
  62
0
  100
AcDb2dVertex
  10
4.22934
  20
11.37136
  30
0.00000
  42
0.1262
  70
32
  0
VERTEX
  5
515
  100
AcDbEntity
  8
Layer 1
  62
0
  100
AcDb2dVertex
  10
4.29079
  20
11.36871
  30
0.00000
  70
32
  0
VERTEX
  5
516
  100
AcDbEntity
  8
Layer 1
  62
0
  100
AcDb2dVertex
  10
4.39869
  20
11.38236
  30
0.00000
  42
-0.1265
  70
32
  0
VERTEX
  5
517
  100
AcDbEntity
  8
Layer 1
  62
0
  100
AcDb2dVertex
  10
4.46204
  20
11.36686
  30
0.00000
  42
0.0145
  70
32
  0
VERTEX
  5
518
  100
AcDbEntity
  8
Layer 1
  62
0
  100
AcDb2dVertex
  10
4.65039
  20
11.29361
  30
0.00000
  42
0.1428
  70
32
  0
VERTEX
  5
519
  100
AcDbEntity
  8
Layer 1
  62
0
  100
AcDb2dVertex
  10
4.70414
  20
11.28931
  30
0.00000
  42
0.2562
  70
32
  0
VERTEX
  5
51A
  100
AcDbEntity
  8
Layer 1
  62
0
  100
AcDb2dVertex
  10
4.73904
  20
11.32436
  30
0.00000
  42
0.0969
  70
32
  0
VERTEX
  5
51B
  100
AcDbEntity
  8
Layer 1
  62
0
  100
AcDb2dVertex
  10
4.74974
  20
11.44981
  30
0.00000
  42
0.3000
  70
32
  0
VERTEX
  5
51C
  100
AcDbEntity
  8
Layer 1
  62
0
  100
AcDb2dVertex
  10
4.30504
  20
12.15981
  30
0.00000
  70
32
  0
SEQEND
  5
51D
  100
AcDbEntity
  8
Layer 1
  62
0
  0
POLYLINE
  5
51E
  100
AcDbEntity
  8
Layer 1
  62
0
  100
AcDb2dPolyline
 66
     1
  10
0
  20
0
  30
0
  70
1
  0
VERTEX
  5
51F
  100
AcDbEntity
  8
Layer 1
  62
0
  100
AcDb2dVertex
  10
4.85569
  20
11.64006
  30
0.00000
  42
0.0117
  70
32
  0
VERTEX
  5
520
  100
AcDbEntity
  8
Layer 1
  62
0
  100
AcDb2dVertex
  10
4.86309
  20
11.35711
  30
0.00000
  42
0.1438
  70
32
  0
VERTEX
  5
521
  100
AcDbEntity
  8
Layer 1
  62
0
  100
AcDb2dVertex
  10
4.88529
  20
11.29821
  30
0.00000
  42
0.2291
  70
32
  0
VERTEX
  5
522
  100
AcDbEntity
  8
Layer 1
  62
0
  100
AcDb2dVertex
  10
4.92789
  20
11.28051
  30
0.00000
  42
0.2813
  70
32
  0
VERTEX
  5
523
  100
AcDbEntity
  8
Layer 1
  62
0
  100
AcDb2dVertex
  10
5.03929
  20
11.32986
  30
0.00000
  42
0.0110
  70
32
  0
VERTEX
  5
524
  100
AcDbEntity
  8
Layer 1
  62
0
  100
AcDb2dVertex
  10
5.09804
  20
11.43391
  30
0.00000
  42
-0.1295
  70
32
  0
VERTEX
  5
525
  100
AcDbEntity
  8
Layer 1
  62
0
  100
AcDb2dVertex
  10
5.13859
  20
11.48041
  30
0.00000
  42
-0.1754
  70
32
  0
VERTEX
  5
526
  100
AcDbEntity
  8
Layer 1
  62
0
  100
AcDb2dVertex
  10
5.18879
  20
11.47911
  30
0.00000
  42
0.0191
  70
32
  0
VERTEX
  5
527
  100
AcDbEntity
  8
Layer 1
  62
0
  100
AcDb2dVertex
  10
5.27319
  20
11.45236
  30
0.00000
  70
32
  0
VERTEX
  5
528
  100
AcDbEntity
  8
Layer 1
  62
0
  100
AcDb2dVertex
  10
5.30009
  20
11.44836
  30
0.00000
  42
0.2210
  70
32
  0
VERTEX
  5
529
  100
AcDbEntity
  8
Layer 1
  62
0
  100
AcDb2dVertex
  10
5.34794
  20
11.47906
  30
0.00000
  70
32
  0
VERTEX
  5
52A
  100
AcDbEntity
  8
Layer 1
  62
0
  100
AcDb2dVertex
  10
5.38604
  20
11.54531
  30
0.00000
  42
-0.1472
  70
32
  0
VERTEX
  5
52B
  100
AcDbEntity
  8
Layer 1
  62
0
  100
AcDb2dVertex
  10
5.46754
  20
11.62331
  30
0.00000
  42
0.1769
  70
32
  0
VERTEX
  5
52C
  100
AcDbEntity
  8
Layer 1
  62
0
  100
AcDb2dVertex
  10
5.58434
  20
11.72011
  30
0.00000
  42
0.5299
  70
32
  0
VERTEX
  5
52D
  100
AcDbEntity
  8
Layer 1
  62
0
  100
AcDb2dVertex
  10
5.54249
  20
11.78901
  30
0.00000
  42
0.0326
  70
32
  0
VERTEX
  5
52E
  100
AcDbEntity
  8
Layer 1
  62
0
  100
AcDb2dVertex
  10
4.90774
  20
11.78686
  30
0.00000
  42
0.3453
  70
32
  0
VERTEX
  5
52F
  100
AcDbEntity
  8
Layer 1
  62
0
  100
AcDb2dVertex
  10
4.85499
  20
11.74411
  30
0.00000
  42
0.0686
  70
32
  0
VERTEX
  5
530
  100
AcDbEntity
  8
Layer 1
  62
0
  100
AcDb2dVertex
  10
4.85569
  20
11.64006
  30
0.00000
  70
32
  0
SEQEND
  5
531
  100
AcDbEntity
  8
Layer 1
  62
0
  0
POLYLINE
  5
532
  100
AcDbEntity
  8
Layer 1
  62
0
  100
AcDb2dPolyline
 66
     1
  10
0
  20
0
  30
0
  70
1
  0
VERTEX
  5
533
  100
AcDbEntity
  8
Layer 1
  62
0
  100
AcDb2dVertex
  10
4.80809
  20
11.90866
  30
0.00000
  70
32
  0
VERTEX
  5
534
  100
AcDbEntity
  8
Layer 1
  62
0
  100
AcDb2dVertex
  10
5.32554
  20
11.90851
  30
0.00000
  42
0.0333
  70
32
  0
VERTEX
  5
535
  100
AcDbEntity
  8
Layer 1
  62
0
  100
AcDb2dVertex
  10
5.52619
  20
11.91731
  30
0.00000
  70
32
  0
VERTEX
  5
536
  100
AcDbEntity
  8
Layer 1
  62
0
  100
AcDb2dVertex
  10
5.55339
  20
11.92656
  30
0.00000
  42
0.0777
  70
32
  0
VERTEX
  5
537
  100
AcDbEntity
  8
Layer 1
  62
0
  100
AcDb2dVertex
  10
5.59219
  20
11.96886
  30
0.00000
  42
0.0156
  70
32
  0
VERTEX
  5
538
  100
AcDbEntity
  8
Layer 1
  62
0
  100
AcDb2dVertex
  10
5.64279
  20
12.03206
  30
0.00000
  70
32
  0
VERTEX
  5
539
  100
AcDbEntity
  8
Layer 1
  62
0
  100
AcDb2dVertex
  10
5.65909
  20
12.05091
  30
0.00000
  42
0.4659
  70
32
  0
VERTEX
  5
53A
  100
AcDbEntity
  8
Layer 1
  62
0
  100
AcDb2dVertex
  10
5.64689
  20
12.09901
  30
0.00000
  70
32
  0
VERTEX
  5
53B
  100
AcDbEntity
  8
Layer 1
  62
0
  100
AcDb2dVertex
  10
5.62309
  20
12.10546
  30
0.00000
  42
0.0304
  70
32
  0
VERTEX
  5
53C
  100
AcDbEntity
  8
Layer 1
  62
0
  100
AcDb2dVertex
  10
5.55734
  20
12.13086
  30
0.00000
  42
-0.2723
  70
32
  0
VERTEX
  5
53D
  100
AcDbEntity
  8
Layer 1
  62
0
  100
AcDb2dVertex
  10
5.54189
  20
12.17471
  30
0.00000
  42
-0.0433
  70
32
  0
VERTEX
  5
53E
  100
AcDbEntity
  8
Layer 1
  62
0
  100
AcDb2dVertex
  10
5.54929
  20
12.21796
  30
0.00000
  42
0.1986
  70
32
  0
VERTEX
  5
53F
  100
AcDbEntity
  8
Layer 1
  62
0
  100
AcDb2dVertex
  10
5.53659
  20
12.36201
  30
0.00000
  42
0.2894
  70
32
  0
VERTEX
  5
540
  100
AcDbEntity
  8
Layer 1
  62
0
  100
AcDb2dVertex
  10
5.49809
  20
12.38306
  30
0.00000
  70
32
  0
VERTEX
  5
541
  100
AcDbEntity
  8
Layer 1
  62
0
  100
AcDb2dVertex
  10
5.46554
  20
12.37681
  30
0.00000
  42
-0.1357
  70
32
  0
VERTEX
  5
542
  100
AcDbEntity
  8
Layer 1
  62
0
  100
AcDb2dVertex
  10
5.33029
  20
12.39416
  30
0.00000
  42
0.1039
  70
32
  0
VERTEX
  5
543
  100
AcDbEntity
  8
Layer 1
  62
0
  100
AcDb2dVertex
  10
5.28114
  20
12.40591
  30
0.00000
  70
32
  0
VERTEX
  5
544
  100
AcDbEntity
  8
Layer 1
  62
0
  100
AcDb2dVertex
  10
5.23639
  20
12.40021
  30
0.00000
  42
-0.2964
  70
32
  0
VERTEX
  5
545
  100
AcDbEntity
  8
Layer 1
  62
0
  100
AcDb2dVertex
  10
5.18879
  20
12.43036
  30
0.00000
  42
0.0097
  70
32
  0
VERTEX
  5
546
  100
AcDbEntity
  8
Layer 1
  62
0
  100
AcDb2dVertex
  10
5.15514
  20
12.48851
  30
0.00000
  70
32
  0
VERTEX
  5
547
  100
AcDbEntity
  8
Layer 1
  62
0
  100
AcDb2dVertex
  10
5.14094
  20
12.50331
  30
0.00000
  42
0.2340
  70
32
  0
VERTEX
  5
548
  100
AcDbEntity
  8
Layer 1
  62
0
  100
AcDb2dVertex
  10
5.09974
  20
12.50361
  30
0.00000
  42
0.0940
  70
32
  0
VERTEX
  5
549
  100
AcDbEntity
  8
Layer 1
  62
0
  100
AcDb2dVertex
  10
5.03539
  20
12.44601
  30
0.00000
  42
0.1698
  70
32
  0
VERTEX
  5
54A
  100
AcDbEntity
  8
Layer 1
  62
0
  100
AcDb2dVertex
  10
5.01279
  20
12.40246
  30
0.00000
  42
0.2569
  70
32
  0
VERTEX
  5
54B
  100
AcDbEntity
  8
Layer 1
  62
0
  100
AcDb2dVertex
  10
5.03319
  20
12.37051
  30
0.00000
  42
0.1159
  70
32
  0
VERTEX
  5
54C
  100
AcDbEntity
  8
Layer 1
  62
0
  100
AcDb2dVertex
  10
5.22429
  20
12.31331
  30
0.00000
  42
-0.0199
  70
32
  0
VERTEX
  5
54D
  100
AcDbEntity
  8
Layer 1
  62
0
  100
AcDb2dVertex
  10
5.34544
  20
12.28286
  30
0.00000
  42
-0.1556
  70
32
  0
VERTEX
  5
54E
  100
AcDbEntity
  8
Layer 1
  62
0
  100
AcDb2dVertex
  10
5.38379
  20
12.26231
  30
0.00000
  42
-0.3629
  70
32
  0
VERTEX
  5
54F
  100
AcDbEntity
  8
Layer 1
  62
0
  100
AcDb2dVertex
  10
5.38389
  20
12.23331
  30
0.00000
  42
-0.1097
  70
32
  0
VERTEX
  5
550
  100
AcDbEntity
  8
Layer 1
  62
0
  100
AcDb2dVertex
  10
5.34559
  20
12.20506
  30
0.00000
  42
-0.0772
  70
32
  0
VERTEX
  5
551
  100
AcDbEntity
  8
Layer 1
  62
0
  100
AcDb2dVertex
  10
5.08064
  20
12.11576
  30
0.00000
  42
-0.1857
  70
32
  0
VERTEX
  5
552
  100
AcDbEntity
  8
Layer 1
  62
0
  100
AcDb2dVertex
  10
4.98084
  20
12.14861
  30
0.00000
  42
-0.1242
  70
32
  0
VERTEX
  5
553
  100
AcDbEntity
  8
Layer 1
  62
0
  100
AcDb2dVertex
  10
4.95949
  20
12.20521
  30
0.00000
  70
32
  0
VERTEX
  5
554
  100
AcDbEntity
  8
Layer 1
  62
0
  100
AcDb2dVertex
  10
4.94219
  20
12.28981
  30
0.00000
  70
32
  0
VERTEX
  5
555
  100
AcDbEntity
  8
Layer 1
  62
0
  100
AcDb2dVertex
  10
4.93234
  20
12.31216
  30
0.00000
  42
0.0843
  70
32
  0
VERTEX
  5
556
  100
AcDbEntity
  8
Layer 1
  62
0
  100
AcDb2dVertex
  10
4.88394
  20
12.34826
  30
0.00000
  70
32
  0
VERTEX
  5
557
  100
AcDbEntity
  8
Layer 1
  62
0
  100
AcDb2dVertex
  10
4.85669
  20
12.36646
  30
0.00000
  42
0.2123
  70
32
  0
VERTEX
  5
558
  100
AcDbEntity
  8
Layer 1
  62
0
  100
AcDb2dVertex
  10
4.79684
  20
12.36436
  30
0.00000
  42
-0.0112
  70
32
  0
VERTEX
  5
559
  100
AcDbEntity
  8
Layer 1
  62
0
  100
AcDb2dVertex
  10
4.65499
  20
12.29226
  30
0.00000
  42
-0.2169
  70
32
  0
VERTEX
  5
55A
  100
AcDbEntity
  8
Layer 1
  62
0
  100
AcDb2dVertex
  10
4.60719
  20
12.29206
  30
0.00000
  42
-0.2488
  70
32
  0
VERTEX
  5
55B
  100
AcDbEntity
  8
Layer 1
  62
0
  100
AcDb2dVertex
  10
4.59149
  20
12.32616
  30
0.00000
  42
0.0330
  70
32
  0
VERTEX
  5
55C
  100
AcDbEntity
  8
Layer 1
  62
0
  100
AcDb2dVertex
  10
4.59069
  20
12.37096
  30
0.00000
  42
0.0952
  70
32
  0
VERTEX
  5
55D
  100
AcDbEntity
  8
Layer 1
  62
0
  100
AcDb2dVertex
  10
4.58094
  20
12.41681
  30
0.00000
  42
0.2665
  70
32
  0
VERTEX
  5
55E
  100
AcDbEntity
  8
Layer 1
  62
0
  100
AcDb2dVertex
  10
4.56679
  20
12.42756
  30
0.00000
  70
32
  0
VERTEX
  5
55F
  100
AcDbEntity
  8
Layer 1
  62
0
  100
AcDb2dVertex
  10
4.54239
  20
12.41886
  30
0.00000
  70
32
  0
VERTEX
  5
560
  100
AcDbEntity
  8
Layer 1
  62
0
  100
AcDb2dVertex
  10
4.43644
  20
12.33671
  30
0.00000
  70
32
  0
VERTEX
  5
561
  100
AcDbEntity
  8
Layer 1
  62
0
  100
AcDb2dVertex
  10
4.40824
  20
12.31556
  30
0.00000
  42
0.5196
  70
32
  0
VERTEX
  5
562
  100
AcDbEntity
  8
Layer 1
  62
0
  100
AcDb2dVertex
  10
4.41449
  20
12.25756
  30
0.00000
  42
-0.0701
  70
32
  0
VERTEX
  5
563
  100
AcDbEntity
  8
Layer 1
  62
0
  100
AcDb2dVertex
  10
4.76049
  20
11.93336
  30
0.00000
  42
0.1690
  70
32
  0
VERTEX
  5
564
  100
AcDbEntity
  8
Layer 1
  62
0
  100
AcDb2dVertex
  10
4.80809
  20
11.90866
  30
0.00000
  70
32
  0
SEQEND
  5
565
  100
AcDbEntity
  8
Layer 1
  62
0
  0
POLYLINE
  5
566
  100
AcDbEntity
  8
Layer 1
  62
0
  100
AcDb2dPolyline
 66
     1
  10
0
  20
0
  30
0
  70
1
  0
VERTEX
  5
567
  100
AcDbEntity
  8
Layer 1
  62
0
  100
AcDb2dVertex
  10
6.36489
  20
12.61446
  30
0.00000
  42
0.0530
  70
32
  0
VERTEX
  5
568
  100
AcDbEntity
  8
Layer 1
  62
0
  100
AcDb2dVertex
  10
6.17224
  20
12.60651
  30
0.00000
  42
0.2206
  70
32
  0
VERTEX
  5
569
  100
AcDbEntity
  8
Layer 1
  62
0
  100
AcDb2dVertex
  10
6.10149
  20
12.56466
  30
0.00000
  42
0.5420
  70
32
  0
VERTEX
  5
56A
  100
AcDbEntity
  8
Layer 1
  62
0
  100
AcDb2dVertex
  10
6.12979
  20
12.51416
  30
0.00000
  42
0.0485
  70
32
  0
VERTEX
  5
56B
  100
AcDbEntity
  8
Layer 1
  62
0
  100
AcDb2dVertex
  10
6.16424
  20
12.51436
  30
0.00000
  42
0.0687
  70
32
  0
VERTEX
  5
56C
  100
AcDbEntity
  8
Layer 1
  62
0
  100
AcDb2dVertex
  10
6.43184
  20
12.58546
  30
0.00000
  42
0.2795
  70
32
  0
VERTEX
  5
56D
  100
AcDbEntity
  8
Layer 1
  62
0
  100
AcDb2dVertex
  10
6.43979
  20
12.59374
  30
0.00000
  42
0.2800
  70
32
  0
VERTEX
  5
56E
  100
AcDbEntity
  8
Layer 1
  62
0
  100
AcDb2dVertex
  10
6.43614
  20
12.60466
  30
0.00000
  42
0.1058
  70
32
  0
VERTEX
  5
56F
  100
AcDbEntity
  8
Layer 1
  62
0
  100
AcDb2dVertex
  10
6.36489
  20
12.61446
  30
0.00000
  70
32
  0
SEQEND
  5
570
  100
AcDbEntity
  8
Layer 1
  62
0
  0
POLYLINE
  5
571
  100
AcDbEntity
  8
Layer 1
  62
0
  100
AcDb2dPolyline
 66
     1
  10
0
  20
0
  30
0
  70
1
  0
VERTEX
  5
572
  100
AcDbEntity
  8
Layer 1
  62
0
  100
AcDb2dVertex
  10
3.15999
  20
4.19721
  30
0.00000
  42
-0.0601
  70
32
  0
VERTEX
  5
573
  100
AcDbEntity
  8
Layer 1
  62
0
  100
AcDb2dVertex
  10
2.55319
  20
2.84556
  30
0.00000
  42
-0.0590
  70
32
  0
VERTEX
  5
574
  100
AcDbEntity
  8
Layer 1
  62
0
  100
AcDb2dVertex
  10
1.77139
  20
1.74846
  30
0.00000
  42
-0.1937
  70
32
  0
VERTEX
  5
575
  100
AcDbEntity
  8
Layer 1
  62
0
  100
AcDb2dVertex
  10
1.14334
  20
1.33156
  30
0.00000
  42
-0.4286
  70
32
  0
VERTEX
  5
576
  100
AcDbEntity
  8
Layer 1
  62
0
  100
AcDb2dVertex
  10
0.97814
  20
1.42451
  30
0.00000
  42
-0.0372
  70
32
  0
VERTEX
  5
577
  100
AcDbEntity
  8
Layer 1
  62
0
  100
AcDb2dVertex
  10
0.95364
  20
1.54576
  30
0.00000
  42
-0.2313
  70
32
  0
VERTEX
  5
578
  100
AcDbEntity
  8
Layer 1
  62
0
  100
AcDb2dVertex
  10
0.98604
  20
1.76116
  30
0.00000
  42
0.1019
  70
32
  0
VERTEX
  5
579
  100
AcDbEntity
  8
Layer 1
  62
0
  100
AcDb2dVertex
  10
2.42454
  20
3.94331
  30
0.00000
  42
0.1055
  70
32
  0
VERTEX
  5
57A
  100
AcDbEntity
  8
Layer 1
  62
0
  100
AcDb2dVertex
  10
2.68969
  20
5.29681
  30
0.00000
  42
0.2735
  70
32
  0
VERTEX
  5
57B
  100
AcDbEntity
  8
Layer 1
  62
0
  100
AcDb2dVertex
  10
2.57359
  20
5.51191
  30
0.00000
  42
0.0607
  70
32
  0
VERTEX
  5
57C
  100
AcDbEntity
  8
Layer 1
  62
0
  100
AcDb2dVertex
  10
2.03154
  20
5.62126
  30
0.00000
  42
-0.0728
  70
32
  0
VERTEX
  5
57D
  100
AcDbEntity
  8
Layer 1
  62
0
  100
AcDb2dVertex
  10
1.91229
  20
5.64626
  30
0.00000
  42
-0.2049
  70
32
  0
VERTEX
  5
57E
  100
AcDbEntity
  8
Layer 1
  62
0
  100
AcDb2dVertex
  10
1.86419
  20
5.71241
  30
0.00000
  42
-0.3528
  70
32
  0
VERTEX
  5
57F
  100
AcDbEntity
  8
Layer 1
  62
0
  100
AcDb2dVertex
  10
1.93874
  20
6.18086
  30
0.00000
  42
-0.2808
  70
32
  0
VERTEX
  5
580
  100
AcDbEntity
  8
Layer 1
  62
0
  100
AcDb2dVertex
  10
2.01229
  20
6.20461
  30
0.00000
  42
-0.0122
  70
32
  0
VERTEX
  5
581
  100
AcDbEntity
  8
Layer 1
  62
0
  100
AcDb2dVertex
  10
2.11544
  20
6.17791
  30
0.00000
  42
0.1118
  70
32
  0
VERTEX
  5
582
  100
AcDbEntity
  8
Layer 1
  62
0
  100
AcDb2dVertex
  10
2.17044
  20
6.17971
  30
0.00000
  42
0.2564
  70
32
  0
VERTEX
  5
583
  100
AcDbEntity
  8
Layer 1
  62
0
  100
AcDb2dVertex
  10
2.19829
  20
6.20531
  30
0.00000
  42
0.1491
  70
32
  0
VERTEX
  5
584
  100
AcDbEntity
  8
Layer 1
  62
0
  100
AcDb2dVertex
  10
2.19224
  20
6.26211
  30
0.00000
  70
32
  0
VERTEX
  5
585
  100
AcDbEntity
  8
Layer 1
  62
0
  100
AcDb2dVertex
  10
1.15749
  20
8.35076
  30
0.00000
  42
0.0293
  70
32
  0
VERTEX
  5
586
  100
AcDbEntity
  8
Layer 1
  62
0
  100
AcDb2dVertex
  10
0.64689
  20
9.30126
  30
0.00000
  42
-0.5382
  70
32
  0
VERTEX
  5
587
  100
AcDbEntity
  8
Layer 1
  62
0
  100
AcDb2dVertex
  10
0.74670
  20
9.61946
  30
0.00000
  42
-0.5382
  70
32
  0
VERTEX
  5
588
  100
AcDbEntity
  8
Layer 1
  62
0
  100
AcDb2dVertex
  10
1.00004
  20
9.40256
  30
0.00000
  42
0.0646
  70
32
  0
VERTEX
  5
589
  100
AcDbEntity
  8
Layer 1
  62
0
  100
AcDb2dVertex
  10
1.00919
  20
9.30176
  30
0.00000
  42
0.3624
  70
32
  0
VERTEX
  5
58A
  100
AcDbEntity
  8
Layer 1
  62
0
  100
AcDb2dVertex
  10
1.05774
  20
9.26606
  30
0.00000
  42
0.1158
  70
32
  0
VERTEX
  5
58B
  100
AcDbEntity
  8
Layer 1
  62
0
  100
AcDb2dVertex
  10
1.12039
  20
9.28426
  30
0.00000
  42
-0.0983
  70
32
  0
VERTEX
  5
58C
  100
AcDbEntity
  8
Layer 1
  62
0
  100
AcDb2dVertex
  10
1.37699
  20
9.40376
  30
0.00000
  70
32
  0
VERTEX
  5
58D
  100
AcDbEntity
  8
Layer 1
  62
0
  100
AcDb2dVertex
  10
4.53824
  20
11.13966
  30
0.00000
  42
0.1801
  70
32
  0
VERTEX
  5
58E
  100
AcDbEntity
  8
Layer 1
  62
0
  100
AcDb2dVertex
  10
4.56684
  20
11.17916
  30
0.00000
  42
0.3198
  70
32
  0
VERTEX
  5
58F
  100
AcDbEntity
  8
Layer 1
  62
0
  100
AcDb2dVertex
  10
4.54494
  20
11.21181
  30
0.00000
  42
0.0848
  70
32
  0
VERTEX
  5
590
  100
AcDbEntity
  8
Layer 1
  62
0
  100
AcDb2dVertex
  10
4.37774
  20
11.26586
  30
0.00000
  42
0.0143
  70
32
  0
VERTEX
  5
591
  100
AcDbEntity
  8
Layer 1
  62
0
  100
AcDb2dVertex
  10
4.25644
  20
11.25606
  30
0.00000
  42
-0.1438
  70
32
  0
VERTEX
  5
592
  100
AcDbEntity
  8
Layer 1
  62
0
  100
AcDb2dVertex
  10
4.19709
  20
11.27041
  30
0.00000
  42
0.0170
  70
32
  0
VERTEX
  5
593
  100
AcDbEntity
  8
Layer 1
  62
0
  100
AcDb2dVertex
  10
3.89129
  20
11.39906
  30
0.00000
  42
-0.2153
  70
32
  0
VERTEX
  5
594
  100
AcDbEntity
  8
Layer 1
  62
0
  100
AcDb2dVertex
  10
3.82404
  20
11.47541
  30
0.00000
  42
-0.1062
  70
32
  0
VERTEX
  5
595
  100
AcDbEntity
  8
Layer 1
  62
0
  100
AcDb2dVertex
  10
3.83534
  20
11.64921
  30
0.00000
  70
32
  0
VERTEX
  5
596
  100
AcDbEntity
  8
Layer 1
  62
0
  100
AcDb2dVertex
  10
3.84479
  20
11.69761
  30
0.00000
  42
0.0320
  70
32
  0
VERTEX
  5
597
  100
AcDbEntity
  8
Layer 1
  62
0
  100
AcDb2dVertex
  10
3.83124
  20
11.82291
  30
0.00000
  42
-0.1536
  70
32
  0
VERTEX
  5
598
  100
AcDbEntity
  8
Layer 1
  62
0
  100
AcDb2dVertex
  10
3.84194
  20
11.87981
  30
0.00000
  42
-0.0600
  70
32
  0
VERTEX
  5
599
  100
AcDbEntity
  8
Layer 1
  62
0
  100
AcDb2dVertex
  10
4.22374
  20
12.26641
  30
0.00000
  42
0.0874
  70
32
  0
VERTEX
  5
59A
  100
AcDbEntity
  8
Layer 1
  62
0
  100
AcDb2dVertex
  10
4.32979
  20
12.37016
  30
0.00000
  42
0.2429
  70
32
  0
VERTEX
  5
59B
  100
AcDbEntity
  8
Layer 1
  62
0
  100
AcDb2dVertex
  10
4.33854
  20
12.42341
  30
0.00000
  42
0.1727
  70
32
  0
VERTEX
  5
59C
  100
AcDbEntity
  8
Layer 1
  62
0
  100
AcDb2dVertex
  10
4.29894
  20
12.46496
  30
0.00000
  42
-0.1141
  70
32
  0
VERTEX
  5
59D
  100
AcDbEntity
  8
Layer 1
  62
0
  100
AcDb2dVertex
  10
4.11814
  20
12.62101
  30
0.00000
  42
-0.2873
  70
32
  0
VERTEX
  5
59E
  100
AcDbEntity
  8
Layer 1
  62
0
  100
AcDb2dVertex
  10
4.11714
  20
12.65771
  30
0.00000
  42
-0.1979
  70
32
  0
VERTEX
  5
59F
  100
AcDbEntity
  8
Layer 1
  62
0
  100
AcDb2dVertex
  10
4.15789
  20
12.67351
  30
0.00000
  42
0.0612
  70
32
  0
VERTEX
  5
5A0
  100
AcDbEntity
  8
Layer 1
  62
0
  100
AcDb2dVertex
  10
4.39679
  20
12.68826
  30
0.00000
  42
0.3745
  70
32
  0
VERTEX
  5
5A1
  100
AcDbEntity
  8
Layer 1
  62
0
  100
AcDb2dVertex
  10
4.42479
  20
12.75106
  30
0.00000
  42
0.0248
  70
32
  0
VERTEX
  5
5A2
  100
AcDbEntity
  8
Layer 1
  62
0
  100
AcDb2dVertex
  10
4.40079
  20
12.81011
  30
0.00000
  42
-0.0547
  70
32
  0
VERTEX
  5
5A3
  100
AcDbEntity
  8
Layer 1
  62
0
  100
AcDb2dVertex
  10
4.36949
  20
12.89791
  30
0.00000
  42
-0.4529
  70
32
  0
VERTEX
  5
5A4
  100
AcDbEntity
  8
Layer 1
  62
0
  100
AcDb2dVertex
  10
4.42464
  20
12.96281
  30
0.00000
  42
-0.1249
  70
32
  0
VERTEX
  5
5A5
  100
AcDbEntity
  8
Layer 1
  62
0
  100
AcDb2dVertex
  10
4.47094
  20
12.94711
  30
0.00000
  42
0.0721
  70
32
  0
VERTEX
  5
5A6
  100
AcDbEntity
  8
Layer 1
  62
0
  100
AcDb2dVertex
  10
4.49684
  20
12.93521
  30
0.00000
  42
0.2516
  70
32
  0
VERTEX
  5
5A7
  100
AcDbEntity
  8
Layer 1
  62
0
  100
AcDb2dVertex
  10
4.53559
  20
12.93896
  30
0.00000
  42
0.2036
  70
32
  0
VERTEX
  5
5A8
  100
AcDbEntity
  8
Layer 1
  62
0
  100
AcDb2dVertex
  10
4.55084
  20
12.97806
  30
0.00000
  42
-0.0172
  70
32
  0
VERTEX
  5
5A9
  100
AcDbEntity
  8
Layer 1
  62
0
  100
AcDb2dVertex
  10
4.55569
  20
13.10081
  30
0.00000
  42
-0.1693
  70
32
  0
VERTEX
  5
5AA
  100
AcDbEntity
  8
Layer 1
  62
0
  100
AcDb2dVertex
  10
4.61034
  20
13.31231
  30
0.00000
  42
-0.4580
  70
32
  0
VERTEX
  5
5AB
  100
AcDbEntity
  8
Layer 1
  62
0
  100
AcDb2dVertex
  10
4.64249
  20
13.31026
  30
0.00000
  42
-0.1001
  70
32
  0
VERTEX
  5
5AC
  100
AcDbEntity
  8
Layer 1
  62
0
  100
AcDb2dVertex
  10
4.66094
  20
13.26801
  30
0.00000
  42
0.2207
  70
32
  0
VERTEX
  5
5AD
  100
AcDbEntity
  8
Layer 1
  62
0
  100
AcDb2dVertex
  10
4.74889
  20
13.14016
  30
0.00000
  42
0.4148
  70
32
  0
VERTEX
  5
5AE
  100
AcDbEntity
  8
Layer 1
  62
0
  100
AcDb2dVertex
  10
4.79159
  20
13.14916
  30
0.00000
  42
0.0391
  70
32
  0
VERTEX
  5
5AF
  100
AcDbEntity
  8
Layer 1
  62
0
  100
AcDb2dVertex
  10
4.80369
  20
13.17851
  30
0.00000
  42
0.0084
  70
32
  0
VERTEX
  5
5B0
  100
AcDbEntity
  8
Layer 1
  62
0
  100
AcDb2dVertex
  10
4.83959
  20
13.28416
  30
0.00000
  42
-0.1394
  70
32
  0
VERTEX
  5
5B1
  100
AcDbEntity
  8
Layer 1
  62
0
  100
AcDb2dVertex
  10
4.87479
  20
13.33131
  30
0.00000
  42
-0.2987
  70
32
  0
VERTEX
  5
5B2
  100
AcDbEntity
  8
Layer 1
  62
0
  100
AcDb2dVertex
  10
4.91214
  20
13.33086
  30
0.00000
  70
32
  0
VERTEX
  5
5B3
  100
AcDbEntity
  8
Layer 1
  62
0
  100
AcDb2dVertex
  10
4.92884
  20
13.31501
  30
0.00000
  42
0.0316
  70
32
  0
VERTEX
  5
5B4
  100
AcDbEntity
  8
Layer 1
  62
0
  100
AcDb2dVertex
  10
4.97039
  20
13.28646
  30
0.00000
  42
0.1308
  70
32
  0
VERTEX
  5
5B5
  100
AcDbEntity
  8
Layer 1
  62
0
  100
AcDb2dVertex
  10
4.98229
  20
13.28306
  30
0.00000
  42
0.1892
  70
32
  0
VERTEX
  5
5B6
  100
AcDbEntity
  8
Layer 1
  62
0
  100
AcDb2dVertex
  10
5.02579
  20
13.30211
  30
0.00000
  42
0.0704
  70
32
  0
VERTEX
  5
5B7
  100
AcDbEntity
  8
Layer 1
  62
0
  100
AcDb2dVertex
  10
5.06844
  20
13.35856
  30
0.00000
  42
-0.1671
  70
32
  0
VERTEX
  5
5B8
  100
AcDbEntity
  8
Layer 1
  62
0
  100
AcDb2dVertex
  10
5.32699
  20
13.59036
  30
0.00000
  42
-0.2099
  70
32
  0
VERTEX
  5
5B9
  100
AcDbEntity
  8
Layer 1
  62
0
  100
AcDb2dVertex
  10
5.37524
  20
13.58766
  30
0.00000
  70
32
  0
VERTEX
  5
5BA
  100
AcDbEntity
  8
Layer 1
  62
0
  100
AcDb2dVertex
  10
5.40484
  20
13.55321
  30
0.00000
  42
0.2290
  70
32
  0
VERTEX
  5
5BB
  100
AcDbEntity
  8
Layer 1
  62
0
  100
AcDb2dVertex
  10
5.43809
  20
13.53531
  30
0.00000
  42
0.1533
  70
32
  0
VERTEX
  5
5BC
  100
AcDbEntity
  8
Layer 1
  62
0
  100
AcDb2dVertex
  10
5.49099
  20
13.54946
  30
0.00000
  42
-0.0387
  70
32
  0
VERTEX
  5
5BD
  100
AcDbEntity
  8
Layer 1
  62
0
  100
AcDb2dVertex
  10
5.67549
  20
13.66726
  30
0.00000
  42
-0.1792
  70
32
  0
VERTEX
  5
5BE
  100
AcDbEntity
  8
Layer 1
  62
0
  100
AcDb2dVertex
  10
5.72104
  20
13.67111
  30
0.00000
  42
-0.3715
  70
32
  0
VERTEX
  5
5BF
  100
AcDbEntity
  8
Layer 1
  62
0
  100
AcDb2dVertex
  10
5.74484
  20
13.61776
  30
0.00000
  70
32
  0
VERTEX
  5
5C0
  100
AcDbEntity
  8
Layer 1
  62
0
  100
AcDb2dVertex
  10
5.73489
  20
13.58871
  30
0.00000
  42
-0.0057
  70
32
  0
VERTEX
  5
5C1
  100
AcDbEntity
  8
Layer 1
  62
0
  100
AcDb2dVertex
  10
5.70069
  20
13.49966
  30
0.00000
  42
0.1688
  70
32
  0
VERTEX
  5
5C2
  100
AcDbEntity
  8
Layer 1
  62
0
  100
AcDb2dVertex
  10
5.70319
  20
13.45441
  30
0.00000
  42
0.4249
  70
32
  0
VERTEX
  5
5C3
  100
AcDbEntity
  8
Layer 1
  62
0
  100
AcDb2dVertex
  10
5.75329
  20
13.44111
  30
0.00000
  70
32
  0
VERTEX
  5
5C4
  100
AcDbEntity
  8
Layer 1
  62
0
  100
AcDb2dVertex
  10
5.77814
  20
13.45736
  30
0.00000
  42
-0.0298
  70
32
  0
VERTEX
  5
5C5
  100
AcDbEntity
  8
Layer 1
  62
0
  100
AcDb2dVertex
  10
5.90944
  20
13.54186
  30
0.00000
  42
-0.1172
  70
32
  0
VERTEX
  5
5C6
  100
AcDbEntity
  8
Layer 1
  62
0
  100
AcDb2dVertex
  10
5.96634
  20
13.55881
  30
0.00000
  42
-0.3211
  70
32
  0
VERTEX
  5
5C7
  100
AcDbEntity
  8
Layer 1
  62
0
  100
AcDb2dVertex
  10
5.99364
  20
13.53896
  30
0.00000
  70
32
  0
VERTEX
  5
5C8
  100
AcDbEntity
  8
Layer 1
  62
0
  100
AcDb2dVertex
  10
6.00534
  20
13.44956
  30
0.00000
  42
0.4577
  70
32
  0
VERTEX
  5
5C9
  100
AcDbEntity
  8
Layer 1
  62
0
  100
AcDb2dVertex
  10
6.05814
  20
13.43136
  30
0.00000
  42
0.0816
  70
32
  0
VERTEX
  5
5CA
  100
AcDbEntity
  8
Layer 1
  62
0
  100
AcDb2dVertex
  10
6.17679
  20
13.53221
  30
0.00000
  70
32
  0
VERTEX
  5
5CB
  100
AcDbEntity
  8
Layer 1
  62
0
  100
AcDb2dVertex
  10
6.20304
  20
13.56401
  30
0.00000
  42
-0.3529
  70
32
  0
VERTEX
  5
5CC
  100
AcDbEntity
  8
Layer 1
  62
0
  100
AcDb2dVertex
  10
6.23964
  20
13.56521
  30
0.00000
  42
-0.2258
  70
32
  0
VERTEX
  5
5CD
  100
AcDbEntity
  8
Layer 1
  62
0
  100
AcDb2dVertex
  10
6.26434
  20
13.51786
  30
0.00000
  42
0.0166
  70
32
  0
VERTEX
  5
5CE
  100
AcDbEntity
  8
Layer 1
  62
0
  100
AcDb2dVertex
  10
6.26134
  20
13.44731
  30
0.00000
  42
0.0742
  70
32
  0
VERTEX
  5
5CF
  100
AcDbEntity
  8
Layer 1
  62
0
  100
AcDb2dVertex
  10
6.26169
  20
13.35471
  30
0.00000
  42
0.2856
  70
32
  0
VERTEX
  5
5D0
  100
AcDbEntity
  8
Layer 1
  62
0
  100
AcDb2dVertex
  10
6.30879
  20
13.31876
  30
0.00000
  70
32
  0
VERTEX
  5
5D1
  100
AcDbEntity
  8
Layer 1
  62
0
  100
AcDb2dVertex
  10
6.61324
  20
13.30526
  30
0.00000
  42
-0.2190
  70
32
  0
VERTEX
  5
5D2
  100
AcDbEntity
  8
Layer 1
  62
0
  100
AcDb2dVertex
  10
6.69389
  20
13.26716
  30
0.00000
  42
-0.2196
  70
32
  0
VERTEX
  5
5D3
  100
AcDbEntity
  8
Layer 1
  62
0
  100
AcDb2dVertex
  10
6.70084
  20
13.24176
  30
0.00000
  42
-0.1088
  70
32
  0
VERTEX
  5
5D4
  100
AcDbEntity
  8
Layer 1
  62
0
  100
AcDb2dVertex
  10
6.68164
  20
13.19416
  30
0.00000
  42
0.1555
  70
32
  0
VERTEX
  5
5D5
  100
AcDbEntity
  8
Layer 1
  62
0
  100
AcDb2dVertex
  10
6.66584
  20
13.14146
  30
0.00000
  42
0.2182
  70
32
  0
VERTEX
  5
5D6
  100
AcDbEntity
  8
Layer 1
  62
0
  100
AcDb2dVertex
  10
6.68309
  20
13.10541
  30
0.00000
  42
-0.0053
  70
32
  0
VERTEX
  5
5D7
  100
AcDbEntity
  8
Layer 1
  62
0
  100
AcDb2dVertex
  10
6.79554
  20
13.02331
  30
0.00000
  42
-0.1476
  70
32
  0
VERTEX
  5
5D8
  100
AcDbEntity
  8
Layer 1
  62
0
  100
AcDb2dVertex
  10
6.83369
  20
12.97621
  30
0.00000
  42
-0.2583
  70
32
  0
VERTEX
  5
5D9
  100
AcDbEntity
  8
Layer 1
  62
0
  100
AcDb2dVertex
  10
6.83159
  20
12.93786
  30
0.00000
  42
-0.0053
  70
32
  0
VERTEX
  5
5DA
  100
AcDbEntity
  8
Layer 1
  62
0
  100
AcDb2dVertex
  10
6.77789
  20
12.89236
  30
0.00000
  42
0.2017
  70
32
  0
VERTEX
  5
5DB
  100
AcDbEntity
  8
Layer 1
  62
0
  100
AcDb2dVertex
  10
6.75569
  20
12.85291
  30
0.00000
  42
0.2421
  70
32
  0
VERTEX
  5
5DC
  100
AcDbEntity
  8
Layer 1
  62
0
  100
AcDb2dVertex
  10
6.78174
  20
12.81956
  30
0.00000
  70
32
  0
VERTEX
  5
5DD
  100
AcDbEntity
  8
Layer 1
  62
0
  100
AcDb2dVertex
  10
7.00084
  20
12.73041
  30
0.00000
  42
0.2649
  70
32
  0
VERTEX
  5
5DE
  100
AcDbEntity
  8
Layer 1
  62
0
  100
AcDb2dVertex
  10
7.09214
  20
12.72666
  30
0.00000
  42
-0.2387
  70
32
  0
VERTEX
  5
5DF
  100
AcDbEntity
  8
Layer 1
  62
0
  100
AcDb2dVertex
  10
11.07874
  20
12.97481
  30
0.00000
  42
-0.2611
  70
32
  0
VERTEX
  5
5E0
  100
AcDbEntity
  8
Layer 1
  62
0
  100
AcDb2dVertex
  10
13.80459
  20
9.50096
  30
0.00000
  42
0.1311
  70
32
  0
VERTEX
  5
5E1
  100
AcDbEntity
  8
Layer 1
  62
0
  100
AcDb2dVertex
  10
13.86024
  20
9.31706
  30
0.00000
  42
-0.0312
  70
32
  0
VERTEX
  5
5E2
  100
AcDbEntity
  8
Layer 1
  62
0
  100
AcDb2dVertex
  10
13.98214
  20
9.15686
  30
0.00000
  42
0.0514
  70
32
  0
VERTEX
  5
5E3
  100
AcDbEntity
  8
Layer 1
  62
0
  100
AcDb2dVertex
  10
14.04264
  20
9.07656
  30
0.00000
  42
-0.0817
  70
32
  0
VERTEX
  5
5E4
  100
AcDbEntity
  8
Layer 1
  62
0
  100
AcDb2dVertex
  10
14.24834
  20
8.89446
  30
0.00000
  42
-0.0384
  70
32
  0
VERTEX
  5
5E5
  100
AcDbEntity
  8
Layer 1
  62
0
  100
AcDb2dVertex
  10
14.39559
  20
8.42591
  30
0.00000
  42
-0.1150
  70
32
  0
VERTEX
  5
5E6
  100
AcDbEntity
  8
Layer 1
  62
0
  100
AcDb2dVertex
  10
14.36809
  20
8.33331
  30
0.00000
  42
0.0917
  70
32
  0
VERTEX
  5
5E7
  100
AcDbEntity
  8
Layer 1
  62
0
  100
AcDb2dVertex
  10
14.34364
  20
8.24566
  30
0.00000
  42
0.0300
  70
32
  0
VERTEX
  5
5E8
  100
AcDbEntity
  8
Layer 1
  62
0
  100
AcDb2dVertex
  10
14.39679
  20
7.77441
  30
0.00000
  42
-0.2434
  70
32
  0
VERTEX
  5
5E9
  100
AcDbEntity
  8
Layer 1
  62
0
  100
AcDb2dVertex
  10
14.37554
  20
7.69926
  30
0.00000
  70
32
  0
VERTEX
  5
5EA
  100
AcDbEntity
  8
Layer 1
  62
0
  100
AcDb2dVertex
  10
14.35569
  20
7.68551
  30
0.00000
  42
-0.0067
  70
32
  0
VERTEX
  5
5EB
  100
AcDbEntity
  8
Layer 1
  62
0
  100
AcDb2dVertex
  10
14.32259
  20
7.65496
  30
0.00000
  42
0.2432
  70
32
  0
VERTEX
  5
5EC
  100
AcDbEntity
  8
Layer 1
  62
0
  100
AcDb2dVertex
  10
14.30774
  20
7.61491
  30
0.00000
  42
0.0061
  70
32
  0
VERTEX
  5
5ED
  100
AcDbEntity
  8
Layer 1
  62
0
  100
AcDb2dVertex
  10
14.36554
  20
7.01041
  30
0.00000
  42
-0.1152
  70
32
  0
VERTEX
  5
5EE
  100
AcDbEntity
  8
Layer 1
  62
0
  100
AcDb2dVertex
  10
14.35704
  20
6.95501
  30
0.00000
  42
-0.2963
  70
32
  0
VERTEX
  5
5EF
  100
AcDbEntity
  8
Layer 1
  62
0
  100
AcDb2dVertex
  10
14.29764
  20
6.93086
  30
0.00000
  42
0.1268
  70
32
  0
VERTEX
  5
5F0
  100
AcDbEntity
  8
Layer 1
  62
0
  100
AcDb2dVertex
  10
14.05294
  20
6.90656
  30
0.00000
  42
0.2526
  70
32
  0
VERTEX
  5
5F1
  100
AcDbEntity
  8
Layer 1
  62
0
  100
AcDb2dVertex
  10
13.99419
  20
6.83291
  30
0.00000
  42
0.0298
  70
32
  0
VERTEX
  5
5F2
  100
AcDbEntity
  8
Layer 1
  62
0
  100
AcDb2dVertex
  10
13.95374
  20
6.59571
  30
0.00000
  42
0.0737
  70
32
  0
VERTEX
  5
5F3
  100
AcDbEntity
  8
Layer 1
  62
0
  100
AcDb2dVertex
  10
14.12929
  20
5.60196
  30
0.00000
  42
-0.1214
  70
32
  0
VERTEX
  5
5F4
  100
AcDbEntity
  8
Layer 1
  62
0
  100
AcDb2dVertex
  10
14.15979
  20
5.47786
  30
0.00000
  42
-0.2209
  70
32
  0
VERTEX
  5
5F5
  100
AcDbEntity
  8
Layer 1
  62
0
  100
AcDb2dVertex
  10
14.13644
  20
5.43251
  30
0.00000
  42
-0.0596
  70
32
  0
VERTEX
  5
5F6
  100
AcDbEntity
  8
Layer 1
  62
0
  100
AcDb2dVertex
  10
14.09714
  20
5.40716
  30
0.00000
  42
0.0695
  70
32
  0
VERTEX
  5
5F7
  100
AcDbEntity
  8
Layer 1
  62
0
  100
AcDb2dVertex
  10
14.05194
  20
5.37681
  30
0.00000
  42
0.1589
  70
32
  0
VERTEX
  5
5F8
  100
AcDbEntity
  8
Layer 1
  62
0
  100
AcDb2dVertex
  10
14.02229
  20
5.32236
  30
0.00000
  42
0.0331
  70
32
  0
VERTEX
  5
5F9
  100
AcDbEntity
  8
Layer 1
  62
0
  100
AcDb2dVertex
  10
13.94449
  20
4.14631
  30
0.00000
  42
-0.1166
  70
32
  0
VERTEX
  5
5FA
  100
AcDbEntity
  8
Layer 1
  62
0
  100
AcDb2dVertex
  10
13.61039
  20
3.39486
  30
0.00000
  42
0.2678
  70
32
  0
VERTEX
  5
5FB
  100
AcDbEntity
  8
Layer 1
  62
0
  100
AcDb2dVertex
  10
13.58584
  20
3.19736
  30
0.00000
  42
-0.0549
  70
32
  0
VERTEX
  5
5FC
  100
AcDbEntity
  8
Layer 1
  62
0
  100
AcDb2dVertex
  10
13.61979
  20
3.06071
  30
0.00000
  42
-0.1806
  70
32
  0
VERTEX
  5
5FD
  100
AcDbEntity
  8
Layer 1
  62
0
  100
AcDb2dVertex
  10
13.60959
  20
3.00646
  30
0.00000
  42
-0.1707
  70
32
  0
VERTEX
  5
5FE
  100
AcDbEntity
  8
Layer 1
  62
0
  100
AcDb2dVertex
  10
13.56139
  20
2.98136
  30
0.00000
  42
0.0154
  70
32
  0
VERTEX
  5
5FF
  100
AcDbEntity
  8
Layer 1
  62
0
  100
AcDb2dVertex
  10
13.40879
  20
2.94186
  30
0.00000
  42
0.1424
  70
32
  0
VERTEX
  5
600
  100
AcDbEntity
  8
Layer 1
  62
0
  100
AcDb2dVertex
  10
13.36269
  20
2.91006
  30
0.00000
  42
0.0215
  70
32
  0
VERTEX
  5
601
  100
AcDbEntity
  8
Layer 1
  62
0
  100
AcDb2dVertex
  10
12.94044
  20
2.28361
  30
0.00000
  42
-0.2194
  70
32
  0
VERTEX
  5
602
  100
AcDbEntity
  8
Layer 1
  62
0
  100
AcDb2dVertex
  10
12.86594
  20
2.24706
  30
0.00000
  42
-0.0316
  70
32
  0
VERTEX
  5
603
  100
AcDbEntity
  8
Layer 1
  62
0
  100
AcDb2dVertex
  10
12.45659
  20
2.24846
  30
0.00000
  42
-0.4087
  70
32
  0
VERTEX
  5
604
  100
AcDbEntity
  8
Layer 1
  62
0
  100
AcDb2dVertex
  10
12.40229
  20
2.32561
  30
0.00000
  42
-0.0411
  70
32
  0
VERTEX
  5
605
  100
AcDbEntity
  8
Layer 1
  62
0
  100
AcDb2dVertex
  10
12.43119
  20
2.41811
  30
0.00000
  42
0.3304
  70
32
  0
VERTEX
  5
606
  100
AcDbEntity
  8
Layer 1
  62
0
  100
AcDb2dVertex
  10
12.41524
  20
2.46971
  30
0.00000
  42
-0.0445
  70
32
  0
VERTEX
  5
607
  100
AcDbEntity
  8
Layer 1
  62
0
  100
AcDb2dVertex
  10
12.35124
  20
2.51221
  30
0.00000
  42
0.3037
  70
32
  0
VERTEX
  5
608
  100
AcDbEntity
  8
Layer 1
  62
0
  100
AcDb2dVertex
  10
12.32859
  20
2.51266
  30
0.00000
  42
0.1471
  70
32
  0
VERTEX
  5
609
  100
AcDbEntity
  8
Layer 1
  62
0
  100
AcDb2dVertex
  10
12.30004
  20
2.47936
  30
0.00000
  70
32
  0
VERTEX
  5
60A
  100
AcDbEntity
  8
Layer 1
  62
0
  100
AcDb2dVertex
  10
12.22624
  20
2.30061
  30
0.00000
  42
-0.2176
  70
32
  0
VERTEX
  5
60B
  100
AcDbEntity
  8
Layer 1
  62
0
  100
AcDb2dVertex
  10
12.12289
  20
2.21076
  30
0.00000
  42
-0.0890
  70
32
  0
VERTEX
  5
60C
  100
AcDbEntity
  8
Layer 1
  62
0
  100
AcDb2dVertex
  10
11.63844
  20
2.17396
  30
0.00000
  42
-0.5335
  70
32
  0
VERTEX
  5
60D
  100
AcDbEntity
  8
Layer 1
  62
0
  100
AcDb2dVertex
  10
11.55794
  20
2.34476
  30
0.00000
  42
-0.1388
  70
32
  0
VERTEX
  5
60E
  100
AcDbEntity
  8
Layer 1
  62
0
  100
AcDb2dVertex
  10
11.63584
  20
2.41836
  30
0.00000
  42
0.0320
  70
32
  0
VERTEX
  5
60F
  100
AcDbEntity
  8
Layer 1
  62
0
  100
AcDb2dVertex
  10
11.73294
  20
2.48326
  30
0.00000
  42
0.1942
  70
32
  0
VERTEX
  5
610
  100
AcDbEntity
  8
Layer 1
  62
0
  100
AcDb2dVertex
  10
11.75299
  20
2.52801
  30
0.00000
  42
-0.0544
  70
32
  0
VERTEX
  5
611
  100
AcDbEntity
  8
Layer 1
  62
0
  100
AcDb2dVertex
  10
11.76714
  20
2.60211
  30
0.00000
  42
0.1196
  70
32
  0
VERTEX
  5
612
  100
AcDbEntity
  8
Layer 1
  62
0
  100
AcDb2dVertex
  10
11.90414
  20
3.04641
  30
0.00000
  42
-0.1208
  70
32
  0
VERTEX
  5
613
  100
AcDbEntity
  8
Layer 1
  62
0
  100
AcDb2dVertex
  10
11.97324
  20
3.59581
  30
0.00000
  70
32
  0
VERTEX
  5
614
  100
AcDbEntity
  8
Layer 1
  62
0
  100
AcDb2dVertex
  10
11.98914
  20
3.64546
  30
0.00000
  70
32
  0
VERTEX
  5
615
  100
AcDbEntity
  8
Layer 1
  62
0
  100
AcDb2dVertex
  10
11.97339
  20
3.74551
  30
0.00000
  42
-0.0382
  70
32
  0
VERTEX
  5
616
  100
AcDbEntity
  8
Layer 1
  62
0
  100
AcDb2dVertex
  10
11.94724
  20
3.99616
  30
0.00000
  42
0.0908
  70
32
  0
VERTEX
  5
617
  100
AcDbEntity
  8
Layer 1
  62
0
  100
AcDb2dVertex
  10
11.91934
  20
4.09541
  30
0.00000
  42
-0.0124
  70
32
  0
VERTEX
  5
618
  100
AcDbEntity
  8
Layer 1
  62
0
  100
AcDb2dVertex
  10
11.83649
  20
4.24526
  30
0.00000
  42
0.3338
  70
32
  0
VERTEX
  5
619
  100
AcDbEntity
  8
Layer 1
  62
0
  100
AcDb2dVertex
  10
11.63304
  20
4.33031
  30
0.00000
  70
32
  0
VERTEX
  5
61A
  100
AcDbEntity
  8
Layer 1
  62
0
  100
AcDb2dVertex
  10
11.58504
  20
4.31286
  30
0.00000
  42
-0.0632
  70
32
  0
VERTEX
  5
61B
  100
AcDbEntity
  8
Layer 1
  62
0
  100
AcDb2dVertex
  10
11.45739
  20
4.27821
  30
0.00000
  42
-0.1882
  70
32
  0
VERTEX
  5
61C
  100
AcDbEntity
  8
Layer 1
  62
0
  100
AcDb2dVertex
  10
11.40484
  20
4.29106
  30
0.00000
  42
-0.1237
  70
32
  0
VERTEX
  5
61D
  100
AcDbEntity
  8
Layer 1
  62
0
  100
AcDb2dVertex
  10
11.32194
  20
4.39416
  30
0.00000
  42
0.0150
  70
32
  0
VERTEX
  5
61E
  100
AcDbEntity
  8
Layer 1
  62
0
  100
AcDb2dVertex
  10
11.22704
  20
4.45061
  30
0.00000
  42
-0.2470
  70
32
  0
VERTEX
  5
61F
  100
AcDbEntity
  8
Layer 1
  62
0
  100
AcDb2dVertex
  10
11.19964
  20
4.52531
  30
0.00000
  42
-0.0491
  70
32
  0
VERTEX
  5
620
  100
AcDbEntity
  8
Layer 1
  62
0
  100
AcDb2dVertex
  10
11.24944
  20
4.68991
  30
0.00000
  42
0.0740
  70
32
  0
VERTEX
  5
621
  100
AcDbEntity
  8
Layer 1
  62
0
  100
AcDb2dVertex
  10
11.28634
  20
4.79551
  30
0.00000
  42
0.3139
  70
32
  0
VERTEX
  5
622
  100
AcDbEntity
  8
Layer 1
  62
0
  100
AcDb2dVertex
  10
11.27414
  20
4.81771
  30
0.00000
  42
0.2396
  70
32
  0
VERTEX
  5
623
  100
AcDbEntity
  8
Layer 1
  62
0
  100
AcDb2dVertex
  10
11.24239
  20
4.81736
  30
0.00000
  70
32
  0
VERTEX
  5
624
  100
AcDbEntity
  8
Layer 1
  62
0
  100
AcDb2dVertex
  10
11.15719
  20
4.76091
  30
0.00000
  42
0.1536
  70
32
  0
VERTEX
  5
625
  100
AcDbEntity
  8
Layer 1
  62
0
  100
AcDb2dVertex
  10
11.11784
  20
4.71586
  30
0.00000
  70
32
  0
VERTEX
  5
626
  100
AcDbEntity
  8
Layer 1
  62
0
  100
AcDb2dVertex
  10
11.10899
  20
4.68226
  30
0.00000
  42
-0.0664
  70
32
  0
VERTEX
  5
627
  100
AcDbEntity
  8
Layer 1
  62
0
  100
AcDb2dVertex
  10
11.08494
  20
4.58026
  30
0.00000
  42
-0.2574
  70
32
  0
VERTEX
  5
628
  100
AcDbEntity
  8
Layer 1
  62
0
  100
AcDb2dVertex
  10
11.04954
  20
4.55286
  30
0.00000
  70
32
  0
VERTEX
  5
629
  100
AcDbEntity
  8
Layer 1
  62
0
  100
AcDb2dVertex
  10
11.02514
  20
4.55506
  30
0.00000
  42
-0.0290
  70
32
  0
VERTEX
  5
62A
  100
AcDbEntity
  8
Layer 1
  62
0
  100
AcDb2dVertex
  10
10.97669
  20
4.55601
  30
0.00000
  42
0.3174
  70
32
  0
VERTEX
  5
62B
  100
AcDbEntity
  8
Layer 1
  62
0
  100
AcDb2dVertex
  10
10.91584
  20
4.51671
  30
0.00000
  42
0.0305
  70
32
  0
VERTEX
  5
62C
  100
AcDbEntity
  8
Layer 1
  62
0
  100
AcDb2dVertex
  10
10.85009
  20
4.30431
  30
0.00000
  42
-0.2435
  70
32
  0
VERTEX
  5
62D
  100
AcDbEntity
  8
Layer 1
  62
0
  100
AcDb2dVertex
  10
10.75039
  20
4.14316
  30
0.00000
  42
-0.5508
  70
32
  0
VERTEX
  5
62E
  100
AcDbEntity
  8
Layer 1
  62
0
  100
AcDb2dVertex
  10
10.68699
  20
4.17416
  30
0.00000
  70
32
  0
VERTEX
  5
62F
  100
AcDbEntity
  8
Layer 1
  62
0
  100
AcDb2dVertex
  10
10.68944
  20
4.19946
  30
0.00000
  42
0.0515
  70
32
  0
VERTEX
  5
630
  100
AcDbEntity
  8
Layer 1
  62
0
  100
AcDb2dVertex
  10
10.70539
  20
4.30271
  30
0.00000
  42
0.1253
  70
32
  0
VERTEX
  5
631
  100
AcDbEntity
  8
Layer 1
  62
0
  100
AcDb2dVertex
  10
10.65249
  20
4.71546
  30
0.00000
  70
32
  0
VERTEX
  5
632
  100
AcDbEntity
  8
Layer 1
  62
0
  100
AcDb2dVertex
  10
10.63354
  20
4.74006
  30
0.00000
  42
0.2183
  70
32
  0
VERTEX
  5
633
  100
AcDbEntity
  8
Layer 1
  62
0
  100
AcDb2dVertex
  10
10.60569
  20
4.74271
  30
0.00000
  42
0.1250
  70
32
  0
VERTEX
  5
634
  100
AcDbEntity
  8
Layer 1
  62
0
  100
AcDb2dVertex
  10
10.56609
  20
4.71651
  30
0.00000
  42
0.0085
  70
32
  0
VERTEX
  5
635
  100
AcDbEntity
  8
Layer 1
  62
0
  100
AcDb2dVertex
  10
10.51694
  20
4.65871
  30
0.00000
  42
-0.2844
  70
32
  0
VERTEX
  5
636
  100
AcDbEntity
  8
Layer 1
  62
0
  100
AcDb2dVertex
  10
10.44904
  20
4.64321
  30
0.00000
  42
0.0204
  70
32
  0
VERTEX
  5
637
  100
AcDbEntity
  8
Layer 1
  62
0
  100
AcDb2dVertex
  10
10.33099
  20
4.67656
  30
0.00000
  42
-0.1188
  70
32
  0
VERTEX
  5
638
  100
AcDbEntity
  8
Layer 1
  62
0
  100
AcDb2dVertex
  10
10.24714
  20
4.73251
  30
0.00000
  42
0.2486
  70
32
  0
VERTEX
  5
639
  100
AcDbEntity
  8
Layer 1
  62
0
  100
AcDb2dVertex
  10
10.22334
  20
4.73591
  30
0.00000
  42
0.1733
  70
32
  0
VERTEX
  5
63A
  100
AcDbEntity
  8
Layer 1
  62
0
  100
AcDb2dVertex
  10
10.19759
  20
4.71466
  30
0.00000
  42
0.0573
  70
32
  0
VERTEX
  5
63B
  100
AcDbEntity
  8
Layer 1
  62
0
  100
AcDb2dVertex
  10
10.15289
  20
4.59261
  30
0.00000
  42
-0.0545
  70
32
  0
VERTEX
  5
63C
  100
AcDbEntity
  8
Layer 1
  62
0
  100
AcDb2dVertex
  10
10.00139
  20
4.22876
  30
0.00000
  42
-0.1286
  70
32
  0
VERTEX
  5
63D
  100
AcDbEntity
  8
Layer 1
  62
0
  100
AcDb2dVertex
  10
9.95654
  20
4.18466
  30
0.00000
  42
-0.3172
  70
32
  0
VERTEX
  5
63E
  100
AcDbEntity
  8
Layer 1
  62
0
  100
AcDb2dVertex
  10
9.91859
  20
4.18666
  30
0.00000
  42
-0.1836
  70
32
  0
VERTEX
  5
63F
  100
AcDbEntity
  8
Layer 1
  62
0
  100
AcDb2dVertex
  10
9.90274
  20
4.22761
  30
0.00000
  42
0.1293
  70
32
  0
VERTEX
  5
640
  100
AcDbEntity
  8
Layer 1
  62
0
  100
AcDb2dVertex
  10
9.83849
  20
4.51421
  30
0.00000
  42
0.3100
  70
32
  0
VERTEX
  5
641
  100
AcDbEntity
  8
Layer 1
  62
0
  100
AcDb2dVertex
  10
9.81579
  20
4.52211
  30
0.00000
  42
0.1566
  70
32
  0
VERTEX
  5
642
  100
AcDbEntity
  8
Layer 1
  62
0
  100
AcDb2dVertex
  10
9.77854
  20
4.49786
  30
0.00000
  42
0.0358
  70
32
  0
VERTEX
  5
643
  100
AcDbEntity
  8
Layer 1
  62
0
  100
AcDb2dVertex
  10
9.74214
  20
4.43421
  30
0.00000
  42
-0.0663
  70
32
  0
VERTEX
  5
644
  100
AcDbEntity
  8
Layer 1
  62
0
  100
AcDb2dVertex
  10
9.68809
  20
4.34081
  30
0.00000
  42
-0.1876
  70
32
  0
VERTEX
  5
645
  100
AcDbEntity
  8
Layer 1
  62
0
  100
AcDb2dVertex
  10
9.64599
  20
4.31916
  30
0.00000
  42
-0.0152
  70
32
  0
VERTEX
  5
646
  100
AcDbEntity
  8
Layer 1
  62
0
  100
AcDb2dVertex
  10
9.55834
  20
4.32001
  30
0.00000
  42
0.1816
  70
32
  0
VERTEX
  5
647
  100
AcDbEntity
  8
Layer 1
  62
0
  100
AcDb2dVertex
  10
9.51154
  20
4.30611
  30
0.00000
  42
0.0961
  70
32
  0
VERTEX
  5
648
  100
AcDbEntity
  8
Layer 1
  62
0
  100
AcDb2dVertex
  10
9.47434
  20
4.24391
  30
0.00000
  42
-0.0214
  70
32
  0
VERTEX
  5
649
  100
AcDbEntity
  8
Layer 1
  62
0
  100
AcDb2dVertex
  10
9.35769
  20
3.94681
  30
0.00000
  42
0.0758
  70
32
  0
VERTEX
  5
64A
  100
AcDbEntity
  8
Layer 1
  62
0
  100
AcDb2dVertex
  10
9.31419
  20
3.84891
  30
0.00000
  42
0.1952
  70
32
  0
VERTEX
  5
64B
  100
AcDbEntity
  8
Layer 1
  62
0
  100
AcDb2dVertex
  10
9.34224
  20
3.74826
  30
0.00000
  42
0.0549
  70
32
  0
VERTEX
  5
64C
  100
AcDbEntity
  8
Layer 1
  62
0
  100
AcDb2dVertex
  10
10.16894
  20
2.83871
  30
0.00000
  42
0.0097
  70
32
  0
VERTEX
  5
64D
  100
AcDbEntity
  8
Layer 1
  62
0
  100
AcDb2dVertex
  10
10.97619
  20
2.15071
  30
0.00000
  42
-0.0823
  70
32
  0
VERTEX
  5
64E
  100
AcDbEntity
  8
Layer 1
  62
0
  100
AcDb2dVertex
  10
11.17664
  20
1.94976
  30
0.00000
  42
-0.2019
  70
32
  0
VERTEX
  5
64F
  100
AcDbEntity
  8
Layer 1
  62
0
  100
AcDb2dVertex
  10
11.19934
  20
1.84841
  30
0.00000
  42
-0.3295
  70
32
  0
VERTEX
  5
650
  100
AcDbEntity
  8
Layer 1
  62
0
  100
AcDb2dVertex
  10
11.04304
  20
1.74301
  30
0.00000
  42
-0.0612
  70
32
  0
VERTEX
  5
651
  100
AcDbEntity
  8
Layer 1
  62
0
  100
AcDb2dVertex
  10
10.07719
  20
2.17396
  30
0.00000
  42
-0.0469
  70
32
  0
VERTEX
  5
652
  100
AcDbEntity
  8
Layer 1
  62
0
  100
AcDb2dVertex
  10
9.08794
  20
3.14836
  30
0.00000
  42
0.1083
  70
32
  0
VERTEX
  5
653
  100
AcDbEntity
  8
Layer 1
  62
0
  100
AcDb2dVertex
  10
8.98499
  20
3.23691
  30
0.00000
  42
0.2673
  70
32
  0
VERTEX
  5
654
  100
AcDbEntity
  8
Layer 1
  62
0
  100
AcDb2dVertex
  10
8.93739
  20
3.23296
  30
0.00000
  42
0.1122
  70
32
  0
VERTEX
  5
655
  100
AcDbEntity
  8
Layer 1
  62
0
  100
AcDb2dVertex
  10
8.90444
  20
3.18466
  30
0.00000
  42
-0.2208
  70
32
  0
VERTEX
  5
656
  100
AcDbEntity
  8
Layer 1
  62
0
  100
AcDb2dVertex
  10
8.82694
  20
3.10911
  30
0.00000
  42
0.3080
  70
32
  0
VERTEX
  5
657
  100
AcDbEntity
  8
Layer 1
  62
0
  100
AcDb2dVertex
  10
8.76014
  20
3.03221
  30
0.00000
  70
32
  0
VERTEX
  5
658
  100
AcDbEntity
  8
Layer 1
  62
0
  100
AcDb2dVertex
  10
8.75364
  20
2.89536
  30
0.00000
  42
0.0199
  70
32
  0
VERTEX
  5
659
  100
AcDbEntity
  8
Layer 1
  62
0
  100
AcDb2dVertex
  10
8.73224
  20
2.61236
  30
0.00000
  42
-0.0124
  70
32
  0
VERTEX
  5
65A
  100
AcDbEntity
  8
Layer 1
  62
0
  100
AcDb2dVertex
  10
8.74319
  20
2.54716
  30
0.00000
  42
-0.4320
  70
32
  0
VERTEX
  5
65B
  100
AcDbEntity
  8
Layer 1
  62
0
  100
AcDb2dVertex
  10
8.70019
  20
2.49646
  30
0.00000
  42
-0.1041
  70
32
  0
VERTEX
  5
65C
  100
AcDbEntity
  8
Layer 1
  62
0
  100
AcDb2dVertex
  10
8.65634
  20
2.50276
  30
0.00000
  42
0.0764
  70
32
  0
VERTEX
  5
65D
  100
AcDbEntity
  8
Layer 1
  62
0
  100
AcDb2dVertex
  10
8.62429
  20
2.50916
  30
0.00000
  42
0.2270
  70
32
  0
VERTEX
  5
65E
  100
AcDbEntity
  8
Layer 1
  62
0
  100
AcDb2dVertex
  10
8.58194
  20
2.49071
  30
0.00000
  42
0.1158
  70
32
  0
VERTEX
  5
65F
  100
AcDbEntity
  8
Layer 1
  62
0
  100
AcDb2dVertex
  10
8.55484
  20
2.43351
  30
0.00000
  42
0.0344
  70
32
  0
VERTEX
  5
660
  100
AcDbEntity
  8
Layer 1
  62
0
  100
AcDb2dVertex
  10
8.53149
  20
2.21011
  30
0.00000
  42
-0.1996
  70
32
  0
VERTEX
  5
661
  100
AcDbEntity
  8
Layer 1
  62
0
  100
AcDb2dVertex
  10
8.38824
  20
2.01721
  30
0.00000
  42
-0.3106
  70
32
  0
VERTEX
  5
662
  100
AcDbEntity
  8
Layer 1
  62
0
  100
AcDb2dVertex
  10
8.26569
  20
1.98776
  30
0.00000
  42
0.0152
  70
32
  0
VERTEX
  5
663
  100
AcDbEntity
  8
Layer 1
  62
0
  100
AcDb2dVertex
  10
8.17444
  20
2.01311
  30
0.00000
  42
0.1161
  70
32
  0
VERTEX
  5
664
  100
AcDbEntity
  8
Layer 1
  62
0
  100
AcDb2dVertex
  10
7.39024
  20
1.94216
  30
0.00000
  42
-0.1504
  70
32
  0
VERTEX
  5
665
  100
AcDbEntity
  8
Layer 1
  62
0
  100
AcDb2dVertex
  10
7.34649
  20
1.94086
  30
0.00000
  42
-0.0798
  70
32
  0
VERTEX
  5
666
  100
AcDbEntity
  8
Layer 1
  62
0
  100
AcDb2dVertex
  10
7.19389
  20
2.01661
  30
0.00000
  42
-0.4232
  70
32
  0
VERTEX
  5
667
  100
AcDbEntity
  8
Layer 1
  62
0
  100
AcDb2dVertex
  10
7.16319
  20
2.18921
  30
0.00000
  42
-0.0888
  70
32
  0
VERTEX
  5
668
  100
AcDbEntity
  8
Layer 1
  62
0
  100
AcDb2dVertex
  10
7.24704
  20
2.28051
  30
0.00000
  42
0.2013
  70
32
  0
VERTEX
  5
669
  100
AcDbEntity
  8
Layer 1
  62
0
  100
AcDb2dVertex
  10
7.27374
  20
2.32436
  30
0.00000
  42
-0.0737
  70
32
  0
VERTEX
  5
66A
  100
AcDbEntity
  8
Layer 1
  62
0
  100
AcDb2dVertex
  10
7.24739
  20
2.64056
  30
0.00000
  42
0.2371
  70
32
  0
VERTEX
  5
66B
  100
AcDbEntity
  8
Layer 1
  62
0
  100
AcDb2dVertex
  10
7.19409
  20
2.77756
  30
0.00000
  42
-0.2137
  70
32
  0
VERTEX
  5
66C
  100
AcDbEntity
  8
Layer 1
  62
0
  100
AcDb2dVertex
  10
7.09849
  20
3.04646
  30
0.00000
  42
0.1262
  70
32
  0
VERTEX
  5
66D
  100
AcDbEntity
  8
Layer 1
  62
0
  100
AcDb2dVertex
  10
7.05344
  20
3.33766
  30
0.00000
  42
0.2129
  70
32
  0
VERTEX
  5
66E
  100
AcDbEntity
  8
Layer 1
  62
0
  100
AcDb2dVertex
  10
7.02124
  20
3.36296
  30
0.00000
  42
-0.0164
  70
32
  0
VERTEX
  5
66F
  100
AcDbEntity
  8
Layer 1
  62
0
  100
AcDb2dVertex
  10
6.95229
  20
3.35866
  30
0.00000
  42
-0.1018
  70
32
  0
VERTEX
  5
670
  100
AcDbEntity
  8
Layer 1
  62
0
  100
AcDb2dVertex
  10
6.90399
  20
3.36391
  30
0.00000
  70
32
  0
VERTEX
  5
671
  100
AcDbEntity
  8
Layer 1
  62
0
  100
AcDb2dVertex
  10
6.86339
  20
3.40021
  30
0.00000
  42
0.0987
  70
32
  0
VERTEX
  5
672
  100
AcDbEntity
  8
Layer 1
  62
0
  100
AcDb2dVertex
  10
6.75289
  20
3.48061
  30
0.00000
  42
-0.2374
  70
32
  0
VERTEX
  5
673
  100
AcDbEntity
  8
Layer 1
  62
0
  100
AcDb2dVertex
  10
6.70734
  20
3.55846
  30
0.00000
  70
32
  0
VERTEX
  5
674
  100
AcDbEntity
  8
Layer 1
  62
0
  100
AcDb2dVertex
  10
6.69669
  20
3.73301
  30
0.00000
  42
0.1681
  70
32
  0
VERTEX
  5
675
  100
AcDbEntity
  8
Layer 1
  62
0
  100
AcDb2dVertex
  10
6.67239
  20
3.78686
  30
0.00000
  70
32
  0
VERTEX
  5
676
  100
AcDbEntity
  8
Layer 1
  62
0
  100
AcDb2dVertex
  10
6.65064
  20
3.79776
  30
0.00000
  70
32
  0
VERTEX
  5
677
  100
AcDbEntity
  8
Layer 1
  62
0
  100
AcDb2dVertex
  10
6.58529
  20
3.82166
  30
0.00000
  42
-0.2699
  70
32
  0
VERTEX
  5
678
  100
AcDbEntity
  8
Layer 1
  62
0
  100
AcDb2dVertex
  10
6.55194
  20
3.87736
  30
0.00000
  42
0.0100
  70
32
  0
VERTEX
  5
679
  100
AcDbEntity
  8
Layer 1
  62
0
  100
AcDb2dVertex
  10
6.54294
  20
4.08406
  30
0.00000
  42
0.1617
  70
32
  0
VERTEX
  5
67A
  100
AcDbEntity
  8
Layer 1
  62
0
  100
AcDb2dVertex
  10
6.49384
  20
4.17751
  30
0.00000
  42
-0.1053
  70
32
  0
VERTEX
  5
67B
  100
AcDbEntity
  8
Layer 1
  62
0
  100
AcDb2dVertex
  10
6.41999
  20
4.29721
  30
0.00000
  42
-0.0458
  70
32
  0
VERTEX
  5
67C
  100
AcDbEntity
  8
Layer 1
  62
0
  100
AcDb2dVertex
  10
6.38979
  20
4.58446
  30
0.00000
  42
0.1245
  70
32
  0
VERTEX
  5
67D
  100
AcDbEntity
  8
Layer 1
  62
0
  100
AcDb2dVertex
  10
6.36989
  20
4.64576
  30
0.00000
  42
0.3641
  70
32
  0
VERTEX
  5
67E
  100
AcDbEntity
  8
Layer 1
  62
0
  100
AcDb2dVertex
  10
6.29739
  20
4.66351
  30
0.00000
  42
-0.0425
  70
32
  0
VERTEX
  5
67F
  100
AcDbEntity
  8
Layer 1
  62
0
  100
AcDb2dVertex
  10
6.20424
  20
4.62806
  30
0.00000
  42
-0.2352
  70
32
  0
VERTEX
  5
680
  100
AcDbEntity
  8
Layer 1
  62
0
  100
AcDb2dVertex
  10
6.12819
  20
4.65071
  30
0.00000
  70
32
  0
VERTEX
  5
681
  100
AcDbEntity
  8
Layer 1
  62
0
  100
AcDb2dVertex
  10
6.10874
  20
4.67606
  30
0.00000
  42
0.1236
  70
32
  0
VERTEX
  5
682
  100
AcDbEntity
  8
Layer 1
  62
0
  100
AcDb2dVertex
  10
6.00589
  20
4.78011
  30
0.00000
  42
-0.1709
  70
32
  0
VERTEX
  5
683
  100
AcDbEntity
  8
Layer 1
  62
0
  100
AcDb2dVertex
  10
5.95769
  20
4.85826
  30
0.00000
  42
0.0212
  70
32
  0
VERTEX
  5
684
  100
AcDbEntity
  8
Layer 1
  62
0
  100
AcDb2dVertex
  10
5.93644
  20
4.94386
  30
0.00000
  42
0.2288
  70
32
  0
VERTEX
  5
685
  100
AcDbEntity
  8
Layer 1
  62
0
  100
AcDb2dVertex
  10
5.82779
  20
5.03801
  30
0.00000
  70
32
  0
VERTEX
  5
686
  100
AcDbEntity
  8
Layer 1
  62
0
  100
AcDb2dVertex
  10
5.77654
  20
5.04736
  30
0.00000
  42
0.0382
  70
32
  0
VERTEX
  5
687
  100
AcDbEntity
  8
Layer 1
  62
0
  100
AcDb2dVertex
  10
5.52629
  20
5.08591
  30
0.00000
  70
32
  0
VERTEX
  5
688
  100
AcDbEntity
  8
Layer 1
  62
0
  100
AcDb2dVertex
  10
3.63344
  20
5.36151
  30
0.00000
  42
0.1208
  70
32
  0
VERTEX
  5
689
  100
AcDbEntity
  8
Layer 1
  62
0
  100
AcDb2dVertex
  10
3.53574
  20
5.36231
  30
0.00000
  42
0.2443
  70
32
  0
VERTEX
  5
68A
  100
AcDbEntity
  8
Layer 1
  62
0
  100
AcDb2dVertex
  10
3.51034
  20
5.33751
  30
0.00000
  42
0.0740
  70
32
  0
VERTEX
  5
68B
  100
AcDbEntity
  8
Layer 1
  62
0
  100
AcDb2dVertex
  10
3.50269
  20
5.28236
  30
0.00000
  42
-0.0791
  70
32
  0
VERTEX
  5
68C
  100
AcDbEntity
  8
Layer 1
  62
0
  100
AcDb2dVertex
  10
3.15999
  20
4.19721
  30
0.00000
  70
32
  0
SEQEND
  5
68D
  100
AcDbEntity
  8
Layer 1
  62
0
 0
ENDSEC
 0
EOF
