  0
SECTION
  2
HEADER
  9
$ACADVER
  1
AC1015
  9
$ACADMAINTVER
 70
     6
  9
$DWGCODEPAGE
  3
ANSI_1252
  9
$INSBASE
 10
0.0
 20
0.0
 30
0.0
  9
$EXTMIN
 10
1.000000E+20
 20
1.000000E+20
 30
1.000000E+20
  9
$EXTMAX
 10
-1.000000E+20
 20
-1.000000E+20
 30
-1.000000E+20
  9
$LIMMIN
 10
0.0
 20
0.0
  9
$LIMMAX
 10
420.0
 20
297.0
  9
$ORTHOMODE
 70
     0
  9
$REGENMODE
 70
     1
  9
$FILLMODE
 70
     1
  9
$QTEXTMODE
 70
     0
  9
$MIRRTEXT
 70
     1
  9
$LTSCALE
 40
1.0
  9
$ATTMODE
 70
     1
  9
$TEXTSIZE
 40
2.5
  9
$TRACEWID
 40
1.0
  9
$TEXTSTYLE
  7
Standard
  9
$CLAYER
  8
0
  9
$CELTYPE
  6
ByLayer
  9
$CECOLOR
 62
   256
  9
$CELTSCALE
 40
1.0
  9
$DISPSILH
 70
     0
  9
$DIMSCALE
 40
1.0
  9
$DIMASZ
 40
2.5
  9
$DIMEXO
 40
0.625
  9
$DIMDLI
 40
3.75
  9
$DIMRND
 40
0.0
  9
$DIMDLE
 40
0.0
  9
$DIMEXE
 40
1.25
  9
$DIMTP
 40
0.0
  9
$DIMTM
 40
0.0
  9
$DIMTXT
 40
2.5
  9
$DIMCEN
 40
2.5
  9
$DIMTSZ
 40
0.0
  9
$DIMTOL
 70
     0
  9
$DIMLIM
 70
     0
  9
$DIMTIH
 70
     0
  9
$DIMTOH
 70
     0
  9
$DIMSE1
 70
     0
  9
$DIMSE2
 70
     0
  9
$DIMTAD
 70
     1
  9
$DIMZIN
 70
     8
  9
$DIMBLK
  1

  9
$DIMASO
 70
     1
  9
$DIMSHO
 70
     1
  9
$DIMPOST
  1

  9
$DIMAPOST
  1

  9
$DIMALT
 70
     0
  9
$DIMALTD
 70
     3
  9
$DIMALTF
 40
0.03937
  9
$DIMLFAC
 40
1.0
  9
$DIMTOFL
 70
     1
  9
$DIMTVP
 40
0.0
  9
$DIMTIX
 70
     0
  9
$DIMSOXD
 70
     0
  9
$DIMSAH
 70
     0
  9
$DIMBLK1
  1

  9
$DIMBLK2
  1

  9
$DIMSTYLE
  2
ISO-25
  9
$DIMCLRD
 70
     0
  9
$DIMCLRE
 70
     0
  9
$DIMCLRT
 70
     0
  9
$DIMTFAC
 40
1.0
  9
$DIMGAP
 40
0.625
  9
$DIMJUST
 70
     0
  9
$DIMSD1
 70
     0
  9
$DIMSD2
 70
     0
  9
$DIMTOLJ
 70
     0
  9
$DIMTZIN
 70
     8
  9
$DIMALTZ
 70
     0
  9
$DIMALTTZ
 70
     0
  9
$DIMUPT
 70
     0
  9
$DIMDEC
 70
     2
  9
$DIMTDEC
 70
     2
  9
$DIMALTU
 70
     2
  9
$DIMALTTD
 70
     3
  9
$DIMTXSTY
  7
Standard
  9
$DIMAUNIT
 70
     0
  9
$DIMADEC
 70
     0
  9
$DIMALTRND
 40
0.0
  9
$DIMAZIN
 70
     0
  9
$DIMDSEP
 70
    44
  9
$DIMATFIT
 70
     3
  9
$DIMFRAC
 70
     0
  9
$DIMLDRBLK
  1

  9
$DIMLUNIT
 70
     2
  9
$DIMLWD
 70
    -2
  9
$DIMLWE
 70
    -2
  9
$DIMTMOVE
 70
     0
  9
$LUNITS
 70
     2
  9
$LUPREC
 70
     4
  9
$SKETCHINC
 40
1.0
  9
$FILLETRAD
 40
10.0
  9
$AUNITS
 70
     0
  9
$AUPREC
 70
     0
  9
$MENU
  1
.
  9
$ELEVATION
 40
0.0
  9
$PELEVATION
 40
0.0
  9
$THICKNESS
 40
0.0
  9
$LIMCHECK
 70
     0
  9
$CHAMFERA
 40
10.0
  9
$CHAMFERB
 40
10.0
  9
$CHAMFERC
 40
20.0
  9
$CHAMFERD
 40
0.0
  9
$SKPOLY
 70
     0
  9
$TDCREATE
 40
2455231.95597875
  9
$TDUCREATE
 40
2455231.414312083
  9
$TDUPDATE
 40
2455231.955978761
  9
$TDUUPDATE
 40
2455231.414312095
  9
$TDINDWG
 40
0.0000000116
  9
$TDUSRTIMER
 40
0.0000000116
  9
$USRTIMER
 70
     1
  9
$ANGBASE
 50
0.0
  9
$ANGDIR
 70
     0
  9
$PDMODE
 70
     3
  9
$PDSIZE
 40
-0.7
  9
$PLINEWID
 40
0.0
  9
$SPLFRAME
 70
     0
  9
$SPLINETYPE
 70
     6
  9
$SPLINESEGS
 70
     8
  9
$HANDSEED
  5
93
  9
$SURFTAB1
 70
     6
  9
$SURFTAB2
 70
     6
  9
$SURFTYPE
 70
     6
  9
$SURFU
 70
     6
  9
$SURFV
 70
     6
  9
$UCSBASE
  2

  9
$UCSNAME
  2

  9
$UCSORG
 10
0.0
 20
0.0
 30
0.0
  9
$UCSXDIR
 10
1.0
 20
0.0
 30
0.0
  9
$UCSYDIR
 10
0.0
 20
1.0
 30
0.0
  9
$UCSORTHOREF
  2

  9
$UCSORTHOVIEW
 70
     0
  9
$UCSORGTOP
 10
0.0
 20
0.0
 30
0.0
  9
$UCSORGBOTTOM
 10
0.0
 20
0.0
 30
0.0
  9
$UCSORGLEFT
 10
0.0
 20
0.0
 30
0.0
  9
$UCSORGRIGHT
 10
0.0
 20
0.0
 30
0.0
  9
$UCSORGFRONT
 10
0.0
 20
0.0
 30
0.0
  9
$UCSORGBACK
 10
0.0
 20
0.0
 30
0.0
  9
$PUCSBASE
  2

  9
$PUCSNAME
  2

  9
$PUCSORG
 10
0.0
 20
0.0
 30
0.0
  9
$PUCSXDIR
 10
1.0
 20
0.0
 30
0.0
  9
$PUCSYDIR
 10
0.0
 20
1.0
 30
0.0
  9
$PUCSORTHOREF
  2

  9
$PUCSORTHOVIEW
 70
     0
  9
$PUCSORGTOP
 10
0.0
 20
0.0
 30
0.0
  9
$PUCSORGBOTTOM
 10
0.0
 20
0.0
 30
0.0
  9
$PUCSORGLEFT
 10
0.0
 20
0.0
 30
0.0
  9
$PUCSORGRIGHT
 10
0.0
 20
0.0
 30
0.0
  9
$PUCSORGFRONT
 10
0.0
 20
0.0
 30
0.0
  9
$PUCSORGBACK
 10
0.0
 20
0.0
 30
0.0
  9
$USERI1
 70
     0
  9
$USERI2
 70
     0
  9
$USERI3
 70
     0
  9
$USERI4
 70
     0
  9
$USERI5
 70
     0
  9
$USERR1
 40
0.0
  9
$USERR2
 40
0.0
  9
$USERR3
 40
0.0
  9
$USERR4
 40
0.0
  9
$USERR5
 40
0.0
  9
$WORLDVIEW
 70
     1
  9
$SHADEDGE
 70
     3
  9
$SHADEDIF
 70
    70
  9
$TILEMODE
 70
     1
  9
$MAXACTVP
 70
    64
  9
$PINSBASE
 10
0.0
 20
0.0
 30
0.0
  9
$PLIMCHECK
 70
     0
  9
$PEXTMIN
 10
1.000000E+20
 20
1.000000E+20
 30
1.000000E+20
  9
$PEXTMAX
 10
-1.000000E+20
 20
-1.000000E+20
 30
-1.000000E+20
  9
$PLIMMIN
 10
0.0
 20
0.0
  9
$PLIMMAX
 10
420.0
 20
297.0
  9
$UNITMODE
 70
     0
  9
$VISRETAIN
 70
     1
  9
$PLINEGEN
 70
     0
  9
$PSLTSCALE
 70
     1
  9
$TREEDEPTH
 70
  3020
  9
$CMLSTYLE
  2
Standard
  9
$CMLJUST
 70
     1
  9
$CMLSCALE
 40
1.0
  9
$PROXYGRAPHICS
 70
     1
  9
$MEASUREMENT
 70
     1
  9
$CELWEIGHT
370
    -1
  9
$ENDCAPS
280
     0
  9
$JOINSTYLE
280
     0
  9
$LWDISPLAY
290
     0
  9
$INSUNITS
 70
     4
  9
$HYPERLINKBASE
  1

  9
$STYLESHEET
  1

  9
$XEDIT
290
     1
  9
$CEPSNTYPE
380
     0
  9
$PSTYLEMODE
290
     1
  9
$FINGERPRINTGUID
  2
{FAEB1C30-E019-11D5-929B-00C0DF256EC4}
  9
$VERSIONGUID
  2
{FAEB1C32-E019-11D5-929B-00C0DF256EC4}
  9
$EXTNAMES
290
     1
  9
$PSVPSCALE
 40
0.0
  9
$OLESTARTUP
290
     0
  0
ENDSEC
  0
SECTION
  2
CLASSES
  0
CLASS
  1
ACDBDICTIONARYWDFLT
  2
AcDbDictionaryWithDefault
  3
ObjectDBX Classes
 90
        0
280
     0
281
     0
  0
CLASS
  1
ACDBPLACEHOLDER
  2
AcDbPlaceHolder
  3
ObjectDBX Classes
 90
        0
280
     0
281
     0
  0
CLASS
  1
LAYOUT
  2
AcDbLayout
  3
ObjectDBX Classes
 90
        0
280
     0
281
     0
  0
ENDSEC
  0
SECTION
  2
TABLES
  0
TABLE
  2
VPORT
  5
8
330
0
100
AcDbSymbolTable
 70
     2
  0
VPORT
  5
29
330
8
100
AcDbSymbolTableRecord
100
AcDbViewportTableRecord
  2
*Active
 70
     0
 10
0.0
 20
0.0
 11
1.0
 21
1.0
 12
50.0
 22
50.0
 13
0.0
 23
0.0
 14
10.0
 24
10.0
 15
10.0
 25
10.0
 16
0.0
 26
0.0
 36
1.0
 17
0.0
 27
0.0
 37
0.0
 40
103.921569
 41
1.0
 42
50.0
 43
0.0
 44
0.0
 50
0.0
 51
0.0
 71
     0
 72
   100
 73
     1
 74
     3
 75
     0
 76
     0
 77
     0
 78
     0
281
     0
 65
     1
110
0.0
120
0.0
130
0.0
111
1.0
121
0.0
131
0.0
112
0.0
122
1.0
132
0.0
 79
     0
146
0.0
  0
ENDTAB
  0
TABLE
  2
LTYPE
  5
5
330
0
100
AcDbSymbolTable
 70
     1
  0
LTYPE
  5
14
330
5
100
AcDbSymbolTableRecord
100
AcDbLinetypeTableRecord
  2
ByBlock
 70
     0
  3

 72
    65
 73
     0
 40
0.0
  0
LTYPE
  5
15
330
5
100
AcDbSymbolTableRecord
100
AcDbLinetypeTableRecord
  2
ByLayer
 70
     0
  3

 72
    65
 73
     0
 40
0.0
  0
LTYPE
  5
16
330
5
100
AcDbSymbolTableRecord
100
AcDbLinetypeTableRecord
  2
Continuous
 70
     0
  3

 72
    65
 73
     0
 40
0.0
  0
ENDTAB
  0
TABLE
  2
LAYER
  5
2
330
0
100
AcDbSymbolTable
 70
     1
  0
LAYER
  5
10
330
2
100
AcDbSymbolTableRecord
100
AcDbLayerTableRecord
  2
0
 70
     0
 62
     7
  6
Continuous
370
    -3
390
F
  0
ENDTAB
  0
TABLE
  2
STYLE
  5
3
330
0
100
AcDbSymbolTable
 70
     1
  0
STYLE
  5
11
330
3
100
AcDbSymbolTableRecord
100
AcDbTextStyleTableRecord
  2
Standard
 70
     0
 40
1.0
 41
1.0
 50
0.0
 71
     0
 42
2.5
  3
RomanS
  4

  0
ENDTAB
  0
TABLE
  2
VIEW
  5
6
330
0
100
AcDbSymbolTable
 70
     0
  0
ENDTAB
  0
TABLE
  2
UCS
  5
7
330
0
100
AcDbSymbolTable
 70
     0
  0
ENDTAB
  0
TABLE
  2
APPID
  5
9
330
0
100
AcDbSymbolTable
 70
     1
  0
APPID
  5
12
330
9
100
AcDbSymbolTableRecord
100
AcDbRegAppTableRecord
  2
ACAD
 70
     0
  0
ENDTAB
  0
TABLE
  2
DIMSTYLE
  5
A
330
0
100
AcDbSymbolTable
 70
     1
100
AcDbDimStyleTable
  0
DIMSTYLE
105
27
330
A
100
AcDbSymbolTableRecord
100
AcDbDimStyleTableRecord
  2
ISO-25
 70
     0
 41
2.5
 42
0.625
 44
1.25
 73
     0
 74
     0
 77
     1
 78
     8
 79
     2
140
2.5
141
2.5
146
0.0
147
0.625
271
     2
272
     0
273
     0
274
     0
278
    44
283
     0
289
     0
340
11
  0
ENDTAB
  0
TABLE
  2
BLOCK_RECORD
  5
1
330
0
100
AcDbSymbolTable
 70
     1
  0
BLOCK_RECORD
  5
1F
330
1
100
AcDbSymbolTableRecord
100
AcDbBlockTableRecord
  2
*Model_Space
340
22
  0
BLOCK_RECORD
  5
1B
330
1
100
AcDbSymbolTableRecord
100
AcDbBlockTableRecord
  2
*Paper_Space
340
1E
  0
BLOCK_RECORD
  5
23
330
1
100
AcDbSymbolTableRecord
100
AcDbBlockTableRecord
  2
*Paper_Space0
340
26
  0
ENDTAB
  0
ENDSEC
  0
SECTION
  2
BLOCKS
  0
BLOCK
  5
20
330
1F
100
AcDbEntity
  8
0
100
AcDbBlockBegin
  2
*Model_Space
 70
     0
 71
     0
 10
0.0
 20
0.0
 30
0.0
  3
*Model_Space
  1

  0
ENDBLK
  5
21
330
1F
100
AcDbEntity
  8
0
100
AcDbBlockEnd
  0
BLOCK
  5
1C
330
1B
100
AcDbEntity
 67
     1
  8
0
100
AcDbBlockBegin
  2
*Paper_Space
 70
     0
 71
     0
 10
0.0
 20
0.0
 30
0.0
  3
*Paper_Space
  1

  0
ENDBLK
  5
1D
330
1B
100
AcDbEntity
 67
     1
  8
0
100
AcDbBlockEnd
  0
BLOCK
  5
24
330
23
100
AcDbEntity
  8
0
100
AcDbBlockBegin
  2
*Paper_Space0
 70
     0
 71
     0
 10
0.0
 20
0.0
 30
0.0
  3
*Paper_Space0
  1

  0
ENDBLK
  5
25
330
23
100
AcDbEntity
  8
0
100
AcDbBlockEnd
  0
ENDSEC
  0
SECTION
  2
ENTITIES
  0
LWPOLYLINE
  5
2A
330
1F
100
AcDbEntity
  8
0
100
AcDbPolyline
 90
        2
 70
   128
 43
0.0
 10
1.675912
 20
13.895862
 10
1.948886
 20
14.58147
  0
LWPOLYLINE
  5
2B
330
1F
100
AcDbEntity
  8
0
100
AcDbPolyline
 90
        2
 70
   128
 43
0.0
 10
3.364672
 20
11.63563
 10
4.3952
 20
11.618701
  0
LWPOLYLINE
  5
2C
330
1F
100
AcDbEntity
  8
0
100
AcDbPolyline
 90
        2
 70
   128
 43
0.0
 10
1.713076
 20
10.133746
 10
1.89929
 20
9.448138
  0
LWPOLYLINE
  5
2D
330
1F
100
AcDbEntity
  8
0
100
AcDbPolyline
 90
        2
 70
   128
 43
0.0
 10
4.593053
 20
9.943299
 10
4.394142
 20
9.261924
  0
LWPOLYLINE
  5
2E
330
1F
100
AcDbEntity
  8
0
100
AcDbPolyline
 90
        2
 70
   128
 43
0.0
 10
12.53263
 20
15.871217
 10
12.549558
 20
15.189841
  0
LWPOLYLINE
  5
2F
330
1F
100
AcDbEntity
  8
0
100
AcDbPolyline
 90
        2
 70
   128
 43
0.0
 10
12.533159
 20
14.132862
 10
12.550087
 20
13.434557
  0
LWPOLYLINE
  5
30
330
1F
100
AcDbEntity
  8
0
100
AcDbPolyline
 90
        2
 70
   128
 43
0.0
 10
11.820306
 20
11.478511
 10
11.833003
 20
10.797135
  0
LWPOLYLINE
  5
31
330
1F
100
AcDbEntity
  8
0
100
AcDbPolyline
 90
        2
 70
   128
 43
0.0
 10
14.87195
 20
10.086399
 10
15.549094
 20
10.086399
  0
LWPOLYLINE
  5
32
330
1F
100
AcDbEntity
  8
0
100
AcDbPolyline
 90
        2
 70
   128
 43
0.0
 10
18.683529
 20
10.644513
 10
18.658136
 20
11.338586
  0
LWPOLYLINE
  5
33
330
1F
100
AcDbEntity
  8
0
100
AcDbPolyline
 90
       24
 70
   128
 43
0.0
 10
13.708
 20
15.478
 42
0.101
 10
13.78
 20
15.393
 42
0.156
 10
13.851
 20
15.368
 42
0.097
 10
13.926
 20
15.384
 10
13.965
 20
15.401
 10
14.005
 20
15.42
 42
-0.056
 10
14.064
 20
15.441
 10
14.129
 20
15.454
 42
0.081
 10
14.245
 20
15.487
 42
0.123
 10
14.318
 20
15.565
 42
0.052
 10
14.373
 20
15.684
 42
0.036
 10
14.407
 20
15.809
 42
0.056
 10
14.417
 20
15.903
 42
0.082
 10
14.397
 20
15.979
 42
0.046
 10
14.353
 20
16.063
 42
0.048
 10
14.295
 20
16.136
 42
0.092
 10
14.236
 20
16.181
 42
0.098578
 10
14.037688
 20
16.224072
 10
14.010179
 20
15.788161
 10
14.037688
 20
16.224072
 10
13.695
 20
16.167
 10
13.695
 20
15.532
 42
0.061
 10
13.697
 20
15.502
 42
0.075
 10
13.708
 20
15.478
  0
LWPOLYLINE
  5
34
330
1F
100
AcDbEntity
  8
0
100
AcDbPolyline
 90
       17
 70
   128
 43
0.0
 10
14.625
 20
15.403
 42
0.047
 10
14.736
 20
15.334
 42
0.119
 10
14.793
 20
15.326
 42
0.055
 10
14.865
 20
15.341
 42
0.048
 10
15.031
 20
15.412
 42
0.026
 10
15.184
 20
15.504
 42
0.045
 10
15.271
 20
15.572
 42
0.109
 10
15.334
 20
15.688
 42
0.082
 10
15.355
 20
15.843
 42
0.096
 10
15.32
 20
16.004
 42
0.129
 10
15.217
 20
16.136
 42
0.04558
 10
15.124292
 20
16.188099
 10
14.950774
 20
16.234652
 10
14.955006
 20
15.775464
 10
14.950774
 20
16.234652
 10
14.625
 20
16.153
 10
14.625
 20
15.403
  0
LWPOLYLINE
  5
35
330
1F
100
AcDbEntity
  8
0
100
AcDbPolyline
 90
       37
 70
   128
 43
0.0
 10
11.025
 20
14.475
 42
0.013
 10
11.444
 20
14.417
 42
0.038
 10
11.716
 20
14.413
 42
0.051
 10
12.007
 20
14.457
 42
0.049
 10
12.129
 20
14.502
 42
0.087
 10
12.219
 20
14.566
 42
0.146
 10
12.263
 20
14.649
 42
0.142
 10
12.25
 20
14.755
 42
0.092
 10
12.198
 20
14.836
 42
0.067
 10
12.109
 20
14.909
 10
12.002
 20
14.971
 42
-0.04
 10
11.962
 20
14.998
 42
-0.059
 10
11.949
 20
15.011
 42
-0.131
 10
11.944
 20
15.023
 42
-0.185
 10
11.948
 20
15.04
 42
-0.142
 10
11.963
 20
15.051
 42
-0.098
 10
12.02
 20
15.058
 42
-0.046
 10
12.199
 20
15.032
 42
-0.015
 10
12.464
 20
14.961
 42
0.012
 10
12.472
 20
14.959
 42
0.139
 10
12.929
 20
14.996
 42
0.17
 10
13.25
 20
15.256
 42
0.034
 10
13.426
 20
15.637
 42
0.01
 10
13.511
 20
15.863
 42
0.007
 10
13.325
 20
15.977
 42
0.025
 10
13.0
 20
16.153
 42
0.127
 10
12.592
 20
16.222
 42
0.032
 10
12.375
 20
16.192
 42
0.01
 10
12.139
 20
16.14
 42
0.009
 10
11.688
 20
16.03
 42
0.024
 10
11.519
 20
15.975
 42
0.045
 10
11.383
 20
15.909
 42
0.135
 10
11.191
 20
15.709
 42
0.051
 10
11.128
 20
15.558
 42
0.032
 10
11.083
 20
15.362
 42
0.029
 10
11.032
 20
14.793
 42
0.009
 10
11.025
 20
14.475
  0
LWPOLYLINE
  5
36
330
1F
100
AcDbEntity
  8
0
100
AcDbPolyline
 90
       19
 70
   128
 43
0.0
 10
15.57
 20
15.348
 42
0.046
 10
15.681
 20
15.278
 42
0.119
 10
15.746
 20
15.269
 42
0.059
 10
15.827
 20
15.286
 42
0.055
 10
16.01
 20
15.372
 42
0.037
 10
16.174
 20
15.486
 42
0.027
 10
16.232
 20
15.538
 42
0.065
 10
16.265
 20
15.578
 42
0.076
 10
16.318
 20
15.722
 42
0.096
 10
16.319
 20
15.859
 42
0.082
 10
16.268
 20
15.994
 42
0.052
 10
16.167
 20
16.133
 42
0.084
 10
16.126
 20
16.168
 42
0.067
 10
16.056
 20
16.195
 42
0.093773
 10
15.876556
 20
16.215608
 10
15.870208
 20
15.731027
 10
15.876556
 20
16.213492
 10
15.556
 20
16.14
 10
15.57
 20
15.348
  0
LWPOLYLINE
  5
37
330
1F
100
AcDbEntity
  8
0
100
AcDbPolyline
 90
       26
 70
   128
 43
0.0
 10
17.467
 20
15.226
 42
0.15
 10
17.615
 20
15.173
 42
0.198
 10
17.761
 20
15.215
 42
0.059
 10
17.784
 20
15.242
 10
17.804
 20
15.275
 42
-0.066
 10
17.851
 20
15.341
 42
-0.092
 10
17.914
 20
15.381
 42
-0.033
 10
17.99
 20
15.406
 10
18.064
 20
15.428
 42
0.077
 10
18.126
 20
15.459
 42
0.127
 10
18.177
 20
15.532
 42
0.052
 10
18.208
 20
15.638
 42
0.06
 10
18.223
 20
15.834
 42
0.085
 10
18.199
 20
15.912
 42
0.042
 10
18.146
 20
16.002
 42
0.041
 10
18.078
 20
16.085
 42
0.074
 10
18.009
 20
16.14
 42
0.088592
 10
17.755366
 20
16.224072
 10
17.749017
 20
15.686589
 10
17.755366
 20
16.221956
 10
17.432
 20
16.14
 10
17.445
 20
15.275
 10
17.446
 20
15.257
 42
0.077
 10
17.449
 20
15.246
 42
0.085
 10
17.456
 20
15.236
 42
0.031
 10
17.467
 20
15.226
  0
LWPOLYLINE
  5
38
330
1F
100
AcDbEntity
  8
0
100
AcDbPolyline
 90
       22
 70
   128
 43
0.0
 10
18.376
 20
15.195
 42
0.027
 10
18.529
 20
15.125
 42
0.114
 10
18.616
 20
15.11
 42
0.198
 10
18.668
 20
15.139
 42
0.056
 10
18.699
 20
15.188
 42
-0.031
 10
18.762
 20
15.306
 42
-0.093
 10
18.804
 20
15.35
 42
-0.097
 10
18.879
 20
15.377
 10
18.921
 20
15.385
 10
18.965
 20
15.397
 42
0.075
 10
19.069
 20
15.447
 42
0.096
 10
19.134
 20
15.514
 42
0.173
 10
19.17
 20
15.685
 42
0.088
 10
19.109
 20
15.882
 42
0.049
 10
18.987
 20
16.076
 42
0.09
 10
18.94
 20
16.122
 42
0.041
 10
18.808
 20
16.189
 42
0.089643
 10
18.685645
 20
16.224072
 10
18.675065
 20
15.669661
 10
18.687761
 20
16.221956
 10
18.362
 20
16.112
 10
18.376
 20
15.195
  0
LWPOLYLINE
  5
39
330
1F
100
AcDbEntity
  8
0
100
AcDbPolyline
 90
       20
 70
   128
 43
0.0
 10
19.293
 20
15.139
 42
0.017
 10
19.474
 20
15.084
 42
0.193
 10
19.625
 20
15.101
 42
0.209
 10
19.723
 20
15.24
 10
19.728
 20
15.277
 42
-0.093
 10
19.735
 20
15.309
 42
-0.109
 10
19.756
 20
15.334
 42
-0.052
 10
19.79
 20
15.355
 42
-0.032
 10
19.884
 20
15.393
 10
19.987
 20
15.431
 42
0.074
 10
20.071
 20
15.478
 42
0.214
 10
20.127
 20
15.613
 42
0.095
 10
20.093
 20
15.796
 42
0.065
 10
19.996
 20
15.98
 42
0.085
 10
19.864
 20
16.117
 42
0.115751
 10
19.630208
 20
16.221956
 10
19.606931
 20
15.629455
 10
19.630208
 20
16.21984
 10
19.293
 20
16.112
 10
19.293
 20
15.139
  0
LWPOLYLINE
  5
3A
330
1F
100
AcDbEntity
  8
0
100
AcDbPolyline
 90
       30
 70
   128
 43
0.0
 10
20.238
 20
15.098
 42
0.024
 10
20.391
 20
15.042
 42
0.112
 10
20.505
 20
15.03
 42
0.167
 10
20.577
 20
15.07
 42
0.043
 10
20.615
 20
15.119
 10
20.653
 20
15.178
 42
-0.067
 10
20.743
 20
15.294
 42
-0.043
 10
20.887
 20
15.4
 42
0.032
 10
21.011
 20
15.486
 42
0.154
 10
21.084
 20
15.589
 42
0.087
 10
21.09
 20
15.66
 42
0.061
 10
21.071
 20
15.751
 42
0.109
 10
21.006
 20
15.865
 10
20.973
 20
15.897
 10
20.937
 20
15.929
 42
-0.049
 10
20.87
 20
15.997
 10
20.828
 20
16.063
 42
0.105
 10
20.775
 20
16.12
 42
0.038
 10
20.732
 20
16.144
 10
20.654
 20
16.204
 42
0.061
 10
20.654
 20
16.206
 42
0.112
 10
20.654
 20
16.207
 10
20.653
 20
16.208
 42
0.054
 10
20.651
 20
16.209
 42
0.037
 10
20.631
 20
16.214
 10
20.543029
 20
16.217724
 10
20.532449
 20
15.631571
 10
20.545145
 20
16.217724
 10
20.224
 20
16.098
 10
20.238
 20
15.098
  0
LWPOLYLINE
  5
3B
330
1F
100
AcDbEntity
  8
0
100
AcDbPolyline
 90
       23
 70
   128
 43
0.0
 10
16.524
 20
15.305
 42
0.079
 10
16.629
 20
15.226
 42
0.227
 10
16.702
 20
15.225
 42
0.068
 10
16.778
 20
15.279
 42
-0.027
 10
16.891
 20
15.367
 42
-0.058
 10
17.045
 20
15.449
 42
0.021
 10
17.157
 20
15.494
 42
0.168
 10
17.23
 20
15.564
 42
0.096
 10
17.265
 20
15.723
 42
0.04
 10
17.265
 20
15.834
 42
0.07
 10
17.241
 20
15.925
 42
0.038
 10
17.19
 20
16.028
 42
0.042
 10
17.128
 20
16.117
 42
0.038
 10
17.098
 20
16.149
 42
0.077
 10
17.07
 20
16.167
 42
0.064
 10
16.925
 20
16.202
 42
0.024846
 10
16.808687
 20
16.211376
 10
16.808687
 20
15.699286
 10
16.808687
 20
16.209259
 10
16.487
 20
16.14
 10
16.5
 20
15.358
 42
0.1
 10
16.504
 20
15.328
 42
0.1
 10
16.524
 20
15.305
  0
LWPOLYLINE
  5
3C
330
1F
100
AcDbEntity
  8
0
100
AcDbPolyline
 90
       62
 70
   128
 43
0.0
 10
9.875
 20
15.808
 42
0.014
 10
9.832
 20
15.884
 42
0.049
 10
9.743
 20
16.006
 42
0.122
 10
9.686
 20
16.046
 42
0.204
 10
9.638
 20
16.042
 42
0.153
 10
9.602
 20
16.009
 42
0.112
 10
9.589
 20
15.961
 42
0.038
 10
9.591
 20
15.902
 10
9.598
 20
15.832
 42
-0.055
 10
9.588
 20
15.664
 42
-0.01
 10
9.535
 20
15.407
 10
9.52
 20
15.324
 42
0.06
 10
9.512
 20
15.171
 42
0.058
 10
9.535
 20
15.064
 10
9.553
 20
15.014
 42
-0.014
 10
9.609
 20
14.872
 42
-0.075
 10
9.624
 20
14.778
 42
-0.106
 10
9.58
 20
14.621
 42
-0.023
 10
9.479
 20
14.438
 42
0.019
 10
9.37
 20
14.245
 42
0.074
 10
9.305
 20
14.056
 42
0.111
 10
9.323
 20
13.853
 42
0.092
 10
9.424
 20
13.658
 42
0.113
 10
9.591
 20
13.52
 42
0.155
 10
9.805
 20
13.486
 42
0.089
 10
9.888
 20
13.514
 42
0.067
 10
9.978
 20
13.583
 42
-0.050974
 10
10.182729
 20
13.780535
 10
9.79972
 20
14.019652
 10
10.180084
 20
13.782122
 42
0.094167
 10
10.319
 20
14.139
 42
0.038
 10
10.322
 20
14.188
 42
0.024
 10
10.309
 20
14.473
 42
0.028
 10
10.275
 20
14.749
 42
0.054
 10
10.263
 20
14.792
 42
0.089
 10
10.156
 20
14.933
 42
0.007
 10
10.038
 20
15.037
 42
-0.042
 10
9.992
 20
15.086
 42
-0.092
 10
9.964
 20
15.136
 42
-0.127
 10
9.962
 20
15.194
 42
-0.095
 10
9.992
 20
15.261
 42
-0.03
 10
10.051
 20
15.338
 10
10.122
 20
15.42
 42
0.06
 10
10.191
 20
15.539
 42
0.023
 10
10.262
 20
15.714
 42
0.028
 10
10.312
 20
15.88
 42
0.035
 10
10.322
 20
15.94
 42
0.044
 10
10.323
 20
15.96
 42
0.115
 10
10.319
 20
15.973
 42
0.046
 10
10.271
 20
16.03
 42
-0.038
 10
10.163
 20
15.965
 10
10.141
 20
15.957
 42
-0.078
 10
10.125
 20
15.954
 42
-0.176
 10
10.115
 20
15.957
 42
-0.156
 10
10.11
 20
15.965
 42
-0.068
 10
10.109
 20
15.978
 10
10.117
 20
16.032
 42
0.044
 10
10.12
 20
16.072
 42
0.148
 10
10.109
 20
16.112
 42
0.168
 10
10.069
 20
16.14
 42
0.05
 10
9.985
 20
16.153
 10
9.875
 20
15.808
  0
LWPOLYLINE
  5
3D
330
1F
100
AcDbEntity
  8
0
100
AcDbPolyline
 90
      110
 70
   128
 43
0.0
 10
1.108011
 20
16.078989
 42
0.082372
 10
0.868
 20
15.869
 42
0.073
 10
0.817
 20
15.792
 42
0.181
 10
0.814
 20
15.753
 42
0.049
 10
0.822
 20
15.735
 10
0.833
 20
15.715
 42
-0.052
 10
0.92
 20
15.538
 42
-0.138
 10
0.931
 20
15.352
 42
-0.021
 10
0.886
 20
15.195
 10
1.692
 20
15.181
 10
1.155358
 20
15.189444
 42
0.151103
 10
1.169
 20
15.03
 42
0.026
 10
1.192
 20
14.975
 42
0.069
 10
1.22
 20
14.931
 42
0.133
 10
1.253
 20
14.91
 10
1.287
 20
14.9
 42
0.116
 10
1.348
 20
14.889
 10
3.831
 20
14.875
 10
3.408977
 20
14.87653
 10
3.401
 20
14.5
 10
4.469
 20
14.515
 10
4.484
 20
14.889
 10
7.346
 20
14.875
 10
6.914519
 20
14.874943
 10
7.082
 20
14.528
 10
7.082
 20
14.486
 10
8.04318
 20
14.489817
 10
8.051644
 20
14.936309
 10
8.04318
 20
14.487701
 10
8.937
 20
14.5
 10
9.27738
 20
14.834737
 10
8.666
 20
14.875
 10
9.277
 20
14.834
 10
9.264
 20
15.289
 42
0.089
 10
9.26
 20
15.319
 42
0.089
 10
9.242
 20
15.343
 10
9.209
 20
15.384
 42
0.13
 10
9.166
 20
15.417
 42
0.096974
 10
9.031915
 20
15.431206
 10
9.029799
 20
15.247107
 10
9.031915
 20
15.431206
 10
8.714504
 20
15.426973
 10
8.714504
 20
15.240759
 10
8.714504
 20
15.426973
 10
8.405557
 20
15.42909
 10
8.407674
 20
15.240759
 10
8.405557
 20
15.42909
 10
7.758832
 20
15.437554
 10
7.720743
 20
15.253455
 10
7.758832
 20
15.437554
 10
7.464698
 20
15.49892
 10
7.415
 20
15.323
 10
7.464698
 20
15.496804
 10
7.132474
 20
15.613188
 10
7.057
 20
15.422
 10
7.130358
 20
15.611072
 10
6.837811
 20
15.711056
 10
6.776445
 20
15.501565
 10
6.837811
 20
15.713173
 10
6.583882
 20
15.791467
 10
6.528864
 20
15.586208
 10
6.583882
 20
15.789351
 10
6.234201
 20
15.869762
 10
6.193995
 20
15.668735
 10
6.234201
 20
15.871878
 10
5.884255
 20
15.939592
 10
5.848282
 20
15.717405
 10
5.884255
 20
15.939592
 10
5.585888
 20
15.969217
 10
5.573192
 20
15.75761
 10
5.585888
 20
15.971334
 10
5.266361
 20
15.996726
 10
5.267877
 20
15.761712
 10
5.266361
 20
15.998843
 10
4.92488
 20
15.99461
 10
4.926996
 20
15.770307
 10
4.922764
 20
15.996726
 10
4.626513
 20
15.990378
 10
4.634978
 20
15.766074
 10
4.626513
 20
15.988262
 10
4.293761
 20
15.948057
 10
4.309
 20
15.718
 10
4.293761
 20
15.943825
 10
3.970001
 20
15.897271
 10
4.0
 20
15.669
 10
3.970001
 20
15.899387
 10
3.651797
 20
15.836698
 10
3.685654
 20
15.616627
 10
3.651797
 20
15.836698
 10
3.334385
 20
15.762636
 10
3.389403
 20
15.54468
 10
3.332269
 20
15.762636
 10
3.022793
 20
15.671645
 10
3.08416
 20
15.460037
 10
3.022793
 20
15.669528
 10
2.705382
 20
15.589118
 10
2.78
 20
15.355
 10
2.705382
 20
15.589118
 10
2.307
 20
15.597
 42
-0.083
 10
2.245
 20
15.606
 10
2.126
 20
15.639
 42
-0.047
 10
2.011
 20
15.681
 42
-0.059
 10
1.858
 20
15.788
 10
1.783
 20
15.855
 10
1.711
 20
15.924
 42
0.028
 10
1.572
 20
16.046
 42
0.111
 10
1.442
 20
16.112
 42
0.13705
 10
1.106424
 20
16.079782
 10
1.332844
 20
15.652335
 10
1.108011
 20
16.078989
  0
LWPOLYLINE
  5
3E
330
1F
100
AcDbEntity
  8
0
100
AcDbPolyline
 90
       20
 70
   128
 43
0.0
 10
13.964154
 20
15.075044
 42
0.07904
 10
13.736
 20
15.014
 42
0.091
 10
13.582
 20
14.907
 42
0.069
 10
13.47
 20
14.76
 42
0.071
 10
13.407
 20
14.604
 42
0.116
 10
13.403
 20
14.473
 42
0.21
 10
13.575
 20
14.261
 42
0.025
 10
13.673
 20
14.222
 42
-0.087
 10
13.76
 20
14.175
 42
-0.091
 10
13.814
 20
14.101
 10
13.859
 20
14.016
 42
0.219
 10
14.025
 20
13.899
 42
0.206
 10
14.243
 20
13.958
 42
0.078
 10
14.268
 20
13.982
 42
0.116
 10
14.276
 20
13.998
 42
0.051
 10
14.278
 20
14.027
 10
14.264
 20
14.987
 10
13.964154
 20
15.07716
 10
13.942993
 20
14.495239
 10
13.964154
 20
15.075044
  0
LWPOLYLINE
  5
3F
330
1F
100
AcDbEntity
  8
0
100
AcDbPolyline
 90
       23
 70
   128
 43
0.0
 10
15.25
 20
13.972
 10
15.25
 20
14.973
 10
14.938606
 20
15.068695
 10
14.921678
 20
14.495239
 10
14.93649
 20
15.068695
 42
0.058458
 10
14.723
 20
15.0
 42
0.078
 10
14.64
 20
14.935
 42
0.03
 10
14.542
 20
14.825
 42
0.031
 10
14.459
 20
14.705
 42
0.028
 10
14.431
 20
14.653
 42
0.063
 10
14.417
 20
14.611
 42
0.094
 10
14.425
 20
14.44
 42
0.176
 10
14.521
 20
14.278
 42
0.057
 10
14.578
 20
14.247
 10
14.642
 20
14.222
 42
-0.09
 10
14.761
 20
14.161
 42
-0.082
 10
14.813
 20
14.095
 10
14.85
 20
14.024
 42
0.078
 10
14.892
 20
13.963
 42
0.16
 10
14.959
 20
13.931
 42
0.061
 10
15.046
 20
13.931
 42
0.025
 10
15.141
 20
13.946
 42
0.019
 10
15.25
 20
13.972
  0
LWPOLYLINE
  5
40
330
1F
100
AcDbEntity
  8
0
100
AcDbPolyline
 90
       24
 70
   128
 43
0.0
 10
15.923639
 20
15.01791
 42
0.091241
 10
15.644
 20
14.925
 42
0.123
 10
15.504
 20
14.783
 42
0.09
 10
15.431
 20
14.591
 42
0.102
 10
15.432
 20
14.4
 42
0.179
 10
15.514
 20
14.264
 42
0.058
 10
15.575
 20
14.231
 10
15.644
 20
14.206
 42
-0.072
 10
15.775
 20
14.146
 42
-0.061
 10
15.863
 20
14.061
 42
0.026
 10
15.938
 20
13.977
 42
0.154
 10
16.023
 20
13.93
 42
0.173
 10
16.14
 20
13.958
 42
0.041
 10
16.178
 20
13.985
 10
16.214
 20
14.016
 10
16.226
 20
14.028
 42
0.08
 10
16.233
 20
14.039
 42
0.08
 10
16.236
 20
14.051
 10
16.236
 20
14.068
 10
16.223
 20
14.931
 42
0.051
 10
16.084
 20
15.0
 42
0.128489
 10
15.923639
 20
15.020026
 10
15.915175
 20
14.480427
 10
15.923639
 20
15.01791
  0
LWPOLYLINE
  5
41
330
1F
100
AcDbEntity
  8
0
100
AcDbPolyline
 90
       22
 70
   128
 43
0.0
 10
17.209
 20
14.096
 10
17.209
 20
14.917
 10
16.893594
 20
15.007329
 10
16.880898
 20
14.478311
 10
16.893594
 20
15.005213
 42
0.073946
 10
16.667
 20
14.945
 42
0.102
 10
16.595
 20
14.885
 42
0.044
 10
16.529
 20
14.791
 42
0.052
 10
16.443
 20
14.605
 42
0.072
 10
16.42
 20
14.476
 42
0.106
 10
16.438
 20
14.372
 42
0.106
 10
16.498
 20
14.288
 42
0.071
 10
16.597
 20
14.222
 10
16.693
 20
14.176
 42
-0.054
 10
16.789
 20
14.119
 42
-0.028
 10
16.895
 20
14.023
 42
0.07
 10
16.969
 20
13.961
 42
0.212
 10
17.05
 20
13.956
 42
0.082
 10
17.175
 20
14.028
 42
0.075
 10
17.199
 20
14.051
 42
0.113
 10
17.208
 20
14.068
 42
0.05
 10
17.209
 20
14.096
  0
LWPOLYLINE
  5
42
330
1F
100
AcDbEntity
  8
0
100
AcDbPolyline
 90
       23
 70
   128
 43
0.0
 10
18.182
 20
14.056
 10
18.196
 20
14.792
 10
18.168
 20
14.917
 10
17.884975
 20
14.992517
 10
17.868047
 20
14.478311
 10
17.884975
 20
14.990401
 42
0.090922
 10
17.598
 20
14.903
 42
0.092
 10
17.536
 20
14.846
 42
0.039
 10
17.472
 20
14.753
 42
0.04
 10
17.422
 20
14.651
 42
0.094
 10
17.404
 20
14.57
 42
0.054
 10
17.434
 20
14.406
 42
0.044
 10
17.468
 20
14.316
 42
0.098
 10
17.515
 20
14.25
 42
0.069
 10
17.581
 20
14.211
 42
0.009
 10
17.706
 20
14.162
 42
-0.066
 10
17.817
 20
14.105
 42
-0.063
 10
17.868
 20
14.05
 10
17.889
 20
14.024
 10
17.909
 20
14.001
 42
0.163
 10
17.959
 20
13.974
 42
0.126
 10
18.043
 20
13.986
 42
0.04
 10
18.182
 20
14.056
  0
LWPOLYLINE
  5
43
330
1F
100
AcDbEntity
  8
0
100
AcDbPolyline
 90
       21
 70
   128
 43
0.0
 10
19.168
 20
14.152
 10
19.168
 20
14.875
 10
18.853079
 20
14.945963
 10
18.853079
 20
14.478311
 10
18.854137
 20
14.945963
 42
0.076908
 10
18.598
 20
14.917
 42
0.204
 10
18.463
 20
14.793
 42
0.101
 10
18.418
 20
14.599
 42
0.06
 10
18.432
 20
14.406
 42
0.035
 10
18.451
 20
14.333
 42
0.075
 10
18.473
 20
14.287
 42
0.044
 10
18.482
 20
14.279
 10
18.557
 20
14.225
 42
0.025
 10
18.729
 20
14.121
 42
0.052
 10
18.925
 20
14.038
 42
0.063
 10
19.01
 20
14.024
 42
0.135
 10
19.077
 20
14.038
 42
0.055
 10
19.112
 20
14.065
 10
19.146
 20
14.098
 42
0.098
 10
19.164
 20
14.122
 42
0.098
 10
19.168
 20
14.152
  0
LWPOLYLINE
  5
44
330
1F
100
AcDbEntity
  8
0
100
AcDbPolyline
 90
       25
 70
   128
 43
0.0
 10
20.141
 20
14.143
 10
20.141
 20
14.848
 10
19.832028
 20
14.933267
 10
19.838376
 20
14.455034
 10
19.832028
 20
14.931151
 42
0.065946
 10
19.706
 20
14.918
 42
0.067
 10
19.576
 20
14.875
 42
0.077
 10
19.557
 20
14.858
 42
0.055
 10
19.477
 20
14.74
 42
0.025
 10
19.429
 20
14.644
 42
0.064
 10
19.404
 20
14.57
 42
0.08
 10
19.413
 20
14.483
 42
0.031
 10
19.445
 20
14.378
 42
0.023
 10
19.484
 20
14.284
 42
0.053
 10
19.515
 20
14.229
 42
0.049
 10
19.526
 20
14.22
 10
19.545
 20
14.207
 42
0.042
 10
19.766
 20
14.097
 42
0.044
 10
19.944
 20
14.039
 42
0.054
 10
20.018
 20
14.03
 42
0.13
 10
20.071
 20
14.042
 42
0.06
 10
20.097
 20
14.063
 10
20.12
 20
14.088
 42
0.09
 10
20.137
 20
14.113
 42
0.09
 10
20.141
 20
14.143
  0
LWPOLYLINE
  5
45
330
1F
100
AcDbEntity
  8
0
100
AcDbPolyline
 90
       21
 70
   128
 43
0.0
 10
21.072
 20
14.15
 10
21.085
 20
14.848
 10
20.796958
 20
14.901526
 10
20.803306
 20
14.465614
 10
20.794842
 20
14.89941
 42
0.10841
 10
20.557
 20
14.861
 42
0.139
 10
20.474
 20
14.786
 42
0.075
 10
20.423
 20
14.672
 42
0.112
 10
20.404
 20
14.445
 42
0.089
 10
20.462
 20
14.289
 42
0.112
 10
20.555
 20
14.196
 42
0.05
 10
20.686
 20
14.133
 10
20.859
 20
14.067
 10
20.921
 20
14.043
 42
0.154
 10
20.974
 20
14.042
 42
0.093
 10
21.012
 20
14.065
 10
21.048
 20
14.098
 10
21.06
 20
14.11
 42
0.078
 10
21.068
 20
14.12
 42
0.078
 10
21.071
 20
14.132
 10
21.072
 20
14.15
  0
LWPOLYLINE
  5
46
330
1F
100
AcDbEntity
  8
0
100
AcDbPolyline
 90
       42
 70
   128
 43
0.0
 10
0.983
 20
14.347
 42
0.111
 10
0.976
 20
14.186
 42
0.076
 10
1.028
 20
14.033
 42
0.105
 10
1.211
 20
13.806
 42
0.061
 10
1.39
 20
13.704
 42
0.015
 10
1.591
 20
13.625
 42
-0.025
 10
1.778
 20
13.548
 42
-0.097
 10
1.914
 20
13.453
 42
-0.086
 10
2.01
 20
13.283
 42
-0.024
 10
2.074
 20
13.077
 42
0.022
 10
2.135
 20
12.88
 42
0.105
 10
2.22
 20
12.736
 42
0.144
 10
2.406
 20
12.647
 42
0.084
 10
2.654
 20
12.643
 42
0.077
 10
2.903
 20
12.719
 42
0.111
 10
3.095
 20
12.867
 42
0.09
 10
3.147
 20
12.957
 42
0.179
 10
3.146
 20
13.032
 42
0.152
 10
3.09
 20
13.094
 42
0.071
 10
2.978
 20
13.142
 42
0.03
 10
2.905
 20
13.159
 42
-0.029
 10
2.793
 20
13.18
 42
-0.112
 10
2.756
 20
13.2
 42
-0.107
 10
2.745
 20
13.218
 42
-0.055
 10
2.738
 20
13.244
 42
-0.046
 10
2.735
 20
13.321
 42
-0.021
 10
2.756
 20
13.545
 10
2.772
 20
13.678
 10
2.785
 20
13.817
 42
0.04
 10
2.789
 20
14.084
 42
0.093
 10
2.723
 20
14.346
 42
0.108
 10
2.575
 20
14.536
 42
0.073
 10
2.343
 20
14.673
 42
0.035
 10
2.025
 20
14.778
 42
0.029
 10
1.823
 20
14.822
 42
0.049
 10
1.644
 20
14.832
 42
0.051
 10
1.467
 20
14.804
 42
0.034
 10
1.268
 20
14.736
 42
0.056
 10
1.164
 20
14.682
 42
0.086
 10
1.09
 20
14.609
 42
0.062
 10
1.034
 20
14.503
 42
0.026
 10
0.983
 20
14.347
  0
LWPOLYLINE
  5
47
330
1F
100
AcDbEntity
  8
0
100
AcDbPolyline
 90
       65
 70
   128
 43
0.0
 10
11.966
 20
12.389
 42
-0.024
 10
12.028
 20
12.5
 42
-0.035
 10
12.088
 20
12.587
 42
-0.098
 10
12.154
 20
12.645
 42
-0.152
 10
12.202
 20
12.653
 42
-0.099
 10
12.247
 20
12.637
 10
12.293
 20
12.607
 42
0.054
 10
12.315
 20
12.596
 42
0.127
 10
12.335
 20
12.593
 42
0.124
 10
12.356
 20
12.603
 42
0.073
 10
12.375
 20
12.623
 42
0.078
 10
12.404
 20
12.685
 42
0.061
 10
12.416
 20
12.756
 42
0.103
 10
12.409
 20
12.817
 42
0.04
 10
12.393
 20
12.847
 42
-0.018
 10
12.36
 20
12.9
 42
-0.054
 10
12.356
 20
12.91
 42
-0.134
 10
12.356
 20
12.917
 42
-0.188
 10
12.361
 20
12.923
 42
-0.083
 10
12.369
 20
12.926
 42
-0.038
 10
12.395
 20
12.928
 10
12.426
 20
12.93
 42
0.083
 10
12.455
 20
12.937
 42
0.144
 10
12.478
 20
12.959
 42
0.093
 10
12.49
 20
12.992
 42
0.102
 10
12.486
 20
13.069
 42
0.281
 10
12.383
 20
13.181
 42
0.052
 10
12.268
 20
13.198
 10
12.14
 20
13.205
 42
-0.051
 10
12.034
 20
13.219
 42
-0.095
 10
12.0
 20
13.235
 42
-0.204
 10
11.986
 20
13.259
 42
-0.075
 10
11.991
 20
13.325
 10
12.0
 20
13.361
 42
0.004
 10
12.226
 20
13.31
 42
0.017
 10
12.611
 20
13.236
 42
0.244
 10
13.072
 20
13.39
 42
0.081
 10
13.224
 20
13.604
 42
0.059
 10
13.32
 20
13.875
 42
0.065
 10
13.337
 20
14.018
 42
0.12
 10
13.309
 20
14.124
 42
0.099
 10
13.233
 20
14.21
 42
0.041
 10
13.106
 20
14.292
 42
0.029
 10
12.938
 20
14.375
 42
0.052
 10
12.792
 20
14.42
 42
0.051
 10
12.641
 20
14.432
 42
0.027
 10
12.458
 20
14.417
 42
0.011
 10
12.073
 20
14.363
 42
0.035
 10
11.696
 20
14.276
 42
0.073
 10
11.377
 20
14.127
 42
0.132
 10
11.166
 20
13.889
 42
0.058
 10
11.085
 20
13.609
 42
0.022
 10
11.032
 20
13.234
 42
0.018
 10
11.007
 20
12.875
 42
0.04
 10
11.013
 20
12.639
 42
0.079
 10
11.035
 20
12.566
 42
0.16
 10
11.076
 20
12.524
 42
0.136
 10
11.144
 20
12.513
 42
0.063
 10
11.245
 20
12.535
 42
0.007
 10
11.415
 20
12.602
 42
-0.045
 10
11.495
 20
12.625
 42
-0.097
 10
11.569
 20
12.625
 42
-0.066
 10
11.699
 20
12.573
 42
-0.028
 10
11.828
 20
12.494
 42
-0.023
 10
11.966
 20
12.389
  0
LWPOLYLINE
  5
48
330
1F
100
AcDbEntity
  8
0
100
AcDbPolyline
 90
      134
 70
   128
 43
0.0
 10
6.753
 20
13.238
 42
-0.04
 10
6.788
 20
13.26
 42
-0.108
 10
6.821
 20
13.268
 42
-0.099
 10
6.859
 20
13.26
 42
-0.044
 10
6.91
 20
13.233
 42
0.163
 10
6.946
 20
13.224
 42
0.091
 10
6.984
 20
13.235
 10
7.061
 20
13.279
 42
-0.074
 10
7.102
 20
13.29
 42
-0.029
 10
7.163
 20
13.294
 42
-0.029
 10
7.321
 20
13.286
 42
-0.026
 10
7.485
 20
13.262
 42
-0.058
 10
7.608
 20
13.224
 10
7.688
 20
13.184
 42
0.164
 10
7.773
 20
13.176
 42
0.047
 10
7.797
 20
13.185
 42
-0.022
 10
7.84
 20
13.206
 42
-0.1
 10
7.86
 20
13.209
 42
-0.14
 10
7.888
 20
13.198
 42
-0.036
 10
7.915
 20
13.174
 10
7.943
 20
13.149
 42
0.102
 10
7.973
 20
13.133
 42
0.109
 10
8.004
 20
13.132
 42
0.009
 10
8.071
 20
13.151
 42
-0.093
 10
8.103
 20
13.153
 42
-0.095
 10
8.133
 20
13.141
 42
-0.013
 10
8.192
 20
13.098
 42
0.062
 10
8.225
 20
13.081
 42
0.063
 10
8.263
 20
13.073
 10
8.341
 20
13.069
 42
-0.08
 10
8.376
 20
13.059
 42
-0.069
 10
8.401
 20
13.042
 10
8.423
 20
13.02
 42
0.091
 10
8.47
 20
12.982
 42
0.092
 10
8.528
 20
12.971
 42
-0.068
 10
8.591
 20
12.961
 42
-0.082
 10
8.661
 20
12.917
 10
8.694
 20
12.891
 42
0.066
 10
8.73
 20
12.872
 42
0.055
 10
8.761
 20
12.866
 10
8.821
 20
12.861
 42
-0.088
 10
8.846
 20
12.852
 42
-0.092
 10
8.867
 20
12.834
 42
-0.034
 10
8.884
 20
12.808
 42
0.056
 10
8.919
 20
12.757
 42
0.122
 10
8.979
 20
12.722
 10
9.052
 20
12.701
 42
-0.073
 10
9.164
 20
12.642
 42
-0.041
 10
9.282
 20
12.543
 42
-0.045
 10
9.512
 20
12.266
 42
-0.033
 10
9.701
 20
11.955
 42
-0.053
 10
9.808
 20
11.697
 42
-0.011
 10
9.857
 20
11.481
 42
0.103
 10
9.955
 20
11.243
 42
-0.065
 10
9.969
 20
11.215
 42
-0.065
 10
9.973
 20
11.185
 10
10.061
 20
9.603
 42
0.033
 10
10.18
 20
9.831
 42
0.061
 10
10.209
 20
9.921
 42
0.103
 10
10.206
 20
9.968
 10
10.201
 20
9.985
 42
-0.087
 10
10.201
 20
10.001
 42
-0.094
 10
10.21
 20
10.025
 10
10.254
 20
10.086
 10
10.279
 20
10.124
 42
0.139
 10
10.341
 20
10.397
 42
-0.063
 10
10.336
 20
10.459
 42
-0.085
 10
10.344
 20
10.481
 10
10.376
 20
10.527
 42
0.053
 10
10.39
 20
10.555
 42
0.09
 10
10.399
 20
10.632
 42
0.027
 10
10.391
 20
10.722
 10
10.381
 20
10.808
 42
-0.081
 10
10.383
 20
10.877
 42
-0.063
 10
10.393
 20
10.9
 10
10.406
 20
10.922
 42
0.098
 10
10.43
 20
10.986
 42
0.046
 10
10.435
 20
11.117
 42
0.061403
 10
10.417481
 20
11.242834
 10
10.210106
 20
11.236485
 10
10.416026
 20
11.242305
 10
10.364579
 20
11.555748
 10
10.152972
 20
11.517659
 10
10.360347
 20
11.553632
 10
10.296865
 20
11.875275
 10
10.104302
 20
11.809677
 10
10.294749
 20
11.873159
 10
10.193177
 20
12.145868
 10
10.006963
 20
12.086618
 10
10.191061
 20
12.145868
 10
10.053516
 20
12.454551
 10
9.875766
 20
12.355095
 10
10.053516
 20
12.452434
 10
9.892166
 20
12.771962
 10
9.701
 20
12.602
 10
9.898514
 20
12.776194
 10
9.750389
 20
12.998117
 10
9.547246
 20
12.854224
 10
9.748273
 20
12.998117
 10
9.515505
 20
13.224537
 10
9.33987
 20
13.063715
 10
9.515505
 20
13.224537
 10
9.279827
 20
13.449767
 10
9.116
 20
13.256
 10
9.279827
 20
13.449767
 10
9.008969
 20
13.651323
 10
8.866515
 20
13.451157
 10
9.011085
 20
13.653439
 10
8.759273
 20
13.807912
 10
8.627
 20
13.602
 10
8.759273
 20
13.807912
 10
8.420172
 20
13.97905
 10
8.305904
 20
13.750514
 10
8.418056
 20
13.97905
 10
8.119689
 20
14.095434
 10
8.027
 20
13.847
 10
8.119689
 20
14.09755
 10
7.839838
 20
14.175845
 10
7.782704
 20
13.904987
 10
7.837722
 20
14.175845
 10
7.505499
 20
14.252023
 10
7.473
 20
13.986
 10
7.505499
 20
14.254139
 10
7.185971
 20
14.307041
 10
7.164811
 20
14.042532
 10
7.185971
 20
14.307041
 10
5.804
 20
14.389
 10
5.806291
 20
13.721947
 10
6.364934
 20
13.717715
 10
5.806291
 20
13.721947
 10
5.804
 20
13.139
 10
6.698
 20
13.219
 42
0.061
 10
6.728
 20
13.224
 42
0.068
 10
6.753
 20
13.238
  0
LWPOLYLINE
  5
49
330
1F
100
AcDbEntity
  8
0
100
AcDbPolyline
 90
       22
 70
   128
 43
0.0
 10
3.289
 20
12.764
 10
3.93588
 20
12.768259
 10
3.937996
 20
13.199938
 10
3.93588
 20
12.764026
 10
4.387
 20
12.833
 10
4.387
 20
13.806
 10
4.317
 20
13.82
 10
4.287677
 20
14.097947
 10
4.026
 20
14.057
 10
4.289793
 20
14.097947
 10
4.276
 20
14.347
 10
3.904
 20
14.322
 42
0.115
 10
3.844
 20
14.307
 42
0.062
 10
3.714
 20
14.24
 42
0.143
 10
3.646
 20
14.137
 42
0.034
 10
3.58
 20
13.902
 10
3.519
 20
13.61
 42
-0.015
 10
3.452
 20
13.319
 42
-0.052
 10
3.368
 20
13.086
 10
3.332
 20
13.019
 42
0.069
 10
3.303
 20
12.93
 42
0.033
 10
3.289
 20
12.764
  0
LWPOLYLINE
  5
4A
330
1F
100
AcDbEntity
  8
0
100
AcDbPolyline
 90
       36
 70
   128
 43
0.0
 10
4.554
 20
12.861
 42
0.096
 10
4.748
 20
12.764
 42
0.090884
 10
5.001323
 20
12.768259
 10
5.001323
 20
13.197822
 10
5.001323
 20
12.766142
 10
5.637
 20
12.764
 42
0.047
 10
5.623
 20
12.944
 42
0.116
 10
5.558
 20
13.082
 10
5.522
 20
13.13
 42
-0.08
 10
5.496
 20
13.178
 42
-0.091
 10
5.48
 20
13.307
 42
-0.027
 10
5.486
 20
13.357
 10
5.494
 20
13.403
 42
0.103
 10
5.494
 20
13.492
 42
0.121
 10
5.435
 20
13.596
 10
5.41
 20
13.62
 10
5.386
 20
13.641
 42
-0.099
 10
5.345
 20
13.69
 42
-0.091
 10
5.325
 20
13.773
 42
-0.031
 10
5.323
 20
13.881
 42
0.011
 10
5.332
 20
14.113
 10
5.331
 20
14.13
 42
0.079
 10
5.328
 20
14.142
 42
0.079
 10
5.321
 20
14.152
 10
5.308
 20
14.164
 10
5.215
 20
14.242
 42
0.054
 10
5.137
 20
14.294
 42
0.071
 10
5.046
 20
14.322
 42
0.038
 10
4.915
 20
14.334
 42
0.008
 10
4.665
 20
14.334
 10
4.653758
 20
14.110643
 10
4.89499
 20
14.032348
 10
4.653758
 20
14.110643
 10
4.609
 20
13.82
 10
4.554
 20
13.806
 10
4.554
 20
12.861
  0
LWPOLYLINE
  5
4B
330
1F
100
AcDbEntity
  8
0
100
AcDbPolyline
 90
       16
 70
   128
 43
0.0
 10
20.585
 20
13.139
 10
20.837428
 20
13.147565
 10
20.833196
 20
13.437467
 10
20.837428
 20
13.145449
 10
21.113
 20
13.139
 10
21.113
 20
13.806
 42
0.081
 10
20.877
 20
13.833
 42
0.074
 10
20.84
 20
13.823
 42
0.033
 10
20.794
 20
13.798
 42
0.034
 10
20.685
 20
13.721
 42
0.031
 10
20.582
 20
13.628
 42
0.066
 10
20.516
 20
13.542
 42
0.137
 10
20.487
 20
13.44
 42
0.058
 10
20.498
 20
13.373
 42
0.026
 10
20.529
 20
13.278
 42
0.008
 10
20.585
 20
13.139
  0
LWPOLYLINE
  5
4C
330
1F
100
AcDbEntity
  8
0
100
AcDbPolyline
 90
       17
 70
   128
 43
0.0
 10
19.654
 20
13.083
 10
19.890749
 20
13.103921
 10
19.884401
 20
13.400171
 10
19.888633
 20
13.101805
 10
20.182
 20
13.111
 10
20.182
 20
13.639
 10
20.141
 20
13.764
 10
19.894
 20
13.776
 10
19.876
 20
13.777
 42
0.075
 10
19.864
 20
13.774
 42
0.075
 10
19.853
 20
13.768
 10
19.84
 20
13.756
 10
19.673
 20
13.602
 42
0.066
 10
19.564
 20
13.479
 42
0.17
 10
19.533
 20
13.349
 42
0.104
 10
19.599
 20
13.172
 42
0.016
 10
19.654
 20
13.083
  0
LWPOLYLINE
  5
4D
330
1F
100
AcDbEntity
  8
0
100
AcDbPolyline
 90
       24
 70
   128
 43
0.0
 10
18.598
 20
13.431
 42
0.006
 10
18.598
 20
13.278
 42
0.109
 10
18.634
 20
13.133
 42
0.075
 10
18.669
 20
13.081
 42
0.144
 10
18.71
 20
13.056
 42
0.067911
 10
18.963115
 20
13.046787
 10
18.956767
 20
13.36843
 10
18.960999
 20
13.044671
 10
19.238
 20
13.069
 10
19.238
 20
13.556
 10
19.168
 20
13.736
 10
18.963
 20
13.748
 42
0.058
 10
18.933
 20
13.748
 42
0.064
 10
18.905
 20
13.738
 42
0.069
 10
18.855
 20
13.708
 42
0.076
 10
18.808
 20
13.647
 42
-0.062
 10
18.759
 20
13.582
 42
-0.039
 10
18.727
 20
13.556
 10
18.693
 20
13.533
 42
0.151
 10
18.641
 20
13.475
 42
-0.016
 10
18.632
 20
13.447
 42
-0.101
 10
18.624
 20
13.436
 42
-0.153
 10
18.612
 20
13.431
 10
18.598
 20
13.431
  0
LWPOLYLINE
  5
4E
330
1F
100
AcDbEntity
  8
0
100
AcDbPolyline
 90
       16
 70
   128
 43
0.0
 10
17.782
 20
13.012
 10
18.001095
 20
13.004465
 10
17.998979
 20
13.357849
 10
18.001095
 20
13.000233
 10
18.307
 20
13.028
 10
18.307
 20
13.542
 10
18.168
 20
13.722
 10
18.005
 20
13.722
 42
0.134
 10
17.944
 20
13.71
 42
0.085
 10
17.752
 20
13.594
 42
0.121
 10
17.644
 20
13.442
 42
0.133
 10
17.628
 20
13.262
 42
0.102
 10
17.709
 20
13.062
 42
0.059
 10
17.736
 20
13.029
 42
0.11
 10
17.754
 20
13.016
 42
0.066
 10
17.782
 20
13.012
  0
LWPOLYLINE
  5
4F
330
1F
100
AcDbEntity
  8
0
100
AcDbPolyline
 90
       19
 70
   128
 43
0.0
 10
16.793
 20
12.972
 10
17.0523
 20
12.966376
 10
17.0523
 20
13.330341
 10
17.050184
 20
12.962144
 10
17.348
 20
12.986
 10
17.348
 20
13.56
 10
17.256
 20
13.667
 10
17.018
 20
13.679
 42
0.062
 10
16.987
 20
13.678
 42
0.062
 10
16.959
 20
13.667
 42
0.073
 10
16.883
 20
13.625
 42
0.079
 10
16.832
 20
13.556
 10
16.788
 20
13.482
 42
-0.059
 10
16.749
 20
13.439
 42
0.066
 10
16.681
 20
13.377
 42
0.132
 10
16.667
 20
13.333
 42
0.08
 10
16.684
 20
13.232
 42
0.026
 10
16.728
 20
13.112
 42
0.018
 10
16.793
 20
12.972
  0
LWPOLYLINE
  5
50
330
1F
100
AcDbEntity
  8
0
100
AcDbPolyline
 90
       22
 70
   128
 43
0.0
 10
16.118053
 20
12.911358
 10
16.120169
 20
13.298599
 10
16.115937
 20
12.907126
 42
0.005343
 10
16.292
 20
12.917
 42
0.056
 10
16.39
 20
12.944
 10
16.403
 20
13.502
 42
0.092
 10
16.4
 20
13.532
 42
0.092
 10
16.383
 20
13.557
 42
0.059
 10
16.292
 20
13.653
 42
0.093
 10
16.264
 20
13.664
 42
0.041
 10
16.222
 20
13.67
 42
0.043
 10
16.115
 20
13.666
 42
0.039
 10
16.004
 20
13.646
 42
0.081
 10
15.923
 20
13.611
 42
0.153
 10
15.764
 20
13.417
 42
0.094
 10
15.734
 20
13.197
 42
0.081
 10
15.762
 20
13.048
 42
0.06
 10
15.793
 20
12.984
 42
0.123
 10
15.834
 20
12.944
 42
0.084
 10
15.975
 20
12.908
 42
0.025
 10
16.056
 20
12.903
 10
16.118053
 20
12.911358
  0
LWPOLYLINE
  5
51
330
1F
100
AcDbEntity
  8
0
100
AcDbPolyline
 90
       20
 70
   128
 43
0.0
 10
14.21147
 20
12.809786
 10
14.205122
 20
13.243581
 10
14.21147
 20
12.805554
 10
14.473
 20
12.847
 10
14.5
 20
13.222
 10
14.5
 20
13.497
 42
0.079
 10
14.497
 20
13.527
 42
0.079
 10
14.482
 20
13.553
 10
14.446
 20
13.601
 42
0.103
 10
14.417
 20
13.628
 42
0.132
 10
14.38
 20
13.635
 42
0.039
 10
14.318
 20
13.626
 42
0.042
 10
14.115
 20
13.571
 42
0.074
 10
13.946
 20
13.481
 42
0.253
 10
13.792
 20
13.153
 42
0.11
 10
13.846
 20
12.984
 42
0.049
 10
13.897
 20
12.908
 42
0.097
 10
13.952
 20
12.861
 42
0.072
 10
14.153
 20
12.805
 10
14.21147
 20
12.809786
  0
LWPOLYLINE
  5
52
330
1F
100
AcDbEntity
  8
0
100
AcDbPolyline
 90
       17
 70
   128
 43
0.0
 10
15.154181
 20
12.862688
 10
15.147833
 20
13.27109
 10
15.154181
 20
12.858456
 10
15.445
 20
12.903
 42
0.02
 10
15.461
 20
13.305
 42
0.031
 10
15.452
 20
13.465
 42
0.116
 10
15.409
 20
13.588
 42
0.177
 10
15.323
 20
13.65
 42
0.113
 10
15.192
 20
13.652
 42
0.053
 10
15.014
 20
13.597
 42
0.177
 10
14.808
 20
13.414
 42
0.163
 10
14.764
 20
13.153
 42
0.083
 10
14.814
 20
13.011
 42
0.055
 10
14.857
 20
12.949
 42
0.098
 10
14.908
 20
12.908
 42
0.072
 10
15.098
 20
12.861
 10
15.154181
 20
12.862688
  0
LWPOLYLINE
  5
53
330
1F
100
AcDbEntity
  8
0
100
AcDbPolyline
 90
       20
 70
   128
 43
0.0
 10
20.95
 20
12.085
 10
21.155
 20
12.097
 10
21.169
 20
12.75
 10
20.988
 20
12.764
 10
20.873401
 20
12.758471
 10
20.879749
 20
12.466453
 10
20.873401
 20
12.760588
 10
20.664
 20
12.764
 42
0.036
 10
20.543
 20
12.542
 42
0.093
 10
20.522
 20
12.452
 42
0.182
 10
20.543
 20
12.389
 42
0.071
 10
20.582
 20
12.355
 10
20.633
 20
12.324
 42
-0.093
 10
20.733
 20
12.245
 42
-0.037
 10
20.756
 20
12.209
 10
20.777
 20
12.171
 42
0.128
 10
20.827
 20
12.111
 42
0.063
 10
20.856
 20
12.098
 10
20.888
 20
12.09
 42
0.098
 10
20.95
 20
12.085
  0
LWPOLYLINE
  5
54
330
1F
100
AcDbEntity
  8
0
100
AcDbPolyline
 90
       23
 70
   128
 43
0.0
 10
20.335
 20
12.722
 10
20.048132
 20
12.720382
 10
20.050248
 20
12.409319
 10
20.048132
 20
12.718266
 10
19.848
 20
12.722
 10
19.83
 20
12.721
 42
0.079
 10
19.818
 20
12.718
 42
0.079
 10
19.808
 20
12.711
 10
19.796
 20
12.699
 42
0.101
 10
19.702
 20
12.51
 42
0.071
 10
19.686
 20
12.402
 42
0.163
 10
19.71
 20
12.319
 42
0.086
 10
19.735
 20
12.297
 10
19.805
 20
12.263
 42
-0.045
 10
19.838
 20
12.243
 42
-0.083
 10
19.879
 20
12.199
 10
19.911
 20
12.146
 42
0.16
 10
20.002
 20
12.055
 42
0.076
 10
20.09
 20
12.034
 42
0.033
 10
20.189
 20
12.031
 42
0.026
 10
20.301
 20
12.04
 42
0.025
 10
20.335
 20
12.25
 42
0.042
 10
20.335
 20
12.722
  0
LWPOLYLINE
  5
55
330
1F
100
AcDbEntity
  8
0
100
AcDbPolyline
 90
       22
 70
   128
 43
0.0
 10
19.501
 20
12.694
 10
19.217573
 20
12.703454
 10
19.221805
 20
12.38181
 10
19.217573
 20
12.70557
 10
19.014
 20
12.697
 42
0.096
 10
18.984
 20
12.691
 42
0.096
 10
18.962
 20
12.671
 42
0.105
 10
18.86
 20
12.482
 42
0.084
 10
18.848
 20
12.381
 42
0.155
 10
18.876
 20
12.298
 42
0.064
 10
18.936
 20
12.247
 42
-0.042
 10
19.002
 20
12.193
 42
-0.05
 10
19.078
 20
12.096
 42
0.036
 10
19.128
 20
12.025
 42
0.163
 10
19.195
 20
11.985
 42
0.088
 10
19.321
 20
11.986
 42
0.181
 10
19.46
 20
12.052
 42
0.143
 10
19.52
 20
12.187
 42
0.054
 10
19.528
 20
12.373
 10
19.521
 20
12.48
 10
19.511
 20
12.593
 10
19.501
 20
12.694
  0
LWPOLYLINE
  5
56
330
1F
100
AcDbEntity
  8
0
100
AcDbPolyline
 90
       23
 70
   128
 43
0.0
 10
18.654
 20
12.653
 10
18.37855
 20
12.680177
 10
18.384898
 20
12.326792
 10
18.37855
 20
12.675945
 42
0.031693
 10
18.263
 20
12.681
 42
0.073
 10
18.163
 20
12.667
 42
0.171
 10
18.103
 20
12.619
 42
0.041
 10
18.085
 20
12.586
 10
18.071
 20
12.55
 42
0.024
 10
18.012
 20
12.408
 42
0.071
 10
17.999
 20
12.335
 42
0.154
 10
18.015
 20
12.273
 42
0.081
 10
18.045
 20
12.243
 42
-0.005
 10
18.123
 20
12.189
 42
-0.082
 10
18.154
 20
12.156
 42
-0.047
 10
18.167
 20
12.13
 10
18.178
 20
12.101
 42
0.219
 10
18.346
 20
11.959
 42
0.184
 10
18.562
 20
11.972
 42
0.157
 10
18.65
 20
12.06
 42
0.087
 10
18.695
 20
12.198
 42
0.085
 10
18.682
 20
12.528
 42
0.008
 10
18.654
 20
12.653
  0
LWPOLYLINE
  5
57
330
1F
100
AcDbEntity
  8
0
100
AcDbPolyline
 90
       36
 70
   128
 43
0.0
 10
8.513
 20
12.041
 10
7.721
 20
11.805
 42
-0.007
 10
7.78
 20
11.565
 42
-0.056
 10
7.8
 20
11.423
 42
-0.058
 10
7.779
 20
11.282
 42
-0.008
 10
7.721
 20
11.055
 10
8.538
 20
10.768
 10
8.177352
 20
10.895136
 42
0.009025
 10
8.091
 20
10.597
 42
0.109
 10
8.096
 20
10.499
 42
0.116
 10
8.133
 20
10.435
 42
0.061
 10
8.203
 20
10.375
 42
0.058
 10
8.403
 20
10.276
 42
0.036
 10
8.619
 20
10.213
 42
0.06
 10
8.777
 20
10.194
 42
0.131
 10
8.871
 20
10.219
 42
0.16
 10
8.919
 20
10.283
 42
0.044
 10
8.947
 20
10.388
 10
8.978
 20
10.538
 42
0.068
 10
8.986
 20
10.6
 10
9.011085
 20
11.425742
 10
8.632308
 20
11.415161
 10
9.013201
 20
11.425742
 10
9.013
 20
12.163
 42
0.077
 10
9.006
 20
12.225
 10
8.957
 20
12.435
 42
0.067
 10
8.9
 20
12.586
 42
0.183
 10
8.808
 20
12.667
 42
0.084
 10
8.74
 20
12.677
 42
0.055
 10
8.652
 20
12.667
 42
0.077
 10
8.316
 20
12.515
 42
0.078
 10
8.163
 20
12.383
 42
0.08
 10
8.119
 20
12.309
 42
0.116628
 10
8.109638
 20
12.244927
 42
-0.005964
 10
8.147727
 20
11.933864
 10
8.513
 20
12.041
  0
LWPOLYLINE
  5
58
330
1F
100
AcDbEntity
  8
0
100
AcDbPolyline
 90
      136
 70
   128
 43
0.0
 10
1.636
 20
11.18
 10
1.636
 20
10.739
 10
1.637
 20
10.722
 42
0.075
 10
1.64
 20
10.709
 42
0.075
 10
1.647
 20
10.699
 10
1.659
 20
10.686
 10
1.691
 20
10.652
 42
0.112
 10
1.734
 20
10.624
 42
0.075
 10
1.846
 20
10.609
 42
0.010287
 10
1.959863
 20
10.611714
 10
1.959863
 20
11.009536
 10
1.959863
 20
10.611714
 10
2.165
 20
10.611
 42
0.087
 10
2.195
 20
10.614
 42
0.091
 10
2.22
 20
10.63
 42
0.083
 10
2.305
 20
10.74
 42
0.034
 10
2.374
 20
10.886
 10
2.433
 20
11.041
 10
2.495759
 20
11.216912
 10
2.425928
 20
11.026465
 10
2.773493
 20
10.927009
 10
2.837
 20
11.123
 10
2.773493
 20
10.922777
 10
3.069744
 20
10.82967
 10
3.124
 20
11.051
 10
3.069744
 20
10.82967
 10
3.374988
 20
10.761956
 10
3.418896
 20
10.975679
 10
3.374988
 20
10.761956
 10
3.662774
 20
10.687893
 10
3.706682
 20
10.922777
 10
3.660658
 20
10.683661
 10
3.963256
 20
10.643456
 10
3.992881
 20
10.895268
 10
3.963256
 20
10.641339
 10
4.275113
 20
10.61383
 10
4.29
 20
10.861
 10
4.275113
 20
10.611714
 10
4.58406
 20
10.584205
 10
4.586176
 20
10.831786
 10
4.58406
 20
10.582089
 10
4.887187
 20
10.582089
 10
4.875
 20
10.838
 10
4.887187
 20
10.579973
 10
5.196134
 20
10.601134
 10
5.158045
 20
10.855063
 10
5.194018
 20
10.601134
 10
5.503494
 20
10.666732
 10
5.469637
 20
10.897384
 10
5.503494
 20
10.668848
 10
5.81297
 20
10.736563
 10
5.749487
 20
10.990492
 10
5.81297
 20
10.734447
 10
6.092291
 20
10.806393
 10
6.033041
 20
11.049742
 10
6.092291
 20
10.806393
 10
6.422399
 20
10.884688
 10
6.372
 20
11.116
 10
6.422399
 20
10.886804
 10
6.706482
 20
10.961396
 10
6.661
 20
11.167
 10
6.706482
 20
10.961396
 10
6.997178
 20
10.988905
 10
6.965437
 20
11.213209
 10
6.997178
 20
10.984672
 10
7.429
 20
10.986
 10
7.422509
 20
11.609443
 10
6.863865
 20
11.609443
 10
7.418277
 20
11.609443
 10
7.429
 20
12.236
 10
7.010932
 20
12.229982
 10
7.007758
 20
11.99933
 10
7.010932
 20
12.229982
 10
6.704102
 20
12.26913
 10
6.673418
 20
12.055406
 10
6.704102
 20
12.270188
 10
6.434038
 20
12.307483
 10
6.395155
 20
12.091379
 10
6.434038
 20
12.307483
 10
6.106707
 20
12.396358
 10
6.077
 20
12.14
 10
6.106707
 20
12.396358
 10
5.803844
 20
12.4281
 10
5.754
 20
12.216
 10
5.803844
 20
12.4281
 10
5.511561
 20
12.500575
 10
5.452
 20
12.278
 10
5.511561
 20
12.502691
 10
5.213195
 20
12.547129
 10
5.169698
 20
12.334547
 10
5.213195
 20
12.549245
 10
4.912712
 20
12.593682
 10
4.885203
 20
12.377843
 10
4.910596
 20
12.591566
 10
4.604823
 20
12.597915
 10
4.609056
 20
12.382075
 10
4.604823
 20
12.597915
 10
4.306457
 20
12.593682
 10
4.315
 20
12.361
 10
4.308573
 20
12.591566
 10
3.995394
 20
12.551361
 10
4.014439
 20
12.335521
 10
3.99751
 20
12.549245
 10
3.675338
 20
12.506923
 10
3.719775
 20
12.299548
 10
3.673222
 20
12.504807
 10
3.376971
 20
12.462486
 10
3.434105
 20
12.236066
 10
3.376971
 20
12.46037
 10
3.069347
 20
12.40112
 10
3.13
 20
12.167
 10
3.069347
 20
12.399004
 10
2.794257
 20
12.314361
 10
2.864912
 20
12.100689
 10
2.796374
 20
12.310128
 10
2.417067
 20
12.265691
 10
2.514407
 20
12.005414
 10
2.388
 20
12.342
 42
0.026
 10
2.319
 20
12.522
 42
0.045
 10
2.281
 20
12.587
 42
0.116
 10
2.242
 20
12.625
 42
0.107
 10
2.092
 20
12.656
 42
0.014472
 10
1.968195
 20
12.653462
 10
1.957615
 20
12.257756
 10
1.968195
 20
12.651345
 10
1.734
 20
12.639
 10
1.636
 20
12.574
 10
1.636
 20
12.166
 42
0.026
 10
1.247
 20
12.083
 42
0.159
 10
0.979
 20
11.885
 42
0.097
 10
0.91
 20
11.738
 42
0.134
 10
0.914
 20
11.583
 42
0.107
 10
1.02
 20
11.399
 42
0.119
 10
1.192
 20
11.277
 42
0.039
 10
1.472
 20
11.207
 42
0.011
 10
1.636
 20
11.18
  0
LWPOLYLINE
  5
59
330
1F
100
AcDbEntity
  8
0
100
AcDbPolyline
 90
       29
 70
   128
 43
0.0
 10
17.473
 20
11.94
 10
17.473
 20
11.93
 10
17.678
 20
11.93
 42
0.072
 10
17.709
 20
11.933
 42
0.072
 10
17.736
 20
11.947
 42
0.06
 10
17.79
 20
11.988
 42
0.086
 10
17.822
 20
12.042
 42
0.059
 10
17.832
 20
12.07
 42
0.054
 10
17.834
 20
12.1
 10
17.819112
 20
12.633623
 10
17.765
 20
12.639
 10
17.520746
 20
12.650552
 10
17.533442
 20
12.288703
 10
17.520746
 20
12.652668
 42
0.051099
 10
17.404
 20
12.645
 42
0.065
 10
17.279
 20
12.611
 42
0.141
 10
17.202
 20
12.542
 42
0.094
 10
17.161
 20
12.441
 42
0.08
 10
17.156
 20
12.332
 42
0.108
 10
17.185
 20
12.24
 10
17.207
 20
12.21
 10
17.233
 20
12.18
 42
-0.04
 10
17.284
 20
12.116
 42
0.023
 10
17.348
 20
12.012
 42
0.172
 10
17.447
 20
11.951
 42
-0.031
 10
17.469
 20
11.945
 42
-0.043
 10
17.471
 20
11.943
 42
-0.08
 10
17.472
 20
11.942
 42
-0.176
 10
17.473
 20
11.94
  0
LWPOLYLINE
  5
5A
330
1F
100
AcDbEntity
  8
0
100
AcDbPolyline
 90
       18
 70
   128
 43
0.0
 10
16.974
 20
11.998
 10
16.987
 20
12.583
 10
16.698651
 20
12.629391
 10
16.698651
 20
12.227337
 10
16.698651
 20
12.627275
 42
0.054886
 10
16.487
 20
12.611
 42
0.166
 10
16.392
 20
12.544
 42
0.09
 10
16.334
 20
12.428
 42
0.066
 10
16.312
 20
12.302
 42
0.101
 10
16.326
 20
12.203
 42
0.087
 10
16.459
 20
11.986
 42
0.154
 10
16.64
 20
11.875
 42
0.028
 10
16.761
 20
11.853
 42
0.09
 10
16.837
 20
11.857
 42
0.111
 10
16.892
 20
11.887
 42
0.029
 10
16.951
 20
11.945
 42
0.093
 10
16.97
 20
11.969
 42
0.093
 10
16.974
 20
11.998
  0
LWPOLYLINE
  5
5B
330
1F
100
AcDbEntity
  8
0
100
AcDbPolyline
 90
       26
 70
   128
 43
0.0
 10
16.14
 20
12.555
 10
15.862273
 20
12.601882
 10
15.862273
 20
12.189248
 10
15.862273
 20
12.601882
 42
0.026673
 10
15.718
 20
12.589
 42
0.079
 10
15.598
 20
12.555
 42
0.085
 10
15.58
 20
12.539
 42
0.062
 10
15.515
 20
12.433
 42
0.02
 10
15.478
 20
12.35
 42
0.043
 10
15.459
 20
12.291
 42
0.074
 10
15.459
 20
12.246
 42
0.038
 10
15.472
 20
12.189
 42
0.045
 10
15.525
 20
12.056
 42
0.047
 10
15.601
 20
11.934
 42
0.041
 10
15.642
 20
11.888
 42
0.078
 10
15.681
 20
11.861
 42
0.047
 10
15.688
 20
11.859
 10
15.739
 20
11.852
 10
15.848
 20
11.841
 10
15.999
 20
11.831
 42
0.027
 10
16.021
 20
11.831
 42
0.146
 10
16.1
 20
11.862
 42
0.136
 10
16.153
 20
11.939
 42
0.079
 10
16.181
 20
12.113
 42
0.03
 10
16.173
 20
12.317
 42
0.022
 10
16.14
 20
12.555
  0
LWPOLYLINE
  5
5C
330
1F
100
AcDbEntity
  8
0
100
AcDbPolyline
 90
       20
 70
   128
 43
0.0
 10
14.649113
 20
12.329538
 42
0.215022
 10
14.651
 20
12.057
 42
0.193
 10
14.818
 20
11.849
 42
0.056
 10
14.952
 20
11.79
 42
0.028
 10
15.116
 20
11.749
 42
0.07
 10
15.171
 20
11.744
 42
0.139
 10
15.208
 20
11.757
 42
0.055
 10
15.245
 20
11.793
 10
15.299
 20
11.852
 42
0.096
 10
15.316
 20
11.876
 42
0.096
 10
15.319
 20
11.906
 10
15.306
 20
12.514
 42
0.069
 10
15.181
 20
12.555
 42
-0.004222
 10
15.008437
 20
12.567496
 10
15.006321
 20
12.146397
 10
15.008437
 20
12.567496
 42
0.11712
 10
14.869
 20
12.545
 42
0.071
 10
14.74
 20
12.48
 42
0.134
 10
14.67
 20
12.383
 42
-0.010499
 10
14.649113
 20
12.329538
  0
LWPOLYLINE
  5
5D
330
1F
100
AcDbEntity
  8
0
100
AcDbPolyline
 90
       54
 70
   128
 43
0.0
 10
14.473
 20
10.777
 10
14.459
 20
10.958
 42
0.037
 10
14.619
 20
10.982
 10
14.649
 20
10.991
 42
0.062
 10
14.67
 20
11.002
 42
0.293
 10
14.679
 20
11.022
 42
0.093
 10
14.669
 20
11.048
 42
-0.056
 10
14.638
 20
11.11
 42
-0.178
 10
14.646
 20
11.165
 42
-0.055
 10
14.682
 20
11.22
 10
14.721
 20
11.27
 42
0.046
 10
14.735
 20
11.293
 42
0.109
 10
14.739
 20
11.313
 42
0.184
 10
14.732
 20
11.329
 42
0.085
 10
14.712
 20
11.344
 42
0.064
 10
14.64
 20
11.368
 42
0.05
 10
14.424
 20
11.39
 10
14.296
 20
11.391
 42
-0.04
 10
14.198
 20
11.398
 42
-0.241
 10
14.07
 20
11.486
 42
-0.059
 10
14.023
 20
11.601
 42
-0.012
 10
13.948
 20
11.911
 42
0.025
 10
13.903
 20
12.069
 42
0.064
 10
13.798
 20
12.29
 42
0.109
 10
13.66
 20
12.425
 42
0.093
 10
13.47
 20
12.493
 42
0.043
 10
13.208
 20
12.514
 10
12.972509
 20
12.524645
 10
12.964044
 20
12.135288
 10
12.972509
 20
12.526761
 42
0.034708
 10
12.736
 20
12.514
 42
0.161
 10
12.413
 20
12.34
 42
0.102
 10
12.315
 20
12.191
 42
0.159
 10
12.305
 20
12.028
 42
0.082
 10
12.356
 20
11.927
 42
0.043
 10
12.439
 20
11.829
 42
0.081
 10
12.617
 20
11.694
 42
0.064
 10
12.807
 20
11.642
 10
12.913
 20
11.628
 10
13.021
 20
11.617
 42
-0.025
 10
13.229
 20
11.588
 42
-0.088
 10
13.397
 20
11.527
 42
-0.117
 10
13.527
 20
11.386
 10
13.571
 20
11.31
 10
13.62
 20
11.22
 42
0.021
 10
13.731
 20
11.031
 42
0.068
 10
13.86
 20
10.877
 42
0.075
 10
13.93
 20
10.832
 42
0.116
 10
14.004
 20
10.818
 42
0.072
 10
14.051
 20
10.828
 10
14.101
 20
10.847
 42
-0.129
 10
14.233
 20
10.862
 42
-0.056
 10
14.39
 20
10.814
 42
-0.017
 10
14.473
 20
10.777
  0
LWPOLYLINE
  5
5E
330
1F
100
AcDbEntity
  8
0
100
AcDbPolyline
 90
       41
 70
   128
 43
0.0
 10
16.723
 20
10.291
 42
0.086
 10
16.735
 20
10.119
 42
0.107
 10
16.798
 20
9.992
 42
0.099
 10
16.902
 20
9.905
 42
0.072
 10
17.038
 20
9.856
 42
0.087
 10
17.368
 20
9.851
 42
0.06
 10
17.709
 20
9.944
 42
0.072
 10
17.888
 20
10.047
 42
0.028
 10
18.028
 20
10.173
 10
18.085
 20
10.228
 10
18.138
 20
10.277
 42
-0.086
 10
18.255
 20
10.348
 42
-0.091
 10
18.418
 20
10.374
 42
-0.034
 10
18.633
 20
10.361
 10
18.71
 20
10.35
 10
18.775
 20
10.343
 42
0.107
 10
18.893
 20
10.359
 42
0.076
 10
19.037
 20
10.444
 42
0.109
 10
19.373
 20
10.86
 42
0.081
 10
19.46
 20
11.132
 42
0.127
 10
19.432
 20
11.402
 42
0.118
 10
19.334
 20
11.544
 42
0.084
 10
19.18
 20
11.639
 42
0.053
 10
18.987
 20
11.695
 42
0.034
 10
18.773
 20
11.719
 42
0.044
 10
18.352
 20
11.7
 42
0.046
 10
18.057
 20
11.639
 42
0.052
 10
17.862
 20
11.55
 42
0.105
 10
17.71
 20
11.414
 42
0.07
 10
17.626
 20
11.231
 42
0.019
 10
17.568
 20
11.02
 42
-0.023
 10
17.517
 20
10.833
 42
-0.046
 10
17.487
 20
10.764
 42
-0.11
 10
17.45
 20
10.722
 42
-0.095
 10
17.359
 20
10.685
 42
-0.03
 10
17.248
 20
10.669
 10
17.13
 20
10.655
 42
0.057
 10
17.015
 20
10.624
 42
0.093
 10
16.837
 20
10.495
 42
0.059
 10
16.76
 20
10.396
 42
0.11
 10
16.723
 20
10.291
  0
LWPOLYLINE
  5
5F
330
1F
100
AcDbEntity
  8
0
100
AcDbPolyline
 90
       79
 70
   128
 43
0.0
 10
12.991
 20
9.721
 10
13.0
 20
9.721
 10
13.0
 20
9.819
 42
0.021
 10
13.281
 20
9.715
 42
0.046
 10
13.38
 20
9.691
 42
0.207
 10
13.41
 20
9.701
 42
0.139
 10
13.43
 20
9.734
 42
0.167
 10
13.42
 20
9.851
 42
0.042
 10
13.409
 20
9.874
 42
-0.023
 10
13.389
 20
9.906
 42
-0.089
 10
13.388
 20
9.912
 42
-0.167
 10
13.389
 20
9.916
 42
-0.141
 10
13.395
 20
9.92
 42
-0.058
 10
13.404
 20
9.922
 42
-0.047
 10
13.433
 20
9.923
 42
-0.046
 10
13.51
 20
9.91
 10
13.588
 20
9.887
 42
0.052
 10
13.659
 20
9.871
 42
0.097
 10
13.686
 20
9.873
 42
0.199
 10
13.702
 20
9.886
 42
0.147
 10
13.706
 20
9.913
 42
0.063
 10
13.695
 20
9.958
 42
0.077
 10
13.663
 20
10.009
 42
0.028
 10
13.619
 20
10.058
 42
-0.032
 10
13.569
 20
10.11
 42
-0.055
 10
13.566
 20
10.114
 42
-0.065
 10
13.565
 20
10.116
 42
-0.121
 10
13.565
 20
10.117
 42
-0.222
 10
13.567
 20
10.119
 42
-0.085
 10
13.57
 20
10.119
 42
-0.045
 10
13.58
 20
10.118
 42
0.048
 10
13.655
 20
10.109
 42
0.117
 10
13.693
 20
10.118
 42
0.308
 10
13.728
 20
10.178
 42
0.119
 10
13.696
 20
10.264
 10
13.687
 20
10.279
 42
0.083
 10
13.678
 20
10.287
 42
0.083
 10
13.667
 20
10.292
 10
13.65
 20
10.296
 10
13.56
 20
10.307
 10
13.461
 20
10.316
 42
-0.016
 10
13.259
 20
10.337
 42
-0.06
 10
13.082
 20
10.383
 42
-0.172
 10
12.972
 20
10.472
 42
-0.084
 10
12.948
 20
10.549
 42
-0.031
 10
12.941
 20
10.644
 42
0.03
 10
12.931
 20
10.847
 42
0.057
 10
12.875
 20
11.019
 42
0.026
 10
12.669
 20
11.428
 10
12.589
 20
11.57
 42
0.03
 10
12.58
 20
11.585
 42
0.088
 10
12.571
 20
11.594
 42
0.088
 10
12.56
 20
11.599
 42
0.03
 10
12.543
 20
11.602
 42
-0.004
 10
12.125
 20
11.668
 42
0.041
 10
11.741
 20
11.702
 42
0.103
 10
11.4
 20
11.635
 42
0.13
 10
11.111
 20
11.397
 42
0.112
 10
11.023
 20
11.212
 42
0.13
 10
11.033
 20
11.028
 42
0.098
 10
11.135
 20
10.85
 42
0.062
 10
11.325
 20
10.68
 42
0.083
 10
11.486
 20
10.597
 42
0.06
 10
11.649
 20
10.571
 10
11.735
 20
10.569
 10
11.822
 20
10.568
 42
-0.033
 10
11.991
 20
10.559
 42
-0.091
 10
12.139
 20
10.513
 42
-0.108
 10
12.249
 20
10.401
 42
-0.024
 10
12.36
 20
10.219
 10
12.417
 20
10.117
 10
12.476
 20
10.017
 42
0.051
 10
12.603
 20
9.846
 42
0.071
 10
12.757
 20
9.739
 42
0.065
 10
12.864
 20
9.699
 42
0.152
 10
12.96
 20
9.703
 42
0.079
 10
12.978
 20
9.714
 42
-0.046
 10
12.986
 20
9.72
 42
-0.144
 10
12.991
 20
9.721
  0
LWPOLYLINE
  5
60
330
1F
100
AcDbEntity
  8
0
100
AcDbPolyline
 90
       64
 70
   128
 43
0.0
 10
16.445
 20
10.305
 10
16.445
 20
10.291
 42
0.056
 10
16.565
 20
10.305
 42
0.22
 10
16.599
 20
10.335
 42
0.197
 10
16.599
 20
10.384
 42
0.042
 10
16.566
 20
10.45
 10
16.529
 20
10.512
 42
-0.073
 10
16.505
 20
10.567
 42
-0.233
 10
16.513
 20
10.611
 42
-0.109
 10
16.537
 20
10.628
 10
16.6
 20
10.654
 42
0.091
 10
16.626
 20
10.672
 42
0.15
 10
16.642
 20
10.706
 42
0.082
 10
16.641
 20
10.75
 42
0.068
 10
16.606
 20
10.854
 10
16.546
 20
10.966
 42
-0.033
 10
16.523
 20
11.015
 42
-0.086
 10
16.514
 20
11.058
 42
-0.12
 10
16.524
 20
11.099
 42
-0.051
 10
16.549
 20
11.136
 42
0.077
 10
16.599
 20
11.21
 42
0.094
 10
16.601
 20
11.221
 42
0.048
 10
16.599
 20
11.237
 42
0.045
 10
16.584
 20
11.279
 42
0.04
 10
16.527
 20
11.383
 42
0.033
 10
16.449
 20
11.488
 42
0.076
 10
16.376
 20
11.555
 42
0.06
 10
16.272
 20
11.595
 42
0.028
 10
16.117
 20
11.628
 42
0.04
 10
15.725
 20
11.657
 42
0.063
 10
15.339
 20
11.612
 42
0.068
 10
15.191
 20
11.552
 42
0.128
 10
15.098
 20
11.463
 42
0.081
 10
15.067
 20
11.375
 42
0.029
 10
15.054
 20
11.268
 42
-0.034
 10
15.028
 20
11.027
 42
-0.064
 10
14.942
 20
10.796
 42
-0.02
 10
14.812
 20
10.57
 42
0.015
 10
14.682
 20
10.35
 42
0.064
 10
14.598
 20
10.138
 42
0.107
 10
14.599
 20
9.883
 42
0.076
 10
14.693
 20
9.635
 42
0.084
 10
14.845
 20
9.443
 42
0.155
 10
15.019
 20
9.356
 42
0.08
 10
15.084
 20
9.364
 42
0.034
 10
15.173
 20
9.393
 42
0.037
 10
15.39
 20
9.501
 42
0.036
 10
15.608
 20
9.651
 42
0.071
 10
15.765
 20
9.81
 42
0.078
 10
15.817
 20
9.924
 42
0.041
 10
15.848
 20
10.083
 42
0.017
 10
15.882
 20
10.531
 42
0.005
 10
15.892
 20
10.789
 42
0.019
 10
16.066
 20
10.332
 42
0.039
 10
16.098
 20
10.273
 42
0.081
 10
16.134
 20
10.232
 42
0.185
 10
16.172
 20
10.219
 42
0.191
 10
16.211
 20
10.24
 42
0.053
 10
16.226
 20
10.262
 10
16.241
 20
10.286
 42
-0.197
 10
16.29
 20
10.323
 42
-0.071
 10
16.337
 20
10.325
 42
-0.03
 10
16.388
 20
10.318
 42
-0.024
 10
16.445
 20
10.305
  0
LWPOLYLINE
  5
61
330
1F
100
AcDbEntity
  8
0
100
AcDbPolyline
 90
       50
 70
   128
 43
0.0
 10
19.95
 20
10.152
 10
19.704
 20
10.833
 42
0.05
 10
19.682
 20
10.835
 42
0.138
 10
19.641
 20
10.824
 42
0.125
 10
19.61
 20
10.789
 42
0.051
 10
19.591
 20
10.74
 42
0.037
 10
19.578
 20
10.68
 10
19.418
 20
10.666
 42
-0.038
 10
19.458
 20
10.522
 10
19.461
 20
10.494
 42
-0.063
 10
19.46
 20
10.472
 42
-0.165
 10
19.453
 20
10.46
 42
-0.142
 10
19.442
 20
10.455
 42
-0.087
 10
19.407
 20
10.458
 42
0.072
 10
19.321
 20
10.472
 42
0.142
 10
19.273
 20
10.455
 42
0.214
 10
19.257
 20
10.424
 42
0.105
 10
19.264
 20
10.381
 42
0.043
 10
19.287
 20
10.332
 10
19.319
 20
10.28
 10
19.379
 20
10.188
 10
19.387
 20
10.171
 42
-0.065
 10
19.391
 20
10.157
 42
-0.125
 10
19.384
 20
10.108
 42
-0.051
 10
19.359
 20
10.06
 42
0.066
 10
19.306
 20
9.967
 42
0.182
 10
19.311
 20
9.887
 42
0.113
 10
19.369
 20
9.815
 42
0.091
 10
19.592
 20
9.701
 42
0.051
 10
19.881
 20
9.637
 42
0.069
 10
20.141
 20
9.638
 42
0.02
 10
20.621
 20
9.756
 42
-0.038
 10
20.696
 20
10.166
 42
-0.052
 10
20.939
 20
10.759
 42
0.057876
 10
21.082893
 20
11.06667
 10
20.699883
 20
11.06667
 10
21.07866
 20
11.06667
 42
0.030961
 10
21.099
 20
11.277
 42
0.14
 10
21.034
 20
11.468
 42
0.064
 10
20.972
 20
11.542
 42
0.104
 10
20.905
 20
11.583
 42
0.086
 10
20.821
 20
11.592
 42
0.049
 10
20.722
 20
11.577
 42
0.053
 10
20.505
 20
11.496
 42
0.038
 10
20.307
 20
11.38
 42
0.067
 10
20.182
 20
11.272
 42
0.077
 10
20.064
 20
11.06
 42
0.055
 10
20.002
 20
10.805
 42
0.018
 10
19.963
 20
10.386
 42
0.005
 10
19.95
 20
10.152
  0
LWPOLYLINE
  5
62
330
1F
100
AcDbEntity
  8
0
100
AcDbPolyline
 90
       63
 70
   128
 43
0.0
 10
11.014082
 20
9.880346
 10
11.337841
 20
9.873998
 10
11.011966
 20
9.880346
 42
-0.029131
 10
11.041
 20
9.621
 42
0.035
 10
11.097
 20
9.235
 42
0.091
 10
11.245
 20
8.911
 42
0.094
 10
11.458
 20
8.693
 42
0.047
 10
11.484
 20
8.681
 42
0.036
 10
11.64
 20
8.637
 42
0.026
 10
12.264
 20
8.531
 42
0.019
 10
12.375
 20
8.522
 10
12.413
 20
8.523
 42
0.074
 10
12.435
 20
8.527
 42
0.139
 10
12.515
 20
8.59
 42
0.138
 10
12.555
 20
8.707
 42
0.07
 10
12.548
 20
8.803
 10
12.525
 20
8.898
 42
-0.038
 10
12.506
 20
8.988
 42
-0.116
 10
12.514
 20
9.068
 42
-0.096
 10
12.551
 20
9.127
 42
-0.042
 10
12.61
 20
9.179
 42
0.015
 10
12.74
 20
9.279
 42
0.072
 10
12.76
 20
9.3
 42
0.118
 10
12.766
 20
9.322
 10
12.768
 20
9.343
 42
0.133
 10
12.764
 20
9.365
 42
0.101
 10
12.747
 20
9.384
 42
0.045
 10
12.718
 20
9.403
 42
0.038
 10
12.645
 20
9.433
 42
0.024
 10
12.547
 20
9.462
 42
0.022
 10
12.553
 20
9.558
 42
0.034
 10
12.55
 20
9.635
 42
0.037
 10
12.544
 20
9.668
 42
0.077
 10
12.533
 20
9.693
 42
0.231
 10
12.503
 20
9.711
 42
0.097
 10
12.461
 20
9.706
 42
-0.012
 10
12.36
 20
9.673
 42
-0.106
 10
12.318
 20
9.671
 42
-0.198
 10
12.287
 20
9.692
 42
-0.047
 10
12.269
 20
9.725
 42
0.049
 10
12.253
 20
9.755
 42
0.197
 10
12.23
 20
9.771
 42
0.15
 10
12.189
 20
9.763
 42
0.088
 10
12.178
 20
9.755
 42
0.05
 10
12.167
 20
9.742
 42
0.048
 10
12.146
 20
9.704
 42
0.034
 10
12.111
 20
9.596
 42
0.014
 10
12.072
 20
9.426
 42
-0.087
 10
12.019
 20
9.301
 42
-0.073
 10
11.979
 20
9.256
 42
-0.136
 10
11.935
 20
9.235
 42
-0.078
 10
11.791
 20
9.249
 42
0.038
 10
11.89
 20
9.783
 42
0.061
 10
11.889
 20
9.999
 42
0.104
 10
11.827
 20
10.147
 42
0.064
 10
11.707
 20
10.283
 42
0.084
 10
11.375
 20
10.485
 42
0.097
 10
11.259
 20
10.511
 42
0.154
 10
11.168
 20
10.483
 42
0.124
 10
11.1
 20
10.401
 42
0.066
 10
11.055
 20
10.263
 42
0.026
 10
11.013
 20
9.93
 10
11.014082
 20
9.880346
  0
LWPOLYLINE
  5
63
330
1F
100
AcDbEntity
  8
0
100
AcDbPolyline
 90
       46
 70
   128
 43
0.0
 10
2.707
 20
9.353
 42
-0.066
 10
2.719
 20
9.352
 42
-0.102
 10
2.722
 20
9.351
 42
-0.207
 10
2.723
 20
9.349
 42
-0.15
 10
2.722
 20
9.347
 42
-0.064
 10
2.72
 20
9.344
 42
-0.047
 10
2.712
 20
9.337
 42
-0.013
 10
2.584
 20
9.262
 10
2.53
 20
9.23
 42
0.052
 10
2.442
 20
9.166
 42
0.219
 10
2.411
 20
9.091
 42
0.14
 10
2.441
 20
9.012
 42
0.128
 10
2.595
 20
8.888
 42
0.104
 10
2.85
 20
8.838
 42
0.067
 10
3.122
 20
8.874
 42
0.067
 10
3.352
 20
8.969
 42
0.052
 10
3.434
 20
9.028
 42
0.09
 10
3.484
 20
9.092
 42
0.065
 10
3.49
 20
9.111
 42
0.052
 10
3.495
 20
9.227
 42
0.034
 10
3.444
 20
9.712
 42
0.046
 10
3.401
 20
9.888
 42
0.054
 10
3.296
 20
10.087
 42
0.13
 10
3.151
 20
10.222
 42
0.095
 10
3.019
 20
10.25
 42
0.036
 10
2.862
 20
10.245
 10
2.69
 20
10.227
 42
-0.032
 10
2.511
 20
10.222
 42
-0.051
 10
2.227
 20
10.265
 42
-0.015
 10
1.983
 20
10.337
 42
0.038
 10
1.76
 20
10.393
 42
0.095
 10
1.539
 20
10.388
 42
0.145
 10
1.085
 20
10.13
 42
0.106
 10
0.959
 20
9.93
 42
0.166
 10
0.956
 20
9.716
 42
0.049
 10
0.981
 20
9.663
 42
0.043
 10
1.153
 20
9.433
 42
0.022
 10
1.292
 20
9.282
 42
0.021
 10
1.352
 20
9.227
 42
0.05
 10
1.4
 20
9.194
 42
0.088
 10
1.635
 20
9.133
 42
0.062
 10
1.914
 20
9.138
 42
0.034
 10
2.122
 20
9.187
 10
2.229
 20
9.221
 42
-0.009
 10
2.535
 20
9.32
 42
-0.053
 10
2.707
 20
9.353
  0
LWPOLYLINE
  5
64
330
1F
100
AcDbEntity
  8
0
100
AcDbPolyline
 90
       54
 70
   128
 43
0.0
 10
6.804
 20
10.041
 10
6.596
 20
10.055
 42
0.038
 10
6.612
 20
10.243
 42
0.102
 10
6.597
 20
10.31
 42
0.132
 10
6.561
 20
10.353
 42
0.186
 10
6.443
 20
10.374
 42
0.051
 10
6.379
 20
10.358
 10
6.314
 20
10.333
 42
-0.066
 10
6.179
 20
10.291
 42
-0.096
 10
5.999
 20
10.312
 42
0.017
 10
5.818
 20
10.36
 42
0.142
 10
5.596
 20
10.347
 42
0.051
 10
5.49
 20
10.292
 42
0.008
 10
5.333
 20
10.183
 42
-0.057
 10
5.179
 20
10.097
 42
-0.105
 10
5.04
 20
10.078
 42
-0.054
 10
4.894
 20
10.106
 10
4.734
 20
10.157
 42
0.025
 10
4.554
 20
10.208
 42
0.142
 10
4.255
 20
10.18
 42
0.104
 10
3.981
 20
10.006
 42
0.11
 10
3.799
 20
9.734
 42
0.151
 10
3.776
 20
9.416
 42
0.156
 10
3.939
 20
9.161
 42
0.085
 10
4.234
 20
8.988
 42
0.058
 10
4.581
 20
8.896
 42
0.064
 10
4.901
 20
8.888
 42
0.043
 10
5.192
 20
8.952
 42
0.034
 10
5.332
 20
9.006
 42
0.083
 10
5.429
 20
9.068
 42
0.066
 10
5.495
 20
9.162
 42
0.028
 10
5.551
 20
9.281
 42
-0.007
 10
5.647
 20
9.521
 42
-0.086
 10
5.692
 20
9.594
 42
-0.225
 10
5.742
 20
9.614
 42
-0.08
 10
5.813
 20
9.594
 10
5.921
 20
9.549
 42
0.054
 10
6.081
 20
9.516
 42
0.036
 10
6.542
 20
9.495
 42
0.022
 10
6.627
 20
9.501
 42
0.068
 10
6.679
 20
9.513
 42
0.065
 10
6.709
 20
9.535
 42
0.066
 10
6.746
 20
9.578
 42
0.133
 10
6.765
 20
9.633
 42
0.208
 10
6.741
 20
9.691
 42
0.054
 10
6.719
 20
9.71
 10
6.701
 20
9.722
 42
-0.148
 10
6.69
 20
9.736
 42
-0.17
 10
6.691
 20
9.757
 42
-0.096
 10
6.704
 20
9.777
 10
6.723
 20
9.797
 42
0.083
 10
6.767
 20
9.851
 42
0.083
 10
6.799
 20
9.971
 42
0.024
 10
6.804
 20
10.041
  0
LWPOLYLINE
  5
65
330
1F
100
AcDbEntity
  8
0
100
AcDbPolyline
 90
       46
 70
   128
 43
0.0
 10
7.3868
 20
9.471415
 10
7.280996
 20
9.141307
 42
0.030549
 10
8.032
 20
8.943
 42
0.036
 10
8.374
 20
8.902
 42
0.04
 10
8.737
 20
8.928
 42
0.02497
 10
9.745628
 20
9.130066
 10
9.635922
 20
9.451048
 10
9.745958
 20
9.129404
 42
0.105976
 10
9.859
 20
9.173
 42
0.113
 10
9.944
 20
9.258
 42
0.158
 10
9.972
 20
9.406
 42
0.097
 10
9.92
 20
9.554
 42
0.047
 10
9.824
 20
9.692
 42
0.019
 10
9.715
 20
9.81
 10
9.703
 20
9.822
 42
0.075
 10
9.692
 20
9.829
 42
0.075
 10
9.68
 20
9.832
 10
9.662
 20
9.832
 42
0.009
 10
9.44
 20
9.818
 42
-0.028
 10
9.337
 20
9.817
 42
-0.084
 10
9.258
 20
9.833
 42
-0.114
 10
9.215
 20
9.866
 10
9.178
 20
9.908
 42
0.11
 10
9.017
 20
9.996
 42
0.065
 10
8.777
 20
10.041
 42
0.024292
 10
8.490068
 20
10.039052
 10
8.490068
 20
9.560819
 10
8.490068
 20
10.039052
 42
0.023907
 10
8.207
 20
10.041
 42
0.04
 10
8.061
 20
10.023
 42
0.061
 10
7.953
 20
9.986
 42
0.12
 10
7.804
 20
9.857
 42
-0.03
 10
7.793
 20
9.844
 42
-0.086
 10
7.783
 20
9.837
 42
-0.086
 10
7.771
 20
9.833
 42
-0.03
 10
7.754
 20
9.833
 10
7.308
 20
9.833
 42
0.082
 10
7.277
 20
9.829
 42
0.081
 10
7.252
 20
9.814
 42
0.024
 10
7.166
 20
9.744
 42
0.062
 10
7.11
 20
9.679
 42
0.052
 10
7.069
 20
9.597
 42
0.017
 10
7.026
 20
9.471
 42
0.077
 10
7.006
 20
9.364
 42
0.221179
 10
7.280996
 20
9.143423
 10
7.3868
 20
9.471415
  0
LWPOLYLINE
  5
66
330
1F
100
AcDbEntity
  8
0
100
AcDbPolyline
 90
       20
 70
   128
 43
0.0
 10
19.126
 20
9.332
 10
18.856782
 20
9.334134
 10
18.871595
 20
8.898223
 10
18.856782
 20
9.334134
 42
0.054871
 10
18.69
 20
9.319
 42
0.083
 10
18.656
 20
9.301
 42
0.032
 10
18.611
 20
9.266
 42
0.031
 10
18.509
 20
9.161
 42
0.031
 10
18.419
 20
9.045
 42
0.03
 10
18.39
 20
8.995
 42
0.077
 10
18.376
 20
8.957
 42
0.147
 10
18.394
 20
8.863
 42
0.082
 10
18.468
 20
8.762
 42
0.08
 10
18.761
 20
8.562
 42
0.152
 10
18.962
 20
8.54
 42
0.207
 10
19.154
 20
8.657
 42
0.086
 10
19.186
 20
8.744
 42
0.034
 10
19.202
 20
8.864
 42
0.058
 10
19.196
 20
9.082
 42
0.027
 10
19.126
 20
9.332
  0
LWPOLYLINE
  5
67
330
1F
100
AcDbEntity
  8
0
100
AcDbPolyline
 90
       26
 70
   128
 43
0.0
 10
18.112
 20
9.305
 10
17.893175
 20
9.304509
 10
17.903755
 20
8.896107
 10
17.893175
 20
9.304509
 42
0.06468
 10
17.737
 20
9.291
 42
0.091
 10
17.699
 20
9.27
 42
0.036
 10
17.654
 20
9.23
 42
0.032
 10
17.555
 20
9.114
 42
0.023
 10
17.471
 20
8.994
 10
17.444
 20
8.946
 42
0.061
 10
17.432
 20
8.916
 42
0.078
 10
17.43
 20
8.885
 42
0.141
 10
17.435
 20
8.868
 42
0.055
 10
17.455
 20
8.849
 10
17.643
 20
8.685
 42
0.059
 10
17.816
 20
8.567
 42
0.158
 10
17.985
 20
8.537
 42
0.088
 10
18.071
 20
8.568
 42
0.066
 10
18.161
 20
8.638
 42
0.108
 10
18.213
 20
8.718
 42
0.069
 10
18.235
 20
8.817
 42
0.021
 10
18.237
 20
9.068
 42
0.062
 10
18.223
 20
9.206
 42
0.074
 10
18.201
 20
9.26
 42
0.156
 10
18.168
 20
9.291
 42
0.059
 10
18.112
 20
9.305
  0
LWPOLYLINE
  5
68
330
1F
100
AcDbEntity
  8
0
100
AcDbPolyline
 90
       21
 70
   128
 43
0.0
 10
17.172
 20
9.263
 10
16.935651
 20
9.257956
 10
16.937767
 20
8.896107
 10
16.935651
 20
9.260072
 42
0.057173
 10
16.765
 20
9.263
 42
0.076
 10
16.751
 20
9.258
 42
0.039
 10
16.735
 20
9.247
 42
0.037
 10
16.698
 20
9.213
 42
0.028
 10
16.615
 20
9.113
 42
0.024
 10
16.503
 20
8.95
 42
0.208
 10
16.502
 20
8.847
 42
0.092
 10
16.576
 20
8.724
 42
0.154
 10
16.862
 20
8.541
 42
0.137
 10
17.06
 20
8.556
 42
0.066
 10
17.148
 20
8.6
 42
0.099
 10
17.209
 20
8.66
 42
0.071
 10
17.24
 20
8.742
 42
0.032
 10
17.262
 20
8.866
 42
0.037
 10
17.269
 20
9.0
 42
0.08
 10
17.251
 20
9.11
 42
0.038
 10
17.172
 20
9.263
  0
LWPOLYLINE
  5
69
330
1F
100
AcDbEntity
  8
0
100
AcDbPolyline
 90
       15
 70
   128
 43
0.0
 10
16.215
 20
9.235
 10
15.984476
 20
9.245259
 10
15.99294
 20
8.893991
 10
15.986592
 20
9.245259
 42
0.028828
 10
15.82
 20
9.249
 42
0.109
 10
15.768
 20
9.239
 42
0.114
 10
15.737
 20
9.207
 42
0.015
 10
15.518
 20
8.863
 42
0.032
 10
15.734
 20
8.653
 42
0.05
 10
15.834
 20
8.582
 42
0.123
 10
15.993
 20
8.541
 42
0.124
 10
16.131
 20
8.576
 42
0.218
 10
16.292
 20
8.791
 42
0.131
 10
16.292
 20
9.027
 42
0.036
 10
16.215
 20
9.235
  0
LWPOLYLINE
  5
6A
330
1F
100
AcDbEntity
  8
0
100
AcDbPolyline
 90
       22
 70
   128
 43
0.0
 10
15.191
 20
9.207
 10
15.006056
 20
9.20717
 10
15.008172
 20
8.891875
 10
15.006056
 20
9.20717
 42
0.036168
 10
14.834
 20
9.207
 42
0.115
 10
14.809
 20
9.195
 42
0.043
 10
14.779
 20
9.167
 42
0.032
 10
14.714
 20
9.083
 42
0.022
 10
14.614
 20
8.923
 42
0.086
 10
14.591
 20
8.866
 42
0.145
 10
14.598
 20
8.818
 42
0.078
 10
14.643
 20
8.75
 42
0.041
 10
14.72
 20
8.676
 42
0.089
 10
14.903
 20
8.568
 42
0.149
 10
15.127
 20
8.574
 42
0.087
 10
15.227
 20
8.625
 42
0.131
 10
15.292
 20
8.707
 42
0.103
 10
15.333
 20
8.976
 42
0.077
 10
15.308
 20
9.108
 42
0.164
 10
15.242
 20
9.195
 42
0.084
 10
15.221
 20
9.205
 42
0.057
 10
15.191
 20
9.207
  0
LWPOLYLINE
  5
6B
330
1F
100
AcDbEntity
  8
0
100
AcDbPolyline
 90
       18
 70
   128
 43
0.0
 10
14.417
 20
9.166
 10
14.137408
 20
9.162732
 10
14.150104
 20
8.893991
 10
14.137408
 20
9.164848
 42
0.008306
 10
13.972
 20
9.18
 42
0.174
 10
13.944
 20
9.17
 42
0.059
 10
13.934
 20
9.16
 10
13.924
 20
9.145
 42
-0.008
 10
13.728
 20
8.877
 42
0.031
 10
13.928
 20
8.659
 42
0.046
 10
14.023
 20
8.582
 42
0.138
 10
14.133
 20
8.554
 42
0.086
 10
14.257
 20
8.576
 42
0.084
 10
14.366
 20
8.636
 42
0.136
 10
14.431
 20
8.721
 42
0.084
 10
14.447
 20
8.824
 42
0.026
 10
14.437
 20
8.984
 10
14.417
 20
9.166
  0
LWPOLYLINE
  5
6C
330
1F
100
AcDbEntity
  8
0
100
AcDbPolyline
 90
       22
 70
   128
 43
0.0
 10
13.539
 20
8.794
 10
13.514
 20
9.138
 10
13.250244
 20
9.13734
 10
13.258708
 20
8.893991
 10
13.250244
 20
9.139456
 42
0.078151
 10
13.111
 20
9.152
 42
0.139
 10
13.014
 20
9.117
 42
0.101
 10
12.941
 20
9.04
 42
0.151
 10
12.887
 20
8.831
 10
12.889
 20
8.814
 42
0.076
 10
12.892
 20
8.802
 42
0.076
 10
12.9
 20
8.792
 10
12.913
 20
8.78
 10
13.046
 20
8.665
 42
0.042
 10
13.139
 20
8.594
 42
0.123
 10
13.223
 20
8.567
 42
0.084
 10
13.333
 20
8.582
 42
0.024
 10
13.422
 20
8.61
 42
0.068
 10
13.479
 20
8.64
 42
0.106
 10
13.514
 20
8.679
 42
0.067
 10
13.535
 20
8.734
 42
0.11
 10
13.539
 20
8.794
  0
LWPOLYLINE
  5
6D
330
1F
100
AcDbEntity
  8
0
100
AcDbPolyline
 90
       39
 70
   128
 43
0.0
 10
14.357744
 20
8.114096
 10
14.353776
 20
7.636392
 10
14.35986
 20
8.114096
 42
0.024041
 10
14.045
 20
8.076
 42
0.026
 10
13.829
 20
8.029
 42
0.071
 10
13.653
 20
7.957
 42
0.111
 10
13.597
 20
7.892
 42
0.057
 10
13.552
 20
7.788
 42
0.058
 10
13.53
 20
7.672
 42
0.098
 10
13.542
 20
7.568
 42
0.261
 10
13.653
 20
7.471
 42
0.092
 10
13.744
 20
7.472
 10
13.841
 20
7.493
 42
-0.043
 10
13.935
 20
7.509
 42
-0.139
 10
14.017
 20
7.495
 42
-0.119
 10
14.079
 20
7.434
 42
-0.031
 10
14.13
 20
7.344
 10
14.155
 20
7.296
 10
14.181
 20
7.251
 42
0.091
 10
14.242
 20
7.179
 42
0.126
 10
14.326
 20
7.146
 42
0.091
 10
14.423
 20
7.151
 42
0.185
 10
14.584
 20
7.254
 42
0.047
 10
14.62
 20
7.324
 42
-0.033
 10
14.68
 20
7.461
 42
-0.128
 10
14.721
 20
7.503
 42
-0.142
 10
14.789
 20
7.514
 42
-0.037
 10
14.872
 20
7.5
 10
14.96
 20
7.483
 42
0.09
 10
15.042
 20
7.485
 42
0.304
 10
15.153
 20
7.594
 42
0.066
 10
15.161
 20
7.681
 42
0.028
 10
15.153
 20
7.777
 42
0.058
 10
15.132
 20
7.877
 42
0.153
 10
15.07
 20
7.957
 42
0.081
 10
14.9
 20
8.029
 42
0.027
 10
14.678
 20
8.076
 42
0.019
 10
14.403
 20
8.11
 10
14.357744
 20
8.114096
  0
LWPOLYLINE
  5
6E
330
1F
100
AcDbEntity
  8
0
100
AcDbPolyline
 90
       31
 70
   128
 43
0.0
 10
10.492205
 20
6.945494
 10
10.500669
 20
7.743254
 10
10.492205
 20
6.945494
 42
0.11611
 10
10.624
 20
6.929
 42
0.275
 10
10.763
 20
7.019
 42
0.025
 10
10.811
 20
7.122
 42
-0.077
 10
10.868
 20
7.218
 42
-0.083
 10
10.995
 20
7.312
 42
0.017
 10
11.129
 20
7.386
 42
0.067
 10
11.176
 20
7.426
 42
0.143
 10
11.2
 20
7.472
 42
0.151
 10
11.19
 20
7.529
 42
0.08
 10
11.138
 20
7.601
 42
0.06
 10
11.084
 20
7.645
 10
11.017
 20
7.683
 42
-0.062
 10
10.879
 20
7.775
 42
-0.049
 10
10.781
 20
7.886
 10
10.715
 20
7.98
 42
0.24
 10
10.541
 20
8.082
 42
0.116
 10
10.356
 20
8.065
 42
0.135
 10
10.228
 20
7.974
 42
0.088
 10
10.146
 20
7.823
 42
0.044
 10
10.097
 20
7.624
 42
0.044
 10
10.094
 20
7.478
 42
0.028
 10
10.117
 20
7.259
 42
0.053
 10
10.17
 20
7.052
 42
0.068
 10
10.21
 20
6.98
 42
0.157
 10
10.259
 20
6.943
 42
0.078
 10
10.376
 20
6.936
 42
0.021
 10
10.444
 20
6.943
 10
10.492205
 20
6.945494
  0
LWPOLYLINE
  5
6F
330
1F
100
AcDbEntity
  8
0
100
AcDbPolyline
 90
       31
 70
   128
 43
0.0
 10
11.68
 20
6.971
 10
11.824009
 20
6.987816
 10
11.828242
 20
7.753834
 10
11.824009
 20
6.985699
 42
0.169785
 10
11.948
 20
6.989
 42
0.072
 10
12.069
 20
7.04
 42
0.184
 10
12.135
 20
7.137
 42
-0.066
 10
12.17
 20
7.239
 42
-0.1
 10
12.265
 20
7.337
 10
12.37
 20
7.405
 42
0.127
 10
12.444
 20
7.482
 42
0.195
 10
12.448
 20
7.602
 42
0.147
 10
12.419
 20
7.651
 42
0.083
 10
12.369
 20
7.68
 42
-0.056
 10
12.217
 20
7.754
 42
-0.071
 10
12.135
 20
7.83
 42
-0.017
 10
12.038
 20
7.966
 10
12.008
 20
8.007
 42
0.086
 10
11.944
 20
8.068
 42
0.148
 10
11.835
 20
8.093
 42
0.083
 10
11.706
 20
8.064
 42
0.07
 10
11.585
 20
7.995
 42
0.097
 10
11.5
 20
7.902
 42
0.08
 10
11.419
 20
7.695
 42
0.077
 10
11.411
 20
7.506
 42
0.037
 10
11.447
 20
7.317
 10
11.5
 20
7.11
 42
0.04
 10
11.519
 20
7.035
 42
0.217
 10
11.569
 20
6.985
 42
0.071
 10
11.64
 20
6.972
 10
11.68
 20
6.971
  0
LWPOLYLINE
  5
70
330
1F
100
AcDbEntity
  8
0
100
AcDbPolyline
 90
       26
 70
   128
 43
0.0
 10
13.458
 20
8.04
 10
12.991818
 20
8.037917
 10
12.989702
 20
7.809381
 10
12.993934
 20
8.040033
 10
12.528
 20
8.04
 42
0.027
 10
12.472
 20
7.915
 42
0.08
 10
12.458
 20
7.847
 42
0.126
 10
12.47
 20
7.795
 42
0.104
 10
12.505
 20
7.754
 42
0.05
 10
12.562
 20
7.718
 10
12.643
 20
7.681
 42
-0.055
 10
12.72
 20
7.637
 42
-0.048
 10
12.797
 20
7.563
 10
12.831
 20
7.525
 10
12.864
 20
7.49
 42
0.124
 10
12.937
 20
7.445
 42
0.182
 10
13.028
 20
7.457
 42
0.078
 10
13.075
 20
7.49
 42
0.015
 10
13.163
 20
7.587
 42
-0.046
 10
13.213
 20
7.632
 42
-0.075
 10
13.339
 20
7.697
 42
0.021
 10
13.439
 20
7.732
 42
0.226
 10
13.494
 20
7.79
 42
0.085
 10
13.5
 20
7.845
 42
0.044
 10
13.489
 20
7.927
 42
0.017
 10
13.458
 20
8.04
  0
LWPOLYLINE
  5
71
330
1F
100
AcDbEntity
  8
0
100
AcDbPolyline
 90
       60
 70
   128
 43
0.0
 10
5.936033
 20
4.533434
 10
5.940265
 20
5.032827
 10
5.933917
 20
4.531318
 10
6.248
 20
4.609
 42
-0.011
 10
6.227
 20
4.735
 42
-0.035
 10
6.207
 20
4.97
 42
-0.054
 10
6.228
 20
5.103
 10
6.267
 20
5.258
 42
0.056
 10
6.287
 20
5.409
 42
0.167
 10
6.252
 20
5.528
 42
0.087
 10
6.224
 20
5.552
 10
6.192
 20
5.571
 42
-0.256
 10
6.151
 20
5.632
 42
-0.067
 10
6.156
 20
5.705
 42
-0.024
 10
6.176
 20
5.789
 42
-0.018
 10
6.207
 20
5.887
 10
5.972
 20
5.921
 10
6.234
 20
6.243
 42
-0.032
 10
6.049
 20
6.271
 10
6.015
 20
6.281
 42
-0.064
 10
5.992
 20
6.292
 42
-0.28
 10
5.984
 20
6.31
 42
-0.135
 10
5.995
 20
6.335
 10
6.052
 20
6.408
 42
0.052
 10
6.122
 20
6.525
 42
0.016
 10
6.151
 20
6.596
 10
5.943
 20
6.651
 42
0.024
 10
6.004
 20
6.725
 42
0.067
 10
6.1
 20
6.887
 42
0.041
 10
6.123
 20
6.971
 10
5.929
 20
6.999
 42
0.025
 10
6.0
 20
7.082
 42
0.085
 10
6.098
 20
7.25
 42
0.056
 10
6.11
 20
7.318
 10
5.901
 20
7.334
 42
0.033
 10
6.039
 20
7.519
 10
6.059
 20
7.555
 42
0.078
 10
6.068
 20
7.582
 42
0.233
 10
6.063
 20
7.596
 42
0.129
 10
6.049
 20
7.603
 42
0.041
 10
6.026
 20
7.607
 10
5.998
 20
7.61
 42
0.091
 10
5.887
 20
7.602
 42
0.129
 10
5.809
 20
7.556
 42
0.075
 10
5.75
 20
7.471
 42
0.021
 10
5.693
 20
7.346
 42
0.044
 10
5.688
 20
7.329
 10
5.683
 20
7.3
 10
5.673
 20
7.21
 42
0.008
 10
5.651
 20
6.923
 42
0.01
 10
5.588
 20
5.26
 42
0.018
 10
5.59
 20
4.869
 42
0.04
 10
5.596
 20
4.818
 42
0.022
 10
5.643
 20
4.641
 42
0.058
 10
5.683
 20
4.554
 42
0.073
 10
5.707
 20
4.525
 42
0.144
 10
5.734
 20
4.512
 42
0.063
 10
5.822
 20
4.516
 10
5.873
 20
4.526
 10
5.936033
 20
4.533434
  0
LWPOLYLINE
  5
72
330
1F
100
AcDbEntity
  8
0
100
AcDbPolyline
 90
       29
 70
   128
 43
0.0
 10
13.543
 20
7.18
 10
13.5
 20
7.276
 10
12.991553
 20
7.306814
 10
12.987321
 20
7.021144
 10
12.99367
 20
7.306814
 10
12.528
 20
7.276
 42
0.033
 10
12.444
 20
7.096
 42
0.231
 10
12.452
 20
7.011
 42
0.127
 10
12.532
 20
6.945
 42
0.036
 10
12.579
 20
6.923
 10
12.628
 20
6.906
 42
-0.063
 10
12.72
 20
6.866
 42
-0.073
 10
12.817
 20
6.779
 10
12.887
 20
6.693
 42
0.15
 10
12.958
 20
6.644
 42
0.113
 10
13.002
 20
6.644
 42
0.078
 10
13.056
 20
6.665
 42
0.062
 10
13.109
 20
6.706
 10
13.161
 20
6.76
 42
-0.086
 10
13.279
 20
6.859
 42
-0.06
 10
13.354
 20
6.884
 10
13.43
 20
6.899
 42
0.05
 10
13.496
 20
6.917
 42
0.161
 10
13.54
 20
6.951
 42
0.093
 10
13.552
 20
6.986
 42
0.04
 10
13.555
 20
7.029
 10
13.554
 20
7.12
 42
0.059
 10
13.553
 20
7.151
 42
0.059
 10
13.543
 20
7.18
  0
LWPOLYLINE
  5
73
330
1F
100
AcDbEntity
  8
0
100
AcDbPolyline
 90
       35
 70
   128
 43
0.0
 10
14.395833
 20
7.016383
 42
0.017783
 10
14.103
 20
6.987
 42
0.026
 10
13.902
 20
6.949
 42
0.075
 10
13.743
 20
6.887
 42
0.072
 10
13.719
 20
6.865
 42
0.037
 10
13.693
 20
6.828
 42
0.055
 10
13.646
 20
6.726
 42
0.078
 10
13.625
 20
6.611
 42
0.164
 10
13.653
 20
6.512
 42
0.057
 10
13.686
 20
6.479
 10
13.725
 20
6.448
 42
0.093
 10
13.751
 20
6.433
 42
0.093
 10
13.781
 20
6.432
 10
14.084
 20
6.457
 42
0.007
 10
14.213
 20
6.242
 42
0.074
 10
14.284
 20
6.158
 42
0.104
 10
14.371
 20
6.109
 42
0.141
 10
14.466
 20
6.107
 42
0.129
 10
14.564
 20
6.165
 42
0.076
 10
14.617
 20
6.239
 10
14.658
 20
6.326
 42
-0.039
 10
14.699
 20
6.403
 42
-0.161
 10
14.749
 20
6.447
 42
-0.134
 10
14.813
 20
6.447
 10
14.891
 20
6.429
 42
0.109
 10
15.031
 20
6.432
 42
0.157
 10
15.123
 20
6.49
 42
0.141
 10
15.164
 20
6.59
 42
0.095
 10
15.153
 20
6.721
 42
0.079
 10
15.107
 20
6.835
 42
0.12
 10
15.025
 20
6.915
 42
0.124
 10
14.97
 20
6.935
 10
14.395833
 20
7.014266
 10
14.391601
 20
6.555078
 10
14.395833
 20
7.016383
  0
LWPOLYLINE
  5
74
330
1F
100
AcDbEntity
  8
0
100
AcDbPolyline
 90
       40
 70
   128
 43
0.0
 10
6.877
 20
5.837
 42
0.003
 10
7.807
 20
6.01
 42
-0.009
 10
8.215
 20
6.079
 42
-0.015
 10
8.354
 20
6.096
 10
8.4
 20
6.098
 42
-0.058
 10
8.43
 20
6.096
 42
-0.085
 10
8.554
 20
6.032
 10
8.684
 20
5.937
 42
0.069
 10
8.819
 20
5.862
 42
0.176
 10
8.957
 20
5.859
 42
0.048
 10
9.139
 20
5.954
 42
0.051668
 10
9.582558
 20
6.288718
 10
9.112789
 20
6.441075
 10
9.580442
 20
6.288718
 42
-0.055004
 10
9.718
 20
6.407
 42
0.044
 10
9.806
 20
6.5
 42
0.036
 10
9.89
 20
6.621
 42
0.029
 10
9.763
 20
6.735
 42
0.067
 10
9.673
 20
6.784
 42
0.036
 10
9.553
 20
6.821
 42
0.039
 10
9.267
 20
6.862
 42
0.028
 10
8.99
 20
6.868
 42
0.056
 10
8.805
 20
6.846
 42
0.03
 10
8.68
 20
6.798
 10
8.559
 20
6.741
 42
-0.054
 10
8.332
 20
6.651
 42
-0.083
 10
8.117
 20
6.647
 10
8.008
 20
6.656
 42
0.043
 10
7.888
 20
6.651
 42
0.054
 10
7.859
 20
6.643
 42
0.033
 10
7.684
 20
6.557
 42
0.021
 10
6.992
 20
6.136
 42
0.03
 10
6.828
 20
6.017
 42
0.043
 10
6.804
 20
5.993
 42
0.045
 10
6.771
 20
5.945
 42
0.115
 10
6.758
 20
5.902
 42
0.21
 10
6.772
 20
5.866
 42
0.125
 10
6.822
 20
5.839
 42
0.068
 10
6.847
 20
5.834
 42
0.05
 10
6.877
 20
5.837
  0
LWPOLYLINE
  5
75
330
1F
100
AcDbEntity
  8
0
100
AcDbPolyline
 90
       27
 70
   128
 43
0.0
 10
10.277
 20
5.734
 10
10.532146
 20
5.740125
 10
10.532146
 20
6.324162
 10
10.532146
 20
5.738009
 42
0.076066
 10
10.708
 20
5.748
 42
0.082
 10
10.746
 20
5.767
 42
0.029
 10
10.797
 20
5.805
 42
0.028
 10
10.918
 20
5.919
 42
0.027
 10
11.028
 20
6.044
 42
0.028
 10
11.065
 20
6.098
 42
0.077
 10
11.083
 20
6.137
 42
0.122
 10
11.084
 20
6.226
 42
0.138
 10
11.044
 20
6.287
 42
0.036
 10
10.969
 20
6.345
 10
10.919
 20
6.38
 10
10.863
 20
6.422
 42
-0.042
 10
10.804
 20
6.479
 42
0.01
 10
10.704
 20
6.597
 42
0.072
 10
10.652
 20
6.637
 42
0.104
 10
10.577
 20
6.655
 42
0.05
 10
10.475
 20
6.65
 42
0.049
 10
10.371
 20
6.625
 42
0.087
 10
10.291
 20
6.582
 42
0.114
 10
10.226
 20
6.484
 42
0.053
 10
10.186
 20
6.344
 42
0.086
 10
10.18
 20
6.068
 42
0.028
 10
10.277
 20
5.734
  0
LWPOLYLINE
  5
76
330
1F
100
AcDbEntity
  8
0
100
AcDbPolyline
 90
       30
 70
   128
 43
0.0
 10
11.527
 20
5.554
 10
11.665568
 20
5.571633
 10
11.661336
 20
6.282634
 10
11.667684
 20
5.571633
 42
0.135697
 10
11.833
 20
5.568
 42
0.065
 10
11.85
 20
5.574
 42
0.059
 10
11.929
 20
5.631
 42
0.024
 10
12.068
 20
5.764
 42
0.023
 10
12.199
 20
5.912
 42
0.022
 10
12.246
 20
5.976
 42
0.057
 10
12.272
 20
6.024
 42
0.05
 10
12.293
 20
6.105
 42
0.126
 10
12.287
 20
6.168
 42
0.143
 10
12.247
 20
6.218
 42
0.07
 10
12.165
 20
6.261
 42
-0.028
 10
12.067
 20
6.3
 42
-0.121
 10
11.995
 20
6.365
 42
-0.03
 10
11.929
 20
6.471
 42
0.055
 10
11.88
 20
6.544
 42
0.136
 10
11.806
 20
6.589
 42
0.064
 10
11.666
 20
6.61
 42
0.101
 10
11.505
 20
6.59
 42
0.147
 10
11.404
 20
6.515
 42
0.089
 10
11.344
 20
6.387
 42
0.031
 10
11.305
 20
6.207
 42
0.144
 10
11.389
 20
5.604
 42
0.076
 10
11.401
 20
5.583
 42
0.13
 10
11.425
 20
5.568
 42
0.054
 10
11.489
 20
5.556
 10
11.527
 20
5.554
  0
LWPOLYLINE
  5
77
330
1F
100
AcDbEntity
  8
0
100
AcDbPolyline
 90
       31
 70
   128
 43
0.0
 10
13.556
 20
6.401
 10
13.016946
 20
6.457474
 10
13.008482
 20
6.146412
 10
13.019062
 20
6.459591
 42
0.008496
 10
12.779
 20
6.46
 42
0.033
 10
12.619
 20
6.444
 42
0.089
 10
12.486
 20
6.401
 42
0.097
 10
12.466
 20
6.381
 42
0.05
 10
12.448
 20
6.349
 42
0.062
 10
12.421
 20
6.261
 42
0.068
 10
12.417
 20
6.163
 42
0.132
 10
12.444
 20
6.082
 42
0.187
 10
12.542
 20
6.026
 42
0.06
 10
12.593
 20
6.025
 42
-0.021
 10
12.688
 20
6.035
 42
-0.116
 10
12.727
 20
6.026
 42
-0.125
 10
12.761
 20
5.993
 42
-0.04
 10
12.789
 20
5.941
 42
0.054
 10
12.847
 20
5.829
 42
0.179
 10
12.971
 20
5.755
 42
0.188
 10
13.111
 20
5.776
 42
0.077
 10
13.162
 20
5.822
 10
13.208
 20
5.882
 42
-0.093
 10
13.308
 20
5.991
 42
-0.086
 10
13.395
 20
6.022
 10
13.496
 20
6.042
 42
0.084
 10
13.583
 20
6.073
 42
0.244
 10
13.625
 20
6.137
 42
0.074
 10
13.618
 20
6.216
 42
0.028
 10
13.594
 20
6.302
 42
0.021
 10
13.556
 20
6.401
  0
LWPOLYLINE
  5
78
330
1F
100
AcDbEntity
  8
0
100
AcDbPolyline
 90
       37
 70
   128
 43
0.0
 10
14.416994
 20
5.932953
 10
14.414878
 20
5.518202
 10
14.414878
 20
5.932953
 42
0.020629
 10
14.143
 20
5.91
 42
0.029
 10
13.96
 20
5.876
 42
0.073
 10
13.806
 20
5.818
 42
0.084
 10
13.785
 20
5.797
 42
0.035
 10
13.76
 20
5.759
 42
0.05
 10
13.714
 20
5.65
 42
0.075
 10
13.692
 20
5.528
 42
0.179
 10
13.722
 20
5.429
 42
0.124
 10
13.783
 20
5.389
 42
0.074
 10
13.861
 20
5.373
 42
0.041
 10
13.926
 20
5.375
 42
-0.032
 10
14.041
 20
5.387
 42
-0.107
 10
14.088
 20
5.376
 42
-0.12
 10
14.137
 20
5.331
 42
-0.034
 10
14.178
 20
5.262
 10
14.219
 20
5.187
 42
0.069
 10
14.27
 20
5.123
 42
0.17
 10
14.418
 20
5.068
 42
0.182
 10
14.564
 20
5.109
 42
0.081
 10
14.616
 20
5.173
 10
14.659
 20
5.252
 42
-0.03
 10
14.7
 20
5.327
 42
-0.113
 10
14.751
 20
5.379
 42
-0.14
 10
14.868
 20
5.403
 10
14.986
 20
5.396
 42
0.174
 10
15.088
 20
5.424
 42
0.108
 10
15.126
 20
5.472
 42
0.07
 10
15.153
 20
5.554
 42
0.144
 10
15.132
 20
5.711
 42
0.166
 10
15.033
 20
5.832
 42
0.066
 10
14.879
 20
5.883
 42
0.025
 10
14.694
 20
5.912
 42
0.018
 10
14.473
 20
5.929
 10
14.416994
 20
5.932953
  0
LWPOLYLINE
  5
79
330
1F
100
AcDbEntity
  8
0
100
AcDbPolyline
 90
       32
 70
   128
 43
0.0
 10
13.611
 20
5.54
 10
13.021178
 20
5.611574
 10
13.010598
 20
5.256073
 10
13.021178
 20
5.611574
 42
0.013894
 10
12.777
 20
5.602
 42
0.028
 10
12.616
 20
5.582
 42
0.078
 10
12.486
 20
5.54
 42
0.093
 10
12.467
 20
5.522
 42
0.04
 10
12.447
 20
5.49
 42
0.047
 10
12.41
 20
5.399
 42
0.057
 10
12.39
 20
5.298
 42
0.136
 10
12.403
 20
5.216
 42
0.144
 10
12.444
 20
5.176
 42
0.082
 10
12.506
 20
5.156
 42
0.033
 10
12.561
 20
5.151
 10
12.616
 20
5.149
 42
-0.115
 10
12.718
 20
5.127
 42
-0.122
 10
12.798
 20
5.041
 42
0.014
 10
12.869
 20
4.929
 42
0.137
 10
12.977
 20
4.836
 42
0.246
 10
13.097
 20
4.845
 42
0.092
 10
13.158
 20
4.903
 10
13.213
 20
4.982
 42
-0.029
 10
13.268
 20
5.059
 42
-0.102
 10
13.333
 20
5.114
 42
-0.108
 10
13.423
 20
5.133
 10
13.526
 20
5.134
 42
0.098
 10
13.609
 20
5.152
 42
0.133
 10
13.664
 20
5.198
 42
0.126
 10
13.688
 20
5.267
 42
0.087
 10
13.681
 20
5.359
 42
0.039
 10
13.611
 20
5.54
  0
LWPOLYLINE
  5
7A
330
1F
100
AcDbEntity
  8
0
100
AcDbPolyline
 90
       27
 70
   128
 43
0.0
 10
10.805
 20
4.442
 10
11.502631
 20
4.445352
 10
11.508979
 20
4.754299
 10
11.502631
 20
4.44112
 10
12.166
 20
4.442
 42
0.025
 10
12.25
 20
4.567
 42
0.198
 10
12.273
 20
4.758
 42
0.235
 10
12.161
 20
4.887
 42
0.054
 10
12.08
 20
4.907
 42
-0.026
 10
11.906
 20
4.933
 42
-0.094
 10
11.834
 20
4.965
 42
-0.094
 10
11.759
 20
5.058
 10
11.726
 20
5.109
 42
0.073
 10
11.686
 20
5.151
 42
0.117
 10
11.578
 20
5.195
 42
0.086
 10
11.454
 20
5.194
 42
0.083
 10
11.337
 20
5.154
 42
0.109
 10
11.249
 20
5.078
 10
11.214
 20
5.024
 42
-0.069
 10
11.176
 20
4.976
 42
-0.086
 10
11.119
 20
4.943
 42
-0.034
 10
11.048
 20
4.92
 42
0.032
 10
10.895
 20
4.878
 42
0.065
 10
10.804
 20
4.828
 42
0.098
 10
10.744
 20
4.765
 42
0.236
 10
10.736
 20
4.595
 42
0.025
 10
10.805
 20
4.442
  0
LWPOLYLINE
  5
7B
330
1F
100
AcDbEntity
  8
0
100
AcDbPolyline
 90
       37
 70
   128
 43
0.0
 10
14.436039
 20
4.931256
 42
0.028309
 10
14.047
 20
4.902
 42
0.047
 10
13.917
 20
4.873
 42
0.083
 10
13.885
 20
4.854
 42
0.046
 10
13.852
 20
4.821
 42
0.06
 10
13.792
 20
4.727
 42
0.07
 10
13.756
 20
4.619
 42
0.15
 10
13.764
 20
4.526
 42
0.133
 10
13.806
 20
4.48
 42
0.085
 10
13.87
 20
4.451
 42
0.046
 10
13.93
 20
4.442
 10
13.991
 20
4.439
 42
-0.101
 10
14.104
 20
4.419
 42
-0.12
 10
14.225
 20
4.317
 42
-0.019
 10
14.303
 20
4.2
 42
0.046
 10
14.34
 20
4.153
 42
0.102
 10
14.383
 20
4.122
 42
0.125
 10
14.439
 20
4.115
 42
0.083
 10
14.514
 20
4.137
 42
0.124
 10
14.629
 20
4.236
 42
0.013
 10
14.696
 20
4.339
 42
-0.117
 10
14.772
 20
4.419
 42
-0.108
 10
14.866
 20
4.444
 10
14.964
 20
4.446
 42
0.081
 10
15.051
 20
4.458
 42
0.209
 10
15.112
 20
4.512
 42
0.119
 10
15.124
 20
4.602
 42
0.049
 10
15.107
 20
4.713
 42
0.04
 10
15.074
 20
4.809
 42
0.036
 10
15.057
 20
4.842
 42
0.037
 10
15.049
 20
4.853
 42
0.077
 10
15.042
 20
4.859
 42
0.079
 10
14.899
 20
4.906
 42
0.026
 10
14.714
 20
4.931
 42
0.046183
 10
14.436039
 20
4.935488
 10
14.42969
 20
4.548247
 10
14.436039
 20
4.931256
  0
LWPOLYLINE
  5
7C
330
1F
100
AcDbEntity
  8
0
100
AcDbPolyline
 90
       31
 70
   128
 43
0.0
 10
13.667
 20
4.665
 10
13.050804
 20
4.750861
 10
13.042339
 20
4.367851
 10
13.050804
 20
4.748745
 42
0.040284
 10
12.616
 20
4.706
 42
0.064
 10
12.481
 20
4.665
 42
0.135
 10
12.419
 20
4.598
 42
0.067
 10
12.375
 20
4.49
 42
0.073
 10
12.362
 20
4.376
 42
0.161
 10
12.389
 20
4.29
 42
0.15
 10
12.442
 20
4.257
 42
0.07
 10
12.516
 20
4.249
 10
12.62
 20
4.254
 42
-0.122
 10
12.715
 20
4.238
 42
-0.129
 10
12.79
 20
4.16
 10
12.857
 20
4.053
 42
0.097
 10
12.951
 20
3.956
 42
0.156
 10
13.051
 20
3.926
 42
0.149
 10
13.153
 20
3.964
 42
0.09
 10
13.252
 20
4.07
 42
0.016
 10
13.309
 20
4.17
 42
-0.048
 10
13.337
 20
4.21
 42
-0.105
 10
13.372
 20
4.238
 42
-0.106
 10
13.428
 20
4.248
 42
-0.034
 10
13.494
 20
4.242
 10
13.562
 20
4.234
 42
0.061
 10
13.625
 20
4.234
 42
0.258
 10
13.733
 20
4.313
 42
0.103
 10
13.749
 20
4.389
 42
0.077
 10
13.736
 20
4.484
 42
0.03
 10
13.667
 20
4.665
  0
LWPOLYLINE
  5
7D
330
1F
100
AcDbEntity
  8
0
100
AcDbPolyline
 90
       27
 70
   128
 43
0.0
 10
9.777
 20
4.103
 10
7.221
 20
3.674
 42
0.015
 10
7.54
 20
3.567
 42
0.023
 10
7.772
 20
3.514
 42
0.01
 10
8.087
 20
3.46
 42
0.013
 10
9.763
 20
3.262
 10
9.032907
 20
3.346581
 42
0.112528
 10
9.279
 20
2.904
 42
0.037
 10
9.394
 20
2.775
 42
0.141
 10
9.541
 20
2.709
 42
0.065
 10
9.737
 20
2.703
 42
0.052
 10
10.152
 20
2.789
 42
0.032
 10
10.445
 20
2.922
 42
0.017
 10
11.302
 20
3.395
 42
0.024402
 10
11.504482
 20
3.530415
 42
0.154487
 10
11.62986
 20
3.669547
 10
10.940019
 20
3.686475
 10
11.627215
 20
3.672192
 42
0.128347
 10
10.77
 20
4.259
 42
0.014
 10
10.388
 20
4.47
 42
0.074
 10
9.899
 20
4.626
 42
0.059
 10
9.657
 20
4.638
 42
0.053
 10
9.556
 20
4.62
 42
0.085
 10
9.477
 20
4.581
 42
0.036
 10
9.334
 20
4.451
 42
0.112479
 10
8.992702
 20
3.971616
 10
9.777
 20
4.103
  0
LWPOLYLINE
  5
7E
330
1F
100
AcDbEntity
  8
0
100
AcDbPolyline
 90
       31
 70
   128
 43
0.0
 10
15.014
 20
3.887
 10
14.455083
 20
3.94014
 10
14.450851
 20
3.603684
 10
14.455083
 20
3.94014
 42
0.023698
 10
14.212
 20
3.941
 42
0.027
 10
14.052
 20
3.925
 42
0.072
 10
13.917
 20
3.887
 42
0.088
 10
13.891
 20
3.867
 42
0.052
 10
13.868
 20
3.834
 42
0.066
 10
13.831
 20
3.745
 42
0.066
 10
13.816
 20
3.642
 42
0.106
 10
13.834
 20
3.548
 42
0.206
 10
13.903
 20
3.484
 42
0.074
 10
13.96
 20
3.474
 10
14.024
 20
3.475
 42
-0.027
 10
14.087
 20
3.474
 42
-0.084
 10
14.144
 20
3.461
 42
-0.13
 10
14.227
 20
3.384
 42
0.024
 10
14.303
 20
3.281
 42
0.131
 10
14.431
 20
3.192
 42
0.246
 10
14.556
 20
3.206
 42
0.089
 10
14.606
 20
3.263
 10
14.65
 20
3.338
 42
-0.034
 10
14.696
 20
3.411
 42
-0.113
 10
14.752
 20
3.462
 42
-0.118
 10
14.847
 20
3.478
 42
0.036
 10
14.957
 20
3.481
 42
0.12
 10
15.056
 20
3.517
 42
0.249
 10
15.098
 20
3.595
 42
0.058
 10
15.085
 20
3.681
 42
0.037
 10
15.014
 20
3.887
  0
LWPOLYLINE
  5
7F
330
1F
100
AcDbEntity
  8
0
100
AcDbPolyline
 90
       39
 70
   128
 43
0.0
 10
13.067732
 20
3.792808
 10
13.057152
 20
3.381761
 10
13.067732
 20
3.792808
 42
0.038593
 10
12.599
 20
3.739
 42
0.067
 10
12.453
 20
3.692
 42
0.093
 10
12.426
 20
3.667
 42
0.043
 10
12.398
 20
3.625
 42
0.055
 10
12.35
 20
3.508
 42
0.072
 10
12.331
 20
3.382
 42
0.07
 10
12.339
 20
3.329
 42
0.12
 10
12.361
 20
3.289
 42
0.121
 10
12.41
 20
3.261
 42
0.063
 10
12.475
 20
3.25
 42
0.03
 10
12.545
 20
3.25
 10
12.614
 20
3.255
 42
-0.129
 10
12.737
 20
3.238
 42
-0.113
 10
12.802
 20
3.179
 42
-0.032
 10
12.856
 20
3.094
 10
12.882
 20
3.05
 10
12.909
 20
3.007
 42
0.097
 10
12.972
 20
2.942
 42
0.187
 10
13.096
 20
2.921
 42
0.156
 10
13.215
 20
2.984
 42
0.054
 10
13.261
 20
3.045
 42
-0.02
 10
13.342
 20
3.179
 42
-0.095
 10
13.39
 20
3.225
 42
-0.136
 10
13.495
 20
3.251
 10
13.611
 20
3.245
 42
0.112
 10
13.717
 20
3.26
 42
0.208
 10
13.792
 20
3.345
 42
0.098
 10
13.802
 20
3.43
 42
0.046
 10
13.787
 20
3.533
 42
0.045
 10
13.757
 20
3.626
 42
0.041
 10
13.74
 20
3.659
 42
0.096
 10
13.722
 20
3.678
 42
0.083
 10
13.567
 20
3.736
 42
0.027
 10
13.364
 20
3.769
 42
0.018
 10
13.111
 20
3.79
 10
13.067732
 20
3.792808
  0
LWPOLYLINE
  5
80
330
1F
100
AcDbEntity
  8
0
100
AcDbPolyline
 90
       29
 70
   128
 43
0.0
 10
10.916
 20
2.664
 10
11.595738
 20
2.669702
 10
11.597854
 20
2.949023
 10
11.595738
 20
2.667586
 10
12.264
 20
2.664
 42
0.025
 10
12.333
 20
2.817
 42
0.103
 10
12.351
 20
2.922
 42
0.141
 10
12.323
 20
3.003
 42
0.117
 10
12.255
 20
3.062
 42
0.072
 10
12.149
 20
3.098
 10
12.026
 20
3.12
 42
-0.091
 10
11.918
 20
3.158
 42
-0.085
 10
11.825
 20
3.253
 10
11.783
 20
3.305
 42
0.07
 10
11.736
 20
3.345
 42
0.092
 10
11.663
 20
3.368
 42
0.047
 10
11.566
 20
3.373
 42
0.049
 10
11.469
 20
3.361
 42
0.1
 10
11.397
 20
3.331
 42
0.096
 10
11.339
 20
3.257
 42
-0.072
 10
11.281
 20
3.176
 42
-0.121
 10
11.144
 20
3.106
 42
-0.017
 10
10.998
 20
3.075
 42
0.037
 10
10.934
 20
3.058
 42
0.088
 10
10.884
 20
3.03
 42
0.135
 10
10.853
 20
2.984
 42
0.106
 10
10.847
 20
2.914
 42
0.05
 10
10.885
 20
2.754
 42
0.014
 10
10.916
 20
2.664
  0
LWPOLYLINE
  5
81
330
1F
100
AcDbEntity
  8
0
100
AcDbPolyline
 90
       28
 70
   128
 43
0.0
 10
7.128176
 20
2.468939
 10
6.628783
 20
2.286957
 42
0.05972
 10
7.233
 20
2.011
 42
0.049
 10
7.446
 20
1.957
 42
0.138
 10
7.48
 20
1.963
 42
0.091
 10
7.51
 20
1.985
 42
0.035
 10
7.539
 20
2.02
 10
7.572
 20
2.066
 42
-0.118
 10
7.81
 20
2.289
 42
-0.051
 10
7.86
 20
2.309
 42
-0.018
 10
7.941
 20
2.33
 42
-0.014
 10
8.176
 20
2.373
 42
-0.009
 10
8.808
 20
2.459
 42
-0.005
 10
9.67
 20
2.553
 42
0.005
 10
9.399
 20
2.666
 42
0.015
 10
8.888
 20
2.859
 42
0.051
 10
8.295
 20
2.983
 42
0.041
 10
7.629
 20
3.003
 42
0.05
 10
6.994
 20
2.908
 42
0.036
 10
6.72
 20
2.816
 42
0.051
 10
6.492
 20
2.692
 42
0.048
 10
6.386
 20
2.607
 42
0.166
 10
6.348
 20
2.537
 42
0.186
 10
6.37
 20
2.469
 42
0.051
 10
6.448
 20
2.386
 42
0.044
 10
6.536
 20
2.313
 42
0.177
 10
6.637
 20
2.289
 10
7.128176
 20
2.468939
  0
LWPOLYLINE
  5
82
330
1F
100
AcDbEntity
  8
0
100
AcDbPolyline
 90
       30
 70
   128
 43
0.0
 10
15.0
 20
2.914
 10
14.463548
 20
2.953256
 10
14.457199
 20
2.644309
 10
14.463548
 20
2.955372
 42
0.016226
 10
14.231
 20
2.959
 42
0.028
 10
14.079
 20
2.948
 42
0.083
 10
13.959
 20
2.914
 42
0.099
 10
13.942
 20
2.898
 42
0.043
 10
13.924
 20
2.87
 42
0.05
 10
13.893
 20
2.79
 42
0.056
 10
13.877
 20
2.699
 42
0.12
 10
13.889
 20
2.623
 42
0.128
 10
13.925
 20
2.582
 42
0.072
 10
13.98
 20
2.555
 10
14.024
 20
2.543
 10
14.07
 20
2.533
 42
-0.071
 10
14.159
 20
2.502
 42
-0.084
 10
14.269
 20
2.413
 10
14.343
 20
2.322
 42
0.117
 10
14.413
 20
2.261
 42
0.19
 10
14.514
 20
2.261
 42
0.139
 10
14.628
 20
2.342
 42
0.022
 10
14.692
 20
2.433
 42
-0.125
 10
14.763
 20
2.502
 42
-0.099
 10
14.835
 20
2.516
 10
14.915
 20
2.522
 42
0.122
 10
15.023
 20
2.564
 42
0.239
 10
15.07
 20
2.65
 42
0.071
 10
15.036
 20
2.816
 42
0.018
 10
15.0
 20
2.914
  0
LWPOLYLINE
  5
83
330
1F
100
AcDbEntity
  8
0
100
AcDbPolyline
 90
       36
 70
   128
 43
0.0
 10
13.091009
 20
2.833433
 42
0.02647
 10
12.783
 20
2.806
 42
0.027
 10
12.582
 20
2.767
 42
0.076
 10
12.423
 20
2.706
 42
0.11
 10
12.368
 20
2.641
 42
0.053
 10
12.323
 20
2.538
 42
0.053
 10
12.299
 20
2.424
 42
0.098
 10
12.305
 20
2.326
 42
0.163
 10
12.341
 20
2.274
 42
0.126
 10
12.417
 20
2.247
 42
0.051
 10
12.619
 20
2.25
 42
0.013
 10
12.739
 20
2.265
 42
0.031
 10
12.86
 20
2.037
 42
0.05
 10
12.922
 20
1.956
 42
0.148
 10
13.008
 20
1.912
 42
0.097
 10
13.113
 20
1.913
 42
0.19
 10
13.292
 20
2.018
 42
0.061
 10
13.325
 20
2.085
 10
13.348
 20
2.155
 42
-0.041
 10
13.37
 20
2.215
 42
-0.149
 10
13.404
 20
2.253
 42
-0.133
 10
13.453
 20
2.263
 42
-0.037
 10
13.517
 20
2.255
 10
13.589
 20
2.242
 42
0.05
 10
13.665
 20
2.238
 42
0.085
 10
13.759
 20
2.259
 42
0.118
 10
13.822
 20
2.304
 42
0.115
 10
13.855
 20
2.371
 42
0.082
 10
13.861
 20
2.456
 42
0.065
 10
13.836
 20
2.598
 42
0.141
 10
13.779
 20
2.682
 42
0.101
 10
13.68
 20
2.73
 42
0.027
 10
13.528
 20
2.762
 42
0.009846
 10
13.091009
 20
2.835549
 10
13.088893
 20
2.380593
 10
13.091009
 20
2.833433
  0
LWPOLYLINE
  5
84
330
1F
100
AcDbEntity
  8
0
100
AcDbPolyline
 90
       24
 70
   128
 43
0.0
 10
10.939
 20
1.733
 10
11.559765
 20
1.75688
 10
11.553416
 20
2.027738
 10
11.559765
 20
1.752648
 10
12.166
 20
1.733
 42
0.013
 10
12.232
 20
1.863
 42
0.082
 10
12.262
 20
1.962
 42
0.126
 10
12.252
 20
2.046
 42
0.137
 10
12.201
 20
2.111
 42
0.095
 10
12.107
 20
2.154
 42
0.021
 10
11.984
 20
2.177
 42
-0.093
 10
11.871
 20
2.214
 42
-0.068
 10
11.817
 20
2.261
 10
11.769
 20
2.316
 42
0.119
 10
11.603
 20
2.429
 42
0.24
 10
11.416
 20
2.414
 42
0.081
 10
11.348
 20
2.346
 42
-0.038
 10
11.281
 20
2.267
 42
-0.116
 10
11.142
 20
2.192
 42
0.03
 10
10.967
 20
2.133
 42
0.159
 10
10.843
 20
2.032
 42
0.133
 10
10.824
 20
1.96
 42
0.114
 10
10.847
 20
1.872
 42
0.045
 10
10.939
 20
1.733
  0
LWPOLYLINE
  5
85
330
1F
100
AcDbEntity
  8
0
100
AcDbPolyline
 90
       85
 70
   128
 43
0.0
 10
7.804
 20
1.488
 10
7.804
 20
1.749
 42
-0.029
 10
7.61
 20
1.5
 42
-0.027
 10
7.572
 20
1.462
 42
-0.083
 10
7.542
 20
1.442
 42
-0.29
 10
7.523
 20
1.446
 42
-0.071
 10
7.515
 20
1.455
 10
7.507
 20
1.469
 42
0.04
 10
7.463
 20
1.552
 42
0.083
 10
7.453
 20
1.561
 42
0.135
 10
7.441
 20
1.564
 42
0.118
 10
7.428
 20
1.561
 42
0.065
 10
7.413
 20
1.551
 42
0.037
 10
7.271
 20
1.389
 42
0.007
 10
7.179
 20
1.27
 10
7.179
 20
1.575
 10
6.895
 20
1.109
 10
6.871
 20
1.43
 10
6.638
 20
1.05
 10
6.592
 20
1.266
 10
6.405
 20
1.075
 42
0.004
 10
6.657
 20
0.789
 42
0.042
 10
6.716
 20
0.732
 42
0.109
 10
6.762
 20
0.707
 42
0.148
 10
6.803
 20
0.71
 42
0.064
 10
6.848
 20
0.735
 42
-0.016
 10
6.979
 20
0.828
 42
-0.059
 10
7.221
 20
0.942
 42
-0.043
 10
7.351
 20
0.972
 10
7.482
 20
0.992
 42
-0.062
 10
7.544
 20
0.997
 10
8.704
 20
0.977
 10
8.721
 20
0.976
 42
-0.08
 10
8.733
 20
0.973
 42
-0.08
 10
8.744
 20
0.965
 10
8.755
 20
0.952
 10
8.798
 20
0.899
 42
0.072
 10
8.847
 20
0.853
 42
0.084
 10
8.932
 20
0.819
 10
9.025
 20
0.797
 10
9.041
 20
0.793
 42
0.082
 10
9.054
 20
0.793
 42
0.082
 10
9.066
 20
0.797
 10
9.08
 20
0.807
 42
0.009
 10
9.698
 20
1.213
 42
0.02
 10
10.128
 20
1.534
 42
0.025
 10
10.291
 20
1.681
 42
0.067
 10
10.388
 20
1.803
 42
0.144
 10
10.422
 20
1.939
 42
0.161
 10
10.376
 20
2.049
 42
0.105
 10
10.266
 20
2.129
 42
0.066
 10
10.11
 20
2.178
 42
0.0387
 10
9.878015
 20
2.216597
 10
9.58388
 20
1.861097
 10
9.872
 20
2.21
 42
0.128
 10
9.874
 20
2.224
 42
0.149
 10
9.869
 20
2.235
 42
0.093
 10
9.857
 20
2.243
 42
0.048
 10
9.84
 20
2.25
 42
0.045
 10
9.735
 20
2.261
 10
9.615
 20
2.268
 42
0.044
 10
9.485
 20
2.261
 42
0.053
 10
9.288
 20
2.206
 10
9.186
 20
2.164
 10
9.085
 20
2.12
 42
-0.025
 10
8.888
 20
2.043
 42
-0.082
 10
8.707
 20
2.011
 42
-0.058
 10
8.596
 20
2.029
 10
8.497
 20
2.058
 42
0.065
 10
8.413
 20
2.074
 42
0.187
 10
8.344
 20
2.052
 42
0.083
 10
8.287
 20
1.977
 10
8.234
 20
1.878
 42
-0.036
 10
8.181
 20
1.786
 42
-0.056
 10
8.153
 20
1.754
 42
-0.112
 10
8.123
 20
1.736
 42
-0.245
 10
8.09
 20
1.741
 42
-0.113
 10
8.078
 20
1.758
 42
0.037
 10
8.062
 20
1.797
 42
0.103
 10
8.057
 20
1.803
 42
0.153
 10
8.05
 20
1.804
 42
0.114
 10
8.038
 20
1.801
 42
0.048
 10
8.024
 20
1.79
 42
0.038
 10
7.989
 20
1.754
 42
0.034
 10
7.804
 20
1.488
  0
LWPOLYLINE
  5
86
330
1F
100
AcDbEntity
  8
0
100
AcDbPolyline
 90
       31
 70
   128
 43
0.0
 10
14.014
 20
2.087
 42
0.215
 10
13.927
 20
1.899
 42
0.152
 10
13.956
 20
1.816
 42
0.157
 10
14.034
 20
1.762
 10
14.079
 20
1.751
 10
14.123
 20
1.741
 42
-0.078
 10
14.207
 20
1.711
 42
-0.094
 10
14.308
 20
1.621
 10
14.377
 20
1.526
 42
0.151
 10
14.448
 20
1.467
 42
0.117
 10
14.495
 20
1.463
 42
0.078
 10
14.556
 20
1.483
 42
0.128
 10
14.685
 20
1.608
 10
14.722
 20
1.666
 42
-0.095
 10
14.765
 20
1.711
 42
-0.102
 10
14.834
 20
1.735
 10
14.913
 20
1.747
 42
0.087
 10
14.992
 20
1.775
 42
0.145
 10
15.035
 20
1.82
 42
0.109
 10
15.049
 20
1.885
 42
0.046
 10
15.042
 20
1.97
 42
0.071
 10
15.023
 20
2.042
 42
0.162
 10
14.973
 20
2.095
 42
0.084
 10
14.86
 20
2.127
 42
0.03
 10
14.722
 20
2.139
 42
0.0393
 10
14.497405
 20
2.128516
 10
14.493173
 20
1.85131
 10
14.497405
 20
2.128516
 10
14.068
 20
2.11
 42
0.09
 10
14.039
 20
2.105
 42
0.09
 10
14.014
 20
2.087
  0
LWPOLYLINE
  5
87
330
1F
100
AcDbEntity
  8
0
100
AcDbPolyline
 90
       41
 70
   128
 43
0.0
 10
13.088893
 20
1.764022
 10
13.078312
 20
1.281557
 10
13.088893
 20
1.766138
 42
0.023016
 10
12.762
 20
1.728
 42
0.028
 10
12.545
 20
1.681
 42
0.08
 10
12.375
 20
1.608
 42
0.083
 10
12.355
 20
1.586
 42
0.075
 10
12.291
 20
1.439
 42
0.051
 10
12.267
 20
1.317
 42
0.118
 10
12.278
 20
1.215
 42
0.162
 10
12.346
 20
1.136
 42
0.12
 10
12.449
 20
1.107
 42
0.136
 10
12.689
 20
1.168
 42
-0.05
 10
12.701
 20
1.173
 42
-0.118
 10
12.711
 20
1.174
 42
-0.089
 10
12.722
 20
1.17
 42
-0.031
 10
12.738
 20
1.159
 42
-0.079
 10
12.812
 20
1.078
 42
-0.013
 10
12.905
 20
0.922
 10
12.935
 20
0.874
 42
0.091
 10
13.0
 20
0.803
 42
0.217
 10
13.14
 20
0.789
 42
0.155
 10
13.278
 20
0.879
 42
0.059
 10
13.326
 20
0.961
 10
13.363
 20
1.05
 42
-0.039
 10
13.398
 20
1.125
 42
-0.06
 10
13.418
 20
1.152
 42
-0.111
 10
13.441
 20
1.167
 42
-0.128
 10
13.476
 20
1.169
 42
-0.046
 10
13.516
 20
1.157
 42
0.03
 10
13.614
 20
1.123
 42
0.116
 10
13.764
 20
1.116
 42
0.171
 10
13.856
 20
1.172
 42
0.125
 10
13.899
 20
1.273
 42
0.07
 10
13.903
 20
1.4
 42
0.077
 10
13.87
 20
1.538
 42
0.154
 10
13.792
 20
1.636
 42
0.075
 10
13.616
 20
1.702
 42
0.028
 10
13.399
 20
1.74
 42
0.02
 10
13.139
 20
1.761
 10
13.088893
 20
1.764022
  0
LWPOLYLINE
  5
88
330
1F
100
AcDbEntity
  8
0
100
AcDbPolyline
 90
       29
 70
   128
 43
0.0
 10
10.986
 20
0.844
 10
11.572461
 20
0.84882
 10
11.572461
 20
1.102749
 10
11.570345
 20
0.846704
 10
12.084
 20
0.844
 10
12.102
 20
0.845
 42
0.078
 10
12.114
 20
0.848
 42
0.078
 10
12.124
 20
0.855
 10
12.136
 20
0.868
 42
0.09
 10
12.219
 20
0.994
 42
0.169
 10
12.227
 20
1.103
 42
0.17
 10
12.158
 20
1.191
 42
0.09
 10
12.012
 20
1.252
 10
11.931
 20
1.271
 42
-0.075
 10
11.861
 20
1.298
 42
-0.086
 10
11.771
 20
1.377
 10
11.713
 20
1.451
 42
0.163
 10
11.642
 20
1.494
 42
0.119
 10
11.514
 20
1.483
 42
0.11
 10
11.391
 20
1.417
 10
11.332
 20
1.362
 42
-0.043
 10
11.27
 20
1.311
 42
-0.065
 10
11.115
 20
1.239
 42
0.02
 10
10.986
 20
1.195
 42
0.075
 10
10.941
 20
1.167
 42
0.13
 10
10.914
 20
1.127
 42
0.112
 10
10.908
 20
1.07
 42
0.06
 10
10.929
 20
0.987
 42
0.012
 10
10.986
 20
0.844
  0
LWPOLYLINE
  5
89
330
1F
100
AcDbEntity
  8
0
100
AcDbPolyline
 90
       28
 70
   128
 43
0.0
 10
14.973
 20
1.331
 10
14.514333
 20
1.332607
 10
14.516449
 20
1.099839
 10
14.514333
 20
1.332607
 10
14.11
 20
1.331
 42
0.03
 10
14.093
 20
1.33
 42
0.085
 10
14.081
 20
1.327
 42
0.085
 10
14.071
 20
1.319
 10
14.06
 20
1.306
 42
0.049
 10
14.003
 20
1.219
 42
0.107
 10
13.979
 20
1.138
 42
0.181
 10
14.002
 20
1.067
 42
0.129
 10
14.084
 20
1.01
 10
14.162
 20
0.983
 42
-0.075
 10
14.234
 20
0.948
 42
-0.07
 10
14.316
 20
0.864
 42
0.027
 10
14.383
 20
0.78
 42
0.162
 10
14.465
 20
0.732
 42
0.157
 10
14.59
 20
0.757
 42
0.086
 10
14.646
 20
0.797
 10
14.697
 20
0.856
 42
-0.05
 10
14.753
 20
0.914
 42
-0.064
 10
14.84
 20
0.964
 10
14.93
 20
1.001
 42
0.085
 10
14.999
 20
1.043
 42
0.212
 10
15.028
 20
1.108
 42
0.066
 10
15.001
 20
1.247
 42
0.016
 10
14.973
 20
1.331
  0
LWPOLYLINE
  5
8A
330
1F
100
AcDbEntity
  8
0
100
AcDbPolyline
 90
       21
 70
   128
 43
0.0
 10
9.016
 20
1.125
 10
9.138
 20
1.136
 42
0.095
 10
9.138
 20
1.122
 42
0.237
 10
9.143
 20
1.117
 42
0.088
 10
9.153
 20
1.115
 42
-0.06
 10
9.172
 20
1.114
 42
-0.21
 10
9.178
 20
1.109
 42
-0.126
 10
9.18
 20
1.1
 42
-0.217
 10
9.158
 20
1.064
 42
-0.081
 10
9.111
 20
1.039
 42
-0.046
 10
9.06
 20
1.026
 10
9.04
 20
1.024
 42
-0.068
 10
9.027
 20
1.025
 42
-0.076
 10
8.994
 20
1.039
 42
-0.13
 10
8.976
 20
1.057
 42
-0.141
 10
8.971
 20
1.08
 42
-0.087
 10
8.979
 20
1.107
 42
-0.06
 10
8.983
 20
1.115
 42
-0.124
 10
8.989
 20
1.12
 42
-0.068
 10
8.999
 20
1.123
 10
9.016
 20
1.125
  0
LWPOLYLINE
  5
8B
330
1F
100
AcDbEntity
  8
0
100
AcDbPolyline
 90
       20
 70
   128
 43
0.0
 10
20.111049
 20
9.352903
 10
19.841832
 20
9.355037
 10
19.856644
 20
8.919126
 10
19.841832
 20
9.355037
 42
0.054871
 10
19.675049
 20
9.339903
 42
0.083
 10
19.641049
 20
9.321903
 42
0.032
 10
19.596049
 20
9.286903
 42
0.031
 10
19.494049
 20
9.181903
 42
0.031
 10
19.404049
 20
9.065903
 42
0.03
 10
19.375049
 20
9.015903
 42
0.077
 10
19.361049
 20
8.977903
 42
0.147
 10
19.379049
 20
8.883903
 42
0.082
 10
19.453049
 20
8.782903
 42
0.08
 10
19.746049
 20
8.582903
 42
0.152
 10
19.947049
 20
8.560903
 42
0.207
 10
20.139049
 20
8.677903
 42
0.086
 10
20.171049
 20
8.764903
 42
0.034
 10
20.187049
 20
8.884903
 42
0.058
 10
20.181049
 20
9.102903
 42
0.027
 10
20.111049
 20
9.352903
  0
LWPOLYLINE
  5
8C
330
1F
100
AcDbEntity
  8
0
100
AcDbPolyline
 90
       20
 70
   128
 43
0.0
 10
21.1183
 20
9.395224
 10
20.849083
 20
9.397359
 10
20.863895
 20
8.961448
 10
20.849083
 20
9.397359
 42
0.054871
 10
20.6823
 20
9.382224
 42
0.083
 10
20.6483
 20
9.364224
 42
0.032
 10
20.6033
 20
9.329224
 42
0.031
 10
20.5013
 20
9.224224
 42
0.031
 10
20.4113
 20
9.108224
 42
0.03
 10
20.3823
 20
9.058224
 42
0.077
 10
20.3683
 20
9.020224
 42
0.147
 10
20.3863
 20
8.926224
 42
0.082
 10
20.4603
 20
8.825224
 42
0.08
 10
20.7533
 20
8.625224
 42
0.152
 10
20.9543
 20
8.603224
 42
0.207
 10
21.1463
 20
8.720224
 42
0.086
 10
21.1783
 20
8.807224
 42
0.034
 10
21.1943
 20
8.927224
 42
0.058
 10
21.1883
 20
9.145224
 42
0.027
 10
21.1183
 20
9.395224
  0
LWPOLYLINE
  5
8D
330
1F
100
AcDbEntity
  8
0
100
AcDbPolyline
 90
       31
 70
   128
 43
0.0
 10
9.173789
 20
6.959055
 10
9.182253
 20
7.756815
 10
9.173789
 20
6.959055
 42
0.11611
 10
9.305583
 20
6.942561
 42
0.275
 10
9.444583
 20
7.032561
 42
0.025
 10
9.492583
 20
7.135561
 42
-0.077
 10
9.549583
 20
7.231561
 42
-0.083
 10
9.676583
 20
7.325561
 42
0.017
 10
9.810583
 20
7.399561
 42
0.067
 10
9.857583
 20
7.439561
 42
0.143
 10
9.881583
 20
7.485561
 42
0.151
 10
9.871583
 20
7.542561
 42
0.08
 10
9.819583
 20
7.614561
 42
0.06
 10
9.765583
 20
7.658561
 10
9.698583
 20
7.696561
 42
-0.062
 10
9.560583
 20
7.788561
 42
-0.049
 10
9.462583
 20
7.899561
 10
9.396583
 20
7.993561
 42
0.24
 10
9.222583
 20
8.095561
 42
0.116
 10
9.037583
 20
8.078561
 42
0.135
 10
8.909583
 20
7.987561
 42
0.088
 10
8.827583
 20
7.836561
 42
0.044
 10
8.778583
 20
7.637561
 42
0.044
 10
8.775583
 20
7.491561
 42
0.028
 10
8.798583
 20
7.272561
 42
0.053
 10
8.851583
 20
7.065561
 42
0.068
 10
8.891583
 20
6.993561
 42
0.157
 10
8.940583
 20
6.956561
 42
0.078
 10
9.057583
 20
6.949561
 42
0.021
 10
9.125583
 20
6.956561
 10
9.173789
 20
6.959055
  0
LWPOLYLINE
  5
8E
330
1F
100
AcDbEntity
  8
0
100
AcDbPolyline
 90
       31
 70
   128
 43
0.0
 10
7.980323
 20
6.925198
 10
7.988787
 20
7.722958
 10
7.980323
 20
6.925198
 42
0.11611
 10
8.112117
 20
6.908704
 42
0.275
 10
8.251117
 20
6.998704
 42
0.025
 10
8.299117
 20
7.101704
 42
-0.077
 10
8.356117
 20
7.197704
 42
-0.083
 10
8.483117
 20
7.291704
 42
0.017
 10
8.617117
 20
7.365704
 42
0.067
 10
8.664117
 20
7.405704
 42
0.143
 10
8.688117
 20
7.451704
 42
0.151
 10
8.678117
 20
7.508704
 42
0.08
 10
8.626117
 20
7.580704
 42
0.06
 10
8.572117
 20
7.624704
 10
8.505117
 20
7.662704
 42
-0.062
 10
8.367117
 20
7.754704
 42
-0.049
 10
8.269117
 20
7.865704
 10
8.203117
 20
7.959704
 42
0.24
 10
8.029117
 20
8.061704
 42
0.116
 10
7.844117
 20
8.044704
 42
0.135
 10
7.716117
 20
7.953704
 42
0.088
 10
7.634117
 20
7.802704
 42
0.044
 10
7.585117
 20
7.603704
 42
0.044
 10
7.582117
 20
7.457704
 42
0.028
 10
7.605117
 20
7.238704
 42
0.053
 10
7.658117
 20
7.031704
 42
0.068
 10
7.698117
 20
6.959704
 42
0.157
 10
7.747117
 20
6.922704
 42
0.078
 10
7.864117
 20
6.915704
 42
0.021
 10
7.932117
 20
6.922704
 10
7.980323
 20
6.925198
  0
LWPOLYLINE
  5
8F
330
1F
100
AcDbEntity
  8
0
100
AcDbPolyline
 90
       31
 70
   128
 43
0.0
 10
6.719142
 20
6.874412
 10
6.727607
 20
7.672172
 10
6.719142
 20
6.874412
 42
0.11611
 10
6.850937
 20
6.857918
 42
0.275
 10
6.989937
 20
6.947918
 42
0.025
 10
7.037937
 20
7.050918
 42
-0.077
 10
7.094937
 20
7.146918
 42
-0.083
 10
7.221937
 20
7.240918
 42
0.017
 10
7.355937
 20
7.314918
 42
0.067
 10
7.402937
 20
7.354918
 42
0.143
 10
7.426937
 20
7.400918
 42
0.151
 10
7.416937
 20
7.457918
 42
0.08
 10
7.364937
 20
7.529918
 42
0.06
 10
7.310937
 20
7.573918
 10
7.243937
 20
7.611918
 42
-0.062
 10
7.105937
 20
7.703918
 42
-0.049
 10
7.007937
 20
7.814918
 10
6.941937
 20
7.908918
 42
0.24
 10
6.767937
 20
8.010918
 42
0.116
 10
6.582937
 20
7.993918
 42
0.135
 10
6.454937
 20
7.902918
 42
0.088
 10
6.372937
 20
7.751918
 42
0.044
 10
6.323937
 20
7.552918
 42
0.044
 10
6.320937
 20
7.406918
 42
0.028
 10
6.343937
 20
7.187918
 42
0.053
 10
6.396937
 20
6.980918
 42
0.068
 10
6.436937
 20
6.908918
 42
0.157
 10
6.485937
 20
6.871918
 42
0.078
 10
6.602937
 20
6.864918
 42
0.021
 10
6.670937
 20
6.871918
 10
6.719142
 20
6.874412
  0
LWPOLYLINE
  5
90
330
1F
100
AcDbEntity
  8
0
100
AcDbPolyline
 90
       85
 70
   128
 43
0.0
 10
9.074242
 20
4.841216
 10
9.074242
 20
4.580216
 42
-0.029
 10
9.268242
 20
4.829216
 42
-0.027
 10
9.306242
 20
4.867216
 42
-0.083
 10
9.336242
 20
4.887216
 42
-0.29
 10
9.355242
 20
4.883216
 42
-0.071
 10
9.363242
 20
4.874216
 10
9.371242
 20
4.860216
 42
0.04
 10
9.415242
 20
4.777216
 42
0.083
 10
9.425242
 20
4.768216
 42
0.135
 10
9.437242
 20
4.765216
 42
0.118
 10
9.450242
 20
4.768216
 42
0.065
 10
9.465242
 20
4.778216
 42
0.037
 10
9.607242
 20
4.940216
 42
0.007
 10
9.699242
 20
5.059216
 10
9.699242
 20
4.754216
 10
9.983242
 20
5.220216
 10
10.007242
 20
4.899216
 10
10.240242
 20
5.279216
 10
10.286242
 20
5.063216
 10
10.473242
 20
5.254216
 42
0.004
 10
10.221242
 20
5.540216
 42
0.042
 10
10.162242
 20
5.597216
 42
0.109
 10
10.116242
 20
5.622216
 42
0.148
 10
10.075242
 20
5.619216
 42
0.064
 10
10.030242
 20
5.594216
 42
-0.016
 10
9.899242
 20
5.501216
 42
-0.059
 10
9.657242
 20
5.387216
 42
-0.043
 10
9.527242
 20
5.357216
 10
9.396242
 20
5.337216
 42
-0.062
 10
9.334242
 20
5.332216
 10
8.174242
 20
5.352216
 10
8.157242
 20
5.353216
 42
-0.08
 10
8.145242
 20
5.356216
 42
-0.08
 10
8.134242
 20
5.364216
 10
8.123242
 20
5.377216
 10
8.080242
 20
5.430216
 42
0.072
 10
8.031242
 20
5.476216
 42
0.084
 10
7.946242
 20
5.510216
 10
7.853242
 20
5.532216
 10
7.837242
 20
5.536216
 42
0.082
 10
7.824242
 20
5.536216
 42
0.082
 10
7.812242
 20
5.532216
 10
7.798242
 20
5.522216
 42
0.009
 10
7.180242
 20
5.116216
 42
0.02
 10
6.750242
 20
4.795215
 42
0.025
 10
6.587242
 20
4.648215
 42
0.067
 10
6.490242
 20
4.526215
 42
0.144
 10
6.456242
 20
4.390215
 42
0.161
 10
6.502242
 20
4.280215
 42
0.105
 10
6.612242
 20
4.200215
 42
0.066
 10
6.768242
 20
4.151215
 42
0.0387
 10
7.000227
 20
4.112618
 10
7.294362
 20
4.468119
 10
7.006242
 20
4.119215
 42
0.128
 10
7.004242
 20
4.105215
 42
0.149
 10
7.009242
 20
4.094215
 42
0.093
 10
7.021242
 20
4.086215
 42
0.048
 10
7.038242
 20
4.079215
 42
0.045
 10
7.143242
 20
4.068216
 10
7.263242
 20
4.061216
 42
0.044
 10
7.393242
 20
4.068216
 42
0.053
 10
7.590242
 20
4.123216
 10
7.692242
 20
4.165216
 10
7.793242
 20
4.209216
 42
-0.025
 10
7.990242
 20
4.286216
 42
-0.082
 10
8.171242
 20
4.318216
 42
-0.058
 10
8.282242
 20
4.300216
 10
8.381242
 20
4.271216
 42
0.065
 10
8.465242
 20
4.255216
 42
0.187
 10
8.534242
 20
4.277216
 42
0.083
 10
8.591242
 20
4.352216
 10
8.644242
 20
4.451216
 42
-0.036
 10
8.697242
 20
4.543216
 42
-0.056
 10
8.725242
 20
4.575216
 42
-0.112
 10
8.755242
 20
4.593216
 42
-0.245
 10
8.788242
 20
4.588216
 42
-0.113
 10
8.800242
 20
4.571216
 42
0.037
 10
8.816242
 20
4.532216
 42
0.103
 10
8.821242
 20
4.526216
 42
0.153
 10
8.828242
 20
4.525216
 42
0.114
 10
8.840242
 20
4.528216
 42
0.048
 10
8.854242
 20
4.539216
 42
0.038
 10
8.889242
 20
4.575216
 42
0.034
 10
9.074242
 20
4.841216
  0
LWPOLYLINE
  5
91
330
1F
100
AcDbEntity
  8
0
100
AcDbPolyline
 90
       21
 70
   128
 43
0.0
 10
7.862242
 20
5.204216
 10
7.740242
 20
5.193216
 42
0.095
 10
7.740242
 20
5.207216
 42
0.237
 10
7.735242
 20
5.212216
 42
0.088
 10
7.725242
 20
5.214216
 42
-0.06
 10
7.706242
 20
5.215216
 42
-0.21
 10
7.700242
 20
5.220216
 42
-0.126
 10
7.698242
 20
5.229216
 42
-0.217
 10
7.720242
 20
5.265216
 42
-0.081
 10
7.767242
 20
5.290216
 42
-0.046
 10
7.818242
 20
5.303216
 10
7.838242
 20
5.305216
 42
-0.068
 10
7.851242
 20
5.304216
 42
-0.076
 10
7.884242
 20
5.290216
 42
-0.13
 10
7.902242
 20
5.272216
 42
-0.141
 10
7.907242
 20
5.249216
 42
-0.087
 10
7.899242
 20
5.222216
 42
-0.06
 10
7.895242
 20
5.214216
 42
-0.124
 10
7.889242
 20
5.209216
 42
-0.068
 10
7.879242
 20
5.206216
 10
7.862242
 20
5.204216
  0
LWPOLYLINE
  5
92
330
1F
100
AcDbEntity
  8
0
100
AcDbPolyline
 90
       60
 70
   128
 43
0.0
 10
5.877432
 20
0.99122
 10
5.881664
 20
1.490613
 10
5.875316
 20
0.989104
 10
6.189399
 20
1.066786
 42
-0.011
 10
6.168399
 20
1.192786
 42
-0.035
 10
6.148399
 20
1.427786
 42
-0.054
 10
6.169399
 20
1.560786
 10
6.208399
 20
1.715786
 42
0.056
 10
6.228399
 20
1.866786
 42
0.167
 10
6.193399
 20
1.985786
 42
0.087
 10
6.165399
 20
2.009786
 10
6.133399
 20
2.028786
 42
-0.256
 10
6.092399
 20
2.089786
 42
-0.067
 10
6.097399
 20
2.162786
 42
-0.024
 10
6.117399
 20
2.246786
 42
-0.018
 10
6.148399
 20
2.344786
 10
5.913399
 20
2.378786
 10
6.175399
 20
2.700786
 42
-0.032
 10
5.990399
 20
2.728786
 10
5.956399
 20
2.738786
 42
-0.064
 10
5.933399
 20
2.749786
 42
-0.28
 10
5.925399
 20
2.767786
 42
-0.135
 10
5.936399
 20
2.792786
 10
5.993399
 20
2.865786
 42
0.052
 10
6.063399
 20
2.982786
 42
0.016
 10
6.092399
 20
3.053786
 10
5.884399
 20
3.108786
 42
0.024
 10
5.945399
 20
3.182786
 42
0.067
 10
6.041399
 20
3.344786
 42
0.041
 10
6.064399
 20
3.428786
 10
5.870399
 20
3.456786
 42
0.025
 10
5.941399
 20
3.539786
 42
0.085
 10
6.039399
 20
3.707786
 42
0.056
 10
6.051399
 20
3.775786
 10
5.842399
 20
3.791786
 42
0.033
 10
5.980399
 20
3.976786
 10
6.000399
 20
4.012786
 42
0.078
 10
6.009399
 20
4.039786
 42
0.233
 10
6.004399
 20
4.053786
 42
0.129
 10
5.990399
 20
4.060786
 42
0.041
 10
5.967399
 20
4.064786
 10
5.939399
 20
4.067786
 42
0.091
 10
5.828399
 20
4.059786
 42
0.129
 10
5.750399
 20
4.013786
 42
0.075
 10
5.691399
 20
3.928786
 42
0.021
 10
5.634399
 20
3.803786
 42
0.044
 10
5.629399
 20
3.786786
 10
5.624399
 20
3.757786
 10
5.614399
 20
3.667786
 42
0.008
 10
5.592399
 20
3.380786
 42
0.01
 10
5.529399
 20
1.717786
 42
0.018
 10
5.531399
 20
1.326786
 42
0.04
 10
5.537399
 20
1.275786
 42
0.022
 10
5.584399
 20
1.098786
 42
0.058
 10
5.624399
 20
1.011786
 42
0.073
 10
5.648399
 20
0.982786
 42
0.144
 10
5.675399
 20
0.969786
 42
0.063
 10
5.763399
 20
0.973786
 10
5.814399
 20
0.983786
 10
5.877432
 20
0.99122
  0
ENDSEC
  0
SECTION
  2
OBJECTS
  0
DICTIONARY
  5
C
330
0
100
AcDbDictionary
281
     1
  3
ACAD_GROUP
350
D
  3
ACAD_LAYOUT
350
1A
  3
ACAD_MLINESTYLE
350
17
  3
ACAD_PLOTSETTINGS
350
19
  3
ACAD_PLOTSTYLENAME
350
E
  0
DICTIONARY
  5
D
102
{ACAD_REACTORS
330
C
102
}
330
C
100
AcDbDictionary
281
     1
  0
DICTIONARY
  5
1A
102
{ACAD_REACTORS
330
C
102
}
330
C
100
AcDbDictionary
281
     1
  3
Layout1
350
1E
  3
Layout2
350
26
  3
Model
350
22
  0
DICTIONARY
  5
17
102
{ACAD_REACTORS
330
C
102
}
330
C
100
AcDbDictionary
281
     1
  3
Standard
350
18
  0
DICTIONARY
  5
19
102
{ACAD_REACTORS
330
C
102
}
330
C
100
AcDbDictionary
281
     1
  0
ACDBDICTIONARYWDFLT
  5
E
102
{ACAD_REACTORS
330
C
102
}
330
C
100
AcDbDictionary
281
     1
  3
Normal
350
F
100
AcDbDictionaryWithDefault
340
F
  0
LAYOUT
  5
1E
102
{ACAD_REACTORS
330
1A
102
}
330
1A
100
AcDbPlotSettings
  1

  2

  4

  6

 40
0.0
 41
0.0
 42
0.0
 43
0.0
 44
0.0
 45
0.0
 46
0.0
 47
0.0
 48
0.0
 49
0.0
140
0.0
141
0.0
142
1.0
143
1.0
 70
   688
 72
     0
 73
     0
 74
     5
  7

 75
    16
147
1.0
148
0.0
149
0.0
100
AcDbLayout
  1
Layout1
 70
     1
 71
     1
 10
0.0
 20
0.0
 11
420.0
 21
297.0
 12
0.0
 22
0.0
 32
0.0
 14
1.000000E+20
 24
1.000000E+20
 34
1.000000E+20
 15
-1.000000E+20
 25
-1.000000E+20
 35
-1.000000E+20
146
0.0
 13
0.0
 23
0.0
 33
0.0
 16
1.0
 26
0.0
 36
0.0
 17
0.0
 27
1.0
 37
0.0
 76
     0
330
1B
  0
LAYOUT
  5
26
102
{ACAD_REACTORS
330
1A
102
}
330
1A
100
AcDbPlotSettings
  1

  2

  4

  6

 40
0.0
 41
0.0
 42
0.0
 43
0.0
 44
0.0
 45
0.0
 46
0.0
 47
0.0
 48
0.0
 49
0.0
140
0.0
141
0.0
142
1.0
143
1.0
 70
   688
 72
     0
 73
     0
 74
     5
  7

 75
    16
147
1.0
148
0.0
149
0.0
100
AcDbLayout
  1
Layout2
 70
     1
 71
     2
 10
0.0
 20
0.0
 11
0.0
 21
0.0
 12
0.0
 22
0.0
 32
0.0
 14
0.0
 24
0.0
 34
0.0
 15
0.0
 25
0.0
 35
0.0
146
0.0
 13
0.0
 23
0.0
 33
0.0
 16
1.0
 26
0.0
 36
0.0
 17
0.0
 27
1.0
 37
0.0
 76
     0
330
23
  0
LAYOUT
  5
22
102
{ACAD_REACTORS
330
1A
102
}
330
1A
100
AcDbPlotSettings
  1

  2

  4

  6

 40
0.0
 41
0.0
 42
0.0
 43
0.0
 44
0.0
 45
0.0
 46
0.0
 47
0.0
 48
0.0
 49
0.0
140
0.0
141
0.0
142
1.0
143
1.0
 70
  1712
 72
     0
 73
     0
 74
     0
  7

 75
     0
147
1.0
148
0.0
149
0.0
100
AcDbLayout
  1
Model
 70
     1
 71
     0
 10
0.0
 20
0.0
 11
0.0
 21
0.0
 12
0.0
 22
0.0
 32
0.0
 14
0.0
 24
0.0
 34
0.0
 15
0.0
 25
0.0
 35
0.0
146
0.0
 13
0.0
 23
0.0
 33
0.0
 16
1.0
 26
0.0
 36
0.0
 17
0.0
 27
1.0
 37
0.0
 76
     0
330
1F
  0
MLINESTYLE
  5
18
102
{ACAD_REACTORS
330
17
102
}
330
17
100
AcDbMlineStyle
  2
Standard
 70
     0
  3

 62
   256
 51
90.0
 52
90.0
 71
     2
 49
1.0
 62
   256
  6
BYLAYER
 49
-1.0
 62
   256
  6
BYLAYER
  0
ACDBPLACEHOLDER
  5
F
102
{ACAD_REACTORS
330
E
102
}
330
E
  0
ENDSEC
  0
EOF
