  0
SECTION
  2
HEADER
999
BEZARC 1.0.1
  9
$FASTZOOM
 70
0
  9
$FILLMODE
 70
1
  9
$SPLINETYPE
 70
5
  0
ENDSEC
  0
SECTION
  2
ENTITIES
  0
POLYLINE
  8
0
 66
1
 70
1
  0
VERTEX
  8
0
 10
6.764276
 20
7.944082
  0
VERTEX
  8
0
 10
6.752512
 20
7.912151
 42
0.08955
  0
VERTEX
  8
0
 10
6.446288
 20
7.755184
 42
0.027282
  0
VERTEX
  8
0
 10
6.173309
 20
7.523633
 42
-0.000326
  0
VERTEX
  8
0
 10
6.144144
 20
7.49705
 42
0.125768
  0
VERTEX
  8
0
 10
5.45868
 20
6.170237
 42
0.068851
  0
VERTEX
  8
0
 10
5.329067
 20
4.621587
 42
0.039963
  0
VERTEX
  8
0
 10
5.45534
 20
4.090243
 42
-0.048028
  0
VERTEX
  8
0
 10
5.587874
 20
3.504006
 42
-0.215773
  0
VERTEX
  8
0
 10
5.507627
 20
3.337839
 42
-0.069517
  0
VERTEX
  8
0
 10
5.349233
 20
3.233433
 42
-0.057425
  0
VERTEX
  8
0
 10
5.285371
 20
3.028403
 42
0.066721
  0
VERTEX
  8
0
 10
5.643544
 20
2.489149
 42
0.106691
  0
VERTEX
  8
0
 10
6.159269
 20
2.092324
 42
0.127659
  0
VERTEX
  8
0
 10
6.930653
 20
1.942751
  0
VERTEX
  8
0
 10
7.043251
 20
1.927626
 42
-0.151446
  0
VERTEX
  8
0
 10
6.59853
 20
1.841918
 42
-0.069636
  0
VERTEX
  8
0
 10
6.152547
 20
1.942751
 42
-0.12037
  0
VERTEX
  8
0
 10
5.658459
 20
2.227189
 42
-0.082912
  0
VERTEX
  8
0
 10
5.300496
 20
2.685565
  0
VERTEX
  8
0
 10
5.098828
 20
3.016639
 42
0.183191
  0
VERTEX
  8
0
 10
5.080783
 20
3.000104
 42
0.064079
  0
VERTEX
  8
0
 10
5.073582
 20
2.977164
 42
-0.035505
  0
VERTEX
  8
0
 10
5.068548
 20
2.958843
 42
-0.107518
  0
VERTEX
  8
0
 10
5.058493
 20
2.942693
 42
-0.137338
  0
VERTEX
  8
0
 10
4.885394
 20
2.814971
 42
0.022791
  0
VERTEX
  8
0
 10
4.856422
 20
2.740592
 42
-0.045888
  0
VERTEX
  8
0
 10
4.811839
 20
2.635686
 42
-0.142932
  0
VERTEX
  8
0
 10
4.732462
 20
2.556161
 42
-0.070951
  0
VERTEX
  8
0
 10
4.546958
 20
2.565603
 42
-0.025064
  0
VERTEX
  8
0
 10
4.372087
 20
2.609664
 42
0.01835
  0
VERTEX
  8
0
 10
4.223249
 20
2.648593
 42
0.157486
  0
VERTEX
  8
0
 10
2.401506
 20
2.806567
 42
0.056492
  0
VERTEX
  8
0
 10
1.50576
 20
2.43516
 42
0.125624
  0
VERTEX
  8
0
 10
0.630181
 20
1.544456
 42
0.042954
  0
VERTEX
  8
0
 10
0.526423
 20
1.231793
 42
-0.008756
  0
VERTEX
  8
0
 10
0.485651
 20
1.08734
 42
-0.265382
  0
VERTEX
  8
0
 10
0.445029
 20
1.070029
 42
-0.08431
  0
VERTEX
  8
0
 10
0.403379
 20
1.085209
 42
0.029374
  0
VERTEX
  8
0
 10
0.379775
 20
1.095743
 42
-0.080327
  0
VERTEX
  8
0
 10
0.283982
 20
1.418412
 42
-0.055895
  0
VERTEX
  8
0
 10
0.547104
 20
2.975406
 42
0.005719
  0
VERTEX
  8
0
 10
0.662111
 20
3.455268
 42
0.001406
  0
VERTEX
  8
0
 10
0.733493
 20
3.682973
 42
-0.05192
  0
VERTEX
  8
0
 10
1.255354
 20
5.024925
 42
0.15668
  0
VERTEX
  8
0
 10
1.274681
 20
5.136473
 42
0.069865
  0
VERTEX
  8
0
 10
1.24359
 20
5.246761
 42
0.049143
  0
VERTEX
  8
0
 10
1.224372
 20
5.268507
 42
0.014752
  0
VERTEX
  8
0
 10
1.201449
 20
5.288709
 42
-0.084158
  0
VERTEX
  8
0
 10
1.155335
 20
5.337103
 42
-0.260474
  0
VERTEX
  8
0
 10
1.154519
 20
5.403054
 42
0.174463
  0
VERTEX
  8
0
 10
1.193173
 20
5.504939
 42
0.106098
  0
VERTEX
  8
0
 10
1.171325
 20
5.613126
 42
0.037102
  0
VERTEX
  8
0
 10
1.06578
 20
5.793466
 42
-0.064437
  0
VERTEX
  8
0
 10
0.934763
 20
6.036735
 42
-0.19859
  0
VERTEX
  8
0
 10
0.949489
 20
6.310564
 42
-0.159419
  0
VERTEX
  8
0
 10
1.003268
 20
6.382199
 42
-0.056466
  0
VERTEX
  8
0
 10
1.082256
 20
6.424843
 42
-0.197088
  0
VERTEX
  8
0
 10
1.140865
 20
6.422952
 42
-0.163888
  0
VERTEX
  8
0
 10
1.183089
 20
6.38451
 42
-0.02333
  0
VERTEX
  8
0
 10
1.235906
 20
6.27197
 42
0.031212
  0
VERTEX
  8
0
 10
1.29867
 20
6.141748
 42
0.114228
  0
VERTEX
  8
0
 10
1.386018
 20
6.043774
 42
0.114496
  0
VERTEX
  8
0
 10
1.415222
 20
6.040826
 42
0.065011
  0
VERTEX
  8
0
 10
1.452323
 20
6.049498
 42
0.155119
  0
VERTEX
  8
0
 10
1.517524
 20
6.097132
 42
-0.038251
  0
VERTEX
  8
0
 10
1.879334
 20
6.496009
 42
0.000428
  0
VERTEX
  8
0
 10
1.920861
 20
6.537442
  0
VERTEX
  8
0
 10
1.97296
 20
6.653401
 42
0.082552
  0
VERTEX
  8
0
 10
1.963585
 20
6.740134
 42
0.042854
  0
VERTEX
  8
0
 10
1.944386
 20
6.800414
 42
0.09117
  0
VERTEX
  8
0
 10
1.91456
 20
6.848349
 42
0.114918
  0
VERTEX
  8
0
 10
1.865494
 20
6.891088
 42
0.022045
  0
VERTEX
  8
0
 10
1.786727
 20
6.932066
 42
-0.027283
  0
VERTEX
  8
0
 10
1.675001
 20
6.991572
 42
-0.092063
  0
VERTEX
  8
0
 10
1.581386
 20
7.073544
 42
-0.273738
  0
VERTEX
  8
0
 10
1.606594
 20
7.202949
 42
-0.126924
  0
VERTEX
  8
0
 10
1.845236
 20
7.287398
 42
-0.149659
  0
VERTEX
  8
0
 10
2.093961
 20
7.238242
 42
-0.080046
  0
VERTEX
  8
0
 10
2.182456
 20
7.193656
 42
-0.024642
  0
VERTEX
  8
0
 10
2.263116
 20
7.129313
 42
0.032502
  0
VERTEX
  8
0
 10
2.356382
 20
7.056476
 42
0.104841
  0
VERTEX
  8
0
 10
2.462006
 20
7.013044
 42
0.009792
  0
VERTEX
  8
0
 10
2.487931
 20
7.032179
 42
-0.07359
  0
VERTEX
  8
0
 10
2.566551
 20
7.080663
 42
-0.25302
  0
VERTEX
  8
0
 10
2.655272
 20
7.070183
 42
0.209097
  0
VERTEX
  8
0
 10
2.88031
 20
6.989436
 42
0.064314
  0
VERTEX
  8
0
 10
3.12083
 20
7.042625
 42
-0.044358
  0
VERTEX
  8
0
 10
3.312376
 20
7.09035
 42
-0.027626
  0
VERTEX
  8
0
 10
3.787979
 20
7.142449
 42
0.003737
  0
VERTEX
  8
0
 10
4.246704
 20
7.36476
 42
-0.032873
  0
VERTEX
  8
0
 10
5.628208
 20
7.969292
 42
0.001917
  0
VERTEX
  8
0
 10
5.720161
 20
7.989404
 42
-0.024551
  0
VERTEX
  8
0
 10
6.06476
 20
8.053856
 42
-0.07305
  0
VERTEX
  8
0
 10
6.421439
 20
8.049958
 42
0.000879
  0
VERTEX
  8
0
 10
6.451324
 20
8.04505
 42
-0.027869
  0
VERTEX
  8
0
 10
6.615355
 20
8.012062
 42
-0.087191
  0
SEQEND
  8
0
  0
POLYLINE
  8
0
 66
1
 70
1
  0
VERTEX
  8
0
 10
6.475218
 20
7.897026
 42
-0.171494
  0
VERTEX
  8
0
 10
6.482124
 20
7.89012
 42
-0.11948
  0
VERTEX
  8
0
 10
6.483831
 20
7.880851
 42
-0.119055
  0
VERTEX
  8
0
 10
6.478579
 20
7.863415
 42
-0.010165
  0
VERTEX
  8
0
 10
6.33034
 20
7.882665
 42
0.026589
  0
VERTEX
  8
0
 10
6.087006
 20
7.90879
  0
VERTEX
  8
0
 10
6.078603
 20
7.900387
 42
0.034208
  0
VERTEX
  8
0
 10
6.196484
 20
7.805437
 42
-0.01207
  0
VERTEX
  8
0
 10
6.268507
 20
7.750817
 42
-0.100591
  0
VERTEX
  8
0
 10
6.27019
 20
7.744392
 42
-0.164943
  0
VERTEX
  8
0
 10
6.268936
 20
7.74017
 42
-0.105924
  0
VERTEX
  8
0
 10
6.265657
 20
7.737386
 42
-0.028225
  0
VERTEX
  8
0
 10
6.26127
 20
7.73528
 42
0.022013
  0
VERTEX
  8
0
 10
6.257056
 20
7.733294
 42
0.071456
  0
VERTEX
  8
0
 10
6.253382
 20
7.73065
 42
-0.017213
  0
VERTEX
  8
0
 10
6.125153
 20
7.817227
 42
0.005731
  0
VERTEX
  8
0
 10
6.051712
 20
7.868457
  0
VERTEX
  8
0
 10
6.002976
 20
7.816358
  0
VERTEX
  8
0
 10
6.132381
 20
7.629815
 42
0.073586
  0
VERTEX
  8
0
 10
6.129354
 20
7.625625
 42
0.02468
  0
VERTEX
  8
0
 10
6.12723
 20
7.62097
 42
-0.075423
  0
VERTEX
  8
0
 10
6.123347
 20
7.613735
 42
-0.194304
  0
VERTEX
  8
0
 10
6.115575
 20
7.609649
  0
VERTEX
  8
0
 10
5.974407
 20
7.782747
 42
0.131695
  0
VERTEX
  8
0
 10
5.921365
 20
7.741126
 42
0.19926
  0
VERTEX
  8
0
 10
5.912377
 20
7.696133
 42
0.095269
  0
VERTEX
  8
0
 10
5.932755
 20
7.648897
 42
0.023509
  0
VERTEX
  8
0
 10
5.967814
 20
7.600542
 42
-0.023264
  0
VERTEX
  8
0
 10
6.002713
 20
7.552439
 42
-0.094084
  0
VERTEX
  8
0
 10
6.023143
 20
7.505453
 42
-0.264896
  0
VERTEX
  8
0
 10
6.02285
 20
7.492455
 42
-0.08831
  0
VERTEX
  8
0
 10
6.013706
 20
7.483515
 42
0.013116
  0
VERTEX
  8
0
 10
6.009702
 20
7.480287
 42
0.045053
  0
VERTEX
  8
0
 10
6.006337
 20
7.476883
  0
VERTEX
  8
0
 10
5.994574
 20
7.476883
  0
VERTEX
  8
0
 10
5.873572
 20
7.658385
  0
VERTEX
  8
0
 10
5.789543
 20
7.55755
 42
0.02143
  0
VERTEX
  8
0
 10
5.863888
 20
7.407278
 42
-0.006086
  0
VERTEX
  8
0
 10
5.905503
 20
7.327311
  0
VERTEX
  8
0
 10
5.881975
 20
7.303783
 42
-0.037
  0
VERTEX
  8
0
 10
5.809655
 20
7.408037
 42
0.022576
  0
VERTEX
  8
0
 10
5.752571
 20
7.493689
 42
0.050279
  0
VERTEX
  8
0
 10
5.689873
 20
7.415316
 42
-0.016771
  0
VERTEX
  8
0
 10
5.655097
 20
7.367646
  0
VERTEX
  8
0
 10
5.784501
 20
7.186143
 42
-0.335476
  0
VERTEX
  8
0
 10
5.786751
 20
7.170963
 42
-0.079295
  0
VERTEX
  8
0
 10
5.775568
 20
7.157364
 42
0.0225
  0
VERTEX
  8
0
 10
5.769376
 20
7.150851
 42
-0.040904
  0
VERTEX
  8
0
 10
5.718052
 20
7.206729
 42
-0.012613
  0
VERTEX
  8
0
 10
5.671071
 20
7.270114
 42
0.008934
  0
VERTEX
  8
0
 10
5.631569
 20
7.323951
 42
0.127289
  0
VERTEX
  8
0
 10
5.577163
 20
7.276782
 42
0.196962
  0
VERTEX
  8
0
 10
5.569084
 20
7.228966
 42
0.097672
  0
VERTEX
  8
0
 10
5.591916
 20
7.180686
 42
0.024245
  0
VERTEX
  8
0
 10
5.630245
 20
7.132125
 42
-0.025056
  0
VERTEX
  8
0
 10
5.669233
 20
7.082622
 42
-0.101035
  0
VERTEX
  8
0
 10
5.692071
 20
7.033211
 42
0.00034
  0
VERTEX
  8
0
 10
5.691347
 20
7.032002
 42
-0.030547
  0
VERTEX
  8
0
 10
5.682769
 20
7.018937
 42
-0.128102
  0
VERTEX
  8
0
 10
5.671903
 20
7.009683
  0
VERTEX
  8
0
 10
5.539137
 20
7.174379
  0
VERTEX
  8
0
 10
5.473596
 20
7.061781
  0
VERTEX
  8
0
 10
5.619806
 20
6.880279
 42
0.008194
  0
VERTEX
  8
0
 10
5.614514
 20
6.87196
 42
-0.014721
  0
VERTEX
  8
0
 10
5.60768
 20
6.861413
 42
-0.043088
  0
VERTEX
  8
0
 10
5.599639
 20
6.85171
 42
-0.046259
  0
VERTEX
  8
0
 10
5.457445
 20
6.999907
 42
0.000038
  0
VERTEX
  8
0
 10
5.453428
 20
7.004642
 42
0.069266
  0
VERTEX
  8
0
 10
5.425489
 20
6.963257
 42
0.040427
  0
VERTEX
  8
0
 10
5.406372
 20
6.915571
  0
VERTEX
  8
0
 10
5.559304
 20
6.722306
 42
-0.102318
  0
VERTEX
  8
0
 10
5.542289
 20
6.702348
 42
-0.164037
  0
VERTEX
  8
0
 10
5.518971
 20
6.693736
  0
VERTEX
  8
0
 10
5.381164
 20
6.848349
 42
0.087146
  0
VERTEX
  8
0
 10
5.357705
 20
6.815679
 42
0.027765
  0
VERTEX
  8
0
 10
5.341979
 20
6.777845
 42
-0.030974
  0
VERTEX
  8
0
 10
5.325706
 20
6.739111
  0
VERTEX
  8
0
 10
5.473596
 20
6.586178
 42
-0.122716
  0
VERTEX
  8
0
 10
5.471988
 20
6.565659
 42
-0.046281
  0
VERTEX
  8
0
 10
5.463923
 20
6.548194
 42
0.019002
  0
VERTEX
  8
0
 10
5.458471
 20
6.537442
  0
VERTEX
  8
0
 10
5.305537
 20
6.67861
 42
0.147419
  0
VERTEX
  8
0
 10
5.272213
 20
6.629407
 42
0.183453
  0
VERTEX
  8
0
 10
5.277918
 20
6.585084
 42
0.081765
  0
VERTEX
  8
0
 10
5.309678
 20
6.543984
 42
0.020562
  0
VERTEX
  8
0
 10
5.354517
 20
6.504453
 42
-0.022366
  0
VERTEX
  8
0
 10
5.401188
 20
6.463113
 42
-0.090099
  0
VERTEX
  8
0
 10
5.433261
 20
6.419801
 42
-0.102275
  0
VERTEX
  8
0
 10
5.427987
 20
6.405183
 42
-0.031691
  0
VERTEX
  8
0
 10
5.418593
 20
6.391844
 42
0.008693
  0
VERTEX
  8
0
 10
5.413094
 20
6.38451
 42
-0.024069
  0
VERTEX
  8
0
 10
5.299221
 20
6.49427
 42
0.003285
  0
VERTEX
  8
0
 10
5.256801
 20
6.537442
 42
0.125561
  0
VERTEX
  8
0
 10
5.236686
 20
6.508934
 42
0.039326
  0
VERTEX
  8
0
 10
5.226615
 20
6.474473
 42
-0.040898
  0
VERTEX
  8
0
 10
5.216468
 20
6.439968
  0
VERTEX
  8
0
 10
5.386206
 20
6.266869
  0
VERTEX
  8
0
 10
5.381164
 20
6.243342
 42
-0.026433
  0
VERTEX
  8
0
 10
5.273938
 20
6.319236
 42
0.014081
  0
VERTEX
  8
0
 10
5.1963
 20
6.376107
 42
-0.004964
  0
VERTEX
  8
0
 10
5.189141
 20
6.357227
 42
0.030865
  0
VERTEX
  8
0
 10
5.172224
 20
6.307595
 42
0.138349
  0
VERTEX
  8
0
 10
5.171092
 20
6.263508
  0
VERTEX
  8
0
 10
5.345872
 20
6.113937
  0
VERTEX
  8
0
 10
5.329067
 20
6.097132
  0
VERTEX
  8
0
 10
5.164369
 20
6.2383
 42
0.091365
  0
VERTEX
  8
0
 10
5.13643
 20
6.17927
 42
0.06766
  0
VERTEX
  8
0
 10
5.127397
 20
6.113937
 42
-0.031711
  0
VERTEX
  8
0
 10
5.312261
 20
5.976131
 42
-0.195415
  0
VERTEX
  8
0
 10
5.309432
 20
5.965213
 42
-0.060628
  0
VERTEX
  8
0
 10
5.301139
 20
5.956855
 42
0.016235
  0
VERTEX
  8
0
 10
5.29625
 20
5.952454
 42
0.051535
  0
VERTEX
  8
0
 10
5.292093
 20
5.94756
 42
-0.017143
  0
VERTEX
  8
0
 10
5.174081
 20
6.030841
 42
0.004263
  0
VERTEX
  8
0
 10
5.115633
 20
6.073603
  0
VERTEX
  8
0
 10
5.090425
 20
5.996297
  0
VERTEX
  8
0
 10
5.297135
 20
5.860171
 42
-0.243656
  0
VERTEX
  8
0
 10
5.285371
 20
5.834962
 42
-0.047547
  0
VERTEX
  8
0
 10
5.233536
 20
5.858123
 42
-0.015539
  0
VERTEX
  8
0
 10
5.184536
 20
5.887901
 42
0.015538
  0
VERTEX
  8
0
 10
5.135537
 20
5.917678
 42
0.047544
  0
VERTEX
  8
0
 10
5.083701
 20
5.940839
 42
-0.020109
  0
VERTEX
  8
0
 10
5.07512
 20
5.907184
 42
0.018457
  0
VERTEX
  8
0
 10
5.067133
 20
5.876196
 42
0.05142
  0
VERTEX
  8
0
 10
5.063535
 20
5.843365
  0
VERTEX
  8
0
 10
5.280329
 20
5.730767
 42
0.172852
  0
VERTEX
  8
0
 10
5.276653
 20
5.724937
 42
0.059143
  0
VERTEX
  8
0
 10
5.276128
 20
5.718162
 42
-0.059147
  0
VERTEX
  8
0
 10
5.275603
 20
5.711387
 42
-0.172876
  0
VERTEX
  8
0
 10
5.271926
 20
5.705558
  0
VERTEX
  8
0
 10
5.245037
 20
5.705558
 42
-0.011977
  0
VERTEX
  8
0
 10
5.18071
 20
5.736829
 42
0.044556
  0
VERTEX
  8
0
 10
5.055132
 20
5.791267
 42
0.052912
  0
VERTEX
  8
0
 10
5.046427
 20
5.760023
 42
0.016795
  0
VERTEX
  8
0
 10
5.042012
 20
5.727242
 42
-0.013291
  0
VERTEX
  8
0
 10
5.038326
 20
5.698835
  0
VERTEX
  8
0
 10
5.268565
 20
5.584557
  0
VERTEX
  8
0
 10
5.265204
 20
5.561028
 42
-0.051171
  0
VERTEX
  8
0
 10
5.135682
 20
5.599256
 42
0.032126
  0
VERTEX
  8
0
 10
5.029924
 20
5.633293
  0
VERTEX
  8
0
 10
5.01816
 20
5.549264
  0
VERTEX
  8
0
 10
5.260162
 20
5.440026
  0
VERTEX
  8
0
 10
5.260162
 20
5.39129
  0
VERTEX
  8
0
 10
5.014799
 20
5.488764
  0
VERTEX
  8
0
 10
5.003035
 20
5.382887
  0
VERTEX
  8
0
 10
5.248399
 20
5.270289
  0
VERTEX
  8
0
 10
5.245037
 20
5.234997
 42
-0.023887
  0
VERTEX
  8
0
 10
5.098074
 20
5.290635
 42
0.008513
  0
VERTEX
  8
0
 10
5.006396
 20
5.327429
  0
VERTEX
  8
0
 10
4.997993
 20
5.238358
  0
VERTEX
  8
0
 10
5.228232
 20
5.117357
 42
0.162299
  0
VERTEX
  8
0
 10
5.224401
 20
5.109455
 42
0.049358
  0
VERTEX
  8
0
 10
5.224168
 20
5.100259
 42
-0.073996
  0
VERTEX
  8
0
 10
5.22354
 20
5.089191
 42
-0.215206
  0
VERTEX
  8
0
 10
5.216468
 20
5.080385
  0
VERTEX
  8
0
 10
5.006396
 20
5.18626
 42
0.110564
  0
VERTEX
  8
0
 10
4.997783
 20
5.136473
 42
0.037727
  0
VERTEX
  8
0
 10
5.003035
 20
5.085425
  0
VERTEX
  8
0
 10
5.239996
 20
4.967786
  0
VERTEX
  8
0
 10
5.239996
 20
4.932493
 42
-0.044811
  0
VERTEX
  8
0
 10
5.171021
 20
4.957165
 42
-0.014961
  0
VERTEX
  8
0
 10
5.105466
 20
4.989927
 42
0.027649
  0
VERTEX
  8
0
 10
5.014799
 20
5.033328
 42
0.11941
  0
VERTEX
  8
0
 10
5.005979
 20
4.990552
 42
0.032531
  0
VERTEX
  8
0
 10
5.009513
 20
4.946203
 42
-0.000091
  0
VERTEX
  8
0
 10
5.009757
 20
4.944258
  0
VERTEX
  8
0
 10
5.211426
 20
4.843424
  0
VERTEX
  8
0
 10
5.208065
 20
4.818214
 42
-0.044671
  0
VERTEX
  8
0
 10
5.146583
 20
4.837835
 42
-0.013833
  0
VERTEX
  8
0
 10
5.085473
 20
4.865422
 42
0.016492
  0
VERTEX
  8
0
 10
5.01816
 20
4.895521
 42
0.061584
  0
VERTEX
  8
0
 10
5.014378
 20
4.854767
 42
0.043053
  0
VERTEX
  8
0
 10
5.01816
 20
4.80645
 42
0.015693
  0
VERTEX
  8
0
 10
5.211426
 20
4.714019
  0
VERTEX
  8
0
 10
5.208065
 20
4.682087
 42
-0.040735
  0
VERTEX
  8
0
 10
5.098246
 20
4.71416
 42
0.016319
  0
VERTEX
  8
0
 10
5.026562
 20
4.737547
  0
VERTEX
  8
0
 10
5.026562
 20
4.661921
  0
VERTEX
  8
0
 10
5.239996
 20
4.564447
  0
VERTEX
  8
0
 10
5.239996
 20
4.535878
 42
-0.057989
  0
VERTEX
  8
0
 10
5.184729
 20
4.551241
 42
-0.018411
  0
VERTEX
  8
0
 10
5.130948
 20
4.575442
 42
0.01354
  0
VERTEX
  8
0
 10
5.083893
 20
4.596972
 42
0.041176
  0
VERTEX
  8
0
 10
5.034965
 20
4.613185
 42
0.132404
  0
VERTEX
  8
0
 10
5.028174
 20
4.546482
 42
0.173784
  0
VERTEX
  8
0
 10
5.054084
 20
4.504745
 42
0.086671
  0
VERTEX
  8
0
 10
5.101832
 20
4.479644
 42
0.022529
  0
VERTEX
  8
0
 10
5.160554
 20
4.462845
 42
-0.023124
  0
VERTEX
  8
0
 10
5.220167
 20
4.445741
 42
-0.088875
  0
VERTEX
  8
0
 10
5.268565
 20
4.419918
 42
-0.396354
  0
VERTEX
  8
0
 10
5.271193
 20
4.407672
 42
-0.078301
  0
VERTEX
  8
0
 10
5.261737
 20
4.396265
 42
0.002189
  0
VERTEX
  8
0
 10
5.260162
 20
4.39471
 42
-0.029397
  0
VERTEX
  8
0
 10
5.15946
 20
4.426552
 42
0.034972
  0
VERTEX
  8
0
 10
5.05009
 20
4.460251
 42
0.135996
  0
VERTEX
  8
0
 10
5.048373
 20
4.386957
 42
0.169535
  0
VERTEX
  8
0
 10
5.081056
 20
4.34258
 42
0.083114
  0
VERTEX
  8
0
 10
5.136667
 20
4.317481
 42
0.02174
  0
VERTEX
  8
0
 10
5.203735
 20
4.302023
 42
-0.021428
  0
VERTEX
  8
0
 10
5.270342
 20
4.2867
 42
-0.081745
  0
VERTEX
  8
0
 10
5.325706
 20
4.261944
 42
0.082272
  0
VERTEX
  8
0
 10
5.326785
 20
4.25639
 42
0.022751
  0
VERTEX
  8
0
 10
5.329176
 20
4.250629
 42
-0.075422
  0
VERTEX
  8
0
 10
5.332727
 20
4.240135
 42
-0.244436
  0
VERTEX
  8
0
 10
5.329067
 20
4.230014
  0
VERTEX
  8
0
 10
5.075299
 20
4.290514
 42
0.086321
  0
VERTEX
  8
0
 10
5.087064
 20
4.189679
  0
VERTEX
  8
0
 10
5.352594
 20
4.125818
  0
VERTEX
  8
0
 10
5.349233
 20
4.109013
 42
-0.043432
  0
VERTEX
  8
0
 10
5.24499
 20
4.12517
 42
0.024003
  0
VERTEX
  8
0
 10
5.170144
 20
4.138795
 42
0.07403
  0
VERTEX
  8
0
 10
5.095467
 20
4.137582
  0
VERTEX
  8
0
 10
5.110592
 20
4.028344
  0
VERTEX
  8
0
 10
5.386206
 20
4.008178
  0
VERTEX
  8
0
 10
5.381164
 20
3.976247
  0
VERTEX
  8
0
 10
5.124036
 20
3.988011
 42
0.118814
  0
VERTEX
  8
0
 10
5.119336
 20
3.958668
 42
0.030943
  0
VERTEX
  8
0
 10
5.123478
 20
3.925497
 42
-0.026548
  0
VERTEX
  8
0
 10
5.127397
 20
3.895579
 42
0.018969
  0
VERTEX
  8
0
 10
5.31966
 20
3.876218
 42
-0.006109
  0
VERTEX
  8
0
 10
5.4299
 20
3.86701
 42
0.036111
  0
VERTEX
  8
0
 10
5.43371
 20
3.85845
 42
-0.0517
  0
VERTEX
  8
0
 10
5.438194
 20
3.847766
 42
-0.131229
  0
VERTEX
  8
0
 10
5.438303
 20
3.835079
  0
VERTEX
  8
0
 10
5.139161
 20
3.846843
 42
-0.00148
  0
VERTEX
  8
0
 10
5.139142
 20
3.84217
 42
0.046392
  0
VERTEX
  8
0
 10
5.141094
 20
3.808991
 42
0.154164
  0
VERTEX
  8
0
 10
5.155967
 20
3.777939
  0
VERTEX
  8
0
 10
5.453428
 20
3.737606
 42
-0.085763
  0
VERTEX
  8
0
 10
5.464031
 20
3.715551
 42
-0.025764
  0
VERTEX
  8
0
 10
5.469812
 20
3.690988
 42
0.000202
  0
VERTEX
  8
0
 10
5.470235
 20
3.688869
  0
VERTEX
  8
0
 10
5.164369
 20
3.725842
 42
-0.006541
  0
VERTEX
  8
0
 10
5.164761
 20
3.715026
 42
0.021409
  0
VERTEX
  8
0
 10
5.166365
 20
3.687381
 42
0.073908
  0
VERTEX
  8
0
 10
5.172925
 20
3.660258
 42
0.184334
  0
VERTEX
  8
0
 10
5.189169
 20
3.642216
 42
0.183706
  0
VERTEX
  8
0
 10
5.219829
 20
3.641813
  0
VERTEX
  8
0
 10
5.470235
 20
3.593076
 42
-0.09981
  0
VERTEX
  8
0
 10
5.474255
 20
3.57676
 42
-0.03012
  0
VERTEX
  8
0
 10
5.474012
 20
3.5592
 42
0.013283
  0
VERTEX
  8
0
 10
5.473596
 20
3.5477
 42
-0.048462
  0
VERTEX
  8
0
 10
5.33676
 20
3.575607
 42
0.049802
  0
VERTEX
  8
0
 10
5.19126
 20
3.60484
 42
0.038138
  0
VERTEX
  8
0
 10
5.186749
 20
3.579119
 42
0.099554
  0
VERTEX
  8
0
 10
5.188896
 20
3.555998
 42
0.151479
  0
VERTEX
  8
0
 10
5.202308
 20
3.537131
 42
0.106747
  0
VERTEX
  8
0
 10
5.231593
 20
3.524172
  0
VERTEX
  8
0
 10
5.470235
 20
3.440143
  0
VERTEX
  8
0
 10
5.466872
 20
3.403171
  0
VERTEX
  8
0
 10
5.441664
 20
3.403171
  0
VERTEX
  8
0
 10
5.155967
 20
3.515769
  0
VERTEX
  8
0
 10
5.075299
 20
3.500644
 42
0.029441
  0
VERTEX
  8
0
 10
5.203776
 20
3.403166
 42
-0.006805
  0
VERTEX
  8
0
 10
5.271926
 20
3.354435
  0
VERTEX
  8
0
 10
5.268565
 20
3.325864
 42
-0.043245
  0
VERTEX
  8
0
 10
5.034072
 20
3.467589
 42
0.001035
  0
VERTEX
  8
0
 10
4.997993
 20
3.492242
 42
0.043946
  0
VERTEX
  8
0
 10
5.016884
 20
3.440908
 42
0.013237
  0
VERTEX
  8
0
 10
5.04272
 20
3.389326
 42
-0.02738
  0
VERTEX
  8
0
 10
5.078661
 20
3.3141
 42
0.085091
  0
VERTEX
  8
0
 10
5.680306
 20
2.378021
 42
0.046561
  0
VERTEX
  8
0
 10
6.057385
 20
2.099886
 42
0.076893
  0
VERTEX
  8
0
 10
6.478579
 20
1.927626
 42
0.013909
  0
VERTEX
  8
0
 10
6.606112
 20
1.905891
 42
-0.007354
  0
VERTEX
  8
0
 10
6.700415
 20
1.890654
 42
-0.10123
  0
VERTEX
  8
0
 10
6.528105
 20
1.888522
 42
-0.037909
  0
VERTEX
  8
0
 10
6.372172
 20
1.932916
 42
0.026172
  0
VERTEX
  8
0
 10
6.244979
 20
1.971322
 42
-0.048735
  0
VERTEX
  8
0
 10
5.886387
 20
2.160807
 42
-0.079415
  0
VERTEX
  8
0
 10
5.579472
 20
2.443562
 42
-0.035606
  0
VERTEX
  8
0
 10
5.386118
 20
2.714029
 42
0.01956
  0
VERTEX
  8
0
 10
5.248399
 20
2.915804
 42
-0.014495
  0
VERTEX
  8
0
 10
5.131786
 20
3.131563
 42
0.018393
  0
VERTEX
  8
0
 10
4.99906
 20
3.374099
 42
0.052155
  0
VERTEX
  8
0
 10
4.828254
 20
3.601479
 42
0.104599
  0
VERTEX
  8
0
 10
4.956955
 20
3.573852
 42
0.055551
  0
VERTEX
  8
0
 10
5.064826
 20
3.590655
 42
-0.000459
  0
VERTEX
  8
0
 10
5.075299
 20
3.593076
 42
0.306684
  0
VERTEX
  8
0
 10
5.109019
 20
3.63313
 42
0.079227
  0
VERTEX
  8
0
 10
5.103844
 20
3.690614
 42
-0.027294
  0
VERTEX
  8
0
 10
5.098828
 20
3.722481
 42
-0.123961
  0
VERTEX
  8
0
 10
5.110592
 20
6.315606
 42
-0.114831
  0
VERTEX
  8
0
 10
5.922308
 20
7.84829
 42
-0.029858
  0
VERTEX
  8
0
 10
6.112214
 20
8.001222
 42
-0.008423
  0
VERTEX
  8
0
 10
6.379197
 20
7.925338
 42
0.001101
  0
SEQEND
  8
0
  0
POLYLINE
  8
0
 66
1
 70
1
  0
VERTEX
  8
0
 10
4.796324
 20
7.416382
 42
-0.002617
  0
VERTEX
  8
0
 10
4.648376
 20
7.361761
 42
0.016258
  0
VERTEX
  8
0
 10
4.283197
 20
7.219349
 42
0.048182
  0
VERTEX
  8
0
 10
3.93755
 20
7.02985
  0
VERTEX
  8
0
 10
3.764451
 20
6.989517
 42
-0.089303
  0
VERTEX
  8
0
 10
3.295571
 20
6.799611
 42
-0.001138
  0
VERTEX
  8
0
 10
3.277552
 20
6.786632
 42
0.028494
  0
VERTEX
  8
0
 10
3.18126
 20
6.711702
 42
0.096602
  0
VERTEX
  8
0
 10
3.107347
 20
6.61811
 42
0.141273
  0
VERTEX
  8
0
 10
3.058714
 20
6.308817
 42
0.048649
  0
VERTEX
  8
0
 10
3.131649
 20
6.007797
 42
-0.020061
  0
VERTEX
  8
0
 10
3.187965
 20
5.808037
 42
-0.060377
  0
VERTEX
  8
0
 10
3.211543
 20
5.601362
 42
-0.082312
  0
VERTEX
  8
0
 10
3.17541
 20
5.504309
 42
-0.188586
  0
VERTEX
  8
0
 10
3.098944
 20
5.440026
 42
-0.152844
  0
VERTEX
  8
0
 10
2.99779
 20
5.494358
 42
-0.047667
  0
VERTEX
  8
0
 10
2.924146
 20
5.586611
 42
0.083944
  0
VERTEX
  8
0
 10
2.82799
 20
5.696635
 42
0.234897
  0
VERTEX
  8
0
 10
2.6788
 20
5.719003
 42
-0.087779
  0
VERTEX
  8
0
 10
2.642878
 20
5.777402
 42
-0.042536
  0
VERTEX
  8
0
 10
2.623342
 20
5.843365
 42
-0.021994
  0
VERTEX
  8
0
 10
2.610615
 20
6.039996
 42
0.02055
  0
VERTEX
  8
0
 10
2.599094
 20
6.224384
 42
0.064307
  0
VERTEX
  8
0
 10
2.557799
 20
6.399635
 42
0.251417
  0
VERTEX
  8
0
 10
2.483753
 20
6.455687
 42
0.088682
  0
VERTEX
  8
0
 10
2.394743
 20
6.446214
 42
-0.078199
  0
VERTEX
  8
0
 10
2.312142
 20
6.436279
 42
-0.244168
  0
VERTEX
  8
0
 10
2.243532
 20
6.480303
 42
-0.064588
  0
VERTEX
  8
0
 10
2.297392
 20
6.559573
 42
-0.020775
  0
VERTEX
  8
0
 10
2.364887
 20
6.629651
 42
0.037601
  0
VERTEX
  8
0
 10
2.450915
 20
6.722949
 42
0.118813
  0
VERTEX
  8
0
 10
2.50234
 20
6.834904
 42
-0.010356
  0
VERTEX
  8
0
 10
2.510183
 20
6.876544
 42
0.040892
  0
VERTEX
  8
0
 10
2.522507
 20
6.960947
 42
0.033493
  0
VERTEX
  8
0
 10
2.675294
 20
6.951812
 42
-0.01723
  0
VERTEX
  8
0
 10
2.782337
 20
6.94778
 42
-0.050423
  0
VERTEX
  8
0
 10
2.888872
 20
6.929015
 42
0.05585
  0
VERTEX
  8
0
 10
3.154314
 20
6.988996
 42
-0.015986
  0
VERTEX
  8
0
 10
3.292037
 20
7.028031
 42
-0.045866
  0
VERTEX
  8
0
 10
3.436739
 20
7.050017
 42
-0.01498
  0
VERTEX
  8
0
 10
3.546304
 20
7.045607
 42
0.017423
  0
VERTEX
  8
0
 10
3.663178
 20
7.041272
 42
0.055156
  0
VERTEX
  8
0
 10
3.776215
 20
7.053378
 42
0.007017
  0
VERTEX
  8
0
 10
3.969924
 20
7.150212
 42
-0.027934
  0
VERTEX
  8
0
 10
4.360705
 20
7.332155
 42
-0.081548
  0
VERTEX
  8
0
 10
4.787921
 20
7.424785
  0
SEQEND
  8
0
  0
POLYLINE
  8
0
 66
1
 70
1
  0
VERTEX
  8
0
 10
2.174628
 20
7.134046
 42
0.000619
  0
VERTEX
  8
0
 10
2.18632
 20
7.121616
 42
-0.051603
  0
VERTEX
  8
0
 10
2.290386
 20
6.994692
 42
-0.177733
  0
VERTEX
  8
0
 10
2.32756
 20
6.839946
 42
-0.150864
  0
VERTEX
  8
0
 10
2.270748
 20
6.70196
 42
-0.045339
  0
VERTEX
  8
0
 10
2.160022
 20
6.590559
 42
0.044804
  0
VERTEX
  8
0
 10
2.050265
 20
6.480303
  0
VERTEX
  8
0
 10
1.978001
 20
6.408037
 42
-0.13028
  0
VERTEX
  8
0
 10
1.947642
 20
6.419116
 42
0.0235
  0
VERTEX
  8
0
 10
1.937667
 20
6.424843
 42
-0.141319
  0
VERTEX
  8
0
 10
1.985069
 20
6.526792
 42
-0.045857
  0
VERTEX
  8
0
 10
2.068193
 20
6.604933
 42
0.0441
  0
VERTEX
  8
0
 10
2.150671
 20
6.682142
 42
0.134957
  0
VERTEX
  8
0
 10
2.199837
 20
6.782806
 42
0.068739
  0
VERTEX
  8
0
 10
2.222945
 20
6.909479
 42
0.18667
  0
VERTEX
  8
0
 10
2.183031
 20
7.02985
 42
0.042659
  0
VERTEX
  8
0
 10
2.049936
 20
7.146551
 42
-0.024183
  0
VERTEX
  8
0
 10
1.957833
 20
7.223117
 42
-0.033703
  0
VERTEX
  8
0
 10
2.070643
 20
7.189295
 42
-0.063848
  0
SEQEND
  8
0
  0
POLYLINE
  8
0
 66
1
 70
1
  0
VERTEX
  8
0
 10
2.130933
 20
6.972711
 42
0.000251
  0
VERTEX
  8
0
 10
2.132661
 20
6.96565
 42
-0.048638
  0
VERTEX
  8
0
 10
2.151288
 20
6.860359
 42
-0.166042
  0
VERTEX
  8
0
 10
2.125892
 20
6.759278
  0
VERTEX
  8
0
 10
2.050265
 20
6.687012
 42
-0.070907
  0
VERTEX
  8
0
 10
2.023775
 20
6.732533
 42
-0.022875
  0
VERTEX
  8
0
 10
2.005928
 20
6.782994
 42
0.061033
  0
VERTEX
  8
0
 10
1.973287
 20
6.862426
 42
0.165551
  0
VERTEX
  8
0
 10
1.904056
 20
6.920612
 42
0.048977
  0
VERTEX
  8
0
 10
1.852383
 20
6.952709
 42
0.015769
  0
VERTEX
  8
0
 10
1.796097
 20
6.978329
 42
-0.046131
  0
VERTEX
  8
0
 10
1.703809
 20
7.024845
 42
-0.138058
  0
VERTEX
  8
0
 10
1.635164
 20
7.102115
 42
-0.242973
  0
VERTEX
  8
0
 10
1.649659
 20
7.154212
 42
-0.106238
  0
VERTEX
  8
0
 10
1.695665
 20
7.186143
 42
-0.280204
  0
SEQEND
  8
0
  0
POLYLINE
  8
0
 66
1
 70
1
  0
VERTEX
  8
0
 10
2.663675
 20
7.004642
 42
-0.097077
  0
VERTEX
  8
0
 10
2.594171
 20
7.003413
 42
-0.033007
  0
VERTEX
  8
0
 10
2.5308
 20
7.019009
 42
0.00079
  0
VERTEX
  8
0
 10
2.522507
 20
7.021447
 42
-0.176013
  0
VERTEX
  8
0
 10
2.595612
 20
7.042664
 42
-0.260464
  0
SEQEND
  8
0
  0
POLYLINE
  8
0
 66
1
 70
1
  0
VERTEX
  8
0
 10
3.945953
 20
5.403054
 42
-0.162835
  0
VERTEX
  8
0
 10
3.957718
 20
4.791325
 42
0.048731
  0
VERTEX
  8
0
 10
3.934492
 20
5.01248
 42
0.017209
  0
VERTEX
  8
0
 10
3.88341
 20
5.222337
 42
-0.044083
  0
VERTEX
  8
0
 10
3.813189
 20
5.564389
 42
-0.151852
  0
VERTEX
  8
0
 10
3.986287
 20
6.698776
  0
VERTEX
  8
0
 10
3.998051
 20
6.702139
 42
0.101419
  0
SEQEND
  8
0
  0
POLYLINE
  8
0
 66
1
 70
1
  0
VERTEX
  8
0
 10
1.231826
 20
6.134104
 42
0.195711
  0
VERTEX
  8
0
 10
1.433494
 20
5.967728
 42
-0.156291
  0
VERTEX
  8
0
 10
1.330139
 20
5.907016
 42
-0.085761
  0
VERTEX
  8
0
 10
1.206617
 20
5.900504
 42
-0.156177
  0
VERTEX
  8
0
 10
1.061038
 20
5.998818
 42
-0.121904
  0
VERTEX
  8
0
 10
0.984782
 20
6.157632
 42
0.013258
  0
VERTEX
  8
0
 10
0.983539
 20
6.192287
 42
-0.069403
  0
VERTEX
  8
0
 10
0.986253
 20
6.267408
 42
-0.213583
  0
VERTEX
  8
0
 10
1.030157
 20
6.327371
 42
-0.157444
  0
VERTEX
  8
0
 10
1.073852
 20
6.347117
 42
-0.123026
  0
VERTEX
  8
0
 10
1.122589
 20
6.339135
 42
-0.090347
  0
VERTEX
  8
0
 10
1.166558
 20
6.281387
 42
-0.030056
  0
VERTEX
  8
0
 10
1.195411
 20
6.214545
 42
0.043172
  0
SEQEND
  8
0
  0
POLYLINE
  8
0
 66
1
 70
1
  0
VERTEX
  8
0
 10
1.747762
 20
6.194604
 42
0.057014
  0
VERTEX
  8
0
 10
1.705859
 20
6.126622
 42
0.019264
  0
VERTEX
  8
0
 10
1.675091
 20
6.053599
 42
-0.050575
  0
VERTEX
  8
0
 10
1.620965
 20
5.938709
 42
-0.132364
  0
VERTEX
  8
0
 10
1.520885
 20
5.846726
 42
-0.051126
  0
VERTEX
  8
0
 10
1.425932
 20
5.783652
 42
-0.127882
  0
VERTEX
  8
0
 10
1.315854
 20
5.759336
 42
-0.179226
  0
VERTEX
  8
0
 10
1.249615
 20
5.750303
 42
-0.048723
  0
VERTEX
  8
0
 10
1.187979
 20
5.768521
 42
0.012908
  0
VERTEX
  8
0
 10
1.171325
 20
5.774461
 42
0.045714
  0
VERTEX
  8
0
 10
1.123529
 20
5.811767
 42
-0.028291
  0
VERTEX
  8
0
 10
1.083768
 20
5.841387
 42
-0.079992
  0
VERTEX
  8
0
 10
1.050324
 20
5.880337
 42
-0.006886
  0
VERTEX
  8
0
 10
1.107974
 20
5.865302
 42
0.060331
  0
VERTEX
  8
0
 10
1.301365
 20
5.829376
 42
0.210756
  0
VERTEX
  8
0
 10
1.480551
 20
5.895462
 42
0.060384
  0
VERTEX
  8
0
 10
1.553083
 20
5.974868
 42
0.022131
  0
VERTEX
  8
0
 10
1.608484
 20
6.061197
 42
-0.018569
  0
VERTEX
  8
0
 10
1.658878
 20
6.140553
 42
-0.051528
  0
VERTEX
  8
0
 10
1.722554
 20
6.214772
 42
-0.089021
  0
VERTEX
  8
0
 10
1.731705
 20
6.209543
 42
-0.027403
  0
VERTEX
  8
0
 10
1.739735
 20
6.202073
 42
0.027386
  0
SEQEND
  8
0
  0
POLYLINE
  8
0
 66
1
 70
1
  0
VERTEX
  8
0
 10
1.267118
 20
5.302219
 42
-0.308748
  0
VERTEX
  8
0
 10
1.228083
 20
5.305721
 42
-0.078893
  0
VERTEX
  8
0
 10
1.200307
 20
5.339502
 42
0.003477
  0
VERTEX
  8
0
 10
1.194854
 20
5.347596
 42
-0.0965
  0
VERTEX
  8
0
 10
1.190705
 20
5.362986
 42
-0.118895
  0
VERTEX
  8
0
 10
1.192928
 20
5.37492
 42
-0.100259
  0
VERTEX
  8
0
 10
1.208169
 20
5.393193
 42
0.049474
  0
VERTEX
  8
0
 10
1.220534
 20
5.406243
 42
0.148401
  0
VERTEX
  8
0
 10
1.226785
 20
5.423221
 42
-0.039025
  0
VERTEX
  8
0
 10
1.253253
 20
5.365872
 42
-0.068153
  0
SEQEND
  8
0
  0
POLYLINE
  8
0
 66
1
 70
1
  0
VERTEX
  8
0
 10
1.336022
 20
5.080385
 42
-0.026851
  0
VERTEX
  8
0
 10
1.358837
 20
5.048062
 42
0.072086
  0
VERTEX
  8
0
 10
1.406082
 20
4.989039
 42
0.285728
  0
VERTEX
  8
0
 10
1.473829
 20
4.976189
 42
-0.06462
  0
VERTEX
  8
0
 10
1.76961
 20
5.060217
 42
-0.172119
  0
VERTEX
  8
0
 10
2.070433
 20
5.008119
 42
0.126293
  0
VERTEX
  8
0
 10
1.822968
 20
4.969886
 42
0.066018
  0
VERTEX
  8
0
 10
1.598192
 20
4.838381
 42
-0.069689
  0
VERTEX
  8
0
 10
1.553927
 20
4.82433
 42
-0.021754
  0
VERTEX
  8
0
 10
1.506569
 20
4.818286
 42
0.088814
  0
VERTEX
  8
0
 10
1.421431
 20
4.800054
 42
0.238957
  0
VERTEX
  8
0
 10
1.367953
 20
4.725783
 42
-0.024719
  0
VERTEX
  8
0
 10
1.253997
 20
4.538774
 42
0.044512
  0
VERTEX
  8
0
 10
1.108987
 20
4.28627
 42
0.131398
  0
VERTEX
  8
0
 10
1.062087
 20
3.996414
 42
-0.083681
  0
VERTEX
  8
0
 10
1.009369
 20
3.91027
 42
-0.025907
  0
VERTEX
  8
0
 10
0.936668
 20
3.83469
 42
0.020075
  0
VERTEX
  8
0
 10
0.871615
 20
3.768082
 42
0.064082
  0
VERTEX
  8
0
 10
0.820085
 20
3.693911
 42
-0.070157
  0
VERTEX
  8
0
 10
1.324257
 20
4.972828
 42
0.036437
  0
VERTEX
  8
0
 10
1.333291
 20
5.037214
 42
0.049679
  0
VERTEX
  8
0
 10
1.331938
 20
5.071673
 42
0.101951
  0
VERTEX
  8
0
 10
1.322157
 20
5.100342
  0
SEQEND
  8
0
  0
POLYLINE
  8
0
 66
1
 70
1
  0
VERTEX
  8
0
 10
2.525868
 20
3.878774
 42
0.137779
  0
VERTEX
  8
0
 10
1.534329
 20
3.717439
 42
0.038441
  0
VERTEX
  8
0
 10
1.353668
 20
3.573539
 42
0.02396
  0
VERTEX
  8
0
 10
1.18645
 20
3.414935
 42
-0.184739
  0
VERTEX
  8
0
 10
1.183557
 20
3.433702
 42
-0.065455
  0
VERTEX
  8
0
 10
1.191358
 20
3.458524
 42
-0.032339
  0
VERTEX
  8
0
 10
1.221251
 20
3.512478
 42
0.015911
  0
VERTEX
  8
0
 10
1.236237
 20
3.538037
 42
0.017741
  0
VERTEX
  8
0
 10
1.269753
 20
3.586974
 42
-0.016067
  0
VERTEX
  8
0
 10
1.308845
 20
3.644115
 42
-0.048396
  0
VERTEX
  8
0
 10
1.356189
 20
3.697271
 42
-0.1606
  0
VERTEX
  8
0
 10
1.760285
 20
3.932632
 42
-0.049972
  0
VERTEX
  8
0
 10
2.24184
 20
3.981408
 42
0.025518
  0
VERTEX
  8
0
 10
2.594129
 20
4.005885
 42
0.084123
  0
VERTEX
  8
0
 10
2.917442
 20
4.10061
  0
VERTEX
  8
0
 10
3.147681
 20
4.209847
 42
-0.074112
  0
VERTEX
  8
0
 10
2.860723
 20
3.98507
 42
-0.101439
  0
SEQEND
  8
0
  0
POLYLINE
  8
0
 66
1
  0
VERTEX
  8
0
 10
4.570288
 20
2.669811
  0
VERTEX
  8
0
 10
4.594656
 20
2.700692
 42
0.051329
  0
VERTEX
  8
0
 10
4.558245
 20
2.811238
 42
0.017012
  0
VERTEX
  8
0
 10
4.5072
 20
2.915614
 42
-0.033333
  0
VERTEX
  8
0
 10
4.441722
 20
3.056972
 42
0.000006
  0
VERTEX
  8
0
 10
4.4426
 20
3.056902
 42
-0.028115
  0
VERTEX
  8
0
 10
4.505174
 20
3.049536
 42
-0.090955
  0
VERTEX
  8
0
 10
4.562724
 20
3.028403
 42
-0.060962
  0
VERTEX
  8
0
 10
4.715657
 20
2.680524
  0
VERTEX
  8
0
 10
4.727421
 20
2.685565
 42
0.052883
  0
VERTEX
  8
0
 10
4.634989
 20
3.003194
 42
-0.170348
  0
VERTEX
  8
0
 10
4.62618
 20
3.024481
 42
-0.237869
  0
VERTEX
  8
0
 10
4.633903
 20
3.037642
 42
-0.08679
  0
VERTEX
  8
0
 10
4.650595
 20
3.045011
 42
-0.023455
  0
VERTEX
  8
0
 10
4.668692
 20
3.048925
 42
0.014648
  0
VERTEX
  8
0
 10
4.677424
 20
3.050671
 42
-0.101696
  0
VERTEX
  8
0
 10
4.714028
 20
3.01154
 42
-0.021602
  0
VERTEX
  8
0
 10
4.748494
 20
2.953196
 42
0.035253
  0
VERTEX
  8
0
 10
4.796324
 20
2.875471
  0
VERTEX
  8
0
 10
4.804726
 20
2.875471
 42
0.046352
  0
VERTEX
  8
0
 10
4.777458
 20
2.956079
 42
0.014519
  0
VERTEX
  8
0
 10
4.739465
 20
3.035453
 42
-0.020186
  0
VERTEX
  8
0
 10
4.694781
 20
3.130663
 42
-0.063209
  0
VERTEX
  8
0
 10
4.666919
 20
3.230072
 42
-0.06212
  0
VERTEX
  8
0
 10
4.715356
 20
3.19066
 42
-0.019965
  0
VERTEX
  8
0
 10
4.757049
 20
3.143611
 42
0.013206
  0
VERTEX
  8
0
 10
4.788573
 20
3.107356
 42
0.044893
  0
VERTEX
  8
0
 10
4.821533
 20
3.077139
 42
0.04338
  0
VERTEX
  8
0
 10
4.76228
 20
3.179424
 42
0.013909
  0
VERTEX
  8
0
 10
4.690368
 20
3.276255
 42
-0.006529
  0
VERTEX
  8
0
 10
4.640031
 20
3.342671
 42
-0.040778
  0
VERTEX
  8
0
 10
4.627333
 20
3.427819
 42
-0.012836
  0
VERTEX
  8
0
 10
4.623598
 20
3.51633
 42
0.012836
  0
VERTEX
  8
0
 10
4.619864
 20
3.60484
  0
VERTEX
  8
0
 10
4.594656
 20
3.576271
 42
0.014058
  0
VERTEX
  8
0
 10
4.610268
 20
3.457221
 42
-0.016252
  0
VERTEX
  8
0
 10
4.62665
 20
3.3294
 42
-0.046965
  0
VERTEX
  8
0
 10
4.626586
 20
3.198142
 42
-0.148381
  0
VERTEX
  8
0
 10
4.614032
 20
3.16127
 42
-0.152742
  0
VERTEX
  8
0
 10
4.588004
 20
3.143734
 42
-0.074218
  0
VERTEX
  8
0
 10
4.554487
 20
3.138981
 42
-0.021514
  0
VERTEX
  8
0
 10
4.519467
 20
3.140459
 42
0.010172
  0
VERTEX
  8
0
 10
4.499068
 20
3.141649
 42
0.041972
  0
VERTEX
  8
0
 10
4.482057
 20
3.141001
 42
-0.003463
  0
VERTEX
  8
0
 10
3.828961
 20
3.258049
 42
0.000258
  0
VERTEX
  8
0
 10
3.651853
 20
3.290572
 42
0.129528
  0
VERTEX
  8
0
 10
2.030099
 20
3.13764
 42
0.11314
  0
VERTEX
  8
0
 10
0.860419
 20
2.43516
 42
0.077767
  0
VERTEX
  8
0
 10
0.574011
 20
2.082276
 42
0.027953
  0
VERTEX
  8
0
 10
0.378007
 20
1.691457
 42
-0.0015
  0
VERTEX
  8
0
 10
0.336079
 20
1.599915
 42
0.057938
  0
VERTEX
  8
0
 10
0.34081
 20
1.465797
 42
0.020108
  0
VERTEX
  8
0
 10
0.366083
 20
1.336832
 42
-0.014368
  0
VERTEX
  8
0
 10
0.388178
 20
1.228508
 42
0.033663
  0
VERTEX
  8
0
 10
0.404133
 20
1.335964
 42
-0.033662
  0
VERTEX
  8
0
 10
0.420108
 20
1.443621
  0
VERTEX
  8
0
 10
0.505818
 20
1.366315
  0
VERTEX
  8
0
 10
0.51254
 20
1.374718
 42
0.160927
  0
VERTEX
  8
0
 10
0.496135
 20
1.411135
 42
0.042584
  0
VERTEX
  8
0
 10
0.463637
 20
1.441773
 42
-0.025717
  0
VERTEX
  8
0
 10
0.437813
 20
1.465079
 42
-0.095855
  0
VERTEX
  8
0
 10
0.420108
 20
1.490678
 42
0.036739
  0
VERTEX
  8
0
 10
0.422879
 20
1.513168
 42
-0.042307
  0
VERTEX
  8
0
 10
0.426067
 20
1.537562
 42
-0.165982
  0
VERTEX
  8
0
 10
0.436914
 20
1.556219
 42
-0.042718
  0
VERTEX
  8
0
 10
0.458118
 20
1.54112
 42
-0.012575
  0
VERTEX
  8
0
 10
0.47874
 20
1.52282
 42
0.028277
  0
VERTEX
  8
0
 10
0.508195
 20
1.497702
 42
0.118329
  0
VERTEX
  8
0
 10
0.537749
 20
1.483956
 42
0.215525
  0
VERTEX
  8
0
 10
0.522973
 20
1.525958
 42
0.057795
  0
VERTEX
  8
0
 10
0.484561
 20
1.557694
 42
-0.018927
  0
VERTEX
  8
0
 10
0.460112
 20
1.57596
 42
-0.064968
  0
VERTEX
  8
0
 10
0.440276
 20
1.596554
  0
VERTEX
  8
0
 10
0.485651
 20
1.729319
  0
VERTEX
  8
0
 10
0.573042
 20
1.652012
 42
0.357895
  0
VERTEX
  8
0
 10
0.59741
 20
1.658735
 42
0.164739
  0
VERTEX
  8
0
 10
0.606653
 20
1.685624
  0
VERTEX
  8
0
 10
0.500776
 20
1.789819
 42
0.090187
  0
VERTEX
  8
0
 10
0.507212
 20
1.802336
 42
0.027941
  0
VERTEX
  8
0
 10
0.510685
 20
1.816446
 42
-0.047211
  0
VERTEX
  8
0
 10
0.515397
 20
1.833771
 42
-0.1577
  0
VERTEX
  8
0
 10
0.525985
 20
1.84696
  0
VERTEX
  8
0
 10
0.662111
 20
1.778056
  0
VERTEX
  8
0
 10
0.670514
 20
1.786458
 42
0.039699
  0
VERTEX
  8
0
 10
0.611484
 20
1.835196
 42
0.013327
  0
VERTEX
  8
0
 10
0.546151
 20
1.87889
 42
-0.228456
  0
VERTEX
  8
0
 10
0.541674
 20
1.905794
 42
-0.064539
  0
VERTEX
  8
0
 10
0.554011
 20
1.932698
 42
0.015199
  0
VERTEX
  8
0
 10
0.561214
 20
1.946127
 42
0.051174
  0
VERTEX
  8
0
 10
0.566319
 20
1.959557
  0
VERTEX
  8
0
 10
0.771349
 20
1.899057
  0
VERTEX
  8
0
 10
0.794876
 20
1.922585
 42
0.049918
  0
VERTEX
  8
0
 10
0.691782
 20
1.971452
 42
-0.045818
  0
VERTEX
  8
0
 10
0.59825
 20
2.015017
  0
VERTEX
  8
0
 10
0.638583
 20
2.075518
  0
VERTEX
  8
0
 10
0.880586
 20
2.048628
 42
0.194041
  0
VERTEX
  8
0
 10
0.887638
 20
2.051147
 42
0.133636
  0
VERTEX
  8
0
 10
0.89115
 20
2.057175
 42
0.076694
  0
VERTEX
  8
0
 10
0.892376
 20
2.070595
 42
-0.005348
  0
VERTEX
  8
0
 10
0.89235
 20
2.072157
  0
VERTEX
  8
0
 10
0.673875
 20
2.129296
 42
-0.056644
  0
VERTEX
  8
0
 10
0.689675
 20
2.15959
 42
-0.01772
  0
VERTEX
  8
0
 10
0.710299
 20
2.188033
 42
0.018935
  0
VERTEX
  8
0
 10
0.731015
 20
2.216686
  0
VERTEX
  8
0
 10
0.924281
 20
2.181393
 42
-0.013085
  0
VERTEX
  8
0
 10
0.938305
 20
2.179237
 42
0.022998
  0
VERTEX
  8
0
 10
0.955965
 20
2.176746
 42
0.08888
  0
VERTEX
  8
0
 10
0.97155
 20
2.177849
 42
0.171834
  0
VERTEX
  8
0
 10
0.983393
 20
2.186066
 42
0.12626
  0
VERTEX
  8
0
 10
0.989824
 20
2.204922
  0
VERTEX
  8
0
 10
0.767987
 20
2.262061
 42
-0.136663
  0
VERTEX
  8
0
 10
0.804978
 20
2.31448
 42
-0.155114
  0
VERTEX
  8
0
 10
0.852725
 20
2.330774
 42
-0.077303
  0
VERTEX
  8
0
 10
0.907389
 20
2.323078
 42
-0.020957
  0
VERTEX
  8
0
 10
0.965129
 20
2.303528
 42
0.017562
  0
VERTEX
  8
0
 10
1.017047
 20
2.285684
 42
0.065385
  0
VERTEX
  8
0
 10
1.06545
 20
2.277186
 42
0.268818
  0
VERTEX
  8
0
 10
1.09612
 20
2.277186
 42
0.182311
  0
VERTEX
  8
0
 10
1.114186
 20
2.302394
 42
0.007502
  0
VERTEX
  8
0
 10
1.026203
 20
2.324345
 42
-0.023419
  0
VERTEX
  8
0
 10
0.872183
 20
2.366257
 42
-0.049407
  0
VERTEX
  8
0
 10
0.908317
 20
2.400709
 42
0.049399
  0
VERTEX
  8
0
 10
0.944449
 20
2.43516
 42
-0.035258
  0
VERTEX
  8
0
 10
1.09514
 20
2.409184
 42
0.042528
  0
VERTEX
  8
0
 10
1.255354
 20
2.383062
  0
VERTEX
  8
0
 10
1.255354
 20
2.403229
 42
0.005974
  0
VERTEX
  8
0
 10
1.154393
 20
2.436435
 42
-0.01372
  0
VERTEX
  8
0
 10
1.004949
 20
2.487258
 42
0.056955
  0
VERTEX
  8
0
 10
1.021079
 20
2.499297
 42
0.017708
  0
VERTEX
  8
0
 10
1.035719
 20
2.514018
 42
-0.032658
  0
VERTEX
  8
0
 10
1.055115
 20
2.532791
 42
-0.113395
  0
VERTEX
  8
0
 10
1.077214
 20
2.544397
  0
VERTEX
  8
0
 10
1.379717
 20
2.458689
 42
0.114234
  0
VERTEX
  8
0
 10
1.385582
 20
2.464304
 42
0.045143
  0
VERTEX
  8
0
 10
1.388962
 20
2.470977
 42
-0.015253
  0
VERTEX
  8
0
 10
1.3908
 20
2.474993
 42
-0.043777
  0
VERTEX
  8
0
 10
1.393161
 20
2.478856
  0
VERTEX
  8
0
 10
1.110825
 20
2.576329
  0
VERTEX
  8
0
 10
1.226785
 20
2.673801
  0
VERTEX
  8
0
 10
1.517524
 20
2.556161
 42
0.120592
  0
VERTEX
  8
0
 10
1.528027
 20
2.569186
 42
0.299037
  0
VERTEX
  8
0
 10
1.525926
 20
2.584732
  0
VERTEX
  8
0
 10
1.258715
 20
2.693969
  0
VERTEX
  8
0
 10
1.372994
 20
2.774636
 42
-0.015674
  0
VERTEX
  8
0
 10
1.480803
 20
2.718837
 42
0.04407
  0
VERTEX
  8
0
 10
1.662053
 20
2.633468
 42
0.133513
  0
VERTEX
  8
0
 10
1.674868
 20
2.63977
 42
0.299343
  0
VERTEX
  8
0
 10
1.678858
 20
2.653635
  0
VERTEX
  8
0
 10
1.396522
 20
2.789761
 42
-0.058724
  0
VERTEX
  8
0
 10
1.448302
 20
2.827739
 42
-0.02042
  0
VERTEX
  8
0
 10
1.503787
 20
2.856118
 42
0.000194
  0
VERTEX
  8
0
 10
1.509121
 20
2.858665
  0
VERTEX
  8
0
 10
1.767929
 20
2.705733
 42
-0.009268
  0
VERTEX
  8
0
 10
1.773897
 20
2.702549
 42
0.076902
  0
VERTEX
  8
0
 10
1.795269
 20
2.693521
 42
0.282338
  0
VERTEX
  8
0
 10
1.816667
 20
2.700692
 42
0.035776
  0
VERTEX
  8
0
 10
1.671492
 20
2.793577
 42
-0.029507
  0
VERTEX
  8
0
 10
1.541051
 20
2.875471
 42
0.009368
  0
VERTEX
  8
0
 10
1.566541
 20
2.891095
 42
-0.017381
  0
VERTEX
  8
0
 10
1.601496
 20
2.912014
 42
-0.05373
  0
VERTEX
  8
0
 10
1.638525
 20
2.927568
  0
VERTEX
  8
0
 10
1.904056
 20
2.761192
 42
0.075787
  0
VERTEX
  8
0
 10
1.930945
 20
2.750058
 42
0.280744
  0
VERTEX
  8
0
 10
1.957833
 20
2.757831
 42
0.041988
  0
VERTEX
  8
0
 10
1.890306
 20
2.808768
 42
0.013189
  0
VERTEX
  8
0
 10
1.815213
 20
2.853499
 42
-0.044926
  0
VERTEX
  8
0
 10
1.678858
 20
2.942693
  0
VERTEX
  8
0
 10
1.796499
 20
3.003194
  0
VERTEX
  8
0
 10
2.078836
 20
2.806567
 42
0.16639
  0
VERTEX
  8
0
 10
2.110977
 20
2.803206
 42
0.096045
  0
VERTEX
  8
0
 10
2.139336
 20
2.814971
  0
VERTEX
  8
0
 10
1.906576
 20
2.993951
 42
-0.034753
  0
VERTEX
  8
0
 10
1.93499
 20
3.02739
 42
0.020392
  0
VERTEX
  8
0
 10
1.960356
 20
3.056132
  0
VERTEX
  8
0
 10
2.223365
 20
2.878832
  0
VERTEX
  8
0
 10
2.275463
 20
2.875471
  0
VERTEX
  8
0
 10
2.025057
 20
3.080501
 42
-0.108081
  0
VERTEX
  8
0
 10
2.134294
 20
3.109071
  0
VERTEX
  8
0
 10
2.413269
 20
2.910763
 42
0.189275
  0
VERTEX
  8
0
 10
2.439319
 20
2.90194
 42
0.189275
  0
VERTEX
  8
0
 10
2.465368
 20
2.910763
 42
0.040517
  0
VERTEX
  8
0
 10
2.325469
 20
3.019907
 42
-0.04009
  0
VERTEX
  8
0
 10
2.191435
 20
3.124196
  0
VERTEX
  8
0
 10
2.315796
 20
3.157807
  0
VERTEX
  8
0
 10
2.606536
 20
2.951096
  0
VERTEX
  8
0
 10
2.643508
 20
2.956138
  0
VERTEX
  8
0
 10
2.388061
 20
3.164529
 42
-0.100742
  0
VERTEX
  8
0
 10
2.517465
 20
3.198142
 42
-0.01523
  0
VERTEX
  8
0
 10
2.65604
 20
3.090978
 42
0.022456
  0
VERTEX
  8
0
 10
2.825011
 20
2.962861
  0
VERTEX
  8
0
 10
2.8519
 20
2.979667
  0
VERTEX
  8
0
 10
2.577967
 20
3.209906
 42
-0.274025
  0
VERTEX
  8
0
 10
2.745358
 20
3.219369
 42
-0.082481
  0
VERTEX
  8
0
 10
2.879289
 20
3.104885
 42
0.015648
  0
VERTEX
  8
0
 10
2.938666
 20
3.044897
 42
0.053277
  0
VERTEX
  8
0
 10
3.001471
 20
2.996472
 42
-0.007366
  0
VERTEX
  8
0
 10
3.00788
 20
2.996333
 42
0.050318
  0
VERTEX
  8
0
 10
3.031685
 20
2.997248
 42
0.081267
  0
VERTEX
  8
0
 10
3.042554
 20
3.000834
 42
0.143341
  0
VERTEX
  8
0
 10
3.050207
 20
3.008236
  0
VERTEX
  8
0
 10
2.791399
 20
3.233433
 42
-0.073267
  0
VERTEX
  8
0
 10
2.832665
 20
3.245364
 42
-0.022617
  0
VERTEX
  8
0
 10
2.876911
 20
3.249476
 42
0.023669
  0
VERTEX
  8
0
 10
2.920803
 20
3.2536
  0
VERTEX
  8
0
 10
3.211543
 20
2.983028
 42
0.209964
  0
VERTEX
  8
0
 10
3.226731
 20
2.979613
 42
0.061085
  0
VERTEX
  8
0
 10
3.241744
 20
2.984538
 42
-0.01144
  0
VERTEX
  8
0
 10
3.247138
 20
2.986719
 42
-0.04566
  0
VERTEX
  8
0
 10
3.251876
 20
2.988069
 42
0.019698
  0
VERTEX
  8
0
 10
3.133985
 20
3.104447
 42
-0.038457
  0
VERTEX
  8
0
 10
2.989707
 20
3.2536
  0
VERTEX
  8
0
 10
3.107347
 20
3.262003
  0
VERTEX
  8
0
 10
3.445142
 20
2.947735
 42
0.089952
  0
VERTEX
  8
0
 10
3.462998
 20
2.948155
 42
0.142682
  0
VERTEX
  8
0
 10
3.477074
 20
2.956138
 42
0.027973
  0
VERTEX
  8
0
 10
3.271533
 20
3.157838
 42
-0.007916
  0
VERTEX
  8
0
 10
3.159444
 20
3.262003
 42
-0.101864
  0
VERTEX
  8
0
 10
3.200237
 20
3.270337
 42
-0.033297
  0
VERTEX
  8
0
 10
3.242513
 20
3.267302
 42
0.015724
  0
VERTEX
  8
0
 10
3.272984
 20
3.264417
 42
0.046485
  0
VERTEX
  8
0
 10
3.303974
 20
3.265364
  0
VERTEX
  8
0
 10
3.638408
 20
2.922526
  0
VERTEX
  8
0
 10
3.651853
 20
2.935971
 42
0.004182
  0
VERTEX
  8
0
 10
3.562281
 20
3.036268
 42
-0.020375
  0
VERTEX
  8
0
 10
3.376239
 20
3.2536
  0
VERTEX
  8
0
 10
3.473712
 20
3.250239
 42
-0.03534
  0
VERTEX
  8
0
 10
3.742952
 20
2.976981
 42
0.002661
  0
VERTEX
  8
0
 10
3.816549
 20
2.895637
 42
0.161438
  0
VERTEX
  8
0
 10
3.835036
 20
2.890386
 42
0.120602
  0
VERTEX
  8
0
 10
3.843964
 20
2.892565
 42
0.240811
  0
VERTEX
  8
0
 10
3.848481
 20
2.898999
 42
0.035774
  0
VERTEX
  8
0
 10
3.60641
 20
3.182833
 42
-0.00042
  0
VERTEX
  8
0
 10
3.577908
 20
3.213267
  0
VERTEX
  8
0
 10
3.577908
 20
3.230072
  0
VERTEX
  8
0
 10
3.715715
 20
3.209906
 42
0.007128
  0
VERTEX
  8
0
 10
3.816822
 20
3.084208
 42
-0.028212
  0
VERTEX
  8
0
 10
4.009815
 20
2.830094
 42
0.086433
  0
VERTEX
  8
0
 10
4.026411
 20
2.830726
 42
0.031188
  0
VERTEX
  8
0
 10
4.041746
 20
2.835137
 42
0.047038
  0
VERTEX
  8
0
 10
3.854871
 20
3.102864
 42
-0.003266
  0
VERTEX
  8
0
 10
3.799743
 20
3.172932
  0
VERTEX
  8
0
 10
3.799743
 20
3.189737
  0
VERTEX
  8
0
 10
3.885453
 20
3.177974
 42
-0.050507
  0
VERTEX
  8
0
 10
4.199721
 20
2.766233
 42
-0.177275
  0
VERTEX
  8
0
 10
4.199786
 20
2.765914
 42
-0.106203
  0
VERTEX
  8
0
 10
4.199658
 20
2.765595
 42
-0.057661
  0
VERTEX
  8
0
 10
4.199135
 20
2.765013
 42
0.005943
  0
VERTEX
  8
0
 10
4.198985
 20
2.764867
 42
-0.024957
  0
VERTEX
  8
0
 10
4.204291
 20
2.762565
 42
0.051262
  0
VERTEX
  8
0
 10
4.211881
 20
2.759576
 42
0.162395
  0
VERTEX
  8
0
 10
4.219815
 20
2.760049
 42
0.14794
  0
VERTEX
  8
0
 10
4.221097
 20
2.760975
 42
0.176108
  0
VERTEX
  8
0
 10
4.221388
 20
2.762235
 42
0.071318
  0
VERTEX
  8
0
 10
4.220959
 20
2.763845
 42
0.015657
  0
VERTEX
  8
0
 10
4.22008
 20
2.765821
 42
-0.000449
  0
VERTEX
  8
0
 10
4.219888
 20
2.766233
 42
0.042784
  0
VERTEX
  8
0
 10
4.071937
 20
3.004176
 42
-0.018056
  0
VERTEX
  8
0
 10
3.969482
 20
3.157807
 42
0.02897
  0
VERTEX
  8
0
 10
4.045415
 20
3.144516
 42
-0.012722
  0
VERTEX
  8
0
 10
4.090483
 20
3.13764
 42
-0.026012
  0
VERTEX
  8
0
 10
4.40475
 20
2.688926
  0
VERTEX
  8
0
 10
4.418194
 20
2.688926
 42
-0.045109
  0
VERTEX
  8
0
 10
4.424356
 20
2.695275
 42
0.045116
  0
VERTEX
  8
0
 10
4.430518
 20
2.701625
 42
0.166435
  0
VERTEX
  8
0
 10
4.433319
 20
2.709094
 42
0.04067
  0
VERTEX
  8
0
 10
4.191318
 20
3.109071
 42
-0.078154
  0
VERTEX
  8
0
 10
4.352653
 20
3.077139
  0
VERTEX
  8
0
 10
4.571126
 20
2.66876
  0
SEQEND
  8
0
  0
ENDSEC
  0
EOF
