999
\"DXF R12 Output\" (www.mydxf.blogspot.com)
 0 
SECTION
 2 
HEADER
 9 
$ACADVER
 1 
AC1009
 9 
$EXTMIN
 10 
 0 
 20 
 0 
 9 
$EXTMAX
 10 
 8.5 
 20 
 11 
 0 
ENDSEC
 0 
SECTION
 2 
ENTITIES
0
LINE
8
Layer 1
10
-0.000000
20
39.829692
11
-0.000000
21
79.905249
0
LINE
8
Layer 1
10
-0.000000
20
79.905249
11
40.640000
21
79.905249
0
LINE
8
Layer 1
10
40.640000
20
79.905249
11
81.280000
21
79.905249
0
LINE
8
Layer 1
10
81.280000
20
79.905249
11
81.280000
21
39.829692
0
LINE
8
Layer 1
10
81.280000
20
39.829692
11
81.280000
21
-0.245864
0
LINE
8
Layer 1
10
81.280000
20
-0.245864
11
40.640000
21
-0.245864
0
LINE
8
Layer 1
10
40.640000
20
-0.245864
11
-0.000000
21
-0.245864
0
LINE
8
Layer 1
10
-0.000000
20
-0.245864
11
-0.000000
21
39.829692
0
LINE
8
Layer 1
10
-0.000000
20
39.829692
11
-0.000000
21
39.829692
0
LINE
8
Layer 1
10
43.310525
20
1.467747
11
44.414258
21
1.948119
0
LINE
8
Layer 1
10
44.414258
20
1.948119
11
44.873333
21
2.281956
0
LINE
8
Layer 1
10
44.873333
20
2.281956
11
44.209964
21
2.946098
0
LINE
8
Layer 1
10
44.209964
20
2.946098
11
43.428355
21
3.854393
0
LINE
8
Layer 1
10
43.428355
20
3.854393
11
42.677610
21
5.250572
0
LINE
8
Layer 1
10
42.677610
20
5.250572
11
42.228372
21
6.530968
0
LINE
8
Layer 1
10
42.228372
20
6.530968
11
42.201393
21
6.939101
0
LINE
8
Layer 1
10
42.201393
20
6.939101
11
42.351280
21
7.091914
0
LINE
8
Layer 1
10
42.351280
20
7.091914
11
44.568395
21
5.080502
0
LINE
8
Layer 1
10
44.568395
20
5.080502
11
45.930229
21
3.769147
0
LINE
8
Layer 1
10
45.930229
20
3.769147
11
46.452559
21
3.416418
0
LINE
8
Layer 1
10
46.452559
20
3.416418
11
46.942256
21
3.255650
0
LINE
8
Layer 1
10
46.942256
20
3.255650
11
47.454140
21
3.279341
0
LINE
8
Layer 1
10
47.454140
20
3.279341
11
48.043031
21
3.479990
0
LINE
8
Layer 1
10
48.043031
20
3.479990
11
49.671111
21
4.382146
0
LINE
8
Layer 1
10
49.671111
20
4.382146
11
51.717222
21
5.487639
0
LINE
8
Layer 1
10
51.717222
20
5.487639
11
52.066031
21
5.697055
0
LINE
8
Layer 1
10
52.066031
20
5.697055
11
52.211111
21
5.954169
0
LINE
8
Layer 1
10
52.211111
20
5.954169
11
52.066031
21
6.160290
0
LINE
8
Layer 1
10
52.066031
20
6.160290
11
51.717222
21
6.247107
0
LINE
8
Layer 1
10
51.717222
20
6.247107
11
51.145766
21
6.395256
0
LINE
8
Layer 1
10
51.145766
20
6.395256
11
50.465386
21
6.748834
0
LINE
8
Layer 1
10
50.465386
20
6.748834
11
50.078733
21
7.035934
0
LINE
8
Layer 1
10
50.078733
20
7.035934
11
50.173962
21
7.184841
0
LINE
8
Layer 1
10
50.173962
20
7.184841
11
52.582053
21
7.251342
0
LINE
8
Layer 1
10
52.582053
20
7.251342
11
54.274181
21
7.278346
0
LINE
8
Layer 1
10
54.274181
20
7.278346
11
55.487424
21
7.433889
0
LINE
8
Layer 1
10
55.487424
20
7.433889
11
56.742746
21
7.835564
0
LINE
8
Layer 1
10
56.742746
20
7.835564
11
58.561111
21
8.600968
0
LINE
8
Layer 1
10
58.561111
20
8.600968
11
61.947778
21
10.233804
0
LINE
8
Layer 1
10
61.947778
20
10.233804
11
61.930146
21
10.352866
0
LINE
8
Layer 1
10
61.930146
20
10.352866
11
61.588752
21
10.421104
0
LINE
8
Layer 1
10
61.588752
20
10.421104
11
59.916839
21
10.406631
0
LINE
8
Layer 1
10
59.916839
20
10.406631
11
56.084668
21
10.462047
0
LINE
8
Layer 1
10
56.084668
20
10.462047
11
52.794624
21
11.005385
0
LINE
8
Layer 1
10
52.794624
20
11.005385
11
51.389065
21
11.450594
0
LINE
8
Layer 1
10
51.389065
20
11.450594
11
50.162437
21
12.006465
0
LINE
8
Layer 1
10
50.162437
20
12.006465
11
49.129205
21
12.669227
0
LINE
8
Layer 1
10
49.129205
20
12.669227
11
48.303835
21
13.435107
0
LINE
8
Layer 1
10
48.303835
20
13.435107
11
47.706613
21
14.238962
0
LINE
8
Layer 1
10
47.706613
20
14.238962
11
47.457161
21
14.922215
0
LINE
8
Layer 1
10
47.457161
20
14.922215
11
47.549532
21
15.533894
0
LINE
8
Layer 1
10
47.549532
20
15.533894
11
47.977778
21
16.123025
0
LINE
8
Layer 1
10
47.977778
20
16.123025
11
48.550349
21
16.559860
0
LINE
8
Layer 1
10
48.550349
20
16.559860
11
49.119583
21
16.608000
0
LINE
8
Layer 1
10
49.119583
20
16.608000
11
49.821313
21
16.232453
0
LINE
8
Layer 1
10
49.821313
20
16.232453
11
50.791375
21
15.398228
0
LINE
8
Layer 1
10
50.791375
20
15.398228
11
52.179629
21
14.301592
0
LINE
8
Layer 1
10
52.179629
20
14.301592
11
53.656549
21
13.564124
0
LINE
8
Layer 1
10
53.656549
20
13.564124
11
55.323100
21
13.148796
0
LINE
8
Layer 1
10
55.323100
20
13.148796
11
57.280248
21
13.018581
0
LINE
8
Layer 1
10
57.280248
20
13.018581
11
60.683575
21
13.284765
0
LINE
8
Layer 1
10
60.683575
20
13.284765
11
62.018125
21
13.554575
0
LINE
8
Layer 1
10
62.018125
20
13.554575
11
62.744553
21
13.859603
0
LINE
8
Layer 1
10
62.744553
20
13.859603
11
62.681334
21
14.069417
0
LINE
8
Layer 1
10
62.681334
20
14.069417
11
62.203093
21
14.270115
0
LINE
8
Layer 1
10
62.203093
20
14.270115
11
60.841873
21
14.876139
0
LINE
8
Layer 1
10
60.841873
20
14.876139
11
60.615198
21
15.090076
0
LINE
8
Layer 1
10
60.615198
20
15.090076
11
60.818096
21
15.189502
0
LINE
8
Layer 1
10
60.818096
20
15.189502
11
63.085551
21
15.102662
0
LINE
8
Layer 1
10
63.085551
20
15.102662
11
65.145571
21
15.043211
0
LINE
8
Layer 1
10
65.145571
20
15.043211
11
66.637505
21
15.323408
0
LINE
8
Layer 1
10
66.637505
20
15.323408
11
68.080938
21
16.136835
0
LINE
8
Layer 1
10
68.080938
20
16.136835
11
69.995457
21
17.677074
0
LINE
8
Layer 1
10
69.995457
20
17.677074
11
71.992137
21
19.368581
0
LINE
8
Layer 1
10
71.992137
20
19.368581
11
70.182215
21
19.553321
0
LINE
8
Layer 1
10
70.182215
20
19.553321
11
68.540676
21
19.858223
0
LINE
8
Layer 1
10
68.540676
20
19.858223
11
67.135592
21
20.331865
0
LINE
8
Layer 1
10
67.135592
20
20.331865
11
66.452487
21
20.715932
0
LINE
8
Layer 1
10
66.452487
20
20.715932
11
66.417106
21
20.795264
0
LINE
8
Layer 1
10
66.417106
20
20.795264
11
66.604444
21
20.783635
0
LINE
8
Layer 1
10
66.604444
20
20.783635
11
69.509450
21
20.442685
0
LINE
8
Layer 1
10
69.509450
20
20.442685
11
71.774925
21
20.459545
0
LINE
8
Layer 1
10
71.774925
20
20.459545
11
72.416414
21
20.711383
0
LINE
8
Layer 1
10
72.416414
20
20.711383
11
73.058539
21
21.138506
0
LINE
8
Layer 1
10
73.058539
20
21.138506
11
74.308787
21
22.470330
0
LINE
8
Layer 1
10
74.308787
20
22.470330
11
75.453844
21
24.358465
0
LINE
8
Layer 1
10
75.453844
20
24.358465
11
76.421886
21
26.706359
0
LINE
8
Layer 1
10
76.421886
20
26.706359
11
77.577078
21
30.384034
0
LINE
8
Layer 1
10
77.577078
20
30.384034
11
77.822504
21
31.810150
0
LINE
8
Layer 1
10
77.822504
20
31.810150
11
77.436930
21
31.675260
0
LINE
8
Layer 1
10
77.436930
20
31.675260
11
76.723525
21
31.137338
0
LINE
8
Layer 1
10
76.723525
20
31.137338
11
75.314045
21
30.118120
0
LINE
8
Layer 1
10
75.314045
20
30.118120
11
73.843885
21
29.471422
0
LINE
8
Layer 1
10
73.843885
20
29.471422
11
72.292133
21
29.190830
0
LINE
8
Layer 1
10
72.292133
20
29.190830
11
70.637880
21
29.269927
0
LINE
8
Layer 1
10
70.637880
20
29.269927
11
69.335783
21
29.465188
0
LINE
8
Layer 1
10
69.335783
20
29.465188
11
70.133614
21
29.883216
0
LINE
8
Layer 1
10
70.133614
20
29.883216
11
72.918261
21
30.995391
0
LINE
8
Layer 1
10
72.918261
20
30.995391
11
75.426020
21
32.103806
0
LINE
8
Layer 1
10
75.426020
20
32.103806
11
76.329895
21
32.705379
0
LINE
8
Layer 1
10
76.329895
20
32.705379
11
76.982467
21
33.328218
0
LINE
8
Layer 1
10
76.982467
20
33.328218
11
77.956293
21
34.958127
0
LINE
8
Layer 1
10
77.956293
20
34.958127
11
78.675739
21
37.216590
0
LINE
8
Layer 1
10
78.675739
20
37.216590
11
79.154170
21
40.161653
0
LINE
8
Layer 1
10
79.154170
20
40.161653
11
79.404947
21
43.851359
0
LINE
8
Layer 1
10
79.404947
20
43.851359
11
79.451346
21
46.315325
0
LINE
8
Layer 1
10
79.451346
20
46.315325
11
79.315535
21
47.521561
0
LINE
8
Layer 1
10
79.315535
20
47.521561
11
79.153149
21
47.719567
0
LINE
8
Layer 1
10
79.153149
20
47.719567
11
78.913830
21
47.682985
0
LINE
8
Layer 1
10
78.913830
20
47.682985
11
78.162551
21
47.012516
0
LINE
8
Layer 1
10
78.162551
20
47.012516
11
76.136475
21
45.405863
0
LINE
8
Layer 1
10
76.136475
20
45.405863
11
74.035020
21
44.156559
0
LINE
8
Layer 1
10
74.035020
20
44.156559
11
73.958686
21
44.215322
0
LINE
8
Layer 1
10
73.958686
20
44.215322
11
74.132387
21
44.514326
0
LINE
8
Layer 1
10
74.132387
20
44.514326
11
75.091259
21
45.638548
0
LINE
8
Layer 1
10
75.091259
20
45.638548
11
76.366449
21
47.202315
0
LINE
8
Layer 1
10
76.366449
20
47.202315
11
77.445552
21
48.980622
0
LINE
8
Layer 1
10
77.445552
20
48.980622
11
78.335645
21
50.987067
0
LINE
8
Layer 1
10
78.335645
20
50.987067
11
79.043804
21
53.235249
0
LINE
8
Layer 1
10
79.043804
20
53.235249
11
79.566389
21
56.460165
0
LINE
8
Layer 1
10
79.566389
20
56.460165
11
79.887479
21
62.605218
0
LINE
8
Layer 1
10
79.887479
20
62.605218
11
80.217027
21
69.985330
0
LINE
8
Layer 1
10
80.217027
20
69.985330
11
80.192498
21
70.203564
0
LINE
8
Layer 1
10
80.192498
20
70.203564
11
80.027930
21
70.352027
0
LINE
8
Layer 1
10
80.027930
20
70.352027
11
79.380040
21
69.828250
0
LINE
8
Layer 1
10
79.380040
20
69.828250
11
78.193485
21
68.430247
0
LINE
8
Layer 1
10
78.193485
20
68.430247
11
75.731387
21
65.674760
0
LINE
8
Layer 1
10
75.731387
20
65.674760
11
74.839441
21
64.939831
0
LINE
8
Layer 1
10
74.839441
20
64.939831
11
76.054921
21
67.072724
0
LINE
8
Layer 1
10
76.054921
20
67.072724
11
77.131769
21
69.300834
0
LINE
8
Layer 1
10
77.131769
20
69.300834
11
78.013944
21
71.662655
0
LINE
8
Layer 1
10
78.013944
20
71.662655
11
79.297197
21
75.795291
0
LINE
8
Layer 1
10
79.297197
20
75.795291
11
79.673915
21
77.573245
0
LINE
8
Layer 1
10
79.673915
20
77.573245
11
79.597024
21
77.922690
0
LINE
8
Layer 1
10
79.597024
20
77.922690
11
79.339722
21
77.748157
0
LINE
8
Layer 1
10
79.339722
20
77.748157
11
78.286027
21
76.860038
0
LINE
8
Layer 1
10
78.286027
20
76.860038
11
76.317281
21
75.675589
0
LINE
8
Layer 1
10
76.317281
20
75.675589
11
73.715708
21
74.349818
0
LINE
8
Layer 1
10
73.715708
20
74.349818
11
70.763531
21
73.037735
0
LINE
8
Layer 1
10
70.763531
20
73.037735
11
66.826664
21
71.191856
0
LINE
8
Layer 1
10
66.826664
20
71.191856
11
65.321096
21
70.269850
0
LINE
8
Layer 1
10
65.321096
20
70.269850
11
64.074691
21
69.304815
0
LINE
8
Layer 1
10
64.074691
20
69.304815
11
63.050385
21
68.264014
0
LINE
8
Layer 1
10
63.050385
20
68.264014
11
62.211118
21
67.114707
0
LINE
8
Layer 1
10
62.211118
20
67.114707
11
61.519828
21
65.824156
0
LINE
8
Layer 1
10
61.519828
20
65.824156
11
60.939454
21
64.359624
0
LINE
8
Layer 1
10
60.939454
20
64.359624
11
60.503930
21
62.355301
0
LINE
8
Layer 1
10
60.503930
20
62.355301
11
60.326057
21
59.852064
0
LINE
8
Layer 1
10
60.326057
20
59.852064
11
60.412245
21
57.209569
0
LINE
8
Layer 1
10
60.412245
20
57.209569
11
60.768902
21
54.787471
0
LINE
8
Layer 1
10
60.768902
20
54.787471
11
61.090147
21
52.854409
0
LINE
8
Layer 1
10
61.090147
20
52.854409
11
60.233608
21
54.264145
0
LINE
8
Layer 1
10
60.233608
20
54.264145
11
59.469268
21
55.772499
0
LINE
8
Layer 1
10
59.469268
20
55.772499
11
59.121655
21
54.595209
0
LINE
8
Layer 1
10
59.121655
20
54.595209
11
58.419717
21
52.836282
0
LINE
8
Layer 1
10
58.419717
20
52.836282
11
57.322830
21
50.940441
0
LINE
8
Layer 1
10
57.322830
20
50.940441
11
55.859957
21
48.951638
0
LINE
8
Layer 1
10
55.859957
20
48.951638
11
54.060059
21
46.913825
0
LINE
8
Layer 1
10
54.060059
20
46.913825
11
51.549738
21
43.973569
0
LINE
8
Layer 1
10
51.549738
20
43.973569
11
50.684695
21
42.603984
0
LINE
8
Layer 1
10
50.684695
20
42.603984
11
50.041318
21
41.198788
0
LINE
8
Layer 1
10
50.041318
20
41.198788
11
49.590800
21
39.681001
0
LINE
8
Layer 1
10
49.590800
20
39.681001
11
49.304330
21
37.973643
0
LINE
8
Layer 1
10
49.304330
20
37.973643
11
49.108301
21
33.682294
0
LINE
8
Layer 1
10
49.108301
20
33.682294
11
48.982561
21
30.752980
0
LINE
8
Layer 1
10
48.982561
20
30.752980
11
48.546768
21
28.914705
0
LINE
8
Layer 1
10
48.546768
20
28.914705
11
48.183581
21
28.341206
0
LINE
8
Layer 1
10
48.183581
20
28.341206
11
47.708055
21
27.964265
0
LINE
8
Layer 1
10
47.708055
20
27.964265
11
47.108582
21
27.758482
0
LINE
8
Layer 1
10
47.108582
20
27.758482
11
46.373553
21
27.698457
0
LINE
8
Layer 1
10
46.373553
20
27.698457
11
45.760331
21
27.747446
0
LINE
8
Layer 1
10
45.760331
20
27.747446
11
45.307663
21
27.911497
0
LINE
8
Layer 1
10
45.307663
20
27.911497
11
44.952892
21
28.227893
0
LINE
8
Layer 1
10
44.952892
20
28.227893
11
44.633360
21
28.733917
0
LINE
8
Layer 1
10
44.633360
20
28.733917
11
44.390383
21
29.367854
0
LINE
8
Layer 1
10
44.390383
20
29.367854
11
44.323498
21
29.956410
0
LINE
8
Layer 1
10
44.323498
20
29.956410
11
44.429800
21
30.421891
0
LINE
8
Layer 1
10
44.429800
20
30.421891
11
44.706382
21
30.686606
0
LINE
8
Layer 1
10
44.706382
20
30.686606
11
45.080873
21
31.016359
0
LINE
8
Layer 1
10
45.080873
20
31.016359
11
45.423060
21
31.594973
0
LINE
8
Layer 1
10
45.423060
20
31.594973
11
45.914648
21
32.253131
0
LINE
8
Layer 1
10
45.914648
20
32.253131
11
46.648342
21
32.774136
0
LINE
8
Layer 1
10
46.648342
20
32.774136
11
47.441100
21
33.372564
0
LINE
8
Layer 1
10
47.441100
20
33.372564
11
47.965278
21
34.385893
0
LINE
8
Layer 1
10
47.965278
20
34.385893
11
48.174909
21
35.182214
0
LINE
8
Layer 1
10
48.174909
20
35.182214
11
48.179461
21
35.696856
0
LINE
8
Layer 1
10
48.179461
20
35.696856
11
47.994204
21
35.871568
0
LINE
8
Layer 1
10
47.994204
20
35.871568
11
47.634406
21
35.648098
0
LINE
8
Layer 1
10
47.634406
20
35.648098
11
47.155558
21
35.342448
0
LINE
8
Layer 1
10
47.155558
20
35.342448
11
46.681429
21
35.357727
0
LINE
8
Layer 1
10
46.681429
20
35.357727
11
46.245013
21
35.681646
0
LINE
8
Layer 1
10
46.245013
20
35.681646
11
45.879300
21
36.301914
0
LINE
8
Layer 1
10
45.879300
20
36.301914
11
45.392104
21
37.094116
0
LINE
8
Layer 1
10
45.392104
20
37.094116
11
44.676068
21
37.285371
0
LINE
8
Layer 1
10
44.676068
20
37.285371
11
43.503260
21
37.038805
0
LINE
8
Layer 1
10
43.503260
20
37.038805
11
43.005621
21
36.949815
0
LINE
8
Layer 1
10
43.005621
20
36.949815
11
42.332300
21
37.094247
0
LINE
8
Layer 1
10
42.332300
20
37.094247
11
41.838433
21
37.254388
0
LINE
8
Layer 1
10
41.838433
20
37.254388
11
41.395799
21
37.194589
0
LINE
8
Layer 1
10
41.395799
20
37.194589
11
39.531996
21
35.954236
0
LINE
8
Layer 1
10
39.531996
20
35.954236
11
38.627798
21
35.563901
0
LINE
8
Layer 1
10
38.627798
20
35.563901
11
37.415329
21
35.317289
0
LINE
8
Layer 1
10
37.415329
20
35.317289
11
35.983333
21
35.173025
0
LINE
8
Layer 1
10
35.983333
20
35.173025
11
36.011293
21
33.924835
0
LINE
8
Layer 1
10
36.011293
20
33.924835
11
35.971485
21
32.917149
0
LINE
8
Layer 1
10
35.971485
20
32.917149
11
35.542722
21
33.289835
0
LINE
8
Layer 1
10
35.542722
20
33.289835
11
34.879763
21
33.903025
0
LINE
8
Layer 1
10
34.879763
20
33.903025
11
34.713333
21
31.933975
0
LINE
8
Layer 1
10
34.713333
20
31.933975
11
34.825736
21
30.204967
0
LINE
8
Layer 1
10
34.825736
20
30.204967
11
35.038224
21
29.808151
0
LINE
8
Layer 1
10
35.038224
20
29.808151
11
35.418889
21
29.502628
0
LINE
8
Layer 1
10
35.418889
20
29.502628
11
35.884222
21
29.027083
0
LINE
8
Layer 1
10
35.884222
20
29.027083
11
36.105790
21
28.455757
0
LINE
8
Layer 1
10
36.105790
20
28.455757
11
36.060433
21
27.932520
0
LINE
8
Layer 1
10
36.060433
20
27.932520
11
35.724990
21
27.601240
0
LINE
8
Layer 1
10
35.724990
20
27.601240
11
35.115580
21
27.537615
0
LINE
8
Layer 1
10
35.115580
20
27.537615
11
34.414763
21
27.720917
0
LINE
8
Layer 1
10
34.414763
20
27.720917
11
33.732868
21
28.105808
0
LINE
8
Layer 1
10
33.732868
20
28.105808
11
33.180226
21
28.646953
0
LINE
8
Layer 1
10
33.180226
20
28.646953
11
32.864391
21
29.217490
0
LINE
8
Layer 1
10
32.864391
20
29.217490
11
32.664122
21
30.127667
0
LINE
8
Layer 1
10
32.664122
20
30.127667
11
32.418937
21
34.417313
0
LINE
8
Layer 1
10
32.418937
20
34.417313
11
32.131770
21
38.638705
0
LINE
8
Layer 1
10
32.131770
20
38.638705
11
31.851194
21
40.226048
0
LINE
8
Layer 1
10
31.851194
20
40.226048
11
31.427430
21
41.596631
0
LINE
8
Layer 1
10
31.427430
20
41.596631
11
30.821585
21
42.849558
0
LINE
8
Layer 1
10
30.821585
20
42.849558
11
29.994763
21
44.083935
0
LINE
8
Layer 1
10
29.994763
20
44.083935
11
27.522613
21
46.893463
0
LINE
8
Layer 1
10
27.522613
20
46.893463
11
25.735837
21
48.914386
0
LINE
8
Layer 1
10
25.735837
20
48.914386
11
24.274031
21
50.886690
0
LINE
8
Layer 1
10
24.274031
20
50.886690
11
23.191679
21
52.728689
0
LINE
8
Layer 1
10
23.191679
20
52.728689
11
22.543265
21
54.358697
0
LINE
8
Layer 1
10
22.543265
20
54.358697
11
22.284446
21
55.073856
0
LINE
8
Layer 1
10
22.284446
20
55.073856
11
22.019017
21
55.295472
0
LINE
8
Layer 1
10
22.019017
20
55.295472
11
21.717473
21
55.020785
0
LINE
8
Layer 1
10
21.717473
20
55.020785
11
21.350311
21
54.247031
0
LINE
8
Layer 1
10
21.350311
20
54.247031
11
20.614112
21
52.960375
0
LINE
8
Layer 1
10
20.614112
20
52.960375
11
20.411626
21
52.849345
0
LINE
8
Layer 1
10
20.411626
20
52.849345
11
20.342984
21
52.912880
0
LINE
8
Layer 1
10
20.342984
20
52.912880
11
20.602911
21
53.942668
0
LINE
8
Layer 1
10
20.602911
20
53.942668
11
21.178633
21
57.283807
0
LINE
8
Layer 1
10
21.178633
20
57.283807
11
21.329576
21
59.660423
0
LINE
8
Layer 1
10
21.329576
20
59.660423
11
21.167974
21
61.885529
0
LINE
8
Layer 1
10
21.167974
20
61.885529
11
20.690037
21
63.984742
0
LINE
8
Layer 1
10
20.690037
20
63.984742
11
19.891976
21
65.983682
0
LINE
8
Layer 1
10
19.891976
20
65.983682
11
19.252556
21
67.161041
0
LINE
8
Layer 1
10
19.252556
20
67.161041
11
18.534807
21
68.190883
0
LINE
8
Layer 1
10
18.534807
20
68.190883
11
17.678401
21
69.116858
0
LINE
8
Layer 1
10
17.678401
20
69.116858
11
16.623011
21
69.982619
0
LINE
8
Layer 1
10
16.623011
20
69.982619
11
13.673972
21
71.708105
0
LINE
8
Layer 1
10
13.673972
20
71.708105
11
9.205073
21
73.716556
0
LINE
8
Layer 1
10
9.205073
20
73.716556
11
5.393713
21
75.612931
0
LINE
8
Layer 1
10
5.393713
20
75.612931
11
3.736937
21
76.616765
0
LINE
8
Layer 1
10
3.736937
20
76.616765
11
2.611667
21
77.450661
0
LINE
8
Layer 1
10
2.611667
20
77.450661
11
2.086113
21
77.830417
0
LINE
8
Layer 1
10
2.086113
20
77.830417
11
1.814947
21
77.798833
0
LINE
8
Layer 1
10
1.814947
20
77.798833
11
1.806415
21
77.369500
0
LINE
8
Layer 1
10
1.806415
20
77.369500
11
2.068765
21
76.556006
0
LINE
8
Layer 1
10
2.068765
20
76.556006
11
3.115857
21
73.087218
0
LINE
8
Layer 1
10
3.115857
20
73.087218
11
3.725447
21
71.094051
0
LINE
8
Layer 1
10
3.725447
20
71.094051
11
4.524602
21
69.033050
0
LINE
8
Layer 1
10
4.524602
20
69.033050
11
5.404533
21
67.159167
0
LINE
8
Layer 1
10
5.404533
20
67.159167
11
6.256446
21
65.727351
0
LINE
8
Layer 1
10
6.256446
20
65.727351
11
6.902018
21
64.820728
0
LINE
8
Layer 1
10
6.902018
20
64.820728
11
5.838159
21
65.660211
0
LINE
8
Layer 1
10
5.838159
20
65.660211
11
4.627233
21
66.860899
0
LINE
8
Layer 1
10
4.627233
20
66.860899
11
3.209786
21
68.568811
0
LINE
8
Layer 1
10
3.209786
20
68.568811
11
1.525109
21
70.517764
0
LINE
8
Layer 1
10
1.525109
20
70.517764
11
1.670566
21
62.945313
0
LINE
8
Layer 1
10
1.670566
20
62.945313
11
1.998155
21
56.541952
0
LINE
8
Layer 1
10
1.998155
20
56.541952
11
2.215959
21
54.705132
0
LINE
8
Layer 1
10
2.215959
20
54.705132
11
2.512085
21
53.292846
0
LINE
8
Layer 1
10
2.512085
20
53.292846
11
3.229076
21
51.018409
0
LINE
8
Layer 1
10
3.229076
20
51.018409
11
4.124374
21
48.989472
0
LINE
8
Layer 1
10
4.124374
20
48.989472
11
5.195693
21
47.210461
0
LINE
8
Layer 1
10
5.195693
20
47.210461
11
6.440745
21
45.685803
0
LINE
8
Layer 1
10
6.440745
20
45.685803
11
7.475407
21
44.539716
0
LINE
8
Layer 1
10
7.475407
20
44.539716
11
7.790056
21
44.063025
0
LINE
8
Layer 1
10
7.790056
20
44.063025
11
7.260241
21
44.231991
0
LINE
8
Layer 1
10
7.260241
20
44.231991
11
6.426559
21
44.712836
0
LINE
8
Layer 1
10
6.426559
20
44.712836
11
4.089527
21
46.453851
0
LINE
8
Layer 1
10
4.089527
20
46.453851
11
2.089127
21
47.939562
0
LINE
8
Layer 1
10
2.089127
20
47.939562
11
2.285079
21
42.855910
0
LINE
8
Layer 1
10
2.285079
20
42.855910
11
2.826328
21
37.048381
0
LINE
8
Layer 1
10
2.826328
20
37.048381
11
3.577453
21
34.865811
0
LINE
8
Layer 1
10
3.577453
20
34.865811
11
4.102948
21
33.990969
0
LINE
8
Layer 1
10
4.102948
20
33.990969
11
4.763579
21
33.226129
0
LINE
8
Layer 1
10
4.763579
20
33.226129
11
5.585733
21
32.545569
0
LINE
8
Layer 1
10
5.585733
20
32.545569
11
6.595796
21
31.923568
0
LINE
8
Layer 1
10
6.595796
20
31.923568
11
9.285193
21
30.752361
0
LINE
8
Layer 1
10
9.285193
20
30.752361
11
12.558889
21
29.546812
0
LINE
8
Layer 1
10
12.558889
20
29.546812
11
11.430000
21
29.334028
0
LINE
8
Layer 1
10
11.430000
20
29.334028
11
9.648038
21
29.197318
0
LINE
8
Layer 1
10
9.648038
20
29.197318
11
7.930066
21
29.459258
0
LINE
8
Layer 1
10
7.930066
20
29.459258
11
6.314235
21
30.109411
0
LINE
8
Layer 1
10
6.314235
20
30.109411
11
4.838697
21
31.137338
0
LINE
8
Layer 1
10
4.838697
20
31.137338
11
4.130821
21
31.680790
0
LINE
8
Layer 1
10
4.130821
20
31.680790
11
3.758542
21
31.828974
0
LINE
8
Layer 1
10
3.758542
20
31.828974
11
3.725784
21
31.359041
0
LINE
8
Layer 1
10
3.725784
20
31.359041
11
3.934240
21
30.391227
0
LINE
8
Layer 1
10
3.934240
20
30.391227
11
4.857018
21
27.555711
0
LINE
8
Layer 1
10
4.857018
20
27.555711
11
6.091328
21
24.509944
0
LINE
8
Layer 1
10
6.091328
20
24.509944
11
7.201622
21
22.441442
0
LINE
8
Layer 1
10
7.201622
20
22.441442
11
8.161435
21
21.356724
0
LINE
8
Layer 1
10
8.161435
20
21.356724
11
9.129169
21
20.722410
0
LINE
8
Layer 1
10
9.129169
20
20.722410
11
10.296057
21
20.457986
0
LINE
8
Layer 1
10
10.296057
20
20.457986
11
11.853333
21
20.482935
0
LINE
8
Layer 1
10
11.853333
20
20.482935
11
14.816666
21
20.785630
0
LINE
8
Layer 1
10
14.816666
20
20.785630
11
15.289617
21
20.791278
0
LINE
8
Layer 1
10
15.289617
20
20.791278
11
14.426632
21
20.329982
0
LINE
8
Layer 1
10
14.426632
20
20.329982
11
13.031583
21
19.857671
0
LINE
8
Layer 1
10
13.031583
20
19.857671
11
11.414176
21
19.553321
0
LINE
8
Layer 1
10
11.414176
20
19.553321
11
9.638422
21
19.368581
0
LINE
8
Layer 1
10
9.638422
20
19.368581
11
11.572971
21
17.691419
0
LINE
8
Layer 1
10
11.572971
20
17.691419
11
13.448757
21
16.154695
0
LINE
8
Layer 1
10
13.448757
20
16.154695
11
14.891407
21
15.335527
0
LINE
8
Layer 1
10
14.891407
20
15.335527
11
16.398606
21
15.047035
0
LINE
8
Layer 1
10
16.398606
20
15.047035
11
18.468035
21
15.102340
0
LINE
8
Layer 1
10
18.468035
20
15.102340
11
20.193069
21
15.169583
0
LINE
8
Layer 1
10
20.193069
20
15.169583
11
20.944850
21
15.071606
0
LINE
8
Layer 1
10
20.944850
20
15.071606
11
20.961940
21
14.956457
0
LINE
8
Layer 1
10
20.961940
20
14.956457
11
20.743121
21
14.794962
0
LINE
8
Layer 1
10
20.743121
20
14.794962
11
19.607626
21
14.326204
0
LINE
8
Layer 1
10
19.607626
20
14.326204
11
18.892533
21
13.992789
0
LINE
8
Layer 1
10
18.892533
20
13.992789
11
18.805783
21
13.868420
0
LINE
8
Layer 1
10
18.805783
20
13.868420
11
18.908889
21
13.779573
0
LINE
8
Layer 1
10
18.908889
20
13.779573
11
21.410181
21
13.214704
0
LINE
8
Layer 1
10
21.410181
20
13.214704
11
24.466640
21
13.024779
0
LINE
8
Layer 1
10
24.466640
20
13.024779
11
26.412576
21
13.133121
0
LINE
8
Layer 1
10
26.412576
20
13.133121
11
27.947209
21
13.506181
0
LINE
8
Layer 1
10
27.947209
20
13.506181
11
29.303855
21
14.232692
0
LINE
8
Layer 1
10
29.303855
20
14.232692
11
30.715831
21
15.401386
0
LINE
8
Layer 1
10
30.715831
20
15.401386
11
31.690049
21
16.232840
0
LINE
8
Layer 1
10
31.690049
20
16.232840
11
32.409462
21
16.609278
0
LINE
8
Layer 1
10
32.409462
20
16.609278
11
32.999212
21
16.562179
0
LINE
8
Layer 1
10
32.999212
20
16.562179
11
33.584444
21
16.123025
0
LINE
8
Layer 1
10
33.584444
20
16.123025
11
34.012690
21
15.533894
0
LINE
8
Layer 1
10
34.012690
20
15.533894
11
34.105061
21
14.922215
0
LINE
8
Layer 1
10
34.105061
20
14.922215
11
33.855609
21
14.238962
0
LINE
8
Layer 1
10
33.855609
20
14.238962
11
33.258387
21
13.435107
0
LINE
8
Layer 1
10
33.258387
20
13.435107
11
32.497640
21
12.691978
0
LINE
8
Layer 1
10
32.497640
20
12.691978
11
31.611977
21
12.061092
0
LINE
8
Layer 1
10
31.611977
20
12.061092
11
30.587425
21
11.538364
0
LINE
8
Layer 1
10
30.587425
20
11.538364
11
29.410011
21
11.119707
0
LINE
8
Layer 1
10
29.410011
20
11.119707
11
26.540708
21
10.578266
0
LINE
8
Layer 1
10
26.540708
20
10.578266
11
22.892283
21
10.404086
0
LINE
8
Layer 1
10
22.892283
20
10.404086
11
20.340977
21
10.337826
0
LINE
8
Layer 1
10
20.340977
20
10.337826
11
19.655685
21
10.266842
0
LINE
8
Layer 1
10
19.655685
20
10.266842
11
19.511862
21
10.180407
0
LINE
8
Layer 1
10
19.511862
20
10.180407
11
23.551650
21
8.486628
0
LINE
8
Layer 1
10
23.551650
20
8.486628
11
27.194146
21
7.015189
0
LINE
8
Layer 1
10
27.194146
20
7.015189
11
29.605941
21
7.185395
0
LINE
8
Layer 1
10
29.605941
20
7.185395
11
32.017739
21
7.355597
0
LINE
8
Layer 1
10
32.017739
20
7.355597
11
31.178314
21
6.802281
0
LINE
8
Layer 1
10
31.178314
20
6.802281
11
30.440390
21
6.410956
0
LINE
8
Layer 1
10
30.440390
20
6.410956
11
29.845000
21
6.247107
0
LINE
8
Layer 1
10
29.845000
20
6.247107
11
29.446543
21
6.155526
0
LINE
8
Layer 1
10
29.446543
20
6.155526
11
29.375665
21
5.932131
0
LINE
8
Layer 1
10
29.375665
20
5.932131
11
29.609697
21
5.647505
0
LINE
8
Layer 1
10
29.609697
20
5.647505
11
30.125972
21
5.372233
0
LINE
8
Layer 1
10
30.125972
20
5.372233
11
31.748750
21
4.434253
0
LINE
8
Layer 1
10
31.748750
20
4.434253
11
32.714424
21
3.829515
0
LINE
8
Layer 1
10
32.714424
20
3.829515
11
33.696058
21
3.432298
0
LINE
8
Layer 1
10
33.696058
20
3.432298
11
34.575696
21
3.277579
0
LINE
8
Layer 1
10
34.575696
20
3.277579
11
35.235385
21
3.400338
0
LINE
8
Layer 1
10
35.235385
20
3.400338
11
37.436428
21
5.576149
0
LINE
8
Layer 1
10
37.436428
20
5.576149
11
38.491602
21
6.690297
0
LINE
8
Layer 1
10
38.491602
20
6.690297
11
39.064117
21
7.038612
0
LINE
8
Layer 1
10
39.064117
20
7.038612
11
39.184273
21
6.924026
0
LINE
8
Layer 1
10
39.184273
20
6.924026
11
39.201642
21
6.616114
0
LINE
8
Layer 1
10
39.201642
20
6.616114
11
38.951848
21
5.417820
0
LINE
8
Layer 1
10
38.951848
20
5.417820
11
38.440522
21
4.308405
0
LINE
8
Layer 1
10
38.440522
20
4.308405
11
37.637026
21
3.261086
0
LINE
8
Layer 1
10
37.637026
20
3.261086
11
36.967925
21
2.511218
0
LINE
8
Layer 1
10
36.967925
20
2.511218
11
36.769926
21
2.119026
0
LINE
8
Layer 1
10
36.769926
20
2.119026
11
37.422431
21
1.763090
0
LINE
8
Layer 1
10
37.422431
20
1.763090
11
38.541464
21
1.363940
0
LINE
8
Layer 1
10
38.541464
20
1.363940
11
40.699969
21
0.896225
0
LINE
8
Layer 1
10
40.699969
20
0.896225
11
41.899016
21
1.058665
0
LINE
8
Layer 1
10
41.899016
20
1.058665
11
43.310525
21
1.467747
0
LINE
8
Layer 1
10
43.310525
20
1.467747
11
43.310525
21
1.467747
0
LINE
8
Layer 1
10
38.129458
20
2.268601
11
37.981983
21
2.411341
0
LINE
8
Layer 1
10
37.981983
20
2.411341
11
38.005389
21
2.563214
0
LINE
8
Layer 1
10
38.005389
20
2.563214
11
38.623347
21
2.978441
0
LINE
8
Layer 1
10
38.623347
20
2.978441
11
39.249061
21
3.404164
0
LINE
8
Layer 1
10
39.249061
20
3.404164
11
39.506790
21
3.783051
0
LINE
8
Layer 1
10
39.506790
20
3.783051
11
39.432340
21
3.928330
0
LINE
8
Layer 1
10
39.432340
20
3.928330
11
39.228889
21
3.705248
0
LINE
8
Layer 1
10
39.228889
20
3.705248
11
39.034403
21
3.496080
0
LINE
8
Layer 1
10
39.034403
20
3.496080
11
38.950987
21
3.587654
0
LINE
8
Layer 1
10
38.950987
20
3.587654
11
39.158333
21
4.104970
0
LINE
8
Layer 1
10
39.158333
20
4.104970
11
39.848121
21
5.492561
0
LINE
8
Layer 1
10
39.848121
20
5.492561
11
40.190426
21
6.214047
0
LINE
8
Layer 1
10
40.190426
20
6.214047
11
40.298161
21
6.348636
0
LINE
8
Layer 1
10
40.298161
20
6.348636
11
40.342010
21
6.297250
0
LINE
8
Layer 1
10
40.342010
20
6.297250
11
40.065627
21
5.380028
0
LINE
8
Layer 1
10
40.065627
20
5.380028
11
39.914753
21
4.833551
0
LINE
8
Layer 1
10
39.914753
20
4.833551
11
40.066925
21
4.285821
0
LINE
8
Layer 1
10
40.066925
20
4.285821
11
40.167690
21
3.738808
0
LINE
8
Layer 1
10
40.167690
20
3.738808
11
40.063103
21
3.080367
0
LINE
8
Layer 1
10
40.063103
20
3.080367
11
39.815918
21
2.526733
0
LINE
8
Layer 1
10
39.815918
20
2.526733
11
39.488892
21
2.294136
0
LINE
8
Layer 1
10
39.488892
20
2.294136
11
38.899194
21
2.155989
0
LINE
8
Layer 1
10
38.899194
20
2.155989
11
38.518041
21
2.132084
0
LINE
8
Layer 1
10
38.518041
20
2.132084
11
38.129458
21
2.268601
0
LINE
8
Layer 1
10
38.129458
20
2.268601
11
38.129458
21
2.268601
0
LINE
8
Layer 1
10
39.828354
20
4.062730
11
39.587404
21
4.238314
0
LINE
8
Layer 1
10
39.587404
20
4.238314
11
39.670366
21
3.904742
0
LINE
8
Layer 1
10
39.670366
20
3.904742
11
39.852867
21
3.593745
0
LINE
8
Layer 1
10
39.852867
20
3.593745
11
40.021050
21
3.556669
0
LINE
8
Layer 1
10
40.021050
20
3.556669
11
40.029616
21
3.770493
0
LINE
8
Layer 1
10
40.029616
20
3.770493
11
39.828354
21
4.062730
0
LINE
8
Layer 1
10
39.828354
20
4.062730
11
39.828354
21
4.062730
0
LINE
8
Layer 1
10
41.656564
20
2.620905
11
41.351076
21
3.247340
0
LINE
8
Layer 1
10
41.351076
20
3.247340
11
41.212234
21
3.892958
0
LINE
8
Layer 1
10
41.212234
20
3.892958
11
41.257893
21
4.347051
0
LINE
8
Layer 1
10
41.257893
20
4.347051
11
41.505906
21
4.398913
0
LINE
8
Layer 1
10
41.505906
20
4.398913
11
41.679615
21
4.165177
0
LINE
8
Layer 1
10
41.679615
20
4.165177
11
41.673924
21
3.864850
0
LINE
8
Layer 1
10
41.673924
20
3.864850
11
41.686128
21
3.619251
0
LINE
8
Layer 1
10
41.686128
20
3.619251
11
41.902854
21
3.517098
0
LINE
8
Layer 1
10
41.902854
20
3.517098
11
42.064562
21
3.557974
0
LINE
8
Layer 1
10
42.064562
20
3.557974
11
42.114649
21
3.703739
0
LINE
8
Layer 1
10
42.114649
20
3.703739
11
41.875947
21
4.448776
0
LINE
8
Layer 1
10
41.875947
20
4.448776
11
41.518692
21
5.579048
0
LINE
8
Layer 1
10
41.518692
20
5.579048
11
42.031364
21
4.693025
0
LINE
8
Layer 1
10
42.031364
20
4.693025
11
42.317765
21
3.896092
0
LINE
8
Layer 1
10
42.317765
20
3.896092
11
42.397459
21
3.309094
0
LINE
8
Layer 1
10
42.397459
20
3.309094
11
42.274010
21
3.004677
0
LINE
8
Layer 1
10
42.274010
20
3.004677
11
41.950984
21
3.055487
0
LINE
8
Layer 1
10
41.950984
20
3.055487
11
41.838162
21
3.049992
0
LINE
8
Layer 1
10
41.838162
20
3.049992
11
42.020772
21
2.764824
0
LINE
8
Layer 1
10
42.020772
20
2.764824
11
42.253517
21
2.377958
0
LINE
8
Layer 1
10
42.253517
20
2.377958
11
42.261226
21
2.127956
0
LINE
8
Layer 1
10
42.261226
20
2.127956
11
42.020683
21
2.209835
0
LINE
8
Layer 1
10
42.020683
20
2.209835
11
41.656564
21
2.620905
0
LINE
8
Layer 1
10
41.656564
20
2.620905
11
41.656564
21
2.620905
0
LINE
8
Layer 1
10
42.526046
20
2.402546
11
42.458764
21
2.770074
0
LINE
8
Layer 1
10
42.458764
20
2.770074
11
42.582905
21
2.954988
0
LINE
8
Layer 1
10
42.582905
20
2.954988
11
42.864745
21
2.942929
0
LINE
8
Layer 1
10
42.864745
20
2.942929
11
43.270557
21
2.719538
0
LINE
8
Layer 1
10
43.270557
20
2.719538
11
43.565783
21
2.397393
0
LINE
8
Layer 1
10
43.565783
20
2.397393
11
43.479110
21
2.163462
0
LINE
8
Layer 1
10
43.479110
20
2.163462
11
43.266595
21
2.141425
0
LINE
8
Layer 1
10
43.266595
20
2.141425
11
43.175679
21
2.348035
0
LINE
8
Layer 1
10
43.175679
20
2.348035
11
43.125334
21
2.570962
0
LINE
8
Layer 1
10
43.125334
20
2.570962
11
42.932731
21
2.341028
0
LINE
8
Layer 1
10
42.932731
20
2.341028
11
42.708000
21
2.124942
0
LINE
8
Layer 1
10
42.708000
20
2.124942
11
42.526046
21
2.402546
0
LINE
8
Layer 1
10
42.526046
20
2.402546
11
42.526046
21
2.402546
0
LINE
8
Layer 1
10
32.823864
20
4.890254
11
31.917020
21
5.400625
0
LINE
8
Layer 1
10
31.917020
20
5.400625
11
31.544847
21
5.756536
0
LINE
8
Layer 1
10
31.544847
20
5.756536
11
31.663227
21
6.075261
0
LINE
8
Layer 1
10
31.663227
20
6.075261
11
32.228045
21
6.474071
0
LINE
8
Layer 1
10
32.228045
20
6.474071
11
33.871481
21
7.806673
0
LINE
8
Layer 1
10
33.871481
20
7.806673
11
35.282251
21
8.911147
0
LINE
8
Layer 1
10
35.282251
20
8.911147
11
35.994245
21
9.227809
0
LINE
8
Layer 1
10
35.994245
20
9.227809
11
36.604318
21
9.328221
0
LINE
8
Layer 1
10
36.604318
20
9.328221
11
36.732328
21
9.293689
0
LINE
8
Layer 1
10
36.732328
20
9.293689
11
36.695742
21
9.215222
0
LINE
8
Layer 1
10
36.695742
20
9.215222
11
36.178470
21
8.968455
0
LINE
8
Layer 1
10
36.178470
20
8.968455
11
35.573840
21
8.674701
0
LINE
8
Layer 1
10
35.573840
20
8.674701
11
35.431377
21
8.443499
0
LINE
8
Layer 1
10
35.431377
20
8.443499
11
35.782665
21
8.397573
0
LINE
8
Layer 1
10
35.782665
20
8.397573
11
36.365129
21
8.549273
0
LINE
8
Layer 1
10
36.365129
20
8.549273
11
37.870974
21
8.963130
0
LINE
8
Layer 1
10
37.870974
20
8.963130
11
38.438747
21
9.020334
0
LINE
8
Layer 1
10
38.438747
20
9.020334
11
38.664444
21
8.940518
0
LINE
8
Layer 1
10
38.664444
20
8.940518
11
36.937445
21
6.653594
0
LINE
8
Layer 1
10
36.937445
20
6.653594
11
35.045602
21
4.530321
0
LINE
8
Layer 1
10
35.045602
20
4.530321
11
34.376086
21
4.416462
0
LINE
8
Layer 1
10
34.376086
20
4.416462
11
33.722799
21
4.517579
0
LINE
8
Layer 1
10
33.722799
20
4.517579
11
32.823864
21
4.890254
0
LINE
8
Layer 1
10
32.823864
20
4.890254
11
32.823864
21
4.890254
0
LINE
8
Layer 1
10
35.138273
20
5.050124
11
36.160414
21
6.245248
0
LINE
8
Layer 1
10
36.160414
20
6.245248
11
37.678958
21
8.009136
0
LINE
8
Layer 1
10
37.678958
20
8.009136
11
38.142801
21
8.557265
0
LINE
8
Layer 1
10
38.142801
20
8.557265
11
38.162351
21
8.785248
0
LINE
8
Layer 1
10
38.162351
20
8.785248
11
37.472532
21
8.238323
0
LINE
8
Layer 1
10
37.472532
20
8.238323
11
36.230876
21
6.923377
0
LINE
8
Layer 1
10
36.230876
20
6.923377
11
34.687683
21
5.352800
0
LINE
8
Layer 1
10
34.687683
20
5.352800
11
34.190260
21
5.175052
0
LINE
8
Layer 1
10
34.190260
20
5.175052
11
33.596456
21
5.222045
0
LINE
8
Layer 1
10
33.596456
20
5.222045
11
32.937767
21
5.279413
0
LINE
8
Layer 1
10
32.937767
20
5.279413
11
33.020000
21
5.112681
0
LINE
8
Layer 1
10
33.020000
20
5.112681
11
34.116770
21
4.851499
0
LINE
8
Layer 1
10
34.116770
20
4.851499
11
34.708523
21
4.891221
0
LINE
8
Layer 1
10
34.708523
20
4.891221
11
35.138273
21
5.050124
0
LINE
8
Layer 1
10
35.138273
20
5.050124
11
35.138273
21
5.050124
0
LINE
8
Layer 1
10
34.794664
20
7.794447
11
35.155574
21
8.142290
0
LINE
8
Layer 1
10
35.155574
20
8.142290
11
35.194545
21
8.398112
0
LINE
8
Layer 1
10
35.194545
20
8.398112
11
34.647912
21
8.146902
0
LINE
8
Layer 1
10
34.647912
20
8.146902
11
33.600884
21
7.275714
0
LINE
8
Layer 1
10
33.600884
20
7.275714
11
32.502574
21
6.347359
0
LINE
8
Layer 1
10
32.502574
20
6.347359
11
31.832646
21
5.958705
0
LINE
8
Layer 1
10
31.832646
20
5.958705
11
31.623298
21
5.904781
0
LINE
8
Layer 1
10
31.623298
20
5.904781
11
31.851335
21
5.711359
0
LINE
8
Layer 1
10
31.851335
20
5.711359
11
32.380579
21
5.758957
0
LINE
8
Layer 1
10
32.380579
20
5.758957
11
33.219692
21
6.424704
0
LINE
8
Layer 1
10
33.219692
20
6.424704
11
34.794664
21
7.794447
0
LINE
8
Layer 1
10
34.794664
20
7.794447
11
34.794664
21
7.794447
0
LINE
8
Layer 1
10
46.639198
20
4.450074
11
44.585887
21
6.697534
0
LINE
8
Layer 1
10
44.585887
20
6.697534
11
43.539708
21
8.108216
0
LINE
8
Layer 1
10
43.539708
20
8.108216
11
43.244868
21
8.872068
0
LINE
8
Layer 1
10
43.244868
20
8.872068
11
43.381954
21
9.026443
0
LINE
8
Layer 1
10
43.381954
20
9.026443
11
43.710181
21
9.037121
0
LINE
8
Layer 1
10
43.710181
20
9.037121
11
44.944462
21
8.651404
0
LINE
8
Layer 1
10
44.944462
20
8.651404
11
46.152196
21
8.024190
0
LINE
8
Layer 1
10
46.152196
20
8.024190
11
47.521022
21
7.125433
0
LINE
8
Layer 1
10
47.521022
20
7.125433
11
48.642119
21
6.246940
0
LINE
8
Layer 1
10
48.642119
20
6.246940
11
49.106667
21
5.680518
0
LINE
8
Layer 1
10
49.106667
20
5.680518
11
49.240096
21
5.545112
0
LINE
8
Layer 1
10
49.240096
20
5.545112
11
49.560892
21
5.590599
0
LINE
8
Layer 1
10
49.560892
20
5.590599
11
49.849392
21
5.783287
0
LINE
8
Layer 1
10
49.849392
20
5.783287
11
49.490336
21
6.047819
0
LINE
8
Layer 1
10
49.490336
20
6.047819
11
47.637090
21
7.557993
0
LINE
8
Layer 1
10
47.637090
20
7.557993
11
46.570956
21
8.435105
0
LINE
8
Layer 1
10
46.570956
20
8.435105
11
45.873202
21
8.820525
0
LINE
8
Layer 1
10
45.873202
20
8.820525
11
45.068250
21
8.924111
0
LINE
8
Layer 1
10
45.068250
20
8.924111
11
44.708705
21
9.138025
0
LINE
8
Layer 1
10
44.708705
20
9.138025
11
44.689574
21
9.309506
0
LINE
8
Layer 1
10
44.689574
20
9.309506
11
45.018143
21
9.341369
0
LINE
8
Layer 1
10
45.018143
20
9.341369
11
46.091331
21
9.033606
0
LINE
8
Layer 1
10
46.091331
20
9.033606
11
47.554444
21
7.932770
0
LINE
8
Layer 1
10
47.554444
20
7.932770
11
49.456179
21
6.443356
0
LINE
8
Layer 1
10
49.456179
20
6.443356
11
50.085716
21
5.947192
0
LINE
8
Layer 1
10
50.085716
20
5.947192
11
50.141993
21
5.618752
0
LINE
8
Layer 1
10
50.141993
20
5.618752
11
49.569728
21
5.399339
0
LINE
8
Layer 1
10
49.569728
20
5.399339
11
48.313642
21
5.230261
0
LINE
8
Layer 1
10
48.313642
20
5.230261
11
47.393556
21
5.189133
0
LINE
8
Layer 1
10
47.393556
20
5.189133
11
46.738719
21
5.359270
0
LINE
8
Layer 1
10
46.738719
20
5.359270
11
46.157017
21
5.842121
0
LINE
8
Layer 1
10
46.157017
20
5.842121
11
45.456340
21
6.739136
0
LINE
8
Layer 1
10
45.456340
20
6.739136
11
44.753978
21
7.586244
0
LINE
8
Layer 1
10
44.753978
20
7.586244
11
44.285295
21
7.938581
0
LINE
8
Layer 1
10
44.285295
20
7.938581
11
44.468691
21
7.474034
0
LINE
8
Layer 1
10
44.468691
20
7.474034
11
45.334087
21
6.357146
0
LINE
8
Layer 1
10
45.334087
20
6.357146
11
46.650288
21
5.019569
0
LINE
8
Layer 1
10
46.650288
20
5.019569
11
47.141476
21
4.875033
0
LINE
8
Layer 1
10
47.141476
20
4.875033
11
47.788968
21
4.923762
0
LINE
8
Layer 1
10
47.788968
20
4.923762
11
48.496915
21
4.958000
0
LINE
8
Layer 1
10
48.496915
20
4.958000
11
48.646949
21
4.831836
0
LINE
8
Layer 1
10
48.646949
20
4.831836
11
47.679082
21
4.450515
0
LINE
8
Layer 1
10
47.679082
20
4.450515
11
46.639198
21
4.450074
0
LINE
8
Layer 1
10
46.639198
20
4.450074
11
46.639198
21
4.450074
0
LINE
8
Layer 1
10
43.932594
20
8.314876
11
43.823372
21
8.580637
0
LINE
8
Layer 1
10
43.823372
20
8.580637
11
43.560777
21
8.691174
0
LINE
8
Layer 1
10
43.560777
20
8.691174
11
43.339311
21
8.608475
0
LINE
8
Layer 1
10
43.339311
20
8.608475
11
43.501259
21
8.314876
0
LINE
8
Layer 1
10
43.501259
20
8.314876
11
43.873076
21
7.938581
0
LINE
8
Layer 1
10
43.873076
20
7.938581
11
43.932594
21
8.314876
0
LINE
8
Layer 1
10
43.932594
20
8.314876
11
43.932594
21
8.314876
0
LINE
8
Layer 1
10
26.952222
20
8.155370
11
26.335220
21
8.307445
0
LINE
8
Layer 1
10
26.335220
20
8.307445
11
26.670000
21
8.541811
0
LINE
8
Layer 1
10
26.670000
20
8.541811
11
26.955227
21
8.722924
0
LINE
8
Layer 1
10
26.955227
20
8.722924
11
26.387777
21
8.680769
0
LINE
8
Layer 1
10
26.387777
20
8.680769
11
25.625760
21
8.663785
0
LINE
8
Layer 1
10
25.625760
20
8.663785
11
24.980301
21
8.777601
0
LINE
8
Layer 1
10
24.980301
20
8.777601
11
24.650524
21
8.961440
0
LINE
8
Layer 1
10
24.650524
20
8.961440
11
24.835555
21
9.154527
0
LINE
8
Layer 1
10
24.835555
20
9.154527
11
27.093333
21
9.462118
0
LINE
8
Layer 1
10
27.093333
20
9.462118
11
28.722684
21
9.694081
0
LINE
8
Layer 1
10
28.722684
20
9.694081
11
30.064030
21
10.027164
0
LINE
8
Layer 1
10
30.064030
20
10.027164
11
31.333818
21
10.354371
0
LINE
8
Layer 1
10
31.333818
20
10.354371
11
32.772339
21
10.559258
0
LINE
8
Layer 1
10
32.772339
20
10.559258
11
33.987541
21
10.604824
0
LINE
8
Layer 1
10
33.987541
20
10.604824
11
34.587372
21
10.454067
0
LINE
8
Layer 1
10
34.587372
20
10.454067
11
34.561276
21
10.294091
0
LINE
8
Layer 1
10
34.561276
20
10.294091
11
34.313677
21
10.182911
0
LINE
8
Layer 1
10
34.313677
20
10.182911
11
33.459733
21
10.180989
0
LINE
8
Layer 1
10
33.459733
20
10.180989
11
31.201955
21
9.521004
0
LINE
8
Layer 1
10
31.201955
20
9.521004
11
28.363333
21
8.698571
0
LINE
8
Layer 1
10
28.363333
20
8.698571
11
27.516666
21
8.587596
0
LINE
8
Layer 1
10
27.516666
20
8.587596
11
28.430861
21
8.545311
0
LINE
8
Layer 1
10
28.430861
20
8.545311
11
29.491875
21
8.673273
0
LINE
8
Layer 1
10
29.491875
20
8.673273
11
30.759061
21
9.040306
0
LINE
8
Layer 1
10
30.759061
20
9.040306
11
31.712788
21
9.347086
0
LINE
8
Layer 1
10
31.712788
20
9.347086
11
32.020166
21
9.330185
0
LINE
8
Layer 1
10
32.020166
20
9.330185
11
30.072911
21
8.532908
0
LINE
8
Layer 1
10
30.072911
20
8.532908
11
27.980829
21
7.980866
0
LINE
8
Layer 1
10
27.980829
20
7.980866
11
26.952222
21
8.155370
0
LINE
8
Layer 1
10
26.952222
20
8.155370
11
26.952222
21
8.155370
0
LINE
8
Layer 1
10
52.005323
20
8.391313
11
52.546250
21
8.413592
0
LINE
8
Layer 1
10
52.546250
20
8.413592
11
52.668712
21
8.299632
0
LINE
8
Layer 1
10
52.668712
20
8.299632
11
52.375740
21
8.243085
0
LINE
8
Layer 1
10
52.375740
20
8.243085
11
52.043799
21
8.277435
0
LINE
8
Layer 1
10
52.043799
20
8.277435
11
52.005323
21
8.391313
0
LINE
8
Layer 1
10
52.005323
20
8.391313
11
52.005323
21
8.391313
0
LINE
8
Layer 1
10
52.916667
20
8.661363
11
51.598923
21
8.889260
0
LINE
8
Layer 1
10
51.598923
20
8.889260
11
50.808602
21
8.899748
0
LINE
8
Layer 1
10
50.808602
20
8.899748
11
50.576916
21
8.859029
0
LINE
8
Layer 1
10
50.576916
20
8.859029
11
50.602267
21
8.963812
0
LINE
8
Layer 1
10
50.602267
20
8.963812
11
50.563836
21
9.113048
0
LINE
8
Layer 1
10
50.563836
20
9.113048
11
50.274786
21
9.322192
0
LINE
8
Layer 1
10
50.274786
20
9.322192
11
49.224166
21
9.810706
0
LINE
8
Layer 1
10
49.224166
20
9.810706
11
48.009079
21
10.210355
0
LINE
8
Layer 1
10
48.009079
20
10.210355
11
47.188199
21
10.302136
0
LINE
8
Layer 1
10
47.188199
20
10.302136
11
46.862857
21
10.227316
0
LINE
8
Layer 1
10
46.862857
20
10.227316
11
47.158238
21
10.446992
0
LINE
8
Layer 1
10
47.158238
20
10.446992
11
48.851572
21
10.881543
0
LINE
8
Layer 1
10
48.851572
20
10.881543
11
49.683480
21
10.948098
0
LINE
8
Layer 1
10
49.683480
20
10.948098
11
49.247778
21
10.784103
0
LINE
8
Layer 1
10
49.247778
20
10.784103
11
48.629624
21
10.575058
0
LINE
8
Layer 1
10
48.629624
20
10.575058
11
49.106667
21
10.508330
0
LINE
8
Layer 1
10
49.106667
20
10.508330
11
51.601254
21
9.910496
0
LINE
8
Layer 1
10
51.601254
20
9.910496
11
53.209711
21
9.524536
0
LINE
8
Layer 1
10
53.209711
20
9.524536
11
54.564588
21
9.384106
0
LINE
8
Layer 1
10
54.564588
20
9.384106
11
55.366268
21
9.446935
0
LINE
8
Layer 1
10
55.366268
20
9.446935
11
54.186667
21
9.660845
0
LINE
8
Layer 1
10
54.186667
20
9.660845
11
51.409453
21
10.303096
0
LINE
8
Layer 1
10
51.409453
20
10.303096
11
50.621135
21
10.603700
0
LINE
8
Layer 1
10
50.621135
20
10.603700
11
50.533913
21
10.700079
0
LINE
8
Layer 1
10
50.533913
20
10.700079
11
50.711072
21
10.741922
0
LINE
8
Layer 1
10
50.711072
20
10.741922
11
52.122183
21
10.454657
0
LINE
8
Layer 1
10
52.122183
20
10.454657
11
53.545735
21
10.078813
0
LINE
8
Layer 1
10
53.545735
20
10.078813
11
55.378872
21
9.785162
0
LINE
8
Layer 1
10
55.378872
20
9.785162
11
57.016860
21
9.648648
0
LINE
8
Layer 1
10
57.016860
20
9.648648
11
57.854966
21
9.744213
0
LINE
8
Layer 1
10
57.854966
20
9.744213
11
58.067222
21
9.871978
0
LINE
8
Layer 1
10
58.067222
20
9.871978
11
58.137778
21
9.688359
0
LINE
8
Layer 1
10
58.137778
20
9.688359
11
57.926111
21
9.326174
0
LINE
8
Layer 1
10
57.926111
20
9.326174
11
57.023229
21
9.228085
0
LINE
8
Layer 1
10
57.023229
20
9.228085
11
56.503260
21
9.080022
0
LINE
8
Layer 1
10
56.503260
20
9.080022
11
56.223761
21
8.828755
0
LINE
8
Layer 1
10
56.223761
20
8.828755
11
55.938182
21
8.638322
0
LINE
8
Layer 1
10
55.938182
20
8.638322
11
55.362754
21
8.667448
0
LINE
8
Layer 1
10
55.362754
20
8.667448
11
54.856382
21
8.733659
0
LINE
8
Layer 1
10
54.856382
20
8.733659
11
55.033333
21
8.530175
0
LINE
8
Layer 1
10
55.033333
20
8.530175
11
55.315555
21
8.283667
0
LINE
8
Layer 1
10
55.315555
20
8.283667
11
55.033333
21
8.254043
0
LINE
8
Layer 1
10
55.033333
20
8.254043
11
52.916667
21
8.661363
0
LINE
8
Layer 1
10
52.916667
20
8.661363
11
52.916667
21
8.661363
0
LINE
8
Layer 1
10
39.877650
20
9.568220
11
39.412659
21
9.774122
0
LINE
8
Layer 1
10
39.412659
20
9.774122
11
39.524872
21
10.373668
0
LINE
8
Layer 1
10
39.524872
20
10.373668
11
39.717591
21
11.207446
0
LINE
8
Layer 1
10
39.717591
20
11.207446
11
39.785763
21
12.171825
0
LINE
8
Layer 1
10
39.785763
20
12.171825
11
39.727682
21
12.968909
0
LINE
8
Layer 1
10
39.727682
20
12.968909
11
39.541642
21
13.300803
0
LINE
8
Layer 1
10
39.541642
20
13.300803
11
39.292364
21
12.907015
0
LINE
8
Layer 1
10
39.292364
20
12.907015
11
39.046475
21
11.960248
0
LINE
8
Layer 1
10
39.046475
20
11.960248
11
38.712745
21
10.832219
0
LINE
8
Layer 1
10
38.712745
20
10.832219
11
38.444918
21
10.621006
0
LINE
8
Layer 1
10
38.444918
20
10.621006
11
38.028166
21
10.530391
0
LINE
8
Layer 1
10
38.028166
20
10.530391
11
37.529610
21
10.525881
0
LINE
8
Layer 1
10
37.529610
20
10.525881
11
37.300815
21
10.692278
0
LINE
8
Layer 1
10
37.300815
20
10.692278
11
37.323594
21
11.078356
0
LINE
8
Layer 1
10
37.323594
20
11.078356
11
37.579757
21
11.732892
0
LINE
8
Layer 1
10
37.579757
20
11.732892
11
37.761082
21
12.430795
0
LINE
8
Layer 1
10
37.761082
20
12.430795
11
37.613601
21
13.086726
0
LINE
8
Layer 1
10
37.613601
20
13.086726
11
37.439617
21
13.417348
0
LINE
8
Layer 1
10
37.439617
20
13.417348
11
37.295198
21
13.468009
0
LINE
8
Layer 1
10
37.295198
20
13.468009
11
36.846643
21
12.558293
0
LINE
8
Layer 1
10
36.846643
20
12.558293
11
36.558412
21
11.901042
0
LINE
8
Layer 1
10
36.558412
20
11.901042
11
36.302522
21
11.579371
0
LINE
8
Layer 1
10
36.302522
20
11.579371
11
35.951865
21
11.511685
0
LINE
8
Layer 1
10
35.951865
20
11.511685
11
35.379330
21
11.616391
0
LINE
8
Layer 1
10
35.379330
20
11.616391
11
34.260815
21
12.001437
0
LINE
8
Layer 1
10
34.260815
20
12.001437
11
34.150927
21
12.196549
0
LINE
8
Layer 1
10
34.150927
20
12.196549
11
34.333214
21
12.398925
0
LINE
8
Layer 1
10
34.333214
20
12.398925
11
35.241207
21
13.583025
0
LINE
8
Layer 1
10
35.241207
20
13.583025
11
35.688309
21
14.631733
0
LINE
8
Layer 1
10
35.688309
20
14.631733
11
35.831224
21
15.743920
0
LINE
8
Layer 1
10
35.831224
20
15.743920
11
35.670634
21
16.834578
0
LINE
8
Layer 1
10
35.670634
20
16.834578
11
35.207222
21
17.818698
0
LINE
8
Layer 1
10
35.207222
20
17.818698
11
34.531259
21
18.689147
0
LINE
8
Layer 1
10
34.531259
20
18.689147
11
33.832821
21
19.099886
0
LINE
8
Layer 1
10
33.832821
20
19.099886
11
32.804945
21
19.129152
0
LINE
8
Layer 1
10
32.804945
20
19.129152
11
31.140665
21
18.855185
0
LINE
8
Layer 1
10
31.140665
20
18.855185
11
28.527141
21
18.430977
0
LINE
8
Layer 1
10
28.527141
20
18.430977
11
28.386409
21
18.485959
0
LINE
8
Layer 1
10
28.386409
20
18.485959
11
28.385354
21
18.611477
0
LINE
8
Layer 1
10
28.385354
20
18.611477
11
28.671509
21
19.086359
0
LINE
8
Layer 1
10
28.671509
20
19.086359
11
28.932179
21
19.584657
0
LINE
8
Layer 1
10
28.932179
20
19.584657
11
28.909718
21
19.791914
0
LINE
8
Layer 1
10
28.909718
20
19.791914
11
27.643071
21
19.425515
0
LINE
8
Layer 1
10
27.643071
20
19.425515
11
26.528889
21
18.917787
0
LINE
8
Layer 1
10
26.528889
20
18.917787
11
25.890361
21
18.915317
0
LINE
8
Layer 1
10
25.890361
20
18.915317
11
24.553333
21
19.150316
0
LINE
8
Layer 1
10
24.553333
20
19.150316
11
22.378526
21
19.579093
0
LINE
8
Layer 1
10
22.378526
20
19.579093
11
22.175849
21
19.657526
0
LINE
8
Layer 1
10
22.175849
20
19.657526
11
22.166520
21
19.811452
0
LINE
8
Layer 1
10
22.166520
20
19.811452
11
22.004041
21
20.118401
0
LINE
8
Layer 1
10
22.004041
20
20.118401
11
21.433155
21
20.564740
0
LINE
8
Layer 1
10
21.433155
20
20.564740
11
20.571431
21
21.110344
0
LINE
8
Layer 1
10
20.571431
20
21.110344
11
21.900427
21
21.160613
0
LINE
8
Layer 1
10
21.900427
20
21.160613
11
23.121013
21
21.361111
0
LINE
8
Layer 1
10
23.121013
20
21.361111
11
24.173600
21
21.794416
0
LINE
8
Layer 1
10
24.173600
20
21.794416
11
25.117337
21
22.425488
0
LINE
8
Layer 1
10
25.117337
20
22.425488
11
23.013021
21
22.521525
0
LINE
8
Layer 1
10
23.013021
20
22.521525
11
21.048216
21
22.711699
0
LINE
8
Layer 1
10
21.048216
20
22.711699
11
20.370972
21
22.985588
0
LINE
8
Layer 1
10
20.370972
20
22.985588
11
19.624974
21
23.453558
0
LINE
8
Layer 1
10
19.624974
20
23.453558
11
18.596935
21
24.377724
0
LINE
8
Layer 1
10
18.596935
20
24.377724
11
17.749166
21
25.458735
0
LINE
8
Layer 1
10
17.749166
20
25.458735
11
17.353846
21
26.280064
0
LINE
8
Layer 1
10
17.353846
20
26.280064
11
17.410912
21
26.463183
0
LINE
8
Layer 1
10
17.410912
20
26.463183
11
17.683158
21
26.425184
0
LINE
8
Layer 1
10
17.683158
20
26.425184
11
19.896666
21
26.083918
0
LINE
8
Layer 1
10
19.896666
20
26.083918
11
21.590000
21
25.963276
0
LINE
8
Layer 1
10
21.590000
20
25.963276
11
20.344711
21
26.697274
0
LINE
8
Layer 1
10
20.344711
20
26.697274
11
18.719534
21
27.915818
0
LINE
8
Layer 1
10
18.719534
20
27.915818
11
18.113710
21
28.614838
0
LINE
8
Layer 1
10
18.113710
20
28.614838
11
17.635384
21
29.394137
0
LINE
8
Layer 1
10
17.635384
20
29.394137
11
17.030197
21
31.254906
0
LINE
8
Layer 1
10
17.030197
20
31.254906
11
16.841907
21
33.620803
0
LINE
8
Layer 1
10
16.841907
20
33.620803
11
17.253992
21
38.022858
0
LINE
8
Layer 1
10
17.253992
20
38.022858
11
17.624203
21
40.142005
0
LINE
8
Layer 1
10
17.624203
20
40.142005
11
17.974640
21
41.327411
0
LINE
8
Layer 1
10
17.974640
20
41.327411
11
18.224981
21
41.287624
0
LINE
8
Layer 1
10
18.224981
20
41.287624
11
18.610577
21
40.841998
0
LINE
8
Layer 1
10
18.610577
20
40.841998
11
19.006864
21
40.365284
0
LINE
8
Layer 1
10
19.006864
20
40.365284
11
19.282912
21
40.250751
0
LINE
8
Layer 1
10
19.282912
20
40.250751
11
19.378863
21
40.299665
0
LINE
8
Layer 1
10
19.378863
20
40.299665
11
19.342153
21
40.215919
0
LINE
8
Layer 1
10
19.342153
20
40.215919
11
19.312639
21
39.883380
0
LINE
8
Layer 1
10
19.312639
20
39.883380
11
19.511722
21
39.490229
0
LINE
8
Layer 1
10
19.511722
20
39.490229
11
19.821104
21
39.196313
0
LINE
8
Layer 1
10
19.821104
20
39.196313
11
20.122492
21
39.161480
0
LINE
8
Layer 1
10
20.122492
20
39.161480
11
20.300185
21
39.230837
0
LINE
8
Layer 1
10
20.300185
20
39.230837
11
20.251894
21
39.124794
0
LINE
8
Layer 1
10
20.251894
20
39.124794
11
20.190346
21
38.834611
0
LINE
8
Layer 1
10
20.190346
20
38.834611
11
20.361458
21
38.521229
0
LINE
8
Layer 1
10
20.361458
20
38.521229
11
20.654822
21
38.309478
0
LINE
8
Layer 1
10
20.654822
20
38.309478
11
20.960029
21
38.324183
0
LINE
8
Layer 1
10
20.960029
20
38.324183
11
21.114352
21
38.361874
0
LINE
8
Layer 1
10
21.114352
20
38.361874
11
21.046756
21
38.170663
0
LINE
8
Layer 1
10
21.046756
20
38.170663
11
21.100086
21
37.903317
0
LINE
8
Layer 1
10
21.100086
20
37.903317
11
21.404312
21
37.457837
0
LINE
8
Layer 1
10
21.404312
20
37.457837
11
22.478376
21
36.307025
0
LINE
8
Layer 1
10
22.478376
20
36.307025
11
23.694789
21
35.267325
0
LINE
8
Layer 1
10
23.694789
20
35.267325
11
24.479394
21
34.887840
0
LINE
8
Layer 1
10
24.479394
20
34.887840
11
24.706420
21
34.883127
0
LINE
8
Layer 1
10
24.706420
20
34.883127
11
24.761616
21
34.698003
0
LINE
8
Layer 1
10
24.761616
20
34.698003
11
25.153105
21
34.243036
0
LINE
8
Layer 1
10
25.153105
20
34.243036
11
26.188670
21
33.589547
0
LINE
8
Layer 1
10
26.188670
20
33.589547
11
28.620391
21
32.094578
0
LINE
8
Layer 1
10
28.620391
20
32.094578
11
29.275807
21
31.457179
0
LINE
8
Layer 1
10
29.275807
20
31.457179
11
29.680106
21
30.795115
0
LINE
8
Layer 1
10
29.680106
20
30.795115
11
30.257815
21
29.951914
0
LINE
8
Layer 1
10
30.257815
20
29.951914
11
30.357970
21
29.836597
0
LINE
8
Layer 1
10
30.357970
20
29.836597
11
30.311643
21
29.559346
0
LINE
8
Layer 1
10
30.311643
20
29.559346
11
30.465694
21
28.985566
0
LINE
8
Layer 1
10
30.465694
20
28.985566
11
31.066051
21
28.152817
0
LINE
8
Layer 1
10
31.066051
20
28.152817
11
31.902707
21
27.306481
0
LINE
8
Layer 1
10
31.902707
20
27.306481
11
32.765656
21
26.691943
0
LINE
8
Layer 1
10
32.765656
20
26.691943
11
33.701309
21
26.403144
0
LINE
8
Layer 1
10
33.701309
20
26.403144
11
34.840429
21
26.283025
0
LINE
8
Layer 1
10
34.840429
20
26.283025
11
35.997937
21
26.418420
0
LINE
8
Layer 1
10
35.997937
20
26.418420
11
36.740652
21
26.877062
0
LINE
8
Layer 1
10
36.740652
20
26.877062
11
37.136481
21
27.737636
0
LINE
8
Layer 1
10
37.136481
20
27.737636
11
37.253333
21
29.078826
0
LINE
8
Layer 1
10
37.253333
20
29.078826
11
37.164232
21
30.472114
0
LINE
8
Layer 1
10
37.164232
20
30.472114
11
36.986219
21
30.634106
0
LINE
8
Layer 1
10
36.986219
20
30.634106
11
36.660001
21
30.590577
0
LINE
8
Layer 1
10
36.660001
20
30.590577
11
36.163180
21
30.589135
0
LINE
8
Layer 1
10
36.163180
20
30.589135
11
35.817655
21
30.828666
0
LINE
8
Layer 1
10
35.817655
20
30.828666
11
35.601403
21
31.275690
0
LINE
8
Layer 1
10
35.601403
20
31.275690
11
35.588188
21
31.589137
0
LINE
8
Layer 1
10
35.588188
20
31.589137
11
35.769793
21
31.746051
0
LINE
8
Layer 1
10
35.769793
20
31.746051
11
36.138000
21
31.723477
0
LINE
8
Layer 1
10
36.138000
20
31.723477
11
36.745619
21
31.780514
0
LINE
8
Layer 1
10
36.745619
20
31.780514
11
37.408000
21
32.222426
0
LINE
8
Layer 1
10
37.408000
20
32.222426
11
38.062139
21
33.045021
0
LINE
8
Layer 1
10
38.062139
20
33.045021
11
37.943711
21
33.262986
0
LINE
8
Layer 1
10
37.943711
20
33.262986
11
37.535556
21
33.420355
0
LINE
8
Layer 1
10
37.535556
20
33.420355
11
37.093421
21
33.630902
0
LINE
8
Layer 1
10
37.093421
20
33.630902
11
36.991134
21
33.883719
0
LINE
8
Layer 1
10
36.991134
20
33.883719
11
37.208269
21
34.096077
0
LINE
8
Layer 1
10
37.208269
20
34.096077
11
37.724402
21
34.185248
0
LINE
8
Layer 1
10
37.724402
20
34.185248
11
38.714751
21
34.443917
0
LINE
8
Layer 1
10
38.714751
20
34.443917
11
40.037989
21
35.065823
0
LINE
8
Layer 1
10
40.037989
20
35.065823
11
41.337199
21
35.681552
0
LINE
8
Layer 1
10
41.337199
20
35.681552
11
42.025107
21
35.677165
0
LINE
8
Layer 1
10
42.025107
20
35.677165
11
42.535006
21
35.551387
0
LINE
8
Layer 1
10
42.535006
20
35.551387
11
43.197681
21
35.689421
0
LINE
8
Layer 1
10
43.197681
20
35.689421
11
43.798624
21
35.826939
0
LINE
8
Layer 1
10
43.798624
20
35.826939
11
44.336949
21
35.797453
0
LINE
8
Layer 1
10
44.336949
20
35.797453
11
44.724553
21
35.620598
0
LINE
8
Layer 1
10
44.724553
20
35.620598
11
44.873333
21
35.316008
0
LINE
8
Layer 1
10
44.873333
20
35.316008
11
44.666115
21
35.026715
0
LINE
8
Layer 1
10
44.666115
20
35.026715
11
44.167908
21
34.749740
0
LINE
8
Layer 1
10
44.167908
20
34.749740
11
43.476381
21
34.285412
0
LINE
8
Layer 1
10
43.476381
20
34.285412
11
42.905418
21
33.575824
0
LINE
8
Layer 1
10
42.905418
20
33.575824
11
42.589148
21
32.839559
0
LINE
8
Layer 1
10
42.589148
20
32.839559
11
42.661705
21
32.295197
0
LINE
8
Layer 1
10
42.661705
20
32.295197
11
43.033599
21
32.035490
0
LINE
8
Layer 1
10
43.033599
20
32.035490
11
43.499171
21
31.927470
0
LINE
8
Layer 1
10
43.499171
20
31.927470
11
43.876814
21
31.828821
0
LINE
8
Layer 1
10
43.876814
20
31.828821
11
43.678949
21
31.363025
0
LINE
8
Layer 1
10
43.678949
20
31.363025
11
43.315219
21
30.964386
0
LINE
8
Layer 1
10
43.315219
20
30.964386
11
42.935723
21
30.798581
0
LINE
8
Layer 1
10
42.935723
20
30.798581
11
42.672295
21
30.600619
0
LINE
8
Layer 1
10
42.672295
20
30.600619
11
42.721389
21
29.916636
0
LINE
8
Layer 1
10
42.721389
20
29.916636
11
42.897778
21
28.771091
0
LINE
8
Layer 1
10
42.897778
20
28.771091
11
42.993490
21
28.644076
0
LINE
8
Layer 1
10
42.993490
20
28.644076
11
43.223606
21
28.708864
0
LINE
8
Layer 1
10
43.223606
20
28.708864
11
43.408292
21
28.769156
0
LINE
8
Layer 1
10
43.408292
20
28.769156
11
43.348419
21
28.584988
0
LINE
8
Layer 1
10
43.348419
20
28.584988
11
43.349219
21
28.072506
0
LINE
8
Layer 1
10
43.349219
20
28.072506
11
43.660791
21
27.403900
0
LINE
8
Layer 1
10
43.660791
20
27.403900
11
44.111272
21
26.853977
0
LINE
8
Layer 1
10
44.111272
20
26.853977
11
44.528802
21
26.697545
0
LINE
8
Layer 1
10
44.528802
20
26.697545
11
44.743684
21
26.719341
0
LINE
8
Layer 1
10
44.743684
20
26.719341
11
44.735338
21
26.570288
0
LINE
8
Layer 1
10
44.735338
20
26.570288
11
44.715658
21
26.328104
0
LINE
8
Layer 1
10
44.715658
20
26.328104
11
44.966133
21
26.164507
0
LINE
8
Layer 1
10
44.966133
20
26.164507
11
46.041916
21
26.064710
0
LINE
8
Layer 1
10
46.041916
20
26.064710
11
47.491413
21
26.254164
0
LINE
8
Layer 1
10
47.491413
20
26.254164
11
48.843353
21
26.716138
0
LINE
8
Layer 1
10
48.843353
20
26.716138
11
49.664541
21
27.303224
0
LINE
8
Layer 1
10
49.664541
20
27.303224
11
50.491416
21
28.149596
0
LINE
8
Layer 1
10
50.491416
20
28.149596
11
51.168054
21
29.071837
0
LINE
8
Layer 1
10
51.168054
20
29.071837
11
51.538533
21
29.886535
0
LINE
8
Layer 1
10
51.538533
20
29.886535
11
51.860029
21
30.690209
0
LINE
8
Layer 1
10
51.860029
20
30.690209
11
52.377072
21
31.539860
0
LINE
8
Layer 1
10
52.377072
20
31.539860
11
52.781989
21
32.228022
0
LINE
8
Layer 1
10
52.781989
20
32.228022
11
52.833905
21
32.643439
0
LINE
8
Layer 1
10
52.833905
20
32.643439
11
52.792575
21
32.742549
0
LINE
8
Layer 1
10
52.792575
20
32.742549
11
52.973297
21
32.670222
0
LINE
8
Layer 1
10
52.973297
20
32.670222
11
53.888019
21
32.886517
0
LINE
8
Layer 1
10
53.888019
20
32.886517
11
55.611412
21
33.679539
0
LINE
8
Layer 1
10
55.611412
20
33.679539
11
57.834598
21
35.074246
0
LINE
8
Layer 1
10
57.834598
20
35.074246
11
59.868443
21
36.944280
0
LINE
8
Layer 1
10
59.868443
20
36.944280
11
61.208157
21
38.503816
0
LINE
8
Layer 1
10
61.208157
20
38.503816
11
61.631723
21
39.319990
0
LINE
8
Layer 1
10
61.631723
20
39.319990
11
61.578297
21
39.493523
0
LINE
8
Layer 1
10
61.578297
20
39.493523
11
61.751041
21
39.440736
0
LINE
8
Layer 1
10
61.751041
20
39.440736
11
62.094067
21
39.530579
0
LINE
8
Layer 1
10
62.094067
20
39.530579
11
62.481595
21
40.052687
0
LINE
8
Layer 1
10
62.481595
20
40.052687
11
63.068059
21
41.028820
0
LINE
8
Layer 1
10
63.068059
20
41.028820
11
63.290078
21
41.204297
0
LINE
8
Layer 1
10
63.290078
20
41.204297
11
63.482258
21
41.155346
0
LINE
8
Layer 1
10
63.482258
20
41.155346
11
63.830010
21
40.336057
0
LINE
8
Layer 1
10
63.830010
20
40.336057
11
64.217129
21
38.474743
0
LINE
8
Layer 1
10
64.217129
20
38.474743
11
64.643208
21
35.530429
0
LINE
8
Layer 1
10
64.643208
20
35.530429
11
64.748235
21
33.078369
0
LINE
8
Layer 1
10
64.748235
20
33.078369
11
64.531331
21
31.083524
0
LINE
8
Layer 1
10
64.531331
20
31.083524
11
63.991614
21
29.510855
0
LINE
8
Layer 1
10
63.991614
20
29.510855
11
63.449089
21
28.516066
0
LINE
8
Layer 1
10
63.449089
20
28.516066
11
62.939754
21
27.868951
0
LINE
8
Layer 1
10
62.939754
20
27.868951
11
62.241133
21
27.355824
0
LINE
8
Layer 1
10
62.241133
20
27.355824
11
61.130753
21
26.762998
0
LINE
8
Layer 1
10
61.130753
20
26.762998
11
59.749284
21
26.063623
0
LINE
8
Layer 1
10
59.749284
20
26.063623
11
60.618390
21
25.872736
0
LINE
8
Layer 1
10
60.618390
20
25.872736
11
61.548508
21
25.825757
0
LINE
8
Layer 1
10
61.548508
20
25.825757
11
62.564304
21
25.980864
0
LINE
8
Layer 1
10
62.564304
20
25.980864
11
63.576950
21
26.230830
0
LINE
8
Layer 1
10
63.576950
20
26.230830
11
64.071979
21
26.241999
0
LINE
8
Layer 1
10
64.071979
20
26.241999
11
64.115838
21
25.983930
0
LINE
8
Layer 1
10
64.115838
20
25.983930
11
63.774975
21
25.426179
0
LINE
8
Layer 1
10
63.774975
20
25.426179
11
63.105405
21
24.164349
0
LINE
8
Layer 1
10
63.105405
20
24.164349
11
62.804404
21
23.539526
0
LINE
8
Layer 1
10
62.804404
20
23.539526
11
62.693433
21
23.487896
0
LINE
8
Layer 1
10
62.693433
20
23.487896
11
62.765853
21
23.672470
0
LINE
8
Layer 1
10
62.765853
20
23.672470
11
62.863800
21
23.956505
0
LINE
8
Layer 1
10
62.863800
20
23.956505
11
62.724082
21
24.005005
0
LINE
8
Layer 1
10
62.724082
20
24.005005
11
61.936607
21
23.450307
0
LINE
8
Layer 1
10
61.936607
20
23.450307
11
61.159877
21
23.005482
0
LINE
8
Layer 1
10
61.159877
20
23.005482
11
60.028746
21
22.693785
0
LINE
8
Layer 1
10
60.028746
20
22.693785
11
58.749996
21
22.553960
0
LINE
8
Layer 1
10
58.749996
20
22.553960
11
57.530407
21
22.624748
0
LINE
8
Layer 1
10
57.530407
20
22.624748
11
56.789545
21
22.678785
0
LINE
8
Layer 1
10
56.789545
20
22.678785
11
56.625180
21
22.494663
0
LINE
8
Layer 1
10
56.625180
20
22.494663
11
56.995152
21
22.024695
0
LINE
8
Layer 1
10
56.995152
20
22.024695
11
57.646542
21
21.571472
0
LINE
8
Layer 1
10
57.646542
20
21.571472
11
58.455392
21
21.204613
0
LINE
8
Layer 1
10
58.455392
20
21.204613
11
59.297742
21
20.993732
0
LINE
8
Layer 1
10
59.297742
20
20.993732
11
60.189921
21
20.790868
0
LINE
8
Layer 1
10
60.189921
20
20.790868
11
60.179612
21
20.615046
0
LINE
8
Layer 1
10
60.179612
20
20.615046
11
59.934955
21
20.315177
0
LINE
8
Layer 1
10
59.934955
20
20.315177
11
59.246672
21
19.857312
0
LINE
8
Layer 1
10
59.246672
20
19.857312
11
58.154819
21
19.413256
0
LINE
8
Layer 1
10
58.154819
20
19.413256
11
56.944128
21
19.079228
0
LINE
8
Layer 1
10
56.944128
20
19.079228
11
55.899332
21
18.951445
0
LINE
8
Layer 1
10
55.899332
20
18.951445
11
55.035043
21
19.115755
0
LINE
8
Layer 1
10
55.035043
20
19.115755
11
53.975000
21
19.502092
0
LINE
8
Layer 1
10
53.975000
20
19.502092
11
52.953970
21
19.892043
0
LINE
8
Layer 1
10
52.953970
20
19.892043
11
52.804978
21
19.811490
0
LINE
8
Layer 1
10
52.804978
20
19.811490
11
52.775556
21
19.552339
0
LINE
8
Layer 1
10
52.775556
20
19.552339
11
52.875039
21
19.103825
0
LINE
8
Layer 1
10
52.875039
20
19.103825
11
53.114222
21
18.719470
0
LINE
8
Layer 1
10
53.114222
20
18.719470
11
53.249504
21
18.461807
0
LINE
8
Layer 1
10
53.249504
20
18.461807
11
52.895858
21
18.389996
0
LINE
8
Layer 1
10
52.895858
20
18.389996
11
50.359079
21
18.816729
0
LINE
8
Layer 1
10
50.359079
20
18.816729
11
48.441586
21
19.112533
0
LINE
8
Layer 1
10
48.441586
20
19.112533
11
47.926502
21
19.019668
0
LINE
8
Layer 1
10
47.926502
20
19.019668
11
47.415887
21
18.760753
0
LINE
8
Layer 1
10
47.415887
20
18.760753
11
46.828896
21
18.294918
0
LINE
8
Layer 1
10
46.828896
20
18.294918
11
46.383861
21
17.693838
0
LINE
8
Layer 1
10
46.383861
20
17.693838
11
46.083695
21
16.987850
0
LINE
8
Layer 1
10
46.083695
20
16.987850
11
45.931310
21
16.207293
0
LINE
8
Layer 1
10
45.931310
20
16.207293
11
45.929617
21
15.382507
0
LINE
8
Layer 1
10
45.929617
20
15.382507
11
46.081529
21
14.543829
0
LINE
8
Layer 1
10
46.081529
20
14.543829
11
46.389957
21
13.721597
0
LINE
8
Layer 1
10
46.389957
20
13.721597
11
46.857813
21
12.946151
0
LINE
8
Layer 1
10
46.857813
20
12.946151
11
47.213677
21
12.314551
0
LINE
8
Layer 1
10
47.213677
20
12.314551
11
47.204509
21
11.884380
0
LINE
8
Layer 1
10
47.204509
20
11.884380
11
46.834329
21
11.662547
0
LINE
8
Layer 1
10
46.834329
20
11.662547
11
46.107158
21
11.655961
0
LINE
8
Layer 1
10
46.107158
20
11.655961
11
45.374949
21
11.940215
0
LINE
8
Layer 1
10
45.374949
20
11.940215
11
44.830032
21
12.682954
0
LINE
8
Layer 1
10
44.830032
20
12.682954
11
44.440417
21
13.269161
0
LINE
8
Layer 1
10
44.440417
20
13.269161
11
44.171977
21
13.307596
0
LINE
8
Layer 1
10
44.171977
20
13.307596
11
44.079122
21
12.715981
0
LINE
8
Layer 1
10
44.079122
20
12.715981
11
44.180173
21
11.860765
0
LINE
8
Layer 1
10
44.180173
20
11.860765
11
44.405751
21
11.087795
0
LINE
8
Layer 1
10
44.405751
20
11.087795
11
44.686474
21
10.742913
0
LINE
8
Layer 1
10
44.686474
20
10.742913
11
44.720884
21
10.651350
0
LINE
8
Layer 1
10
44.720884
20
10.651350
11
44.343063
21
10.456328
0
LINE
8
Layer 1
10
44.343063
20
10.456328
11
43.741090
21
10.333590
0
LINE
8
Layer 1
10
43.741090
20
10.333590
11
43.280511
21
10.552350
0
LINE
8
Layer 1
10
43.280511
20
10.552350
11
42.909281
21
11.164605
0
LINE
8
Layer 1
10
42.909281
20
11.164605
11
42.575356
21
12.222353
0
LINE
8
Layer 1
10
42.575356
20
12.222353
11
42.227205
21
13.358676
0
LINE
8
Layer 1
10
42.227205
20
13.358676
11
42.119849
21
13.259432
0
LINE
8
Layer 1
10
42.119849
20
13.259432
11
41.984524
21
12.784136
0
LINE
8
Layer 1
10
41.984524
20
12.784136
11
41.901277
21
11.836196
0
LINE
8
Layer 1
10
41.901277
20
11.836196
11
42.016604
21
10.774542
0
LINE
8
Layer 1
10
42.016604
20
10.774542
11
42.138721
21
9.888969
0
LINE
8
Layer 1
10
42.138721
20
9.888969
11
41.950555
21
9.595897
0
LINE
8
Layer 1
10
41.950555
20
9.595897
11
39.877650
21
9.568220
0
LINE
8
Layer 1
10
39.877650
20
9.568220
11
39.877650
21
9.568220
0
LINE
8
Layer 1
10
26.317222
20
9.826458
11
27.305000
21
9.826458
0
LINE
8
Layer 1
10
27.305000
20
9.826458
11
27.363649
21
9.735304
0
LINE
8
Layer 1
10
27.363649
20
9.735304
11
26.811111
21
9.697390
0
LINE
8
Layer 1
10
26.811111
20
9.697390
11
26.258573
21
9.735304
0
LINE
8
Layer 1
10
26.258573
20
9.735304
11
26.317222
21
9.826458
0
LINE
8
Layer 1
10
26.317222
20
9.826458
11
26.317222
21
9.826458
0
LINE
8
Layer 1
10
29.068889
20
10.337470
11
30.480000
21
10.717860
0
LINE
8
Layer 1
10
30.480000
20
10.717860
11
30.566431
21
10.687845
0
LINE
8
Layer 1
10
30.566431
20
10.687845
11
30.488819
21
10.606120
0
LINE
8
Layer 1
10
30.488819
20
10.606120
11
29.915556
21
10.337470
0
LINE
8
Layer 1
10
29.915556
20
10.337470
11
28.504444
21
9.957079
0
LINE
8
Layer 1
10
28.504444
20
9.957079
11
28.418014
21
9.987095
0
LINE
8
Layer 1
10
28.418014
20
9.987095
11
28.495625
21
10.068819
0
LINE
8
Layer 1
10
28.495625
20
10.068819
11
29.068889
21
10.337470
0
LINE
8
Layer 1
10
29.068889
20
10.337470
11
29.068889
21
10.337470
0
LINE
8
Layer 1
10
25.980926
20
14.132859
11
27.442341
21
14.753298
0
LINE
8
Layer 1
10
27.442341
20
14.753298
11
29.006015
21
15.783044
0
LINE
8
Layer 1
10
29.006015
20
15.783044
11
29.726012
21
16.396649
0
LINE
8
Layer 1
10
29.726012
20
16.396649
11
29.768209
21
16.586678
0
LINE
8
Layer 1
10
29.768209
20
16.586678
11
28.221262
21
15.725496
0
LINE
8
Layer 1
10
28.221262
20
15.725496
11
27.006902
21
14.997431
0
LINE
8
Layer 1
10
27.006902
20
14.997431
11
25.817701
21
14.495203
0
LINE
8
Layer 1
10
25.817701
20
14.495203
11
24.678902
21
14.227163
0
LINE
8
Layer 1
10
24.678902
20
14.227163
11
23.615746
21
14.201662
0
LINE
8
Layer 1
10
23.615746
20
14.201662
11
22.986872
21
14.347236
0
LINE
8
Layer 1
10
22.986872
20
14.347236
11
22.739774
21
14.566392
0
LINE
8
Layer 1
10
22.739774
20
14.566392
11
22.894198
21
14.769215
0
LINE
8
Layer 1
10
22.894198
20
14.769215
11
23.469890
21
14.865787
0
LINE
8
Layer 1
10
23.469890
20
14.865787
11
24.427154
21
15.140156
0
LINE
8
Layer 1
10
24.427154
20
15.140156
11
25.674057
21
15.781886
0
LINE
8
Layer 1
10
25.674057
20
15.781886
11
27.886389
21
16.866370
0
LINE
8
Layer 1
10
27.886389
20
16.866370
11
28.968432
21
17.300569
0
LINE
8
Layer 1
10
28.968432
20
17.300569
11
29.316990
21
17.375087
0
LINE
8
Layer 1
10
29.316990
20
17.375087
11
29.710947
21
17.133985
0
LINE
8
Layer 1
10
29.710947
20
17.133985
11
30.079361
21
16.894931
0
LINE
8
Layer 1
10
30.079361
20
16.894931
11
30.375846
21
16.909463
0
LINE
8
Layer 1
10
30.375846
20
16.909463
11
30.266012
21
16.740019
0
LINE
8
Layer 1
10
30.266012
20
16.740019
11
29.657528
21
16.058645
0
LINE
8
Layer 1
10
29.657528
20
16.058645
11
28.750470
21
15.257838
0
LINE
8
Layer 1
10
28.750470
20
15.257838
11
27.660236
21
14.552879
0
LINE
8
Layer 1
10
27.660236
20
14.552879
11
26.593230
21
14.058518
0
LINE
8
Layer 1
10
26.593230
20
14.058518
11
25.755854
21
13.889505
0
LINE
8
Layer 1
10
25.755854
20
13.889505
11
25.577630
21
13.964708
0
LINE
8
Layer 1
10
25.577630
20
13.964708
11
25.980926
21
14.132859
0
LINE
8
Layer 1
10
25.980926
20
14.132859
11
25.980926
21
14.132859
0
LINE
8
Layer 1
10
55.194897
20
14.568173
11
53.301327
21
15.542548
0
LINE
8
Layer 1
10
53.301327
20
15.542548
11
52.293094
21
16.114051
0
LINE
8
Layer 1
10
52.293094
20
16.114051
11
52.296459
21
15.985992
0
LINE
8
Layer 1
10
52.296459
20
15.985992
11
52.617830
21
15.690717
0
LINE
8
Layer 1
10
52.617830
20
15.690717
11
52.922567
21
15.398077
0
LINE
8
Layer 1
10
52.922567
20
15.398077
11
52.885941
21
15.276359
0
LINE
8
Layer 1
10
52.885941
20
15.276359
11
52.547217
21
15.377975
0
LINE
8
Layer 1
10
52.547217
20
15.377975
11
52.269441
21
15.632515
0
LINE
8
Layer 1
10
52.269441
20
15.632515
11
52.108992
21
15.964520
0
LINE
8
Layer 1
10
52.108992
20
15.964520
11
52.122248
21
16.298528
0
LINE
8
Layer 1
10
52.122248
20
16.298528
11
52.101849
21
16.580946
0
LINE
8
Layer 1
10
52.101849
20
16.580946
11
51.801316
21
16.687470
0
LINE
8
Layer 1
10
51.801316
20
16.687470
11
51.516608
21
16.764098
0
LINE
8
Layer 1
10
51.516608
20
16.764098
11
51.492356
21
16.948333
0
LINE
8
Layer 1
10
51.492356
20
16.948333
11
51.460124
21
17.166184
0
LINE
8
Layer 1
10
51.460124
20
17.166184
11
51.156232
21
17.323638
0
LINE
8
Layer 1
10
51.156232
20
17.323638
11
51.090482
21
17.371016
0
LINE
8
Layer 1
10
51.090482
20
17.371016
11
51.279110
21
17.415413
0
LINE
8
Layer 1
10
51.279110
20
17.415413
11
52.272935
21
17.475355
0
LINE
8
Layer 1
10
52.272935
20
17.475355
11
53.481875
21
17.405198
0
LINE
8
Layer 1
10
53.481875
20
17.405198
11
54.645288
21
17.157639
0
LINE
8
Layer 1
10
54.645288
20
17.157639
11
55.669720
21
16.760226
0
LINE
8
Layer 1
10
55.669720
20
16.760226
11
56.461716
21
16.240512
0
LINE
8
Layer 1
10
56.461716
20
16.240512
11
58.366406
21
15.049125
0
LINE
8
Layer 1
10
58.366406
20
15.049125
11
59.830493
21
14.248483
0
LINE
8
Layer 1
10
59.830493
20
14.248483
11
58.066912
21
14.211379
0
LINE
8
Layer 1
10
58.066912
20
14.211379
11
56.495782
21
14.300882
0
LINE
8
Layer 1
10
56.495782
20
14.300882
11
55.194897
21
14.568173
0
LINE
8
Layer 1
10
55.194897
20
14.568173
11
55.194897
21
14.568173
0
LINE
8
Layer 1
10
57.401051
20
15.177860
11
54.828520
21
16.691481
0
LINE
8
Layer 1
10
54.828520
20
16.691481
11
53.820138
21
17.099714
0
LINE
8
Layer 1
10
53.820138
20
17.099714
11
53.086299
21
17.233034
0
LINE
8
Layer 1
10
53.086299
20
17.233034
11
52.756923
21
17.139156
0
LINE
8
Layer 1
10
52.756923
20
17.139156
11
53.574572
21
16.832713
0
LINE
8
Layer 1
10
53.574572
20
16.832713
11
55.267905
21
16.038508
0
LINE
8
Layer 1
10
55.267905
20
16.038508
11
56.818125
21
15.070636
0
LINE
8
Layer 1
10
56.818125
20
15.070636
11
58.247717
21
14.442166
0
LINE
8
Layer 1
10
58.247717
20
14.442166
11
58.102567
21
14.653130
0
LINE
8
Layer 1
10
58.102567
20
14.653130
11
57.401051
21
15.177860
0
LINE
8
Layer 1
10
57.401051
20
15.177860
11
57.401051
21
15.177860
0
LINE
8
Layer 1
10
24.743348
20
15.939984
11
26.125654
21
16.900860
0
LINE
8
Layer 1
10
26.125654
20
16.900860
11
27.145335
21
17.238774
0
LINE
8
Layer 1
10
27.145335
20
17.238774
11
27.185270
21
17.179387
0
LINE
8
Layer 1
10
27.185270
20
17.179387
11
27.019502
21
17.027404
0
LINE
8
Layer 1
10
27.019502
20
17.027404
11
26.195519
21
16.537672
0
LINE
8
Layer 1
10
26.195519
20
16.537672
11
24.697199
21
15.563034
0
LINE
8
Layer 1
10
24.697199
20
15.563034
11
24.232802
21
15.276359
0
LINE
8
Layer 1
10
24.232802
20
15.276359
11
24.264297
21
15.471298
0
LINE
8
Layer 1
10
24.264297
20
15.471298
11
24.743348
21
15.939984
0
LINE
8
Layer 1
10
24.743348
20
15.939984
11
24.743348
21
15.939984
0
LINE
8
Layer 1
10
15.356414
20
16.575704
11
14.290256
21
17.030968
0
LINE
8
Layer 1
10
14.290256
20
17.030968
11
13.165308
21
17.663750
0
LINE
8
Layer 1
10
13.165308
20
17.663750
11
12.436531
21
18.189669
0
LINE
8
Layer 1
10
12.436531
20
18.189669
11
12.362883
21
18.323685
0
LINE
8
Layer 1
10
12.362883
20
18.323685
11
12.558889
21
18.324342
0
LINE
8
Layer 1
10
12.558889
20
18.324342
11
14.957777
21
18.916588
0
LINE
8
Layer 1
10
14.957777
20
18.916588
11
16.667724
21
19.367538
0
LINE
8
Layer 1
10
16.667724
20
19.367538
11
18.044893
21
19.524135
0
LINE
8
Layer 1
10
18.044893
20
19.524135
11
19.262626
21
19.387725
0
LINE
8
Layer 1
10
19.262626
20
19.387725
11
20.494263
21
18.959658
0
LINE
8
Layer 1
10
20.494263
20
18.959658
11
21.877493
21
18.486937
0
LINE
8
Layer 1
10
21.877493
20
18.486937
11
20.702891
21
19.217440
0
LINE
8
Layer 1
10
20.702891
20
19.217440
11
19.282622
21
19.793753
0
LINE
8
Layer 1
10
19.282622
20
19.793753
11
17.962568
21
20.014065
0
LINE
8
Layer 1
10
17.962568
20
20.014065
11
16.614194
21
19.882658
0
LINE
8
Layer 1
10
16.614194
20
19.882658
11
15.108964
21
19.403814
0
LINE
8
Layer 1
10
15.108964
20
19.403814
11
12.958455
21
18.694103
0
LINE
8
Layer 1
10
12.958455
20
18.694103
11
13.191398
21
18.916609
0
LINE
8
Layer 1
10
13.191398
20
18.916609
11
14.393333
21
19.509692
0
LINE
8
Layer 1
10
14.393333
20
19.509692
11
16.143008
21
20.151961
0
LINE
8
Layer 1
10
16.143008
20
20.151961
11
17.695307
21
20.351689
0
LINE
8
Layer 1
10
17.695307
20
20.351689
11
19.219397
21
20.106367
0
LINE
8
Layer 1
10
19.219397
20
20.106367
11
20.884444
21
19.413488
0
LINE
8
Layer 1
10
20.884444
20
19.413488
11
22.180021
21
18.634014
0
LINE
8
Layer 1
10
22.180021
20
18.634014
11
22.718889
21
18.078930
0
LINE
8
Layer 1
10
22.718889
20
18.078930
11
22.295176
21
17.559086
0
LINE
8
Layer 1
10
22.295176
20
17.559086
11
21.228741
21
16.997327
0
LINE
8
Layer 1
10
21.228741
20
16.997327
11
19.826634
21
16.522579
0
LINE
8
Layer 1
10
19.826634
20
16.522579
11
18.395907
21
16.263770
0
LINE
8
Layer 1
10
18.395907
20
16.263770
11
16.836733
21
16.285964
0
LINE
8
Layer 1
10
16.836733
20
16.285964
11
15.356414
21
16.575704
0
LINE
8
Layer 1
10
15.356414
20
16.575704
11
15.356414
21
16.575704
0
LINE
8
Layer 1
10
20.820182
20
17.178771
11
21.897877
21
17.694298
0
LINE
8
Layer 1
10
21.897877
20
17.694298
11
20.447942
21
17.360756
0
LINE
8
Layer 1
10
20.447942
20
17.360756
11
19.014341
21
17.096693
0
LINE
8
Layer 1
10
19.014341
20
17.096693
11
17.343160
21
17.063029
0
LINE
8
Layer 1
10
17.343160
20
17.063029
11
15.684896
21
17.248354
0
LINE
8
Layer 1
10
15.684896
20
17.248354
11
14.290045
21
17.641257
0
LINE
8
Layer 1
10
14.290045
20
17.641257
11
13.298670
21
17.945400
0
LINE
8
Layer 1
10
13.298670
20
17.945400
11
13.899444
21
17.486726
0
LINE
8
Layer 1
10
13.899444
20
17.486726
11
14.887722
21
17.106106
0
LINE
8
Layer 1
10
14.887722
20
17.106106
11
16.207004
21
16.796119
0
LINE
8
Layer 1
10
16.207004
20
16.796119
11
17.554311
21
16.612814
0
LINE
8
Layer 1
10
17.554311
20
16.612814
11
18.626666
21
16.612238
0
LINE
8
Layer 1
10
18.626666
20
16.612238
11
20.820182
21
17.178771
0
LINE
8
Layer 1
10
20.820182
20
17.178771
11
20.820182
21
17.178771
0
LINE
8
Layer 1
10
62.117035
20
16.352289
11
61.965987
21
16.441746
0
LINE
8
Layer 1
10
61.965987
20
16.441746
11
62.157573
21
16.510691
0
LINE
8
Layer 1
10
62.157573
20
16.510691
11
63.528146
21
16.580493
0
LINE
8
Layer 1
10
63.528146
20
16.580493
11
65.480385
21
16.744480
0
LINE
8
Layer 1
10
65.480385
20
16.744480
11
67.106921
21
17.247862
0
LINE
8
Layer 1
10
67.106921
20
17.247862
11
68.460208
21
17.953636
0
LINE
8
Layer 1
10
68.460208
20
17.953636
11
66.883653
21
17.522848
0
LINE
8
Layer 1
10
66.883653
20
17.522848
11
64.717971
21
17.090353
0
LINE
8
Layer 1
10
64.717971
20
17.090353
11
62.338956
21
17.050191
0
LINE
8
Layer 1
10
62.338956
20
17.050191
11
60.349920
21
17.364496
0
LINE
8
Layer 1
10
60.349920
20
17.364496
11
59.690177
21
17.642742
0
LINE
8
Layer 1
10
59.690177
20
17.642742
11
59.354170
21
17.995406
0
LINE
8
Layer 1
10
59.354170
20
17.995406
11
59.155658
21
18.218180
0
LINE
8
Layer 1
10
59.155658
20
18.218180
11
58.884318
21
18.217142
0
LINE
8
Layer 1
10
58.884318
20
18.217142
11
58.821859
21
18.243413
0
LINE
8
Layer 1
10
58.821859
20
18.243413
11
59.125556
21
18.531848
0
LINE
8
Layer 1
10
59.125556
20
18.531848
11
60.139405
21
19.208207
0
LINE
8
Layer 1
10
60.139405
20
19.208207
11
61.389058
21
19.790075
0
LINE
8
Layer 1
10
61.389058
20
19.790075
11
62.671126
21
20.197941
0
LINE
8
Layer 1
10
62.671126
20
20.197941
11
63.782222
21
20.352295
0
LINE
8
Layer 1
10
63.782222
20
20.352295
11
65.175262
21
20.150583
0
LINE
8
Layer 1
10
65.175262
20
20.150583
11
66.745556
21
19.656194
0
LINE
8
Layer 1
10
66.745556
20
19.656194
11
68.142454
21
19.161583
0
LINE
8
Layer 1
10
68.142454
20
19.161583
11
69.123083
21
18.951948
0
LINE
8
Layer 1
10
69.123083
20
18.951948
11
69.807280
21
18.945248
0
LINE
8
Layer 1
10
69.807280
20
18.945248
11
69.157830
21
18.253939
0
LINE
8
Layer 1
10
69.157830
20
18.253939
11
68.536583
21
17.725589
0
LINE
8
Layer 1
10
68.536583
20
17.725589
11
67.743084
21
17.253731
0
LINE
8
Layer 1
10
67.743084
20
17.253731
11
65.835920
21
16.532592
0
LINE
8
Layer 1
10
65.835920
20
16.532592
11
63.829512
21
16.196713
0
LINE
8
Layer 1
10
63.829512
20
16.196713
11
62.911959
21
16.206432
0
LINE
8
Layer 1
10
62.911959
20
16.206432
11
62.117035
21
16.352289
0
LINE
8
Layer 1
10
62.117035
20
16.352289
11
62.117035
21
16.352289
0
LINE
8
Layer 1
10
68.721111
20
18.602362
11
66.112218
21
19.422291
0
LINE
8
Layer 1
10
66.112218
20
19.422291
11
64.594963
21
19.873209
0
LINE
8
Layer 1
10
64.594963
20
19.873209
11
63.352861
21
19.991949
0
LINE
8
Layer 1
10
63.352861
20
19.991949
11
62.166079
21
19.769085
0
LINE
8
Layer 1
10
62.166079
20
19.769085
11
60.814785
21
19.195195
0
LINE
8
Layer 1
10
60.814785
20
19.195195
11
59.681926
21
18.483653
0
LINE
8
Layer 1
10
59.681926
20
18.483653
11
60.988533
21
18.934035
0
LINE
8
Layer 1
10
60.988533
20
18.934035
11
62.235872
21
19.343189
0
LINE
8
Layer 1
10
62.235872
20
19.343189
11
63.570439
21
19.459997
0
LINE
8
Layer 1
10
63.570439
20
19.459997
11
65.050284
21
19.283221
0
LINE
8
Layer 1
10
65.050284
20
19.283221
11
66.733454
21
18.811624
0
LINE
8
Layer 1
10
66.733454
20
18.811624
11
68.206600
21
18.390052
0
LINE
8
Layer 1
10
68.206600
20
18.390052
11
68.991232
21
18.323097
0
LINE
8
Layer 1
10
68.991232
20
18.323097
11
69.033989
21
18.481755
0
LINE
8
Layer 1
10
69.033989
20
18.481755
11
68.721111
21
18.602362
0
LINE
8
Layer 1
10
68.721111
20
18.602362
11
68.721111
21
18.602362
0
LINE
8
Layer 1
10
60.270712
20
16.943372
11
60.324933
21
17.080714
0
LINE
8
Layer 1
10
60.324933
20
17.080714
11
60.677388
21
17.051568
0
LINE
8
Layer 1
10
60.677388
20
17.051568
11
61.222635
21
16.804896
0
LINE
8
Layer 1
10
61.222635
20
16.804896
11
60.835546
21
16.687470
0
LINE
8
Layer 1
10
60.835546
20
16.687470
11
60.270712
21
16.943372
0
LINE
8
Layer 1
10
60.270712
20
16.943372
11
60.270712
21
16.943372
0
LINE
8
Layer 1
10
27.734212
20
17.422424
11
28.275139
21
17.444703
0
LINE
8
Layer 1
10
28.275139
20
17.444703
11
28.397601
21
17.330743
0
LINE
8
Layer 1
10
28.397601
20
17.330743
11
28.104628
21
17.274196
0
LINE
8
Layer 1
10
28.104628
20
17.274196
11
27.772687
21
17.308546
0
LINE
8
Layer 1
10
27.772687
20
17.308546
11
27.734212
21
17.422424
0
LINE
8
Layer 1
10
27.734212
20
17.422424
11
27.734212
21
17.422424
0
LINE
8
Layer 1
10
68.862222
20
22.112306
11
66.395332
21
22.454352
0
LINE
8
Layer 1
10
66.395332
20
22.454352
11
68.673712
21
22.420953
0
LINE
8
Layer 1
10
68.673712
20
22.420953
11
71.009075
21
22.389449
0
LINE
8
Layer 1
10
71.009075
20
22.389449
11
71.821509
21
22.546834
0
LINE
8
Layer 1
10
71.821509
20
22.546834
11
72.483170
21
22.881862
0
LINE
8
Layer 1
10
72.483170
20
22.881862
11
73.058603
21
23.441194
0
LINE
8
Layer 1
10
73.058603
20
23.441194
11
73.612354
21
24.271494
0
LINE
8
Layer 1
10
73.612354
20
24.271494
11
74.912985
21
26.931645
0
LINE
8
Layer 1
10
74.912985
20
26.931645
11
75.544516
21
28.502070
0
LINE
8
Layer 1
10
75.544516
20
28.502070
11
75.600173
21
28.855143
0
LINE
8
Layer 1
10
75.600173
20
28.855143
11
75.482537
21
28.920516
0
LINE
8
Layer 1
10
75.482537
20
28.920516
11
75.229145
21
28.753440
0
LINE
8
Layer 1
10
75.229145
20
28.753440
11
75.193121
21
28.571706
0
LINE
8
Layer 1
10
75.193121
20
28.571706
11
75.214701
21
28.439140
0
LINE
8
Layer 1
10
75.214701
20
28.439140
11
74.810754
21
28.337605
0
LINE
8
Layer 1
10
74.810754
20
28.337605
11
71.148437
21
28.007550
0
LINE
8
Layer 1
10
71.148437
20
28.007550
11
68.282047
21
27.652169
0
LINE
8
Layer 1
10
68.282047
20
27.652169
11
67.503009
21
27.374207
0
LINE
8
Layer 1
10
67.503009
20
27.374207
11
66.803281
21
26.941893
0
LINE
8
Layer 1
10
66.803281
20
26.941893
11
65.762018
21
25.941669
0
LINE
8
Layer 1
10
65.762018
20
25.941669
11
64.842604
21
24.660248
0
LINE
8
Layer 1
10
64.842604
20
24.660248
11
64.160306
21
23.222006
0
LINE
8
Layer 1
10
64.160306
20
23.222006
11
65.053870
21
24.426901
0
LINE
8
Layer 1
10
65.053870
20
24.426901
11
66.026281
21
25.603809
0
LINE
8
Layer 1
10
66.026281
20
25.603809
11
67.294192
21
26.461332
0
LINE
8
Layer 1
10
67.294192
20
26.461332
11
68.945619
21
27.042855
0
LINE
8
Layer 1
10
68.945619
20
27.042855
11
71.068582
21
27.391766
0
LINE
8
Layer 1
10
71.068582
20
27.391766
11
73.053009
21
27.673835
0
LINE
8
Layer 1
10
73.053009
20
27.673835
11
74.231929
21
27.980366
0
LINE
8
Layer 1
10
74.231929
20
27.980366
11
74.704847
21
28.163730
0
LINE
8
Layer 1
10
74.704847
20
28.163730
11
74.991863
21
28.149683
0
LINE
8
Layer 1
10
74.991863
20
28.149683
11
74.881021
21
27.513500
0
LINE
8
Layer 1
10
74.881021
20
27.513500
11
74.302766
21
26.298830
0
LINE
8
Layer 1
10
74.302766
20
26.298830
11
73.492781
21
24.942206
0
LINE
8
Layer 1
10
73.492781
20
24.942206
11
72.686751
21
23.880160
0
LINE
8
Layer 1
10
72.686751
20
23.880160
11
71.758909
21
22.896359
0
LINE
8
Layer 1
10
71.758909
20
22.896359
11
68.687786
21
22.892506
0
LINE
8
Layer 1
10
68.687786
20
22.892506
11
64.911111
21
22.691669
0
LINE
8
Layer 1
10
64.911111
20
22.691669
11
64.205556
21
22.494686
0
LINE
8
Layer 1
10
64.205556
20
22.494686
11
65.052222
21
22.305580
0
LINE
8
Layer 1
10
65.052222
20
22.305580
11
65.898889
21
22.116474
0
LINE
8
Layer 1
10
65.898889
20
22.116474
11
65.014568
21
22.083082
0
LINE
8
Layer 1
10
65.014568
20
22.083082
11
64.275942
21
22.187874
0
LINE
8
Layer 1
10
64.275942
20
22.187874
11
63.999926
21
22.731417
0
LINE
8
Layer 1
10
63.999926
20
22.731417
11
64.009706
21
23.440304
0
LINE
8
Layer 1
10
64.009706
20
23.440304
11
64.259008
21
24.298627
0
LINE
8
Layer 1
10
64.259008
20
24.298627
11
64.725082
21
25.248869
0
LINE
8
Layer 1
10
64.725082
20
25.248869
11
65.385177
21
26.233515
0
LINE
8
Layer 1
10
65.385177
20
26.233515
11
66.303521
21
27.139649
0
LINE
8
Layer 1
10
66.303521
20
27.139649
11
67.507572
21
27.783386
0
LINE
8
Layer 1
10
67.507572
20
27.783386
11
69.063784
21
28.190013
0
LINE
8
Layer 1
10
69.063784
20
28.190013
11
71.038610
21
28.384819
0
LINE
8
Layer 1
10
71.038610
20
28.384819
11
73.973394
21
28.517517
0
LINE
8
Layer 1
10
73.973394
20
28.517517
11
75.422464
21
29.215732
0
LINE
8
Layer 1
10
75.422464
20
29.215732
11
76.263904
21
29.724030
0
LINE
8
Layer 1
10
76.263904
20
29.724030
11
76.322082
21
29.620245
0
LINE
8
Layer 1
10
76.322082
20
29.620245
11
76.235986
21
29.286287
0
LINE
8
Layer 1
10
76.235986
20
29.286287
11
74.773504
21
25.465386
0
LINE
8
Layer 1
10
74.773504
20
25.465386
11
73.974019
21
23.850716
0
LINE
8
Layer 1
10
73.974019
20
23.850716
11
73.342858
21
22.904859
0
LINE
8
Layer 1
10
73.342858
20
22.904859
11
72.638977
21
22.344634
0
LINE
8
Layer 1
10
72.638977
20
22.344634
11
71.798257
21
22.050685
0
LINE
8
Layer 1
10
71.798257
20
22.050685
11
70.609679
21
21.985684
0
LINE
8
Layer 1
10
70.609679
20
21.985684
11
68.862222
21
22.112306
0
LINE
8
Layer 1
10
68.862222
20
22.112306
11
68.862222
21
22.112306
0
LINE
8
Layer 1
10
8.406796
20
22.704673
11
7.657978
21
23.791999
0
LINE
8
Layer 1
10
7.657978
20
23.791999
11
6.816409
21
25.517642
0
LINE
8
Layer 1
10
6.816409
20
25.517642
11
6.153537
21
27.370297
0
LINE
8
Layer 1
10
6.153537
20
27.370297
11
6.102613
21
27.886810
0
LINE
8
Layer 1
10
6.102613
20
27.886810
11
6.209879
21
28.260432
0
LINE
8
Layer 1
10
6.209879
20
28.260432
11
6.352701
21
28.666738
0
LINE
8
Layer 1
10
6.352701
20
28.666738
11
6.242338
21
28.823025
0
LINE
8
Layer 1
10
6.242338
20
28.823025
11
5.858637
21
28.477825
0
LINE
8
Layer 1
10
5.858637
20
28.477825
11
5.687252
21
28.492543
0
LINE
8
Layer 1
10
5.687252
20
28.492543
11
5.436782
21
29.012679
0
LINE
8
Layer 1
10
5.436782
20
29.012679
11
5.129993
21
29.892732
0
LINE
8
Layer 1
10
5.129993
20
29.892732
11
6.053195
21
29.287323
0
LINE
8
Layer 1
10
6.053195
20
29.287323
11
6.631579
21
28.811955
0
LINE
8
Layer 1
10
6.631579
20
28.811955
11
6.725748
21
28.519196
0
LINE
8
Layer 1
10
6.725748
20
28.519196
11
6.654097
21
28.404438
0
LINE
8
Layer 1
10
6.654097
20
28.404438
11
6.745367
21
28.272990
0
LINE
8
Layer 1
10
6.745367
20
28.272990
11
7.332149
21
27.989380
0
LINE
8
Layer 1
10
7.332149
20
27.989380
11
9.531051
21
27.544801
0
LINE
8
Layer 1
10
9.531051
20
27.544801
11
12.288229
21
27.135894
0
LINE
8
Layer 1
10
12.288229
20
27.135894
11
14.267786
21
26.439817
0
LINE
8
Layer 1
10
14.267786
20
26.439817
11
15.048722
21
25.940403
0
LINE
8
Layer 1
10
15.048722
20
25.940403
11
15.734572
21
25.316773
0
LINE
8
Layer 1
10
15.734572
20
25.316773
11
16.953436
21
23.626964
0
LINE
8
Layer 1
10
16.953436
20
23.626964
11
17.600063
21
22.523123
0
LINE
8
Layer 1
10
17.600063
20
22.523123
11
16.666975
21
22.709742
0
LINE
8
Layer 1
10
16.666975
20
22.709742
11
12.768602
21
22.896359
0
LINE
8
Layer 1
10
12.768602
20
22.896359
11
9.803316
21
22.896359
0
LINE
8
Layer 1
10
9.803316
20
22.896359
11
8.840616
21
23.917117
0
LINE
8
Layer 1
10
8.840616
20
23.917117
11
7.919561
21
25.105030
0
LINE
8
Layer 1
10
7.919561
20
25.105030
11
7.056978
21
26.527673
0
LINE
8
Layer 1
10
7.056978
20
26.527673
11
6.422058
21
27.671851
0
LINE
8
Layer 1
10
6.422058
20
27.671851
11
6.278336
21
27.859057
0
LINE
8
Layer 1
10
6.278336
20
27.859057
11
6.247456
21
27.809328
0
LINE
8
Layer 1
10
6.247456
20
27.809328
11
7.207583
21
25.535882
0
LINE
8
Layer 1
10
7.207583
20
25.535882
11
8.140049
21
23.810809
0
LINE
8
Layer 1
10
8.140049
20
23.810809
11
8.609212
21
23.268989
0
LINE
8
Layer 1
10
8.609212
20
23.268989
11
9.172268
21
22.897919
0
LINE
8
Layer 1
10
9.172268
20
22.897919
11
9.898175
21
22.665304
0
LINE
8
Layer 1
10
9.898175
20
22.665304
11
10.855887
21
22.538848
0
LINE
8
Layer 1
10
10.855887
20
22.538848
11
13.742551
21
22.475232
0
LINE
8
Layer 1
10
13.742551
20
22.475232
11
17.777352
21
22.614136
0
LINE
8
Layer 1
10
17.777352
20
22.614136
11
17.483484
21
23.301366
0
LINE
8
Layer 1
10
17.483484
20
23.301366
11
16.789936
21
24.437958
0
LINE
8
Layer 1
10
16.789936
20
24.437958
11
15.258093
21
26.452776
0
LINE
8
Layer 1
10
15.258093
20
26.452776
11
14.359470
21
27.152546
0
LINE
8
Layer 1
10
14.359470
20
27.152546
11
13.343468
21
27.612224
0
LINE
8
Layer 1
10
13.343468
20
27.612224
11
12.080810
21
27.872665
0
LINE
8
Layer 1
10
12.080810
20
27.872665
11
10.442222
21
27.974725
0
LINE
8
Layer 1
10
10.442222
20
27.974725
11
7.761111
21
28.245681
0
LINE
8
Layer 1
10
7.761111
20
28.245681
11
7.772066
21
28.327934
0
LINE
8
Layer 1
10
7.772066
20
28.327934
11
8.236711
21
28.377596
0
LINE
8
Layer 1
10
8.236711
20
28.377596
11
10.244621
21
28.365518
0
LINE
8
Layer 1
10
10.244621
20
28.365518
11
12.465732
21
28.195169
0
LINE
8
Layer 1
10
12.465732
20
28.195169
11
14.070916
21
27.824798
0
LINE
8
Layer 1
10
14.070916
20
27.824798
11
15.251105
21
27.185169
0
LINE
8
Layer 1
10
15.251105
20
27.185169
11
16.197233
21
26.207048
0
LINE
8
Layer 1
10
16.197233
20
26.207048
11
17.392613
21
24.179452
0
LINE
8
Layer 1
10
17.392613
20
24.179452
11
18.056024
21
22.463540
0
LINE
8
Layer 1
10
18.056024
20
22.463540
11
16.894633
21
22.234661
0
LINE
8
Layer 1
10
16.894633
20
22.234661
11
13.575893
21
22.121870
0
LINE
8
Layer 1
10
13.575893
20
22.121870
11
9.626854
21
22.168350
0
LINE
8
Layer 1
10
9.626854
20
22.168350
11
8.886485
21
22.351517
0
LINE
8
Layer 1
10
8.886485
20
22.351517
11
8.406796
21
22.704673
0
LINE
8
Layer 1
10
8.406796
20
22.704673
11
8.406796
21
22.704673
0
LINE
8
Layer 1
10
13.687777
20
30.451987
11
9.376523
21
32.456727
0
LINE
8
Layer 1
10
9.376523
20
32.456727
11
7.803313
21
33.186016
0
LINE
8
Layer 1
10
7.803313
20
33.186016
11
6.542947
21
33.935361
0
LINE
8
Layer 1
10
6.542947
20
33.935361
11
5.557163
21
34.768719
0
LINE
8
Layer 1
10
5.557163
20
34.768719
11
4.807704
21
35.750047
0
LINE
8
Layer 1
10
4.807704
20
35.750047
11
4.256310
21
36.943301
0
LINE
8
Layer 1
10
4.256310
20
36.943301
11
3.864721
21
38.412437
0
LINE
8
Layer 1
10
3.864721
20
38.412437
11
3.407923
21
42.434183
0
LINE
8
Layer 1
10
3.407923
20
42.434183
11
3.263623
21
45.993612
0
LINE
8
Layer 1
10
3.263623
20
45.993612
11
4.564659
21
44.975182
0
LINE
8
Layer 1
10
4.564659
20
44.975182
11
5.863449
21
43.890792
0
LINE
8
Layer 1
10
5.863449
20
43.890792
11
7.150242
21
43.042123
0
LINE
8
Layer 1
10
7.150242
20
43.042123
11
8.522265
21
42.373698
0
LINE
8
Layer 1
10
8.522265
20
42.373698
11
10.076744
21
41.830041
0
LINE
8
Layer 1
10
10.076744
20
41.830041
11
11.560323
21
41.310205
0
LINE
8
Layer 1
10
11.560323
20
41.310205
11
12.670364
21
40.708935
0
LINE
8
Layer 1
10
12.670364
20
40.708935
11
13.545209
21
39.930036
0
LINE
8
Layer 1
10
13.545209
20
39.930036
11
14.323198
21
38.877313
0
LINE
8
Layer 1
10
14.323198
20
38.877313
11
14.710013
21
38.169381
0
LINE
8
Layer 1
10
14.710013
20
38.169381
11
14.964082
21
37.384194
0
LINE
8
Layer 1
10
14.964082
20
37.384194
11
15.263619
21
34.749692
0
LINE
8
Layer 1
10
15.263619
20
34.749692
11
15.666040
21
30.728025
0
LINE
8
Layer 1
10
15.666040
20
30.728025
11
15.736274
21
29.983658
0
LINE
8
Layer 1
10
15.736274
20
29.983658
11
15.502229
21
29.699611
0
LINE
8
Layer 1
10
15.502229
20
29.699611
11
14.855523
21
29.860761
0
LINE
8
Layer 1
10
14.855523
20
29.860761
11
13.687777
21
30.451987
0
LINE
8
Layer 1
10
13.687777
20
30.451987
11
13.687777
21
30.451987
0
LINE
8
Layer 1
10
15.253363
20
30.491390
11
14.969110
21
31.787974
0
LINE
8
Layer 1
10
14.969110
20
31.787974
11
14.691128
21
34.147729
0
LINE
8
Layer 1
10
14.691128
20
34.147729
11
14.381686
21
36.563084
0
LINE
8
Layer 1
10
14.381686
20
36.563084
11
13.886775
21
38.258050
0
LINE
8
Layer 1
10
13.886775
20
38.258050
11
13.105766
21
39.461195
0
LINE
8
Layer 1
10
13.105766
20
39.461195
11
11.938031
21
40.401088
0
LINE
8
Layer 1
10
11.938031
20
40.401088
11
9.622863
21
41.553604
0
LINE
8
Layer 1
10
9.622863
20
41.553604
11
7.210990
21
42.606299
0
LINE
8
Layer 1
10
7.210990
20
42.606299
11
4.962576
21
44.166474
0
LINE
8
Layer 1
10
4.962576
20
44.166474
11
3.575148
21
45.322958
0
LINE
8
Layer 1
10
3.575148
20
45.322958
11
3.751046
21
42.645175
0
LINE
8
Layer 1
10
3.751046
20
42.645175
11
4.025153
21
40.247128
0
LINE
8
Layer 1
10
4.025153
20
40.247128
11
4.505319
21
38.172796
0
LINE
8
Layer 1
10
4.505319
20
38.172796
11
5.180366
21
36.458832
0
LINE
8
Layer 1
10
5.180366
20
36.458832
11
6.039118
21
35.141891
0
LINE
8
Layer 1
10
6.039118
20
35.141891
11
6.666353
21
34.520971
0
LINE
8
Layer 1
10
6.666353
20
34.520971
11
7.498623
21
33.938068
0
LINE
8
Layer 1
10
7.498623
20
33.938068
11
10.349814
21
32.541537
0
LINE
8
Layer 1
10
10.349814
20
32.541537
11
14.534444
21
30.516618
0
LINE
8
Layer 1
10
14.534444
20
30.516618
11
15.419870
21
29.993780
0
LINE
8
Layer 1
10
15.419870
20
29.993780
11
15.253363
21
30.491390
0
LINE
8
Layer 1
10
15.253363
20
30.491390
11
15.253363
21
30.491390
0
LINE
8
Layer 1
10
14.087034
20
31.250927
11
12.881475
21
32.028289
0
LINE
8
Layer 1
10
12.881475
20
32.028289
11
10.526076
21
33.242905
0
LINE
8
Layer 1
10
10.526076
20
33.242905
11
8.504170
21
34.282759
0
LINE
8
Layer 1
10
8.504170
20
34.282759
11
7.176921
21
35.202126
0
LINE
8
Layer 1
10
7.176921
20
35.202126
11
6.249591
21
36.259413
0
LINE
8
Layer 1
10
6.249591
20
36.259413
11
5.427441
21
37.713025
0
LINE
8
Layer 1
10
5.427441
20
37.713025
11
4.955853
21
38.994016
0
LINE
8
Layer 1
10
4.955853
20
38.994016
11
4.475133
21
40.793033
0
LINE
8
Layer 1
10
4.475133
20
40.793033
11
4.101484
21
42.617271
0
LINE
8
Layer 1
10
4.101484
20
42.617271
11
3.951111
21
43.973925
0
LINE
8
Layer 1
10
3.951111
20
43.973925
11
3.983397
21
44.337113
0
LINE
8
Layer 1
10
3.983397
20
44.337113
11
4.162341
21
44.392580
0
LINE
8
Layer 1
10
4.162341
20
44.392580
11
5.452708
21
43.388260
0
LINE
8
Layer 1
10
5.452708
20
43.388260
11
7.129127
21
42.222771
0
LINE
8
Layer 1
10
7.129127
20
42.222771
11
9.051041
21
41.222089
0
LINE
8
Layer 1
10
9.051041
20
41.222089
11
11.203914
21
40.111007
0
LINE
8
Layer 1
10
11.203914
20
40.111007
11
11.987091
21
39.489345
0
LINE
8
Layer 1
10
11.987091
20
39.489345
11
12.607850
21
38.777154
0
LINE
8
Layer 1
10
12.607850
20
38.777154
11
13.091005
21
37.939597
0
LINE
8
Layer 1
10
13.091005
20
37.939597
11
13.461372
21
36.941837
0
LINE
8
Layer 1
10
13.461372
20
36.941837
11
13.962998
21
34.326359
0
LINE
8
Layer 1
10
13.962998
20
34.326359
11
14.436634
21
31.979116
0
LINE
8
Layer 1
10
14.436634
20
31.979116
11
14.596815
21
30.957848
0
LINE
8
Layer 1
10
14.596815
20
30.957848
11
14.421813
21
30.932061
0
LINE
8
Layer 1
10
14.421813
20
30.932061
11
14.087034
21
31.250927
0
LINE
8
Layer 1
10
14.087034
20
31.250927
11
14.087034
21
31.250927
0
LINE
8
Layer 1
10
65.863764
20
30.304692
11
66.203963
21
33.761914
0
LINE
8
Layer 1
10
66.203963
20
33.761914
11
66.441735
21
36.134437
0
LINE
8
Layer 1
10
66.441735
20
36.134437
11
66.776947
21
37.875467
0
LINE
8
Layer 1
10
66.776947
20
37.875467
11
67.471953
21
39.271210
0
LINE
8
Layer 1
10
67.471953
20
39.271210
11
68.576867
21
40.461027
0
LINE
8
Layer 1
10
68.576867
20
40.461027
11
70.008695
21
41.376053
0
LINE
8
Layer 1
10
70.008695
20
41.376053
11
71.684444
21
41.947425
0
LINE
8
Layer 1
10
71.684444
20
41.947425
11
72.889235
21
42.302347
0
LINE
8
Layer 1
10
72.889235
20
42.302347
11
74.100938
21
42.860430
0
LINE
8
Layer 1
10
74.100938
20
42.860430
11
75.340020
21
43.632787
0
LINE
8
Layer 1
10
75.340020
20
43.632787
11
76.626949
21
44.630526
0
LINE
8
Layer 1
10
76.626949
20
44.630526
11
78.327659
21
45.962847
0
LINE
8
Layer 1
10
78.327659
20
45.962847
11
78.150788
21
42.369692
0
LINE
8
Layer 1
10
78.150788
20
42.369692
11
77.706830
21
38.447509
0
LINE
8
Layer 1
10
77.706830
20
38.447509
11
77.328980
21
36.998872
0
LINE
8
Layer 1
10
77.328980
20
36.998872
11
76.804429
21
35.816825
0
LINE
8
Layer 1
10
76.804429
20
35.816825
11
76.101090
21
34.845081
0
LINE
8
Layer 1
10
76.101090
20
34.845081
11
75.186872
21
34.027353
0
LINE
8
Layer 1
10
75.186872
20
34.027353
11
74.029686
21
33.307357
0
LINE
8
Layer 1
10
74.029686
20
33.307357
11
72.597445
21
32.628806
0
LINE
8
Layer 1
10
72.597445
20
32.628806
11
68.234266
21
30.621574
0
LINE
8
Layer 1
10
68.234266
20
30.621574
11
66.117314
21
29.717288
0
LINE
8
Layer 1
10
66.117314
20
29.717288
11
65.819360
21
29.832783
0
LINE
8
Layer 1
10
65.819360
20
29.832783
11
65.863764
21
30.304692
0
LINE
8
Layer 1
10
65.863764
20
30.304692
11
65.863764
21
30.304692
0
LINE
8
Layer 1
10
66.838006
20
30.316613
11
68.918672
21
31.466728
0
LINE
8
Layer 1
10
68.918672
20
31.466728
11
71.887243
21
32.823765
0
LINE
8
Layer 1
10
71.887243
20
32.823765
11
73.820428
21
33.848456
0
LINE
8
Layer 1
10
73.820428
20
33.848456
11
75.024335
21
34.726459
0
LINE
8
Layer 1
10
75.024335
20
34.726459
11
75.805072
21
35.643433
0
LINE
8
Layer 1
10
75.805072
20
35.643433
11
76.513518
21
36.972960
0
LINE
8
Layer 1
10
76.513518
20
36.972960
11
77.082083
21
38.641229
0
LINE
8
Layer 1
10
77.082083
20
38.641229
11
77.507550
21
40.636378
0
LINE
8
Layer 1
10
77.507550
20
40.636378
11
77.786698
21
42.946543
0
LINE
8
Layer 1
10
77.786698
20
42.946543
11
77.985191
21
45.333025
0
LINE
8
Layer 1
10
77.985191
20
45.333025
11
76.682281
21
44.266465
0
LINE
8
Layer 1
10
76.682281
20
44.266465
11
73.936762
21
42.456091
0
LINE
8
Layer 1
10
73.936762
20
42.456091
11
72.445240
21
41.712761
0
LINE
8
Layer 1
10
72.445240
20
41.712761
11
71.101317
21
41.201862
0
LINE
8
Layer 1
10
71.101317
20
41.201862
11
69.983813
21
40.683230
0
LINE
8
Layer 1
10
69.983813
20
40.683230
11
68.862067
21
39.905198
0
LINE
8
Layer 1
10
68.862067
20
39.905198
11
68.021520
21
38.971465
0
LINE
8
Layer 1
10
68.021520
20
38.971465
11
67.422859
21
37.745346
0
LINE
8
Layer 1
10
67.422859
20
37.745346
11
67.013334
21
36.075302
0
LINE
8
Layer 1
10
67.013334
20
36.075302
11
66.740191
21
33.809793
0
LINE
8
Layer 1
10
66.740191
20
33.809793
11
66.315720
21
30.775904
0
LINE
8
Layer 1
10
66.315720
20
30.775904
11
66.220353
21
30.253109
0
LINE
8
Layer 1
10
66.220353
20
30.253109
11
66.290192
21
29.989473
0
LINE
8
Layer 1
10
66.290192
20
29.989473
11
66.503367
21
30.004230
0
LINE
8
Layer 1
10
66.503367
20
30.004230
11
66.838006
21
30.316613
0
LINE
8
Layer 1
10
66.838006
20
30.316613
11
66.838006
21
30.316613
0
LINE
8
Layer 1
10
66.604444
20
30.939029
11
66.871446
21
31.616805
0
LINE
8
Layer 1
10
66.871446
20
31.616805
11
67.555437
21
34.706213
0
LINE
8
Layer 1
10
67.555437
20
34.706213
11
68.028466
21
37.127704
0
LINE
8
Layer 1
10
68.028466
20
37.127704
11
68.314990
21
37.972979
0
LINE
8
Layer 1
10
68.314990
20
37.972979
11
68.688393
21
38.650934
0
LINE
8
Layer 1
10
68.688393
20
38.650934
11
69.188826
21
39.218816
0
LINE
8
Layer 1
10
69.188826
20
39.218816
11
69.856442
21
39.733872
0
LINE
8
Layer 1
10
69.856442
20
39.733872
11
71.853837
21
40.834491
0
LINE
8
Layer 1
10
71.853837
20
40.834491
11
74.240299
21
42.148994
0
LINE
8
Layer 1
10
74.240299
20
42.148994
11
75.975125
21
43.303935
0
LINE
8
Layer 1
10
75.975125
20
43.303935
11
77.410767
21
44.345248
0
LINE
8
Layer 1
10
77.410767
20
44.345248
11
77.490724
21
43.656035
0
LINE
8
Layer 1
10
77.490724
20
43.656035
11
77.239357
21
41.983439
0
LINE
8
Layer 1
10
77.239357
20
41.983439
11
76.770845
21
39.920017
0
LINE
8
Layer 1
10
76.770845
20
39.920017
11
76.199365
21
38.058330
0
LINE
8
Layer 1
10
76.199365
20
38.058330
11
75.470894
21
36.596901
0
LINE
8
Layer 1
10
75.470894
20
36.596901
11
74.416787
21
35.363314
0
LINE
8
Layer 1
10
74.416787
20
35.363314
11
72.928338
21
34.257551
0
LINE
8
Layer 1
10
72.928338
20
34.257551
11
70.896838
21
33.179594
0
LINE
8
Layer 1
10
70.896838
20
33.179594
11
67.439616
21
31.354841
0
LINE
8
Layer 1
10
67.439616
20
31.354841
11
66.604444
21
30.939029
0
LINE
8
Layer 1
10
66.604444
20
30.939029
11
66.604444
21
30.939029
0
LINE
8
Layer 1
10
29.739328
20
33.700706
11
25.964444
21
36.457921
0
LINE
8
Layer 1
10
25.964444
20
36.457921
11
23.263354
21
38.479736
0
LINE
8
Layer 1
10
23.263354
20
38.479736
11
21.319271
21
40.219750
0
LINE
8
Layer 1
10
21.319271
20
40.219750
11
20.047413
21
41.764558
0
LINE
8
Layer 1
10
20.047413
20
41.764558
11
19.363001
21
43.200757
0
LINE
8
Layer 1
10
19.363001
20
43.200757
11
19.070610
21
44.871269
0
LINE
8
Layer 1
10
19.070610
20
44.871269
11
19.181118
21
46.613678
0
LINE
8
Layer 1
10
19.181118
20
46.613678
11
19.703917
21
48.481515
0
LINE
8
Layer 1
10
19.703917
20
48.481515
11
20.648396
21
50.528310
0
LINE
8
Layer 1
10
20.648396
20
50.528310
11
22.064870
21
52.807954
0
LINE
8
Layer 1
10
22.064870
20
52.807954
11
22.432295
21
52.261246
0
LINE
8
Layer 1
10
22.432295
20
52.261246
11
23.055164
21
51.059212
0
LINE
8
Layer 1
10
23.055164
20
51.059212
11
24.255229
21
49.207060
0
LINE
8
Layer 1
10
24.255229
20
49.207060
11
27.134306
21
45.384421
0
LINE
8
Layer 1
10
27.134306
20
45.384421
11
28.342386
21
43.920351
0
LINE
8
Layer 1
10
28.342386
20
43.920351
11
29.122953
21
42.743322
0
LINE
8
Layer 1
10
29.122953
20
42.743322
11
29.669838
21
41.499908
0
LINE
8
Layer 1
10
29.669838
20
41.499908
11
30.176871
21
39.836680
0
LINE
8
Layer 1
10
30.176871
20
39.836680
11
30.523264
21
38.060456
0
LINE
8
Layer 1
10
30.523264
20
38.060456
11
30.757493
21
35.938646
0
LINE
8
Layer 1
10
30.757493
20
35.938646
11
30.830683
21
34.100745
0
LINE
8
Layer 1
10
30.830683
20
34.100745
11
30.693964
21
33.176247
0
LINE
8
Layer 1
10
30.693964
20
33.176247
11
30.354516
21
33.271283
0
LINE
8
Layer 1
10
30.354516
20
33.271283
11
29.739328
21
33.700706
0
LINE
8
Layer 1
10
29.739328
20
33.700706
11
29.739328
21
33.700706
0
LINE
8
Layer 1
10
30.438429
20
34.855305
11
30.363574
21
36.354214
0
LINE
8
Layer 1
10
30.363574
20
36.354214
11
30.053259
21
38.179474
0
LINE
8
Layer 1
10
30.053259
20
38.179474
11
29.571015
21
40.035959
0
LINE
8
Layer 1
10
29.571015
20
40.035959
11
28.980376
21
41.628543
0
LINE
8
Layer 1
10
28.980376
20
41.628543
11
28.232112
21
42.994285
0
LINE
8
Layer 1
10
28.232112
20
42.994285
11
27.395005
21
44.135086
0
LINE
8
Layer 1
10
27.395005
20
44.135086
11
26.643490
21
44.847458
0
LINE
8
Layer 1
10
26.643490
20
44.847458
11
26.354341
21
44.979395
0
LINE
8
Layer 1
10
26.354341
20
44.979395
11
26.152003
21
44.927918
0
LINE
8
Layer 1
10
26.152003
20
44.927918
11
26.066170
21
44.551675
0
LINE
8
Layer 1
10
26.066170
20
44.551675
11
26.426174
21
43.996206
0
LINE
8
Layer 1
10
26.426174
20
43.996206
11
27.975747
21
41.738893
0
LINE
8
Layer 1
10
27.975747
20
41.738893
11
29.155661
21
39.265248
0
LINE
8
Layer 1
10
29.155661
20
39.265248
11
29.910265
21
36.278530
0
LINE
8
Layer 1
10
29.910265
20
36.278530
11
30.152046
21
34.327665
0
LINE
8
Layer 1
10
30.152046
20
34.327665
11
29.337519
21
34.843187
0
LINE
8
Layer 1
10
29.337519
20
34.843187
11
26.952222
21
36.842124
0
LINE
8
Layer 1
10
26.952222
20
36.842124
11
23.192846
21
40.190478
0
LINE
8
Layer 1
10
23.192846
20
40.190478
11
21.894755
21
41.611735
0
LINE
8
Layer 1
10
21.894755
20
41.611735
11
21.117845
21
42.729714
0
LINE
8
Layer 1
10
21.117845
20
42.729714
11
20.646288
21
44.115203
0
LINE
8
Layer 1
10
20.646288
20
44.115203
11
20.492613
21
45.770573
0
LINE
8
Layer 1
10
20.492613
20
45.770573
11
20.656529
21
47.597541
0
LINE
8
Layer 1
10
20.656529
20
47.597541
11
21.137747
21
49.497824
0
LINE
8
Layer 1
10
21.137747
20
49.497824
11
21.666207
21
50.797718
0
LINE
8
Layer 1
10
21.666207
20
50.797718
11
22.037014
21
51.245056
0
LINE
8
Layer 1
10
22.037014
20
51.245056
11
22.299131
21
50.749146
0
LINE
8
Layer 1
10
22.299131
20
50.749146
11
22.443342
21
50.133732
0
LINE
8
Layer 1
10
22.443342
20
50.133732
11
22.819500
21
49.284089
0
LINE
8
Layer 1
10
22.819500
20
49.284089
11
23.987956
21
47.302019
0
LINE
8
Layer 1
10
23.987956
20
47.302019
11
25.245085
21
45.642740
0
LINE
8
Layer 1
10
25.245085
20
45.642740
11
25.732086
21
45.196585
0
LINE
8
Layer 1
10
25.732086
20
45.196585
11
26.031475
21
45.146056
0
LINE
8
Layer 1
10
26.031475
20
45.146056
11
26.035333
21
45.613818
0
LINE
8
Layer 1
10
26.035333
20
45.613818
11
25.668634
21
46.281570
0
LINE
8
Layer 1
10
25.668634
20
46.281570
11
25.155516
21
46.837559
0
LINE
8
Layer 1
10
25.155516
20
46.837559
11
24.720118
21
46.970030
0
LINE
8
Layer 1
10
24.720118
20
46.970030
11
24.554691
21
46.904649
0
LINE
8
Layer 1
10
24.554691
20
46.904649
11
24.589328
21
46.993587
0
LINE
8
Layer 1
10
24.589328
20
46.993587
11
24.351497
21
47.770838
0
LINE
8
Layer 1
10
24.351497
20
47.770838
11
23.530994
21
49.360334
0
LINE
8
Layer 1
10
23.530994
20
49.360334
11
22.295555
21
51.746748
0
LINE
8
Layer 1
10
22.295555
20
51.746748
11
22.033755
21
51.965249
0
LINE
8
Layer 1
10
22.033755
20
51.965249
11
21.549373
21
51.399371
0
LINE
8
Layer 1
10
21.549373
20
51.399371
11
20.865753
21
50.017971
0
LINE
8
Layer 1
10
20.865753
20
50.017971
11
20.190552
21
48.295400
0
LINE
8
Layer 1
10
20.190552
20
48.295400
11
19.731425
21
46.706008
0
LINE
8
Layer 1
10
19.731425
20
46.706008
11
19.531671
21
45.076378
0
LINE
8
Layer 1
10
19.531671
20
45.076378
11
19.863751
21
43.597683
0
LINE
8
Layer 1
10
19.863751
20
43.597683
11
20.559495
21
42.206112
0
LINE
8
Layer 1
10
20.559495
20
42.206112
11
21.737360
21
40.652549
0
LINE
8
Layer 1
10
21.737360
20
40.652549
11
23.303178
21
39.045473
0
LINE
8
Layer 1
10
23.303178
20
39.045473
11
25.162778
21
37.493366
0
LINE
8
Layer 1
10
25.162778
20
37.493366
11
28.624330
21
34.882811
0
LINE
8
Layer 1
10
28.624330
20
34.882811
11
30.335482
21
33.620803
0
LINE
8
Layer 1
10
30.335482
20
33.620803
11
30.438429
21
34.855305
0
LINE
8
Layer 1
10
30.438429
20
34.855305
11
30.438429
21
34.855305
0
LINE
8
Layer 1
10
50.800000
20
33.465668
11
50.878440
21
33.753826
0
LINE
8
Layer 1
10
50.878440
20
33.753826
11
51.067030
21
33.832470
0
LINE
8
Layer 1
10
51.067030
20
33.832470
11
52.289011
21
34.548382
0
LINE
8
Layer 1
10
52.289011
20
34.548382
11
54.851983
21
36.368696
0
LINE
8
Layer 1
10
54.851983
20
36.368696
11
57.304607
21
38.283424
0
LINE
8
Layer 1
10
57.304607
20
38.283424
11
59.196147
21
40.011399
0
LINE
8
Layer 1
10
59.196147
20
40.011399
11
60.554617
21
41.624894
0
LINE
8
Layer 1
10
60.554617
20
41.624894
11
61.408032
21
43.196182
0
LINE
8
Layer 1
10
61.408032
20
43.196182
11
61.784408
21
44.797537
0
LINE
8
Layer 1
10
61.784408
20
44.797537
11
61.711758
21
46.501233
0
LINE
8
Layer 1
10
61.711758
20
46.501233
11
61.218098
21
48.379542
0
LINE
8
Layer 1
10
61.218098
20
48.379542
11
60.331443
21
50.504739
0
LINE
8
Layer 1
10
60.331443
20
50.504739
11
59.483504
21
52.299411
0
LINE
8
Layer 1
10
59.483504
20
52.299411
11
58.596042
21
50.509551
0
LINE
8
Layer 1
10
58.596042
20
50.509551
11
57.514167
21
48.633865
0
LINE
8
Layer 1
10
57.514167
20
48.633865
11
56.159290
21
46.637654
0
LINE
8
Layer 1
10
56.159290
20
46.637654
11
55.087883
21
45.088704
0
LINE
8
Layer 1
10
55.087883
20
45.088704
11
54.687549
21
44.288343
0
LINE
8
Layer 1
10
54.687549
20
44.288343
11
54.660263
21
44.150294
0
LINE
8
Layer 1
10
54.660263
20
44.150294
11
54.485766
21
44.193706
0
LINE
8
Layer 1
10
54.485766
20
44.193706
11
53.997263
21
43.877010
0
LINE
8
Layer 1
10
53.997263
20
43.877010
11
53.215029
21
42.873171
0
LINE
8
Layer 1
10
53.215029
20
42.873171
11
52.421689
21
41.338362
0
LINE
8
Layer 1
10
52.421689
20
41.338362
11
51.738486
21
39.414970
0
LINE
8
Layer 1
10
51.738486
20
39.414970
11
51.266301
21
37.443107
0
LINE
8
Layer 1
10
51.266301
20
37.443107
11
51.106016
21
35.762881
0
LINE
8
Layer 1
10
51.106016
20
35.762881
11
51.136764
21
35.244978
0
LINE
8
Layer 1
10
51.136764
20
35.244978
11
51.217819
21
35.216648
0
LINE
8
Layer 1
10
51.217819
20
35.216648
11
51.647463
21
36.866359
0
LINE
8
Layer 1
10
51.647463
20
36.866359
11
52.232944
21
39.067584
0
LINE
8
Layer 1
10
52.232944
20
39.067584
11
52.998915
21
40.881716
0
LINE
8
Layer 1
10
52.998915
20
40.881716
11
54.230650
21
42.848698
0
LINE
8
Layer 1
10
54.230650
20
42.848698
11
56.213420
21
45.508474
0
LINE
8
Layer 1
10
56.213420
20
45.508474
11
57.343436
21
47.114118
0
LINE
8
Layer 1
10
57.343436
20
47.114118
11
58.318027
21
48.746192
0
LINE
8
Layer 1
10
58.318027
20
48.746192
11
59.002937
21
50.158405
0
LINE
8
Layer 1
10
59.002937
20
50.158405
11
59.263909
21
51.104470
0
LINE
8
Layer 1
10
59.263909
20
51.104470
11
59.355543
21
51.383520
0
LINE
8
Layer 1
10
59.355543
20
51.383520
11
59.596857
21
51.118988
0
LINE
8
Layer 1
10
59.596857
20
51.118988
11
60.373314
21
49.222485
0
LINE
8
Layer 1
10
60.373314
20
49.222485
11
60.794555
21
47.498719
0
LINE
8
Layer 1
10
60.794555
20
47.498719
11
60.944919
21
45.753964
0
LINE
8
Layer 1
10
60.944919
20
45.753964
11
60.823148
21
44.136104
0
LINE
8
Layer 1
10
60.823148
20
44.136104
11
60.427986
21
42.793025
0
LINE
8
Layer 1
10
60.427986
20
42.793025
11
59.735003
21
41.759260
0
LINE
8
Layer 1
10
59.735003
20
41.759260
11
58.514517
21
40.396013
0
LINE
8
Layer 1
10
58.514517
20
40.396013
11
55.157655
21
37.367331
0
LINE
8
Layer 1
10
55.157655
20
37.367331
11
52.935141
21
35.532887
0
LINE
8
Layer 1
10
52.935141
20
35.532887
11
51.849772
21
34.662762
0
LINE
8
Layer 1
10
51.849772
20
34.662762
11
51.228921
21
34.403924
0
LINE
8
Layer 1
10
51.228921
20
34.403924
11
51.049802
21
34.508903
0
LINE
8
Layer 1
10
51.049802
20
34.508903
11
50.935349
21
34.772903
0
LINE
8
Layer 1
10
50.935349
20
34.772903
11
50.831821
21
35.786229
0
LINE
8
Layer 1
10
50.831821
20
35.786229
11
50.978721
21
38.247179
0
LINE
8
Layer 1
10
50.978721
20
38.247179
11
51.587861
21
40.665884
0
LINE
8
Layer 1
10
51.587861
20
40.665884
11
52.615681
21
42.918044
0
LINE
8
Layer 1
10
52.615681
20
42.918044
11
54.018617
21
44.879362
0
LINE
8
Layer 1
10
54.018617
20
44.879362
11
56.496120
21
47.972127
0
LINE
8
Layer 1
10
56.496120
20
47.972127
11
58.535570
21
51.187034
0
LINE
8
Layer 1
10
58.535570
20
51.187034
11
59.595117
21
53.089931
0
LINE
8
Layer 1
10
59.595117
20
53.089931
11
61.013309
21
50.302120
0
LINE
8
Layer 1
10
61.013309
20
50.302120
11
62.216161
21
47.622864
0
LINE
8
Layer 1
10
62.216161
20
47.622864
11
62.407716
21
46.637033
0
LINE
8
Layer 1
10
62.407716
20
46.637033
11
62.463302
21
45.425363
0
LINE
8
Layer 1
10
62.463302
20
45.425363
11
62.423192
21
44.222585
0
LINE
8
Layer 1
10
62.423192
20
44.222585
11
62.228841
21
43.154884
0
LINE
8
Layer 1
10
62.228841
20
43.154884
11
61.828230
21
42.156780
0
LINE
8
Layer 1
10
61.828230
20
42.156780
11
61.169339
21
41.162791
0
LINE
8
Layer 1
10
61.169339
20
41.162791
11
60.200147
21
40.107439
0
LINE
8
Layer 1
10
60.200147
20
40.107439
11
58.868634
21
38.925243
0
LINE
8
Layer 1
10
58.868634
20
38.925243
11
54.910567
21
35.918400
0
LINE
8
Layer 1
10
54.910567
20
35.918400
11
51.273123
21
33.345084
0
LINE
8
Layer 1
10
51.273123
20
33.345084
11
50.848966
21
33.192717
0
LINE
8
Layer 1
10
50.848966
20
33.192717
11
50.800000
21
33.465668
0
LINE
8
Layer 1
10
50.800000
20
33.465668
11
50.800000
21
33.465668
0
LINE
8
Layer 1
10
45.926962
20
33.938046
11
46.219199
21
34.139308
0
LINE
8
Layer 1
10
46.219199
20
34.139308
11
46.433023
21
34.130742
0
LINE
8
Layer 1
10
46.433023
20
34.130742
11
46.395947
21
33.962559
0
LINE
8
Layer 1
10
46.395947
20
33.962559
11
46.084950
21
33.780058
0
LINE
8
Layer 1
10
46.084950
20
33.780058
11
45.751378
21
33.697096
0
LINE
8
Layer 1
10
45.751378
20
33.697096
11
45.926962
21
33.938046
0
LINE
8
Layer 1
10
45.926962
20
33.938046
11
45.926962
21
33.938046
0
LINE
8
Layer 1
10
12.490419
20
43.179444
11
8.752675
21
46.272427
0
LINE
8
Layer 1
10
8.752675
20
46.272427
11
7.349336
21
47.645372
0
LINE
8
Layer 1
10
7.349336
20
47.645372
11
6.203559
21
48.970138
0
LINE
8
Layer 1
10
6.203559
20
48.970138
11
5.275750
21
50.297364
0
LINE
8
Layer 1
10
5.275750
20
50.297364
11
4.526315
21
51.677689
0
LINE
8
Layer 1
10
4.526315
20
51.677689
11
3.915658
21
53.161751
0
LINE
8
Layer 1
10
3.915658
20
53.161751
11
3.404187
21
54.800190
0
LINE
8
Layer 1
10
3.404187
20
54.800190
11
2.963463
21
56.978012
0
LINE
8
Layer 1
10
2.963463
20
56.978012
11
2.601494
21
59.844405
0
LINE
8
Layer 1
10
2.601494
20
59.844405
11
2.357630
21
63.007734
0
LINE
8
Layer 1
10
2.357630
20
63.007734
11
2.271220
21
66.076360
0
LINE
8
Layer 1
10
2.271220
20
66.076360
11
2.341711
21
67.988884
0
LINE
8
Layer 1
10
2.341711
20
67.988884
11
2.463717
21
68.152413
0
LINE
8
Layer 1
10
2.463717
20
68.152413
11
2.677704
21
67.944352
0
LINE
8
Layer 1
10
2.677704
20
67.944352
11
4.701180
21
65.741155
0
LINE
8
Layer 1
10
4.701180
20
65.741155
11
7.211706
21
63.395249
0
LINE
8
Layer 1
10
7.211706
20
63.395249
11
10.771209
21
60.338998
0
LINE
8
Layer 1
10
10.771209
20
60.338998
11
12.741450
21
58.296176
0
LINE
8
Layer 1
10
12.741450
20
58.296176
11
14.121027
21
56.620313
0
LINE
8
Layer 1
10
14.121027
20
56.620313
11
15.219876
21
55.045192
0
LINE
8
Layer 1
10
15.219876
20
55.045192
11
16.051490
21
53.525846
0
LINE
8
Layer 1
10
16.051490
20
53.525846
11
16.629359
21
52.017308
0
LINE
8
Layer 1
10
16.629359
20
52.017308
11
16.966975
21
50.474612
0
LINE
8
Layer 1
10
16.966975
20
50.474612
11
17.077831
21
48.852792
0
LINE
8
Layer 1
10
17.077831
20
48.852792
11
16.975417
21
47.106882
0
LINE
8
Layer 1
10
16.975417
20
47.106882
11
16.673226
21
45.191914
0
LINE
8
Layer 1
10
16.673226
20
45.191914
11
16.087522
21
41.452470
0
LINE
8
Layer 1
10
16.087522
20
41.452470
11
16.024740
21
40.912235
0
LINE
8
Layer 1
10
16.024740
20
40.912235
11
15.875000
21
40.703229
0
LINE
8
Layer 1
10
15.875000
20
40.703229
11
12.490419
21
43.179444
0
LINE
8
Layer 1
10
12.490419
20
43.179444
11
12.490419
21
43.179444
0
LINE
8
Layer 1
10
15.804444
20
41.821904
11
15.731418
21
42.187173
0
LINE
8
Layer 1
10
15.731418
20
42.187173
11
15.555843
21
42.249358
0
LINE
8
Layer 1
10
15.555843
20
42.249358
11
15.189091
21
42.333969
0
LINE
8
Layer 1
10
15.189091
20
42.333969
11
14.505997
21
42.762442
0
LINE
8
Layer 1
10
14.505997
20
42.762442
11
12.525304
21
44.358623
0
LINE
8
Layer 1
10
12.525304
20
44.358623
11
10.282804
21
46.453211
0
LINE
8
Layer 1
10
10.282804
20
46.453211
11
8.447537
21
48.461509
0
LINE
8
Layer 1
10
8.447537
20
48.461509
11
7.342496
21
50.015114
0
LINE
8
Layer 1
10
7.342496
20
50.015114
11
6.281440
21
51.808216
0
LINE
8
Layer 1
10
6.281440
20
51.808216
11
5.354193
21
53.675459
0
LINE
8
Layer 1
10
5.354193
20
53.675459
11
4.650576
21
55.451482
0
LINE
8
Layer 1
10
4.650576
20
55.451482
11
3.656032
21
59.615685
0
LINE
8
Layer 1
10
3.656032
20
59.615685
11
3.061580
21
63.661264
0
LINE
8
Layer 1
10
3.061580
20
63.661264
11
2.818285
21
65.236063
0
LINE
8
Layer 1
10
2.818285
20
65.236063
11
2.743897
21
65.211578
0
LINE
8
Layer 1
10
2.743897
20
65.211578
11
2.707408
21
64.869107
0
LINE
8
Layer 1
10
2.707408
20
64.869107
11
2.737058
21
63.446302
0
LINE
8
Layer 1
10
2.737058
20
63.446302
11
3.129393
21
59.161916
0
LINE
8
Layer 1
10
3.129393
20
59.161916
11
3.540519
21
56.689640
0
LINE
8
Layer 1
10
3.540519
20
56.689640
11
4.112627
21
54.461734
0
LINE
8
Layer 1
10
4.112627
20
54.461734
11
4.872938
21
52.433028
0
LINE
8
Layer 1
10
4.872938
20
52.433028
11
5.848679
21
50.558351
0
LINE
8
Layer 1
10
5.848679
20
50.558351
11
7.067071
21
48.792535
0
LINE
8
Layer 1
10
7.067071
20
48.792535
11
8.555341
21
47.090409
0
LINE
8
Layer 1
10
8.555341
20
47.090409
11
10.340711
21
45.406804
0
LINE
8
Layer 1
10
10.340711
20
45.406804
11
12.450405
21
43.696549
0
LINE
8
Layer 1
10
12.450405
20
43.696549
11
15.733889
21
41.244150
0
LINE
8
Layer 1
10
15.733889
20
41.244150
11
15.804444
21
41.821904
0
LINE
8
Layer 1
10
15.804444
20
41.821904
11
15.804444
21
41.821904
0
LINE
8
Layer 1
10
16.378035
20
45.965008
11
16.593479
21
48.276873
0
LINE
8
Layer 1
10
16.593479
20
48.276873
11
16.502242
21
50.161873
0
LINE
8
Layer 1
10
16.502242
20
50.161873
11
16.061459
21
51.912981
0
LINE
8
Layer 1
10
16.061459
20
51.912981
11
15.228262
21
53.823170
0
LINE
8
Layer 1
10
15.228262
20
53.823170
11
14.363772
21
55.377683
0
LINE
8
Layer 1
10
14.363772
20
55.377683
11
13.090017
21
56.974869
0
LINE
8
Layer 1
10
13.090017
20
56.974869
11
10.699560
21
59.389225
0
LINE
8
Layer 1
10
10.699560
20
59.389225
11
6.484958
21
63.395249
0
LINE
8
Layer 1
10
6.484958
20
63.395249
11
3.339736
21
66.640805
0
LINE
8
Layer 1
10
3.339736
20
66.640805
11
2.587249
21
67.628582
0
LINE
8
Layer 1
10
2.587249
20
67.628582
11
2.607053
21
66.694420
0
LINE
8
Layer 1
10
2.607053
20
66.694420
11
2.683229
21
66.077851
0
LINE
8
Layer 1
10
2.683229
20
66.077851
11
2.765170
21
66.021687
0
LINE
8
Layer 1
10
2.765170
20
66.021687
11
2.878088
21
66.129976
0
LINE
8
Layer 1
10
2.878088
20
66.129976
11
3.177448
21
66.271423
0
LINE
8
Layer 1
10
3.177448
20
66.271423
11
3.607277
21
65.794138
0
LINE
8
Layer 1
10
3.607277
20
65.794138
11
8.496023
21
60.714138
0
LINE
8
Layer 1
10
8.496023
20
60.714138
11
12.500092
21
56.523953
0
LINE
8
Layer 1
10
12.500092
20
56.523953
11
13.807253
21
54.865136
0
LINE
8
Layer 1
10
13.807253
20
54.865136
11
14.729489
21
53.340781
0
LINE
8
Layer 1
10
14.729489
20
53.340781
11
15.325543
21
51.833596
0
LINE
8
Layer 1
10
15.325543
20
51.833596
11
15.654157
21
50.226290
0
LINE
8
Layer 1
10
15.654157
20
50.226290
11
15.774075
21
48.401573
0
LINE
8
Layer 1
10
15.774075
20
48.401573
11
15.744040
21
46.242153
0
LINE
8
Layer 1
10
15.744040
20
46.242153
11
15.706601
21
43.927740
0
LINE
8
Layer 1
10
15.706601
20
43.927740
11
15.807511
21
43.106702
0
LINE
8
Layer 1
10
15.807511
20
43.106702
11
16.035184
21
43.784103
0
LINE
8
Layer 1
10
16.035184
20
43.784103
11
16.378035
21
45.965008
0
LINE
8
Layer 1
10
16.378035
20
45.965008
11
16.378035
21
45.965008
0
LINE
8
Layer 1
10
65.475556
20
41.099692
11
65.548838
21
41.377945
0
LINE
8
Layer 1
10
65.548838
20
41.377945
11
65.725026
21
41.452470
0
LINE
8
Layer 1
10
65.725026
20
41.452470
11
66.446692
21
41.796559
0
LINE
8
Layer 1
10
66.446692
20
41.796559
11
67.896653
21
42.778651
0
LINE
8
Layer 1
10
67.896653
20
42.778651
11
71.467091
21
45.570733
0
LINE
8
Layer 1
10
71.467091
20
45.570733
11
73.545762
21
47.676716
0
LINE
8
Layer 1
10
73.545762
20
47.676716
11
75.345397
21
50.135843
0
LINE
8
Layer 1
10
75.345397
20
50.135843
11
76.768292
21
52.792988
0
LINE
8
Layer 1
10
76.768292
20
52.792988
11
77.716738
21
55.493027
0
LINE
8
Layer 1
10
77.716738
20
55.493027
11
78.435567
21
59.582145
0
LINE
8
Layer 1
10
78.435567
20
59.582145
11
78.709461
21
63.528956
0
LINE
8
Layer 1
10
78.709461
20
63.528956
11
78.674290
21
64.199084
0
LINE
8
Layer 1
10
78.674290
20
64.199084
11
78.639718
21
64.280664
0
LINE
8
Layer 1
10
78.639718
20
64.280664
11
78.589305
21
64.178195
0
LINE
8
Layer 1
10
78.589305
20
64.178195
11
78.161478
21
61.701916
0
LINE
8
Layer 1
10
78.161478
20
61.701916
11
77.669377
21
58.997797
0
LINE
8
Layer 1
10
77.669377
20
58.997797
11
77.058914
21
56.470220
0
LINE
8
Layer 1
10
77.058914
20
56.470220
11
76.372553
21
54.273864
0
LINE
8
Layer 1
10
76.372553
20
54.273864
11
75.652757
21
52.563412
0
LINE
8
Layer 1
10
75.652757
20
52.563412
11
75.284771
21
51.627862
0
LINE
8
Layer 1
10
75.284771
20
51.627862
11
75.246794
21
51.038345
0
LINE
8
Layer 1
10
75.246794
20
51.038345
11
75.321707
21
50.853892
0
LINE
8
Layer 1
10
75.321707
20
50.853892
11
75.225131
21
50.892216
0
LINE
8
Layer 1
10
75.225131
20
50.892216
11
74.769291
21
50.631717
0
LINE
8
Layer 1
10
74.769291
20
50.631717
11
73.980441
21
49.728823
0
LINE
8
Layer 1
10
73.980441
20
49.728823
11
71.881515
21
47.273214
0
LINE
8
Layer 1
10
71.881515
20
47.273214
11
69.379943
21
44.755690
0
LINE
8
Layer 1
10
69.379943
20
44.755690
11
67.191359
21
42.851001
0
LINE
8
Layer 1
10
67.191359
20
42.851001
11
66.438072
21
42.339330
0
LINE
8
Layer 1
10
66.438072
20
42.339330
11
66.031395
21
42.233898
0
LINE
8
Layer 1
10
66.031395
20
42.233898
11
65.777659
21
43.359653
0
LINE
8
Layer 1
10
65.777659
20
43.359653
11
65.621224
21
45.726125
0
LINE
8
Layer 1
10
65.621224
20
45.726125
11
65.597359
21
48.355988
0
LINE
8
Layer 1
10
65.597359
20
48.355988
11
65.741333
21
50.271914
0
LINE
8
Layer 1
10
65.741333
20
50.271914
11
66.353227
21
52.488923
0
LINE
8
Layer 1
10
66.353227
20
52.488923
11
67.444681
21
54.540200
0
LINE
8
Layer 1
10
67.444681
20
54.540200
11
69.330682
21
56.891501
0
LINE
8
Layer 1
10
69.330682
20
56.891501
11
72.326221
21
60.008582
0
LINE
8
Layer 1
10
72.326221
20
60.008582
11
77.242926
21
65.084598
0
LINE
8
Layer 1
10
77.242926
20
65.084598
11
78.377715
21
66.430644
0
LINE
8
Layer 1
10
78.377715
20
66.430644
11
78.730610
21
67.093205
0
LINE
8
Layer 1
10
78.730610
20
67.093205
11
78.553230
21
67.064739
0
LINE
8
Layer 1
10
78.553230
20
67.064739
11
78.139948
21
66.640805
0
LINE
8
Layer 1
10
78.139948
20
66.640805
11
76.093303
21
64.401920
0
LINE
8
Layer 1
10
76.093303
20
64.401920
11
72.789556
21
61.278582
0
LINE
8
Layer 1
10
72.789556
20
61.278582
11
68.883016
21
57.554400
0
LINE
8
Layer 1
10
68.883016
20
57.554400
11
67.817054
21
56.311798
0
LINE
8
Layer 1
10
67.817054
20
56.311798
11
66.873761
21
54.983237
0
LINE
8
Layer 1
10
66.873761
20
54.983237
11
65.860165
21
53.230693
0
LINE
8
Layer 1
10
65.860165
20
53.230693
11
65.244206
21
51.503450
0
LINE
8
Layer 1
10
65.244206
20
51.503450
11
64.968004
21
49.563607
0
LINE
8
Layer 1
10
64.968004
20
49.563607
11
64.973680
21
47.173258
0
LINE
8
Layer 1
10
64.973680
20
47.173258
11
65.113956
21
44.204136
0
LINE
8
Layer 1
10
65.113956
20
44.204136
11
64.695637
21
46.320803
0
LINE
8
Layer 1
10
64.695637
20
46.320803
11
64.463725
21
48.403626
0
LINE
8
Layer 1
10
64.463725
20
48.403626
11
64.609199
21
50.448932
0
LINE
8
Layer 1
10
64.609199
20
50.448932
11
65.143732
21
52.477639
0
LINE
8
Layer 1
10
65.143732
20
52.477639
11
66.078995
21
54.510664
0
LINE
8
Layer 1
10
66.078995
20
54.510664
11
67.426661
21
56.568924
0
LINE
8
Layer 1
10
67.426661
20
56.568924
11
69.198400
21
58.673336
0
LINE
8
Layer 1
10
69.198400
20
58.673336
11
71.405885
21
60.844818
0
LINE
8
Layer 1
10
71.405885
20
60.844818
11
74.060787
21
63.104286
0
LINE
8
Layer 1
10
74.060787
20
63.104286
11
76.366999
21
65.137352
0
LINE
8
Layer 1
10
76.366999
20
65.137352
11
78.418679
21
67.346360
0
LINE
8
Layer 1
10
78.418679
20
67.346360
11
79.367290
21
68.475249
0
LINE
8
Layer 1
10
79.367290
20
68.475249
11
79.188479
21
63.677471
0
LINE
8
Layer 1
10
79.188479
20
63.677471
11
78.970554
21
59.861178
0
LINE
8
Layer 1
10
78.970554
20
59.861178
11
78.585268
21
56.667379
0
LINE
8
Layer 1
10
78.585268
20
56.667379
11
77.969038
21
53.966521
0
LINE
8
Layer 1
10
77.969038
20
53.966521
11
77.058279
21
51.629047
0
LINE
8
Layer 1
10
77.058279
20
51.629047
11
75.789409
21
49.525401
0
LINE
8
Layer 1
10
75.789409
20
49.525401
11
74.098844
21
47.526029
0
LINE
8
Layer 1
10
74.098844
20
47.526029
11
71.923000
21
45.501375
0
LINE
8
Layer 1
10
71.923000
20
45.501375
11
69.198292
21
43.321884
0
LINE
8
Layer 1
10
69.198292
20
43.321884
11
65.599959
21
40.676359
0
LINE
8
Layer 1
10
65.599959
20
40.676359
11
65.475556
21
41.099692
0
LINE
8
Layer 1
10
65.475556
20
41.099692
11
65.475556
21
41.099692
0
LINE
8
Layer 1
10
78.628288
20
65.999925
11
78.514411
21
65.961450
0
LINE
8
Layer 1
10
78.514411
20
65.961450
11
78.480059
21
65.629508
0
LINE
8
Layer 1
10
78.480059
20
65.629508
11
78.536607
21
65.336537
0
LINE
8
Layer 1
10
78.536607
20
65.336537
11
78.650567
21
65.458999
0
LINE
8
Layer 1
10
78.650567
20
65.458999
11
78.628288
21
65.999925
0
LINE
8
Layer 1
10
78.628288
20
65.999925
11
78.628288
21
65.999925
0
LINE
8
Layer 1
10
17.941024
20
55.676425
11
16.689493
21
57.374152
0
LINE
8
Layer 1
10
16.689493
20
57.374152
11
14.653500
21
59.759940
0
LINE
8
Layer 1
10
14.653500
20
59.759940
11
12.365792
21
62.234872
0
LINE
8
Layer 1
10
12.365792
20
62.234872
11
10.359119
21
64.200030
0
LINE
8
Layer 1
10
10.359119
20
64.200030
11
8.717454
21
65.834664
0
LINE
8
Layer 1
10
8.717454
20
65.834664
11
7.271400
21
67.636751
0
LINE
8
Layer 1
10
7.271400
20
67.636751
11
5.989654
21
69.650078
0
LINE
8
Layer 1
10
5.989654
20
69.650078
11
4.840912
21
71.918428
0
LINE
8
Layer 1
10
4.840912
20
71.918428
11
3.734979
21
74.646897
0
LINE
8
Layer 1
10
3.734979
20
74.646897
11
3.531259
21
75.409990
0
LINE
8
Layer 1
10
3.531259
20
75.409990
11
3.612659
21
75.614952
0
LINE
8
Layer 1
10
3.612659
20
75.614952
11
7.761111
21
73.598286
0
LINE
8
Layer 1
10
7.761111
20
73.598286
11
13.754311
21
70.690240
0
LINE
8
Layer 1
10
13.754311
20
70.690240
11
15.444825
21
69.688778
0
LINE
8
Layer 1
10
15.444825
20
69.688778
11
16.867572
21
68.457659
0
LINE
8
Layer 1
10
16.867572
20
68.457659
11
17.991058
21
67.029771
0
LINE
8
Layer 1
10
17.991058
20
67.029771
11
18.783788
21
65.438005
0
LINE
8
Layer 1
10
18.783788
20
65.438005
11
19.221131
21
63.544555
0
LINE
8
Layer 1
10
19.221131
20
63.544555
11
19.332222
21
60.431916
0
LINE
8
Layer 1
10
19.332222
20
60.431916
11
19.155675
21
56.303087
0
LINE
8
Layer 1
10
19.155675
20
56.303087
11
18.948687
21
55.179438
0
LINE
8
Layer 1
10
18.948687
20
55.179438
11
18.674729
21
54.787471
0
LINE
8
Layer 1
10
18.674729
20
54.787471
11
17.941024
21
55.676425
0
LINE
8
Layer 1
10
17.941024
20
55.676425
11
17.941024
21
55.676425
0
LINE
8
Layer 1
10
19.046410
20
60.008582
11
18.940358
21
62.964509
0
LINE
8
Layer 1
10
18.940358
20
62.964509
11
18.532768
21
64.735805
0
LINE
8
Layer 1
10
18.532768
20
64.735805
11
18.086536
21
65.682572
0
LINE
8
Layer 1
10
18.086536
20
65.682572
11
17.740003
21
66.076360
0
LINE
8
Layer 1
10
17.740003
20
66.076360
11
17.601545
21
66.167196
0
LINE
8
Layer 1
10
17.601545
20
66.167196
11
17.655579
21
66.385588
0
LINE
8
Layer 1
10
17.655579
20
66.385588
11
17.386970
21
67.021648
0
LINE
8
Layer 1
10
17.386970
20
67.021648
11
16.472792
21
68.116663
0
LINE
8
Layer 1
10
16.472792
20
68.116663
11
15.615369
21
68.905528
0
LINE
8
Layer 1
10
15.615369
20
68.905528
11
14.560805
21
69.641824
0
LINE
8
Layer 1
10
14.560805
20
69.641824
11
11.006666
21
71.482285
0
LINE
8
Layer 1
10
11.006666
20
71.482285
11
6.772894
21
73.514666
0
LINE
8
Layer 1
10
6.772894
20
73.514666
11
5.015069
21
74.508385
0
LINE
8
Layer 1
10
5.015069
20
74.508385
11
3.962360
21
75.146555
0
LINE
8
Layer 1
10
3.962360
20
75.146555
11
4.349750
21
74.048572
0
LINE
8
Layer 1
10
4.349750
20
74.048572
11
5.563271
21
71.331446
0
LINE
8
Layer 1
10
5.563271
20
71.331446
11
7.143332
21
68.616360
0
LINE
8
Layer 1
10
7.143332
20
68.616360
11
8.493208
21
66.943658
0
LINE
8
Layer 1
10
8.493208
20
66.943658
11
10.389651
21
64.900017
0
LINE
8
Layer 1
10
10.389651
20
64.900017
11
12.133153
21
63.204090
0
LINE
8
Layer 1
10
12.133153
20
63.204090
11
13.024205
21
62.574528
0
LINE
8
Layer 1
10
13.024205
20
62.574528
11
13.193874
21
62.605956
0
LINE
8
Layer 1
10
13.193874
20
62.605956
11
13.264444
21
62.473015
0
LINE
8
Layer 1
10
13.264444
20
62.473015
11
14.565909
21
60.833581
0
LINE
8
Layer 1
10
14.565909
20
60.833581
11
17.144066
21
57.501291
0
LINE
8
Layer 1
10
17.144066
20
57.501291
11
18.261525
21
55.966489
0
LINE
8
Layer 1
10
18.261525
20
55.966489
11
18.526885
21
55.866058
0
LINE
8
Layer 1
10
18.526885
20
55.866058
11
18.731789
21
56.090180
0
LINE
8
Layer 1
10
18.731789
20
56.090180
11
18.955493
21
57.432855
0
LINE
8
Layer 1
10
18.955493
20
57.432855
11
19.046410
21
60.008582
0
LINE
8
Layer 1
10
19.046410
20
60.008582
11
19.046410
21
60.008582
0
LINE
8
Layer 1
10
17.497777
20
58.163153
11
16.774429
21
59.364195
0
LINE
8
Layer 1
10
16.774429
20
59.364195
11
15.749964
21
60.639304
0
LINE
8
Layer 1
10
15.749964
20
60.639304
11
11.043330
21
65.370805
0
LINE
8
Layer 1
10
11.043330
20
65.370805
11
9.476887
21
67.034867
0
LINE
8
Layer 1
10
9.476887
20
67.034867
11
7.938582
21
68.937317
0
LINE
8
Layer 1
10
7.938582
20
68.937317
11
6.473266
21
71.018667
0
LINE
8
Layer 1
10
6.473266
20
71.018667
11
5.125790
21
73.219428
0
LINE
8
Layer 1
10
5.125790
20
73.219428
11
4.797897
21
73.916408
0
LINE
8
Layer 1
10
4.797897
20
73.916408
11
4.778910
21
74.079835
0
LINE
8
Layer 1
10
4.778910
20
74.079835
11
4.867848
21
74.082143
0
LINE
8
Layer 1
10
4.867848
20
74.082143
11
6.632222
21
72.975726
0
LINE
8
Layer 1
10
6.632222
20
72.975726
11
10.442222
21
71.036137
0
LINE
8
Layer 1
10
10.442222
20
71.036137
11
13.056959
21
69.770462
0
LINE
8
Layer 1
10
13.056959
20
69.770462
11
14.943368
21
68.517640
0
LINE
8
Layer 1
10
14.943368
20
68.517640
11
16.309000
21
67.107735
0
LINE
8
Layer 1
10
16.309000
20
67.107735
11
17.361405
21
65.370805
0
LINE
8
Layer 1
10
17.361405
20
65.370805
11
17.947618
21
63.908729
0
LINE
8
Layer 1
10
17.947618
20
63.908729
11
18.343838
21
62.284510
0
LINE
8
Layer 1
10
18.343838
20
62.284510
11
18.550540
21
60.495464
0
LINE
8
Layer 1
10
18.550540
20
60.495464
11
18.568198
21
58.538904
0
LINE
8
Layer 1
10
18.568198
20
58.538904
11
18.485555
21
56.339693
0
LINE
8
Layer 1
10
18.485555
20
56.339693
11
17.497777
21
58.163153
0
LINE
8
Layer 1
10
17.497777
20
58.163153
11
17.497777
21
58.163153
0
LINE
8
Layer 1
10
62.653333
20
55.069693
11
63.147222
21
55.881361
0
LINE
8
Layer 1
10
63.147222
20
55.881361
11
65.125229
21
58.584006
0
LINE
8
Layer 1
10
65.125229
20
58.584006
11
66.036780
21
60.035556
0
LINE
8
Layer 1
10
66.036780
20
60.035556
11
66.385784
21
60.780968
0
LINE
8
Layer 1
10
66.385784
20
60.780968
11
66.402033
21
60.918829
0
LINE
8
Layer 1
10
66.402033
20
60.918829
11
66.549992
21
60.888903
0
LINE
8
Layer 1
10
66.549992
20
60.888903
11
67.115685
21
61.184364
0
LINE
8
Layer 1
10
67.115685
20
61.184364
11
68.136270
21
62.104542
0
LINE
8
Layer 1
10
68.136270
20
62.104542
11
69.069323
21
63.187227
0
LINE
8
Layer 1
10
69.069323
20
63.187227
11
69.210943
21
63.503746
0
LINE
8
Layer 1
10
69.210943
20
63.503746
11
69.141605
21
63.679226
0
LINE
8
Layer 1
10
69.141605
20
63.679226
11
68.793135
21
63.616969
0
LINE
8
Layer 1
10
68.793135
20
63.616969
11
68.219050
21
63.216686
0
LINE
8
Layer 1
10
68.219050
20
63.216686
11
66.666601
21
61.700292
0
LINE
8
Layer 1
10
66.666601
20
61.700292
11
65.029397
21
59.726537
0
LINE
8
Layer 1
10
65.029397
20
59.726537
11
63.852575
21
57.891916
0
LINE
8
Layer 1
10
63.852575
20
57.891916
11
62.956660
21
56.057471
0
LINE
8
Layer 1
10
62.956660
20
56.057471
11
62.946108
21
58.795247
0
LINE
8
Layer 1
10
62.946108
20
58.795247
11
63.011171
21
61.136394
0
LINE
8
Layer 1
10
63.011171
20
61.136394
11
63.255618
21
63.109002
0
LINE
8
Layer 1
10
63.255618
20
63.109002
11
63.723878
21
64.780473
0
LINE
8
Layer 1
10
63.723878
20
64.780473
11
64.460379
21
66.218212
0
LINE
8
Layer 1
10
64.460379
20
66.218212
11
65.509547
21
67.489623
0
LINE
8
Layer 1
10
65.509547
20
67.489623
11
66.915810
21
68.662109
0
LINE
8
Layer 1
10
66.915810
20
68.662109
11
68.723596
21
69.803075
0
LINE
8
Layer 1
10
68.723596
20
69.803075
11
70.977334
21
70.979925
0
LINE
8
Layer 1
10
70.977334
20
70.979925
11
75.265719
21
73.212051
0
LINE
8
Layer 1
10
75.265719
20
73.212051
11
76.199687
21
73.844951
0
LINE
8
Layer 1
10
76.199687
20
73.844951
11
76.372204
21
74.182674
0
LINE
8
Layer 1
10
76.372204
20
74.182674
11
75.997759
21
74.117117
0
LINE
8
Layer 1
10
75.997759
20
74.117117
11
75.297623
21
73.759374
0
LINE
8
Layer 1
10
75.297623
20
73.759374
11
71.825556
21
72.115693
0
LINE
8
Layer 1
10
71.825556
20
72.115693
11
68.566193
21
70.557626
0
LINE
8
Layer 1
10
68.566193
20
70.557626
11
66.108559
21
68.961235
0
LINE
8
Layer 1
10
66.108559
20
68.961235
11
64.333553
21
67.232967
0
LINE
8
Layer 1
10
64.333553
20
67.232967
11
63.122073
21
65.279271
0
LINE
8
Layer 1
10
63.122073
20
65.279271
11
62.800671
21
64.450637
0
LINE
8
Layer 1
10
62.800671
20
64.450637
11
62.616159
21
63.489560
0
LINE
8
Layer 1
10
62.616159
20
63.489560
11
62.512222
21
59.881596
0
LINE
8
Layer 1
10
62.512222
20
59.881596
11
62.459853
21
57.245999
0
LINE
8
Layer 1
10
62.459853
20
57.245999
11
62.403167
21
56.634567
0
LINE
8
Layer 1
10
62.403167
20
56.634567
11
62.369757
21
56.552035
0
LINE
8
Layer 1
10
62.369757
20
56.552035
11
62.333945
21
56.636041
0
LINE
8
Layer 1
10
62.333945
20
56.636041
11
62.163881
21
58.268171
0
LINE
8
Layer 1
10
62.163881
20
58.268171
11
62.137310
21
60.476210
0
LINE
8
Layer 1
10
62.137310
20
60.476210
11
62.243473
21
62.665633
0
LINE
8
Layer 1
10
62.243473
20
62.665633
11
62.471608
21
64.241916
0
LINE
8
Layer 1
10
62.471608
20
64.241916
11
63.296058
21
66.479862
0
LINE
8
Layer 1
10
63.296058
20
66.479862
11
64.499557
21
68.291174
0
LINE
8
Layer 1
10
64.499557
20
68.291174
11
66.161024
21
69.766388
0
LINE
8
Layer 1
10
66.161024
20
69.766388
11
68.359381
21
70.996036
0
LINE
8
Layer 1
10
68.359381
20
70.996036
11
74.224444
21
73.793437
0
LINE
8
Layer 1
10
74.224444
20
73.793437
11
77.955860
21
75.619230
0
LINE
8
Layer 1
10
77.955860
20
75.619230
11
77.956976
21
75.203510
0
LINE
8
Layer 1
10
77.956976
20
75.203510
11
77.549737
21
73.974157
0
LINE
8
Layer 1
10
77.549737
20
73.974157
11
76.074453
21
70.584540
0
LINE
8
Layer 1
10
76.074453
20
70.584540
11
75.015975
21
68.616240
0
LINE
8
Layer 1
10
75.015975
20
68.616240
11
73.967336
21
67.057319
0
LINE
8
Layer 1
10
73.967336
20
67.057319
11
72.695059
21
65.604834
0
LINE
8
Layer 1
10
72.695059
20
65.604834
11
70.965661
21
63.955842
0
LINE
8
Layer 1
10
70.965661
20
63.955842
11
68.917284
21
61.947307
0
LINE
8
Layer 1
10
68.917284
20
61.947307
11
66.723706
21
59.571727
0
LINE
8
Layer 1
10
66.723706
20
59.571727
11
64.808609
21
57.307548
0
LINE
8
Layer 1
10
64.808609
20
57.307548
11
63.595671
21
55.633213
0
LINE
8
Layer 1
10
63.595671
20
55.633213
11
62.938684
21
54.833442
0
LINE
8
Layer 1
10
62.938684
20
54.833442
11
62.730892
21
54.810905
0
LINE
8
Layer 1
10
62.730892
20
54.810905
11
62.653333
21
55.069693
0
LINE
8
Layer 1
10
62.653333
20
55.069693
11
62.653333
21
55.069693
0
LINE
8
Layer 1
10
71.585407
20
65.310302
11
73.153451
21
67.149206
0
LINE
8
Layer 1
10
73.153451
20
67.149206
11
74.580318
21
69.079333
0
LINE
8
Layer 1
10
74.580318
20
69.079333
11
76.588496
21
72.718692
0
LINE
8
Layer 1
10
76.588496
20
72.718692
11
77.281556
21
74.317372
0
LINE
8
Layer 1
10
77.281556
20
74.317372
11
77.442788
21
75.087646
0
LINE
8
Layer 1
10
77.442788
20
75.087646
11
77.227717
21
75.090095
0
LINE
8
Layer 1
10
77.227717
20
75.090095
11
76.964922
21
74.839978
0
LINE
8
Layer 1
10
76.964922
20
74.839978
11
76.620277
21
74.007637
0
LINE
8
Layer 1
10
76.620277
20
74.007637
11
76.075148
21
72.705366
0
LINE
8
Layer 1
10
76.075148
20
72.705366
11
74.783405
21
70.636123
0
LINE
8
Layer 1
10
74.783405
20
70.636123
11
73.095476
21
68.316113
0
LINE
8
Layer 1
10
73.095476
20
68.316113
11
71.361791
21
66.261539
0
LINE
8
Layer 1
10
71.361791
20
66.261539
11
69.541415
21
64.118365
0
LINE
8
Layer 1
10
69.541415
20
64.118365
11
69.391852
21
63.669450
0
LINE
8
Layer 1
10
69.391852
20
63.669450
11
69.688402
21
63.536360
0
LINE
8
Layer 1
10
69.688402
20
63.536360
11
71.585407
21
65.310302
0
LINE
8
Layer 1
10
71.585407
20
65.310302
11
71.585407
21
65.310302
 0 
ENDSEC
 0 
EOF
