  0
SECTION
  2
HEADER
  9
$ACADVER
  1
AC1014
  9
$HANDSEED
  5
FFFF
  9
$MEASUREMENT
 70
     1
  0
ENDSEC
  0
SECTION
  2
TABLES
  0
TABLE
  2
VPORT
  5
8
330
0
100
AcDbSymbolTable
 70
     4
  0
VPORT
  5
2E
330
8
100
AcDbSymbolTableRecord
100
AcDbViewportTableRecord
  2
*ACTIVE
 70
     0
 10
0.0
 20
0.0
 11
1.0
 21
1.0
 12
210.0
 22
148.5
 13
0.0
 23
0.0
 14
10.0
 24
10.0
 15
10.0
 25
10.0
 16
0.0
 26
0.0
 36
1.0
 17
0.0
 27
0.0
 37
0.0
 40
341.0
 41
1.24
 42
50.0
 43
0.0
 44
0.0
 50
0.0
 51
0.0
 71
     0
 72
   100
 73
     1
 74
     3
 75
     0
 76
     0
 77
     0
 78
     0
  0
ENDTAB
  0
TABLE
  2
LTYPE
  5
5
330
0
100
AcDbSymbolTable
 70
     1
  0
LTYPE
  5
14
330
5
100
AcDbSymbolTableRecord
100
AcDbLinetypeTableRecord
  2
BYBLOCK
 70
     0
  3

 72
    65
 73
     0
 40
0.0
  0
LTYPE
  5
15
330
5
100
AcDbSymbolTableRecord
100
AcDbLinetypeTableRecord
  2
BYLAYER
 70
     0
  3

 72
    65
 73
     0
 40
0.0
  0
LTYPE
  5
16
330
5
100
AcDbSymbolTableRecord
100
AcDbLinetypeTableRecord
  2
CONTINUOUS
 70
     0
  3
Solid line
 72
    65
 73
     0
 40
0.0
  0
ENDTAB
  0
TABLE
  2
LAYER
  5
2
100
AcDbSymbolTable
 70
2
  0
LAYER
  5
50
100
AcDbSymbolTableRecord
100
AcDbLayerTableRecord
  2
0
 70
0
  6
CONTINUOUS
  0
LAYER
  5
51
100
AcDbSymbolTableRecord
100
AcDbLayerTableRecord
  2
ink_ext_XXXXXX
 70
0
  6
CONTINUOUS
  0
ENDTAB
  0
TABLE
  2
STYLE
  5
3
330
0
100
AcDbSymbolTable
 70
     1
  0
STYLE
  5
11
330
3
100
AcDbSymbolTableRecord
100
AcDbTextStyleTableRecord
  2
STANDARD
 70
     0
 40
0.0
 41
1.0
 50
0.0
 71
     0
 42
2.5
  3
txt
  4

  0
ENDTAB
  0
TABLE
  2
VIEW
  5
6
330
0
100
AcDbSymbolTable
 70
     0
  0
ENDTAB
  0
TABLE
  2
UCS
  5
7
330
0
100
AcDbSymbolTable
 70
     0
  0
ENDTAB
  0
TABLE
  2
APPID
  5
9
330
0
100
AcDbSymbolTable
 70
     2
  0
APPID
  5
12
330
9
100
AcDbSymbolTableRecord
100
AcDbRegAppTableRecord
  2
ACAD
 70
     0
  0
ENDTAB
  0
TABLE
  2
DIMSTYLE
  5
A
330
0
100
AcDbSymbolTable
 70
     1
  0
DIMSTYLE
105
27
330
A
100
AcDbSymbolTableRecord
100
AcDbDimStyleTableRecord
  2
ISO-25
 70
     0
  3

  4

  5

  6

  7

 40
1.0
 41
2.5
 42
0.625
 43
3.75
 44
1.25
 45
0.0
 46
0.0
 47
0.0
 48
0.0
140
2.5
141
2.5
142
0.0
143
0.03937007874016
144
1.0
145
0.0
146
1.0
147
0.625
 71
     0
 72
     0
 73
     0
 74
     0
 75
     0
 76
     0
 77
     1
 78
     8
170
     0
171
     3
172
     1
173
     0
174
     0
175
     0
176
     0
177
     0
178
     0
270
     2
271
     2
272
     2
273
     2
274
     3
340
11
275
     0
280
     0
281
     0
282
     0
283
     0
284
     8
285
     0
286
     0
287
     3
288
     0
  0
ENDTAB
  0
TABLE
  2
BLOCK_RECORD
  5
1
330
0
100
AcDbSymbolTable
 70
     1
  0
BLOCK_RECORD
  5
1F
330
1
100
AcDbSymbolTableRecord
100
AcDbBlockTableRecord
  2
*MODEL_SPACE
  0
BLOCK_RECORD
  5
1B
330
1
100
AcDbSymbolTableRecord
100
AcDbBlockTableRecord
  2
*PAPER_SPACE
  0
ENDTAB
  0
ENDSEC
  0
SECTION
  2
BLOCKS
  0
BLOCK
  5
20
330
1F
100
AcDbEntity
  8
0
100
AcDbBlockBegin
  2
*MODEL_SPACE
 70
     0
 10
0.0
 20
0.0
 30
0.0
  3
*MODEL_SPACE
  1

  0
ENDBLK
  5
21
330
1F
100
AcDbEntity
  8
0
100
AcDbBlockEnd
  0
BLOCK
  5
1C
330
1B
100
AcDbEntity
 67
     1
  8
0
100
AcDbBlockBegin
  2
*PAPER_SPACE
  1

  0
ENDBLK
  5
1D
330
1B
100
AcDbEntity
 67
     1
  8
0
100
AcDbBlockEnd
  0
ENDSEC
  0
SECTION
  2
ENTITIES
  0
SPLINE
  5
100
100
AcDbEntity
  8
ink_ext_XXXXXX
 62
7
100
AcDbSpline
 70
8
 71
3
 72
8
 73
4
 74
0
 40
0
 40
0
 40
0
 40
0
 40
1
 40
1
 40
1
 40
1
 10
91.483198
 20
106.991997
 30
0.0
 10
92.913698
 20
106.579997
 30
0.0
 10
90.647698
 20
102.589997
 30
0.0
 10
90.052698
 20
101.280997
 30
0.0
  0
SPLINE
  5
101
100
AcDbEntity
  8
ink_ext_XXXXXX
 62
7
100
AcDbSpline
 70
8
 71
3
 72
8
 73
4
 74
0
 40
0
 40
0
 40
0
 40
0
 40
1
 40
1
 40
1
 40
1
 10
90.052698
 20
101.280997
 30
0.0
 10
90.052698
 20
99.736298
 30
0.0
 10
90.883998
 20
97.478498
 30
0.0
 10
91.837898
 20
96.051598
 30
0.0
  0
SPLINE
  5
102
100
AcDbEntity
  8
ink_ext_XXXXXX
 62
7
100
AcDbSpline
 70
8
 71
3
 72
8
 73
4
 74
0
 40
0
 40
0
 40
0
 40
0
 40
1
 40
1
 40
1
 40
1
 10
91.837898
 20
96.051598
 30
0.0
 10
92.787498
 20
94.624998
 30
0.0
 10
97.189798
 20
92.962098
 30
0.0
 10
99.688698
 20
90.344898
 30
0.0
  0
SPLINE
  5
103
100
AcDbEntity
  8
ink_ext_XXXXXX
 62
7
100
AcDbSpline
 70
8
 71
3
 72
8
 73
4
 74
0
 40
0
 40
0
 40
0
 40
0
 40
1
 40
1
 40
1
 40
1
 10
99.688698
 20
90.344898
 30
0.0
 10
101.705997
 20
90.104698
 30
0.0
 10
103.132997
 20
88.441398
 30
0.0
 10
103.727997
 20
87.728098
 30
0.0
  0
SPLINE
  5
104
100
AcDbEntity
  8
ink_ext_XXXXXX
 62
7
100
AcDbSpline
 70
8
 71
3
 72
8
 73
4
 74
0
 40
0
 40
0
 40
0
 40
0
 40
1
 40
1
 40
1
 40
1
 10
103.727997
 20
87.728098
 30
0.0
 10
105.985997
 20
87.491798
 30
0.0
 10
109.911997
 20
83.806598
 30
0.0
 10
110.742997
 20
81.426198
 30
0.0
  0
SPLINE
  5
105
100
AcDbEntity
  8
ink_ext_XXXXXX
 62
7
100
AcDbSpline
 70
8
 71
3
 72
8
 73
4
 74
0
 40
0
 40
0
 40
0
 40
0
 40
1
 40
1
 40
1
 40
1
 10
110.742997
 20
81.426198
 30
0.0
 10
113.832997
 20
79.049598
 30
0.0
 10
117.162997
 20
71.916398
 30
0.0
 10
117.162997
 20
67.159798
 30
0.0
  0
SPLINE
  5
106
100
AcDbEntity
  8
ink_ext_XXXXXX
 62
7
100
AcDbSpline
 70
8
 71
3
 72
8
 73
4
 74
0
 40
0
 40
0
 40
0
 40
0
 40
1
 40
1
 40
1
 40
1
 10
117.162997
 20
67.159798
 30
0.0
 10
118.589997
 20
62.520698
 30
0.0
 10
118.707997
 20
52.415599
 30
0.0
 10
118.470997
 20
48.254299
 30
0.0
  0
SPLINE
  5
107
100
AcDbEntity
  8
ink_ext_XXXXXX
 62
7
100
AcDbSpline
 70
8
 71
3
 72
8
 73
4
 74
0
 40
0
 40
0
 40
0
 40
0
 40
1
 40
1
 40
1
 40
1
 10
118.470997
 20
48.254299
 30
0.0
 10
119.424997
 20
44.565199
 30
0.0
 10
117.639997
 20
42.188699
 30
0.0
 10
116.213997
 20
39.453499
 30
0.0
  0
SPLINE
  5
108
100
AcDbEntity
  8
ink_ext_XXXXXX
 62
7
100
AcDbSpline
 70
8
 71
3
 72
8
 73
4
 74
0
 40
0
 40
0
 40
0
 40
0
 40
1
 40
1
 40
1
 40
1
 10
116.213997
 20
39.453499
 30
0.0
 10
114.786997
 20
36.718399
 30
0.0
 10
112.764997
 20
35.173399
 30
0.0
 10
111.933997
 20
34.223799
 30
0.0
  0
SPLINE
  5
109
100
AcDbEntity
  8
ink_ext_XXXXXX
 62
7
100
AcDbSpline
 70
8
 71
3
 72
8
 73
4
 74
0
 40
0
 40
0
 40
0
 40
0
 40
1
 40
1
 40
1
 40
1
 10
111.933997
 20
34.223799
 30
0.0
 10
111.097997
 20
33.269899
 30
0.0
 10
109.315997
 20
30.416799
 30
0.0
 10
105.867997
 20
27.921899
 30
0.0
  0
SPLINE
  5
10a
100
AcDbEntity
  8
ink_ext_XXXXXX
 62
7
100
AcDbSpline
 70
8
 71
3
 72
8
 73
4
 74
0
 40
0
 40
0
 40
0
 40
0
 40
1
 40
1
 40
1
 40
1
 10
105.867997
 20
27.921899
 30
0.0
 10
102.419997
 20
25.422999
 30
0.0
 10
97.426198
 20
25.186699
 30
0.0
 10
95.763298
 20
24.828099
 30
0.0
  0
SPLINE
  5
10b
100
AcDbEntity
  8
ink_ext_XXXXXX
 62
7
100
AcDbSpline
 70
8
 71
3
 72
8
 73
4
 74
0
 40
0
 40
0
 40
0
 40
0
 40
1
 40
1
 40
1
 40
1
 10
95.763298
 20
24.828099
 30
0.0
 10
93.697698
 20
24.238699
 30
0.0
 10
90.902698
 20
23.648799
 30
0.0
 10
88.517198
 20
22.053099
 30
0.0
  0
SPLINE
  5
10c
100
AcDbEntity
  8
ink_ext_XXXXXX
 62
7
100
AcDbSpline
 70
8
 71
3
 72
8
 73
4
 74
0
 40
0
 40
0
 40
0
 40
0
 40
1
 40
1
 40
1
 40
1
 10
88.517198
 20
22.053099
 30
0.0
 10
90.611298
 20
20.839499
 30
0.0
 10
91.388298
 20
18.589800
 30
0.0
 10
91.244498
 20
16.273800
 30
0.0
  0
SPLINE
  5
10d
100
AcDbEntity
  8
ink_ext_XXXXXX
 62
7
100
AcDbSpline
 70
8
 71
3
 72
8
 73
4
 74
0
 40
0
 40
0
 40
0
 40
0
 40
1
 40
1
 40
1
 40
1
 10
91.244498
 20
16.273800
 30
0.0
 10
91.558198
 20
16.084400
 30
0.0
 10
91.959798
 20
15.797700
 30
0.0
 10
92.128498
 20
15.491400
 30
0.0
  0
SPLINE
  5
10e
100
AcDbEntity
  8
ink_ext_XXXXXX
 62
7
100
AcDbSpline
 70
8
 71
3
 72
8
 73
4
 74
0
 40
0
 40
0
 40
0
 40
0
 40
1
 40
1
 40
1
 40
1
 10
92.128498
 20
15.491400
 30
0.0
 10
92.427698
 20
14.955900
 30
0.0
 10
92.191398
 20
13.471100
 30
0.0
 10
91.655498
 20
12.935500
 30
0.0
  0
SPLINE
  5
10f
100
AcDbEntity
  8
ink_ext_XXXXXX
 62
7
100
AcDbSpline
 70
8
 71
3
 72
8
 73
4
 74
0
 40
0
 40
0
 40
0
 40
0
 40
1
 40
1
 40
1
 40
1
 10
91.655498
 20
12.935500
 30
0.0
 10
91.289498
 20
12.566800
 30
0.0
 10
90.611698
 20
12.621500
 30
0.0
 10
90.204698
 20
12.807000
 30
0.0
  0
SPLINE
  5
110
100
AcDbEntity
  8
ink_ext_XXXXXX
 62
7
100
AcDbSpline
 70
8
 71
3
 72
8
 73
4
 74
0
 40
0
 40
0
 40
0
 40
0
 40
1
 40
1
 40
1
 40
1
 10
90.204698
 20
12.807000
 30
0.0
 10
89.418398
 20
11.596100
 30
0.0
 10
88.154698
 20
10.473000
 30
0.0
 10
86.693798
 20
9.826170
 30
0.0
  0
SPLINE
  5
111
100
AcDbEntity
  8
ink_ext_XXXXXX
 62
7
100
AcDbSpline
 70
8
 71
3
 72
8
 73
4
 74
0
 40
0
 40
0
 40
0
 40
0
 40
1
 40
1
 40
1
 40
1
 10
86.693798
 20
9.826170
 30
0.0
 10
87.011298
 20
8.108200
 30
0.0
 10
86.387898
 20
5.686330
 30
0.0
 10
83.906598
 20
4.183980
 30
0.0
  0
SPLINE
  5
112
100
AcDbEntity
  8
ink_ext_XXXXXX
 62
7
100
AcDbSpline
 70
8
 71
3
 72
8
 73
4
 74
0
 40
0
 40
0
 40
0
 40
0
 40
1
 40
1
 40
1
 40
1
 10
83.906598
 20
4.183980
 30
0.0
 10
84.071898
 20
3.778130
 30
0.0
 10
84.163298
 20
3.428130
 30
0.0
 10
84.109798
 20
3.249220
 30
0.0
  0
SPLINE
  5
113
100
AcDbEntity
  8
ink_ext_XXXXXX
 62
7
100
AcDbSpline
 70
8
 71
3
 72
8
 73
4
 74
0
 40
0
 40
0
 40
0
 40
0
 40
1
 40
1
 40
1
 40
1
 10
84.109798
 20
3.249220
 30
0.0
 10
83.931298
 20
2.651950
 30
0.0
 10
81.314798
 20
1.525780
 30
0.0
 10
80.483998
 20
1.584380
 30
0.0
  0
SPLINE
  5
114
100
AcDbEntity
  8
ink_ext_XXXXXX
 62
7
100
AcDbSpline
 70
8
 71
3
 72
8
 73
4
 74
0
 40
0
 40
0
 40
0
 40
0
 40
1
 40
1
 40
1
 40
1
 10
80.483998
 20
1.584380
 30
0.0
 10
80.171098
 20
1.606250
 30
0.0
 10
79.970698
 20
2.177730
 30
0.0
 10
79.872698
 20
2.922270
 30
0.0
  0
SPLINE
  5
115
100
AcDbEntity
  8
ink_ext_XXXXXX
 62
7
100
AcDbSpline
 70
8
 71
3
 72
8
 73
4
 74
0
 40
0
 40
0
 40
0
 40
0
 40
1
 40
1
 40
1
 40
1
 10
79.872698
 20
2.922270
 30
0.0
 10
77.712898
 20
2.728520
 30
0.0
 10
76.222998
 20
3.376560
 30
0.0
 10
75.429298
 20
4.117190
 30
0.0
  0
SPLINE
  5
116
100
AcDbEntity
  8
ink_ext_XXXXXX
 62
7
100
AcDbSpline
 70
8
 71
3
 72
8
 73
4
 74
0
 40
0
 40
0
 40
0
 40
0
 40
1
 40
1
 40
1
 40
1
 10
75.429298
 20
4.117190
 30
0.0
 10
74.927298
 20
3.381640
 30
0.0
 10
74.285198
 20
2.716800
 30
0.0
 10
73.507398
 20
2.206250
 30
0.0
  0
SPLINE
  5
117
100
AcDbEntity
  8
ink_ext_XXXXXX
 62
7
100
AcDbSpline
 70
8
 71
3
 72
8
 73
4
 74
0
 40
0
 40
0
 40
0
 40
0
 40
1
 40
1
 40
1
 40
1
 10
73.507398
 20
2.206250
 30
0.0
 10
73.196498
 20
1.552730
 30
0.0
 10
72.640998
 20
0.961328
 30
0.0
 10
71.801598
 20
0.689844
 30
0.0
  0
SPLINE
  5
118
100
AcDbEntity
  8
ink_ext_XXXXXX
 62
7
100
AcDbSpline
 70
8
 71
3
 72
8
 73
4
 74
0
 40
0
 40
0
 40
0
 40
0
 40
1
 40
1
 40
1
 40
1
 10
71.801598
 20
0.689844
 30
0.0
 10
70.909798
 20
0.403125
 30
0.0
 10
70.031998
 20
0.602344
 30
0.0
 10
69.323398
 20
0.992578
 30
0.0
  0
SPLINE
  5
119
100
AcDbEntity
  8
ink_ext_XXXXXX
 62
7
100
AcDbSpline
 70
8
 71
3
 72
8
 73
4
 74
0
 40
0
 40
0
 40
0
 40
0
 40
1
 40
1
 40
1
 40
1
 10
69.323398
 20
0.992578
 30
0.0
 10
66.151598
 20
0.741797
 30
0.0
 10
63.983198
 20
1.833590
 30
0.0
 10
62.844898
 20
3.433980
 30
0.0
  0
SPLINE
  5
11a
100
AcDbEntity
  8
ink_ext_XXXXXX
 62
7
100
AcDbSpline
 70
8
 71
3
 72
8
 73
4
 74
0
 40
0
 40
0
 40
0
 40
0
 40
1
 40
1
 40
1
 40
1
 10
62.844898
 20
3.433980
 30
0.0
 10
61.527698
 20
2.191020
 30
0.0
 10
57.452699
 20
1.928910
 30
0.0
 10
56.043799
 20
3.007420
 30
0.0
  0
SPLINE
  5
11b
100
AcDbEntity
  8
ink_ext_XXXXXX
 62
7
100
AcDbSpline
 70
8
 71
3
 72
8
 73
4
 74
0
 40
0
 40
0
 40
0
 40
0
 40
1
 40
1
 40
1
 40
1
 10
56.043799
 20
3.007420
 30
0.0
 10
54.544499
 20
1.312110
 30
0.0
 10
51.733199
 20
0.362891
 30
0.0
 10
47.645299
 20
1.366410
 30
0.0
  0
SPLINE
  5
11c
100
AcDbEntity
  8
ink_ext_XXXXXX
 62
7
100
AcDbSpline
 70
8
 71
3
 72
8
 73
4
 74
0
 40
0
 40
0
 40
0
 40
0
 40
1
 40
1
 40
1
 40
1
 10
47.645299
 20
1.366410
 30
0.0
 10
45.958599
 20
1.779690
 30
0.0
 10
44.668399
 20
2.843750
 30
0.0
 10
43.798799
 20
4.118360
 30
0.0
  0
SPLINE
  5
11d
100
AcDbEntity
  8
ink_ext_XXXXXX
 62
7
100
AcDbSpline
 70
8
 71
3
 72
8
 73
4
 74
0
 40
0
 40
0
 40
0
 40
0
 40
1
 40
1
 40
1
 40
1
 10
43.798799
 20
4.118360
 30
0.0
 10
42.992999
 20
3.366410
 30
0.0
 10
41.471499
 20
2.709770
 30
0.0
 10
39.260899
 20
2.932030
 30
0.0
  0
SPLINE
  5
11e
100
AcDbEntity
  8
ink_ext_XXXXXX
 62
7
100
AcDbSpline
 70
8
 71
3
 72
8
 73
4
 74
0
 40
0
 40
0
 40
0
 40
0
 40
1
 40
1
 40
1
 40
1
 10
39.260899
 20
2.932030
 30
0.0
 10
38.822999
 20
2.374220
 30
0.0
 10
38.008199
 20
1.886330
 30
0.0
 10
36.072699
 20
2.413670
 30
0.0
  0
SPLINE
  5
11f
100
AcDbEntity
  8
ink_ext_XXXXXX
 62
7
100
AcDbSpline
 70
8
 71
3
 72
8
 73
4
 74
0
 40
0
 40
0
 40
0
 40
0
 40
1
 40
1
 40
1
 40
1
 10
36.072699
 20
2.413670
 30
0.0
 10
35.010199
 20
2.703130
 30
0.0
 10
34.613299
 20
3.385160
 30
0.0
 10
34.946899
 20
4.426950
 30
0.0
  0
SPLINE
  5
120
100
AcDbEntity
  8
ink_ext_XXXXXX
 62
7
100
AcDbSpline
 70
8
 71
3
 72
8
 73
4
 74
0
 40
0
 40
0
 40
0
 40
0
 40
1
 40
1
 40
1
 40
1
 10
34.946899
 20
4.426950
 30
0.0
 10
32.774199
 20
5.937890
 30
0.0
 10
32.231599
 20
8.200780
 30
0.0
 10
32.534399
 20
9.829300
 30
0.0
  0
SPLINE
  5
121
100
AcDbEntity
  8
ink_ext_XXXXXX
 62
7
100
AcDbSpline
 70
8
 71
3
 72
8
 73
4
 74
0
 40
0
 40
0
 40
0
 40
0
 40
1
 40
1
 40
1
 40
1
 10
32.534399
 20
9.829300
 30
0.0
 10
31.793799
 20
10.157400
 30
0.0
 10
31.103499
 20
10.607400
 30
0.0
 10
30.500799
 20
11.130500
 30
0.0
  0
SPLINE
  5
122
100
AcDbEntity
  8
ink_ext_XXXXXX
 62
7
100
AcDbSpline
 70
8
 71
3
 72
8
 73
4
 74
0
 40
0
 40
0
 40
0
 40
0
 40
1
 40
1
 40
1
 40
1
 10
30.500799
 20
11.130500
 30
0.0
 10
28.877699
 20
10.580100
 30
0.0
 10
27.145699
 20
13.153100
 30
0.0
 10
27.035199
 20
13.590200
 30
0.0
  0
SPLINE
  5
123
100
AcDbEntity
  8
ink_ext_XXXXXX
 62
7
100
AcDbSpline
 70
8
 71
3
 72
8
 73
4
 74
0
 40
0
 40
0
 40
0
 40
0
 40
1
 40
1
 40
1
 40
1
 10
27.035199
 20
13.590200
 30
0.0
 10
26.936299
 20
13.981600
 30
0.0
 10
27.640999
 20
14.815200
 30
0.0
 10
28.127299
 20
15.132400
 30
0.0
  0
SPLINE
  5
124
100
AcDbEntity
  8
ink_ext_XXXXXX
 62
7
100
AcDbSpline
 70
8
 71
3
 72
8
 73
4
 74
0
 40
0
 40
0
 40
0
 40
0
 40
1
 40
1
 40
1
 40
1
 10
28.127299
 20
15.132400
 30
0.0
 10
27.619899
 20
17.821900
 30
0.0
 10
28.272999
 20
20.639799
 30
0.0
 10
30.711699
 20
22.053099
 30
0.0
  0
SPLINE
  5
125
100
AcDbEntity
  8
ink_ext_XXXXXX
 62
7
100
AcDbSpline
 70
8
 71
3
 72
8
 73
4
 74
0
 40
0
 40
0
 40
0
 40
0
 40
1
 40
1
 40
1
 40
1
 10
30.711699
 20
22.053099
 30
0.0
 10
28.324999
 20
23.648799
 30
0.0
 10
25.532799
 20
24.238699
 30
0.0
 10
23.467599
 20
24.828099
 30
0.0
  0
SPLINE
  5
126
100
AcDbEntity
  8
ink_ext_XXXXXX
 62
7
100
AcDbSpline
 70
8
 71
3
 72
8
 73
4
 74
0
 40
0
 40
0
 40
0
 40
0
 40
1
 40
1
 40
1
 40
1
 10
23.467599
 20
24.828099
 30
0.0
 10
21.804699
 20
25.186699
 30
0.0
 10
16.807000
 20
25.422999
 30
0.0
 10
13.362500
 20
27.921899
 30
0.0
  0
SPLINE
  5
127
100
AcDbEntity
  8
ink_ext_XXXXXX
 62
7
100
AcDbSpline
 70
8
 71
3
 72
8
 73
4
 74
0
 40
0
 40
0
 40
0
 40
0
 40
1
 40
1
 40
1
 40
1
 10
13.362500
 20
27.921899
 30
0.0
 10
9.914450
 20
30.416799
 30
0.0
 10
8.133200
 20
33.269899
 30
0.0
 10
7.297270
 20
34.223799
 30
0.0
  0
SPLINE
  5
128
100
AcDbEntity
  8
ink_ext_XXXXXX
 62
7
100
AcDbSpline
 70
8
 71
3
 72
8
 73
4
 74
0
 40
0
 40
0
 40
0
 40
0
 40
1
 40
1
 40
1
 40
1
 10
7.297270
 20
34.223799
 30
0.0
 10
6.465630
 20
35.173399
 30
0.0
 10
4.444140
 20
36.718399
 30
0.0
 10
3.017190
 20
39.453499
 30
0.0
  0
SPLINE
  5
129
100
AcDbEntity
  8
ink_ext_XXXXXX
 62
7
100
AcDbSpline
 70
8
 71
3
 72
8
 73
4
 74
0
 40
0
 40
0
 40
0
 40
0
 40
1
 40
1
 40
1
 40
1
 10
3.017190
 20
39.453499
 30
0.0
 10
1.590630
 20
42.188699
 30
0.0
 10
-0.194922
 20
44.565199
 30
0.0
 10
0.758984
 20
48.254299
 30
0.0
  0
SPLINE
  5
12a
100
AcDbEntity
  8
ink_ext_XXXXXX
 62
7
100
AcDbSpline
 70
8
 71
3
 72
8
 73
4
 74
0
 40
0
 40
0
 40
0
 40
0
 40
1
 40
1
 40
1
 40
1
 10
0.758984
 20
48.254299
 30
0.0
 10
0.518750
 20
52.415599
 30
0.0
 10
0.640625
 20
62.520698
 30
0.0
 10
2.063280
 20
67.159798
 30
0.0
  0
SPLINE
  5
12b
100
AcDbEntity
  8
ink_ext_XXXXXX
 62
7
100
AcDbSpline
 70
8
 71
3
 72
8
 73
4
 74
0
 40
0
 40
0
 40
0
 40
0
 40
1
 40
1
 40
1
 40
1
 10
2.063280
 20
67.159798
 30
0.0
 10
2.063280
 20
71.916398
 30
0.0
 10
5.398050
 20
79.049598
 30
0.0
 10
8.487500
 20
81.426198
 30
0.0
  0
SPLINE
  5
12c
100
AcDbEntity
  8
ink_ext_XXXXXX
 62
7
100
AcDbSpline
 70
8
 71
3
 72
8
 73
4
 74
0
 40
0
 40
0
 40
0
 40
0
 40
1
 40
1
 40
1
 40
1
 10
8.487500
 20
81.426198
 30
0.0
 10
9.319140
 20
83.806598
 30
0.0
 10
13.244500
 20
87.491798
 30
0.0
 10
15.502700
 20
87.728098
 30
0.0
  0
SPLINE
  5
12d
100
AcDbEntity
  8
ink_ext_XXXXXX
 62
7
100
AcDbSpline
 70
8
 71
3
 72
8
 73
4
 74
0
 40
0
 40
0
 40
0
 40
0
 40
1
 40
1
 40
1
 40
1
 10
15.502700
 20
87.728098
 30
0.0
 10
16.097700
 20
88.441398
 30
0.0
 10
17.520300
 20
90.104698
 30
0.0
 10
19.542200
 20
90.344898
 30
0.0
  0
SPLINE
  5
12e
100
AcDbEntity
  8
ink_ext_XXXXXX
 62
7
100
AcDbSpline
 70
8
 71
3
 72
8
 73
4
 74
0
 40
0
 40
0
 40
0
 40
0
 40
1
 40
1
 40
1
 40
1
 10
19.542200
 20
90.344898
 30
0.0
 10
22.040999
 20
92.962098
 30
0.0
 10
26.439099
 20
94.624998
 30
0.0
 10
27.392999
 20
96.051598
 30
0.0
  0
SPLINE
  5
12f
100
AcDbEntity
  8
ink_ext_XXXXXX
 62
7
100
AcDbSpline
 70
8
 71
3
 72
8
 73
4
 74
0
 40
0
 40
0
 40
0
 40
0
 40
1
 40
1
 40
1
 40
1
 10
27.392999
 20
96.051598
 30
0.0
 10
28.346899
 20
97.478498
 30
0.0
 10
29.174199
 20
99.736298
 30
0.0
 10
29.174199
 20
101.280997
 30
0.0
  0
SPLINE
  5
130
100
AcDbEntity
  8
ink_ext_XXXXXX
 62
7
100
AcDbSpline
 70
8
 71
3
 72
8
 73
4
 74
0
 40
0
 40
0
 40
0
 40
0
 40
1
 40
1
 40
1
 40
1
 10
29.174199
 20
101.280997
 30
0.0
 10
28.583199
 20
102.589997
 30
0.0
 10
26.316799
 20
106.579997
 30
0.0
 10
27.747699
 20
106.991997
 30
0.0
  0
SPLINE
  5
131
100
AcDbEntity
  8
ink_ext_XXXXXX
 62
7
100
AcDbSpline
 70
8
 71
3
 72
8
 73
4
 74
0
 40
0
 40
0
 40
0
 40
0
 40
1
 40
1
 40
1
 40
1
 10
27.747699
 20
106.991997
 30
0.0
 10
28.583199
 20
107.228997
 30
0.0
 10
30.605099
 20
105.683997
 30
0.0
 10
32.504299
 20
102.470997
 30
0.0
  0
SPLINE
  5
132
100
AcDbEntity
  8
ink_ext_XXXXXX
 62
7
100
AcDbSpline
 70
8
 71
3
 72
8
 73
4
 74
0
 40
0
 40
0
 40
0
 40
0
 40
1
 40
1
 40
1
 40
1
 10
32.504299
 20
102.470997
 30
0.0
 10
34.408199
 20
99.263698
 30
0.0
 10
35.953099
 20
97.596498
 30
0.0
 10
37.856599
 20
94.743398
 30
0.0
  0
SPLINE
  5
133
100
AcDbEntity
  8
ink_ext_XXXXXX
 62
7
100
AcDbSpline
 70
8
 71
3
 72
8
 73
4
 74
0
 40
0
 40
0
 40
0
 40
0
 40
1
 40
1
 40
1
 40
1
 10
37.856599
 20
94.743398
 30
0.0
 10
39.755899
 20
91.889798
 30
0.0
 10
38.810499
 20
88.086698
 30
0.0
 10
38.924599
 20
85.469498
 30
0.0
  0
SPLINE
  5
134
100
AcDbEntity
  8
ink_ext_XXXXXX
 62
7
100
AcDbSpline
 70
8
 71
3
 72
8
 73
4
 74
0
 40
0
 40
0
 40
0
 40
0
 40
1
 40
1
 40
1
 40
1
 10
38.924599
 20
85.469498
 30
0.0
 10
39.234399
 20
78.674598
 30
0.0
 10
35.121499
 20
73.933998
 30
0.0
 10
32.504299
 20
70.489798
 30
0.0
  0
SPLINE
  5
135
100
AcDbEntity
  8
ink_ext_XXXXXX
 62
7
100
AcDbSpline
 70
8
 71
3
 72
8
 73
4
 74
0
 40
0
 40
0
 40
0
 40
0
 40
1
 40
1
 40
1
 40
1
 10
32.504299
 20
70.489798
 30
0.0
 10
29.891799
 20
67.041398
 30
0.0
 10
28.819499
 20
60.498798
 30
0.0
 10
31.791399
 20
53.006599
 30
0.0
  0
SPLINE
  5
136
100
AcDbEntity
  8
ink_ext_XXXXXX
 62
7
100
AcDbSpline
 70
8
 71
3
 72
8
 73
4
 74
0
 40
0
 40
0
 40
0
 40
0
 40
1
 40
1
 40
1
 40
1
 10
31.791399
 20
53.006599
 30
0.0
 10
34.762899
 20
45.518799
 30
0.0
 10
35.239499
 20
39.571899
 30
0.0
 10
33.931299
 20
34.460199
 30
0.0
  0
SPLINE
  5
137
100
AcDbEntity
  8
ink_ext_XXXXXX
 62
7
100
AcDbSpline
 70
8
 71
3
 72
8
 73
4
 74
0
 40
0
 40
0
 40
0
 40
0
 40
1
 40
1
 40
1
 40
1
 10
33.931299
 20
34.460199
 30
0.0
 10
32.626999
 20
29.348399
 30
0.0
 10
32.264099
 20
28.158199
 30
0.0
 10
32.626999
 20
26.613299
 30
0.0
  0
SPLINE
  5
138
100
AcDbEntity
  8
ink_ext_XXXXXX
 62
7
100
AcDbSpline
 70
8
 71
3
 72
8
 73
4
 74
0
 40
0
 40
0
 40
0
 40
0
 40
1
 40
1
 40
1
 40
1
 10
32.626999
 20
26.613299
 30
0.0
 10
32.733599
 20
26.148399
 30
0.0
 10
33.045699
 20
25.607799
 30
0.0
 10
33.497299
 20
25.036699
 30
0.0
  0
SPLINE
  5
139
100
AcDbEntity
  8
ink_ext_XXXXXX
 62
7
100
AcDbSpline
 70
8
 71
3
 72
8
 73
4
 74
0
 40
0
 40
0
 40
0
 40
0
 40
1
 40
1
 40
1
 40
1
 10
33.497299
 20
25.036699
 30
0.0
 10
33.038299
 20
28.099199
 30
0.0
 10
35.463699
 20
30.843399
 30
0.0
 10
39.673799
 20
32.009399
 30
0.0
  0
SPLINE
  5
13a
100
AcDbEntity
  8
ink_ext_XXXXXX
 62
7
100
AcDbSpline
 70
8
 71
3
 72
8
 73
4
 74
0
 40
0
 40
0
 40
0
 40
0
 40
1
 40
1
 40
1
 40
1
 10
39.673799
 20
32.009399
 30
0.0
 10
39.529699
 20
32.535499
 30
0.0
 10
39.466799
 20
32.993399
 30
0.0
 10
39.563699
 20
33.233599
 30
0.0
  0
SPLINE
  5
13b
100
AcDbEntity
  8
ink_ext_XXXXXX
 62
7
100
AcDbSpline
 70
8
 71
3
 72
8
 73
4
 74
0
 40
0
 40
0
 40
0
 40
0
 40
1
 40
1
 40
1
 40
1
 10
39.563699
 20
33.233599
 30
0.0
 10
39.880499
 20
34.023799
 30
0.0
 10
42.221099
 20
36.215199
 30
0.0
 10
43.367999
 20
34.500399
 30
0.0
  0
SPLINE
  5
13c
100
AcDbEntity
  8
ink_ext_XXXXXX
 62
7
100
AcDbSpline
 70
8
 71
3
 72
8
 73
4
 74
0
 40
0
 40
0
 40
0
 40
0
 40
1
 40
1
 40
1
 40
1
 10
43.367999
 20
34.500399
 30
0.0
 10
43.526199
 20
34.259799
 30
0.0
 10
43.564499
 20
33.332799
 30
0.0
 10
43.502699
 20
32.351599
 30
0.0
  0
SPLINE
  5
13d
100
AcDbEntity
  8
ink_ext_XXXXXX
 62
7
100
AcDbSpline
 70
8
 71
3
 72
8
 73
4
 74
0
 40
0
 40
0
 40
0
 40
0
 40
1
 40
1
 40
1
 40
1
 10
43.502699
 20
32.351599
 30
0.0
 10
46.285899
 20
31.907399
 30
0.0
 10
47.900799
 20
29.827299
 30
0.0
 10
48.313699
 20
28.278899
 30
0.0
  0
SPLINE
  5
13e
100
AcDbEntity
  8
ink_ext_XXXXXX
 62
7
100
AcDbSpline
 70
8
 71
3
 72
8
 73
4
 74
0
 40
0
 40
0
 40
0
 40
0
 40
1
 40
1
 40
1
 40
1
 10
48.313699
 20
28.278899
 30
0.0
 10
49.137099
 20
28.608599
 30
0.0
 10
50.026999
 20
28.820699
 30
0.0
 10
50.902699
 20
28.919899
 30
0.0
  0
SPLINE
  5
13f
100
AcDbEntity
  8
ink_ext_XXXXXX
 62
7
100
AcDbSpline
 70
8
 71
3
 72
8
 73
4
 74
0
 40
0
 40
0
 40
0
 40
0
 40
1
 40
1
 40
1
 40
1
 10
50.902699
 20
28.919899
 30
0.0
 10
50.963299
 20
29.149599
 30
0.0
 10
51.038699
 20
29.330899
 30
0.0
 10
51.133199
 20
29.424999
 30
0.0
  0
SPLINE
  5
140
100
AcDbEntity
  8
ink_ext_XXXXXX
 62
7
100
AcDbSpline
 70
8
 71
3
 72
8
 73
4
 74
0
 40
0
 40
0
 40
0
 40
0
 40
1
 40
1
 40
1
 40
1
 10
51.133199
 20
29.424999
 30
0.0
 10
51.609399
 20
29.901599
 30
0.0
 10
53.511699
 20
30.217999
 30
0.0
 10
54.621099
 20
30.378099
 30
0.0
  0
SPLINE
  5
141
100
AcDbEntity
  8
ink_ext_XXXXXX
 62
7
100
AcDbSpline
 70
8
 71
3
 72
8
 73
4
 74
0
 40
0
 40
0
 40
0
 40
0
 40
1
 40
1
 40
1
 40
1
 10
54.621099
 20
30.378099
 30
0.0
 10
55.730099
 20
30.534399
 30
0.0
 10
56.046499
 20
28.948399
 30
0.0
 10
55.886699
 20
28.155899
 30
0.0
  0
SPLINE
  5
142
100
AcDbEntity
  8
ink_ext_XXXXXX
 62
7
100
AcDbSpline
 70
8
 71
3
 72
8
 73
4
 74
0
 40
0
 40
0
 40
0
 40
0
 40
1
 40
1
 40
1
 40
1
 10
55.886699
 20
28.155899
 30
0.0
 10
55.869899
 20
28.071099
 30
0.0
 10
55.840199
 20
27.975399
 30
0.0
 10
55.799599
 20
27.871899
 30
0.0
  0
SPLINE
  5
143
100
AcDbEntity
  8
ink_ext_XXXXXX
 62
7
100
AcDbSpline
 70
8
 71
3
 72
8
 73
4
 74
0
 40
0
 40
0
 40
0
 40
0
 40
1
 40
1
 40
1
 40
1
 10
55.799599
 20
27.871899
 30
0.0
 10
56.100799
 20
27.661699
 30
0.0
 10
56.380499
 20
27.428099
 30
0.0
 10
56.636699
 20
27.176199
 30
0.0
  0
SPLINE
  5
144
100
AcDbEntity
  8
ink_ext_XXXXXX
 62
7
100
AcDbSpline
 70
8
 71
3
 72
8
 73
4
 74
0
 40
0
 40
0
 40
0
 40
0
 40
1
 40
1
 40
1
 40
1
 10
56.636699
 20
27.176199
 30
0.0
 10
57.938699
 20
28.127699
 30
0.0
 10
59.737899
 20
28.673799
 30
0.0
 10
62.001598
 20
28.272299
 30
0.0
  0
SPLINE
  5
145
100
AcDbEntity
  8
ink_ext_XXXXXX
 62
7
100
AcDbSpline
 70
8
 71
3
 72
8
 73
4
 74
0
 40
0
 40
0
 40
0
 40
0
 40
1
 40
1
 40
1
 40
1
 10
62.001598
 20
28.272299
 30
0.0
 10
62.263698
 20
28.987899
 30
0.0
 10
62.639498
 20
29.510499
 30
0.0
 10
63.003898
 20
29.406999
 30
0.0
  0
SPLINE
  5
146
100
AcDbEntity
  8
ink_ext_XXXXXX
 62
7
100
AcDbSpline
 70
8
 71
3
 72
8
 73
4
 74
0
 40
0
 40
0
 40
0
 40
0
 40
1
 40
1
 40
1
 40
1
 10
63.003898
 20
29.406999
 30
0.0
 10
63.355498
 20
29.305099
 30
0.0
 10
64.029298
 20
28.989799
 30
0.0
 10
64.701598
 20
28.556599
 30
0.0
  0
SPLINE
  5
147
100
AcDbEntity
  8
ink_ext_XXXXXX
 62
7
100
AcDbSpline
 70
8
 71
3
 72
8
 73
4
 74
0
 40
0
 40
0
 40
0
 40
0
 40
1
 40
1
 40
1
 40
1
 10
64.701598
 20
28.556599
 30
0.0
 10
65.214498
 20
28.759399
 30
0.0
 10
65.765998
 20
28.896099
 30
0.0
 10
66.349998
 20
28.948399
 30
0.0
  0
SPLINE
  5
148
100
AcDbEntity
  8
ink_ext_XXXXXX
 62
7
100
AcDbSpline
 70
8
 71
3
 72
8
 73
4
 74
0
 40
0
 40
0
 40
0
 40
0
 40
1
 40
1
 40
1
 40
1
 10
66.349998
 20
28.948399
 30
0.0
 10
67.146498
 20
29.021899
 30
0.0
 10
68.017598
 20
28.986699
 30
0.0
 10
68.885198
 20
28.840999
 30
0.0
  0
SPLINE
  5
149
100
AcDbEntity
  8
ink_ext_XXXXXX
 62
7
100
AcDbSpline
 70
8
 71
3
 72
8
 73
4
 74
0
 40
0
 40
0
 40
0
 40
0
 40
1
 40
1
 40
1
 40
1
 10
68.885198
 20
28.840999
 30
0.0
 10
68.826598
 20
29.556999
 30
0.0
 10
70.670298
 20
29.848399
 30
0.0
 10
71.556298
 20
29.672999
 30
0.0
  0
SPLINE
  5
14a
100
AcDbEntity
  8
ink_ext_XXXXXX
 62
7
100
AcDbSpline
 70
8
 71
3
 72
8
 73
4
 74
0
 40
0
 40
0
 40
0
 40
0
 40
1
 40
1
 40
1
 40
1
 10
71.556298
 20
29.672999
 30
0.0
 10
72.650398
 20
31.353899
 30
0.0
 10
74.943798
 20
32.951599
 30
0.0
 10
78.400798
 20
32.279699
 30
0.0
  0
SPLINE
  5
14b
100
AcDbEntity
  8
ink_ext_XXXXXX
 62
7
100
AcDbSpline
 70
8
 71
3
 72
8
 73
4
 74
0
 40
0
 40
0
 40
0
 40
0
 40
1
 40
1
 40
1
 40
1
 10
78.400798
 20
32.279699
 30
0.0
 10
78.621498
 20
32.237099
 30
0.0
 10
78.837498
 20
32.187899
 30
0.0
 10
79.049598
 20
32.135199
 30
0.0
  0
SPLINE
  5
14c
100
AcDbEntity
  8
ink_ext_XXXXXX
 62
7
100
AcDbSpline
 70
8
 71
3
 72
8
 73
4
 74
0
 40
0
 40
0
 40
0
 40
0
 40
1
 40
1
 40
1
 40
1
 10
79.049598
 20
32.135199
 30
0.0
 10
80.086698
 20
32.718799
 30
0.0
 10
82.134798
 20
33.497999
 30
0.0
 10
82.920298
 20
32.618799
 30
0.0
  0
SPLINE
  5
14d
100
AcDbEntity
  8
ink_ext_XXXXXX
 62
7
100
AcDbSpline
 70
8
 71
3
 72
8
 73
4
 74
0
 40
0
 40
0
 40
0
 40
0
 40
1
 40
1
 40
1
 40
1
 10
82.920298
 20
32.618799
 30
0.0
 10
83.562498
 20
31.902699
 30
0.0
 10
83.127698
 20
30.994899
 30
0.0
 10
82.723798
 20
30.426599
 30
0.0
  0
SPLINE
  5
14e
100
AcDbEntity
  8
ink_ext_XXXXXX
 62
7
100
AcDbSpline
 70
8
 71
3
 72
8
 73
4
 74
0
 40
0
 40
0
 40
0
 40
0
 40
1
 40
1
 40
1
 40
1
 10
82.723798
 20
30.426599
 30
0.0
 10
84.653498
 20
28.971499
 30
0.0
 10
85.685898
 20
26.929299
 30
0.0
 10
85.586698
 20
24.856299
 30
0.0
  0
SPLINE
  5
14f
100
AcDbEntity
  8
ink_ext_XXXXXX
 62
7
100
AcDbSpline
 70
8
 71
3
 72
8
 73
4
 74
0
 40
0
 40
0
 40
0
 40
0
 40
1
 40
1
 40
1
 40
1
 10
85.586698
 20
24.856299
 30
0.0
 10
86.117598
 20
25.493399
 30
0.0
 10
86.485898
 20
26.099599
 30
0.0
 10
86.603898
 20
26.613299
 30
0.0
  0
SPLINE
  5
150
100
AcDbEntity
  8
ink_ext_XXXXXX
 62
7
100
AcDbSpline
 70
8
 71
3
 72
8
 73
4
 74
0
 40
0
 40
0
 40
0
 40
0
 40
1
 40
1
 40
1
 40
1
 10
86.603898
 20
26.613299
 30
0.0
 10
86.962498
 20
28.158199
 30
0.0
 10
86.603898
 20
29.348399
 30
0.0
 10
85.299598
 20
34.460199
 30
0.0
  0
SPLINE
  5
151
100
AcDbEntity
  8
ink_ext_XXXXXX
 62
7
100
AcDbSpline
 70
8
 71
3
 72
8
 73
4
 74
0
 40
0
 40
0
 40
0
 40
0
 40
1
 40
1
 40
1
 40
1
 10
85.299598
 20
34.460199
 30
0.0
 10
83.990998
 20
39.571899
 30
0.0
 10
84.467998
 20
45.518799
 30
0.0
 10
87.439498
 20
53.006599
 30
0.0
  0
SPLINE
  5
152
100
AcDbEntity
  8
ink_ext_XXXXXX
 62
7
100
AcDbSpline
 70
8
 71
3
 72
8
 73
4
 74
0
 40
0
 40
0
 40
0
 40
0
 40
1
 40
1
 40
1
 40
1
 10
87.439498
 20
53.006599
 30
0.0
 10
90.411298
 20
60.498798
 30
0.0
 10
89.339098
 20
67.041398
 30
0.0
 10
86.726598
 20
70.489798
 30
0.0
  0
SPLINE
  5
153
100
AcDbEntity
  8
ink_ext_XXXXXX
 62
7
100
AcDbSpline
 70
8
 71
3
 72
8
 73
4
 74
0
 40
0
 40
0
 40
0
 40
0
 40
1
 40
1
 40
1
 40
1
 10
86.726598
 20
70.489798
 30
0.0
 10
84.109398
 20
73.933998
 30
0.0
 10
79.996498
 20
78.674598
 30
0.0
 10
80.306298
 20
85.469498
 30
0.0
  0
SPLINE
  5
154
100
AcDbEntity
  8
ink_ext_XXXXXX
 62
7
100
AcDbSpline
 70
8
 71
3
 72
8
 73
4
 74
0
 40
0
 40
0
 40
0
 40
0
 40
1
 40
1
 40
1
 40
1
 10
80.306298
 20
85.469498
 30
0.0
 10
80.420298
 20
88.086698
 30
0.0
 10
79.474598
 20
91.889798
 30
0.0
 10
81.374198
 20
94.743398
 30
0.0
  0
SPLINE
  5
155
100
AcDbEntity
  8
ink_ext_XXXXXX
 62
7
100
AcDbSpline
 70
8
 71
3
 72
8
 73
4
 74
0
 40
0
 40
0
 40
0
 40
0
 40
1
 40
1
 40
1
 40
1
 10
81.374198
 20
94.743398
 30
0.0
 10
83.277698
 20
97.596498
 30
0.0
 10
84.822698
 20
99.263698
 30
0.0
 10
86.726598
 20
102.470997
 30
0.0
  0
SPLINE
  5
156
100
AcDbEntity
  8
ink_ext_XXXXXX
 62
7
100
AcDbSpline
 70
8
 71
3
 72
8
 73
4
 74
0
 40
0
 40
0
 40
0
 40
0
 40
1
 40
1
 40
1
 40
1
 10
86.726598
 20
102.470997
 30
0.0
 10
88.625798
 20
105.683997
 30
0.0
 10
90.647698
 20
107.228997
 30
0.0
 10
91.483198
 20
106.991997
 30
0.0
  0
SPLINE
  5
157
100
AcDbEntity
  8
ink_ext_XXXXXX
 62
7
100
AcDbSpline
 70
8
 71
3
 72
8
 73
4
 74
0
 40
0
 40
0
 40
0
 40
0
 40
1
 40
1
 40
1
 40
1
 10
91.483198
 20
106.991997
 30
0.0
 10
92.913698
 20
106.579997
 30
0.0
 10
90.647698
 20
102.589997
 30
0.0
 10
90.052698
 20
101.280997
 30
0.0
  0
SPLINE
  5
158
100
AcDbEntity
  8
ink_ext_XXXXXX
 62
7
100
AcDbSpline
 70
8
 71
3
 72
8
 73
4
 74
0
 40
0
 40
0
 40
0
 40
0
 40
1
 40
1
 40
1
 40
1
 10
90.052698
 20
101.280997
 30
0.0
 10
90.052698
 20
99.736298
 30
0.0
 10
90.883998
 20
97.478498
 30
0.0
 10
91.837898
 20
96.051598
 30
0.0
  0
SPLINE
  5
159
100
AcDbEntity
  8
ink_ext_XXXXXX
 62
7
100
AcDbSpline
 70
8
 71
3
 72
8
 73
4
 74
0
 40
0
 40
0
 40
0
 40
0
 40
1
 40
1
 40
1
 40
1
 10
91.837898
 20
96.051598
 30
0.0
 10
92.787498
 20
94.624998
 30
0.0
 10
97.189798
 20
92.962098
 30
0.0
 10
99.688698
 20
90.344898
 30
0.0
  0
SPLINE
  5
15a
100
AcDbEntity
  8
ink_ext_XXXXXX
 62
7
100
AcDbSpline
 70
8
 71
3
 72
8
 73
4
 74
0
 40
0
 40
0
 40
0
 40
0
 40
1
 40
1
 40
1
 40
1
 10
99.688698
 20
90.344898
 30
0.0
 10
101.705997
 20
90.104698
 30
0.0
 10
103.132997
 20
88.441398
 30
0.0
 10
103.727997
 20
87.728098
 30
0.0
  0
SPLINE
  5
15b
100
AcDbEntity
  8
ink_ext_XXXXXX
 62
7
100
AcDbSpline
 70
8
 71
3
 72
8
 73
4
 74
0
 40
0
 40
0
 40
0
 40
0
 40
1
 40
1
 40
1
 40
1
 10
103.727997
 20
87.728098
 30
0.0
 10
105.985997
 20
87.491798
 30
0.0
 10
109.911997
 20
83.806598
 30
0.0
 10
110.742997
 20
81.426198
 30
0.0
  0
SPLINE
  5
15c
100
AcDbEntity
  8
ink_ext_XXXXXX
 62
7
100
AcDbSpline
 70
8
 71
3
 72
8
 73
4
 74
0
 40
0
 40
0
 40
0
 40
0
 40
1
 40
1
 40
1
 40
1
 10
110.742997
 20
81.426198
 30
0.0
 10
113.832997
 20
79.049598
 30
0.0
 10
117.162997
 20
71.916398
 30
0.0
 10
117.162997
 20
67.159798
 30
0.0
  0
SPLINE
  5
15d
100
AcDbEntity
  8
ink_ext_XXXXXX
 62
7
100
AcDbSpline
 70
8
 71
3
 72
8
 73
4
 74
0
 40
0
 40
0
 40
0
 40
0
 40
1
 40
1
 40
1
 40
1
 10
117.162997
 20
67.159798
 30
0.0
 10
118.589997
 20
62.520698
 30
0.0
 10
118.707997
 20
52.415599
 30
0.0
 10
118.470997
 20
48.254299
 30
0.0
  0
SPLINE
  5
15e
100
AcDbEntity
  8
ink_ext_XXXXXX
 62
7
100
AcDbSpline
 70
8
 71
3
 72
8
 73
4
 74
0
 40
0
 40
0
 40
0
 40
0
 40
1
 40
1
 40
1
 40
1
 10
118.470997
 20
48.254299
 30
0.0
 10
119.424997
 20
44.565199
 30
0.0
 10
117.639997
 20
42.188699
 30
0.0
 10
116.213997
 20
39.453499
 30
0.0
  0
SPLINE
  5
15f
100
AcDbEntity
  8
ink_ext_XXXXXX
 62
7
100
AcDbSpline
 70
8
 71
3
 72
8
 73
4
 74
0
 40
0
 40
0
 40
0
 40
0
 40
1
 40
1
 40
1
 40
1
 10
116.213997
 20
39.453499
 30
0.0
 10
114.786997
 20
36.718399
 30
0.0
 10
112.764997
 20
35.173399
 30
0.0
 10
111.933997
 20
34.223799
 30
0.0
  0
SPLINE
  5
160
100
AcDbEntity
  8
ink_ext_XXXXXX
 62
7
100
AcDbSpline
 70
8
 71
3
 72
8
 73
4
 74
0
 40
0
 40
0
 40
0
 40
0
 40
1
 40
1
 40
1
 40
1
 10
111.933997
 20
34.223799
 30
0.0
 10
111.097997
 20
33.269899
 30
0.0
 10
109.315997
 20
30.416799
 30
0.0
 10
105.867997
 20
27.921899
 30
0.0
  0
SPLINE
  5
161
100
AcDbEntity
  8
ink_ext_XXXXXX
 62
7
100
AcDbSpline
 70
8
 71
3
 72
8
 73
4
 74
0
 40
0
 40
0
 40
0
 40
0
 40
1
 40
1
 40
1
 40
1
 10
105.867997
 20
27.921899
 30
0.0
 10
102.419997
 20
25.422999
 30
0.0
 10
97.426198
 20
25.186699
 30
0.0
 10
95.763298
 20
24.828099
 30
0.0
  0
SPLINE
  5
162
100
AcDbEntity
  8
ink_ext_XXXXXX
 62
7
100
AcDbSpline
 70
8
 71
3
 72
8
 73
4
 74
0
 40
0
 40
0
 40
0
 40
0
 40
1
 40
1
 40
1
 40
1
 10
95.763298
 20
24.828099
 30
0.0
 10
93.697698
 20
24.238699
 30
0.0
 10
90.902698
 20
23.648799
 30
0.0
 10
88.517198
 20
22.053099
 30
0.0
  0
SPLINE
  5
163
100
AcDbEntity
  8
ink_ext_XXXXXX
 62
7
100
AcDbSpline
 70
8
 71
3
 72
8
 73
4
 74
0
 40
0
 40
0
 40
0
 40
0
 40
1
 40
1
 40
1
 40
1
 10
88.517198
 20
22.053099
 30
0.0
 10
90.611298
 20
20.839499
 30
0.0
 10
91.388298
 20
18.589800
 30
0.0
 10
91.244498
 20
16.273800
 30
0.0
  0
SPLINE
  5
164
100
AcDbEntity
  8
ink_ext_XXXXXX
 62
7
100
AcDbSpline
 70
8
 71
3
 72
8
 73
4
 74
0
 40
0
 40
0
 40
0
 40
0
 40
1
 40
1
 40
1
 40
1
 10
91.244498
 20
16.273800
 30
0.0
 10
91.558198
 20
16.084400
 30
0.0
 10
91.959798
 20
15.797700
 30
0.0
 10
92.128498
 20
15.491400
 30
0.0
  0
SPLINE
  5
165
100
AcDbEntity
  8
ink_ext_XXXXXX
 62
7
100
AcDbSpline
 70
8
 71
3
 72
8
 73
4
 74
0
 40
0
 40
0
 40
0
 40
0
 40
1
 40
1
 40
1
 40
1
 10
92.128498
 20
15.491400
 30
0.0
 10
92.427698
 20
14.955900
 30
0.0
 10
92.191398
 20
13.471100
 30
0.0
 10
91.655498
 20
12.935500
 30
0.0
  0
SPLINE
  5
166
100
AcDbEntity
  8
ink_ext_XXXXXX
 62
7
100
AcDbSpline
 70
8
 71
3
 72
8
 73
4
 74
0
 40
0
 40
0
 40
0
 40
0
 40
1
 40
1
 40
1
 40
1
 10
91.655498
 20
12.935500
 30
0.0
 10
91.289498
 20
12.566800
 30
0.0
 10
90.611698
 20
12.621500
 30
0.0
 10
90.204698
 20
12.807000
 30
0.0
  0
SPLINE
  5
167
100
AcDbEntity
  8
ink_ext_XXXXXX
 62
7
100
AcDbSpline
 70
8
 71
3
 72
8
 73
4
 74
0
 40
0
 40
0
 40
0
 40
0
 40
1
 40
1
 40
1
 40
1
 10
90.204698
 20
12.807000
 30
0.0
 10
89.418398
 20
11.596100
 30
0.0
 10
88.154698
 20
10.473000
 30
0.0
 10
86.693798
 20
9.826170
 30
0.0
  0
SPLINE
  5
168
100
AcDbEntity
  8
ink_ext_XXXXXX
 62
7
100
AcDbSpline
 70
8
 71
3
 72
8
 73
4
 74
0
 40
0
 40
0
 40
0
 40
0
 40
1
 40
1
 40
1
 40
1
 10
86.693798
 20
9.826170
 30
0.0
 10
87.011298
 20
8.108200
 30
0.0
 10
86.387898
 20
5.686330
 30
0.0
 10
83.906598
 20
4.183980
 30
0.0
  0
SPLINE
  5
169
100
AcDbEntity
  8
ink_ext_XXXXXX
 62
7
100
AcDbSpline
 70
8
 71
3
 72
8
 73
4
 74
0
 40
0
 40
0
 40
0
 40
0
 40
1
 40
1
 40
1
 40
1
 10
83.906598
 20
4.183980
 30
0.0
 10
84.071898
 20
3.778130
 30
0.0
 10
84.163298
 20
3.428130
 30
0.0
 10
84.109798
 20
3.249220
 30
0.0
  0
SPLINE
  5
16a
100
AcDbEntity
  8
ink_ext_XXXXXX
 62
7
100
AcDbSpline
 70
8
 71
3
 72
8
 73
4
 74
0
 40
0
 40
0
 40
0
 40
0
 40
1
 40
1
 40
1
 40
1
 10
84.109798
 20
3.249220
 30
0.0
 10
83.931298
 20
2.651950
 30
0.0
 10
81.314798
 20
1.525780
 30
0.0
 10
80.483998
 20
1.584380
 30
0.0
  0
SPLINE
  5
16b
100
AcDbEntity
  8
ink_ext_XXXXXX
 62
7
100
AcDbSpline
 70
8
 71
3
 72
8
 73
4
 74
0
 40
0
 40
0
 40
0
 40
0
 40
1
 40
1
 40
1
 40
1
 10
80.483998
 20
1.584380
 30
0.0
 10
80.171098
 20
1.606250
 30
0.0
 10
79.970698
 20
2.177730
 30
0.0
 10
79.872698
 20
2.922270
 30
0.0
  0
SPLINE
  5
16c
100
AcDbEntity
  8
ink_ext_XXXXXX
 62
7
100
AcDbSpline
 70
8
 71
3
 72
8
 73
4
 74
0
 40
0
 40
0
 40
0
 40
0
 40
1
 40
1
 40
1
 40
1
 10
79.872698
 20
2.922270
 30
0.0
 10
77.712898
 20
2.728520
 30
0.0
 10
76.222998
 20
3.376560
 30
0.0
 10
75.429298
 20
4.117190
 30
0.0
  0
SPLINE
  5
16d
100
AcDbEntity
  8
ink_ext_XXXXXX
 62
7
100
AcDbSpline
 70
8
 71
3
 72
8
 73
4
 74
0
 40
0
 40
0
 40
0
 40
0
 40
1
 40
1
 40
1
 40
1
 10
75.429298
 20
4.117190
 30
0.0
 10
74.927298
 20
3.381640
 30
0.0
 10
74.285198
 20
2.716800
 30
0.0
 10
73.507398
 20
2.206250
 30
0.0
  0
SPLINE
  5
16e
100
AcDbEntity
  8
ink_ext_XXXXXX
 62
7
100
AcDbSpline
 70
8
 71
3
 72
8
 73
4
 74
0
 40
0
 40
0
 40
0
 40
0
 40
1
 40
1
 40
1
 40
1
 10
73.507398
 20
2.206250
 30
0.0
 10
73.196498
 20
1.552730
 30
0.0
 10
72.640998
 20
0.961328
 30
0.0
 10
71.801598
 20
0.689844
 30
0.0
  0
SPLINE
  5
16f
100
AcDbEntity
  8
ink_ext_XXXXXX
 62
7
100
AcDbSpline
 70
8
 71
3
 72
8
 73
4
 74
0
 40
0
 40
0
 40
0
 40
0
 40
1
 40
1
 40
1
 40
1
 10
71.801598
 20
0.689844
 30
0.0
 10
70.909798
 20
0.403125
 30
0.0
 10
70.031998
 20
0.602344
 30
0.0
 10
69.323398
 20
0.992578
 30
0.0
  0
SPLINE
  5
170
100
AcDbEntity
  8
ink_ext_XXXXXX
 62
7
100
AcDbSpline
 70
8
 71
3
 72
8
 73
4
 74
0
 40
0
 40
0
 40
0
 40
0
 40
1
 40
1
 40
1
 40
1
 10
69.323398
 20
0.992578
 30
0.0
 10
66.151598
 20
0.741797
 30
0.0
 10
63.983198
 20
1.833590
 30
0.0
 10
62.844898
 20
3.433980
 30
0.0
  0
SPLINE
  5
171
100
AcDbEntity
  8
ink_ext_XXXXXX
 62
7
100
AcDbSpline
 70
8
 71
3
 72
8
 73
4
 74
0
 40
0
 40
0
 40
0
 40
0
 40
1
 40
1
 40
1
 40
1
 10
62.844898
 20
3.433980
 30
0.0
 10
61.527698
 20
2.191020
 30
0.0
 10
57.452699
 20
1.928910
 30
0.0
 10
56.043799
 20
3.007420
 30
0.0
  0
SPLINE
  5
172
100
AcDbEntity
  8
ink_ext_XXXXXX
 62
7
100
AcDbSpline
 70
8
 71
3
 72
8
 73
4
 74
0
 40
0
 40
0
 40
0
 40
0
 40
1
 40
1
 40
1
 40
1
 10
56.043799
 20
3.007420
 30
0.0
 10
54.544499
 20
1.312110
 30
0.0
 10
51.733199
 20
0.362891
 30
0.0
 10
47.645299
 20
1.366410
 30
0.0
  0
SPLINE
  5
173
100
AcDbEntity
  8
ink_ext_XXXXXX
 62
7
100
AcDbSpline
 70
8
 71
3
 72
8
 73
4
 74
0
 40
0
 40
0
 40
0
 40
0
 40
1
 40
1
 40
1
 40
1
 10
47.645299
 20
1.366410
 30
0.0
 10
45.958599
 20
1.779690
 30
0.0
 10
44.668399
 20
2.843750
 30
0.0
 10
43.798799
 20
4.118360
 30
0.0
  0
SPLINE
  5
174
100
AcDbEntity
  8
ink_ext_XXXXXX
 62
7
100
AcDbSpline
 70
8
 71
3
 72
8
 73
4
 74
0
 40
0
 40
0
 40
0
 40
0
 40
1
 40
1
 40
1
 40
1
 10
43.798799
 20
4.118360
 30
0.0
 10
42.992999
 20
3.366410
 30
0.0
 10
41.471499
 20
2.709770
 30
0.0
 10
39.260899
 20
2.932030
 30
0.0
  0
SPLINE
  5
175
100
AcDbEntity
  8
ink_ext_XXXXXX
 62
7
100
AcDbSpline
 70
8
 71
3
 72
8
 73
4
 74
0
 40
0
 40
0
 40
0
 40
0
 40
1
 40
1
 40
1
 40
1
 10
39.260899
 20
2.932030
 30
0.0
 10
38.822999
 20
2.374220
 30
0.0
 10
38.008199
 20
1.886330
 30
0.0
 10
36.072699
 20
2.413670
 30
0.0
  0
SPLINE
  5
176
100
AcDbEntity
  8
ink_ext_XXXXXX
 62
7
100
AcDbSpline
 70
8
 71
3
 72
8
 73
4
 74
0
 40
0
 40
0
 40
0
 40
0
 40
1
 40
1
 40
1
 40
1
 10
36.072699
 20
2.413670
 30
0.0
 10
35.010199
 20
2.703130
 30
0.0
 10
34.613299
 20
3.385160
 30
0.0
 10
34.946899
 20
4.426950
 30
0.0
  0
SPLINE
  5
177
100
AcDbEntity
  8
ink_ext_XXXXXX
 62
7
100
AcDbSpline
 70
8
 71
3
 72
8
 73
4
 74
0
 40
0
 40
0
 40
0
 40
0
 40
1
 40
1
 40
1
 40
1
 10
34.946899
 20
4.426950
 30
0.0
 10
32.774199
 20
5.937890
 30
0.0
 10
32.231599
 20
8.200780
 30
0.0
 10
32.534399
 20
9.829300
 30
0.0
  0
SPLINE
  5
178
100
AcDbEntity
  8
ink_ext_XXXXXX
 62
7
100
AcDbSpline
 70
8
 71
3
 72
8
 73
4
 74
0
 40
0
 40
0
 40
0
 40
0
 40
1
 40
1
 40
1
 40
1
 10
32.534399
 20
9.829300
 30
0.0
 10
31.793799
 20
10.157400
 30
0.0
 10
31.103499
 20
10.607400
 30
0.0
 10
30.500799
 20
11.130500
 30
0.0
  0
SPLINE
  5
179
100
AcDbEntity
  8
ink_ext_XXXXXX
 62
7
100
AcDbSpline
 70
8
 71
3
 72
8
 73
4
 74
0
 40
0
 40
0
 40
0
 40
0
 40
1
 40
1
 40
1
 40
1
 10
30.500799
 20
11.130500
 30
0.0
 10
28.877699
 20
10.580100
 30
0.0
 10
27.145699
 20
13.153100
 30
0.0
 10
27.035199
 20
13.590200
 30
0.0
  0
SPLINE
  5
17a
100
AcDbEntity
  8
ink_ext_XXXXXX
 62
7
100
AcDbSpline
 70
8
 71
3
 72
8
 73
4
 74
0
 40
0
 40
0
 40
0
 40
0
 40
1
 40
1
 40
1
 40
1
 10
27.035199
 20
13.590200
 30
0.0
 10
26.936299
 20
13.981600
 30
0.0
 10
27.640999
 20
14.815200
 30
0.0
 10
28.127299
 20
15.132400
 30
0.0
  0
SPLINE
  5
17b
100
AcDbEntity
  8
ink_ext_XXXXXX
 62
7
100
AcDbSpline
 70
8
 71
3
 72
8
 73
4
 74
0
 40
0
 40
0
 40
0
 40
0
 40
1
 40
1
 40
1
 40
1
 10
28.127299
 20
15.132400
 30
0.0
 10
27.619899
 20
17.821900
 30
0.0
 10
28.272999
 20
20.639799
 30
0.0
 10
30.711699
 20
22.053099
 30
0.0
  0
SPLINE
  5
17c
100
AcDbEntity
  8
ink_ext_XXXXXX
 62
7
100
AcDbSpline
 70
8
 71
3
 72
8
 73
4
 74
0
 40
0
 40
0
 40
0
 40
0
 40
1
 40
1
 40
1
 40
1
 10
30.711699
 20
22.053099
 30
0.0
 10
28.324999
 20
23.648799
 30
0.0
 10
25.532799
 20
24.238699
 30
0.0
 10
23.467599
 20
24.828099
 30
0.0
  0
SPLINE
  5
17d
100
AcDbEntity
  8
ink_ext_XXXXXX
 62
7
100
AcDbSpline
 70
8
 71
3
 72
8
 73
4
 74
0
 40
0
 40
0
 40
0
 40
0
 40
1
 40
1
 40
1
 40
1
 10
23.467599
 20
24.828099
 30
0.0
 10
21.804699
 20
25.186699
 30
0.0
 10
16.807000
 20
25.422999
 30
0.0
 10
13.362500
 20
27.921899
 30
0.0
  0
SPLINE
  5
17e
100
AcDbEntity
  8
ink_ext_XXXXXX
 62
7
100
AcDbSpline
 70
8
 71
3
 72
8
 73
4
 74
0
 40
0
 40
0
 40
0
 40
0
 40
1
 40
1
 40
1
 40
1
 10
13.362500
 20
27.921899
 30
0.0
 10
9.914450
 20
30.416799
 30
0.0
 10
8.133200
 20
33.269899
 30
0.0
 10
7.297270
 20
34.223799
 30
0.0
  0
SPLINE
  5
17f
100
AcDbEntity
  8
ink_ext_XXXXXX
 62
7
100
AcDbSpline
 70
8
 71
3
 72
8
 73
4
 74
0
 40
0
 40
0
 40
0
 40
0
 40
1
 40
1
 40
1
 40
1
 10
7.297270
 20
34.223799
 30
0.0
 10
6.465630
 20
35.173399
 30
0.0
 10
4.444140
 20
36.718399
 30
0.0
 10
3.017190
 20
39.453499
 30
0.0
  0
SPLINE
  5
180
100
AcDbEntity
  8
ink_ext_XXXXXX
 62
7
100
AcDbSpline
 70
8
 71
3
 72
8
 73
4
 74
0
 40
0
 40
0
 40
0
 40
0
 40
1
 40
1
 40
1
 40
1
 10
3.017190
 20
39.453499
 30
0.0
 10
1.590630
 20
42.188699
 30
0.0
 10
-0.194922
 20
44.565199
 30
0.0
 10
0.758984
 20
48.254299
 30
0.0
  0
SPLINE
  5
181
100
AcDbEntity
  8
ink_ext_XXXXXX
 62
7
100
AcDbSpline
 70
8
 71
3
 72
8
 73
4
 74
0
 40
0
 40
0
 40
0
 40
0
 40
1
 40
1
 40
1
 40
1
 10
0.758984
 20
48.254299
 30
0.0
 10
0.518750
 20
52.415599
 30
0.0
 10
0.640625
 20
62.520698
 30
0.0
 10
2.063280
 20
67.159798
 30
0.0
  0
SPLINE
  5
182
100
AcDbEntity
  8
ink_ext_XXXXXX
 62
7
100
AcDbSpline
 70
8
 71
3
 72
8
 73
4
 74
0
 40
0
 40
0
 40
0
 40
0
 40
1
 40
1
 40
1
 40
1
 10
2.063280
 20
67.159798
 30
0.0
 10
2.063280
 20
71.916398
 30
0.0
 10
5.398050
 20
79.049598
 30
0.0
 10
8.487500
 20
81.426198
 30
0.0
  0
SPLINE
  5
183
100
AcDbEntity
  8
ink_ext_XXXXXX
 62
7
100
AcDbSpline
 70
8
 71
3
 72
8
 73
4
 74
0
 40
0
 40
0
 40
0
 40
0
 40
1
 40
1
 40
1
 40
1
 10
8.487500
 20
81.426198
 30
0.0
 10
9.319140
 20
83.806598
 30
0.0
 10
13.244500
 20
87.491798
 30
0.0
 10
15.502700
 20
87.728098
 30
0.0
  0
SPLINE
  5
184
100
AcDbEntity
  8
ink_ext_XXXXXX
 62
7
100
AcDbSpline
 70
8
 71
3
 72
8
 73
4
 74
0
 40
0
 40
0
 40
0
 40
0
 40
1
 40
1
 40
1
 40
1
 10
15.502700
 20
87.728098
 30
0.0
 10
16.097700
 20
88.441398
 30
0.0
 10
17.520300
 20
90.104698
 30
0.0
 10
19.542200
 20
90.344898
 30
0.0
  0
SPLINE
  5
185
100
AcDbEntity
  8
ink_ext_XXXXXX
 62
7
100
AcDbSpline
 70
8
 71
3
 72
8
 73
4
 74
0
 40
0
 40
0
 40
0
 40
0
 40
1
 40
1
 40
1
 40
1
 10
19.542200
 20
90.344898
 30
0.0
 10
22.040999
 20
92.962098
 30
0.0
 10
26.439099
 20
94.624998
 30
0.0
 10
27.392999
 20
96.051598
 30
0.0
  0
SPLINE
  5
186
100
AcDbEntity
  8
ink_ext_XXXXXX
 62
7
100
AcDbSpline
 70
8
 71
3
 72
8
 73
4
 74
0
 40
0
 40
0
 40
0
 40
0
 40
1
 40
1
 40
1
 40
1
 10
27.392999
 20
96.051598
 30
0.0
 10
28.346899
 20
97.478498
 30
0.0
 10
29.174199
 20
99.736298
 30
0.0
 10
29.174199
 20
101.280997
 30
0.0
  0
SPLINE
  5
187
100
AcDbEntity
  8
ink_ext_XXXXXX
 62
7
100
AcDbSpline
 70
8
 71
3
 72
8
 73
4
 74
0
 40
0
 40
0
 40
0
 40
0
 40
1
 40
1
 40
1
 40
1
 10
29.174199
 20
101.280997
 30
0.0
 10
28.583199
 20
102.589997
 30
0.0
 10
26.316799
 20
106.579997
 30
0.0
 10
27.747699
 20
106.991997
 30
0.0
  0
SPLINE
  5
188
100
AcDbEntity
  8
ink_ext_XXXXXX
 62
7
100
AcDbSpline
 70
8
 71
3
 72
8
 73
4
 74
0
 40
0
 40
0
 40
0
 40
0
 40
1
 40
1
 40
1
 40
1
 10
27.747699
 20
106.991997
 30
0.0
 10
28.583199
 20
107.228997
 30
0.0
 10
30.605099
 20
105.683997
 30
0.0
 10
32.504299
 20
102.470997
 30
0.0
  0
SPLINE
  5
189
100
AcDbEntity
  8
ink_ext_XXXXXX
 62
7
100
AcDbSpline
 70
8
 71
3
 72
8
 73
4
 74
0
 40
0
 40
0
 40
0
 40
0
 40
1
 40
1
 40
1
 40
1
 10
32.504299
 20
102.470997
 30
0.0
 10
34.408199
 20
99.263698
 30
0.0
 10
35.953099
 20
97.596498
 30
0.0
 10
37.856599
 20
94.743398
 30
0.0
  0
SPLINE
  5
18a
100
AcDbEntity
  8
ink_ext_XXXXXX
 62
7
100
AcDbSpline
 70
8
 71
3
 72
8
 73
4
 74
0
 40
0
 40
0
 40
0
 40
0
 40
1
 40
1
 40
1
 40
1
 10
37.856599
 20
94.743398
 30
0.0
 10
39.755899
 20
91.889798
 30
0.0
 10
38.810499
 20
88.086698
 30
0.0
 10
38.924599
 20
85.469498
 30
0.0
  0
SPLINE
  5
18b
100
AcDbEntity
  8
ink_ext_XXXXXX
 62
7
100
AcDbSpline
 70
8
 71
3
 72
8
 73
4
 74
0
 40
0
 40
0
 40
0
 40
0
 40
1
 40
1
 40
1
 40
1
 10
38.924599
 20
85.469498
 30
0.0
 10
39.234399
 20
78.674598
 30
0.0
 10
35.121499
 20
73.933998
 30
0.0
 10
32.504299
 20
70.489798
 30
0.0
  0
SPLINE
  5
18c
100
AcDbEntity
  8
ink_ext_XXXXXX
 62
7
100
AcDbSpline
 70
8
 71
3
 72
8
 73
4
 74
0
 40
0
 40
0
 40
0
 40
0
 40
1
 40
1
 40
1
 40
1
 10
32.504299
 20
70.489798
 30
0.0
 10
29.891799
 20
67.041398
 30
0.0
 10
28.819499
 20
60.498798
 30
0.0
 10
31.791399
 20
53.006599
 30
0.0
  0
SPLINE
  5
18d
100
AcDbEntity
  8
ink_ext_XXXXXX
 62
7
100
AcDbSpline
 70
8
 71
3
 72
8
 73
4
 74
0
 40
0
 40
0
 40
0
 40
0
 40
1
 40
1
 40
1
 40
1
 10
31.791399
 20
53.006599
 30
0.0
 10
34.762899
 20
45.518799
 30
0.0
 10
35.239499
 20
39.571899
 30
0.0
 10
33.931299
 20
34.460199
 30
0.0
  0
SPLINE
  5
18e
100
AcDbEntity
  8
ink_ext_XXXXXX
 62
7
100
AcDbSpline
 70
8
 71
3
 72
8
 73
4
 74
0
 40
0
 40
0
 40
0
 40
0
 40
1
 40
1
 40
1
 40
1
 10
33.931299
 20
34.460199
 30
0.0
 10
32.626999
 20
29.348399
 30
0.0
 10
32.264099
 20
28.158199
 30
0.0
 10
32.626999
 20
26.613299
 30
0.0
  0
SPLINE
  5
18f
100
AcDbEntity
  8
ink_ext_XXXXXX
 62
7
100
AcDbSpline
 70
8
 71
3
 72
8
 73
4
 74
0
 40
0
 40
0
 40
0
 40
0
 40
1
 40
1
 40
1
 40
1
 10
32.626999
 20
26.613299
 30
0.0
 10
32.733599
 20
26.148399
 30
0.0
 10
33.045699
 20
25.607799
 30
0.0
 10
33.497299
 20
25.036699
 30
0.0
  0
SPLINE
  5
190
100
AcDbEntity
  8
ink_ext_XXXXXX
 62
7
100
AcDbSpline
 70
8
 71
3
 72
8
 73
4
 74
0
 40
0
 40
0
 40
0
 40
0
 40
1
 40
1
 40
1
 40
1
 10
33.497299
 20
25.036699
 30
0.0
 10
33.038299
 20
28.099199
 30
0.0
 10
35.463699
 20
30.843399
 30
0.0
 10
39.673799
 20
32.009399
 30
0.0
  0
SPLINE
  5
191
100
AcDbEntity
  8
ink_ext_XXXXXX
 62
7
100
AcDbSpline
 70
8
 71
3
 72
8
 73
4
 74
0
 40
0
 40
0
 40
0
 40
0
 40
1
 40
1
 40
1
 40
1
 10
39.673799
 20
32.009399
 30
0.0
 10
39.529699
 20
32.535499
 30
0.0
 10
39.466799
 20
32.993399
 30
0.0
 10
39.563699
 20
33.233599
 30
0.0
  0
SPLINE
  5
192
100
AcDbEntity
  8
ink_ext_XXXXXX
 62
7
100
AcDbSpline
 70
8
 71
3
 72
8
 73
4
 74
0
 40
0
 40
0
 40
0
 40
0
 40
1
 40
1
 40
1
 40
1
 10
39.563699
 20
33.233599
 30
0.0
 10
39.880499
 20
34.023799
 30
0.0
 10
42.221099
 20
36.215199
 30
0.0
 10
43.367999
 20
34.500399
 30
0.0
  0
SPLINE
  5
193
100
AcDbEntity
  8
ink_ext_XXXXXX
 62
7
100
AcDbSpline
 70
8
 71
3
 72
8
 73
4
 74
0
 40
0
 40
0
 40
0
 40
0
 40
1
 40
1
 40
1
 40
1
 10
43.367999
 20
34.500399
 30
0.0
 10
43.526199
 20
34.259799
 30
0.0
 10
43.564499
 20
33.332799
 30
0.0
 10
43.502699
 20
32.351599
 30
0.0
  0
SPLINE
  5
194
100
AcDbEntity
  8
ink_ext_XXXXXX
 62
7
100
AcDbSpline
 70
8
 71
3
 72
8
 73
4
 74
0
 40
0
 40
0
 40
0
 40
0
 40
1
 40
1
 40
1
 40
1
 10
43.502699
 20
32.351599
 30
0.0
 10
46.285899
 20
31.907399
 30
0.0
 10
47.900799
 20
29.827299
 30
0.0
 10
48.313699
 20
28.278899
 30
0.0
  0
SPLINE
  5
195
100
AcDbEntity
  8
ink_ext_XXXXXX
 62
7
100
AcDbSpline
 70
8
 71
3
 72
8
 73
4
 74
0
 40
0
 40
0
 40
0
 40
0
 40
1
 40
1
 40
1
 40
1
 10
48.313699
 20
28.278899
 30
0.0
 10
49.137099
 20
28.608599
 30
0.0
 10
50.026999
 20
28.820699
 30
0.0
 10
50.902699
 20
28.919899
 30
0.0
  0
SPLINE
  5
196
100
AcDbEntity
  8
ink_ext_XXXXXX
 62
7
100
AcDbSpline
 70
8
 71
3
 72
8
 73
4
 74
0
 40
0
 40
0
 40
0
 40
0
 40
1
 40
1
 40
1
 40
1
 10
50.902699
 20
28.919899
 30
0.0
 10
50.963299
 20
29.149599
 30
0.0
 10
51.038699
 20
29.330899
 30
0.0
 10
51.133199
 20
29.424999
 30
0.0
  0
SPLINE
  5
197
100
AcDbEntity
  8
ink_ext_XXXXXX
 62
7
100
AcDbSpline
 70
8
 71
3
 72
8
 73
4
 74
0
 40
0
 40
0
 40
0
 40
0
 40
1
 40
1
 40
1
 40
1
 10
51.133199
 20
29.424999
 30
0.0
 10
51.609399
 20
29.901599
 30
0.0
 10
53.511699
 20
30.217999
 30
0.0
 10
54.621099
 20
30.378099
 30
0.0
  0
SPLINE
  5
198
100
AcDbEntity
  8
ink_ext_XXXXXX
 62
7
100
AcDbSpline
 70
8
 71
3
 72
8
 73
4
 74
0
 40
0
 40
0
 40
0
 40
0
 40
1
 40
1
 40
1
 40
1
 10
54.621099
 20
30.378099
 30
0.0
 10
55.730099
 20
30.534399
 30
0.0
 10
56.046499
 20
28.948399
 30
0.0
 10
55.886699
 20
28.155899
 30
0.0
  0
SPLINE
  5
199
100
AcDbEntity
  8
ink_ext_XXXXXX
 62
7
100
AcDbSpline
 70
8
 71
3
 72
8
 73
4
 74
0
 40
0
 40
0
 40
0
 40
0
 40
1
 40
1
 40
1
 40
1
 10
55.886699
 20
28.155899
 30
0.0
 10
55.869899
 20
28.071099
 30
0.0
 10
55.840199
 20
27.975399
 30
0.0
 10
55.799599
 20
27.871899
 30
0.0
  0
SPLINE
  5
19a
100
AcDbEntity
  8
ink_ext_XXXXXX
 62
7
100
AcDbSpline
 70
8
 71
3
 72
8
 73
4
 74
0
 40
0
 40
0
 40
0
 40
0
 40
1
 40
1
 40
1
 40
1
 10
55.799599
 20
27.871899
 30
0.0
 10
56.100799
 20
27.661699
 30
0.0
 10
56.380499
 20
27.428099
 30
0.0
 10
56.636699
 20
27.176199
 30
0.0
  0
SPLINE
  5
19b
100
AcDbEntity
  8
ink_ext_XXXXXX
 62
7
100
AcDbSpline
 70
8
 71
3
 72
8
 73
4
 74
0
 40
0
 40
0
 40
0
 40
0
 40
1
 40
1
 40
1
 40
1
 10
56.636699
 20
27.176199
 30
0.0
 10
57.938699
 20
28.127699
 30
0.0
 10
59.737899
 20
28.673799
 30
0.0
 10
62.001598
 20
28.272299
 30
0.0
  0
SPLINE
  5
19c
100
AcDbEntity
  8
ink_ext_XXXXXX
 62
7
100
AcDbSpline
 70
8
 71
3
 72
8
 73
4
 74
0
 40
0
 40
0
 40
0
 40
0
 40
1
 40
1
 40
1
 40
1
 10
62.001598
 20
28.272299
 30
0.0
 10
62.263698
 20
28.987899
 30
0.0
 10
62.639498
 20
29.510499
 30
0.0
 10
63.003898
 20
29.406999
 30
0.0
  0
SPLINE
  5
19d
100
AcDbEntity
  8
ink_ext_XXXXXX
 62
7
100
AcDbSpline
 70
8
 71
3
 72
8
 73
4
 74
0
 40
0
 40
0
 40
0
 40
0
 40
1
 40
1
 40
1
 40
1
 10
63.003898
 20
29.406999
 30
0.0
 10
63.355498
 20
29.305099
 30
0.0
 10
64.029298
 20
28.989799
 30
0.0
 10
64.701598
 20
28.556599
 30
0.0
  0
SPLINE
  5
19e
100
AcDbEntity
  8
ink_ext_XXXXXX
 62
7
100
AcDbSpline
 70
8
 71
3
 72
8
 73
4
 74
0
 40
0
 40
0
 40
0
 40
0
 40
1
 40
1
 40
1
 40
1
 10
64.701598
 20
28.556599
 30
0.0
 10
65.214498
 20
28.759399
 30
0.0
 10
65.765998
 20
28.896099
 30
0.0
 10
66.349998
 20
28.948399
 30
0.0
  0
SPLINE
  5
19f
100
AcDbEntity
  8
ink_ext_XXXXXX
 62
7
100
AcDbSpline
 70
8
 71
3
 72
8
 73
4
 74
0
 40
0
 40
0
 40
0
 40
0
 40
1
 40
1
 40
1
 40
1
 10
66.349998
 20
28.948399
 30
0.0
 10
67.146498
 20
29.021899
 30
0.0
 10
68.017598
 20
28.986699
 30
0.0
 10
68.885198
 20
28.840999
 30
0.0
  0
SPLINE
  5
1a0
100
AcDbEntity
  8
ink_ext_XXXXXX
 62
7
100
AcDbSpline
 70
8
 71
3
 72
8
 73
4
 74
0
 40
0
 40
0
 40
0
 40
0
 40
1
 40
1
 40
1
 40
1
 10
68.885198
 20
28.840999
 30
0.0
 10
68.826598
 20
29.556999
 30
0.0
 10
70.670298
 20
29.848399
 30
0.0
 10
71.556298
 20
29.672999
 30
0.0
  0
SPLINE
  5
1a1
100
AcDbEntity
  8
ink_ext_XXXXXX
 62
7
100
AcDbSpline
 70
8
 71
3
 72
8
 73
4
 74
0
 40
0
 40
0
 40
0
 40
0
 40
1
 40
1
 40
1
 40
1
 10
71.556298
 20
29.672999
 30
0.0
 10
72.650398
 20
31.353899
 30
0.0
 10
74.943798
 20
32.951599
 30
0.0
 10
78.400798
 20
32.279699
 30
0.0
  0
SPLINE
  5
1a2
100
AcDbEntity
  8
ink_ext_XXXXXX
 62
7
100
AcDbSpline
 70
8
 71
3
 72
8
 73
4
 74
0
 40
0
 40
0
 40
0
 40
0
 40
1
 40
1
 40
1
 40
1
 10
78.400798
 20
32.279699
 30
0.0
 10
78.621498
 20
32.237099
 30
0.0
 10
78.837498
 20
32.187899
 30
0.0
 10
79.049598
 20
32.135199
 30
0.0
  0
SPLINE
  5
1a3
100
AcDbEntity
  8
ink_ext_XXXXXX
 62
7
100
AcDbSpline
 70
8
 71
3
 72
8
 73
4
 74
0
 40
0
 40
0
 40
0
 40
0
 40
1
 40
1
 40
1
 40
1
 10
79.049598
 20
32.135199
 30
0.0
 10
80.086698
 20
32.718799
 30
0.0
 10
82.134798
 20
33.497999
 30
0.0
 10
82.920298
 20
32.618799
 30
0.0
  0
SPLINE
  5
1a4
100
AcDbEntity
  8
ink_ext_XXXXXX
 62
7
100
AcDbSpline
 70
8
 71
3
 72
8
 73
4
 74
0
 40
0
 40
0
 40
0
 40
0
 40
1
 40
1
 40
1
 40
1
 10
82.920298
 20
32.618799
 30
0.0
 10
83.562498
 20
31.902699
 30
0.0
 10
83.127698
 20
30.994899
 30
0.0
 10
82.723798
 20
30.426599
 30
0.0
  0
SPLINE
  5
1a5
100
AcDbEntity
  8
ink_ext_XXXXXX
 62
7
100
AcDbSpline
 70
8
 71
3
 72
8
 73
4
 74
0
 40
0
 40
0
 40
0
 40
0
 40
1
 40
1
 40
1
 40
1
 10
82.723798
 20
30.426599
 30
0.0
 10
84.653498
 20
28.971499
 30
0.0
 10
85.685898
 20
26.929299
 30
0.0
 10
85.586698
 20
24.856299
 30
0.0
  0
SPLINE
  5
1a6
100
AcDbEntity
  8
ink_ext_XXXXXX
 62
7
100
AcDbSpline
 70
8
 71
3
 72
8
 73
4
 74
0
 40
0
 40
0
 40
0
 40
0
 40
1
 40
1
 40
1
 40
1
 10
85.586698
 20
24.856299
 30
0.0
 10
86.117598
 20
25.493399
 30
0.0
 10
86.485898
 20
26.099599
 30
0.0
 10
86.603898
 20
26.613299
 30
0.0
  0
SPLINE
  5
1a7
100
AcDbEntity
  8
ink_ext_XXXXXX
 62
7
100
AcDbSpline
 70
8
 71
3
 72
8
 73
4
 74
0
 40
0
 40
0
 40
0
 40
0
 40
1
 40
1
 40
1
 40
1
 10
86.603898
 20
26.613299
 30
0.0
 10
86.962498
 20
28.158199
 30
0.0
 10
86.603898
 20
29.348399
 30
0.0
 10
85.299598
 20
34.460199
 30
0.0
  0
SPLINE
  5
1a8
100
AcDbEntity
  8
ink_ext_XXXXXX
 62
7
100
AcDbSpline
 70
8
 71
3
 72
8
 73
4
 74
0
 40
0
 40
0
 40
0
 40
0
 40
1
 40
1
 40
1
 40
1
 10
85.299598
 20
34.460199
 30
0.0
 10
83.990998
 20
39.571899
 30
0.0
 10
84.467998
 20
45.518799
 30
0.0
 10
87.439498
 20
53.006599
 30
0.0
  0
SPLINE
  5
1a9
100
AcDbEntity
  8
ink_ext_XXXXXX
 62
7
100
AcDbSpline
 70
8
 71
3
 72
8
 73
4
 74
0
 40
0
 40
0
 40
0
 40
0
 40
1
 40
1
 40
1
 40
1
 10
87.439498
 20
53.006599
 30
0.0
 10
90.411298
 20
60.498798
 30
0.0
 10
89.339098
 20
67.041398
 30
0.0
 10
86.726598
 20
70.489798
 30
0.0
  0
SPLINE
  5
1aa
100
AcDbEntity
  8
ink_ext_XXXXXX
 62
7
100
AcDbSpline
 70
8
 71
3
 72
8
 73
4
 74
0
 40
0
 40
0
 40
0
 40
0
 40
1
 40
1
 40
1
 40
1
 10
86.726598
 20
70.489798
 30
0.0
 10
84.109398
 20
73.933998
 30
0.0
 10
79.996498
 20
78.674598
 30
0.0
 10
80.306298
 20
85.469498
 30
0.0
  0
SPLINE
  5
1ab
100
AcDbEntity
  8
ink_ext_XXXXXX
 62
7
100
AcDbSpline
 70
8
 71
3
 72
8
 73
4
 74
0
 40
0
 40
0
 40
0
 40
0
 40
1
 40
1
 40
1
 40
1
 10
80.306298
 20
85.469498
 30
0.0
 10
80.420298
 20
88.086698
 30
0.0
 10
79.474598
 20
91.889798
 30
0.0
 10
81.374198
 20
94.743398
 30
0.0
  0
SPLINE
  5
1ac
100
AcDbEntity
  8
ink_ext_XXXXXX
 62
7
100
AcDbSpline
 70
8
 71
3
 72
8
 73
4
 74
0
 40
0
 40
0
 40
0
 40
0
 40
1
 40
1
 40
1
 40
1
 10
81.374198
 20
94.743398
 30
0.0
 10
83.277698
 20
97.596498
 30
0.0
 10
84.822698
 20
99.263698
 30
0.0
 10
86.726598
 20
102.470997
 30
0.0
  0
SPLINE
  5
1ad
100
AcDbEntity
  8
ink_ext_XXXXXX
 62
7
100
AcDbSpline
 70
8
 71
3
 72
8
 73
4
 74
0
 40
0
 40
0
 40
0
 40
0
 40
1
 40
1
 40
1
 40
1
 10
86.726598
 20
102.470997
 30
0.0
 10
88.625798
 20
105.683997
 30
0.0
 10
90.647698
 20
107.228997
 30
0.0
 10
91.483198
 20
106.991997
 30
0.0
  0
LWPOLYLINE
  5
1ae
100
AcDbEntity
  8
ink_ext_XXXXXX
 62
7
100
AcDbPolyline
 90
1
 70
1
 10
91.483198
 20
106.991997
 30
0.0
  0
LWPOLYLINE
  5
1af
100
AcDbEntity
  8
ink_ext_XXXXXX
 62
7
100
AcDbPolyline
 90
20
 70
1
 10
78.880498
 20
78.474198
 30
0.0
 10
76.996498
 20
77.537898
 30
0.0
 10
75.159398
 20
78.560198
 30
0.0
 10
75.467598
 20
76.477298
 30
0.0
 10
73.926998
 20
75.045698
 30
0.0
 10
76.001998
 20
74.694898
 30
0.0
 10
76.887098
 20
72.787498
 30
0.0
 10
77.862098
 20
74.651998
 30
0.0
 10
79.949198
 20
74.905498
 30
0.0
 10
78.478498
 20
76.410898
 30
0.0
 10
78.880498
 20
78.474198
 30
0.0
 10
76.996498
 20
77.537898
 30
0.0
 10
75.159398
 20
78.560198
 30
0.0
 10
75.467598
 20
76.477298
 30
0.0
 10
73.926998
 20
75.045698
 30
0.0
 10
76.001998
 20
74.694898
 30
0.0
 10
76.887098
 20
72.787498
 30
0.0
 10
77.862098
 20
74.651998
 30
0.0
 10
79.949198
 20
74.905498
 30
0.0
 10
78.478498
 20
76.410898
 30
0.0
  0
LWPOLYLINE
  5
1b0
100
AcDbEntity
  8
ink_ext_XXXXXX
 62
7
100
AcDbPolyline
 90
20
 70
1
 10
70.148798
 20
83.931298
 30
0.0
 10
68.500798
 20
82.247698
 30
0.0
 10
66.183998
 20
82.652698
 30
0.0
 10
67.269498
 20
80.567998
 30
0.0
 10
66.172298
 20
78.487498
 30
0.0
 10
68.492998
 20
78.876598
 30
0.0
 10
70.128898
 20
77.185498
 30
0.0
 10
70.474998
 20
79.517998
 30
0.0
 10
72.590998
 20
80.552298
 30
0.0
 10
70.483198
 20
81.598398
 30
0.0
 10
70.148798
 20
83.931298
 30
0.0
 10
68.500798
 20
82.247698
 30
0.0
 10
66.183998
 20
82.652698
 30
0.0
 10
67.269498
 20
80.567998
 30
0.0
 10
66.172298
 20
78.487498
 30
0.0
 10
68.492998
 20
78.876598
 30
0.0
 10
70.128898
 20
77.185498
 30
0.0
 10
70.474998
 20
79.517998
 30
0.0
 10
72.590998
 20
80.552298
 30
0.0
 10
70.483198
 20
81.598398
 30
0.0
  0
LWPOLYLINE
  5
1b1
100
AcDbEntity
  8
ink_ext_XXXXXX
 62
7
100
AcDbPolyline
 90
20
 70
1
 10
49.078099
 20
83.931298
 30
0.0
 10
50.726199
 20
82.247698
 30
0.0
 10
53.046899
 20
82.652698
 30
0.0
 10
51.957399
 20
80.567998
 30
0.0
 10
53.058599
 20
78.487498
 30
0.0
 10
50.737899
 20
78.876598
 30
0.0
 10
49.097999
 20
77.185498
 30
0.0
 10
48.751999
 20
79.517998
 30
0.0
 10
46.639799
 20
80.552298
 30
0.0
 10
48.747699
 20
81.598398
 30
0.0
 10
49.078099
 20
83.931298
 30
0.0
 10
50.726199
 20
82.247698
 30
0.0
 10
53.046899
 20
82.652698
 30
0.0
 10
51.957399
 20
80.567998
 30
0.0
 10
53.058599
 20
78.487498
 30
0.0
 10
50.737899
 20
78.876598
 30
0.0
 10
49.097999
 20
77.185498
 30
0.0
 10
48.751999
 20
79.517998
 30
0.0
 10
46.639799
 20
80.552298
 30
0.0
 10
48.747699
 20
81.598398
 30
0.0
  0
LWPOLYLINE
  5
1b2
100
AcDbEntity
  8
ink_ext_XXXXXX
 62
7
100
AcDbPolyline
 90
20
 70
1
 10
59.615999
 20
87.736698
 30
0.0
 10
58.155899
 20
84.777298
 30
0.0
 10
54.887499
 20
84.302298
 30
0.0
 10
57.253899
 20
81.995698
 30
0.0
 10
56.691799
 20
78.743398
 30
0.0
 10
59.615999
 20
80.278498
 30
0.0
 10
62.539798
 20
78.743398
 30
0.0
 10
61.981998
 20
81.995698
 30
0.0
 10
64.344098
 20
84.302298
 30
0.0
 10
61.079698
 20
84.777298
 30
0.0
 10
59.615999
 20
87.736698
 30
0.0
 10
58.155899
 20
84.777298
 30
0.0
 10
54.887499
 20
84.302298
 30
0.0
 10
57.253899
 20
81.995698
 30
0.0
 10
56.691799
 20
78.743398
 30
0.0
 10
59.615999
 20
80.278498
 30
0.0
 10
62.539798
 20
78.743398
 30
0.0
 10
61.981998
 20
81.995698
 30
0.0
 10
64.344098
 20
84.302298
 30
0.0
 10
61.079698
 20
84.777298
 30
0.0
  0
SPLINE
  5
1b3
100
AcDbEntity
  8
ink_ext_XXXXXX
 62
7
100
AcDbSpline
 70
8
 71
3
 72
8
 73
4
 74
0
 40
0
 40
0
 40
0
 40
0
 40
1
 40
1
 40
1
 40
1
 10
75.104698
 20
50.021499
 30
0.0
 10
76.062898
 20
52.507399
 30
0.0
 10
76.628498
 20
55.232399
 30
0.0
 10
76.940198
 20
57.990999
 30
0.0
  0
LWPOLYLINE
  5
1b4
100
AcDbEntity
  8
ink_ext_XXXXXX
 62
7
100
AcDbPolyline
 90
2
 70
0
 10
77.197998
 20
50.021499
 30
0.0
 10
75.104698
 20
50.021499
 30
0.0
  0
SPLINE
  5
1b5
100
AcDbEntity
  8
ink_ext_XXXXXX
 62
7
100
AcDbSpline
 70
8
 71
3
 72
8
 73
4
 74
0
 40
0
 40
0
 40
0
 40
0
 40
1
 40
1
 40
1
 40
1
 10
77.197998
 20
57.990999
 30
0.0
 10
79.395298
 20
57.990999
 30
0.0
 10
81.184798
 20
56.205499
 30
0.0
 10
81.184798
 20
54.004699
 30
0.0
  0
SPLINE
  5
1b6
100
AcDbEntity
  8
ink_ext_XXXXXX
 62
7
100
AcDbSpline
 70
8
 71
3
 72
8
 73
4
 74
0
 40
0
 40
0
 40
0
 40
0
 40
1
 40
1
 40
1
 40
1
 10
81.184798
 20
54.004699
 30
0.0
 10
81.184798
 20
51.806999
 30
0.0
 10
79.395298
 20
50.021499
 30
0.0
 10
77.197998
 20
50.021499
 30
0.0
  0
LWPOLYLINE
  5
1b7
100
AcDbEntity
  8
ink_ext_XXXXXX
 62
7
100
AcDbPolyline
 90
2
 70
0
 10
76.940198
 20
57.990999
 30
0.0
 10
77.197998
 20
57.990999
 30
0.0
  0
SPLINE
  5
1b8
100
AcDbEntity
  8
ink_ext_XXXXXX
 62
7
100
AcDbSpline
 70
8
 71
3
 72
8
 73
4
 74
0
 40
0
 40
0
 40
0
 40
0
 40
1
 40
1
 40
1
 40
1
 10
41.328499
 20
64.183198
 30
0.0
 10
41.328499
 20
66.622998
 30
0.0
 10
48.847999
 20
68.601198
 30
0.0
 10
58.130099
 20
68.601198
 30
0.0
  0
SPLINE
  5
1b9
100
AcDbEntity
  8
ink_ext_XXXXXX
 62
7
100
AcDbSpline
 70
8
 71
3
 72
8
 73
4
 74
0
 40
0
 40
0
 40
0
 40
0
 40
1
 40
1
 40
1
 40
1
 10
58.130099
 20
68.601198
 30
0.0
 10
67.407798
 20
68.601198
 30
0.0
 10
74.927298
 20
66.622998
 30
0.0
 10
74.927298
 20
64.183198
 30
0.0
  0
SPLINE
  5
1ba
100
AcDbEntity
  8
ink_ext_XXXXXX
 62
7
100
AcDbSpline
 70
8
 71
3
 72
8
 73
4
 74
0
 40
0
 40
0
 40
0
 40
0
 40
1
 40
1
 40
1
 40
1
 10
74.927298
 20
64.183198
 30
0.0
 10
74.927298
 20
61.747298
 30
0.0
 10
67.407798
 20
59.769099
 30
0.0
 10
58.130099
 20
59.769099
 30
0.0
  0
SPLINE
  5
1bb
100
AcDbEntity
  8
ink_ext_XXXXXX
 62
7
100
AcDbSpline
 70
8
 71
3
 72
8
 73
4
 74
0
 40
0
 40
0
 40
0
 40
0
 40
1
 40
1
 40
1
 40
1
 10
58.130099
 20
59.769099
 30
0.0
 10
48.847999
 20
59.769099
 30
0.0
 10
41.328499
 20
61.747298
 30
0.0
 10
41.328499
 20
64.183198
 30
0.0
  0
LWPOLYLINE
  5
1bc
100
AcDbEntity
  8
ink_ext_XXXXXX
 62
7
100
AcDbPolyline
 90
1
 70
1
 10
77.197998
 20
50.021499
 30
0.0
  0
LWPOLYLINE
  5
1bd
100
AcDbEntity
  8
ink_ext_XXXXXX
 62
7
100
AcDbPolyline
 90
1
 70
1
 10
41.328499
 20
64.183198
 30
0.0
  0
SPLINE
  5
1be
100
AcDbEntity
  8
ink_ext_XXXXXX
 62
7
100
AcDbSpline
 70
8
 71
3
 72
8
 73
4
 74
0
 40
0
 40
0
 40
0
 40
0
 40
1
 40
1
 40
1
 40
1
 10
77.159398
 20
60.565998
 30
0.0
 10
77.224998
 20
61.785498
 30
0.0
 10
77.259398
 20
62.994098
 30
0.0
 10
77.259398
 20
64.183198
 30
0.0
  0
SPLINE
  5
1bf
100
AcDbEntity
  8
ink_ext_XXXXXX
 62
7
100
AcDbSpline
 70
8
 71
3
 72
8
 73
4
 74
0
 40
0
 40
0
 40
0
 40
0
 40
1
 40
1
 40
1
 40
1
 10
77.259398
 20
64.183198
 30
0.0
 10
77.259398
 20
67.434798
 30
0.0
 10
68.693398
 20
70.070698
 30
0.0
 10
58.130099
 20
70.070698
 30
0.0
  0
SPLINE
  5
1c0
100
AcDbEntity
  8
ink_ext_XXXXXX
 62
7
100
AcDbSpline
 70
8
 71
3
 72
8
 73
4
 74
0
 40
0
 40
0
 40
0
 40
0
 40
1
 40
1
 40
1
 40
1
 10
58.130099
 20
70.070698
 30
0.0
 10
47.558599
 20
70.070698
 30
0.0
 10
38.996499
 20
67.434798
 30
0.0
 10
38.996499
 20
64.183198
 30
0.0
  0
SPLINE
  5
1c1
100
AcDbEntity
  8
ink_ext_XXXXXX
 62
7
100
AcDbSpline
 70
8
 71
3
 72
8
 73
4
 74
0
 40
0
 40
0
 40
0
 40
0
 40
1
 40
1
 40
1
 40
1
 10
38.996499
 20
64.183198
 30
0.0
 10
38.996499
 20
52.657399
 30
0.0
 10
41.817199
 20
38.984799
 30
0.0
 10
58.130099
 20
38.984799
 30
0.0
  0
SPLINE
  5
1c2
100
AcDbEntity
  8
ink_ext_XXXXXX
 62
7
100
AcDbSpline
 70
8
 71
3
 72
8
 73
4
 74
0
 40
0
 40
0
 40
0
 40
0
 40
1
 40
1
 40
1
 40
1
 10
58.130099
 20
38.984799
 30
0.0
 10
66.384398
 20
38.984799
 30
0.0
 10
71.183198
 20
42.490599
 30
0.0
 10
73.911698
 20
47.443399
 30
0.0
  0
LWPOLYLINE
  5
1c3
100
AcDbEntity
  8
ink_ext_XXXXXX
 62
7
100
AcDbPolyline
 90
2
 70
0
 10
77.197998
 20
60.565998
 30
0.0
 10
77.159398
 20
60.565998
 30
0.0
  0
SPLINE
  5
1c4
100
AcDbEntity
  8
ink_ext_XXXXXX
 62
7
100
AcDbSpline
 70
8
 71
3
 72
8
 73
4
 74
0
 40
0
 40
0
 40
0
 40
0
 40
1
 40
1
 40
1
 40
1
 10
77.197998
 20
47.443399
 30
0.0
 10
80.815198
 20
47.443399
 30
0.0
 10
83.759398
 20
50.387099
 30
0.0
 10
83.759398
 20
54.004699
 30
0.0
  0
SPLINE
  5
1c5
100
AcDbEntity
  8
ink_ext_XXXXXX
 62
7
100
AcDbSpline
 70
8
 71
3
 72
8
 73
4
 74
0
 40
0
 40
0
 40
0
 40
0
 40
1
 40
1
 40
1
 40
1
 10
83.759398
 20
54.004699
 30
0.0
 10
83.759398
 20
57.621899
 30
0.0
 10
80.815198
 20
60.565998
 30
0.0
 10
77.197998
 20
60.565998
 30
0.0
  0
LWPOLYLINE
  5
1c6
100
AcDbEntity
  8
ink_ext_XXXXXX
 62
7
100
AcDbPolyline
 90
2
 70
0
 10
73.911698
 20
47.443399
 30
0.0
 10
77.197998
 20
47.443399
 30
0.0
  0
SPLINE
  5
1c7
100
AcDbEntity
  8
ink_ext_XXXXXX
 62
7
100
AcDbSpline
 70
8
 71
3
 72
8
 73
4
 74
0
 40
0
 40
0
 40
0
 40
0
 40
1
 40
1
 40
1
 40
1
 10
75.104698
 20
50.021499
 30
0.0
 10
76.062898
 20
52.507399
 30
0.0
 10
76.628498
 20
55.232399
 30
0.0
 10
76.940198
 20
57.990999
 30
0.0
  0
LWPOLYLINE
  5
1c8
100
AcDbEntity
  8
ink_ext_XXXXXX
 62
7
100
AcDbPolyline
 90
2
 70
0
 10
77.197998
 20
50.021499
 30
0.0
 10
75.104698
 20
50.021499
 30
0.0
  0
SPLINE
  5
1c9
100
AcDbEntity
  8
ink_ext_XXXXXX
 62
7
100
AcDbSpline
 70
8
 71
3
 72
8
 73
4
 74
0
 40
0
 40
0
 40
0
 40
0
 40
1
 40
1
 40
1
 40
1
 10
77.197998
 20
57.990999
 30
0.0
 10
79.395298
 20
57.990999
 30
0.0
 10
81.184798
 20
56.205499
 30
0.0
 10
81.184798
 20
54.004699
 30
0.0
  0
SPLINE
  5
1ca
100
AcDbEntity
  8
ink_ext_XXXXXX
 62
7
100
AcDbSpline
 70
8
 71
3
 72
8
 73
4
 74
0
 40
0
 40
0
 40
0
 40
0
 40
1
 40
1
 40
1
 40
1
 10
81.184798
 20
54.004699
 30
0.0
 10
81.184798
 20
51.806999
 30
0.0
 10
79.395298
 20
50.021499
 30
0.0
 10
77.197998
 20
50.021499
 30
0.0
  0
LWPOLYLINE
  5
1cb
100
AcDbEntity
  8
ink_ext_XXXXXX
 62
7
100
AcDbPolyline
 90
2
 70
0
 10
76.940198
 20
57.990999
 30
0.0
 10
77.197998
 20
57.990999
 30
0.0
  0
SPLINE
  5
1cc
100
AcDbEntity
  8
ink_ext_XXXXXX
 62
7
100
AcDbSpline
 70
8
 71
3
 72
8
 73
4
 74
0
 40
0
 40
0
 40
0
 40
0
 40
1
 40
1
 40
1
 40
1
 10
41.328499
 20
64.183198
 30
0.0
 10
41.328499
 20
66.622998
 30
0.0
 10
48.847999
 20
68.601198
 30
0.0
 10
58.130099
 20
68.601198
 30
0.0
  0
SPLINE
  5
1cd
100
AcDbEntity
  8
ink_ext_XXXXXX
 62
7
100
AcDbSpline
 70
8
 71
3
 72
8
 73
4
 74
0
 40
0
 40
0
 40
0
 40
0
 40
1
 40
1
 40
1
 40
1
 10
58.130099
 20
68.601198
 30
0.0
 10
67.407798
 20
68.601198
 30
0.0
 10
74.927298
 20
66.622998
 30
0.0
 10
74.927298
 20
64.183198
 30
0.0
  0
SPLINE
  5
1ce
100
AcDbEntity
  8
ink_ext_XXXXXX
 62
7
100
AcDbSpline
 70
8
 71
3
 72
8
 73
4
 74
0
 40
0
 40
0
 40
0
 40
0
 40
1
 40
1
 40
1
 40
1
 10
74.927298
 20
64.183198
 30
0.0
 10
74.927298
 20
61.747298
 30
0.0
 10
67.407798
 20
59.769099
 30
0.0
 10
58.130099
 20
59.769099
 30
0.0
  0
SPLINE
  5
1cf
100
AcDbEntity
  8
ink_ext_XXXXXX
 62
7
100
AcDbSpline
 70
8
 71
3
 72
8
 73
4
 74
0
 40
0
 40
0
 40
0
 40
0
 40
1
 40
1
 40
1
 40
1
 10
58.130099
 20
59.769099
 30
0.0
 10
48.847999
 20
59.769099
 30
0.0
 10
41.328499
 20
61.747298
 30
0.0
 10
41.328499
 20
64.183198
 30
0.0
  0
LWPOLYLINE
  5
1d0
100
AcDbEntity
  8
ink_ext_XXXXXX
 62
7
100
AcDbPolyline
 90
1
 70
1
 10
77.197998
 20
50.021499
 30
0.0
  0
LWPOLYLINE
  5
1d1
100
AcDbEntity
  8
ink_ext_XXXXXX
 62
7
100
AcDbPolyline
 90
1
 70
1
 10
41.328499
 20
64.183198
 30
0.0
  0
SPLINE
  5
1d2
100
AcDbEntity
  8
ink_ext_XXXXXX
 62
7
100
AcDbSpline
 70
8
 71
3
 72
8
 73
4
 74
0
 40
0
 40
0
 40
0
 40
0
 40
1
 40
1
 40
1
 40
1
 10
77.159398
 20
60.565998
 30
0.0
 10
77.224998
 20
61.785498
 30
0.0
 10
77.259398
 20
62.994098
 30
0.0
 10
77.259398
 20
64.183198
 30
0.0
  0
SPLINE
  5
1d3
100
AcDbEntity
  8
ink_ext_XXXXXX
 62
7
100
AcDbSpline
 70
8
 71
3
 72
8
 73
4
 74
0
 40
0
 40
0
 40
0
 40
0
 40
1
 40
1
 40
1
 40
1
 10
77.259398
 20
64.183198
 30
0.0
 10
77.259398
 20
67.434798
 30
0.0
 10
68.693398
 20
70.070698
 30
0.0
 10
58.130099
 20
70.070698
 30
0.0
  0
SPLINE
  5
1d4
100
AcDbEntity
  8
ink_ext_XXXXXX
 62
7
100
AcDbSpline
 70
8
 71
3
 72
8
 73
4
 74
0
 40
0
 40
0
 40
0
 40
0
 40
1
 40
1
 40
1
 40
1
 10
58.130099
 20
70.070698
 30
0.0
 10
47.558599
 20
70.070698
 30
0.0
 10
38.996499
 20
67.434798
 30
0.0
 10
38.996499
 20
64.183198
 30
0.0
  0
SPLINE
  5
1d5
100
AcDbEntity
  8
ink_ext_XXXXXX
 62
7
100
AcDbSpline
 70
8
 71
3
 72
8
 73
4
 74
0
 40
0
 40
0
 40
0
 40
0
 40
1
 40
1
 40
1
 40
1
 10
38.996499
 20
64.183198
 30
0.0
 10
38.996499
 20
52.657399
 30
0.0
 10
41.817199
 20
38.984799
 30
0.0
 10
58.130099
 20
38.984799
 30
0.0
  0
SPLINE
  5
1d6
100
AcDbEntity
  8
ink_ext_XXXXXX
 62
7
100
AcDbSpline
 70
8
 71
3
 72
8
 73
4
 74
0
 40
0
 40
0
 40
0
 40
0
 40
1
 40
1
 40
1
 40
1
 10
58.130099
 20
38.984799
 30
0.0
 10
66.384398
 20
38.984799
 30
0.0
 10
71.183198
 20
42.490599
 30
0.0
 10
73.911698
 20
47.443399
 30
0.0
  0
LWPOLYLINE
  5
1d7
100
AcDbEntity
  8
ink_ext_XXXXXX
 62
7
100
AcDbPolyline
 90
2
 70
0
 10
77.197998
 20
60.565998
 30
0.0
 10
77.159398
 20
60.565998
 30
0.0
  0
SPLINE
  5
1d8
100
AcDbEntity
  8
ink_ext_XXXXXX
 62
7
100
AcDbSpline
 70
8
 71
3
 72
8
 73
4
 74
0
 40
0
 40
0
 40
0
 40
0
 40
1
 40
1
 40
1
 40
1
 10
77.197998
 20
47.443399
 30
0.0
 10
80.815198
 20
47.443399
 30
0.0
 10
83.759398
 20
50.387099
 30
0.0
 10
83.759398
 20
54.004699
 30
0.0
  0
SPLINE
  5
1d9
100
AcDbEntity
  8
ink_ext_XXXXXX
 62
7
100
AcDbSpline
 70
8
 71
3
 72
8
 73
4
 74
0
 40
0
 40
0
 40
0
 40
0
 40
1
 40
1
 40
1
 40
1
 10
83.759398
 20
54.004699
 30
0.0
 10
83.759398
 20
57.621899
 30
0.0
 10
80.815198
 20
60.565998
 30
0.0
 10
77.197998
 20
60.565998
 30
0.0
  0
LWPOLYLINE
  5
1da
100
AcDbEntity
  8
ink_ext_XXXXXX
 62
7
100
AcDbPolyline
 90
2
 70
0
 10
73.911698
 20
47.443399
 30
0.0
 10
77.197998
 20
47.443399
 30
0.0
  0
LWPOLYLINE
  5
1db
100
AcDbEntity
  8
ink_ext_XXXXXX
 62
7
100
AcDbPolyline
 90
1
 70
1
 10
77.197998
 20
60.565998
 30
0.0
  0
SPLINE
  5
1dc
100
AcDbEntity
  8
ink_ext_XXXXXX
 62
7
100
AcDbSpline
 70
8
 71
3
 72
8
 73
4
 74
0
 40
0
 40
0
 40
0
 40
0
 40
1
 40
1
 40
1
 40
1
 10
72.897298
 20
10.312100
 30
0.0
 10
71.305498
 20
11.040200
 30
0.0
 10
69.899598
 20
12.005500
 30
0.0
 10
69.093798
 20
12.828500
 30
0.0
  0
SPLINE
  5
1dd
100
AcDbEntity
  8
ink_ext_XXXXXX
 62
7
100
AcDbSpline
 70
8
 71
3
 72
8
 73
4
 74
0
 40
0
 40
0
 40
0
 40
0
 40
1
 40
1
 40
1
 40
1
 10
69.093798
 20
12.828500
 30
0.0
 10
68.351598
 20
13.162100
 30
0.0
 10
67.544498
 20
13.158600
 30
0.0
 10
66.484398
 20
12.169900
 30
0.0
  0
SPLINE
  5
1de
100
AcDbEntity
  8
ink_ext_XXXXXX
 62
7
100
AcDbSpline
 70
8
 71
3
 72
8
 73
4
 74
0
 40
0
 40
0
 40
0
 40
0
 40
1
 40
1
 40
1
 40
1
 10
66.484398
 20
12.169900
 30
0.0
 10
66.303098
 20
12.000800
 30
0.0
 10
66.128098
 20
11.844100
 30
0.0
 10
65.960498
 20
11.700000
 30
0.0
  0
SPLINE
  5
1df
100
AcDbEntity
  8
ink_ext_XXXXXX
 62
7
100
AcDbSpline
 70
8
 71
3
 72
8
 73
4
 74
0
 40
0
 40
0
 40
0
 40
0
 40
1
 40
1
 40
1
 40
1
 10
65.960498
 20
11.700000
 30
0.0
 10
65.519098
 20
11.182000
 30
0.0
 10
65.003498
 20
10.708200
 30
0.0
 10
64.433198
 20
10.291400
 30
0.0
  0
SPLINE
  5
1e0
100
AcDbEntity
  8
ink_ext_XXXXXX
 62
7
100
AcDbSpline
 70
8
 71
3
 72
8
 73
4
 74
0
 40
0
 40
0
 40
0
 40
0
 40
1
 40
1
 40
1
 40
1
 10
64.433198
 20
10.291400
 30
0.0
 10
63.955098
 20
8.498050
 30
0.0
 10
63.631298
 20
6.219920
 30
0.0
 10
64.702698
 20
4.860160
 30
0.0
  0
SPLINE
  5
1e1
100
AcDbEntity
  8
ink_ext_XXXXXX
 62
7
100
AcDbSpline
 70
8
 71
3
 72
8
 73
4
 74
0
 40
0
 40
0
 40
0
 40
0
 40
1
 40
1
 40
1
 40
1
 10
64.702698
 20
4.860160
 30
0.0
 10
65.253098
 20
4.157810
 30
0.0
 10
66.332398
 20
3.730080
 30
0.0
 10
67.521898
 20
3.577730
 30
0.0
  0
SPLINE
  5
1e2
100
AcDbEntity
  8
ink_ext_XXXXXX
 62
7
100
AcDbSpline
 70
8
 71
3
 72
8
 73
4
 74
0
 40
0
 40
0
 40
0
 40
0
 40
1
 40
1
 40
1
 40
1
 10
67.521898
 20
3.577730
 30
0.0
 10
67.538298
 20
4.478520
 30
0.0
 10
68.276998
 20
5.425780
 30
0.0
 10
69.161298
 20
5.572660
 30
0.0
  0
SPLINE
  5
1e3
100
AcDbEntity
  8
ink_ext_XXXXXX
 62
7
100
AcDbSpline
 70
8
 71
3
 72
8
 73
4
 74
0
 40
0
 40
0
 40
0
 40
0
 40
1
 40
1
 40
1
 40
1
 10
69.161298
 20
5.572660
 30
0.0
 10
69.984398
 20
5.709770
 30
0.0
 10
71.794098
 20
5.775780
 30
0.0
 10
72.801598
 20
5.366410
 30
0.0
  0
SPLINE
  5
1e4
100
AcDbEntity
  8
ink_ext_XXXXXX
 62
7
100
AcDbSpline
 70
8
 71
3
 72
8
 73
4
 74
0
 40
0
 40
0
 40
0
 40
0
 40
1
 40
1
 40
1
 40
1
 10
72.801598
 20
5.366410
 30
0.0
 10
73.892998
 20
6.680860
 30
0.0
 10
74.397298
 20
8.201950
 30
0.0
 10
74.154698
 20
8.783980
 30
0.0
  0
SPLINE
  5
1e5
100
AcDbEntity
  8
ink_ext_XXXXXX
 62
7
100
AcDbSpline
 70
8
 71
3
 72
8
 73
4
 74
0
 40
0
 40
0
 40
0
 40
0
 40
1
 40
1
 40
1
 40
1
 10
74.154698
 20
8.783980
 30
0.0
 10
73.995298
 20
9.165230
 30
0.0
 10
73.479298
 20
9.750390
 30
0.0
 10
72.897298
 20
10.312100
 30
0.0
  0
LWPOLYLINE
  5
1e6
100
AcDbEntity
  8
ink_ext_XXXXXX
 62
7
100
AcDbPolyline
 90
20
 70
1
 10
40.344899
 20
78.474198
 30
0.0
 10
42.228899
 20
77.537898
 30
0.0
 10
44.065999
 20
78.560198
 30
0.0
 10
43.757799
 20
76.477298
 30
0.0
 10
45.298399
 20
75.045698
 30
0.0
 10
43.223399
 20
74.694898
 30
0.0
 10
42.338299
 20
72.787498
 30
0.0
 10
41.362899
 20
74.651998
 30
0.0
 10
39.276599
 20
74.905498
 30
0.0
 10
40.742599
 20
76.410898
 30
0.0
 10
40.344899
 20
78.474198
 30
0.0
 10
42.228899
 20
77.537898
 30
0.0
 10
44.065999
 20
78.560198
 30
0.0
 10
43.757799
 20
76.477298
 30
0.0
 10
45.298399
 20
75.045698
 30
0.0
 10
43.223399
 20
74.694898
 30
0.0
 10
42.338299
 20
72.787498
 30
0.0
 10
41.362899
 20
74.651998
 30
0.0
 10
39.276599
 20
74.905498
 30
0.0
 10
40.742599
 20
76.410898
 30
0.0
  0
SPLINE
  5
1e7
100
AcDbEntity
  8
ink_ext_XXXXXX
 62
7
100
AcDbSpline
 70
8
 71
3
 72
8
 73
4
 74
0
 40
0
 40
0
 40
0
 40
0
 40
1
 40
1
 40
1
 40
1
 10
79.941398
 20
9.933200
 30
0.0
 10
78.998798
 20
9.273440
 30
0.0
 10
77.790598
 20
9.103910
 30
0.0
 10
76.512498
 20
9.244920
 30
0.0
  0
SPLINE
  5
1e8
100
AcDbEntity
  8
ink_ext_XXXXXX
 62
7
100
AcDbSpline
 70
8
 71
3
 72
8
 73
4
 74
0
 40
0
 40
0
 40
0
 40
0
 40
1
 40
1
 40
1
 40
1
 10
76.512498
 20
9.244920
 30
0.0
 10
76.598398
 20
8.575000
 30
0.0
 10
76.536298
 20
7.804300
 30
0.0
 10
76.330098
 20
7.016410
 30
0.0
  0
SPLINE
  5
1e9
100
AcDbEntity
  8
ink_ext_XXXXXX
 62
7
100
AcDbSpline
 70
8
 71
3
 72
8
 73
4
 74
0
 40
0
 40
0
 40
0
 40
0
 40
1
 40
1
 40
1
 40
1
 10
76.330098
 20
7.016410
 30
0.0
 10
76.915198
 20
6.028130
 30
0.0
 10
78.105898
 20
5.402730
 30
0.0
 10
79.637498
 20
5.475780
 30
0.0
  0
SPLINE
  5
1ea
100
AcDbEntity
  8
ink_ext_XXXXXX
 62
7
100
AcDbSpline
 70
8
 71
3
 72
8
 73
4
 74
0
 40
0
 40
0
 40
0
 40
0
 40
1
 40
1
 40
1
 40
1
 10
79.637498
 20
5.475780
 30
0.0
 10
79.694098
 20
6.086720
 30
0.0
 10
79.810498
 20
6.600390
 30
0.0
 10
79.981998
 20
6.821480
 30
0.0
  0
SPLINE
  5
1eb
100
AcDbEntity
  8
ink_ext_XXXXXX
 62
7
100
AcDbSpline
 70
8
 71
3
 72
8
 73
4
 74
0
 40
0
 40
0
 40
0
 40
0
 40
1
 40
1
 40
1
 40
1
 10
79.981998
 20
6.821480
 30
0.0
 10
80.575798
 20
7.594140
 30
0.0
 10
81.825398
 20
7.058590
 30
0.0
 10
82.240998
 20
6.941800
 30
0.0
  0
SPLINE
  5
1ec
100
AcDbEntity
  8
ink_ext_XXXXXX
 62
7
100
AcDbSpline
 70
8
 71
3
 72
8
 73
4
 74
0
 40
0
 40
0
 40
0
 40
0
 40
1
 40
1
 40
1
 40
1
 10
82.240998
 20
6.941800
 30
0.0
 10
82.347298
 20
6.911330
 30
0.0
 10
82.519898
 20
6.724610
 30
0.0
 10
82.714798
 20
6.454690
 30
0.0
  0
SPLINE
  5
1ed
100
AcDbEntity
  8
ink_ext_XXXXXX
 62
7
100
AcDbSpline
 70
8
 71
3
 72
8
 73
4
 74
0
 40
0
 40
0
 40
0
 40
0
 40
1
 40
1
 40
1
 40
1
 10
82.714798
 20
6.454690
 30
0.0
 10
84.388698
 20
7.489060
 30
0.0
 10
84.488698
 20
8.836330
 30
0.0
 10
84.205098
 20
9.746480
 30
0.0
  0
SPLINE
  5
1ee
100
AcDbEntity
  8
ink_ext_XXXXXX
 62
7
100
AcDbSpline
 70
8
 71
3
 72
8
 73
4
 74
0
 40
0
 40
0
 40
0
 40
0
 40
1
 40
1
 40
1
 40
1
 10
84.205098
 20
9.746480
 30
0.0
 10
83.083198
 20
9.692190
 30
0.0
 10
81.933198
 20
9.973440
 30
0.0
 10
80.854698
 20
10.728500
 30
0.0
  0
SPLINE
  5
1ef
100
AcDbEntity
  8
ink_ext_XXXXXX
 62
7
100
AcDbSpline
 70
8
 71
3
 72
8
 73
4
 74
0
 40
0
 40
0
 40
0
 40
0
 40
1
 40
1
 40
1
 40
1
 10
80.854698
 20
10.728500
 30
0.0
 10
80.571098
 20
10.428500
 30
0.0
 10
80.266398
 20
10.160200
 30
0.0
 10
79.941398
 20
9.933200
 30
0.0
  0
LWPOLYLINE
  5
1f0
100
AcDbEntity
  8
ink_ext_XXXXXX
 62
7
100
AcDbPolyline
 90
1
 70
1
 10
72.897298
 20
10.312100
 30
0.0
  0
SPLINE
  5
1f1
100
AcDbEntity
  8
ink_ext_XXXXXX
 62
7
100
AcDbSpline
 70
8
 71
3
 72
8
 73
4
 74
0
 40
0
 40
0
 40
0
 40
0
 40
1
 40
1
 40
1
 40
1
 10
82.155098
 20
12.593400
 30
0.0
 10
83.556998
 20
11.905100
 30
0.0
 10
86.481298
 20
11.775800
 30
0.0
 10
88.421498
 20
14.489500
 30
0.0
  0
SPLINE
  5
1f2
100
AcDbEntity
  8
ink_ext_XXXXXX
 62
7
100
AcDbSpline
 70
8
 71
3
 72
8
 73
4
 74
0
 40
0
 40
0
 40
0
 40
0
 40
1
 40
1
 40
1
 40
1
 10
88.421498
 20
14.489500
 30
0.0
 10
90.310898
 20
17.135900
 30
0.0
 10
88.030498
 20
19.934000
 30
0.0
 10
86.149598
 20
20.699199
 30
0.0
  0
SPLINE
  5
1f3
100
AcDbEntity
  8
ink_ext_XXXXXX
 62
7
100
AcDbSpline
 70
8
 71
3
 72
8
 73
4
 74
0
 40
0
 40
0
 40
0
 40
0
 40
1
 40
1
 40
1
 40
1
 10
86.149598
 20
20.699199
 30
0.0
 10
85.074198
 20
19.687900
 30
0.0
 10
84.134398
 20
18.832400
 30
0.0
 10
83.340598
 20
18.026600
 30
0.0
  0
SPLINE
  5
1f4
100
AcDbEntity
  8
ink_ext_XXXXXX
 62
7
100
AcDbSpline
 70
8
 71
3
 72
8
 73
4
 74
0
 40
0
 40
0
 40
0
 40
0
 40
1
 40
1
 40
1
 40
1
 10
83.340598
 20
18.026600
 30
0.0
 10
83.470698
 20
16.333200
 30
0.0
 10
83.039498
 20
14.293800
 30
0.0
 10
82.155098
 20
12.593400
 30
0.0
  0
LWPOLYLINE
  5
1f5
100
AcDbEntity
  8
ink_ext_XXXXXX
 62
7
100
AcDbPolyline
 90
1
 70
1
 10
79.941398
 20
9.933200
 30
0.0
  0
SPLINE
  5
1f6
100
AcDbEntity
  8
ink_ext_XXXXXX
 62
7
100
AcDbSpline
 70
8
 71
3
 72
8
 73
4
 74
0
 40
0
 40
0
 40
0
 40
0
 40
1
 40
1
 40
1
 40
1
 10
76.622298
 20
11.577300
 30
0.0
 10
80.069898
 20
11.457400
 30
0.0
 10
81.081298
 20
14.607000
 30
0.0
 10
81.201198
 20
15.978100
 30
0.0
  0
SPLINE
  5
1f7
100
AcDbEntity
  8
ink_ext_XXXXXX
 62
7
100
AcDbSpline
 70
8
 71
3
 72
8
 73
4
 74
0
 40
0
 40
0
 40
0
 40
0
 40
1
 40
1
 40
1
 40
1
 10
81.201198
 20
15.978100
 30
0.0
 10
81.317598
 20
17.345300
 30
0.0
 10
81.030098
 20
20.327699
 30
0.0
 10
77.931298
 20
22.098799
 30
0.0
  0
SPLINE
  5
1f8
100
AcDbEntity
  8
ink_ext_XXXXXX
 62
7
100
AcDbSpline
 70
8
 71
3
 72
8
 73
4
 74
0
 40
0
 40
0
 40
0
 40
0
 40
1
 40
1
 40
1
 40
1
 10
77.931298
 20
22.098799
 30
0.0
 10
76.265598
 20
23.051599
 30
0.0
 10
73.632398
 20
23.469899
 30
0.0
 10
72.043398
 20
21.564499
 30
0.0
  0
SPLINE
  5
1f9
100
AcDbEntity
  8
ink_ext_XXXXXX
 62
7
100
AcDbSpline
 70
8
 71
3
 72
8
 73
4
 74
0
 40
0
 40
0
 40
0
 40
0
 40
1
 40
1
 40
1
 40
1
 10
72.043398
 20
21.564499
 30
0.0
 10
70.559398
 20
19.782000
 30
0.0
 10
70.002698
 20
17.294500
 30
0.0
 10
70.140998
 20
15.679700
 30
0.0
  0
SPLINE
  5
1fa
100
AcDbEntity
  8
ink_ext_XXXXXX
 62
7
100
AcDbSpline
 70
8
 71
3
 72
8
 73
4
 74
0
 40
0
 40
0
 40
0
 40
0
 40
1
 40
1
 40
1
 40
1
 10
70.140998
 20
15.679700
 30
0.0
 10
70.319498
 20
13.599600
 30
0.0
 10
73.174598
 20
11.697700
 30
0.0
 10
76.622298
 20
11.577300
 30
0.0
  0
LWPOLYLINE
  5
1fb
100
AcDbEntity
  8
ink_ext_XXXXXX
 62
7
100
AcDbPolyline
 90
1
 70
1
 10
82.155098
 20
12.593400
 30
0.0
  0
SPLINE
  5
1fc
100
AcDbEntity
  8
ink_ext_XXXXXX
 62
7
100
AcDbSpline
 70
8
 71
3
 72
8
 73
4
 74
0
 40
0
 40
0
 40
0
 40
0
 40
1
 40
1
 40
1
 40
1
 10
77.811298
 20
17.702000
 30
0.0
 10
78.226198
 20
16.807000
 30
0.0
 10
76.622298
 20
14.490600
 30
0.0
 10
75.374598
 20
15.323400
 30
0.0
  0
SPLINE
  5
1fd
100
AcDbEntity
  8
ink_ext_XXXXXX
 62
7
100
AcDbSpline
 70
8
 71
3
 72
8
 73
4
 74
0
 40
0
 40
0
 40
0
 40
0
 40
1
 40
1
 40
1
 40
1
 10
75.374598
 20
15.323400
 30
0.0
 10
74.127298
 20
16.156300
 30
0.0
 10
74.450798
 20
19.742200
 30
0.0
 10
75.312898
 20
19.960500
 30
0.0
  0
SPLINE
  5
1fe
100
AcDbEntity
  8
ink_ext_XXXXXX
 62
7
100
AcDbSpline
 70
8
 71
3
 72
8
 73
4
 74
0
 40
0
 40
0
 40
0
 40
0
 40
1
 40
1
 40
1
 40
1
 10
75.312898
 20
19.960500
 30
0.0
 10
76.501998
 20
20.258599
 30
0.0
 10
77.396898
 20
18.592600
 30
0.0
 10
77.811298
 20
17.702000
 30
0.0
  0
LWPOLYLINE
  5
1ff
100
AcDbEntity
  8
ink_ext_XXXXXX
 62
7
100
AcDbPolyline
 90
1
 70
1
 10
76.622298
 20
11.577300
 30
0.0
  0
SPLINE
  5
200
100
AcDbEntity
  8
ink_ext_XXXXXX
 62
7
100
AcDbSpline
 70
8
 71
3
 72
8
 73
4
 74
0
 40
0
 40
0
 40
0
 40
0
 40
1
 40
1
 40
1
 40
1
 10
74.311298
 20
24.962099
 30
0.0
 10
76.234798
 20
25.278899
 30
0.0
 10
78.604698
 20
24.642999
 30
0.0
 10
81.294498
 20
21.880899
 30
0.0
  0
SPLINE
  5
201
100
AcDbEntity
  8
ink_ext_XXXXXX
 62
7
100
AcDbSpline
 70
8
 71
3
 72
8
 73
4
 74
0
 40
0
 40
0
 40
0
 40
0
 40
1
 40
1
 40
1
 40
1
 10
81.294498
 20
21.880899
 30
0.0
 10
82.917598
 20
23.341399
 30
0.0
 10
83.004298
 20
24.652299
 30
0.0
 10
82.951598
 20
26.203499
 30
0.0
  0
SPLINE
  5
202
100
AcDbEntity
  8
ink_ext_XXXXXX
 62
7
100
AcDbSpline
 70
8
 71
3
 72
8
 73
4
 74
0
 40
0
 40
0
 40
0
 40
0
 40
1
 40
1
 40
1
 40
1
 10
82.951598
 20
26.203499
 30
0.0
 10
82.896498
 20
27.927299
 30
0.0
 10
81.586298
 20
30.068399
 30
0.0
 10
78.017998
 20
30.899199
 30
0.0
  0
SPLINE
  5
203
100
AcDbEntity
  8
ink_ext_XXXXXX
 62
7
100
AcDbSpline
 70
8
 71
3
 72
8
 73
4
 74
0
 40
0
 40
0
 40
0
 40
0
 40
1
 40
1
 40
1
 40
1
 10
78.017998
 20
30.899199
 30
0.0
 10
74.911298
 20
31.624599
 30
0.0
 10
73.048398
 20
29.524599
 30
0.0
 10
72.585898
 20
27.690999
 30
0.0
  0
SPLINE
  5
204
100
AcDbEntity
  8
ink_ext_XXXXXX
 62
7
100
AcDbSpline
 70
8
 71
3
 72
8
 73
4
 74
0
 40
0
 40
0
 40
0
 40
0
 40
1
 40
1
 40
1
 40
1
 10
72.585898
 20
27.690999
 30
0.0
 10
73.454698
 20
26.994099
 30
0.0
 10
74.092198
 20
26.087499
 30
0.0
 10
74.311298
 20
24.962099
 30
0.0
  0
LWPOLYLINE
  5
205
100
AcDbEntity
  8
ink_ext_XXXXXX
 62
7
100
AcDbPolyline
 90
1
 70
1
 10
77.811298
 20
17.702000
 30
0.0
  0
SPLINE
  5
206
100
AcDbEntity
  8
ink_ext_XXXXXX
 62
7
100
AcDbSpline
 70
8
 71
3
 72
8
 73
4
 74
0
 40
0
 40
0
 40
0
 40
0
 40
1
 40
1
 40
1
 40
1
 10
72.073398
 20
24.108599
 30
0.0
 10
71.885198
 20
24.778899
 30
0.0
 10
71.498798
 20
25.622299
 30
0.0
 10
70.707398
 20
26.262899
 30
0.0
  0
SPLINE
  5
207
100
AcDbEntity
  8
ink_ext_XXXXXX
 62
7
100
AcDbSpline
 70
8
 71
3
 72
8
 73
4
 74
0
 40
0
 40
0
 40
0
 40
0
 40
1
 40
1
 40
1
 40
1
 10
70.707398
 20
26.262899
 30
0.0
 10
69.210898
 20
27.469899
 30
0.0
 10
67.523398
 20
27.454299
 30
0.0
 10
66.329298
 20
27.206999
 30
0.0
  0
SPLINE
  5
208
100
AcDbEntity
  8
ink_ext_XXXXXX
 62
7
100
AcDbSpline
 70
8
 71
3
 72
8
 73
4
 74
0
 40
0
 40
0
 40
0
 40
0
 40
1
 40
1
 40
1
 40
1
 10
66.329298
 20
27.206999
 30
0.0
 10
66.377698
 20
27.090199
 30
0.0
 10
66.411298
 20
26.972699
 30
0.0
 10
66.426198
 20
26.855899
 30
0.0
  0
SPLINE
  5
209
100
AcDbEntity
  8
ink_ext_XXXXXX
 62
7
100
AcDbSpline
 70
8
 71
3
 72
8
 73
4
 74
0
 40
0
 40
0
 40
0
 40
0
 40
1
 40
1
 40
1
 40
1
 10
66.426198
 20
26.855899
 30
0.0
 10
66.439798
 20
26.755499
 30
0.0
 10
66.439098
 20
26.657399
 30
0.0
 10
66.427298
 20
26.562099
 30
0.0
  0
SPLINE
  5
20a
100
AcDbEntity
  8
ink_ext_XXXXXX
 62
7
100
AcDbSpline
 70
8
 71
3
 72
8
 73
4
 74
0
 40
0
 40
0
 40
0
 40
0
 40
1
 40
1
 40
1
 40
1
 10
66.427298
 20
26.562099
 30
0.0
 10
68.738298
 20
24.281999
 30
0.0
 10
68.693398
 20
20.803499
 30
0.0
 10
67.024198
 20
18.816400
 30
0.0
  0
SPLINE
  5
20b
100
AcDbEntity
  8
ink_ext_XXXXXX
 62
7
100
AcDbSpline
 70
8
 71
3
 72
8
 73
4
 74
0
 40
0
 40
0
 40
0
 40
0
 40
1
 40
1
 40
1
 40
1
 10
67.024198
 20
18.816400
 30
0.0
 10
67.162498
 20
18.361700
 30
0.0
 10
67.614798
 20
17.885500
 30
0.0
 10
68.153898
 20
17.935500
 30
0.0
  0
SPLINE
  5
20c
100
AcDbEntity
  8
ink_ext_XXXXXX
 62
7
100
AcDbSpline
 70
8
 71
3
 72
8
 73
4
 74
0
 40
0
 40
0
 40
0
 40
0
 40
1
 40
1
 40
1
 40
1
 10
68.153898
 20
17.935500
 30
0.0
 10
68.485898
 20
19.734000
 30
0.0
 10
69.264798
 20
21.533199
 30
0.0
 10
70.269498
 20
22.615999
 30
0.0
  0
SPLINE
  5
20d
100
AcDbEntity
  8
ink_ext_XXXXXX
 62
7
100
AcDbSpline
 70
8
 71
3
 72
8
 73
4
 74
0
 40
0
 40
0
 40
0
 40
0
 40
1
 40
1
 40
1
 40
1
 10
70.269498
 20
22.615999
 30
0.0
 10
70.747998
 20
23.130099
 30
0.0
 10
71.353898
 20
23.669499
 30
0.0
 10
72.073398
 20
24.108599
 30
0.0
  0
LWPOLYLINE
  5
20e
100
AcDbEntity
  8
ink_ext_XXXXXX
 62
7
100
AcDbPolyline
 90
1
 70
1
 10
74.311298
 20
24.962099
 30
0.0
  0
SPLINE
  5
20f
100
AcDbEntity
  8
ink_ext_XXXXXX
 62
7
100
AcDbSpline
 70
8
 71
3
 72
8
 73
4
 74
0
 40
0
 40
0
 40
0
 40
0
 40
1
 40
1
 40
1
 40
1
 10
66.306598
 20
21.622299
 30
0.0
 10
66.561298
 20
22.892199
 30
0.0
 10
66.165198
 20
24.089799
 30
0.0
 10
65.096498
 20
25.103899
 30
0.0
  0
SPLINE
  5
210
100
AcDbEntity
  8
ink_ext_XXXXXX
 62
7
100
AcDbSpline
 70
8
 71
3
 72
8
 73
4
 74
0
 40
0
 40
0
 40
0
 40
0
 40
1
 40
1
 40
1
 40
1
 10
65.096498
 20
25.103899
 30
0.0
 10
64.489098
 20
24.808599
 30
0.0
 10
63.814098
 20
24.664499
 30
0.0
 10
63.393398
 20
24.717599
 30
0.0
  0
SPLINE
  5
211
100
AcDbEntity
  8
ink_ext_XXXXXX
 62
7
100
AcDbSpline
 70
8
 71
3
 72
8
 73
4
 74
0
 40
0
 40
0
 40
0
 40
0
 40
1
 40
1
 40
1
 40
1
 10
63.393398
 20
24.717599
 30
0.0
 10
62.444098
 20
24.833599
 30
0.0
 10
61.611298
 20
25.964799
 30
0.0
 10
61.611298
 20
25.964799
 30
0.0
  0
SPLINE
  5
212
100
AcDbEntity
  8
ink_ext_XXXXXX
 62
7
100
AcDbSpline
 70
8
 71
3
 72
8
 73
4
 74
0
 40
0
 40
0
 40
0
 40
0
 40
1
 40
1
 40
1
 40
1
 10
61.611298
 20
25.964799
 30
0.0
 10
61.485498
 20
26.230099
 30
0.0
 10
61.438698
 20
26.600399
 30
0.0
 10
61.451198
 20
27.008999
 30
0.0
  0
SPLINE
  5
213
100
AcDbEntity
  8
ink_ext_XXXXXX
 62
7
100
AcDbSpline
 70
8
 71
3
 72
8
 73
4
 74
0
 40
0
 40
0
 40
0
 40
0
 40
1
 40
1
 40
1
 40
1
 10
61.451198
 20
27.008999
 30
0.0
 10
59.019499
 20
27.463299
 30
0.0
 10
57.155899
 20
25.626599
 30
0.0
 10
56.796099
 20
24.833599
 30
0.0
  0
SPLINE
  5
214
100
AcDbEntity
  8
ink_ext_XXXXXX
 62
7
100
AcDbSpline
 70
8
 71
3
 72
8
 73
4
 74
0
 40
0
 40
0
 40
0
 40
0
 40
1
 40
1
 40
1
 40
1
 10
56.796099
 20
24.833599
 30
0.0
 10
56.476199
 20
24.134399
 30
0.0
 10
56.365999
 20
23.510199
 30
0.0
 10
56.330899
 20
23.103899
 30
0.0
  0
SPLINE
  5
215
100
AcDbEntity
  8
ink_ext_XXXXXX
 62
7
100
AcDbSpline
 70
8
 71
3
 72
8
 73
4
 74
0
 40
0
 40
0
 40
0
 40
0
 40
1
 40
1
 40
1
 40
1
 10
56.330899
 20
23.103899
 30
0.0
 10
56.987099
 20
23.212899
 30
0.0
 10
57.629699
 20
23.259799
 30
0.0
 10
58.221499
 20
23.247999
 30
0.0
  0
SPLINE
  5
216
100
AcDbEntity
  8
ink_ext_XXXXXX
 62
7
100
AcDbSpline
 70
8
 71
3
 72
8
 73
4
 74
0
 40
0
 40
0
 40
0
 40
0
 40
1
 40
1
 40
1
 40
1
 10
58.221499
 20
23.247999
 30
0.0
 10
60.788298
 20
23.198399
 30
0.0
 10
63.644898
 20
22.035499
 30
0.0
 10
65.517998
 20
20.196499
 30
0.0
  0
SPLINE
  5
217
100
AcDbEntity
  8
ink_ext_XXXXXX
 62
7
100
AcDbSpline
 70
8
 71
3
 72
8
 73
4
 74
0
 40
0
 40
0
 40
0
 40
0
 40
1
 40
1
 40
1
 40
1
 10
65.517998
 20
20.196499
 30
0.0
 10
65.855098
 20
20.456599
 30
0.0
 10
66.160898
 20
20.892999
 30
0.0
 10
66.306598
 20
21.622299
 30
0.0
  0
LWPOLYLINE
  5
218
100
AcDbEntity
  8
ink_ext_XXXXXX
 62
7
100
AcDbPolyline
 90
1
 70
1
 10
72.073398
 20
24.108599
 30
0.0
  0
SPLINE
  5
219
100
AcDbEntity
  8
ink_ext_XXXXXX
 62
7
100
AcDbSpline
 70
8
 71
3
 72
8
 73
4
 74
0
 40
0
 40
0
 40
0
 40
0
 40
1
 40
1
 40
1
 40
1
 10
65.046898
 20
14.937900
 30
0.0
 10
65.421498
 20
17.836300
 30
0.0
 10
61.624598
 20
20.662499
 30
0.0
 10
58.227299
 20
20.960499
 30
0.0
  0
SPLINE
  5
21a
100
AcDbEntity
  8
ink_ext_XXXXXX
 62
7
100
AcDbSpline
 70
8
 71
3
 72
8
 73
4
 74
0
 40
0
 40
0
 40
0
 40
0
 40
1
 40
1
 40
1
 40
1
 10
58.227299
 20
20.960499
 30
0.0
 10
55.987099
 20
21.160499
 30
0.0
 10
52.714099
 20
20.364099
 30
0.0
 10
51.884799
 20
18.109000
 30
0.0
  0
SPLINE
  5
21b
100
AcDbEntity
  8
ink_ext_XXXXXX
 62
7
100
AcDbSpline
 70
8
 71
3
 72
8
 73
4
 74
0
 40
0
 40
0
 40
0
 40
0
 40
1
 40
1
 40
1
 40
1
 10
51.884799
 20
18.109000
 30
0.0
 10
50.895699
 20
15.400000
 30
0.0
 10
53.787099
 20
11.566400
 30
0.0
 10
57.278499
 20
10.813700
 30
0.0
  0
SPLINE
  5
21c
100
AcDbEntity
  8
ink_ext_XXXXXX
 62
7
100
AcDbSpline
 70
8
 71
3
 72
8
 73
4
 74
0
 40
0
 40
0
 40
0
 40
0
 40
1
 40
1
 40
1
 40
1
 10
57.278499
 20
10.813700
 30
0.0
 10
60.620698
 20
10.093800
 30
0.0
 10
64.686698
 20
12.166400
 30
0.0
 10
65.046898
 20
14.937900
 30
0.0
  0
LWPOLYLINE
  5
21d
100
AcDbEntity
  8
ink_ext_XXXXXX
 62
7
100
AcDbPolyline
 90
1
 70
1
 10
66.306598
 20
21.622299
 30
0.0
  0
SPLINE
  5
21e
100
AcDbEntity
  8
ink_ext_XXXXXX
 62
7
100
AcDbSpline
 70
8
 71
3
 72
8
 73
4
 74
0
 40
0
 40
0
 40
0
 40
0
 40
1
 40
1
 40
1
 40
1
 10
60.129298
 20
16.203500
 30
0.0
 10
57.209399
 20
14.744900
 30
0.0
 10
54.583599
 20
15.887100
 30
0.0
 10
54.583599
 20
17.316400
 30
0.0
  0
SPLINE
  5
21f
100
AcDbEntity
  8
ink_ext_XXXXXX
 62
7
100
AcDbSpline
 70
8
 71
3
 72
8
 73
4
 74
0
 40
0
 40
0
 40
0
 40
0
 40
1
 40
1
 40
1
 40
1
 10
54.583599
 20
17.316400
 30
0.0
 10
54.583599
 20
18.425400
 30
0.0
 10
55.692599
 20
19.375000
 30
0.0
 10
57.910899
 20
19.218800
 30
0.0
  0
SPLINE
  5
220
100
AcDbEntity
  8
ink_ext_XXXXXX
 62
7
100
AcDbSpline
 70
8
 71
3
 72
8
 73
4
 74
0
 40
0
 40
0
 40
0
 40
0
 40
1
 40
1
 40
1
 40
1
 10
57.910899
 20
19.218800
 30
0.0
 10
60.129298
 20
19.058600
 30
0.0
 10
61.398798
 20
16.840200
 30
0.0
 10
60.129298
 20
16.203500
 30
0.0
  0
LWPOLYLINE
  5
221
100
AcDbEntity
  8
ink_ext_XXXXXX
 62
7
100
AcDbPolyline
 90
1
 70
1
 10
65.046898
 20
14.937900
 30
0.0
  0
SPLINE
  5
222
100
AcDbEntity
  8
ink_ext_XXXXXX
 62
7
100
AcDbSpline
 70
8
 71
3
 72
8
 73
4
 74
0
 40
0
 40
0
 40
0
 40
0
 40
1
 40
1
 40
1
 40
1
 10
62.169098
 20
9.055470
 30
0.0
 10
60.716798
 20
8.491800
 30
0.0
 10
59.122699
 20
8.265230
 30
0.0
 10
57.588699
 20
8.504300
 30
0.0
  0
SPLINE
  5
223
100
AcDbEntity
  8
ink_ext_XXXXXX
 62
7
100
AcDbSpline
 70
8
 71
3
 72
8
 73
4
 74
0
 40
0
 40
0
 40
0
 40
0
 40
1
 40
1
 40
1
 40
1
 10
57.588699
 20
8.504300
 30
0.0
 10
57.322999
 20
8.545700
 30
0.0
 10
57.061699
 20
8.601560
 30
0.0
 10
56.803499
 20
8.669140
 30
0.0
  0
SPLINE
  5
224
100
AcDbEntity
  8
ink_ext_XXXXXX
 62
7
100
AcDbSpline
 70
8
 71
3
 72
8
 73
4
 74
0
 40
0
 40
0
 40
0
 40
0
 40
1
 40
1
 40
1
 40
1
 10
56.803499
 20
8.669140
 30
0.0
 10
57.130499
 20
7.755860
 30
0.0
 10
57.201999
 20
6.790230
 30
0.0
 10
57.020699
 20
5.872660
 30
0.0
  0
SPLINE
  5
225
100
AcDbEntity
  8
ink_ext_XXXXXX
 62
7
100
AcDbSpline
 70
8
 71
3
 72
8
 73
4
 74
0
 40
0
 40
0
 40
0
 40
0
 40
1
 40
1
 40
1
 40
1
 10
57.020699
 20
5.872660
 30
0.0
 10
58.276599
 20
5.143360
 30
0.0
 10
60.321898
 20
5.123440
 30
0.0
 10
61.840998
 20
5.673830
 30
0.0
  0
SPLINE
  5
226
100
AcDbEntity
  8
ink_ext_XXXXXX
 62
7
100
AcDbSpline
 70
8
 71
3
 72
8
 73
4
 74
0
 40
0
 40
0
 40
0
 40
0
 40
1
 40
1
 40
1
 40
1
 10
61.840998
 20
5.673830
 30
0.0
 10
61.576598
 20
6.779300
 30
0.0
 10
61.684398
 20
7.966410
 30
0.0
 10
62.169098
 20
9.055470
 30
0.0
  0
LWPOLYLINE
  5
227
100
AcDbEntity
  8
ink_ext_XXXXXX
 62
7
100
AcDbPolyline
 90
1
 70
1
 10
60.129298
 20
16.203500
 30
0.0
  0
SPLINE
  5
228
100
AcDbEntity
  8
ink_ext_XXXXXX
 62
7
100
AcDbSpline
 70
8
 71
3
 72
8
 73
4
 74
0
 40
0
 40
0
 40
0
 40
0
 40
1
 40
1
 40
1
 40
1
 10
55.071899
 20
5.692970
 30
0.0
 10
55.548799
 20
6.936720
 30
0.0
 10
55.373399
 20
8.526560
 30
0.0
 10
54.356299
 20
9.750000
 30
0.0
  0
SPLINE
  5
229
100
AcDbEntity
  8
ink_ext_XXXXXX
 62
7
100
AcDbSpline
 70
8
 71
3
 72
8
 73
4
 74
0
 40
0
 40
0
 40
0
 40
0
 40
1
 40
1
 40
1
 40
1
 10
54.356299
 20
9.750000
 30
0.0
 10
52.654299
 20
10.832800
 30
0.0
 10
51.305899
 20
12.461300
 30
0.0
 10
50.571499
 20
14.209400
 30
0.0
  0
SPLINE
  5
22a
100
AcDbEntity
  8
ink_ext_XXXXXX
 62
7
100
AcDbSpline
 70
8
 71
3
 72
8
 73
4
 74
0
 40
0
 40
0
 40
0
 40
0
 40
1
 40
1
 40
1
 40
1
 10
50.571499
 20
14.209400
 30
0.0
 10
50.431599
 20
13.783600
 30
0.0
 10
50.235499
 20
13.407400
 30
0.0
 10
49.976599
 20
13.101200
 30
0.0
  0
SPLINE
  5
22b
100
AcDbEntity
  8
ink_ext_XXXXXX
 62
7
100
AcDbSpline
 70
8
 71
3
 72
8
 73
4
 74
0
 40
0
 40
0
 40
0
 40
0
 40
1
 40
1
 40
1
 40
1
 10
49.976599
 20
13.101200
 30
0.0
 10
49.058599
 20
12.016400
 30
0.0
 10
46.906999
 20
10.578100
 30
0.0
 10
44.612499
 20
9.785550
 30
0.0
  0
SPLINE
  5
22c
100
AcDbEntity
  8
ink_ext_XXXXXX
 62
7
100
AcDbSpline
 70
8
 71
3
 72
8
 73
4
 74
0
 40
0
 40
0
 40
0
 40
0
 40
1
 40
1
 40
1
 40
1
 10
44.612499
 20
9.785550
 30
0.0
 10
44.251999
 20
9.066410
 30
0.0
 10
44.236299
 20
8.224610
 30
0.0
 10
44.430499
 20
7.296480
 30
0.0
  0
SPLINE
  5
22d
100
AcDbEntity
  8
ink_ext_XXXXXX
 62
7
100
AcDbSpline
 70
8
 71
3
 72
8
 73
4
 74
0
 40
0
 40
0
 40
0
 40
0
 40
1
 40
1
 40
1
 40
1
 10
44.430499
 20
7.296480
 30
0.0
 10
44.787099
 20
5.572660
 30
0.0
 10
46.867199
 20
3.194140
 30
0.0
 10
49.183599
 20
2.779690
 30
0.0
  0
SPLINE
  5
22e
100
AcDbEntity
  8
ink_ext_XXXXXX
 62
7
100
AcDbSpline
 70
8
 71
3
 72
8
 73
4
 74
0
 40
0
 40
0
 40
0
 40
0
 40
1
 40
1
 40
1
 40
1
 10
49.183599
 20
2.779690
 30
0.0
 10
51.504299
 20
2.361330
 30
0.0
 10
54.475399
 20
4.147270
 30
0.0
 10
55.071899
 20
5.692970
 30
0.0
  0
LWPOLYLINE
  5
22f
100
AcDbEntity
  8
ink_ext_XXXXXX
 62
7
100
AcDbPolyline
 90
1
 70
1
 10
62.169098
 20
9.055470
 30
0.0
  0
SPLINE
  5
230
100
AcDbEntity
  8
ink_ext_XXXXXX
 62
7
100
AcDbSpline
 70
8
 71
3
 72
8
 73
4
 74
0
 40
0
 40
0
 40
0
 40
0
 40
1
 40
1
 40
1
 40
1
 10
50.408199
 20
9.089060
 30
0.0
 10
53.579299
 20
7.979690
 30
0.0
 10
50.091799
 20
3.699220
 30
0.0
 10
48.189799
 20
5.128520
 30
0.0
  0
SPLINE
  5
231
100
AcDbEntity
  8
ink_ext_XXXXXX
 62
7
100
AcDbSpline
 70
8
 71
3
 72
8
 73
4
 74
0
 40
0
 40
0
 40
0
 40
0
 40
1
 40
1
 40
1
 40
1
 10
48.189799
 20
5.128520
 30
0.0
 10
46.287499
 20
6.553910
 30
0.0
 10
48.265999
 20
9.838280
 30
0.0
 10
50.408199
 20
9.089060
 30
0.0
  0
LWPOLYLINE
  5
232
100
AcDbEntity
  8
ink_ext_XXXXXX
 62
7
100
AcDbPolyline
 90
1
 70
1
 10
55.071899
 20
5.692970
 30
0.0
  0
SPLINE
  5
233
100
AcDbEntity
  8
ink_ext_XXXXXX
 62
7
100
AcDbSpline
 70
8
 71
3
 72
8
 73
4
 74
0
 40
0
 40
0
 40
0
 40
0
 40
1
 40
1
 40
1
 40
1
 10
48.600799
 20
15.420300
 30
0.0
 10
49.378899
 20
17.755100
 30
0.0
 10
48.229699
 20
22.530899
 30
0.0
 10
44.480099
 20
22.868799
 30
0.0
  0
SPLINE
  5
234
100
AcDbEntity
  8
ink_ext_XXXXXX
 62
7
100
AcDbSpline
 70
8
 71
3
 72
8
 73
4
 74
0
 40
0
 40
0
 40
0
 40
0
 40
1
 40
1
 40
1
 40
1
 10
44.480099
 20
22.868799
 30
0.0
 10
40.992199
 20
23.189099
 30
0.0
 10
39.406599
 20
21.286699
 30
0.0
 10
38.453899
 20
19.064500
 30
0.0
  0
SPLINE
  5
235
100
AcDbEntity
  8
ink_ext_XXXXXX
 62
7
100
AcDbSpline
 70
8
 71
3
 72
8
 73
4
 74
0
 40
0
 40
0
 40
0
 40
0
 40
1
 40
1
 40
1
 40
1
 10
38.453899
 20
19.064500
 30
0.0
 10
37.504299
 20
16.846100
 30
0.0
 10
38.453899
 20
12.089100
 30
0.0
 10
40.992199
 20
11.772700
 30
0.0
  0
SPLINE
  5
236
100
AcDbEntity
  8
ink_ext_XXXXXX
 62
7
100
AcDbSpline
 70
8
 71
3
 72
8
 73
4
 74
0
 40
0
 40
0
 40
0
 40
0
 40
1
 40
1
 40
1
 40
1
 10
40.992199
 20
11.772700
 30
0.0
 10
43.527299
 20
11.456300
 30
0.0
 10
47.967999
 20
13.518000
 30
0.0
 10
48.600799
 20
15.420300
 30
0.0
  0
LWPOLYLINE
  5
237
100
AcDbEntity
  8
ink_ext_XXXXXX
 62
7
100
AcDbPolyline
 90
1
 70
1
 10
50.408199
 20
9.089060
 30
0.0
  0
SPLINE
  5
238
100
AcDbEntity
  8
ink_ext_XXXXXX
 62
7
100
AcDbSpline
 70
8
 71
3
 72
8
 73
4
 74
0
 40
0
 40
0
 40
0
 40
0
 40
1
 40
1
 40
1
 40
1
 10
44.319899
 20
19.857400
 30
0.0
 10
47.491399
 20
18.748000
 30
0.0
 10
44.003899
 20
14.467600
 30
0.0
 10
42.101599
 20
15.896900
 30
0.0
  0
SPLINE
  5
239
100
AcDbEntity
  8
ink_ext_XXXXXX
 62
7
100
AcDbSpline
 70
8
 71
3
 72
8
 73
4
 74
0
 40
0
 40
0
 40
0
 40
0
 40
1
 40
1
 40
1
 40
1
 10
42.101599
 20
15.896900
 30
0.0
 10
40.199199
 20
17.322700
 30
0.0
 10
42.178099
 20
20.606599
 30
0.0
 10
44.319899
 20
19.857400
 30
0.0
  0
LWPOLYLINE
  5
23a
100
AcDbEntity
  8
ink_ext_XXXXXX
 62
7
100
AcDbPolyline
 90
1
 70
1
 10
48.600799
 20
15.420300
 30
0.0
  0
SPLINE
  5
23b
100
AcDbEntity
  8
ink_ext_XXXXXX
 62
7
100
AcDbSpline
 70
8
 71
3
 72
8
 73
4
 74
0
 40
0
 40
0
 40
0
 40
0
 40
1
 40
1
 40
1
 40
1
 10
48.551199
 20
22.615199
 30
0.0
 10
49.326199
 20
21.781299
 30
0.0
 10
49.966799
 20
20.520699
 30
0.0
 10
50.371899
 20
19.163300
 30
0.0
  0
SPLINE
  5
23c
100
AcDbEntity
  8
ink_ext_XXXXXX
 62
7
100
AcDbSpline
 70
8
 71
3
 72
8
 73
4
 74
0
 40
0
 40
0
 40
0
 40
0
 40
1
 40
1
 40
1
 40
1
 10
50.371899
 20
19.163300
 30
0.0
 10
51.040999
 20
20.738699
 30
0.0
 10
52.457799
 20
21.814799
 30
0.0
 10
54.053499
 20
22.465599
 30
0.0
  0
SPLINE
  5
23d
100
AcDbEntity
  8
ink_ext_XXXXXX
 62
7
100
AcDbSpline
 70
8
 71
3
 72
8
 73
4
 74
0
 40
0
 40
0
 40
0
 40
0
 40
1
 40
1
 40
1
 40
1
 10
54.053499
 20
22.465599
 30
0.0
 10
53.792199
 20
23.393399
 30
0.0
 10
54.051599
 20
24.704299
 30
0.0
 10
54.798799
 20
25.899199
 30
0.0
  0
SPLINE
  5
23e
100
AcDbEntity
  8
ink_ext_XXXXXX
 62
7
100
AcDbSpline
 70
8
 71
3
 72
8
 73
4
 74
0
 40
0
 40
0
 40
0
 40
0
 40
1
 40
1
 40
1
 40
1
 10
54.798799
 20
25.899199
 30
0.0
 10
54.632399
 20
26.090199
 30
0.0
 10
54.435199
 20
26.269899
 30
0.0
 10
54.201999
 20
26.433999
 30
0.0
  0
SPLINE
  5
23f
100
AcDbEntity
  8
ink_ext_XXXXXX
 62
7
100
AcDbSpline
 70
8
 71
3
 72
8
 73
4
 74
0
 40
0
 40
0
 40
0
 40
0
 40
1
 40
1
 40
1
 40
1
 10
54.201999
 20
26.433999
 30
0.0
 10
53.861299
 20
26.126599
 30
0.0
 10
53.496899
 20
25.886299
 30
0.0
 10
53.147999
 20
25.786699
 30
0.0
  0
SPLINE
  5
240
100
AcDbEntity
  8
ink_ext_XXXXXX
 62
7
100
AcDbSpline
 70
8
 71
3
 72
8
 73
4
 74
0
 40
0
 40
0
 40
0
 40
0
 40
1
 40
1
 40
1
 40
1
 10
53.147999
 20
25.786699
 30
0.0
 10
52.038699
 20
25.470299
 30
0.0
 10
50.453099
 20
25.942999
 30
0.0
 10
50.453099
 20
26.735899
 30
0.0
  0
SPLINE
  5
241
100
AcDbEntity
  8
ink_ext_XXXXXX
 62
7
100
AcDbSpline
 70
8
 71
3
 72
8
 73
4
 74
0
 40
0
 40
0
 40
0
 40
0
 40
1
 40
1
 40
1
 40
1
 10
50.453099
 20
26.735899
 30
0.0
 10
50.453099
 20
26.735899
 30
0.0
 10
50.453099
 20
26.952299
 30
0.0
 10
50.464099
 20
27.272999
 30
0.0
  0
SPLINE
  5
242
100
AcDbEntity
  8
ink_ext_XXXXXX
 62
7
100
AcDbSpline
 70
8
 71
3
 72
8
 73
4
 74
0
 40
0
 40
0
 40
0
 40
0
 40
1
 40
1
 40
1
 40
1
 10
50.464099
 20
27.272999
 30
0.0
 10
48.491799
 20
26.995699
 30
0.0
 10
47.578099
 20
25.437099
 30
0.0
 10
47.031299
 20
23.926199
 30
0.0
  0
SPLINE
  5
243
100
AcDbEntity
  8
ink_ext_XXXXXX
 62
7
100
AcDbSpline
 70
8
 71
3
 72
8
 73
4
 74
0
 40
0
 40
0
 40
0
 40
0
 40
1
 40
1
 40
1
 40
1
 10
47.031299
 20
23.926199
 30
0.0
 10
47.627699
 20
23.524999
 30
0.0
 10
48.137099
 20
23.060499
 30
0.0
 10
48.551199
 20
22.615199
 30
0.0
  0
LWPOLYLINE
  5
244
100
AcDbEntity
  8
ink_ext_XXXXXX
 62
7
100
AcDbPolyline
 90
1
 70
1
 10
44.319899
 20
19.857400
 30
0.0
  0
SPLINE
  5
245
100
AcDbEntity
  8
ink_ext_XXXXXX
 62
7
100
AcDbSpline
 70
8
 71
3
 72
8
 73
4
 74
0
 40
0
 40
0
 40
0
 40
0
 40
1
 40
1
 40
1
 40
1
 10
44.510199
 20
24.959799
 30
0.0
 10
44.706599
 20
25.971499
 30
0.0
 10
45.240599
 20
26.806299
 30
0.0
 10
45.976999
 20
27.470699
 30
0.0
  0
SPLINE
  5
246
100
AcDbEntity
  8
ink_ext_XXXXXX
 62
7
100
AcDbSpline
 70
8
 71
3
 72
8
 73
4
 74
0
 40
0
 40
0
 40
0
 40
0
 40
1
 40
1
 40
1
 40
1
 10
45.976999
 20
27.470699
 30
0.0
 10
45.718799
 20
28.747699
 30
0.0
 10
44.842999
 20
30.235499
 30
0.0
 10
42.931999
 20
30.586299
 30
0.0
  0
SPLINE
  5
247
100
AcDbEntity
  8
ink_ext_XXXXXX
 62
7
100
AcDbSpline
 70
8
 71
3
 72
8
 73
4
 74
0
 40
0
 40
0
 40
0
 40
0
 40
1
 40
1
 40
1
 40
1
 10
42.931999
 20
30.586299
 30
0.0
 10
42.905499
 20
30.511299
 30
0.0
 10
42.876999
 20
30.443799
 30
0.0
 10
42.847699
 20
30.384799
 30
0.0
  0
SPLINE
  5
248
100
AcDbEntity
  8
ink_ext_XXXXXX
 62
7
100
AcDbSpline
 70
8
 71
3
 72
8
 73
4
 74
0
 40
0
 40
0
 40
0
 40
0
 40
1
 40
1
 40
1
 40
1
 10
42.847699
 20
30.384799
 30
0.0
 10
42.370699
 20
29.434799
 30
0.0
 10
40.783599
 20
29.590999
 30
0.0
 10
40.783599
 20
29.590999
 30
0.0
  0
SPLINE
  5
249
100
AcDbEntity
  8
ink_ext_XXXXXX
 62
7
100
AcDbSpline
 70
8
 71
3
 72
8
 73
4
 74
0
 40
0
 40
0
 40
0
 40
0
 40
1
 40
1
 40
1
 40
1
 10
40.783599
 20
29.590999
 30
0.0
 10
40.687899
 20
29.639799
 30
0.0
 10
40.489799
 20
29.964099
 30
0.0
 10
40.269899
 20
30.414799
 30
0.0
  0
LWPOLYLINE
  5
24a
100
AcDbEntity
  8
ink_ext_XXXXXX
 62
7
100
AcDbPolyline
 90
1
 70
1
 10
48.551199
 20
22.615199
 30
0.0
  0
SPLINE
  5
24b
100
AcDbEntity
  8
ink_ext_XXXXXX
 62
7
100
AcDbSpline
 70
8
 71
3
 72
8
 73
4
 74
0
 40
0
 40
0
 40
0
 40
0
 40
1
 40
1
 40
1
 40
1
 10
40.149599
 20
30.383599
 30
0.0
 10
36.662099
 20
29.430899
 30
0.0
 10
35.232799
 20
28.481599
 30
0.0
 10
35.549199
 20
25.626599
 30
0.0
  0
SPLINE
  5
24c
100
AcDbEntity
  8
ink_ext_XXXXXX
 62
7
100
AcDbSpline
 70
8
 71
3
 72
8
 73
4
 74
0
 40
0
 40
0
 40
0
 40
0
 40
1
 40
1
 40
1
 40
1
 10
35.549199
 20
25.626599
 30
0.0
 10
35.677699
 20
24.481599
 30
0.0
 10
36.009399
 20
23.439499
 30
0.0
 10
36.504299
 20
22.560499
 30
0.0
  0
SPLINE
  5
24d
100
AcDbEntity
  8
ink_ext_XXXXXX
 62
7
100
AcDbSpline
 70
8
 71
3
 72
8
 73
4
 74
0
 40
0
 40
0
 40
0
 40
0
 40
1
 40
1
 40
1
 40
1
 10
36.504299
 20
22.560499
 30
0.0
 10
36.835899
 20
22.317999
 30
0.0
 10
37.173399
 20
22.085199
 30
0.0
 10
37.510499
 20
21.865599
 30
0.0
  0
SPLINE
  5
24e
100
AcDbEntity
  8
ink_ext_XXXXXX
 62
7
100
AcDbSpline
 70
8
 71
3
 72
8
 73
4
 74
0
 40
0
 40
0
 40
0
 40
0
 40
1
 40
1
 40
1
 40
1
 10
37.510499
 20
21.865599
 30
0.0
 10
40.207399
 20
24.638699
 30
0.0
 10
42.583199
 20
25.276999
 30
0.0
 10
44.510199
 20
24.959799
 30
0.0
  0
LWPOLYLINE
  5
24f
100
AcDbEntity
  8
ink_ext_XXXXXX
 62
7
100
AcDbPolyline
 90
2
 70
0
 10
40.269899
 20
30.414799
 30
0.0
 10
40.149599
 20
30.383599
 30
0.0
  0
SPLINE
  5
250
100
AcDbEntity
  8
ink_ext_XXXXXX
 62
7
100
AcDbSpline
 70
8
 71
3
 72
8
 73
4
 74
0
 40
0
 40
0
 40
0
 40
0
 40
1
 40
1
 40
1
 40
1
 10
36.672299
 20
12.584000
 30
0.0
 10
35.783199
 20
14.287900
 30
0.0
 10
35.349199
 20
16.332400
 30
0.0
 10
35.479299
 20
18.029300
 30
0.0
  0
SPLINE
  5
251
100
AcDbEntity
  8
ink_ext_XXXXXX
 62
7
100
AcDbSpline
 70
8
 71
3
 72
8
 73
4
 74
0
 40
0
 40
0
 40
0
 40
0
 40
1
 40
1
 40
1
 40
1
 10
35.479299
 20
18.029300
 30
0.0
 10
34.582399
 20
18.941000
 30
0.0
 10
33.498799
 20
19.914800
 30
0.0
 10
32.242999
 20
21.106599
 30
0.0
  0
SPLINE
  5
252
100
AcDbEntity
  8
ink_ext_XXXXXX
 62
7
100
AcDbSpline
 70
8
 71
3
 72
8
 73
4
 74
0
 40
0
 40
0
 40
0
 40
0
 40
1
 40
1
 40
1
 40
1
 10
32.242999
 20
21.106599
 30
0.0
 10
30.724599
 20
19.858600
 30
0.0
 10
29.649199
 20
17.045300
 30
0.0
 10
30.279299
 20
14.905100
 30
0.0
  0
SPLINE
  5
253
100
AcDbEntity
  8
ink_ext_XXXXXX
 62
7
100
AcDbSpline
 70
8
 71
3
 72
8
 73
4
 74
0
 40
0
 40
0
 40
0
 40
0
 40
1
 40
1
 40
1
 40
1
 10
30.279299
 20
14.905100
 30
0.0
 10
30.932799
 20
12.699600
 30
0.0
 10
34.120699
 20
11.593800
 30
0.0
 10
36.672299
 20
12.584000
 30
0.0
  0
LWPOLYLINE
  5
254
100
AcDbEntity
  8
ink_ext_XXXXXX
 62
7
100
AcDbPolyline
 90
1
 70
1
 10
44.510199
 20
24.959799
 30
0.0
  0
SPLINE
  5
255
100
AcDbEntity
  8
ink_ext_XXXXXX
 62
7
100
AcDbSpline
 70
8
 71
3
 72
8
 73
4
 74
0
 40
0
 40
0
 40
0
 40
0
 40
1
 40
1
 40
1
 40
1
 10
37.964799
 20
10.732800
 30
0.0
 10
36.878099
 20
9.970700
 30
0.0
 10
35.718399
 20
9.690630
 30
0.0
 10
34.587499
 20
9.750780
 30
0.0
  0
SPLINE
  5
256
100
AcDbEntity
  8
ink_ext_XXXXXX
 62
7
100
AcDbSpline
 70
8
 71
3
 72
8
 73
4
 74
0
 40
0
 40
0
 40
0
 40
0
 40
1
 40
1
 40
1
 40
1
 10
34.587499
 20
9.750780
 30
0.0
 10
34.564799
 20
8.164450
 30
0.0
 10
35.333599
 20
6.707810
 30
0.0
 10
37.294899
 20
5.750780
 30
0.0
  0
SPLINE
  5
257
100
AcDbEntity
  8
ink_ext_XXXXXX
 62
7
100
AcDbSpline
 70
8
 71
3
 72
8
 73
4
 74
0
 40
0
 40
0
 40
0
 40
0
 40
1
 40
1
 40
1
 40
1
 10
37.294899
 20
5.750780
 30
0.0
 10
39.337899
 20
4.753910
 30
0.0
 10
41.674599
 20
5.469920
 30
0.0
 10
42.762499
 20
6.183980
 30
0.0
  0
SPLINE
  5
258
100
AcDbEntity
  8
ink_ext_XXXXXX
 62
7
100
AcDbSpline
 70
8
 71
3
 72
8
 73
4
 74
0
 40
0
 40
0
 40
0
 40
0
 40
1
 40
1
 40
1
 40
1
 10
42.762499
 20
6.183980
 30
0.0
 10
42.347999
 20
7.250390
 30
0.0
 10
42.193399
 20
8.339450
 30
0.0
 10
42.309799
 20
9.244530
 30
0.0
  0
SPLINE
  5
259
100
AcDbEntity
  8
ink_ext_XXXXXX
 62
7
100
AcDbSpline
 70
8
 71
3
 72
8
 73
4
 74
0
 40
0
 40
0
 40
0
 40
0
 40
1
 40
1
 40
1
 40
1
 10
42.309799
 20
9.244530
 30
0.0
 10
41.031299
 20
9.103130
 30
0.0
 10
39.822999
 20
9.273050
 30
0.0
 10
38.880499
 20
9.933590
 30
0.0
  0
SPLINE
  5
25a
100
AcDbEntity
  8
ink_ext_XXXXXX
 62
7
100
AcDbSpline
 70
8
 71
3
 72
8
 73
4
 74
0
 40
0
 40
0
 40
0
 40
0
 40
1
 40
1
 40
1
 40
1
 10
38.880499
 20
9.933590
 30
0.0
 10
38.554299
 20
10.161300
 30
0.0
 10
38.249199
 20
10.430900
 30
0.0
 10
37.964799
 20
10.732800
 30
0.0
  0
LWPOLYLINE
  5
25b
100
AcDbEntity
  8
ink_ext_XXXXXX
 62
7
100
AcDbPolyline
 90
1
 70
1
 10
36.672299
 20
12.584000
 30
0.0
  0
SPLINE
  5
25c
100
AcDbEntity
  8
ink_ext_XXXXXX
 62
7
100
AcDbSpline
 70
8
 71
3
 72
8
 73
4
 74
0
 40
0
 40
0
 40
0
 40
0
 40
1
 40
1
 40
1
 40
1
 10
93.618798
 20
93.196898
 30
0.0
 10
96.116798
 20
89.509798
 30
0.0
 10
99.089498
 20
84.517998
 30
0.0
 10
99.089498
 20
84.517998
 30
0.0
  0
SPLINE
  5
25d
100
AcDbEntity
  8
ink_ext_XXXXXX
 62
7
100
AcDbSpline
 70
8
 71
3
 72
8
 73
4
 74
0
 40
0
 40
0
 40
0
 40
0
 40
1
 40
1
 40
1
 40
1
 10
99.089498
 20
84.517998
 30
0.0
 10
99.089498
 20
86.776598
 30
0.0
 10
98.614498
 20
89.984798
 30
0.0
 10
98.255498
 20
90.343798
 30
0.0
  0
SPLINE
  5
25e
100
AcDbEntity
  8
ink_ext_XXXXXX
 62
7
100
AcDbSpline
 70
8
 71
3
 72
8
 73
4
 74
0
 40
0
 40
0
 40
0
 40
0
 40
1
 40
1
 40
1
 40
1
 10
98.255498
 20
90.343798
 30
0.0
 10
97.900398
 20
90.698798
 30
0.0
 10
94.688298
 20
92.246898
 30
0.0
 10
93.618798
 20
93.196898
 30
0.0
  0
LWPOLYLINE
  5
25f
100
AcDbEntity
  8
ink_ext_XXXXXX
 62
7
100
AcDbPolyline
 90
1
 70
1
 10
37.964799
 20
10.732800
 30
0.0
  0
SPLINE
  5
260
100
AcDbEntity
  8
ink_ext_XXXXXX
 62
7
100
AcDbSpline
 70
8
 71
3
 72
8
 73
4
 74
0
 40
0
 40
0
 40
0
 40
0
 40
1
 40
1
 40
1
 40
1
 10
100.754997
 20
83.089798
 30
0.0
 10
100.869997
 20
84.516798
 30
0.0
 10
100.156997
 20
88.203098
 30
0.0
 10
100.041997
 20
88.916798
 30
0.0
  0
SPLINE
  5
261
100
AcDbEntity
  8
ink_ext_XXXXXX
 62
7
100
AcDbSpline
 70
8
 71
3
 72
8
 73
4
 74
0
 40
0
 40
0
 40
0
 40
0
 40
1
 40
1
 40
1
 40
1
 10
100.041997
 20
88.916798
 30
0.0
 10
100.636997
 20
88.678898
 30
0.0
 10
102.776997
 20
87.727298
 30
0.0
 10
102.776997
 20
86.656998
 30
0.0
  0
SPLINE
  5
262
100
AcDbEntity
  8
ink_ext_XXXXXX
 62
7
100
AcDbSpline
 70
8
 71
3
 72
8
 73
4
 74
0
 40
0
 40
0
 40
0
 40
0
 40
1
 40
1
 40
1
 40
1
 10
102.776997
 20
86.656998
 30
0.0
 10
102.776997
 20
85.586698
 30
0.0
 10
102.300997
 20
81.900798
 30
0.0
 10
103.014997
 20
79.403098
 30
0.0
  0
SPLINE
  5
263
100
AcDbEntity
  8
ink_ext_XXXXXX
 62
7
100
AcDbSpline
 70
8
 71
3
 72
8
 73
4
 74
0
 40
0
 40
0
 40
0
 40
0
 40
1
 40
1
 40
1
 40
1
 10
103.014997
 20
79.403098
 30
0.0
 10
102.300997
 20
81.067998
 30
0.0
 10
100.754997
 20
83.089798
 30
0.0
 10
100.754997
 20
83.089798
 30
0.0
  0
LWPOLYLINE
  5
264
100
AcDbEntity
  8
ink_ext_XXXXXX
 62
7
100
AcDbPolyline
 90
1
 70
1
 10
93.618798
 20
93.196898
 30
0.0
  0
SPLINE
  5
265
100
AcDbEntity
  8
ink_ext_XXXXXX
 62
7
100
AcDbSpline
 70
8
 71
3
 72
8
 73
4
 74
0
 40
0
 40
0
 40
0
 40
0
 40
1
 40
1
 40
1
 40
1
 10
108.247997
 20
66.920698
 30
0.0
 10
107.414997
 20
71.319898
 30
0.0
 10
104.203997
 20
76.551998
 30
0.0
 10
103.966997
 20
77.384398
 30
0.0
  0
SPLINE
  5
266
100
AcDbEntity
  8
ink_ext_XXXXXX
 62
7
100
AcDbSpline
 70
8
 71
3
 72
8
 73
4
 74
0
 40
0
 40
0
 40
0
 40
0
 40
1
 40
1
 40
1
 40
1
 10
103.966997
 20
77.384398
 30
0.0
 10
103.607997
 20
79.881998
 30
0.0
 10
104.084997
 20
83.926198
 30
0.0
 10
104.084997
 20
85.946498
 30
0.0
  0
SPLINE
  5
267
100
AcDbEntity
  8
ink_ext_XXXXXX
 62
7
100
AcDbSpline
 70
8
 71
3
 72
8
 73
4
 74
0
 40
0
 40
0
 40
0
 40
0
 40
1
 40
1
 40
1
 40
1
 10
104.084997
 20
85.946498
 30
0.0
 10
105.871997
 20
85.232398
 30
0.0
 10
108.842997
 20
83.926198
 30
0.0
 10
109.790997
 20
80.833198
 30
0.0
  0
SPLINE
  5
268
100
AcDbEntity
  8
ink_ext_XXXXXX
 62
7
100
AcDbSpline
 70
8
 71
3
 72
8
 73
4
 74
0
 40
0
 40
0
 40
0
 40
0
 40
1
 40
1
 40
1
 40
1
 10
109.790997
 20
80.833198
 30
0.0
 10
110.622997
 20
77.384398
 30
0.0
 10
110.981997
 20
72.866798
 30
0.0
 10
108.247997
 20
66.920698
 30
0.0
  0
LWPOLYLINE
  5
269
100
AcDbEntity
  8
ink_ext_XXXXXX
 62
7
100
AcDbPolyline
 90
1
 70
1
 10
100.754997
 20
83.089798
 30
0.0
  0
SPLINE
  5
26a
100
AcDbEntity
  8
ink_ext_XXXXXX
 62
7
100
AcDbSpline
 70
8
 71
3
 72
8
 73
4
 74
0
 40
0
 40
0
 40
0
 40
0
 40
1
 40
1
 40
1
 40
1
 10
108.717997
 20
64.300798
 30
0.0
 10
109.072997
 20
62.875398
 30
0.0
 10
108.956997
 20
57.998399
 30
0.0
 10
108.717997
 20
56.928499
 30
0.0
  0
SPLINE
  5
26b
100
AcDbEntity
  8
ink_ext_XXXXXX
 62
7
100
AcDbSpline
 70
8
 71
3
 72
8
 73
4
 74
0
 40
0
 40
0
 40
0
 40
0
 40
1
 40
1
 40
1
 40
1
 10
108.717997
 20
56.928499
 30
0.0
 10
109.428997
 20
59.427299
 30
0.0
 10
115.969997
 20
64.062498
 30
0.0
 10
116.211997
 20
68.107798
 30
0.0
  0
SPLINE
  5
26c
100
AcDbEntity
  8
ink_ext_XXXXXX
 62
7
100
AcDbSpline
 70
8
 71
3
 72
8
 73
4
 74
0
 40
0
 40
0
 40
0
 40
0
 40
1
 40
1
 40
1
 40
1
 10
116.211997
 20
68.107798
 30
0.0
 10
115.613997
 20
71.910898
 30
0.0
 10
112.997997
 20
77.260498
 30
0.0
 10
111.333997
 20
79.283198
 30
0.0
  0
SPLINE
  5
26d
100
AcDbEntity
  8
ink_ext_XXXXXX
 62
7
100
AcDbSpline
 70
8
 71
3
 72
8
 73
4
 74
0
 40
0
 40
0
 40
0
 40
0
 40
1
 40
1
 40
1
 40
1
 10
111.333997
 20
79.283198
 30
0.0
 10
112.286997
 20
74.289098
 30
0.0
 10
111.095997
 20
68.701198
 30
0.0
 10
108.717997
 20
64.300798
 30
0.0
  0
LWPOLYLINE
  5
26e
100
AcDbEntity
  8
ink_ext_XXXXXX
 62
7
100
AcDbPolyline
 90
1
 70
1
 10
108.247997
 20
66.920698
 30
0.0
  0
SPLINE
  5
26f
100
AcDbEntity
  8
ink_ext_XXXXXX
 62
7
100
AcDbSpline
 70
8
 71
3
 72
8
 73
4
 74
0
 40
0
 40
0
 40
0
 40
0
 40
1
 40
1
 40
1
 40
1
 10
109.076997
 20
55.031999
 30
0.0
 10
109.912997
 20
57.410499
 30
0.0
 10
115.857997
 20
61.212898
 30
0.0
 10
116.569997
 20
64.426198
 30
0.0
  0
SPLINE
  5
270
100
AcDbEntity
  8
ink_ext_XXXXXX
 62
7
100
AcDbSpline
 70
8
 71
3
 72
8
 73
4
 74
0
 40
0
 40
0
 40
0
 40
0
 40
1
 40
1
 40
1
 40
1
 10
116.569997
 20
64.426198
 30
0.0
 10
117.047997
 20
60.858598
 30
0.0
 10
117.162997
 20
51.941799
 30
0.0
 10
117.404997
 20
49.798399
 30
0.0
  0
SPLINE
  5
271
100
AcDbEntity
  8
ink_ext_XXXXXX
 62
7
100
AcDbSpline
 70
8
 71
3
 72
8
 73
4
 74
0
 40
0
 40
0
 40
0
 40
0
 40
1
 40
1
 40
1
 40
1
 10
117.404997
 20
49.798399
 30
0.0
 10
117.639997
 20
47.658199
 30
0.0
 10
116.569997
 20
45.637899
 30
0.0
 10
114.429997
 20
45.045299
 30
0.0
  0
SPLINE
  5
272
100
AcDbEntity
  8
ink_ext_XXXXXX
 62
7
100
AcDbSpline
 70
8
 71
3
 72
8
 73
4
 74
0
 40
0
 40
0
 40
0
 40
0
 40
1
 40
1
 40
1
 40
1
 10
114.429997
 20
45.045299
 30
0.0
 10
112.290997
 20
44.448799
 30
0.0
 10
109.423997
 20
44.460199
 30
0.0
 10
108.010997
 20
42.901599
 30
0.0
  0
SPLINE
  5
273
100
AcDbEntity
  8
ink_ext_XXXXXX
 62
7
100
AcDbSpline
 70
8
 71
3
 72
8
 73
4
 74
0
 40
0
 40
0
 40
0
 40
0
 40
1
 40
1
 40
1
 40
1
 10
108.010997
 20
42.901599
 30
0.0
 10
106.821997
 20
41.596899
 30
0.0
 10
106.344997
 20
41.239499
 30
0.0
 10
105.986997
 20
41.358199
 30
0.0
  0
SPLINE
  5
274
100
AcDbEntity
  8
ink_ext_XXXXXX
 62
7
100
AcDbSpline
 70
8
 71
3
 72
8
 73
4
 74
0
 40
0
 40
0
 40
0
 40
0
 40
1
 40
1
 40
1
 40
1
 10
105.986997
 20
41.358199
 30
0.0
 10
107.294997
 20
43.498399
 30
0.0
 10
108.364997
 20
50.036699
 30
0.0
 10
109.076997
 20
55.031999
 30
0.0
  0
LWPOLYLINE
  5
275
100
AcDbEntity
  8
ink_ext_XXXXXX
 62
7
100
AcDbPolyline
 90
1
 70
1
 10
108.717997
 20
64.300798
 30
0.0
  0
SPLINE
  5
276
100
AcDbEntity
  8
ink_ext_XXXXXX
 62
7
100
AcDbSpline
 70
8
 71
3
 72
8
 73
4
 74
0
 40
0
 40
0
 40
0
 40
0
 40
1
 40
1
 40
1
 40
1
 10
104.797997
 20
38.267999
 30
0.0
 10
106.463997
 20
39.453499
 30
0.0
 10
106.821997
 20
40.049999
 30
0.0
 10
109.912997
 20
41.716399
 30
0.0
  0
SPLINE
  5
277
100
AcDbEntity
  8
ink_ext_XXXXXX
 62
7
100
AcDbSpline
 70
8
 71
3
 72
8
 73
4
 74
0
 40
0
 40
0
 40
0
 40
0
 40
1
 40
1
 40
1
 40
1
 10
109.912997
 20
41.716399
 30
0.0
 10
113.002997
 20
43.378899
 30
0.0
 10
116.569997
 20
42.070299
 30
0.0
 10
117.639997
 20
44.926199
 30
0.0
  0
SPLINE
  5
278
100
AcDbEntity
  8
ink_ext_XXXXXX
 62
7
100
AcDbSpline
 70
8
 71
3
 72
8
 73
4
 74
0
 40
0
 40
0
 40
0
 40
0
 40
1
 40
1
 40
1
 40
1
 10
117.639997
 20
44.926199
 30
0.0
 10
116.688997
 20
41.716399
 30
0.0
 10
112.524997
 20
36.124599
 30
0.0
 10
111.220997
 20
35.412499
 30
0.0
  0
SPLINE
  5
279
100
AcDbEntity
  8
ink_ext_XXXXXX
 62
7
100
AcDbSpline
 70
8
 71
3
 72
8
 73
4
 74
0
 40
0
 40
0
 40
0
 40
0
 40
1
 40
1
 40
1
 40
1
 10
111.220997
 20
35.412499
 30
0.0
 10
109.912997
 20
34.700799
 30
0.0
 10
106.940997
 20
35.531999
 30
0.0
 10
103.373997
 20
33.630899
 30
0.0
  0
SPLINE
  5
27a
100
AcDbEntity
  8
ink_ext_XXXXXX
 62
7
100
AcDbSpline
 70
8
 71
3
 72
8
 73
4
 74
0
 40
0
 40
0
 40
0
 40
0
 40
1
 40
1
 40
1
 40
1
 10
103.373997
 20
33.630899
 30
0.0
 10
99.806298
 20
31.725799
 30
0.0
 10
99.090598
 20
31.252299
 30
0.0
 10
98.378498
 20
31.252299
 30
0.0
  0
SPLINE
  5
27b
100
AcDbEntity
  8
ink_ext_XXXXXX
 62
7
100
AcDbSpline
 70
8
 71
3
 72
8
 73
4
 74
0
 40
0
 40
0
 40
0
 40
0
 40
1
 40
1
 40
1
 40
1
 10
98.378498
 20
31.252299
 30
0.0
 10
100.517997
 20
33.392199
 30
0.0
 10
102.419997
 20
35.054699
 30
0.0
 10
104.797997
 20
38.267999
 30
0.0
  0
LWPOLYLINE
  5
27c
100
AcDbEntity
  8
ink_ext_XXXXXX
 62
7
100
AcDbPolyline
 90
1
 70
1
 10
109.076997
 20
55.031999
 30
0.0
  0
SPLINE
  5
27d
100
AcDbEntity
  8
ink_ext_XXXXXX
 62
7
100
AcDbSpline
 70
8
 71
3
 72
8
 73
4
 74
0
 40
0
 40
0
 40
0
 40
0
 40
1
 40
1
 40
1
 40
1
 10
92.547298
 20
25.894899
 30
0.0
 10
94.806598
 20
27.203499
 30
0.0
 10
95.282398
 20
28.154699
 30
0.0
 10
96.830498
 20
28.869899
 30
0.0
  0
SPLINE
  5
27e
100
AcDbEntity
  8
ink_ext_XXXXXX
 62
7
100
AcDbSpline
 70
8
 71
3
 72
8
 73
4
 74
0
 40
0
 40
0
 40
0
 40
0
 40
1
 40
1
 40
1
 40
1
 10
96.830498
 20
28.869899
 30
0.0
 10
98.374998
 20
29.580899
 30
0.0
 10
101.820997
 20
31.840599
 30
0.0
 10
103.844997
 20
32.437899
 30
0.0
  0
SPLINE
  5
27f
100
AcDbEntity
  8
ink_ext_XXXXXX
 62
7
100
AcDbSpline
 70
8
 71
3
 72
8
 73
4
 74
0
 40
0
 40
0
 40
0
 40
0
 40
1
 40
1
 40
1
 40
1
 10
103.844997
 20
32.437899
 30
0.0
 10
105.868997
 20
33.031299
 30
0.0
 10
109.192997
 20
33.624599
 30
0.0
 10
110.383997
 20
33.982399
 30
0.0
  0
SPLINE
  5
280
100
AcDbEntity
  8
ink_ext_XXXXXX
 62
7
100
AcDbSpline
 70
8
 71
3
 72
8
 73
4
 74
0
 40
0
 40
0
 40
0
 40
0
 40
1
 40
1
 40
1
 40
1
 10
110.383997
 20
33.982399
 30
0.0
 10
108.603997
 20
31.487099
 30
0.0
 10
106.222997
 20
29.227299
 30
0.0
 10
102.653997
 20
27.918799
 30
0.0
  0
SPLINE
  5
281
100
AcDbEntity
  8
ink_ext_XXXXXX
 62
7
100
AcDbSpline
 70
8
 71
3
 72
8
 73
4
 74
0
 40
0
 40
0
 40
0
 40
0
 40
1
 40
1
 40
1
 40
1
 10
102.653997
 20
27.918799
 30
0.0
 10
99.086298
 20
26.610199
 30
0.0
 10
98.017198
 20
26.728099
 30
0.0
 10
96.233198
 20
26.610199
 30
0.0
  0
SPLINE
  5
282
100
AcDbEntity
  8
ink_ext_XXXXXX
 62
7
100
AcDbSpline
 70
8
 71
3
 72
8
 73
4
 74
0
 40
0
 40
0
 40
0
 40
0
 40
1
 40
1
 40
1
 40
1
 10
96.233198
 20
26.610199
 30
0.0
 10
94.449198
 20
26.492199
 30
0.0
 10
92.547298
 20
25.894899
 30
0.0
 10
92.547298
 20
25.894899
 30
0.0
  0
LWPOLYLINE
  5
283
100
AcDbEntity
  8
ink_ext_XXXXXX
 62
7
100
AcDbPolyline
 90
1
 70
1
 10
104.797997
 20
38.267999
 30
0.0
  0
SPLINE
  5
284
100
AcDbEntity
  8
ink_ext_XXXXXX
 62
7
100
AcDbSpline
 70
8
 71
3
 72
8
 73
4
 74
0
 40
0
 40
0
 40
0
 40
0
 40
1
 40
1
 40
1
 40
1
 10
86.726198
 20
25.543399
 30
0.0
 10
89.695298
 20
26.255099
 30
0.0
 10
93.142998
 20
28.872299
 30
0.0
 10
93.620698
 20
29.702699
 30
0.0
  0
SPLINE
  5
285
100
AcDbEntity
  8
ink_ext_XXXXXX
 62
7
100
AcDbSpline
 70
8
 71
3
 72
8
 73
4
 74
0
 40
0
 40
0
 40
0
 40
0
 40
1
 40
1
 40
1
 40
1
 10
93.620698
 20
29.702699
 30
0.0
 10
94.332398
 20
32.912899
 30
0.0
 10
94.573398
 20
36.719899
 30
0.0
 10
94.332398
 20
37.909799
 30
0.0
  0
SPLINE
  5
286
100
AcDbEntity
  8
ink_ext_XXXXXX
 62
7
100
AcDbSpline
 70
8
 71
3
 72
8
 73
4
 74
0
 40
0
 40
0
 40
0
 40
0
 40
1
 40
1
 40
1
 40
1
 10
94.332398
 20
37.909799
 30
0.0
 10
94.095698
 20
39.096099
 30
0.0
 10
92.431298
 20
40.048799
 30
0.0
 10
92.074998
 20
40.641799
 30
0.0
  0
SPLINE
  5
287
100
AcDbEntity
  8
ink_ext_XXXXXX
 62
7
100
AcDbSpline
 70
8
 71
3
 72
8
 73
4
 74
0
 40
0
 40
0
 40
0
 40
0
 40
1
 40
1
 40
1
 40
1
 10
92.074998
 20
40.641799
 30
0.0
 10
91.596898
 20
39.214499
 30
0.0
 10
89.695298
 20
38.146899
 30
0.0
 10
89.580498
 20
36.122999
 30
0.0
  0
SPLINE
  5
288
100
AcDbEntity
  8
ink_ext_XXXXXX
 62
7
100
AcDbSpline
 70
8
 71
3
 72
8
 73
4
 74
0
 40
0
 40
0
 40
0
 40
0
 40
1
 40
1
 40
1
 40
1
 10
89.580498
 20
36.122999
 30
0.0
 10
89.461698
 20
34.102699
 30
0.0
 10
89.461698
 20
34.102699
 30
0.0
 10
89.580498
 20
32.556999
 30
0.0
  0
SPLINE
  5
289
100
AcDbEntity
  8
ink_ext_XXXXXX
 62
7
100
AcDbSpline
 70
8
 71
3
 72
8
 73
4
 74
0
 40
0
 40
0
 40
0
 40
0
 40
1
 40
1
 40
1
 40
1
 10
89.580498
 20
32.556999
 30
0.0
 10
89.695298
 20
31.010899
 30
0.0
 10
89.461698
 20
27.326599
 30
0.0
 10
86.726198
 20
25.543399
 30
0.0
  0
LWPOLYLINE
  5
28a
100
AcDbEntity
  8
ink_ext_XXXXXX
 62
7
100
AcDbPolyline
 90
1
 70
1
 10
92.547298
 20
25.894899
 30
0.0
  0
SPLINE
  5
28b
100
AcDbEntity
  8
ink_ext_XXXXXX
 62
7
100
AcDbSpline
 70
8
 71
3
 72
8
 73
4
 74
0
 40
0
 40
0
 40
0
 40
0
 40
1
 40
1
 40
1
 40
1
 10
96.234398
 20
31.605099
 30
0.0
 10
96.234398
 20
34.697999
 30
0.0
 10
96.475398
 20
37.908199
 30
0.0
 10
95.165598
 20
39.334399
 30
0.0
  0
SPLINE
  5
28c
100
AcDbEntity
  8
ink_ext_XXXXXX
 62
7
100
AcDbSpline
 70
8
 71
3
 72
8
 73
4
 74
0
 40
0
 40
0
 40
0
 40
0
 40
1
 40
1
 40
1
 40
1
 10
95.165598
 20
39.334399
 30
0.0
 10
93.859798
 20
40.760499
 30
0.0
 10
93.144898
 20
42.306999
 30
0.0
 10
93.144898
 20
42.306999
 30
0.0
  0
SPLINE
  5
28d
100
AcDbEntity
  8
ink_ext_XXXXXX
 62
7
100
AcDbSpline
 70
8
 71
3
 72
8
 73
4
 74
0
 40
0
 40
0
 40
0
 40
0
 40
1
 40
1
 40
1
 40
1
 10
93.144898
 20
42.306999
 30
0.0
 10
94.687898
 20
44.802299
 30
0.0
 10
95.522998
 20
47.300799
 30
0.0
 10
95.760198
 20
49.084399
 30
0.0
  0
SPLINE
  5
28e
100
AcDbEntity
  8
ink_ext_XXXXXX
 62
7
100
AcDbSpline
 70
8
 71
3
 72
8
 73
4
 74
0
 40
0
 40
0
 40
0
 40
0
 40
1
 40
1
 40
1
 40
1
 10
95.760198
 20
49.084399
 30
0.0
 10
95.997298
 20
50.868399
 30
0.0
 10
95.876998
 20
52.768799
 30
0.0
 10
95.876998
 20
52.768799
 30
0.0
  0
SPLINE
  5
28f
100
AcDbEntity
  8
ink_ext_XXXXXX
 62
7
100
AcDbSpline
 70
8
 71
3
 72
8
 73
4
 74
0
 40
0
 40
0
 40
0
 40
0
 40
1
 40
1
 40
1
 40
1
 10
95.876998
 20
52.768799
 30
0.0
 10
98.021898
 20
51.937099
 30
0.0
 10
103.726997
 20
48.253099
 30
0.0
 10
103.248997
 20
41.592199
 30
0.0
  0
SPLINE
  5
290
100
AcDbEntity
  8
ink_ext_XXXXXX
 62
7
100
AcDbSpline
 70
8
 71
3
 72
8
 73
4
 74
0
 40
0
 40
0
 40
0
 40
0
 40
1
 40
1
 40
1
 40
1
 10
103.248997
 20
41.592199
 30
0.0
 10
102.416997
 20
38.976999
 30
0.0
 10
99.210898
 20
34.460899
 30
0.0
 10
96.234398
 20
31.605099
 30
0.0
  0
LWPOLYLINE
  5
291
100
AcDbEntity
  8
ink_ext_XXXXXX
 62
7
100
AcDbPolyline
 90
1
 70
1
 10
86.726198
 20
25.543399
 30
0.0
  0
SPLINE
  5
292
100
AcDbEntity
  8
ink_ext_XXXXXX
 62
7
100
AcDbSpline
 70
8
 71
3
 72
8
 73
4
 74
0
 40
0
 40
0
 40
0
 40
0
 40
1
 40
1
 40
1
 40
1
 10
104.678997
 20
45.875399
 30
0.0
 10
106.224997
 20
48.609799
 30
0.0
 10
107.056997
 20
55.504299
 30
0.0
 10
106.937997
 20
57.525399
 30
0.0
  0
SPLINE
  5
293
100
AcDbEntity
  8
ink_ext_XXXXXX
 62
7
100
AcDbSpline
 70
8
 71
3
 72
8
 73
4
 74
0
 40
0
 40
0
 40
0
 40
0
 40
1
 40
1
 40
1
 40
1
 10
106.937997
 20
57.525399
 30
0.0
 10
103.846997
 20
61.571098
 30
0.0
 10
99.444898
 20
66.564098
 30
0.0
 10
93.500798
 20
67.871498
 30
0.0
  0
SPLINE
  5
294
100
AcDbEntity
  8
ink_ext_XXXXXX
 62
7
100
AcDbSpline
 70
8
 71
3
 72
8
 73
4
 74
0
 40
0
 40
0
 40
0
 40
0
 40
1
 40
1
 40
1
 40
1
 10
93.500798
 20
67.871498
 30
0.0
 10
93.861298
 20
65.374998
 30
0.0
 10
94.808998
 20
63.354298
 30
0.0
 10
95.406998
 20
61.571098
 30
0.0
  0
SPLINE
  5
295
100
AcDbEntity
  8
ink_ext_XXXXXX
 62
7
100
AcDbSpline
 70
8
 71
3
 72
8
 73
4
 74
0
 40
0
 40
0
 40
0
 40
0
 40
1
 40
1
 40
1
 40
1
 10
95.406998
 20
61.571098
 30
0.0
 10
95.997298
 20
59.787899
 30
0.0
 10
95.640598
 20
54.553499
 30
0.0
 10
95.640598
 20
54.553499
 30
0.0
  0
SPLINE
  5
296
100
AcDbEntity
  8
ink_ext_XXXXXX
 62
7
100
AcDbSpline
 70
8
 71
3
 72
8
 73
4
 74
0
 40
0
 40
0
 40
0
 40
0
 40
1
 40
1
 40
1
 40
1
 10
95.640598
 20
54.553499
 30
0.0
 10
99.326198
 20
53.483599
 30
0.0
 10
102.895997
 20
50.035899
 30
0.0
 10
104.678997
 20
45.875399
 30
0.0
  0
LWPOLYLINE
  5
297
100
AcDbEntity
  8
ink_ext_XXXXXX
 62
7
100
AcDbPolyline
 90
1
 70
1
 10
96.234398
 20
31.605099
 30
0.0
  0
SPLINE
  5
298
100
AcDbEntity
  8
ink_ext_XXXXXX
 62
7
100
AcDbSpline
 70
8
 71
3
 72
8
 73
4
 74
0
 40
0
 40
0
 40
0
 40
0
 40
1
 40
1
 40
1
 40
1
 10
106.698997
 20
60.856598
 30
0.0
 10
105.034997
 20
63.113298
 30
0.0
 10
99.446498
 20
68.348798
 30
0.0
 10
93.383198
 20
68.940998
 30
0.0
  0
SPLINE
  5
299
100
AcDbEntity
  8
ink_ext_XXXXXX
 62
7
100
AcDbSpline
 70
8
 71
3
 72
8
 73
4
 74
0
 40
0
 40
0
 40
0
 40
0
 40
1
 40
1
 40
1
 40
1
 10
93.383198
 20
68.940998
 30
0.0
 10
92.908598
 20
70.369898
 30
0.0
 10
92.194098
 20
72.508598
 30
0.0
 10
90.530098
 20
74.172698
 30
0.0
  0
SPLINE
  5
29a
100
AcDbEntity
  8
ink_ext_XXXXXX
 62
7
100
AcDbSpline
 70
8
 71
3
 72
8
 73
4
 74
0
 40
0
 40
0
 40
0
 40
0
 40
1
 40
1
 40
1
 40
1
 10
90.530098
 20
74.172698
 30
0.0
 10
88.862098
 20
75.836298
 30
0.0
 10
89.458598
 20
76.432798
 30
0.0
 10
88.505098
 20
77.382798
 30
0.0
  0
SPLINE
  5
29b
100
AcDbEntity
  8
ink_ext_XXXXXX
 62
7
100
AcDbSpline
 70
8
 71
3
 72
8
 73
4
 74
0
 40
0
 40
0
 40
0
 40
0
 40
1
 40
1
 40
1
 40
1
 10
88.505098
 20
77.382798
 30
0.0
 10
87.559398
 20
78.336298
 30
0.0
 10
85.655898
 20
80.714498
 30
0.0
 10
85.655898
 20
82.496498
 30
0.0
  0
SPLINE
  5
29c
100
AcDbEntity
  8
ink_ext_XXXXXX
 62
7
100
AcDbSpline
 70
8
 71
3
 72
8
 73
4
 74
0
 40
0
 40
0
 40
0
 40
0
 40
1
 40
1
 40
1
 40
1
 10
85.655898
 20
82.496498
 30
0.0
 10
88.983998
 20
81.664498
 30
0.0
 10
101.467997
 20
76.311298
 30
0.0
 10
105.627997
 20
69.655498
 30
0.0
  0
SPLINE
  5
29d
100
AcDbEntity
  8
ink_ext_XXXXXX
 62
7
100
AcDbSpline
 70
8
 71
3
 72
8
 73
4
 74
0
 40
0
 40
0
 40
0
 40
0
 40
1
 40
1
 40
1
 40
1
 10
105.627997
 20
69.655498
 30
0.0
 10
106.698997
 20
66.919898
 30
0.0
 10
106.698997
 20
60.856598
 30
0.0
 10
106.698997
 20
60.856598
 30
0.0
  0
LWPOLYLINE
  5
29e
100
AcDbEntity
  8
ink_ext_XXXXXX
 62
7
100
AcDbPolyline
 90
1
 70
1
 10
104.678997
 20
45.875399
 30
0.0
  0
SPLINE
  5
29f
100
AcDbEntity
  8
ink_ext_XXXXXX
 62
7
100
AcDbSpline
 70
8
 71
3
 72
8
 73
4
 74
0
 40
0
 40
0
 40
0
 40
0
 40
1
 40
1
 40
1
 40
1
 10
103.488997
 20
74.766798
 30
0.0
 10
100.871997
 20
77.383598
 30
0.0
 10
93.976198
 20
82.494098
 30
0.0
 10
85.059798
 20
83.564098
 30
0.0
  0
SPLINE
  5
2a0
100
AcDbEntity
  8
ink_ext_XXXXXX
 62
7
100
AcDbSpline
 70
8
 71
3
 72
8
 73
4
 74
0
 40
0
 40
0
 40
0
 40
0
 40
1
 40
1
 40
1
 40
1
 10
85.059798
 20
83.564098
 30
0.0
 10
83.631998
 20
84.518398
 30
0.0
 10
84.109398
 20
85.230498
 30
0.0
 10
83.990198
 20
86.419098
 30
0.0
  0
SPLINE
  5
2a1
100
AcDbEntity
  8
ink_ext_XXXXXX
 62
7
100
AcDbSpline
 70
8
 71
3
 72
8
 73
4
 74
0
 40
0
 40
0
 40
0
 40
0
 40
1
 40
1
 40
1
 40
1
 10
83.990198
 20
86.419098
 30
0.0
 10
83.870698
 20
87.608598
 30
0.0
 10
83.512898
 20
91.056598
 30
0.0
 10
83.512898
 20
91.056598
 30
0.0
  0
SPLINE
  5
2a2
100
AcDbEntity
  8
ink_ext_XXXXXX
 62
7
100
AcDbSpline
 70
8
 71
3
 72
8
 73
4
 74
0
 40
0
 40
0
 40
0
 40
0
 40
1
 40
1
 40
1
 40
1
 10
83.512898
 20
91.056598
 30
0.0
 10
86.603098
 20
90.344498
 30
0.0
 10
91.005498
 20
88.558998
 30
0.0
 10
93.025798
 20
86.419098
 30
0.0
  0
SPLINE
  5
2a3
100
AcDbEntity
  8
ink_ext_XXXXXX
 62
7
100
AcDbSpline
 70
8
 71
3
 72
8
 73
4
 74
0
 40
0
 40
0
 40
0
 40
0
 40
1
 40
1
 40
1
 40
1
 10
93.025798
 20
86.419098
 30
0.0
 10
95.046098
 20
84.279698
 30
0.0
 10
97.066398
 20
83.564098
 30
0.0
 10
98.136298
 20
82.613698
 30
0.0
  0
SPLINE
  5
2a4
100
AcDbEntity
  8
ink_ext_XXXXXX
 62
7
100
AcDbSpline
 70
8
 71
3
 72
8
 73
4
 74
0
 40
0
 40
0
 40
0
 40
0
 40
1
 40
1
 40
1
 40
1
 10
98.136298
 20
82.613698
 30
0.0
 10
99.210198
 20
81.662898
 30
0.0
 10
102.892997
 20
76.667998
 30
0.0
 10
103.488997
 20
74.766798
 30
0.0
  0
LWPOLYLINE
  5
2a5
100
AcDbEntity
  8
ink_ext_XXXXXX
 62
7
100
AcDbPolyline
 90
1
 70
1
 10
106.698997
 20
60.856598
 30
0.0
  0
SPLINE
  5
2a6
100
AcDbEntity
  8
ink_ext_XXXXXX
 62
7
100
AcDbSpline
 70
8
 71
3
 72
8
 73
4
 74
0
 40
0
 40
0
 40
0
 40
0
 40
1
 40
1
 40
1
 40
1
 10
96.233598
 20
85.706998
 30
0.0
 10
95.165598
 20
86.537098
 30
0.0
 10
94.806998
 20
87.371098
 30
0.0
 10
93.026198
 20
88.914498
 30
0.0
  0
SPLINE
  5
2a7
100
AcDbEntity
  8
ink_ext_XXXXXX
 62
7
100
AcDbSpline
 70
8
 71
3
 72
8
 73
4
 74
0
 40
0
 40
0
 40
0
 40
0
 40
1
 40
1
 40
1
 40
1
 10
93.026198
 20
88.914498
 30
0.0
 10
91.240998
 20
90.461698
 30
0.0
 10
85.651998
 20
91.767598
 30
0.0
 10
84.346498
 20
92.484798
 30
0.0
  0
SPLINE
  5
2a8
100
AcDbEntity
  8
ink_ext_XXXXXX
 62
7
100
AcDbSpline
 70
8
 71
3
 72
8
 73
4
 74
0
 40
0
 40
0
 40
0
 40
0
 40
1
 40
1
 40
1
 40
1
 10
84.346498
 20
92.484798
 30
0.0
 10
85.176598
 20
94.028098
 30
0.0
 10
87.078498
 20
98.190598
 30
0.0
 10
88.267198
 20
99.616798
 30
0.0
  0
SPLINE
  5
2a9
100
AcDbEntity
  8
ink_ext_XXXXXX
 62
7
100
AcDbSpline
 70
8
 71
3
 72
8
 73
4
 74
0
 40
0
 40
0
 40
0
 40
0
 40
1
 40
1
 40
1
 40
1
 10
88.267198
 20
99.616798
 30
0.0
 10
88.863698
 20
97.477298
 30
0.0
 10
89.814498
 20
95.337498
 30
0.0
 10
91.361698
 20
92.839098
 30
0.0
  0
SPLINE
  5
2aa
100
AcDbEntity
  8
ink_ext_XXXXXX
 62
7
100
AcDbSpline
 70
8
 71
3
 72
8
 73
4
 74
0
 40
0
 40
0
 40
0
 40
0
 40
1
 40
1
 40
1
 40
1
 10
91.361698
 20
92.839098
 30
0.0
 10
92.905098
 20
90.340998
 30
0.0
 10
95.282398
 20
87.608998
 30
0.0
 10
96.233598
 20
85.706998
 30
0.0
  0
LWPOLYLINE
  5
2ab
100
AcDbEntity
  8
ink_ext_XXXXXX
 62
7
100
AcDbPolyline
 90
1
 70
1
 10
103.488997
 20
74.766798
 30
0.0
  0
SPLINE
  5
2ac
100
AcDbEntity
  8
ink_ext_XXXXXX
 62
7
100
AcDbSpline
 70
8
 71
3
 72
8
 73
4
 74
0
 40
0
 40
0
 40
0
 40
0
 40
1
 40
1
 40
1
 40
1
 10
90.174998
 20
104.969997
 30
0.0
 10
89.224198
 20
102.828997
 30
0.0
 10
86.961698
 20
98.669098
 30
0.0
 10
85.535898
 20
96.885898
 30
0.0
  0
SPLINE
  5
2ad
100
AcDbEntity
  8
ink_ext_XXXXXX
 62
7
100
AcDbSpline
 70
8
 71
3
 72
8
 73
4
 74
0
 40
0
 40
0
 40
0
 40
0
 40
1
 40
1
 40
1
 40
1
 10
85.535898
 20
96.885898
 30
0.0
 10
84.109798
 20
95.102698
 30
0.0
 10
83.277298
 20
94.980498
 30
0.0
 10
82.919498
 20
93.672698
 30
0.0
  0
SPLINE
  5
2ae
100
AcDbEntity
  8
ink_ext_XXXXXX
 62
7
100
AcDbSpline
 70
8
 71
3
 72
8
 73
4
 74
0
 40
0
 40
0
 40
0
 40
0
 40
1
 40
1
 40
1
 40
1
 10
82.919498
 20
93.672698
 30
0.0
 10
82.566398
 20
92.364498
 30
0.0
 10
81.733598
 20
87.847298
 30
0.0
 10
82.326598
 20
84.995298
 30
0.0
  0
SPLINE
  5
2af
100
AcDbEntity
  8
ink_ext_XXXXXX
 62
7
100
AcDbSpline
 70
8
 71
3
 72
8
 73
4
 74
0
 40
0
 40
0
 40
0
 40
0
 40
1
 40
1
 40
1
 40
1
 10
82.326598
 20
84.995298
 30
0.0
 10
82.919498
 20
82.139498
 30
0.0
 10
86.010898
 20
78.215198
 30
0.0
 10
88.509398
 20
74.888298
 30
0.0
  0
SPLINE
  5
2b0
100
AcDbEntity
  8
ink_ext_XXXXXX
 62
7
100
AcDbSpline
 70
8
 71
3
 72
8
 73
4
 74
0
 40
0
 40
0
 40
0
 40
0
 40
1
 40
1
 40
1
 40
1
 10
88.509398
 20
74.888298
 30
0.0
 10
91.007798
 20
71.557398
 30
0.0
 10
93.383998
 20
65.613698
 30
0.0
 10
94.099198
 20
59.666399
 30
0.0
  0
SPLINE
  5
2b1
100
AcDbEntity
  8
ink_ext_XXXXXX
 62
7
100
AcDbSpline
 70
8
 71
3
 72
8
 73
4
 74
0
 40
0
 40
0
 40
0
 40
0
 40
1
 40
1
 40
1
 40
1
 10
94.099198
 20
59.666399
 30
0.0
 10
94.810198
 20
53.723399
 30
0.0
 10
94.452298
 20
49.084399
 30
0.0
 10
92.672998
 20
44.806599
 30
0.0
  0
SPLINE
  5
2b2
100
AcDbEntity
  8
ink_ext_XXXXXX
 62
7
100
AcDbSpline
 70
8
 71
3
 72
8
 73
4
 74
0
 40
0
 40
0
 40
0
 40
0
 40
1
 40
1
 40
1
 40
1
 10
92.672998
 20
44.806599
 30
0.0
 10
90.885898
 20
40.524999
 30
0.0
 10
88.151998
 20
39.334799
 30
0.0
 10
87.916398
 20
37.076199
 30
0.0
  0
SPLINE
  5
2b3
100
AcDbEntity
  8
ink_ext_XXXXXX
 62
7
100
AcDbSpline
 70
8
 71
3
 72
8
 73
4
 74
0
 40
0
 40
0
 40
0
 40
0
 40
1
 40
1
 40
1
 40
1
 10
87.916398
 20
37.076199
 30
0.0
 10
87.676598
 20
34.817599
 30
0.0
 10
88.627298
 20
34.102299
 30
0.0
 10
88.509398
 20
32.676599
 30
0.0
  0
SPLINE
  5
2b4
100
AcDbEntity
  8
ink_ext_XXXXXX
 62
7
100
AcDbSpline
 70
8
 71
3
 72
8
 73
4
 74
0
 40
0
 40
0
 40
0
 40
0
 40
1
 40
1
 40
1
 40
1
 10
88.509398
 20
32.676599
 30
0.0
 10
88.391398
 20
31.250399
 30
0.0
 10
87.436698
 20
29.702699
 30
0.0
 10
87.436698
 20
29.702699
 30
0.0
  0
SPLINE
  5
2b5
100
AcDbEntity
  8
ink_ext_XXXXXX
 62
7
100
AcDbSpline
 70
8
 71
3
 72
8
 73
4
 74
0
 40
0
 40
0
 40
0
 40
0
 40
1
 40
1
 40
1
 40
1
 10
87.436698
 20
29.702699
 30
0.0
 10
86.843798
 20
32.794099
 30
0.0
 10
86.250798
 20
35.649999
 30
0.0
 10
86.128898
 20
39.216799
 30
0.0
  0
SPLINE
  5
2b6
100
AcDbEntity
  8
ink_ext_XXXXXX
 62
7
100
AcDbSpline
 70
8
 71
3
 72
8
 73
4
 74
0
 40
0
 40
0
 40
0
 40
0
 40
1
 40
1
 40
1
 40
1
 10
86.128898
 20
39.216799
 30
0.0
 10
86.010898
 20
42.783599
 30
0.0
 10
86.128898
 20
47.775799
 30
0.0
 10
88.749198
 20
51.822299
 30
0.0
  0
SPLINE
  5
2b7
100
AcDbEntity
  8
ink_ext_XXXXXX
 62
7
100
AcDbSpline
 70
8
 71
3
 72
8
 73
4
 74
0
 40
0
 40
0
 40
0
 40
0
 40
1
 40
1
 40
1
 40
1
 10
88.749198
 20
51.822299
 30
0.0
 10
91.360898
 20
55.864499
 30
0.0
 10
91.243398
 20
60.263698
 30
0.0
 10
90.767998
 20
64.065998
 30
0.0
  0
SPLINE
  5
2b8
100
AcDbEntity
  8
ink_ext_XXXXXX
 62
7
100
AcDbSpline
 70
8
 71
3
 72
8
 73
4
 74
0
 40
0
 40
0
 40
0
 40
0
 40
1
 40
1
 40
1
 40
1
 10
90.767998
 20
64.065998
 30
0.0
 10
90.292598
 20
67.872698
 30
0.0
 10
88.627298
 20
70.371098
 30
0.0
 10
86.368798
 20
73.105098
 30
0.0
  0
SPLINE
  5
2b9
100
AcDbEntity
  8
ink_ext_XXXXXX
 62
7
100
AcDbSpline
 70
8
 71
3
 72
8
 73
4
 74
0
 40
0
 40
0
 40
0
 40
0
 40
1
 40
1
 40
1
 40
1
 10
86.368798
 20
73.105098
 30
0.0
 10
84.109798
 20
75.839098
 30
0.0
 10
81.733598
 20
79.523398
 30
0.0
 10
81.376198
 20
82.854298
 30
0.0
  0
SPLINE
  5
2ba
100
AcDbEntity
  8
ink_ext_XXXXXX
 62
7
100
AcDbSpline
 70
8
 71
3
 72
8
 73
4
 74
0
 40
0
 40
0
 40
0
 40
0
 40
1
 40
1
 40
1
 40
1
 10
81.376198
 20
82.854298
 30
0.0
 10
81.018398
 20
86.181598
 30
0.0
 10
80.543398
 20
90.581298
 30
0.0
 10
81.493798
 20
93.197298
 30
0.0
  0
SPLINE
  5
2bb
100
AcDbEntity
  8
ink_ext_XXXXXX
 62
7
100
AcDbSpline
 70
8
 71
3
 72
8
 73
4
 74
0
 40
0
 40
0
 40
0
 40
0
 40
1
 40
1
 40
1
 40
1
 10
81.493798
 20
93.197298
 30
0.0
 10
82.444498
 20
95.813298
 30
0.0
 10
85.299998
 20
97.361298
 30
0.0
 10
86.368798
 20
99.380098
 30
0.0
  0
SPLINE
  5
2bc
100
AcDbEntity
  8
ink_ext_XXXXXX
 62
7
100
AcDbSpline
 70
8
 71
3
 72
8
 73
4
 74
0
 40
0
 40
0
 40
0
 40
0
 40
1
 40
1
 40
1
 40
1
 10
86.368798
 20
99.380098
 30
0.0
 10
87.436698
 20
101.402997
 30
0.0
 10
90.174998
 20
104.969997
 30
0.0
 10
90.174998
 20
104.969997
 30
0.0
  0
LWPOLYLINE
  5
2bd
100
AcDbEntity
  8
ink_ext_XXXXXX
 62
7
100
AcDbPolyline
 90
1
 70
1
 10
96.233598
 20
85.706998
 30
0.0
  0
SPLINE
  5
2be
100
AcDbEntity
  8
ink_ext_XXXXXX
 62
7
100
AcDbSpline
 70
8
 71
3
 72
8
 73
4
 74
0
 40
0
 40
0
 40
0
 40
0
 40
1
 40
1
 40
1
 40
1
 10
25.606999
 20
93.196898
 30
0.0
 10
23.109799
 20
89.509798
 30
0.0
 10
20.140999
 20
84.517998
 30
0.0
 10
20.140999
 20
84.517998
 30
0.0
  0
SPLINE
  5
2bf
100
AcDbEntity
  8
ink_ext_XXXXXX
 62
7
100
AcDbSpline
 70
8
 71
3
 72
8
 73
4
 74
0
 40
0
 40
0
 40
0
 40
0
 40
1
 40
1
 40
1
 40
1
 10
20.140999
 20
84.517998
 30
0.0
 10
20.140999
 20
86.776598
 30
0.0
 10
20.611699
 20
89.984798
 30
0.0
 10
20.970699
 20
90.343798
 30
0.0
  0
SPLINE
  5
2c0
100
AcDbEntity
  8
ink_ext_XXXXXX
 62
7
100
AcDbSpline
 70
8
 71
3
 72
8
 73
4
 74
0
 40
0
 40
0
 40
0
 40
0
 40
1
 40
1
 40
1
 40
1
 10
20.970699
 20
90.343798
 30
0.0
 10
21.330099
 20
90.698798
 30
0.0
 10
24.537899
 20
92.246898
 30
0.0
 10
25.606999
 20
93.196898
 30
0.0
  0
LWPOLYLINE
  5
2c1
100
AcDbEntity
  8
ink_ext_XXXXXX
 62
7
100
AcDbPolyline
 90
1
 70
1
 10
90.174998
 20
104.969997
 30
0.0
  0
SPLINE
  5
2c2
100
AcDbEntity
  8
ink_ext_XXXXXX
 62
7
100
AcDbSpline
 70
8
 71
3
 72
8
 73
4
 74
0
 40
0
 40
0
 40
0
 40
0
 40
1
 40
1
 40
1
 40
1
 10
18.473800
 20
83.089798
 30
0.0
 10
18.354700
 20
84.516798
 30
0.0
 10
19.068400
 20
88.203098
 30
0.0
 10
19.187100
 20
88.916798
 30
0.0
  0
SPLINE
  5
2c3
100
AcDbEntity
  8
ink_ext_XXXXXX
 62
7
100
AcDbSpline
 70
8
 71
3
 72
8
 73
4
 74
0
 40
0
 40
0
 40
0
 40
0
 40
1
 40
1
 40
1
 40
1
 10
19.187100
 20
88.916798
 30
0.0
 10
18.592600
 20
88.678898
 30
0.0
 10
16.452000
 20
87.727298
 30
0.0
 10
16.452000
 20
86.656998
 30
0.0
  0
SPLINE
  5
2c4
100
AcDbEntity
  8
ink_ext_XXXXXX
 62
7
100
AcDbSpline
 70
8
 71
3
 72
8
 73
4
 74
0
 40
0
 40
0
 40
0
 40
0
 40
1
 40
1
 40
1
 40
1
 10
16.452000
 20
86.656998
 30
0.0
 10
16.452000
 20
85.586698
 30
0.0
 10
16.927700
 20
81.900798
 30
0.0
 10
16.214500
 20
79.403098
 30
0.0
  0
SPLINE
  5
2c5
100
AcDbEntity
  8
ink_ext_XXXXXX
 62
7
100
AcDbSpline
 70
8
 71
3
 72
8
 73
4
 74
0
 40
0
 40
0
 40
0
 40
0
 40
1
 40
1
 40
1
 40
1
 10
16.214500
 20
79.403098
 30
0.0
 10
16.927700
 20
81.067998
 30
0.0
 10
18.473800
 20
83.089798
 30
0.0
 10
18.473800
 20
83.089798
 30
0.0
  0
LWPOLYLINE
  5
2c6
100
AcDbEntity
  8
ink_ext_XXXXXX
 62
7
100
AcDbPolyline
 90
1
 70
1
 10
25.606999
 20
93.196898
 30
0.0
  0
SPLINE
  5
2c7
100
AcDbEntity
  8
ink_ext_XXXXXX
 62
7
100
AcDbSpline
 70
8
 71
3
 72
8
 73
4
 74
0
 40
0
 40
0
 40
0
 40
0
 40
1
 40
1
 40
1
 40
1
 10
10.984000
 20
66.920698
 30
0.0
 10
11.816400
 20
71.319898
 30
0.0
 10
15.028100
 20
76.551998
 30
0.0
 10
15.264800
 20
77.384398
 30
0.0
  0
SPLINE
  5
2c8
100
AcDbEntity
  8
ink_ext_XXXXXX
 62
7
100
AcDbSpline
 70
8
 71
3
 72
8
 73
4
 74
0
 40
0
 40
0
 40
0
 40
0
 40
1
 40
1
 40
1
 40
1
 10
15.264800
 20
77.384398
 30
0.0
 10
15.619900
 20
79.881998
 30
0.0
 10
15.146500
 20
83.926198
 30
0.0
 10
15.146500
 20
85.946498
 30
0.0
  0
SPLINE
  5
2c9
100
AcDbEntity
  8
ink_ext_XXXXXX
 62
7
100
AcDbSpline
 70
8
 71
3
 72
8
 73
4
 74
0
 40
0
 40
0
 40
0
 40
0
 40
1
 40
1
 40
1
 40
1
 10
15.146500
 20
85.946498
 30
0.0
 10
13.362900
 20
85.232398
 30
0.0
 10
10.391800
 20
83.926198
 30
0.0
 10
9.437110
 20
80.833198
 30
0.0
  0
SPLINE
  5
2ca
100
AcDbEntity
  8
ink_ext_XXXXXX
 62
7
100
AcDbSpline
 70
8
 71
3
 72
8
 73
4
 74
0
 40
0
 40
0
 40
0
 40
0
 40
1
 40
1
 40
1
 40
1
 10
9.437110
 20
80.833198
 30
0.0
 10
8.604300
 20
77.384398
 30
0.0
 10
8.249610
 20
72.866798
 30
0.0
 10
10.984000
 20
66.920698
 30
0.0
  0
LWPOLYLINE
  5
2cb
100
AcDbEntity
  8
ink_ext_XXXXXX
 62
7
100
AcDbPolyline
 90
1
 70
1
 10
18.473800
 20
83.089798
 30
0.0
  0
SPLINE
  5
2cc
100
AcDbEntity
  8
ink_ext_XXXXXX
 62
7
100
AcDbSpline
 70
8
 71
3
 72
8
 73
4
 74
0
 40
0
 40
0
 40
0
 40
0
 40
1
 40
1
 40
1
 40
1
 10
10.505500
 20
64.300798
 30
0.0
 10
10.146500
 20
62.875398
 30
0.0
 10
10.267600
 20
57.998399
 30
0.0
 10
10.505500
 20
56.928499
 30
0.0
  0
SPLINE
  5
2cd
100
AcDbEntity
  8
ink_ext_XXXXXX
 62
7
100
AcDbSpline
 70
8
 71
3
 72
8
 73
4
 74
0
 40
0
 40
0
 40
0
 40
0
 40
1
 40
1
 40
1
 40
1
 10
10.505500
 20
56.928499
 30
0.0
 10
9.791020
 20
59.427299
 30
0.0
 10
3.250780
 20
64.062498
 30
0.0
 10
3.016410
 20
68.107798
 30
0.0
  0
SPLINE
  5
2ce
100
AcDbEntity
  8
ink_ext_XXXXXX
 62
7
100
AcDbSpline
 70
8
 71
3
 72
8
 73
4
 74
0
 40
0
 40
0
 40
0
 40
0
 40
1
 40
1
 40
1
 40
1
 10
3.016410
 20
68.107798
 30
0.0
 10
3.610160
 20
71.910898
 30
0.0
 10
6.226170
 20
77.260498
 30
0.0
 10
7.889450
 20
79.283198
 30
0.0
  0
SPLINE
  5
2cf
100
AcDbEntity
  8
ink_ext_XXXXXX
 62
7
100
AcDbSpline
 70
8
 71
3
 72
8
 73
4
 74
0
 40
0
 40
0
 40
0
 40
0
 40
1
 40
1
 40
1
 40
1
 10
7.889450
 20
79.283198
 30
0.0
 10
6.940630
 20
74.289098
 30
0.0
 10
8.127730
 20
68.701198
 30
0.0
 10
10.505500
 20
64.300798
 30
0.0
  0
LWPOLYLINE
  5
2d0
100
AcDbEntity
  8
ink_ext_XXXXXX
 62
7
100
AcDbPolyline
 90
1
 70
1
 10
10.984000
 20
66.920698
 30
0.0
  0
SPLINE
  5
2d1
100
AcDbEntity
  8
ink_ext_XXXXXX
 62
7
100
AcDbSpline
 70
8
 71
3
 72
8
 73
4
 74
0
 40
0
 40
0
 40
0
 40
0
 40
1
 40
1
 40
1
 40
1
 10
10.147700
 20
55.028499
 30
0.0
 10
9.319920
 20
57.408199
 30
0.0
 10
3.370700
 20
61.210198
 30
0.0
 10
2.661720
 20
64.421498
 30
0.0
  0
SPLINE
  5
2d2
100
AcDbEntity
  8
ink_ext_XXXXXX
 62
7
100
AcDbSpline
 70
8
 71
3
 72
8
 73
4
 74
0
 40
0
 40
0
 40
0
 40
0
 40
1
 40
1
 40
1
 40
1
 10
2.661720
 20
64.421498
 30
0.0
 10
2.184770
 20
60.855498
 30
0.0
 10
2.062500
 20
51.935899
 30
0.0
 10
1.826170
 20
49.796099
 30
0.0
  0
SPLINE
  5
2d3
100
AcDbEntity
  8
ink_ext_XXXXXX
 62
7
100
AcDbSpline
 70
8
 71
3
 72
8
 73
4
 74
0
 40
0
 40
0
 40
0
 40
0
 40
1
 40
1
 40
1
 40
1
 10
1.826170
 20
49.796099
 30
0.0
 10
1.589840
 20
47.656999
 30
0.0
 10
2.661720
 20
45.635499
 30
0.0
 10
4.796880
 20
45.040999
 30
0.0
  0
SPLINE
  5
2d4
100
AcDbEntity
  8
ink_ext_XXXXXX
 62
7
100
AcDbSpline
 70
8
 71
3
 72
8
 73
4
 74
0
 40
0
 40
0
 40
0
 40
0
 40
1
 40
1
 40
1
 40
1
 10
4.796880
 20
45.040999
 30
0.0
 10
6.940230
 20
44.445699
 30
0.0
 10
9.804300
 20
44.456999
 30
0.0
 10
11.219100
 20
42.901199
 30
0.0
  0
SPLINE
  5
2d5
100
AcDbEntity
  8
ink_ext_XXXXXX
 62
7
100
AcDbSpline
 70
8
 71
3
 72
8
 73
4
 74
0
 40
0
 40
0
 40
0
 40
0
 40
1
 40
1
 40
1
 40
1
 10
11.219100
 20
42.901199
 30
0.0
 10
12.409000
 20
41.593399
 30
0.0
 10
12.882000
 20
41.234799
 30
0.0
 10
13.244100
 20
41.353099
 30
0.0
  0
SPLINE
  5
2d6
100
AcDbEntity
  8
ink_ext_XXXXXX
 62
7
100
AcDbSpline
 70
8
 71
3
 72
8
 73
4
 74
0
 40
0
 40
0
 40
0
 40
0
 40
1
 40
1
 40
1
 40
1
 10
13.244100
 20
41.353099
 30
0.0
 10
11.932400
 20
43.496099
 30
0.0
 10
10.864500
 20
50.032799
 30
0.0
 10
10.147700
 20
55.028499
 30
0.0
  0
LWPOLYLINE
  5
2d7
100
AcDbEntity
  8
ink_ext_XXXXXX
 62
7
100
AcDbPolyline
 90
1
 70
1
 10
10.505500
 20
64.300798
 30
0.0
  0
SPLINE
  5
2d8
100
AcDbEntity
  8
ink_ext_XXXXXX
 62
7
100
AcDbSpline
 70
8
 71
3
 72
8
 73
4
 74
0
 40
0
 40
0
 40
0
 40
0
 40
1
 40
1
 40
1
 40
1
 10
14.429700
 20
38.263699
 30
0.0
 10
12.767200
 20
39.452699
 30
0.0
 10
12.412900
 20
40.047699
 30
0.0
 10
9.321090
 20
41.713699
 30
0.0
  0
SPLINE
  5
2d9
100
AcDbEntity
  8
ink_ext_XXXXXX
 62
7
100
AcDbSpline
 70
8
 71
3
 72
8
 73
4
 74
0
 40
0
 40
0
 40
0
 40
0
 40
1
 40
1
 40
1
 40
1
 10
9.321090
 20
41.713699
 30
0.0
 10
6.228910
 20
43.379299
 30
0.0
 10
2.660550
 20
42.071899
 30
0.0
 10
1.593360
 20
44.923799
 30
0.0
  0
SPLINE
  5
2da
100
AcDbEntity
  8
ink_ext_XXXXXX
 62
7
100
AcDbSpline
 70
8
 71
3
 72
8
 73
4
 74
0
 40
0
 40
0
 40
0
 40
0
 40
1
 40
1
 40
1
 40
1
 10
1.593360
 20
44.923799
 30
0.0
 10
2.542580
 20
41.713699
 30
0.0
 10
6.701950
 20
36.124599
 30
0.0
 10
8.013280
 20
35.411699
 30
0.0
  0
SPLINE
  5
2db
100
AcDbEntity
  8
ink_ext_XXXXXX
 62
7
100
AcDbSpline
 70
8
 71
3
 72
8
 73
4
 74
0
 40
0
 40
0
 40
0
 40
0
 40
1
 40
1
 40
1
 40
1
 10
8.013280
 20
35.411699
 30
0.0
 10
9.321090
 20
34.698799
 30
0.0
 10
12.291000
 20
35.530099
 30
0.0
 10
15.859000
 20
33.627699
 30
0.0
  0
SPLINE
  5
2dc
100
AcDbEntity
  8
ink_ext_XXXXXX
 62
7
100
AcDbSpline
 70
8
 71
3
 72
8
 73
4
 74
0
 40
0
 40
0
 40
0
 40
0
 40
1
 40
1
 40
1
 40
1
 10
15.859000
 20
33.627699
 30
0.0
 10
19.427700
 20
31.724999
 30
0.0
 10
20.140599
 20
31.248399
 30
0.0
 10
20.853499
 20
31.248399
 30
0.0
  0
SPLINE
  5
2dd
100
AcDbEntity
  8
ink_ext_XXXXXX
 62
7
100
AcDbSpline
 70
8
 71
3
 72
8
 73
4
 74
0
 40
0
 40
0
 40
0
 40
0
 40
1
 40
1
 40
1
 40
1
 10
20.853499
 20
31.248399
 30
0.0
 10
18.710900
 20
33.390999
 30
0.0
 10
16.808600
 20
35.053099
 30
0.0
 10
14.429700
 20
38.263699
 30
0.0
  0
LWPOLYLINE
  5
2de
100
AcDbEntity
  8
ink_ext_XXXXXX
 62
7
100
AcDbPolyline
 90
1
 70
1
 10
10.147700
 20
55.028499
 30
0.0
  0
SPLINE
  5
2df
100
AcDbEntity
  8
ink_ext_XXXXXX
 62
7
100
AcDbSpline
 70
8
 71
3
 72
8
 73
4
 74
0
 40
0
 40
0
 40
0
 40
0
 40
1
 40
1
 40
1
 40
1
 10
26.678499
 20
25.897299
 30
0.0
 10
24.419899
 20
27.206599
 30
0.0
 10
23.943399
 20
28.155899
 30
0.0
 10
22.397699
 20
28.872299
 30
0.0
  0
SPLINE
  5
2e0
100
AcDbEntity
  8
ink_ext_XXXXXX
 62
7
100
AcDbSpline
 70
8
 71
3
 72
8
 73
4
 74
0
 40
0
 40
0
 40
0
 40
0
 40
1
 40
1
 40
1
 40
1
 10
22.397699
 20
28.872299
 30
0.0
 10
20.851999
 20
29.585199
 30
0.0
 10
17.404700
 20
31.843799
 30
0.0
 10
15.382400
 20
32.436299
 30
0.0
  0
SPLINE
  5
2e1
100
AcDbEntity
  8
ink_ext_XXXXXX
 62
7
100
AcDbSpline
 70
8
 71
3
 72
8
 73
4
 74
0
 40
0
 40
0
 40
0
 40
0
 40
1
 40
1
 40
1
 40
1
 10
15.382400
 20
32.436299
 30
0.0
 10
13.360200
 20
33.032799
 30
0.0
 10
10.032400
 20
33.625799
 30
0.0
 10
8.842970
 20
33.982399
 30
0.0
  0
SPLINE
  5
2e2
100
AcDbEntity
  8
ink_ext_XXXXXX
 62
7
100
AcDbSpline
 70
8
 71
3
 72
8
 73
4
 74
0
 40
0
 40
0
 40
0
 40
0
 40
1
 40
1
 40
1
 40
1
 10
8.842970
 20
33.982399
 30
0.0
 10
10.625400
 20
31.487099
 30
0.0
 10
13.003900
 20
29.228499
 30
0.0
 10
16.571500
 20
27.919099
 30
0.0
  0
SPLINE
  5
2e3
100
AcDbEntity
  8
ink_ext_XXXXXX
 62
7
100
AcDbSpline
 70
8
 71
3
 72
8
 73
4
 74
0
 40
0
 40
0
 40
0
 40
0
 40
1
 40
1
 40
1
 40
1
 10
16.571500
 20
27.919099
 30
0.0
 10
20.139499
 20
26.609799
 30
0.0
 10
21.208599
 20
26.730099
 30
0.0
 10
22.990599
 20
26.609799
 30
0.0
  0
SPLINE
  5
2e4
100
AcDbEntity
  8
ink_ext_XXXXXX
 62
7
100
AcDbSpline
 70
8
 71
3
 72
8
 73
4
 74
0
 40
0
 40
0
 40
0
 40
0
 40
1
 40
1
 40
1
 40
1
 10
22.990599
 20
26.609799
 30
0.0
 10
24.776199
 20
26.493799
 30
0.0
 10
26.678499
 20
25.897299
 30
0.0
 10
26.678499
 20
25.897299
 30
0.0
  0
LWPOLYLINE
  5
2e5
100
AcDbEntity
  8
ink_ext_XXXXXX
 62
7
100
AcDbPolyline
 90
1
 70
1
 10
14.429700
 20
38.263699
 30
0.0
  0
SPLINE
  5
2e6
100
AcDbEntity
  8
ink_ext_XXXXXX
 62
7
100
AcDbSpline
 70
8
 71
3
 72
8
 73
4
 74
0
 40
0
 40
0
 40
0
 40
0
 40
1
 40
1
 40
1
 40
1
 10
32.505099
 20
25.543799
 30
0.0
 10
29.530499
 20
26.255099
 30
0.0
 10
26.082799
 20
28.873799
 30
0.0
 10
25.609799
 20
29.706599
 30
0.0
  0
SPLINE
  5
2e7
100
AcDbEntity
  8
ink_ext_XXXXXX
 62
7
100
AcDbSpline
 70
8
 71
3
 72
8
 73
4
 74
0
 40
0
 40
0
 40
0
 40
0
 40
1
 40
1
 40
1
 40
1
 10
25.609799
 20
29.706599
 30
0.0
 10
24.894499
 20
32.915599
 30
0.0
 10
24.659799
 20
36.719099
 30
0.0
 10
24.894499
 20
37.907399
 30
0.0
  0
SPLINE
  5
2e8
100
AcDbEntity
  8
ink_ext_XXXXXX
 62
7
100
AcDbSpline
 70
8
 71
3
 72
8
 73
4
 74
0
 40
0
 40
0
 40
0
 40
0
 40
1
 40
1
 40
1
 40
1
 10
24.894499
 20
37.907399
 30
0.0
 10
25.132799
 20
39.099599
 30
0.0
 10
26.801599
 20
40.049199
 30
0.0
 10
27.157399
 20
40.643799
 30
0.0
  0
SPLINE
  5
2e9
100
AcDbEntity
  8
ink_ext_XXXXXX
 62
7
100
AcDbSpline
 70
8
 71
3
 72
8
 73
4
 74
0
 40
0
 40
0
 40
0
 40
0
 40
1
 40
1
 40
1
 40
1
 10
27.157399
 20
40.643799
 30
0.0
 10
27.630499
 20
39.216799
 30
0.0
 10
29.530499
 20
38.145699
 30
0.0
 10
29.651599
 20
36.124999
 30
0.0
  0
SPLINE
  5
2ea
100
AcDbEntity
  8
ink_ext_XXXXXX
 62
7
100
AcDbSpline
 70
8
 71
3
 72
8
 73
4
 74
0
 40
0
 40
0
 40
0
 40
0
 40
1
 40
1
 40
1
 40
1
 10
29.651599
 20
36.124999
 30
0.0
 10
29.772299
 20
34.104299
 30
0.0
 10
29.772299
 20
34.104299
 30
0.0
 10
29.651599
 20
32.559799
 30
0.0
  0
SPLINE
  5
2eb
100
AcDbEntity
  8
ink_ext_XXXXXX
 62
7
100
AcDbSpline
 70
8
 71
3
 72
8
 73
4
 74
0
 40
0
 40
0
 40
0
 40
0
 40
1
 40
1
 40
1
 40
1
 10
29.651599
 20
32.559799
 30
0.0
 10
29.530499
 20
31.012099
 30
0.0
 10
29.772299
 20
27.326199
 30
0.0
 10
32.505099
 20
25.543799
 30
0.0
  0
LWPOLYLINE
  5
2ec
100
AcDbEntity
  8
ink_ext_XXXXXX
 62
7
100
AcDbPolyline
 90
1
 70
1
 10
26.678499
 20
25.897299
 30
0.0
  0
SPLINE
  5
2ed
100
AcDbEntity
  8
ink_ext_XXXXXX
 62
7
100
AcDbSpline
 70
8
 71
3
 72
8
 73
4
 74
0
 40
0
 40
0
 40
0
 40
0
 40
1
 40
1
 40
1
 40
1
 10
22.993799
 20
31.606999
 30
0.0
 10
22.993799
 20
34.697999
 30
0.0
 10
22.758199
 20
37.908999
 30
0.0
 10
24.064499
 20
39.334799
 30
0.0
  0
SPLINE
  5
2ee
100
AcDbEntity
  8
ink_ext_XXXXXX
 62
7
100
AcDbSpline
 70
8
 71
3
 72
8
 73
4
 74
0
 40
0
 40
0
 40
0
 40
0
 40
1
 40
1
 40
1
 40
1
 10
24.064499
 20
39.334799
 30
0.0
 10
25.370299
 20
40.764099
 30
0.0
 10
26.085199
 20
42.309799
 30
0.0
 10
26.085199
 20
42.309799
 30
0.0
  0
SPLINE
  5
2ef
100
AcDbEntity
  8
ink_ext_XXXXXX
 62
7
100
AcDbSpline
 70
8
 71
3
 72
8
 73
4
 74
0
 40
0
 40
0
 40
0
 40
0
 40
1
 40
1
 40
1
 40
1
 10
26.085199
 20
42.309799
 30
0.0
 10
24.539499
 20
44.805499
 30
0.0
 10
23.708999
 20
47.301599
 30
0.0
 10
23.469099
 20
49.086299
 30
0.0
  0
SPLINE
  5
2f0
100
AcDbEntity
  8
ink_ext_XXXXXX
 62
7
100
AcDbSpline
 70
8
 71
3
 72
8
 73
4
 74
0
 40
0
 40
0
 40
0
 40
0
 40
1
 40
1
 40
1
 40
1
 10
23.469099
 20
49.086299
 30
0.0
 10
23.233599
 20
50.871899
 30
0.0
 10
23.349199
 20
52.772699
 30
0.0
 10
23.349199
 20
52.772699
 30
0.0
  0
SPLINE
  5
2f1
100
AcDbEntity
  8
ink_ext_XXXXXX
 62
7
100
AcDbSpline
 70
8
 71
3
 72
8
 73
4
 74
0
 40
0
 40
0
 40
0
 40
0
 40
1
 40
1
 40
1
 40
1
 10
23.349199
 20
52.772699
 30
0.0
 10
21.208999
 20
51.941799
 30
0.0
 10
15.505900
 20
48.255899
 30
0.0
 10
15.977700
 20
41.594899
 30
0.0
  0
SPLINE
  5
2f2
100
AcDbEntity
  8
ink_ext_XXXXXX
 62
7
100
AcDbSpline
 70
8
 71
3
 72
8
 73
4
 74
0
 40
0
 40
0
 40
0
 40
0
 40
1
 40
1
 40
1
 40
1
 10
15.977700
 20
41.594899
 30
0.0
 10
16.808200
 20
38.979299
 30
0.0
 10
20.022699
 20
34.462099
 30
0.0
 10
22.993799
 20
31.606999
 30
0.0
  0
LWPOLYLINE
  5
2f3
100
AcDbEntity
  8
ink_ext_XXXXXX
 62
7
100
AcDbPolyline
 90
1
 70
1
 10
32.505099
 20
25.543799
 30
0.0
  0
SPLINE
  5
2f4
100
AcDbEntity
  8
ink_ext_XXXXXX
 62
7
100
AcDbSpline
 70
8
 71
3
 72
8
 73
4
 74
0
 40
0
 40
0
 40
0
 40
0
 40
1
 40
1
 40
1
 40
1
 10
14.551200
 20
45.875399
 30
0.0
 10
13.005900
 20
48.609799
 30
0.0
 10
12.169900
 20
55.504299
 30
0.0
 10
12.292600
 20
57.525399
 30
0.0
  0
SPLINE
  5
2f5
100
AcDbEntity
  8
ink_ext_XXXXXX
 62
7
100
AcDbSpline
 70
8
 71
3
 72
8
 73
4
 74
0
 40
0
 40
0
 40
0
 40
0
 40
1
 40
1
 40
1
 40
1
 10
12.292600
 20
57.525399
 30
0.0
 10
15.383200
 20
61.571098
 30
0.0
 10
19.785500
 20
66.564098
 30
0.0
 10
25.725799
 20
67.871498
 30
0.0
  0
SPLINE
  5
2f6
100
AcDbEntity
  8
ink_ext_XXXXXX
 62
7
100
AcDbSpline
 70
8
 71
3
 72
8
 73
4
 74
0
 40
0
 40
0
 40
0
 40
0
 40
1
 40
1
 40
1
 40
1
 10
25.725799
 20
67.871498
 30
0.0
 10
25.369099
 20
65.374998
 30
0.0
 10
24.421899
 20
63.354298
 30
0.0
 10
23.823399
 20
61.571098
 30
0.0
  0
SPLINE
  5
2f7
100
AcDbEntity
  8
ink_ext_XXXXXX
 62
7
100
AcDbSpline
 70
8
 71
3
 72
8
 73
4
 74
0
 40
0
 40
0
 40
0
 40
0
 40
1
 40
1
 40
1
 40
1
 10
23.823399
 20
61.571098
 30
0.0
 10
23.232799
 20
59.787899
 30
0.0
 10
23.589799
 20
54.553499
 30
0.0
 10
23.589799
 20
54.553499
 30
0.0
  0
SPLINE
  5
2f8
100
AcDbEntity
  8
ink_ext_XXXXXX
 62
7
100
AcDbSpline
 70
8
 71
3
 72
8
 73
4
 74
0
 40
0
 40
0
 40
0
 40
0
 40
1
 40
1
 40
1
 40
1
 10
23.589799
 20
54.553499
 30
0.0
 10
19.900800
 20
53.483599
 30
0.0
 10
16.334400
 20
50.035899
 30
0.0
 10
14.551200
 20
45.875399
 30
0.0
  0
LWPOLYLINE
  5
2f9
100
AcDbEntity
  8
ink_ext_XXXXXX
 62
7
100
AcDbPolyline
 90
1
 70
1
 10
22.993799
 20
31.606999
 30
0.0
  0
SPLINE
  5
2fa
100
AcDbEntity
  8
ink_ext_XXXXXX
 62
7
100
AcDbSpline
 70
8
 71
3
 72
8
 73
4
 74
0
 40
0
 40
0
 40
0
 40
0
 40
1
 40
1
 40
1
 40
1
 10
12.527300
 20
60.856598
 30
0.0
 10
14.195300
 20
63.113298
 30
0.0
 10
19.783600
 20
68.348798
 30
0.0
 10
25.846899
 20
68.940998
 30
0.0
  0
SPLINE
  5
2fb
100
AcDbEntity
  8
ink_ext_XXXXXX
 62
7
100
AcDbSpline
 70
8
 71
3
 72
8
 73
4
 74
0
 40
0
 40
0
 40
0
 40
0
 40
1
 40
1
 40
1
 40
1
 10
25.846899
 20
68.940998
 30
0.0
 10
26.321899
 20
70.369898
 30
0.0
 10
27.035899
 20
72.508598
 30
0.0
 10
28.699999
 20
74.172698
 30
0.0
  0
SPLINE
  5
2fc
100
AcDbEntity
  8
ink_ext_XXXXXX
 62
7
100
AcDbSpline
 70
8
 71
3
 72
8
 73
4
 74
0
 40
0
 40
0
 40
0
 40
0
 40
1
 40
1
 40
1
 40
1
 10
28.699999
 20
74.172698
 30
0.0
 10
30.364099
 20
75.836298
 30
0.0
 10
29.771099
 20
76.432798
 30
0.0
 10
30.721099
 20
77.382798
 30
0.0
  0
SPLINE
  5
2fd
100
AcDbEntity
  8
ink_ext_XXXXXX
 62
7
100
AcDbSpline
 70
8
 71
3
 72
8
 73
4
 74
0
 40
0
 40
0
 40
0
 40
0
 40
1
 40
1
 40
1
 40
1
 10
30.721099
 20
77.382798
 30
0.0
 10
31.670699
 20
78.336298
 30
0.0
 10
33.574199
 20
80.714498
 30
0.0
 10
33.574199
 20
82.496498
 30
0.0
  0
SPLINE
  5
2fe
100
AcDbEntity
  8
ink_ext_XXXXXX
 62
7
100
AcDbSpline
 70
8
 71
3
 72
8
 73
4
 74
0
 40
0
 40
0
 40
0
 40
0
 40
1
 40
1
 40
1
 40
1
 10
33.574199
 20
82.496498
 30
0.0
 10
30.246499
 20
81.664498
 30
0.0
 10
17.762500
 20
76.311298
 30
0.0
 10
13.602300
 20
69.655498
 30
0.0
  0
SPLINE
  5
2ff
100
AcDbEntity
  8
ink_ext_XXXXXX
 62
7
100
AcDbSpline
 70
8
 71
3
 72
8
 73
4
 74
0
 40
0
 40
0
 40
0
 40
0
 40
1
 40
1
 40
1
 40
1
 10
13.602300
 20
69.655498
 30
0.0
 10
12.527300
 20
66.919898
 30
0.0
 10
12.527300
 20
60.856598
 30
0.0
 10
12.527300
 20
60.856598
 30
0.0
  0
LWPOLYLINE
  5
300
100
AcDbEntity
  8
ink_ext_XXXXXX
 62
7
100
AcDbPolyline
 90
1
 70
1
 10
14.551200
 20
45.875399
 30
0.0
  0
SPLINE
  5
301
100
AcDbEntity
  8
ink_ext_XXXXXX
 62
7
100
AcDbSpline
 70
8
 71
3
 72
8
 73
4
 74
0
 40
0
 40
0
 40
0
 40
0
 40
1
 40
1
 40
1
 40
1
 10
15.737100
 20
74.766798
 30
0.0
 10
18.353900
 20
77.383598
 30
0.0
 10
25.253899
 20
82.494098
 30
0.0
 10
34.170299
 20
83.564098
 30
0.0
  0
SPLINE
  5
302
100
AcDbEntity
  8
ink_ext_XXXXXX
 62
7
100
AcDbSpline
 70
8
 71
3
 72
8
 73
4
 74
0
 40
0
 40
0
 40
0
 40
0
 40
1
 40
1
 40
1
 40
1
 10
34.170299
 20
83.564098
 30
0.0
 10
35.597999
 20
84.518398
 30
0.0
 10
35.120699
 20
85.230498
 30
0.0
 10
35.240199
 20
86.419098
 30
0.0
  0
SPLINE
  5
303
100
AcDbEntity
  8
ink_ext_XXXXXX
 62
7
100
AcDbSpline
 70
8
 71
3
 72
8
 73
4
 74
0
 40
0
 40
0
 40
0
 40
0
 40
1
 40
1
 40
1
 40
1
 10
35.240199
 20
86.419098
 30
0.0
 10
35.355499
 20
87.608598
 30
0.0
 10
35.717199
 20
91.056598
 30
0.0
 10
35.717199
 20
91.056598
 30
0.0
  0
SPLINE
  5
304
100
AcDbEntity
  8
ink_ext_XXXXXX
 62
7
100
AcDbSpline
 70
8
 71
3
 72
8
 73
4
 74
0
 40
0
 40
0
 40
0
 40
0
 40
1
 40
1
 40
1
 40
1
 10
35.717199
 20
91.056598
 30
0.0
 10
32.622999
 20
90.344498
 30
0.0
 10
28.224599
 20
88.558998
 30
0.0
 10
26.200399
 20
86.419098
 30
0.0
  0
SPLINE
  5
305
100
AcDbEntity
  8
ink_ext_XXXXXX
 62
7
100
AcDbSpline
 70
8
 71
3
 72
8
 73
4
 74
0
 40
0
 40
0
 40
0
 40
0
 40
1
 40
1
 40
1
 40
1
 10
26.200399
 20
86.419098
 30
0.0
 10
24.180099
 20
84.279698
 30
0.0
 10
22.159799
 20
83.564098
 30
0.0
 10
21.089799
 20
82.613698
 30
0.0
  0
SPLINE
  5
306
100
AcDbEntity
  8
ink_ext_XXXXXX
 62
7
100
AcDbSpline
 70
8
 71
3
 72
8
 73
4
 74
0
 40
0
 40
0
 40
0
 40
0
 40
1
 40
1
 40
1
 40
1
 10
21.089799
 20
82.613698
 30
0.0
 10
20.019899
 20
81.662898
 30
0.0
 10
16.333600
 20
76.667998
 30
0.0
 10
15.737100
 20
74.766798
 30
0.0
  0
LWPOLYLINE
  5
307
100
AcDbEntity
  8
ink_ext_XXXXXX
 62
7
100
AcDbPolyline
 90
1
 70
1
 10
12.527300
 20
60.856598
 30
0.0
  0
SPLINE
  5
308
100
AcDbEntity
  8
ink_ext_XXXXXX
 62
7
100
AcDbSpline
 70
8
 71
3
 72
8
 73
4
 74
0
 40
0
 40
0
 40
0
 40
0
 40
1
 40
1
 40
1
 40
1
 10
22.989099
 20
85.706998
 30
0.0
 10
24.061299
 20
86.537098
 30
0.0
 10
24.419899
 20
87.371098
 30
0.0
 10
26.200799
 20
88.914498
 30
0.0
  0
SPLINE
  5
309
100
AcDbEntity
  8
ink_ext_XXXXXX
 62
7
100
AcDbSpline
 70
8
 71
3
 72
8
 73
4
 74
0
 40
0
 40
0
 40
0
 40
0
 40
1
 40
1
 40
1
 40
1
 10
26.200799
 20
88.914498
 30
0.0
 10
27.981599
 20
90.461698
 30
0.0
 10
33.574599
 20
91.767598
 30
0.0
 10
34.884399
 20
92.484798
 30
0.0
  0
SPLINE
  5
30a
100
AcDbEntity
  8
ink_ext_XXXXXX
 62
7
100
AcDbSpline
 70
8
 71
3
 72
8
 73
4
 74
0
 40
0
 40
0
 40
0
 40
0
 40
1
 40
1
 40
1
 40
1
 10
34.884399
 20
92.484798
 30
0.0
 10
34.049999
 20
94.028098
 30
0.0
 10
32.147999
 20
98.190598
 30
0.0
 10
30.959399
 20
99.616798
 30
0.0
  0
SPLINE
  5
30b
100
AcDbEntity
  8
ink_ext_XXXXXX
 62
7
100
AcDbSpline
 70
8
 71
3
 72
8
 73
4
 74
0
 40
0
 40
0
 40
0
 40
0
 40
1
 40
1
 40
1
 40
1
 10
30.959399
 20
99.616798
 30
0.0
 10
30.363299
 20
97.477298
 30
0.0
 10
29.412099
 20
95.337498
 30
0.0
 10
27.868799
 20
92.839098
 30
0.0
  0
SPLINE
  5
30c
100
AcDbEntity
  8
ink_ext_XXXXXX
 62
7
100
AcDbSpline
 70
8
 71
3
 72
8
 73
4
 74
0
 40
0
 40
0
 40
0
 40
0
 40
1
 40
1
 40
1
 40
1
 10
27.868799
 20
92.839098
 30
0.0
 10
26.321499
 20
90.340998
 30
0.0
 10
23.944099
 20
87.608998
 30
0.0
 10
22.989099
 20
85.706998
 30
0.0
  0
LWPOLYLINE
  5
30d
100
AcDbEntity
  8
ink_ext_XXXXXX
 62
7
100
AcDbPolyline
 90
1
 70
1
 10
15.737100
 20
74.766798
 30
0.0
  0
SPLINE
  5
30e
100
AcDbEntity
  8
ink_ext_XXXXXX
 62
7
100
AcDbSpline
 70
8
 71
3
 72
8
 73
4
 74
0
 40
0
 40
0
 40
0
 40
0
 40
1
 40
1
 40
1
 40
1
 10
29.056999
 20
104.969997
 30
0.0
 10
30.007399
 20
102.828997
 30
0.0
 10
32.265999
 20
98.669098
 30
0.0
 10
33.696099
 20
96.885898
 30
0.0
  0
SPLINE
  5
30f
100
AcDbEntity
  8
ink_ext_XXXXXX
 62
7
100
AcDbSpline
 70
8
 71
3
 72
8
 73
4
 74
0
 40
0
 40
0
 40
0
 40
0
 40
1
 40
1
 40
1
 40
1
 10
33.696099
 20
96.885898
 30
0.0
 10
35.121899
 20
95.102698
 30
0.0
 10
35.954699
 20
94.980498
 30
0.0
 10
36.312099
 20
93.672698
 30
0.0
  0
SPLINE
  5
310
100
AcDbEntity
  8
ink_ext_XXXXXX
 62
7
100
AcDbSpline
 70
8
 71
3
 72
8
 73
4
 74
0
 40
0
 40
0
 40
0
 40
0
 40
1
 40
1
 40
1
 40
1
 10
36.312099
 20
93.672698
 30
0.0
 10
36.665599
 20
92.364498
 30
0.0
 10
37.498399
 20
87.847298
 30
0.0
 10
36.905099
 20
84.995298
 30
0.0
  0
SPLINE
  5
311
100
AcDbEntity
  8
ink_ext_XXXXXX
 62
7
100
AcDbSpline
 70
8
 71
3
 72
8
 73
4
 74
0
 40
0
 40
0
 40
0
 40
0
 40
1
 40
1
 40
1
 40
1
 10
36.905099
 20
84.995298
 30
0.0
 10
36.312099
 20
82.139498
 30
0.0
 10
33.220699
 20
78.215198
 30
0.0
 10
30.722699
 20
74.888298
 30
0.0
  0
SPLINE
  5
312
100
AcDbEntity
  8
ink_ext_XXXXXX
 62
7
100
AcDbSpline
 70
8
 71
3
 72
8
 73
4
 74
0
 40
0
 40
0
 40
0
 40
0
 40
1
 40
1
 40
1
 40
1
 10
30.722699
 20
74.888298
 30
0.0
 10
28.224199
 20
71.557398
 30
0.0
 10
25.847699
 20
65.613698
 30
0.0
 10
25.132799
 20
59.666399
 30
0.0
  0
SPLINE
  5
313
100
AcDbEntity
  8
ink_ext_XXXXXX
 62
7
100
AcDbSpline
 70
8
 71
3
 72
8
 73
4
 74
0
 40
0
 40
0
 40
0
 40
0
 40
1
 40
1
 40
1
 40
1
 10
25.132799
 20
59.666399
 30
0.0
 10
24.421899
 20
53.723399
 30
0.0
 10
24.779299
 20
49.084399
 30
0.0
 10
26.558599
 20
44.806599
 30
0.0
  0
SPLINE
  5
314
100
AcDbEntity
  8
ink_ext_XXXXXX
 62
7
100
AcDbSpline
 70
8
 71
3
 72
8
 73
4
 74
0
 40
0
 40
0
 40
0
 40
0
 40
1
 40
1
 40
1
 40
1
 10
26.558599
 20
44.806599
 30
0.0
 10
28.346099
 20
40.524999
 30
0.0
 10
31.075799
 20
39.334799
 30
0.0
 10
31.315599
 20
37.076199
 30
0.0
  0
SPLINE
  5
315
100
AcDbEntity
  8
ink_ext_XXXXXX
 62
7
100
AcDbSpline
 70
8
 71
3
 72
8
 73
4
 74
0
 40
0
 40
0
 40
0
 40
0
 40
1
 40
1
 40
1
 40
1
 10
31.315599
 20
37.076199
 30
0.0
 10
31.555099
 20
34.817599
 30
0.0
 10
30.604699
 20
34.102299
 30
0.0
 10
30.722699
 20
32.676599
 30
0.0
  0
SPLINE
  5
316
100
AcDbEntity
  8
ink_ext_XXXXXX
 62
7
100
AcDbSpline
 70
8
 71
3
 72
8
 73
4
 74
0
 40
0
 40
0
 40
0
 40
0
 40
1
 40
1
 40
1
 40
1
 10
30.722699
 20
32.676599
 30
0.0
 10
30.840199
 20
31.250399
 30
0.0
 10
31.794899
 20
29.702699
 30
0.0
 10
31.794899
 20
29.702699
 30
0.0
  0
SPLINE
  5
317
100
AcDbEntity
  8
ink_ext_XXXXXX
 62
7
100
AcDbSpline
 70
8
 71
3
 72
8
 73
4
 74
0
 40
0
 40
0
 40
0
 40
0
 40
1
 40
1
 40
1
 40
1
 10
31.794899
 20
29.702699
 30
0.0
 10
32.387899
 20
32.794099
 30
0.0
 10
32.981299
 20
35.649999
 30
0.0
 10
33.098799
 20
39.216799
 30
0.0
  0
SPLINE
  5
318
100
AcDbEntity
  8
ink_ext_XXXXXX
 62
7
100
AcDbSpline
 70
8
 71
3
 72
8
 73
4
 74
0
 40
0
 40
0
 40
0
 40
0
 40
1
 40
1
 40
1
 40
1
 10
33.098799
 20
39.216799
 30
0.0
 10
33.220699
 20
42.783599
 30
0.0
 10
33.098799
 20
47.775799
 30
0.0
 10
30.482799
 20
51.822299
 30
0.0
  0
SPLINE
  5
319
100
AcDbEntity
  8
ink_ext_XXXXXX
 62
7
100
AcDbSpline
 70
8
 71
3
 72
8
 73
4
 74
0
 40
0
 40
0
 40
0
 40
0
 40
1
 40
1
 40
1
 40
1
 10
30.482799
 20
51.822299
 30
0.0
 10
27.870699
 20
55.864499
 30
0.0
 10
27.984399
 20
60.263698
 30
0.0
 10
28.463699
 20
64.065998
 30
0.0
  0
SPLINE
  5
31a
100
AcDbEntity
  8
ink_ext_XXXXXX
 62
7
100
AcDbSpline
 70
8
 71
3
 72
8
 73
4
 74
0
 40
0
 40
0
 40
0
 40
0
 40
1
 40
1
 40
1
 40
1
 10
28.463699
 20
64.065998
 30
0.0
 10
28.939099
 20
67.872698
 30
0.0
 10
30.604699
 20
70.371098
 30
0.0
 10
32.863299
 20
73.105098
 30
0.0
  0
SPLINE
  5
31b
100
AcDbEntity
  8
ink_ext_XXXXXX
 62
7
100
AcDbSpline
 70
8
 71
3
 72
8
 73
4
 74
0
 40
0
 40
0
 40
0
 40
0
 40
1
 40
1
 40
1
 40
1
 10
32.863299
 20
73.105098
 30
0.0
 10
35.121899
 20
75.839098
 30
0.0
 10
37.498399
 20
79.523398
 30
0.0
 10
37.855899
 20
82.854298
 30
0.0
  0
SPLINE
  5
31c
100
AcDbEntity
  8
ink_ext_XXXXXX
 62
7
100
AcDbSpline
 70
8
 71
3
 72
8
 73
4
 74
0
 40
0
 40
0
 40
0
 40
0
 40
1
 40
1
 40
1
 40
1
 10
37.855899
 20
82.854298
 30
0.0
 10
38.213299
 20
86.181598
 30
0.0
 10
38.688699
 20
90.581298
 30
0.0
 10
37.737899
 20
93.197298
 30
0.0
  0
SPLINE
  5
31d
100
AcDbEntity
  8
ink_ext_XXXXXX
 62
7
100
AcDbSpline
 70
8
 71
3
 72
8
 73
4
 74
0
 40
0
 40
0
 40
0
 40
0
 40
1
 40
1
 40
1
 40
1
 10
37.737899
 20
93.197298
 30
0.0
 10
36.787499
 20
95.813298
 30
0.0
 10
33.931599
 20
97.361298
 30
0.0
 10
32.863299
 20
99.380098
 30
0.0
  0
SPLINE
  5
31e
100
AcDbEntity
  8
ink_ext_XXXXXX
 62
7
100
AcDbSpline
 70
8
 71
3
 72
8
 73
4
 74
0
 40
0
 40
0
 40
0
 40
0
 40
1
 40
1
 40
1
 40
1
 10
32.863299
 20
99.380098
 30
0.0
 10
31.794899
 20
101.402997
 30
0.0
 10
29.056999
 20
104.969997
 30
0.0
 10
29.056999
 20
104.969997
 30
0.0
  0
SPLINE
  5
31f
100
AcDbEntity
  8
ink_ext_XXXXXX
 62
1
100
AcDbSpline
 70
8
 71
3
 72
8
 73
4
 74
0
 40
0
 40
0
 40
0
 40
0
 40
1
 40
1
 40
1
 40
1
 10
72.897298
 20
10.312100
 30
0.0
 10
71.305498
 20
11.040200
 30
0.0
 10
69.899598
 20
12.005500
 30
0.0
 10
69.093798
 20
12.828500
 30
0.0
  0
SPLINE
  5
320
100
AcDbEntity
  8
ink_ext_XXXXXX
 62
1
100
AcDbSpline
 70
8
 71
3
 72
8
 73
4
 74
0
 40
0
 40
0
 40
0
 40
0
 40
1
 40
1
 40
1
 40
1
 10
69.093798
 20
12.828500
 30
0.0
 10
68.351598
 20
13.162100
 30
0.0
 10
67.544498
 20
13.158600
 30
0.0
 10
66.484398
 20
12.169900
 30
0.0
  0
SPLINE
  5
321
100
AcDbEntity
  8
ink_ext_XXXXXX
 62
1
100
AcDbSpline
 70
8
 71
3
 72
8
 73
4
 74
0
 40
0
 40
0
 40
0
 40
0
 40
1
 40
1
 40
1
 40
1
 10
66.484398
 20
12.169900
 30
0.0
 10
66.303098
 20
12.000800
 30
0.0
 10
66.128098
 20
11.844100
 30
0.0
 10
65.960498
 20
11.700000
 30
0.0
  0
SPLINE
  5
322
100
AcDbEntity
  8
ink_ext_XXXXXX
 62
1
100
AcDbSpline
 70
8
 71
3
 72
8
 73
4
 74
0
 40
0
 40
0
 40
0
 40
0
 40
1
 40
1
 40
1
 40
1
 10
65.960498
 20
11.700000
 30
0.0
 10
65.519098
 20
11.182000
 30
0.0
 10
65.003498
 20
10.708200
 30
0.0
 10
64.433198
 20
10.291400
 30
0.0
  0
SPLINE
  5
323
100
AcDbEntity
  8
ink_ext_XXXXXX
 62
1
100
AcDbSpline
 70
8
 71
3
 72
8
 73
4
 74
0
 40
0
 40
0
 40
0
 40
0
 40
1
 40
1
 40
1
 40
1
 10
64.433198
 20
10.291400
 30
0.0
 10
63.955098
 20
8.498050
 30
0.0
 10
63.631298
 20
6.219920
 30
0.0
 10
64.702698
 20
4.860160
 30
0.0
  0
SPLINE
  5
324
100
AcDbEntity
  8
ink_ext_XXXXXX
 62
1
100
AcDbSpline
 70
8
 71
3
 72
8
 73
4
 74
0
 40
0
 40
0
 40
0
 40
0
 40
1
 40
1
 40
1
 40
1
 10
64.702698
 20
4.860160
 30
0.0
 10
65.253098
 20
4.157810
 30
0.0
 10
66.332398
 20
3.730080
 30
0.0
 10
67.521898
 20
3.577730
 30
0.0
  0
SPLINE
  5
325
100
AcDbEntity
  8
ink_ext_XXXXXX
 62
1
100
AcDbSpline
 70
8
 71
3
 72
8
 73
4
 74
0
 40
0
 40
0
 40
0
 40
0
 40
1
 40
1
 40
1
 40
1
 10
67.521898
 20
3.577730
 30
0.0
 10
67.538298
 20
4.478520
 30
0.0
 10
68.276998
 20
5.425780
 30
0.0
 10
69.161298
 20
5.572660
 30
0.0
  0
SPLINE
  5
326
100
AcDbEntity
  8
ink_ext_XXXXXX
 62
1
100
AcDbSpline
 70
8
 71
3
 72
8
 73
4
 74
0
 40
0
 40
0
 40
0
 40
0
 40
1
 40
1
 40
1
 40
1
 10
69.161298
 20
5.572660
 30
0.0
 10
69.984398
 20
5.709770
 30
0.0
 10
71.794098
 20
5.775780
 30
0.0
 10
72.801598
 20
5.366410
 30
0.0
  0
SPLINE
  5
327
100
AcDbEntity
  8
ink_ext_XXXXXX
 62
1
100
AcDbSpline
 70
8
 71
3
 72
8
 73
4
 74
0
 40
0
 40
0
 40
0
 40
0
 40
1
 40
1
 40
1
 40
1
 10
72.801598
 20
5.366410
 30
0.0
 10
73.892998
 20
6.680860
 30
0.0
 10
74.397298
 20
8.201950
 30
0.0
 10
74.154698
 20
8.783980
 30
0.0
  0
SPLINE
  5
328
100
AcDbEntity
  8
ink_ext_XXXXXX
 62
1
100
AcDbSpline
 70
8
 71
3
 72
8
 73
4
 74
0
 40
0
 40
0
 40
0
 40
0
 40
1
 40
1
 40
1
 40
1
 10
74.154698
 20
8.783980
 30
0.0
 10
73.995298
 20
9.165230
 30
0.0
 10
73.479298
 20
9.750390
 30
0.0
 10
72.897298
 20
10.312100
 30
0.0
  0
LWPOLYLINE
  5
329
100
AcDbEntity
  8
ink_ext_XXXXXX
 62
7
100
AcDbPolyline
 90
1
 70
1
 10
22.989099
 20
85.706998
 30
0.0
  0
SPLINE
  5
32a
100
AcDbEntity
  8
ink_ext_XXXXXX
 62
1
100
AcDbSpline
 70
8
 71
3
 72
8
 73
4
 74
0
 40
0
 40
0
 40
0
 40
0
 40
1
 40
1
 40
1
 40
1
 10
79.941398
 20
9.933200
 30
0.0
 10
78.998798
 20
9.273440
 30
0.0
 10
77.790598
 20
9.103910
 30
0.0
 10
76.512498
 20
9.244920
 30
0.0
  0
SPLINE
  5
32b
100
AcDbEntity
  8
ink_ext_XXXXXX
 62
1
100
AcDbSpline
 70
8
 71
3
 72
8
 73
4
 74
0
 40
0
 40
0
 40
0
 40
0
 40
1
 40
1
 40
1
 40
1
 10
76.512498
 20
9.244920
 30
0.0
 10
76.598398
 20
8.575000
 30
0.0
 10
76.536298
 20
7.804300
 30
0.0
 10
76.330098
 20
7.016410
 30
0.0
  0
SPLINE
  5
32c
100
AcDbEntity
  8
ink_ext_XXXXXX
 62
1
100
AcDbSpline
 70
8
 71
3
 72
8
 73
4
 74
0
 40
0
 40
0
 40
0
 40
0
 40
1
 40
1
 40
1
 40
1
 10
76.330098
 20
7.016410
 30
0.0
 10
76.915198
 20
6.028130
 30
0.0
 10
78.105898
 20
5.402730
 30
0.0
 10
79.637498
 20
5.475780
 30
0.0
  0
SPLINE
  5
32d
100
AcDbEntity
  8
ink_ext_XXXXXX
 62
1
100
AcDbSpline
 70
8
 71
3
 72
8
 73
4
 74
0
 40
0
 40
0
 40
0
 40
0
 40
1
 40
1
 40
1
 40
1
 10
79.637498
 20
5.475780
 30
0.0
 10
79.694098
 20
6.086720
 30
0.0
 10
79.810498
 20
6.600390
 30
0.0
 10
79.981998
 20
6.821480
 30
0.0
  0
SPLINE
  5
32e
100
AcDbEntity
  8
ink_ext_XXXXXX
 62
1
100
AcDbSpline
 70
8
 71
3
 72
8
 73
4
 74
0
 40
0
 40
0
 40
0
 40
0
 40
1
 40
1
 40
1
 40
1
 10
79.981998
 20
6.821480
 30
0.0
 10
80.575798
 20
7.594140
 30
0.0
 10
81.825398
 20
7.058590
 30
0.0
 10
82.240998
 20
6.941800
 30
0.0
  0
SPLINE
  5
32f
100
AcDbEntity
  8
ink_ext_XXXXXX
 62
1
100
AcDbSpline
 70
8
 71
3
 72
8
 73
4
 74
0
 40
0
 40
0
 40
0
 40
0
 40
1
 40
1
 40
1
 40
1
 10
82.240998
 20
6.941800
 30
0.0
 10
82.347298
 20
6.911330
 30
0.0
 10
82.519898
 20
6.724610
 30
0.0
 10
82.714798
 20
6.454690
 30
0.0
  0
SPLINE
  5
330
100
AcDbEntity
  8
ink_ext_XXXXXX
 62
1
100
AcDbSpline
 70
8
 71
3
 72
8
 73
4
 74
0
 40
0
 40
0
 40
0
 40
0
 40
1
 40
1
 40
1
 40
1
 10
82.714798
 20
6.454690
 30
0.0
 10
84.388698
 20
7.489060
 30
0.0
 10
84.488698
 20
8.836330
 30
0.0
 10
84.205098
 20
9.746480
 30
0.0
  0
SPLINE
  5
331
100
AcDbEntity
  8
ink_ext_XXXXXX
 62
1
100
AcDbSpline
 70
8
 71
3
 72
8
 73
4
 74
0
 40
0
 40
0
 40
0
 40
0
 40
1
 40
1
 40
1
 40
1
 10
84.205098
 20
9.746480
 30
0.0
 10
83.083198
 20
9.692190
 30
0.0
 10
81.933198
 20
9.973440
 30
0.0
 10
80.854698
 20
10.728500
 30
0.0
  0
SPLINE
  5
332
100
AcDbEntity
  8
ink_ext_XXXXXX
 62
1
100
AcDbSpline
 70
8
 71
3
 72
8
 73
4
 74
0
 40
0
 40
0
 40
0
 40
0
 40
1
 40
1
 40
1
 40
1
 10
80.854698
 20
10.728500
 30
0.0
 10
80.571098
 20
10.428500
 30
0.0
 10
80.266398
 20
10.160200
 30
0.0
 10
79.941398
 20
9.933200
 30
0.0
  0
LWPOLYLINE
  5
333
100
AcDbEntity
  8
ink_ext_XXXXXX
 62
1
100
AcDbPolyline
 90
1
 70
1
 10
72.897298
 20
10.312100
 30
0.0
  0
SPLINE
  5
334
100
AcDbEntity
  8
ink_ext_XXXXXX
 62
1
100
AcDbSpline
 70
8
 71
3
 72
8
 73
4
 74
0
 40
0
 40
0
 40
0
 40
0
 40
1
 40
1
 40
1
 40
1
 10
82.155098
 20
12.593400
 30
0.0
 10
83.556998
 20
11.905100
 30
0.0
 10
86.481298
 20
11.775800
 30
0.0
 10
88.421498
 20
14.489500
 30
0.0
  0
SPLINE
  5
335
100
AcDbEntity
  8
ink_ext_XXXXXX
 62
1
100
AcDbSpline
 70
8
 71
3
 72
8
 73
4
 74
0
 40
0
 40
0
 40
0
 40
0
 40
1
 40
1
 40
1
 40
1
 10
88.421498
 20
14.489500
 30
0.0
 10
90.310898
 20
17.135900
 30
0.0
 10
88.030498
 20
19.934000
 30
0.0
 10
86.149598
 20
20.699199
 30
0.0
  0
SPLINE
  5
336
100
AcDbEntity
  8
ink_ext_XXXXXX
 62
1
100
AcDbSpline
 70
8
 71
3
 72
8
 73
4
 74
0
 40
0
 40
0
 40
0
 40
0
 40
1
 40
1
 40
1
 40
1
 10
86.149598
 20
20.699199
 30
0.0
 10
85.074198
 20
19.687900
 30
0.0
 10
84.134398
 20
18.832400
 30
0.0
 10
83.340598
 20
18.026600
 30
0.0
  0
SPLINE
  5
337
100
AcDbEntity
  8
ink_ext_XXXXXX
 62
1
100
AcDbSpline
 70
8
 71
3
 72
8
 73
4
 74
0
 40
0
 40
0
 40
0
 40
0
 40
1
 40
1
 40
1
 40
1
 10
83.340598
 20
18.026600
 30
0.0
 10
83.470698
 20
16.333200
 30
0.0
 10
83.039498
 20
14.293800
 30
0.0
 10
82.155098
 20
12.593400
 30
0.0
  0
LWPOLYLINE
  5
338
100
AcDbEntity
  8
ink_ext_XXXXXX
 62
1
100
AcDbPolyline
 90
1
 70
1
 10
79.941398
 20
9.933200
 30
0.0
  0
SPLINE
  5
339
100
AcDbEntity
  8
ink_ext_XXXXXX
 62
1
100
AcDbSpline
 70
8
 71
3
 72
8
 73
4
 74
0
 40
0
 40
0
 40
0
 40
0
 40
1
 40
1
 40
1
 40
1
 10
76.622298
 20
11.577300
 30
0.0
 10
80.069898
 20
11.457400
 30
0.0
 10
81.081298
 20
14.607000
 30
0.0
 10
81.201198
 20
15.978100
 30
0.0
  0
SPLINE
  5
33a
100
AcDbEntity
  8
ink_ext_XXXXXX
 62
1
100
AcDbSpline
 70
8
 71
3
 72
8
 73
4
 74
0
 40
0
 40
0
 40
0
 40
0
 40
1
 40
1
 40
1
 40
1
 10
81.201198
 20
15.978100
 30
0.0
 10
81.317598
 20
17.345300
 30
0.0
 10
81.030098
 20
20.327699
 30
0.0
 10
77.931298
 20
22.098799
 30
0.0
  0
SPLINE
  5
33b
100
AcDbEntity
  8
ink_ext_XXXXXX
 62
1
100
AcDbSpline
 70
8
 71
3
 72
8
 73
4
 74
0
 40
0
 40
0
 40
0
 40
0
 40
1
 40
1
 40
1
 40
1
 10
77.931298
 20
22.098799
 30
0.0
 10
76.265598
 20
23.051599
 30
0.0
 10
73.632398
 20
23.469899
 30
0.0
 10
72.043398
 20
21.564499
 30
0.0
  0
SPLINE
  5
33c
100
AcDbEntity
  8
ink_ext_XXXXXX
 62
1
100
AcDbSpline
 70
8
 71
3
 72
8
 73
4
 74
0
 40
0
 40
0
 40
0
 40
0
 40
1
 40
1
 40
1
 40
1
 10
72.043398
 20
21.564499
 30
0.0
 10
70.559398
 20
19.782000
 30
0.0
 10
70.002698
 20
17.294500
 30
0.0
 10
70.140998
 20
15.679700
 30
0.0
  0
SPLINE
  5
33d
100
AcDbEntity
  8
ink_ext_XXXXXX
 62
1
100
AcDbSpline
 70
8
 71
3
 72
8
 73
4
 74
0
 40
0
 40
0
 40
0
 40
0
 40
1
 40
1
 40
1
 40
1
 10
70.140998
 20
15.679700
 30
0.0
 10
70.319498
 20
13.599600
 30
0.0
 10
73.174598
 20
11.697700
 30
0.0
 10
76.622298
 20
11.577300
 30
0.0
  0
LWPOLYLINE
  5
33e
100
AcDbEntity
  8
ink_ext_XXXXXX
 62
1
100
AcDbPolyline
 90
1
 70
1
 10
82.155098
 20
12.593400
 30
0.0
  0
SPLINE
  5
33f
100
AcDbEntity
  8
ink_ext_XXXXXX
 62
1
100
AcDbSpline
 70
8
 71
3
 72
8
 73
4
 74
0
 40
0
 40
0
 40
0
 40
0
 40
1
 40
1
 40
1
 40
1
 10
77.811298
 20
17.702000
 30
0.0
 10
78.226198
 20
16.807000
 30
0.0
 10
76.622298
 20
14.490600
 30
0.0
 10
75.374598
 20
15.323400
 30
0.0
  0
SPLINE
  5
340
100
AcDbEntity
  8
ink_ext_XXXXXX
 62
1
100
AcDbSpline
 70
8
 71
3
 72
8
 73
4
 74
0
 40
0
 40
0
 40
0
 40
0
 40
1
 40
1
 40
1
 40
1
 10
75.374598
 20
15.323400
 30
0.0
 10
74.127298
 20
16.156300
 30
0.0
 10
74.450798
 20
19.742200
 30
0.0
 10
75.312898
 20
19.960500
 30
0.0
  0
SPLINE
  5
341
100
AcDbEntity
  8
ink_ext_XXXXXX
 62
1
100
AcDbSpline
 70
8
 71
3
 72
8
 73
4
 74
0
 40
0
 40
0
 40
0
 40
0
 40
1
 40
1
 40
1
 40
1
 10
75.312898
 20
19.960500
 30
0.0
 10
76.501998
 20
20.258599
 30
0.0
 10
77.396898
 20
18.592600
 30
0.0
 10
77.811298
 20
17.702000
 30
0.0
  0
LWPOLYLINE
  5
342
100
AcDbEntity
  8
ink_ext_XXXXXX
 62
1
100
AcDbPolyline
 90
1
 70
1
 10
76.622298
 20
11.577300
 30
0.0
  0
SPLINE
  5
343
100
AcDbEntity
  8
ink_ext_XXXXXX
 62
1
100
AcDbSpline
 70
8
 71
3
 72
8
 73
4
 74
0
 40
0
 40
0
 40
0
 40
0
 40
1
 40
1
 40
1
 40
1
 10
74.311298
 20
24.962099
 30
0.0
 10
76.234798
 20
25.278899
 30
0.0
 10
78.604698
 20
24.642999
 30
0.0
 10
81.294498
 20
21.880899
 30
0.0
  0
SPLINE
  5
344
100
AcDbEntity
  8
ink_ext_XXXXXX
 62
1
100
AcDbSpline
 70
8
 71
3
 72
8
 73
4
 74
0
 40
0
 40
0
 40
0
 40
0
 40
1
 40
1
 40
1
 40
1
 10
81.294498
 20
21.880899
 30
0.0
 10
82.917598
 20
23.341399
 30
0.0
 10
83.004298
 20
24.652299
 30
0.0
 10
82.951598
 20
26.203499
 30
0.0
  0
SPLINE
  5
345
100
AcDbEntity
  8
ink_ext_XXXXXX
 62
1
100
AcDbSpline
 70
8
 71
3
 72
8
 73
4
 74
0
 40
0
 40
0
 40
0
 40
0
 40
1
 40
1
 40
1
 40
1
 10
82.951598
 20
26.203499
 30
0.0
 10
82.896498
 20
27.927299
 30
0.0
 10
81.586298
 20
30.068399
 30
0.0
 10
78.017998
 20
30.899199
 30
0.0
  0
SPLINE
  5
346
100
AcDbEntity
  8
ink_ext_XXXXXX
 62
1
100
AcDbSpline
 70
8
 71
3
 72
8
 73
4
 74
0
 40
0
 40
0
 40
0
 40
0
 40
1
 40
1
 40
1
 40
1
 10
78.017998
 20
30.899199
 30
0.0
 10
74.911298
 20
31.624599
 30
0.0
 10
73.048398
 20
29.524599
 30
0.0
 10
72.585898
 20
27.690999
 30
0.0
  0
SPLINE
  5
347
100
AcDbEntity
  8
ink_ext_XXXXXX
 62
1
100
AcDbSpline
 70
8
 71
3
 72
8
 73
4
 74
0
 40
0
 40
0
 40
0
 40
0
 40
1
 40
1
 40
1
 40
1
 10
72.585898
 20
27.690999
 30
0.0
 10
73.454698
 20
26.994099
 30
0.0
 10
74.092198
 20
26.087499
 30
0.0
 10
74.311298
 20
24.962099
 30
0.0
  0
LWPOLYLINE
  5
348
100
AcDbEntity
  8
ink_ext_XXXXXX
 62
1
100
AcDbPolyline
 90
1
 70
1
 10
77.811298
 20
17.702000
 30
0.0
  0
SPLINE
  5
349
100
AcDbEntity
  8
ink_ext_XXXXXX
 62
1
100
AcDbSpline
 70
8
 71
3
 72
8
 73
4
 74
0
 40
0
 40
0
 40
0
 40
0
 40
1
 40
1
 40
1
 40
1
 10
72.073398
 20
24.108599
 30
0.0
 10
71.885198
 20
24.778899
 30
0.0
 10
71.498798
 20
25.622299
 30
0.0
 10
70.707398
 20
26.262899
 30
0.0
  0
SPLINE
  5
34a
100
AcDbEntity
  8
ink_ext_XXXXXX
 62
1
100
AcDbSpline
 70
8
 71
3
 72
8
 73
4
 74
0
 40
0
 40
0
 40
0
 40
0
 40
1
 40
1
 40
1
 40
1
 10
70.707398
 20
26.262899
 30
0.0
 10
69.210898
 20
27.469899
 30
0.0
 10
67.523398
 20
27.454299
 30
0.0
 10
66.329298
 20
27.206999
 30
0.0
  0
SPLINE
  5
34b
100
AcDbEntity
  8
ink_ext_XXXXXX
 62
1
100
AcDbSpline
 70
8
 71
3
 72
8
 73
4
 74
0
 40
0
 40
0
 40
0
 40
0
 40
1
 40
1
 40
1
 40
1
 10
66.329298
 20
27.206999
 30
0.0
 10
66.377698
 20
27.090199
 30
0.0
 10
66.411298
 20
26.972699
 30
0.0
 10
66.426198
 20
26.855899
 30
0.0
  0
SPLINE
  5
34c
100
AcDbEntity
  8
ink_ext_XXXXXX
 62
1
100
AcDbSpline
 70
8
 71
3
 72
8
 73
4
 74
0
 40
0
 40
0
 40
0
 40
0
 40
1
 40
1
 40
1
 40
1
 10
66.426198
 20
26.855899
 30
0.0
 10
66.439798
 20
26.755499
 30
0.0
 10
66.439098
 20
26.657399
 30
0.0
 10
66.427298
 20
26.562099
 30
0.0
  0
SPLINE
  5
34d
100
AcDbEntity
  8
ink_ext_XXXXXX
 62
1
100
AcDbSpline
 70
8
 71
3
 72
8
 73
4
 74
0
 40
0
 40
0
 40
0
 40
0
 40
1
 40
1
 40
1
 40
1
 10
66.427298
 20
26.562099
 30
0.0
 10
68.738298
 20
24.281999
 30
0.0
 10
68.693398
 20
20.803499
 30
0.0
 10
67.024198
 20
18.816400
 30
0.0
  0
SPLINE
  5
34e
100
AcDbEntity
  8
ink_ext_XXXXXX
 62
1
100
AcDbSpline
 70
8
 71
3
 72
8
 73
4
 74
0
 40
0
 40
0
 40
0
 40
0
 40
1
 40
1
 40
1
 40
1
 10
67.024198
 20
18.816400
 30
0.0
 10
67.162498
 20
18.361700
 30
0.0
 10
67.614798
 20
17.885500
 30
0.0
 10
68.153898
 20
17.935500
 30
0.0
  0
SPLINE
  5
34f
100
AcDbEntity
  8
ink_ext_XXXXXX
 62
1
100
AcDbSpline
 70
8
 71
3
 72
8
 73
4
 74
0
 40
0
 40
0
 40
0
 40
0
 40
1
 40
1
 40
1
 40
1
 10
68.153898
 20
17.935500
 30
0.0
 10
68.485898
 20
19.734000
 30
0.0
 10
69.264798
 20
21.533199
 30
0.0
 10
70.269498
 20
22.615999
 30
0.0
  0
SPLINE
  5
350
100
AcDbEntity
  8
ink_ext_XXXXXX
 62
1
100
AcDbSpline
 70
8
 71
3
 72
8
 73
4
 74
0
 40
0
 40
0
 40
0
 40
0
 40
1
 40
1
 40
1
 40
1
 10
70.269498
 20
22.615999
 30
0.0
 10
70.747998
 20
23.130099
 30
0.0
 10
71.353898
 20
23.669499
 30
0.0
 10
72.073398
 20
24.108599
 30
0.0
  0
LWPOLYLINE
  5
351
100
AcDbEntity
  8
ink_ext_XXXXXX
 62
1
100
AcDbPolyline
 90
1
 70
1
 10
74.311298
 20
24.962099
 30
0.0
  0
SPLINE
  5
352
100
AcDbEntity
  8
ink_ext_XXXXXX
 62
1
100
AcDbSpline
 70
8
 71
3
 72
8
 73
4
 74
0
 40
0
 40
0
 40
0
 40
0
 40
1
 40
1
 40
1
 40
1
 10
66.306598
 20
21.622299
 30
0.0
 10
66.561298
 20
22.892199
 30
0.0
 10
66.165198
 20
24.089799
 30
0.0
 10
65.096498
 20
25.103899
 30
0.0
  0
SPLINE
  5
353
100
AcDbEntity
  8
ink_ext_XXXXXX
 62
1
100
AcDbSpline
 70
8
 71
3
 72
8
 73
4
 74
0
 40
0
 40
0
 40
0
 40
0
 40
1
 40
1
 40
1
 40
1
 10
65.096498
 20
25.103899
 30
0.0
 10
64.489098
 20
24.808599
 30
0.0
 10
63.814098
 20
24.664499
 30
0.0
 10
63.393398
 20
24.717599
 30
0.0
  0
SPLINE
  5
354
100
AcDbEntity
  8
ink_ext_XXXXXX
 62
1
100
AcDbSpline
 70
8
 71
3
 72
8
 73
4
 74
0
 40
0
 40
0
 40
0
 40
0
 40
1
 40
1
 40
1
 40
1
 10
63.393398
 20
24.717599
 30
0.0
 10
62.444098
 20
24.833599
 30
0.0
 10
61.611298
 20
25.964799
 30
0.0
 10
61.611298
 20
25.964799
 30
0.0
  0
SPLINE
  5
355
100
AcDbEntity
  8
ink_ext_XXXXXX
 62
1
100
AcDbSpline
 70
8
 71
3
 72
8
 73
4
 74
0
 40
0
 40
0
 40
0
 40
0
 40
1
 40
1
 40
1
 40
1
 10
61.611298
 20
25.964799
 30
0.0
 10
61.485498
 20
26.230099
 30
0.0
 10
61.438698
 20
26.600399
 30
0.0
 10
61.451198
 20
27.008999
 30
0.0
  0
SPLINE
  5
356
100
AcDbEntity
  8
ink_ext_XXXXXX
 62
1
100
AcDbSpline
 70
8
 71
3
 72
8
 73
4
 74
0
 40
0
 40
0
 40
0
 40
0
 40
1
 40
1
 40
1
 40
1
 10
61.451198
 20
27.008999
 30
0.0
 10
59.019499
 20
27.463299
 30
0.0
 10
57.155899
 20
25.626599
 30
0.0
 10
56.796099
 20
24.833599
 30
0.0
  0
SPLINE
  5
357
100
AcDbEntity
  8
ink_ext_XXXXXX
 62
1
100
AcDbSpline
 70
8
 71
3
 72
8
 73
4
 74
0
 40
0
 40
0
 40
0
 40
0
 40
1
 40
1
 40
1
 40
1
 10
56.796099
 20
24.833599
 30
0.0
 10
56.476199
 20
24.134399
 30
0.0
 10
56.365999
 20
23.510199
 30
0.0
 10
56.330899
 20
23.103899
 30
0.0
  0
SPLINE
  5
358
100
AcDbEntity
  8
ink_ext_XXXXXX
 62
1
100
AcDbSpline
 70
8
 71
3
 72
8
 73
4
 74
0
 40
0
 40
0
 40
0
 40
0
 40
1
 40
1
 40
1
 40
1
 10
56.330899
 20
23.103899
 30
0.0
 10
56.987099
 20
23.212899
 30
0.0
 10
57.629699
 20
23.259799
 30
0.0
 10
58.221499
 20
23.247999
 30
0.0
  0
SPLINE
  5
359
100
AcDbEntity
  8
ink_ext_XXXXXX
 62
1
100
AcDbSpline
 70
8
 71
3
 72
8
 73
4
 74
0
 40
0
 40
0
 40
0
 40
0
 40
1
 40
1
 40
1
 40
1
 10
58.221499
 20
23.247999
 30
0.0
 10
60.788298
 20
23.198399
 30
0.0
 10
63.644898
 20
22.035499
 30
0.0
 10
65.517998
 20
20.196499
 30
0.0
  0
SPLINE
  5
35a
100
AcDbEntity
  8
ink_ext_XXXXXX
 62
1
100
AcDbSpline
 70
8
 71
3
 72
8
 73
4
 74
0
 40
0
 40
0
 40
0
 40
0
 40
1
 40
1
 40
1
 40
1
 10
65.517998
 20
20.196499
 30
0.0
 10
65.855098
 20
20.456599
 30
0.0
 10
66.160898
 20
20.892999
 30
0.0
 10
66.306598
 20
21.622299
 30
0.0
  0
LWPOLYLINE
  5
35b
100
AcDbEntity
  8
ink_ext_XXXXXX
 62
1
100
AcDbPolyline
 90
1
 70
1
 10
72.073398
 20
24.108599
 30
0.0
  0
SPLINE
  5
35c
100
AcDbEntity
  8
ink_ext_XXXXXX
 62
1
100
AcDbSpline
 70
8
 71
3
 72
8
 73
4
 74
0
 40
0
 40
0
 40
0
 40
0
 40
1
 40
1
 40
1
 40
1
 10
65.046898
 20
14.937900
 30
0.0
 10
65.421498
 20
17.836300
 30
0.0
 10
61.624598
 20
20.662499
 30
0.0
 10
58.227299
 20
20.960499
 30
0.0
  0
SPLINE
  5
35d
100
AcDbEntity
  8
ink_ext_XXXXXX
 62
1
100
AcDbSpline
 70
8
 71
3
 72
8
 73
4
 74
0
 40
0
 40
0
 40
0
 40
0
 40
1
 40
1
 40
1
 40
1
 10
58.227299
 20
20.960499
 30
0.0
 10
55.987099
 20
21.160499
 30
0.0
 10
52.714099
 20
20.364099
 30
0.0
 10
51.884799
 20
18.109000
 30
0.0
  0
SPLINE
  5
35e
100
AcDbEntity
  8
ink_ext_XXXXXX
 62
1
100
AcDbSpline
 70
8
 71
3
 72
8
 73
4
 74
0
 40
0
 40
0
 40
0
 40
0
 40
1
 40
1
 40
1
 40
1
 10
51.884799
 20
18.109000
 30
0.0
 10
50.895699
 20
15.400000
 30
0.0
 10
53.787099
 20
11.566400
 30
0.0
 10
57.278499
 20
10.813700
 30
0.0
  0
SPLINE
  5
35f
100
AcDbEntity
  8
ink_ext_XXXXXX
 62
1
100
AcDbSpline
 70
8
 71
3
 72
8
 73
4
 74
0
 40
0
 40
0
 40
0
 40
0
 40
1
 40
1
 40
1
 40
1
 10
57.278499
 20
10.813700
 30
0.0
 10
60.620698
 20
10.093800
 30
0.0
 10
64.686698
 20
12.166400
 30
0.0
 10
65.046898
 20
14.937900
 30
0.0
  0
LWPOLYLINE
  5
360
100
AcDbEntity
  8
ink_ext_XXXXXX
 62
1
100
AcDbPolyline
 90
1
 70
1
 10
66.306598
 20
21.622299
 30
0.0
  0
SPLINE
  5
361
100
AcDbEntity
  8
ink_ext_XXXXXX
 62
1
100
AcDbSpline
 70
8
 71
3
 72
8
 73
4
 74
0
 40
0
 40
0
 40
0
 40
0
 40
1
 40
1
 40
1
 40
1
 10
60.129298
 20
16.203500
 30
0.0
 10
57.209399
 20
14.744900
 30
0.0
 10
54.583599
 20
15.887100
 30
0.0
 10
54.583599
 20
17.316400
 30
0.0
  0
SPLINE
  5
362
100
AcDbEntity
  8
ink_ext_XXXXXX
 62
1
100
AcDbSpline
 70
8
 71
3
 72
8
 73
4
 74
0
 40
0
 40
0
 40
0
 40
0
 40
1
 40
1
 40
1
 40
1
 10
54.583599
 20
17.316400
 30
0.0
 10
54.583599
 20
18.425400
 30
0.0
 10
55.692599
 20
19.375000
 30
0.0
 10
57.910899
 20
19.218800
 30
0.0
  0
SPLINE
  5
363
100
AcDbEntity
  8
ink_ext_XXXXXX
 62
1
100
AcDbSpline
 70
8
 71
3
 72
8
 73
4
 74
0
 40
0
 40
0
 40
0
 40
0
 40
1
 40
1
 40
1
 40
1
 10
57.910899
 20
19.218800
 30
0.0
 10
60.129298
 20
19.058600
 30
0.0
 10
61.398798
 20
16.840200
 30
0.0
 10
60.129298
 20
16.203500
 30
0.0
  0
LWPOLYLINE
  5
364
100
AcDbEntity
  8
ink_ext_XXXXXX
 62
1
100
AcDbPolyline
 90
1
 70
1
 10
65.046898
 20
14.937900
 30
0.0
  0
SPLINE
  5
365
100
AcDbEntity
  8
ink_ext_XXXXXX
 62
1
100
AcDbSpline
 70
8
 71
3
 72
8
 73
4
 74
0
 40
0
 40
0
 40
0
 40
0
 40
1
 40
1
 40
1
 40
1
 10
62.169098
 20
9.055470
 30
0.0
 10
60.716798
 20
8.491800
 30
0.0
 10
59.122699
 20
8.265230
 30
0.0
 10
57.588699
 20
8.504300
 30
0.0
  0
SPLINE
  5
366
100
AcDbEntity
  8
ink_ext_XXXXXX
 62
1
100
AcDbSpline
 70
8
 71
3
 72
8
 73
4
 74
0
 40
0
 40
0
 40
0
 40
0
 40
1
 40
1
 40
1
 40
1
 10
57.588699
 20
8.504300
 30
0.0
 10
57.322999
 20
8.545700
 30
0.0
 10
57.061699
 20
8.601560
 30
0.0
 10
56.803499
 20
8.669140
 30
0.0
  0
SPLINE
  5
367
100
AcDbEntity
  8
ink_ext_XXXXXX
 62
1
100
AcDbSpline
 70
8
 71
3
 72
8
 73
4
 74
0
 40
0
 40
0
 40
0
 40
0
 40
1
 40
1
 40
1
 40
1
 10
56.803499
 20
8.669140
 30
0.0
 10
57.130499
 20
7.755860
 30
0.0
 10
57.201999
 20
6.790230
 30
0.0
 10
57.020699
 20
5.872660
 30
0.0
  0
SPLINE
  5
368
100
AcDbEntity
  8
ink_ext_XXXXXX
 62
1
100
AcDbSpline
 70
8
 71
3
 72
8
 73
4
 74
0
 40
0
 40
0
 40
0
 40
0
 40
1
 40
1
 40
1
 40
1
 10
57.020699
 20
5.872660
 30
0.0
 10
58.276599
 20
5.143360
 30
0.0
 10
60.321898
 20
5.123440
 30
0.0
 10
61.840998
 20
5.673830
 30
0.0
  0
SPLINE
  5
369
100
AcDbEntity
  8
ink_ext_XXXXXX
 62
1
100
AcDbSpline
 70
8
 71
3
 72
8
 73
4
 74
0
 40
0
 40
0
 40
0
 40
0
 40
1
 40
1
 40
1
 40
1
 10
61.840998
 20
5.673830
 30
0.0
 10
61.576598
 20
6.779300
 30
0.0
 10
61.684398
 20
7.966410
 30
0.0
 10
62.169098
 20
9.055470
 30
0.0
  0
LWPOLYLINE
  5
36a
100
AcDbEntity
  8
ink_ext_XXXXXX
 62
1
100
AcDbPolyline
 90
1
 70
1
 10
60.129298
 20
16.203500
 30
0.0
  0
SPLINE
  5
36b
100
AcDbEntity
  8
ink_ext_XXXXXX
 62
1
100
AcDbSpline
 70
8
 71
3
 72
8
 73
4
 74
0
 40
0
 40
0
 40
0
 40
0
 40
1
 40
1
 40
1
 40
1
 10
55.071899
 20
5.692970
 30
0.0
 10
55.548799
 20
6.936720
 30
0.0
 10
55.373399
 20
8.526560
 30
0.0
 10
54.356299
 20
9.750000
 30
0.0
  0
SPLINE
  5
36c
100
AcDbEntity
  8
ink_ext_XXXXXX
 62
1
100
AcDbSpline
 70
8
 71
3
 72
8
 73
4
 74
0
 40
0
 40
0
 40
0
 40
0
 40
1
 40
1
 40
1
 40
1
 10
54.356299
 20
9.750000
 30
0.0
 10
52.654299
 20
10.832800
 30
0.0
 10
51.305899
 20
12.461300
 30
0.0
 10
50.571499
 20
14.209400
 30
0.0
  0
SPLINE
  5
36d
100
AcDbEntity
  8
ink_ext_XXXXXX
 62
1
100
AcDbSpline
 70
8
 71
3
 72
8
 73
4
 74
0
 40
0
 40
0
 40
0
 40
0
 40
1
 40
1
 40
1
 40
1
 10
50.571499
 20
14.209400
 30
0.0
 10
50.431599
 20
13.783600
 30
0.0
 10
50.235499
 20
13.407400
 30
0.0
 10
49.976599
 20
13.101200
 30
0.0
  0
SPLINE
  5
36e
100
AcDbEntity
  8
ink_ext_XXXXXX
 62
1
100
AcDbSpline
 70
8
 71
3
 72
8
 73
4
 74
0
 40
0
 40
0
 40
0
 40
0
 40
1
 40
1
 40
1
 40
1
 10
49.976599
 20
13.101200
 30
0.0
 10
49.058599
 20
12.016400
 30
0.0
 10
46.906999
 20
10.578100
 30
0.0
 10
44.612499
 20
9.785550
 30
0.0
  0
SPLINE
  5
36f
100
AcDbEntity
  8
ink_ext_XXXXXX
 62
1
100
AcDbSpline
 70
8
 71
3
 72
8
 73
4
 74
0
 40
0
 40
0
 40
0
 40
0
 40
1
 40
1
 40
1
 40
1
 10
44.612499
 20
9.785550
 30
0.0
 10
44.251999
 20
9.066410
 30
0.0
 10
44.236299
 20
8.224610
 30
0.0
 10
44.430499
 20
7.296480
 30
0.0
  0
SPLINE
  5
370
100
AcDbEntity
  8
ink_ext_XXXXXX
 62
1
100
AcDbSpline
 70
8
 71
3
 72
8
 73
4
 74
0
 40
0
 40
0
 40
0
 40
0
 40
1
 40
1
 40
1
 40
1
 10
44.430499
 20
7.296480
 30
0.0
 10
44.787099
 20
5.572660
 30
0.0
 10
46.867199
 20
3.194140
 30
0.0
 10
49.183599
 20
2.779690
 30
0.0
  0
SPLINE
  5
371
100
AcDbEntity
  8
ink_ext_XXXXXX
 62
1
100
AcDbSpline
 70
8
 71
3
 72
8
 73
4
 74
0
 40
0
 40
0
 40
0
 40
0
 40
1
 40
1
 40
1
 40
1
 10
49.183599
 20
2.779690
 30
0.0
 10
51.504299
 20
2.361330
 30
0.0
 10
54.475399
 20
4.147270
 30
0.0
 10
55.071899
 20
5.692970
 30
0.0
  0
LWPOLYLINE
  5
372
100
AcDbEntity
  8
ink_ext_XXXXXX
 62
1
100
AcDbPolyline
 90
1
 70
1
 10
62.169098
 20
9.055470
 30
0.0
  0
SPLINE
  5
373
100
AcDbEntity
  8
ink_ext_XXXXXX
 62
1
100
AcDbSpline
 70
8
 71
3
 72
8
 73
4
 74
0
 40
0
 40
0
 40
0
 40
0
 40
1
 40
1
 40
1
 40
1
 10
50.408199
 20
9.089060
 30
0.0
 10
53.579299
 20
7.979690
 30
0.0
 10
50.091799
 20
3.699220
 30
0.0
 10
48.189799
 20
5.128520
 30
0.0
  0
SPLINE
  5
374
100
AcDbEntity
  8
ink_ext_XXXXXX
 62
1
100
AcDbSpline
 70
8
 71
3
 72
8
 73
4
 74
0
 40
0
 40
0
 40
0
 40
0
 40
1
 40
1
 40
1
 40
1
 10
48.189799
 20
5.128520
 30
0.0
 10
46.287499
 20
6.553910
 30
0.0
 10
48.265999
 20
9.838280
 30
0.0
 10
50.408199
 20
9.089060
 30
0.0
  0
LWPOLYLINE
  5
375
100
AcDbEntity
  8
ink_ext_XXXXXX
 62
1
100
AcDbPolyline
 90
1
 70
1
 10
55.071899
 20
5.692970
 30
0.0
  0
SPLINE
  5
376
100
AcDbEntity
  8
ink_ext_XXXXXX
 62
1
100
AcDbSpline
 70
8
 71
3
 72
8
 73
4
 74
0
 40
0
 40
0
 40
0
 40
0
 40
1
 40
1
 40
1
 40
1
 10
48.600799
 20
15.420300
 30
0.0
 10
49.378899
 20
17.755100
 30
0.0
 10
48.229699
 20
22.530899
 30
0.0
 10
44.480099
 20
22.868799
 30
0.0
  0
SPLINE
  5
377
100
AcDbEntity
  8
ink_ext_XXXXXX
 62
1
100
AcDbSpline
 70
8
 71
3
 72
8
 73
4
 74
0
 40
0
 40
0
 40
0
 40
0
 40
1
 40
1
 40
1
 40
1
 10
44.480099
 20
22.868799
 30
0.0
 10
40.992199
 20
23.189099
 30
0.0
 10
39.406599
 20
21.286699
 30
0.0
 10
38.453899
 20
19.064500
 30
0.0
  0
SPLINE
  5
378
100
AcDbEntity
  8
ink_ext_XXXXXX
 62
1
100
AcDbSpline
 70
8
 71
3
 72
8
 73
4
 74
0
 40
0
 40
0
 40
0
 40
0
 40
1
 40
1
 40
1
 40
1
 10
38.453899
 20
19.064500
 30
0.0
 10
37.504299
 20
16.846100
 30
0.0
 10
38.453899
 20
12.089100
 30
0.0
 10
40.992199
 20
11.772700
 30
0.0
  0
SPLINE
  5
379
100
AcDbEntity
  8
ink_ext_XXXXXX
 62
1
100
AcDbSpline
 70
8
 71
3
 72
8
 73
4
 74
0
 40
0
 40
0
 40
0
 40
0
 40
1
 40
1
 40
1
 40
1
 10
40.992199
 20
11.772700
 30
0.0
 10
43.527299
 20
11.456300
 30
0.0
 10
47.967999
 20
13.518000
 30
0.0
 10
48.600799
 20
15.420300
 30
0.0
  0
LWPOLYLINE
  5
37a
100
AcDbEntity
  8
ink_ext_XXXXXX
 62
1
100
AcDbPolyline
 90
1
 70
1
 10
50.408199
 20
9.089060
 30
0.0
  0
SPLINE
  5
37b
100
AcDbEntity
  8
ink_ext_XXXXXX
 62
1
100
AcDbSpline
 70
8
 71
3
 72
8
 73
4
 74
0
 40
0
 40
0
 40
0
 40
0
 40
1
 40
1
 40
1
 40
1
 10
44.319899
 20
19.857400
 30
0.0
 10
47.491399
 20
18.748000
 30
0.0
 10
44.003899
 20
14.467600
 30
0.0
 10
42.101599
 20
15.896900
 30
0.0
  0
SPLINE
  5
37c
100
AcDbEntity
  8
ink_ext_XXXXXX
 62
1
100
AcDbSpline
 70
8
 71
3
 72
8
 73
4
 74
0
 40
0
 40
0
 40
0
 40
0
 40
1
 40
1
 40
1
 40
1
 10
42.101599
 20
15.896900
 30
0.0
 10
40.199199
 20
17.322700
 30
0.0
 10
42.178099
 20
20.606599
 30
0.0
 10
44.319899
 20
19.857400
 30
0.0
  0
LWPOLYLINE
  5
37d
100
AcDbEntity
  8
ink_ext_XXXXXX
 62
1
100
AcDbPolyline
 90
1
 70
1
 10
48.600799
 20
15.420300
 30
0.0
  0
SPLINE
  5
37e
100
AcDbEntity
  8
ink_ext_XXXXXX
 62
1
100
AcDbSpline
 70
8
 71
3
 72
8
 73
4
 74
0
 40
0
 40
0
 40
0
 40
0
 40
1
 40
1
 40
1
 40
1
 10
48.551199
 20
22.615199
 30
0.0
 10
49.326199
 20
21.781299
 30
0.0
 10
49.966799
 20
20.520699
 30
0.0
 10
50.371899
 20
19.163300
 30
0.0
  0
SPLINE
  5
37f
100
AcDbEntity
  8
ink_ext_XXXXXX
 62
1
100
AcDbSpline
 70
8
 71
3
 72
8
 73
4
 74
0
 40
0
 40
0
 40
0
 40
0
 40
1
 40
1
 40
1
 40
1
 10
50.371899
 20
19.163300
 30
0.0
 10
51.040999
 20
20.738699
 30
0.0
 10
52.457799
 20
21.814799
 30
0.0
 10
54.053499
 20
22.465599
 30
0.0
  0
SPLINE
  5
380
100
AcDbEntity
  8
ink_ext_XXXXXX
 62
1
100
AcDbSpline
 70
8
 71
3
 72
8
 73
4
 74
0
 40
0
 40
0
 40
0
 40
0
 40
1
 40
1
 40
1
 40
1
 10
54.053499
 20
22.465599
 30
0.0
 10
53.792199
 20
23.393399
 30
0.0
 10
54.051599
 20
24.704299
 30
0.0
 10
54.798799
 20
25.899199
 30
0.0
  0
SPLINE
  5
381
100
AcDbEntity
  8
ink_ext_XXXXXX
 62
1
100
AcDbSpline
 70
8
 71
3
 72
8
 73
4
 74
0
 40
0
 40
0
 40
0
 40
0
 40
1
 40
1
 40
1
 40
1
 10
54.798799
 20
25.899199
 30
0.0
 10
54.632399
 20
26.090199
 30
0.0
 10
54.435199
 20
26.269899
 30
0.0
 10
54.201999
 20
26.433999
 30
0.0
  0
SPLINE
  5
382
100
AcDbEntity
  8
ink_ext_XXXXXX
 62
1
100
AcDbSpline
 70
8
 71
3
 72
8
 73
4
 74
0
 40
0
 40
0
 40
0
 40
0
 40
1
 40
1
 40
1
 40
1
 10
54.201999
 20
26.433999
 30
0.0
 10
53.861299
 20
26.126599
 30
0.0
 10
53.496899
 20
25.886299
 30
0.0
 10
53.147999
 20
25.786699
 30
0.0
  0
SPLINE
  5
383
100
AcDbEntity
  8
ink_ext_XXXXXX
 62
1
100
AcDbSpline
 70
8
 71
3
 72
8
 73
4
 74
0
 40
0
 40
0
 40
0
 40
0
 40
1
 40
1
 40
1
 40
1
 10
53.147999
 20
25.786699
 30
0.0
 10
52.038699
 20
25.470299
 30
0.0
 10
50.453099
 20
25.942999
 30
0.0
 10
50.453099
 20
26.735899
 30
0.0
  0
SPLINE
  5
384
100
AcDbEntity
  8
ink_ext_XXXXXX
 62
1
100
AcDbSpline
 70
8
 71
3
 72
8
 73
4
 74
0
 40
0
 40
0
 40
0
 40
0
 40
1
 40
1
 40
1
 40
1
 10
50.453099
 20
26.735899
 30
0.0
 10
50.453099
 20
26.735899
 30
0.0
 10
50.453099
 20
26.952299
 30
0.0
 10
50.464099
 20
27.272999
 30
0.0
  0
SPLINE
  5
385
100
AcDbEntity
  8
ink_ext_XXXXXX
 62
1
100
AcDbSpline
 70
8
 71
3
 72
8
 73
4
 74
0
 40
0
 40
0
 40
0
 40
0
 40
1
 40
1
 40
1
 40
1
 10
50.464099
 20
27.272999
 30
0.0
 10
48.491799
 20
26.995699
 30
0.0
 10
47.578099
 20
25.437099
 30
0.0
 10
47.031299
 20
23.926199
 30
0.0
  0
SPLINE
  5
386
100
AcDbEntity
  8
ink_ext_XXXXXX
 62
1
100
AcDbSpline
 70
8
 71
3
 72
8
 73
4
 74
0
 40
0
 40
0
 40
0
 40
0
 40
1
 40
1
 40
1
 40
1
 10
47.031299
 20
23.926199
 30
0.0
 10
47.627699
 20
23.524999
 30
0.0
 10
48.137099
 20
23.060499
 30
0.0
 10
48.551199
 20
22.615199
 30
0.0
  0
LWPOLYLINE
  5
387
100
AcDbEntity
  8
ink_ext_XXXXXX
 62
1
100
AcDbPolyline
 90
1
 70
1
 10
44.319899
 20
19.857400
 30
0.0
  0
SPLINE
  5
388
100
AcDbEntity
  8
ink_ext_XXXXXX
 62
1
100
AcDbSpline
 70
8
 71
3
 72
8
 73
4
 74
0
 40
0
 40
0
 40
0
 40
0
 40
1
 40
1
 40
1
 40
1
 10
44.510199
 20
24.959799
 30
0.0
 10
44.706599
 20
25.971499
 30
0.0
 10
45.240599
 20
26.806299
 30
0.0
 10
45.976999
 20
27.470699
 30
0.0
  0
SPLINE
  5
389
100
AcDbEntity
  8
ink_ext_XXXXXX
 62
1
100
AcDbSpline
 70
8
 71
3
 72
8
 73
4
 74
0
 40
0
 40
0
 40
0
 40
0
 40
1
 40
1
 40
1
 40
1
 10
45.976999
 20
27.470699
 30
0.0
 10
45.718799
 20
28.747699
 30
0.0
 10
44.842999
 20
30.235499
 30
0.0
 10
42.931999
 20
30.586299
 30
0.0
  0
SPLINE
  5
38a
100
AcDbEntity
  8
ink_ext_XXXXXX
 62
1
100
AcDbSpline
 70
8
 71
3
 72
8
 73
4
 74
0
 40
0
 40
0
 40
0
 40
0
 40
1
 40
1
 40
1
 40
1
 10
42.931999
 20
30.586299
 30
0.0
 10
42.905499
 20
30.511299
 30
0.0
 10
42.876999
 20
30.443799
 30
0.0
 10
42.847699
 20
30.384799
 30
0.0
  0
SPLINE
  5
38b
100
AcDbEntity
  8
ink_ext_XXXXXX
 62
1
100
AcDbSpline
 70
8
 71
3
 72
8
 73
4
 74
0
 40
0
 40
0
 40
0
 40
0
 40
1
 40
1
 40
1
 40
1
 10
42.847699
 20
30.384799
 30
0.0
 10
42.370699
 20
29.434799
 30
0.0
 10
40.783599
 20
29.590999
 30
0.0
 10
40.783599
 20
29.590999
 30
0.0
  0
SPLINE
  5
38c
100
AcDbEntity
  8
ink_ext_XXXXXX
 62
1
100
AcDbSpline
 70
8
 71
3
 72
8
 73
4
 74
0
 40
0
 40
0
 40
0
 40
0
 40
1
 40
1
 40
1
 40
1
 10
40.783599
 20
29.590999
 30
0.0
 10
40.687899
 20
29.639799
 30
0.0
 10
40.489799
 20
29.964099
 30
0.0
 10
40.269899
 20
30.414799
 30
0.0
  0
LWPOLYLINE
  5
38d
100
AcDbEntity
  8
ink_ext_XXXXXX
 62
1
100
AcDbPolyline
 90
1
 70
1
 10
48.551199
 20
22.615199
 30
0.0
  0
SPLINE
  5
38e
100
AcDbEntity
  8
ink_ext_XXXXXX
 62
1
100
AcDbSpline
 70
8
 71
3
 72
8
 73
4
 74
0
 40
0
 40
0
 40
0
 40
0
 40
1
 40
1
 40
1
 40
1
 10
40.149599
 20
30.383599
 30
0.0
 10
36.662099
 20
29.430899
 30
0.0
 10
35.232799
 20
28.481599
 30
0.0
 10
35.549199
 20
25.626599
 30
0.0
  0
SPLINE
  5
38f
100
AcDbEntity
  8
ink_ext_XXXXXX
 62
1
100
AcDbSpline
 70
8
 71
3
 72
8
 73
4
 74
0
 40
0
 40
0
 40
0
 40
0
 40
1
 40
1
 40
1
 40
1
 10
35.549199
 20
25.626599
 30
0.0
 10
35.677699
 20
24.481599
 30
0.0
 10
36.009399
 20
23.439499
 30
0.0
 10
36.504299
 20
22.560499
 30
0.0
  0
SPLINE
  5
390
100
AcDbEntity
  8
ink_ext_XXXXXX
 62
1
100
AcDbSpline
 70
8
 71
3
 72
8
 73
4
 74
0
 40
0
 40
0
 40
0
 40
0
 40
1
 40
1
 40
1
 40
1
 10
36.504299
 20
22.560499
 30
0.0
 10
36.835899
 20
22.317999
 30
0.0
 10
37.173399
 20
22.085199
 30
0.0
 10
37.510499
 20
21.865599
 30
0.0
  0
SPLINE
  5
391
100
AcDbEntity
  8
ink_ext_XXXXXX
 62
1
100
AcDbSpline
 70
8
 71
3
 72
8
 73
4
 74
0
 40
0
 40
0
 40
0
 40
0
 40
1
 40
1
 40
1
 40
1
 10
37.510499
 20
21.865599
 30
0.0
 10
40.207399
 20
24.638699
 30
0.0
 10
42.583199
 20
25.276999
 30
0.0
 10
44.510199
 20
24.959799
 30
0.0
  0
LWPOLYLINE
  5
392
100
AcDbEntity
  8
ink_ext_XXXXXX
 62
1
100
AcDbPolyline
 90
2
 70
0
 10
40.269899
 20
30.414799
 30
0.0
 10
40.149599
 20
30.383599
 30
0.0
  0
SPLINE
  5
393
100
AcDbEntity
  8
ink_ext_XXXXXX
 62
1
100
AcDbSpline
 70
8
 71
3
 72
8
 73
4
 74
0
 40
0
 40
0
 40
0
 40
0
 40
1
 40
1
 40
1
 40
1
 10
36.672299
 20
12.584000
 30
0.0
 10
35.783199
 20
14.287900
 30
0.0
 10
35.349199
 20
16.332400
 30
0.0
 10
35.479299
 20
18.029300
 30
0.0
  0
SPLINE
  5
394
100
AcDbEntity
  8
ink_ext_XXXXXX
 62
1
100
AcDbSpline
 70
8
 71
3
 72
8
 73
4
 74
0
 40
0
 40
0
 40
0
 40
0
 40
1
 40
1
 40
1
 40
1
 10
35.479299
 20
18.029300
 30
0.0
 10
34.582399
 20
18.941000
 30
0.0
 10
33.498799
 20
19.914800
 30
0.0
 10
32.242999
 20
21.106599
 30
0.0
  0
SPLINE
  5
395
100
AcDbEntity
  8
ink_ext_XXXXXX
 62
1
100
AcDbSpline
 70
8
 71
3
 72
8
 73
4
 74
0
 40
0
 40
0
 40
0
 40
0
 40
1
 40
1
 40
1
 40
1
 10
32.242999
 20
21.106599
 30
0.0
 10
30.724599
 20
19.858600
 30
0.0
 10
29.649199
 20
17.045300
 30
0.0
 10
30.279299
 20
14.905100
 30
0.0
  0
SPLINE
  5
396
100
AcDbEntity
  8
ink_ext_XXXXXX
 62
1
100
AcDbSpline
 70
8
 71
3
 72
8
 73
4
 74
0
 40
0
 40
0
 40
0
 40
0
 40
1
 40
1
 40
1
 40
1
 10
30.279299
 20
14.905100
 30
0.0
 10
30.932799
 20
12.699600
 30
0.0
 10
34.120699
 20
11.593800
 30
0.0
 10
36.672299
 20
12.584000
 30
0.0
  0
LWPOLYLINE
  5
397
100
AcDbEntity
  8
ink_ext_XXXXXX
 62
1
100
AcDbPolyline
 90
1
 70
1
 10
44.510199
 20
24.959799
 30
0.0
  0
SPLINE
  5
398
100
AcDbEntity
  8
ink_ext_XXXXXX
 62
1
100
AcDbSpline
 70
8
 71
3
 72
8
 73
4
 74
0
 40
0
 40
0
 40
0
 40
0
 40
1
 40
1
 40
1
 40
1
 10
37.964799
 20
10.732800
 30
0.0
 10
36.878099
 20
9.970700
 30
0.0
 10
35.718399
 20
9.690630
 30
0.0
 10
34.587499
 20
9.750780
 30
0.0
  0
SPLINE
  5
399
100
AcDbEntity
  8
ink_ext_XXXXXX
 62
1
100
AcDbSpline
 70
8
 71
3
 72
8
 73
4
 74
0
 40
0
 40
0
 40
0
 40
0
 40
1
 40
1
 40
1
 40
1
 10
34.587499
 20
9.750780
 30
0.0
 10
34.564799
 20
8.164450
 30
0.0
 10
35.333599
 20
6.707810
 30
0.0
 10
37.294899
 20
5.750780
 30
0.0
  0
SPLINE
  5
39a
100
AcDbEntity
  8
ink_ext_XXXXXX
 62
1
100
AcDbSpline
 70
8
 71
3
 72
8
 73
4
 74
0
 40
0
 40
0
 40
0
 40
0
 40
1
 40
1
 40
1
 40
1
 10
37.294899
 20
5.750780
 30
0.0
 10
39.337899
 20
4.753910
 30
0.0
 10
41.674599
 20
5.469920
 30
0.0
 10
42.762499
 20
6.183980
 30
0.0
  0
SPLINE
  5
39b
100
AcDbEntity
  8
ink_ext_XXXXXX
 62
1
100
AcDbSpline
 70
8
 71
3
 72
8
 73
4
 74
0
 40
0
 40
0
 40
0
 40
0
 40
1
 40
1
 40
1
 40
1
 10
42.762499
 20
6.183980
 30
0.0
 10
42.347999
 20
7.250390
 30
0.0
 10
42.193399
 20
8.339450
 30
0.0
 10
42.309799
 20
9.244530
 30
0.0
  0
SPLINE
  5
39c
100
AcDbEntity
  8
ink_ext_XXXXXX
 62
1
100
AcDbSpline
 70
8
 71
3
 72
8
 73
4
 74
0
 40
0
 40
0
 40
0
 40
0
 40
1
 40
1
 40
1
 40
1
 10
42.309799
 20
9.244530
 30
0.0
 10
41.031299
 20
9.103130
 30
0.0
 10
39.822999
 20
9.273050
 30
0.0
 10
38.880499
 20
9.933590
 30
0.0
  0
SPLINE
  5
39d
100
AcDbEntity
  8
ink_ext_XXXXXX
 62
1
100
AcDbSpline
 70
8
 71
3
 72
8
 73
4
 74
0
 40
0
 40
0
 40
0
 40
0
 40
1
 40
1
 40
1
 40
1
 10
38.880499
 20
9.933590
 30
0.0
 10
38.554299
 20
10.161300
 30
0.0
 10
38.249199
 20
10.430900
 30
0.0
 10
37.964799
 20
10.732800
 30
0.0
  0
LWPOLYLINE
  5
39e
100
AcDbEntity
  8
ink_ext_XXXXXX
 62
1
100
AcDbPolyline
 90
1
 70
1
 10
36.672299
 20
12.584000
 30
0.0
  0
SPLINE
  5
39f
100
AcDbEntity
  8
ink_ext_XXXXXX
 62
1
100
AcDbSpline
 70
8
 71
3
 72
8
 73
4
 74
0
 40
0
 40
0
 40
0
 40
0
 40
1
 40
1
 40
1
 40
1
 10
93.618798
 20
93.196898
 30
0.0
 10
96.116798
 20
89.509798
 30
0.0
 10
99.089498
 20
84.517998
 30
0.0
 10
99.089498
 20
84.517998
 30
0.0
  0
SPLINE
  5
3a0
100
AcDbEntity
  8
ink_ext_XXXXXX
 62
1
100
AcDbSpline
 70
8
 71
3
 72
8
 73
4
 74
0
 40
0
 40
0
 40
0
 40
0
 40
1
 40
1
 40
1
 40
1
 10
99.089498
 20
84.517998
 30
0.0
 10
99.089498
 20
86.776598
 30
0.0
 10
98.614498
 20
89.984798
 30
0.0
 10
98.255498
 20
90.343798
 30
0.0
  0
SPLINE
  5
3a1
100
AcDbEntity
  8
ink_ext_XXXXXX
 62
1
100
AcDbSpline
 70
8
 71
3
 72
8
 73
4
 74
0
 40
0
 40
0
 40
0
 40
0
 40
1
 40
1
 40
1
 40
1
 10
98.255498
 20
90.343798
 30
0.0
 10
97.900398
 20
90.698798
 30
0.0
 10
94.688298
 20
92.246898
 30
0.0
 10
93.618798
 20
93.196898
 30
0.0
  0
LWPOLYLINE
  5
3a2
100
AcDbEntity
  8
ink_ext_XXXXXX
 62
1
100
AcDbPolyline
 90
1
 70
1
 10
37.964799
 20
10.732800
 30
0.0
  0
SPLINE
  5
3a3
100
AcDbEntity
  8
ink_ext_XXXXXX
 62
1
100
AcDbSpline
 70
8
 71
3
 72
8
 73
4
 74
0
 40
0
 40
0
 40
0
 40
0
 40
1
 40
1
 40
1
 40
1
 10
100.754997
 20
83.089798
 30
0.0
 10
100.869997
 20
84.516798
 30
0.0
 10
100.156997
 20
88.203098
 30
0.0
 10
100.041997
 20
88.916798
 30
0.0
  0
SPLINE
  5
3a4
100
AcDbEntity
  8
ink_ext_XXXXXX
 62
1
100
AcDbSpline
 70
8
 71
3
 72
8
 73
4
 74
0
 40
0
 40
0
 40
0
 40
0
 40
1
 40
1
 40
1
 40
1
 10
100.041997
 20
88.916798
 30
0.0
 10
100.636997
 20
88.678898
 30
0.0
 10
102.776997
 20
87.727298
 30
0.0
 10
102.776997
 20
86.656998
 30
0.0
  0
SPLINE
  5
3a5
100
AcDbEntity
  8
ink_ext_XXXXXX
 62
1
100
AcDbSpline
 70
8
 71
3
 72
8
 73
4
 74
0
 40
0
 40
0
 40
0
 40
0
 40
1
 40
1
 40
1
 40
1
 10
102.776997
 20
86.656998
 30
0.0
 10
102.776997
 20
85.586698
 30
0.0
 10
102.300997
 20
81.900798
 30
0.0
 10
103.014997
 20
79.403098
 30
0.0
  0
SPLINE
  5
3a6
100
AcDbEntity
  8
ink_ext_XXXXXX
 62
1
100
AcDbSpline
 70
8
 71
3
 72
8
 73
4
 74
0
 40
0
 40
0
 40
0
 40
0
 40
1
 40
1
 40
1
 40
1
 10
103.014997
 20
79.403098
 30
0.0
 10
102.300997
 20
81.067998
 30
0.0
 10
100.754997
 20
83.089798
 30
0.0
 10
100.754997
 20
83.089798
 30
0.0
  0
LWPOLYLINE
  5
3a7
100
AcDbEntity
  8
ink_ext_XXXXXX
 62
1
100
AcDbPolyline
 90
1
 70
1
 10
93.618798
 20
93.196898
 30
0.0
  0
SPLINE
  5
3a8
100
AcDbEntity
  8
ink_ext_XXXXXX
 62
1
100
AcDbSpline
 70
8
 71
3
 72
8
 73
4
 74
0
 40
0
 40
0
 40
0
 40
0
 40
1
 40
1
 40
1
 40
1
 10
108.247997
 20
66.920698
 30
0.0
 10
107.414997
 20
71.319898
 30
0.0
 10
104.203997
 20
76.551998
 30
0.0
 10
103.966997
 20
77.384398
 30
0.0
  0
SPLINE
  5
3a9
100
AcDbEntity
  8
ink_ext_XXXXXX
 62
1
100
AcDbSpline
 70
8
 71
3
 72
8
 73
4
 74
0
 40
0
 40
0
 40
0
 40
0
 40
1
 40
1
 40
1
 40
1
 10
103.966997
 20
77.384398
 30
0.0
 10
103.607997
 20
79.881998
 30
0.0
 10
104.084997
 20
83.926198
 30
0.0
 10
104.084997
 20
85.946498
 30
0.0
  0
SPLINE
  5
3aa
100
AcDbEntity
  8
ink_ext_XXXXXX
 62
1
100
AcDbSpline
 70
8
 71
3
 72
8
 73
4
 74
0
 40
0
 40
0
 40
0
 40
0
 40
1
 40
1
 40
1
 40
1
 10
104.084997
 20
85.946498
 30
0.0
 10
105.871997
 20
85.232398
 30
0.0
 10
108.842997
 20
83.926198
 30
0.0
 10
109.790997
 20
80.833198
 30
0.0
  0
SPLINE
  5
3ab
100
AcDbEntity
  8
ink_ext_XXXXXX
 62
1
100
AcDbSpline
 70
8
 71
3
 72
8
 73
4
 74
0
 40
0
 40
0
 40
0
 40
0
 40
1
 40
1
 40
1
 40
1
 10
109.790997
 20
80.833198
 30
0.0
 10
110.622997
 20
77.384398
 30
0.0
 10
110.981997
 20
72.866798
 30
0.0
 10
108.247997
 20
66.920698
 30
0.0
  0
LWPOLYLINE
  5
3ac
100
AcDbEntity
  8
ink_ext_XXXXXX
 62
1
100
AcDbPolyline
 90
1
 70
1
 10
100.754997
 20
83.089798
 30
0.0
  0
SPLINE
  5
3ad
100
AcDbEntity
  8
ink_ext_XXXXXX
 62
1
100
AcDbSpline
 70
8
 71
3
 72
8
 73
4
 74
0
 40
0
 40
0
 40
0
 40
0
 40
1
 40
1
 40
1
 40
1
 10
108.717997
 20
64.300798
 30
0.0
 10
109.072997
 20
62.875398
 30
0.0
 10
108.956997
 20
57.998399
 30
0.0
 10
108.717997
 20
56.928499
 30
0.0
  0
SPLINE
  5
3ae
100
AcDbEntity
  8
ink_ext_XXXXXX
 62
1
100
AcDbSpline
 70
8
 71
3
 72
8
 73
4
 74
0
 40
0
 40
0
 40
0
 40
0
 40
1
 40
1
 40
1
 40
1
 10
108.717997
 20
56.928499
 30
0.0
 10
109.428997
 20
59.427299
 30
0.0
 10
115.969997
 20
64.062498
 30
0.0
 10
116.211997
 20
68.107798
 30
0.0
  0
SPLINE
  5
3af
100
AcDbEntity
  8
ink_ext_XXXXXX
 62
1
100
AcDbSpline
 70
8
 71
3
 72
8
 73
4
 74
0
 40
0
 40
0
 40
0
 40
0
 40
1
 40
1
 40
1
 40
1
 10
116.211997
 20
68.107798
 30
0.0
 10
115.613997
 20
71.910898
 30
0.0
 10
112.997997
 20
77.260498
 30
0.0
 10
111.333997
 20
79.283198
 30
0.0
  0
SPLINE
  5
3b0
100
AcDbEntity
  8
ink_ext_XXXXXX
 62
1
100
AcDbSpline
 70
8
 71
3
 72
8
 73
4
 74
0
 40
0
 40
0
 40
0
 40
0
 40
1
 40
1
 40
1
 40
1
 10
111.333997
 20
79.283198
 30
0.0
 10
112.286997
 20
74.289098
 30
0.0
 10
111.095997
 20
68.701198
 30
0.0
 10
108.717997
 20
64.300798
 30
0.0
  0
LWPOLYLINE
  5
3b1
100
AcDbEntity
  8
ink_ext_XXXXXX
 62
1
100
AcDbPolyline
 90
1
 70
1
 10
108.247997
 20
66.920698
 30
0.0
  0
SPLINE
  5
3b2
100
AcDbEntity
  8
ink_ext_XXXXXX
 62
1
100
AcDbSpline
 70
8
 71
3
 72
8
 73
4
 74
0
 40
0
 40
0
 40
0
 40
0
 40
1
 40
1
 40
1
 40
1
 10
109.076997
 20
55.031999
 30
0.0
 10
109.912997
 20
57.410499
 30
0.0
 10
115.857997
 20
61.212898
 30
0.0
 10
116.569997
 20
64.426198
 30
0.0
  0
SPLINE
  5
3b3
100
AcDbEntity
  8
ink_ext_XXXXXX
 62
1
100
AcDbSpline
 70
8
 71
3
 72
8
 73
4
 74
0
 40
0
 40
0
 40
0
 40
0
 40
1
 40
1
 40
1
 40
1
 10
116.569997
 20
64.426198
 30
0.0
 10
117.047997
 20
60.858598
 30
0.0
 10
117.162997
 20
51.941799
 30
0.0
 10
117.404997
 20
49.798399
 30
0.0
  0
SPLINE
  5
3b4
100
AcDbEntity
  8
ink_ext_XXXXXX
 62
1
100
AcDbSpline
 70
8
 71
3
 72
8
 73
4
 74
0
 40
0
 40
0
 40
0
 40
0
 40
1
 40
1
 40
1
 40
1
 10
117.404997
 20
49.798399
 30
0.0
 10
117.639997
 20
47.658199
 30
0.0
 10
116.569997
 20
45.637899
 30
0.0
 10
114.429997
 20
45.045299
 30
0.0
  0
SPLINE
  5
3b5
100
AcDbEntity
  8
ink_ext_XXXXXX
 62
1
100
AcDbSpline
 70
8
 71
3
 72
8
 73
4
 74
0
 40
0
 40
0
 40
0
 40
0
 40
1
 40
1
 40
1
 40
1
 10
114.429997
 20
45.045299
 30
0.0
 10
112.290997
 20
44.448799
 30
0.0
 10
109.423997
 20
44.460199
 30
0.0
 10
108.010997
 20
42.901599
 30
0.0
  0
SPLINE
  5
3b6
100
AcDbEntity
  8
ink_ext_XXXXXX
 62
1
100
AcDbSpline
 70
8
 71
3
 72
8
 73
4
 74
0
 40
0
 40
0
 40
0
 40
0
 40
1
 40
1
 40
1
 40
1
 10
108.010997
 20
42.901599
 30
0.0
 10
106.821997
 20
41.596899
 30
0.0
 10
106.344997
 20
41.239499
 30
0.0
 10
105.986997
 20
41.358199
 30
0.0
  0
SPLINE
  5
3b7
100
AcDbEntity
  8
ink_ext_XXXXXX
 62
1
100
AcDbSpline
 70
8
 71
3
 72
8
 73
4
 74
0
 40
0
 40
0
 40
0
 40
0
 40
1
 40
1
 40
1
 40
1
 10
105.986997
 20
41.358199
 30
0.0
 10
107.294997
 20
43.498399
 30
0.0
 10
108.364997
 20
50.036699
 30
0.0
 10
109.076997
 20
55.031999
 30
0.0
  0
LWPOLYLINE
  5
3b8
100
AcDbEntity
  8
ink_ext_XXXXXX
 62
1
100
AcDbPolyline
 90
1
 70
1
 10
108.717997
 20
64.300798
 30
0.0
  0
SPLINE
  5
3b9
100
AcDbEntity
  8
ink_ext_XXXXXX
 62
1
100
AcDbSpline
 70
8
 71
3
 72
8
 73
4
 74
0
 40
0
 40
0
 40
0
 40
0
 40
1
 40
1
 40
1
 40
1
 10
104.797997
 20
38.267999
 30
0.0
 10
106.463997
 20
39.453499
 30
0.0
 10
106.821997
 20
40.049999
 30
0.0
 10
109.912997
 20
41.716399
 30
0.0
  0
SPLINE
  5
3ba
100
AcDbEntity
  8
ink_ext_XXXXXX
 62
1
100
AcDbSpline
 70
8
 71
3
 72
8
 73
4
 74
0
 40
0
 40
0
 40
0
 40
0
 40
1
 40
1
 40
1
 40
1
 10
109.912997
 20
41.716399
 30
0.0
 10
113.002997
 20
43.378899
 30
0.0
 10
116.569997
 20
42.070299
 30
0.0
 10
117.639997
 20
44.926199
 30
0.0
  0
SPLINE
  5
3bb
100
AcDbEntity
  8
ink_ext_XXXXXX
 62
1
100
AcDbSpline
 70
8
 71
3
 72
8
 73
4
 74
0
 40
0
 40
0
 40
0
 40
0
 40
1
 40
1
 40
1
 40
1
 10
117.639997
 20
44.926199
 30
0.0
 10
116.688997
 20
41.716399
 30
0.0
 10
112.524997
 20
36.124599
 30
0.0
 10
111.220997
 20
35.412499
 30
0.0
  0
SPLINE
  5
3bc
100
AcDbEntity
  8
ink_ext_XXXXXX
 62
1
100
AcDbSpline
 70
8
 71
3
 72
8
 73
4
 74
0
 40
0
 40
0
 40
0
 40
0
 40
1
 40
1
 40
1
 40
1
 10
111.220997
 20
35.412499
 30
0.0
 10
109.912997
 20
34.700799
 30
0.0
 10
106.940997
 20
35.531999
 30
0.0
 10
103.373997
 20
33.630899
 30
0.0
  0
SPLINE
  5
3bd
100
AcDbEntity
  8
ink_ext_XXXXXX
 62
1
100
AcDbSpline
 70
8
 71
3
 72
8
 73
4
 74
0
 40
0
 40
0
 40
0
 40
0
 40
1
 40
1
 40
1
 40
1
 10
103.373997
 20
33.630899
 30
0.0
 10
99.806298
 20
31.725799
 30
0.0
 10
99.090598
 20
31.252299
 30
0.0
 10
98.378498
 20
31.252299
 30
0.0
  0
SPLINE
  5
3be
100
AcDbEntity
  8
ink_ext_XXXXXX
 62
1
100
AcDbSpline
 70
8
 71
3
 72
8
 73
4
 74
0
 40
0
 40
0
 40
0
 40
0
 40
1
 40
1
 40
1
 40
1
 10
98.378498
 20
31.252299
 30
0.0
 10
100.517997
 20
33.392199
 30
0.0
 10
102.419997
 20
35.054699
 30
0.0
 10
104.797997
 20
38.267999
 30
0.0
  0
LWPOLYLINE
  5
3bf
100
AcDbEntity
  8
ink_ext_XXXXXX
 62
1
100
AcDbPolyline
 90
1
 70
1
 10
109.076997
 20
55.031999
 30
0.0
  0
SPLINE
  5
3c0
100
AcDbEntity
  8
ink_ext_XXXXXX
 62
1
100
AcDbSpline
 70
8
 71
3
 72
8
 73
4
 74
0
 40
0
 40
0
 40
0
 40
0
 40
1
 40
1
 40
1
 40
1
 10
92.547298
 20
25.894899
 30
0.0
 10
94.806598
 20
27.203499
 30
0.0
 10
95.282398
 20
28.154699
 30
0.0
 10
96.830498
 20
28.869899
 30
0.0
  0
SPLINE
  5
3c1
100
AcDbEntity
  8
ink_ext_XXXXXX
 62
1
100
AcDbSpline
 70
8
 71
3
 72
8
 73
4
 74
0
 40
0
 40
0
 40
0
 40
0
 40
1
 40
1
 40
1
 40
1
 10
96.830498
 20
28.869899
 30
0.0
 10
98.374998
 20
29.580899
 30
0.0
 10
101.820997
 20
31.840599
 30
0.0
 10
103.844997
 20
32.437899
 30
0.0
  0
SPLINE
  5
3c2
100
AcDbEntity
  8
ink_ext_XXXXXX
 62
1
100
AcDbSpline
 70
8
 71
3
 72
8
 73
4
 74
0
 40
0
 40
0
 40
0
 40
0
 40
1
 40
1
 40
1
 40
1
 10
103.844997
 20
32.437899
 30
0.0
 10
105.868997
 20
33.031299
 30
0.0
 10
109.192997
 20
33.624599
 30
0.0
 10
110.383997
 20
33.982399
 30
0.0
  0
SPLINE
  5
3c3
100
AcDbEntity
  8
ink_ext_XXXXXX
 62
1
100
AcDbSpline
 70
8
 71
3
 72
8
 73
4
 74
0
 40
0
 40
0
 40
0
 40
0
 40
1
 40
1
 40
1
 40
1
 10
110.383997
 20
33.982399
 30
0.0
 10
108.603997
 20
31.487099
 30
0.0
 10
106.222997
 20
29.227299
 30
0.0
 10
102.653997
 20
27.918799
 30
0.0
  0
SPLINE
  5
3c4
100
AcDbEntity
  8
ink_ext_XXXXXX
 62
1
100
AcDbSpline
 70
8
 71
3
 72
8
 73
4
 74
0
 40
0
 40
0
 40
0
 40
0
 40
1
 40
1
 40
1
 40
1
 10
102.653997
 20
27.918799
 30
0.0
 10
99.086298
 20
26.610199
 30
0.0
 10
98.017198
 20
26.728099
 30
0.0
 10
96.233198
 20
26.610199
 30
0.0
  0
SPLINE
  5
3c5
100
AcDbEntity
  8
ink_ext_XXXXXX
 62
1
100
AcDbSpline
 70
8
 71
3
 72
8
 73
4
 74
0
 40
0
 40
0
 40
0
 40
0
 40
1
 40
1
 40
1
 40
1
 10
96.233198
 20
26.610199
 30
0.0
 10
94.449198
 20
26.492199
 30
0.0
 10
92.547298
 20
25.894899
 30
0.0
 10
92.547298
 20
25.894899
 30
0.0
  0
LWPOLYLINE
  5
3c6
100
AcDbEntity
  8
ink_ext_XXXXXX
 62
1
100
AcDbPolyline
 90
1
 70
1
 10
104.797997
 20
38.267999
 30
0.0
  0
SPLINE
  5
3c7
100
AcDbEntity
  8
ink_ext_XXXXXX
 62
1
100
AcDbSpline
 70
8
 71
3
 72
8
 73
4
 74
0
 40
0
 40
0
 40
0
 40
0
 40
1
 40
1
 40
1
 40
1
 10
86.726198
 20
25.543399
 30
0.0
 10
89.695298
 20
26.255099
 30
0.0
 10
93.142998
 20
28.872299
 30
0.0
 10
93.620698
 20
29.702699
 30
0.0
  0
SPLINE
  5
3c8
100
AcDbEntity
  8
ink_ext_XXXXXX
 62
1
100
AcDbSpline
 70
8
 71
3
 72
8
 73
4
 74
0
 40
0
 40
0
 40
0
 40
0
 40
1
 40
1
 40
1
 40
1
 10
93.620698
 20
29.702699
 30
0.0
 10
94.332398
 20
32.912899
 30
0.0
 10
94.573398
 20
36.719899
 30
0.0
 10
94.332398
 20
37.909799
 30
0.0
  0
SPLINE
  5
3c9
100
AcDbEntity
  8
ink_ext_XXXXXX
 62
1
100
AcDbSpline
 70
8
 71
3
 72
8
 73
4
 74
0
 40
0
 40
0
 40
0
 40
0
 40
1
 40
1
 40
1
 40
1
 10
94.332398
 20
37.909799
 30
0.0
 10
94.095698
 20
39.096099
 30
0.0
 10
92.431298
 20
40.048799
 30
0.0
 10
92.074998
 20
40.641799
 30
0.0
  0
SPLINE
  5
3ca
100
AcDbEntity
  8
ink_ext_XXXXXX
 62
1
100
AcDbSpline
 70
8
 71
3
 72
8
 73
4
 74
0
 40
0
 40
0
 40
0
 40
0
 40
1
 40
1
 40
1
 40
1
 10
92.074998
 20
40.641799
 30
0.0
 10
91.596898
 20
39.214499
 30
0.0
 10
89.695298
 20
38.146899
 30
0.0
 10
89.580498
 20
36.122999
 30
0.0
  0
SPLINE
  5
3cb
100
AcDbEntity
  8
ink_ext_XXXXXX
 62
1
100
AcDbSpline
 70
8
 71
3
 72
8
 73
4
 74
0
 40
0
 40
0
 40
0
 40
0
 40
1
 40
1
 40
1
 40
1
 10
89.580498
 20
36.122999
 30
0.0
 10
89.461698
 20
34.102699
 30
0.0
 10
89.461698
 20
34.102699
 30
0.0
 10
89.580498
 20
32.556999
 30
0.0
  0
SPLINE
  5
3cc
100
AcDbEntity
  8
ink_ext_XXXXXX
 62
1
100
AcDbSpline
 70
8
 71
3
 72
8
 73
4
 74
0
 40
0
 40
0
 40
0
 40
0
 40
1
 40
1
 40
1
 40
1
 10
89.580498
 20
32.556999
 30
0.0
 10
89.695298
 20
31.010899
 30
0.0
 10
89.461698
 20
27.326599
 30
0.0
 10
86.726198
 20
25.543399
 30
0.0
  0
LWPOLYLINE
  5
3cd
100
AcDbEntity
  8
ink_ext_XXXXXX
 62
1
100
AcDbPolyline
 90
1
 70
1
 10
92.547298
 20
25.894899
 30
0.0
  0
SPLINE
  5
3ce
100
AcDbEntity
  8
ink_ext_XXXXXX
 62
1
100
AcDbSpline
 70
8
 71
3
 72
8
 73
4
 74
0
 40
0
 40
0
 40
0
 40
0
 40
1
 40
1
 40
1
 40
1
 10
96.234398
 20
31.605099
 30
0.0
 10
96.234398
 20
34.697999
 30
0.0
 10
96.475398
 20
37.908199
 30
0.0
 10
95.165598
 20
39.334399
 30
0.0
  0
SPLINE
  5
3cf
100
AcDbEntity
  8
ink_ext_XXXXXX
 62
1
100
AcDbSpline
 70
8
 71
3
 72
8
 73
4
 74
0
 40
0
 40
0
 40
0
 40
0
 40
1
 40
1
 40
1
 40
1
 10
95.165598
 20
39.334399
 30
0.0
 10
93.859798
 20
40.760499
 30
0.0
 10
93.144898
 20
42.306999
 30
0.0
 10
93.144898
 20
42.306999
 30
0.0
  0
SPLINE
  5
3d0
100
AcDbEntity
  8
ink_ext_XXXXXX
 62
1
100
AcDbSpline
 70
8
 71
3
 72
8
 73
4
 74
0
 40
0
 40
0
 40
0
 40
0
 40
1
 40
1
 40
1
 40
1
 10
93.144898
 20
42.306999
 30
0.0
 10
94.687898
 20
44.802299
 30
0.0
 10
95.522998
 20
47.300799
 30
0.0
 10
95.760198
 20
49.084399
 30
0.0
  0
SPLINE
  5
3d1
100
AcDbEntity
  8
ink_ext_XXXXXX
 62
1
100
AcDbSpline
 70
8
 71
3
 72
8
 73
4
 74
0
 40
0
 40
0
 40
0
 40
0
 40
1
 40
1
 40
1
 40
1
 10
95.760198
 20
49.084399
 30
0.0
 10
95.997298
 20
50.868399
 30
0.0
 10
95.876998
 20
52.768799
 30
0.0
 10
95.876998
 20
52.768799
 30
0.0
  0
SPLINE
  5
3d2
100
AcDbEntity
  8
ink_ext_XXXXXX
 62
1
100
AcDbSpline
 70
8
 71
3
 72
8
 73
4
 74
0
 40
0
 40
0
 40
0
 40
0
 40
1
 40
1
 40
1
 40
1
 10
95.876998
 20
52.768799
 30
0.0
 10
98.021898
 20
51.937099
 30
0.0
 10
103.726997
 20
48.253099
 30
0.0
 10
103.248997
 20
41.592199
 30
0.0
  0
SPLINE
  5
3d3
100
AcDbEntity
  8
ink_ext_XXXXXX
 62
1
100
AcDbSpline
 70
8
 71
3
 72
8
 73
4
 74
0
 40
0
 40
0
 40
0
 40
0
 40
1
 40
1
 40
1
 40
1
 10
103.248997
 20
41.592199
 30
0.0
 10
102.416997
 20
38.976999
 30
0.0
 10
99.210898
 20
34.460899
 30
0.0
 10
96.234398
 20
31.605099
 30
0.0
  0
LWPOLYLINE
  5
3d4
100
AcDbEntity
  8
ink_ext_XXXXXX
 62
1
100
AcDbPolyline
 90
1
 70
1
 10
86.726198
 20
25.543399
 30
0.0
  0
SPLINE
  5
3d5
100
AcDbEntity
  8
ink_ext_XXXXXX
 62
1
100
AcDbSpline
 70
8
 71
3
 72
8
 73
4
 74
0
 40
0
 40
0
 40
0
 40
0
 40
1
 40
1
 40
1
 40
1
 10
104.678997
 20
45.875399
 30
0.0
 10
106.224997
 20
48.609799
 30
0.0
 10
107.056997
 20
55.504299
 30
0.0
 10
106.937997
 20
57.525399
 30
0.0
  0
SPLINE
  5
3d6
100
AcDbEntity
  8
ink_ext_XXXXXX
 62
1
100
AcDbSpline
 70
8
 71
3
 72
8
 73
4
 74
0
 40
0
 40
0
 40
0
 40
0
 40
1
 40
1
 40
1
 40
1
 10
106.937997
 20
57.525399
 30
0.0
 10
103.846997
 20
61.571098
 30
0.0
 10
99.444898
 20
66.564098
 30
0.0
 10
93.500798
 20
67.871498
 30
0.0
  0
SPLINE
  5
3d7
100
AcDbEntity
  8
ink_ext_XXXXXX
 62
1
100
AcDbSpline
 70
8
 71
3
 72
8
 73
4
 74
0
 40
0
 40
0
 40
0
 40
0
 40
1
 40
1
 40
1
 40
1
 10
93.500798
 20
67.871498
 30
0.0
 10
93.861298
 20
65.374998
 30
0.0
 10
94.808998
 20
63.354298
 30
0.0
 10
95.406998
 20
61.571098
 30
0.0
  0
SPLINE
  5
3d8
100
AcDbEntity
  8
ink_ext_XXXXXX
 62
1
100
AcDbSpline
 70
8
 71
3
 72
8
 73
4
 74
0
 40
0
 40
0
 40
0
 40
0
 40
1
 40
1
 40
1
 40
1
 10
95.406998
 20
61.571098
 30
0.0
 10
95.997298
 20
59.787899
 30
0.0
 10
95.640598
 20
54.553499
 30
0.0
 10
95.640598
 20
54.553499
 30
0.0
  0
SPLINE
  5
3d9
100
AcDbEntity
  8
ink_ext_XXXXXX
 62
1
100
AcDbSpline
 70
8
 71
3
 72
8
 73
4
 74
0
 40
0
 40
0
 40
0
 40
0
 40
1
 40
1
 40
1
 40
1
 10
95.640598
 20
54.553499
 30
0.0
 10
99.326198
 20
53.483599
 30
0.0
 10
102.895997
 20
50.035899
 30
0.0
 10
104.678997
 20
45.875399
 30
0.0
  0
LWPOLYLINE
  5
3da
100
AcDbEntity
  8
ink_ext_XXXXXX
 62
1
100
AcDbPolyline
 90
1
 70
1
 10
96.234398
 20
31.605099
 30
0.0
  0
SPLINE
  5
3db
100
AcDbEntity
  8
ink_ext_XXXXXX
 62
1
100
AcDbSpline
 70
8
 71
3
 72
8
 73
4
 74
0
 40
0
 40
0
 40
0
 40
0
 40
1
 40
1
 40
1
 40
1
 10
106.698997
 20
60.856598
 30
0.0
 10
105.034997
 20
63.113298
 30
0.0
 10
99.446498
 20
68.348798
 30
0.0
 10
93.383198
 20
68.940998
 30
0.0
  0
SPLINE
  5
3dc
100
AcDbEntity
  8
ink_ext_XXXXXX
 62
1
100
AcDbSpline
 70
8
 71
3
 72
8
 73
4
 74
0
 40
0
 40
0
 40
0
 40
0
 40
1
 40
1
 40
1
 40
1
 10
93.383198
 20
68.940998
 30
0.0
 10
92.908598
 20
70.369898
 30
0.0
 10
92.194098
 20
72.508598
 30
0.0
 10
90.530098
 20
74.172698
 30
0.0
  0
SPLINE
  5
3dd
100
AcDbEntity
  8
ink_ext_XXXXXX
 62
1
100
AcDbSpline
 70
8
 71
3
 72
8
 73
4
 74
0
 40
0
 40
0
 40
0
 40
0
 40
1
 40
1
 40
1
 40
1
 10
90.530098
 20
74.172698
 30
0.0
 10
88.862098
 20
75.836298
 30
0.0
 10
89.458598
 20
76.432798
 30
0.0
 10
88.505098
 20
77.382798
 30
0.0
  0
SPLINE
  5
3de
100
AcDbEntity
  8
ink_ext_XXXXXX
 62
1
100
AcDbSpline
 70
8
 71
3
 72
8
 73
4
 74
0
 40
0
 40
0
 40
0
 40
0
 40
1
 40
1
 40
1
 40
1
 10
88.505098
 20
77.382798
 30
0.0
 10
87.559398
 20
78.336298
 30
0.0
 10
85.655898
 20
80.714498
 30
0.0
 10
85.655898
 20
82.496498
 30
0.0
  0
SPLINE
  5
3df
100
AcDbEntity
  8
ink_ext_XXXXXX
 62
1
100
AcDbSpline
 70
8
 71
3
 72
8
 73
4
 74
0
 40
0
 40
0
 40
0
 40
0
 40
1
 40
1
 40
1
 40
1
 10
85.655898
 20
82.496498
 30
0.0
 10
88.983998
 20
81.664498
 30
0.0
 10
101.467997
 20
76.311298
 30
0.0
 10
105.627997
 20
69.655498
 30
0.0
  0
SPLINE
  5
3e0
100
AcDbEntity
  8
ink_ext_XXXXXX
 62
1
100
AcDbSpline
 70
8
 71
3
 72
8
 73
4
 74
0
 40
0
 40
0
 40
0
 40
0
 40
1
 40
1
 40
1
 40
1
 10
105.627997
 20
69.655498
 30
0.0
 10
106.698997
 20
66.919898
 30
0.0
 10
106.698997
 20
60.856598
 30
0.0
 10
106.698997
 20
60.856598
 30
0.0
  0
LWPOLYLINE
  5
3e1
100
AcDbEntity
  8
ink_ext_XXXXXX
 62
1
100
AcDbPolyline
 90
1
 70
1
 10
104.678997
 20
45.875399
 30
0.0
  0
SPLINE
  5
3e2
100
AcDbEntity
  8
ink_ext_XXXXXX
 62
1
100
AcDbSpline
 70
8
 71
3
 72
8
 73
4
 74
0
 40
0
 40
0
 40
0
 40
0
 40
1
 40
1
 40
1
 40
1
 10
103.488997
 20
74.766798
 30
0.0
 10
100.871997
 20
77.383598
 30
0.0
 10
93.976198
 20
82.494098
 30
0.0
 10
85.059798
 20
83.564098
 30
0.0
  0
SPLINE
  5
3e3
100
AcDbEntity
  8
ink_ext_XXXXXX
 62
1
100
AcDbSpline
 70
8
 71
3
 72
8
 73
4
 74
0
 40
0
 40
0
 40
0
 40
0
 40
1
 40
1
 40
1
 40
1
 10
85.059798
 20
83.564098
 30
0.0
 10
83.631998
 20
84.518398
 30
0.0
 10
84.109398
 20
85.230498
 30
0.0
 10
83.990198
 20
86.419098
 30
0.0
  0
SPLINE
  5
3e4
100
AcDbEntity
  8
ink_ext_XXXXXX
 62
1
100
AcDbSpline
 70
8
 71
3
 72
8
 73
4
 74
0
 40
0
 40
0
 40
0
 40
0
 40
1
 40
1
 40
1
 40
1
 10
83.990198
 20
86.419098
 30
0.0
 10
83.870698
 20
87.608598
 30
0.0
 10
83.512898
 20
91.056598
 30
0.0
 10
83.512898
 20
91.056598
 30
0.0
  0
SPLINE
  5
3e5
100
AcDbEntity
  8
ink_ext_XXXXXX
 62
1
100
AcDbSpline
 70
8
 71
3
 72
8
 73
4
 74
0
 40
0
 40
0
 40
0
 40
0
 40
1
 40
1
 40
1
 40
1
 10
83.512898
 20
91.056598
 30
0.0
 10
86.603098
 20
90.344498
 30
0.0
 10
91.005498
 20
88.558998
 30
0.0
 10
93.025798
 20
86.419098
 30
0.0
  0
SPLINE
  5
3e6
100
AcDbEntity
  8
ink_ext_XXXXXX
 62
1
100
AcDbSpline
 70
8
 71
3
 72
8
 73
4
 74
0
 40
0
 40
0
 40
0
 40
0
 40
1
 40
1
 40
1
 40
1
 10
93.025798
 20
86.419098
 30
0.0
 10
95.046098
 20
84.279698
 30
0.0
 10
97.066398
 20
83.564098
 30
0.0
 10
98.136298
 20
82.613698
 30
0.0
  0
SPLINE
  5
3e7
100
AcDbEntity
  8
ink_ext_XXXXXX
 62
1
100
AcDbSpline
 70
8
 71
3
 72
8
 73
4
 74
0
 40
0
 40
0
 40
0
 40
0
 40
1
 40
1
 40
1
 40
1
 10
98.136298
 20
82.613698
 30
0.0
 10
99.210198
 20
81.662898
 30
0.0
 10
102.892997
 20
76.667998
 30
0.0
 10
103.488997
 20
74.766798
 30
0.0
  0
LWPOLYLINE
  5
3e8
100
AcDbEntity
  8
ink_ext_XXXXXX
 62
1
100
AcDbPolyline
 90
1
 70
1
 10
106.698997
 20
60.856598
 30
0.0
  0
SPLINE
  5
3e9
100
AcDbEntity
  8
ink_ext_XXXXXX
 62
1
100
AcDbSpline
 70
8
 71
3
 72
8
 73
4
 74
0
 40
0
 40
0
 40
0
 40
0
 40
1
 40
1
 40
1
 40
1
 10
96.233598
 20
85.706998
 30
0.0
 10
95.165598
 20
86.537098
 30
0.0
 10
94.806998
 20
87.371098
 30
0.0
 10
93.026198
 20
88.914498
 30
0.0
  0
SPLINE
  5
3ea
100
AcDbEntity
  8
ink_ext_XXXXXX
 62
1
100
AcDbSpline
 70
8
 71
3
 72
8
 73
4
 74
0
 40
0
 40
0
 40
0
 40
0
 40
1
 40
1
 40
1
 40
1
 10
93.026198
 20
88.914498
 30
0.0
 10
91.240998
 20
90.461698
 30
0.0
 10
85.651998
 20
91.767598
 30
0.0
 10
84.346498
 20
92.484798
 30
0.0
  0
SPLINE
  5
3eb
100
AcDbEntity
  8
ink_ext_XXXXXX
 62
1
100
AcDbSpline
 70
8
 71
3
 72
8
 73
4
 74
0
 40
0
 40
0
 40
0
 40
0
 40
1
 40
1
 40
1
 40
1
 10
84.346498
 20
92.484798
 30
0.0
 10
85.176598
 20
94.028098
 30
0.0
 10
87.078498
 20
98.190598
 30
0.0
 10
88.267198
 20
99.616798
 30
0.0
  0
SPLINE
  5
3ec
100
AcDbEntity
  8
ink_ext_XXXXXX
 62
1
100
AcDbSpline
 70
8
 71
3
 72
8
 73
4
 74
0
 40
0
 40
0
 40
0
 40
0
 40
1
 40
1
 40
1
 40
1
 10
88.267198
 20
99.616798
 30
0.0
 10
88.863698
 20
97.477298
 30
0.0
 10
89.814498
 20
95.337498
 30
0.0
 10
91.361698
 20
92.839098
 30
0.0
  0
SPLINE
  5
3ed
100
AcDbEntity
  8
ink_ext_XXXXXX
 62
1
100
AcDbSpline
 70
8
 71
3
 72
8
 73
4
 74
0
 40
0
 40
0
 40
0
 40
0
 40
1
 40
1
 40
1
 40
1
 10
91.361698
 20
92.839098
 30
0.0
 10
92.905098
 20
90.340998
 30
0.0
 10
95.282398
 20
87.608998
 30
0.0
 10
96.233598
 20
85.706998
 30
0.0
  0
LWPOLYLINE
  5
3ee
100
AcDbEntity
  8
ink_ext_XXXXXX
 62
1
100
AcDbPolyline
 90
1
 70
1
 10
103.488997
 20
74.766798
 30
0.0
  0
SPLINE
  5
3ef
100
AcDbEntity
  8
ink_ext_XXXXXX
 62
1
100
AcDbSpline
 70
8
 71
3
 72
8
 73
4
 74
0
 40
0
 40
0
 40
0
 40
0
 40
1
 40
1
 40
1
 40
1
 10
90.174998
 20
104.969997
 30
0.0
 10
89.224198
 20
102.828997
 30
0.0
 10
86.961698
 20
98.669098
 30
0.0
 10
85.535898
 20
96.885898
 30
0.0
  0
SPLINE
  5
3f0
100
AcDbEntity
  8
ink_ext_XXXXXX
 62
1
100
AcDbSpline
 70
8
 71
3
 72
8
 73
4
 74
0
 40
0
 40
0
 40
0
 40
0
 40
1
 40
1
 40
1
 40
1
 10
85.535898
 20
96.885898
 30
0.0
 10
84.109798
 20
95.102698
 30
0.0
 10
83.277298
 20
94.980498
 30
0.0
 10
82.919498
 20
93.672698
 30
0.0
  0
SPLINE
  5
3f1
100
AcDbEntity
  8
ink_ext_XXXXXX
 62
1
100
AcDbSpline
 70
8
 71
3
 72
8
 73
4
 74
0
 40
0
 40
0
 40
0
 40
0
 40
1
 40
1
 40
1
 40
1
 10
82.919498
 20
93.672698
 30
0.0
 10
82.566398
 20
92.364498
 30
0.0
 10
81.733598
 20
87.847298
 30
0.0
 10
82.326598
 20
84.995298
 30
0.0
  0
SPLINE
  5
3f2
100
AcDbEntity
  8
ink_ext_XXXXXX
 62
1
100
AcDbSpline
 70
8
 71
3
 72
8
 73
4
 74
0
 40
0
 40
0
 40
0
 40
0
 40
1
 40
1
 40
1
 40
1
 10
82.326598
 20
84.995298
 30
0.0
 10
82.919498
 20
82.139498
 30
0.0
 10
86.010898
 20
78.215198
 30
0.0
 10
88.509398
 20
74.888298
 30
0.0
  0
SPLINE
  5
3f3
100
AcDbEntity
  8
ink_ext_XXXXXX
 62
1
100
AcDbSpline
 70
8
 71
3
 72
8
 73
4
 74
0
 40
0
 40
0
 40
0
 40
0
 40
1
 40
1
 40
1
 40
1
 10
88.509398
 20
74.888298
 30
0.0
 10
91.007798
 20
71.557398
 30
0.0
 10
93.383998
 20
65.613698
 30
0.0
 10
94.099198
 20
59.666399
 30
0.0
  0
SPLINE
  5
3f4
100
AcDbEntity
  8
ink_ext_XXXXXX
 62
1
100
AcDbSpline
 70
8
 71
3
 72
8
 73
4
 74
0
 40
0
 40
0
 40
0
 40
0
 40
1
 40
1
 40
1
 40
1
 10
94.099198
 20
59.666399
 30
0.0
 10
94.810198
 20
53.723399
 30
0.0
 10
94.452298
 20
49.084399
 30
0.0
 10
92.672998
 20
44.806599
 30
0.0
  0
SPLINE
  5
3f5
100
AcDbEntity
  8
ink_ext_XXXXXX
 62
1
100
AcDbSpline
 70
8
 71
3
 72
8
 73
4
 74
0
 40
0
 40
0
 40
0
 40
0
 40
1
 40
1
 40
1
 40
1
 10
92.672998
 20
44.806599
 30
0.0
 10
90.885898
 20
40.524999
 30
0.0
 10
88.151998
 20
39.334799
 30
0.0
 10
87.916398
 20
37.076199
 30
0.0
  0
SPLINE
  5
3f6
100
AcDbEntity
  8
ink_ext_XXXXXX
 62
1
100
AcDbSpline
 70
8
 71
3
 72
8
 73
4
 74
0
 40
0
 40
0
 40
0
 40
0
 40
1
 40
1
 40
1
 40
1
 10
87.916398
 20
37.076199
 30
0.0
 10
87.676598
 20
34.817599
 30
0.0
 10
88.627298
 20
34.102299
 30
0.0
 10
88.509398
 20
32.676599
 30
0.0
  0
SPLINE
  5
3f7
100
AcDbEntity
  8
ink_ext_XXXXXX
 62
1
100
AcDbSpline
 70
8
 71
3
 72
8
 73
4
 74
0
 40
0
 40
0
 40
0
 40
0
 40
1
 40
1
 40
1
 40
1
 10
88.509398
 20
32.676599
 30
0.0
 10
88.391398
 20
31.250399
 30
0.0
 10
87.436698
 20
29.702699
 30
0.0
 10
87.436698
 20
29.702699
 30
0.0
  0
SPLINE
  5
3f8
100
AcDbEntity
  8
ink_ext_XXXXXX
 62
1
100
AcDbSpline
 70
8
 71
3
 72
8
 73
4
 74
0
 40
0
 40
0
 40
0
 40
0
 40
1
 40
1
 40
1
 40
1
 10
87.436698
 20
29.702699
 30
0.0
 10
86.843798
 20
32.794099
 30
0.0
 10
86.250798
 20
35.649999
 30
0.0
 10
86.128898
 20
39.216799
 30
0.0
  0
SPLINE
  5
3f9
100
AcDbEntity
  8
ink_ext_XXXXXX
 62
1
100
AcDbSpline
 70
8
 71
3
 72
8
 73
4
 74
0
 40
0
 40
0
 40
0
 40
0
 40
1
 40
1
 40
1
 40
1
 10
86.128898
 20
39.216799
 30
0.0
 10
86.010898
 20
42.783599
 30
0.0
 10
86.128898
 20
47.775799
 30
0.0
 10
88.749198
 20
51.822299
 30
0.0
  0
SPLINE
  5
3fa
100
AcDbEntity
  8
ink_ext_XXXXXX
 62
1
100
AcDbSpline
 70
8
 71
3
 72
8
 73
4
 74
0
 40
0
 40
0
 40
0
 40
0
 40
1
 40
1
 40
1
 40
1
 10
88.749198
 20
51.822299
 30
0.0
 10
91.360898
 20
55.864499
 30
0.0
 10
91.243398
 20
60.263698
 30
0.0
 10
90.767998
 20
64.065998
 30
0.0
  0
SPLINE
  5
3fb
100
AcDbEntity
  8
ink_ext_XXXXXX
 62
1
100
AcDbSpline
 70
8
 71
3
 72
8
 73
4
 74
0
 40
0
 40
0
 40
0
 40
0
 40
1
 40
1
 40
1
 40
1
 10
90.767998
 20
64.065998
 30
0.0
 10
90.292598
 20
67.872698
 30
0.0
 10
88.627298
 20
70.371098
 30
0.0
 10
86.368798
 20
73.105098
 30
0.0
  0
SPLINE
  5
3fc
100
AcDbEntity
  8
ink_ext_XXXXXX
 62
1
100
AcDbSpline
 70
8
 71
3
 72
8
 73
4
 74
0
 40
0
 40
0
 40
0
 40
0
 40
1
 40
1
 40
1
 40
1
 10
86.368798
 20
73.105098
 30
0.0
 10
84.109798
 20
75.839098
 30
0.0
 10
81.733598
 20
79.523398
 30
0.0
 10
81.376198
 20
82.854298
 30
0.0
  0
SPLINE
  5
3fd
100
AcDbEntity
  8
ink_ext_XXXXXX
 62
1
100
AcDbSpline
 70
8
 71
3
 72
8
 73
4
 74
0
 40
0
 40
0
 40
0
 40
0
 40
1
 40
1
 40
1
 40
1
 10
81.376198
 20
82.854298
 30
0.0
 10
81.018398
 20
86.181598
 30
0.0
 10
80.543398
 20
90.581298
 30
0.0
 10
81.493798
 20
93.197298
 30
0.0
  0
SPLINE
  5
3fe
100
AcDbEntity
  8
ink_ext_XXXXXX
 62
1
100
AcDbSpline
 70
8
 71
3
 72
8
 73
4
 74
0
 40
0
 40
0
 40
0
 40
0
 40
1
 40
1
 40
1
 40
1
 10
81.493798
 20
93.197298
 30
0.0
 10
82.444498
 20
95.813298
 30
0.0
 10
85.299998
 20
97.361298
 30
0.0
 10
86.368798
 20
99.380098
 30
0.0
  0
SPLINE
  5
3ff
100
AcDbEntity
  8
ink_ext_XXXXXX
 62
1
100
AcDbSpline
 70
8
 71
3
 72
8
 73
4
 74
0
 40
0
 40
0
 40
0
 40
0
 40
1
 40
1
 40
1
 40
1
 10
86.368798
 20
99.380098
 30
0.0
 10
87.436698
 20
101.402997
 30
0.0
 10
90.174998
 20
104.969997
 30
0.0
 10
90.174998
 20
104.969997
 30
0.0
  0
LWPOLYLINE
  5
400
100
AcDbEntity
  8
ink_ext_XXXXXX
 62
1
100
AcDbPolyline
 90
1
 70
1
 10
96.233598
 20
85.706998
 30
0.0
  0
SPLINE
  5
401
100
AcDbEntity
  8
ink_ext_XXXXXX
 62
1
100
AcDbSpline
 70
8
 71
3
 72
8
 73
4
 74
0
 40
0
 40
0
 40
0
 40
0
 40
1
 40
1
 40
1
 40
1
 10
25.606999
 20
93.196898
 30
0.0
 10
23.109799
 20
89.509798
 30
0.0
 10
20.140999
 20
84.517998
 30
0.0
 10
20.140999
 20
84.517998
 30
0.0
  0
SPLINE
  5
402
100
AcDbEntity
  8
ink_ext_XXXXXX
 62
1
100
AcDbSpline
 70
8
 71
3
 72
8
 73
4
 74
0
 40
0
 40
0
 40
0
 40
0
 40
1
 40
1
 40
1
 40
1
 10
20.140999
 20
84.517998
 30
0.0
 10
20.140999
 20
86.776598
 30
0.0
 10
20.611699
 20
89.984798
 30
0.0
 10
20.970699
 20
90.343798
 30
0.0
  0
SPLINE
  5
403
100
AcDbEntity
  8
ink_ext_XXXXXX
 62
1
100
AcDbSpline
 70
8
 71
3
 72
8
 73
4
 74
0
 40
0
 40
0
 40
0
 40
0
 40
1
 40
1
 40
1
 40
1
 10
20.970699
 20
90.343798
 30
0.0
 10
21.330099
 20
90.698798
 30
0.0
 10
24.537899
 20
92.246898
 30
0.0
 10
25.606999
 20
93.196898
 30
0.0
  0
LWPOLYLINE
  5
404
100
AcDbEntity
  8
ink_ext_XXXXXX
 62
1
100
AcDbPolyline
 90
1
 70
1
 10
90.174998
 20
104.969997
 30
0.0
  0
SPLINE
  5
405
100
AcDbEntity
  8
ink_ext_XXXXXX
 62
1
100
AcDbSpline
 70
8
 71
3
 72
8
 73
4
 74
0
 40
0
 40
0
 40
0
 40
0
 40
1
 40
1
 40
1
 40
1
 10
18.473800
 20
83.089798
 30
0.0
 10
18.354700
 20
84.516798
 30
0.0
 10
19.068400
 20
88.203098
 30
0.0
 10
19.187100
 20
88.916798
 30
0.0
  0
SPLINE
  5
406
100
AcDbEntity
  8
ink_ext_XXXXXX
 62
1
100
AcDbSpline
 70
8
 71
3
 72
8
 73
4
 74
0
 40
0
 40
0
 40
0
 40
0
 40
1
 40
1
 40
1
 40
1
 10
19.187100
 20
88.916798
 30
0.0
 10
18.592600
 20
88.678898
 30
0.0
 10
16.452000
 20
87.727298
 30
0.0
 10
16.452000
 20
86.656998
 30
0.0
  0
SPLINE
  5
407
100
AcDbEntity
  8
ink_ext_XXXXXX
 62
1
100
AcDbSpline
 70
8
 71
3
 72
8
 73
4
 74
0
 40
0
 40
0
 40
0
 40
0
 40
1
 40
1
 40
1
 40
1
 10
16.452000
 20
86.656998
 30
0.0
 10
16.452000
 20
85.586698
 30
0.0
 10
16.927700
 20
81.900798
 30
0.0
 10
16.214500
 20
79.403098
 30
0.0
  0
SPLINE
  5
408
100
AcDbEntity
  8
ink_ext_XXXXXX
 62
1
100
AcDbSpline
 70
8
 71
3
 72
8
 73
4
 74
0
 40
0
 40
0
 40
0
 40
0
 40
1
 40
1
 40
1
 40
1
 10
16.214500
 20
79.403098
 30
0.0
 10
16.927700
 20
81.067998
 30
0.0
 10
18.473800
 20
83.089798
 30
0.0
 10
18.473800
 20
83.089798
 30
0.0
  0
LWPOLYLINE
  5
409
100
AcDbEntity
  8
ink_ext_XXXXXX
 62
1
100
AcDbPolyline
 90
1
 70
1
 10
25.606999
 20
93.196898
 30
0.0
  0
SPLINE
  5
40a
100
AcDbEntity
  8
ink_ext_XXXXXX
 62
1
100
AcDbSpline
 70
8
 71
3
 72
8
 73
4
 74
0
 40
0
 40
0
 40
0
 40
0
 40
1
 40
1
 40
1
 40
1
 10
10.984000
 20
66.920698
 30
0.0
 10
11.816400
 20
71.319898
 30
0.0
 10
15.028100
 20
76.551998
 30
0.0
 10
15.264800
 20
77.384398
 30
0.0
  0
SPLINE
  5
40b
100
AcDbEntity
  8
ink_ext_XXXXXX
 62
1
100
AcDbSpline
 70
8
 71
3
 72
8
 73
4
 74
0
 40
0
 40
0
 40
0
 40
0
 40
1
 40
1
 40
1
 40
1
 10
15.264800
 20
77.384398
 30
0.0
 10
15.619900
 20
79.881998
 30
0.0
 10
15.146500
 20
83.926198
 30
0.0
 10
15.146500
 20
85.946498
 30
0.0
  0
SPLINE
  5
40c
100
AcDbEntity
  8
ink_ext_XXXXXX
 62
1
100
AcDbSpline
 70
8
 71
3
 72
8
 73
4
 74
0
 40
0
 40
0
 40
0
 40
0
 40
1
 40
1
 40
1
 40
1
 10
15.146500
 20
85.946498
 30
0.0
 10
13.362900
 20
85.232398
 30
0.0
 10
10.391800
 20
83.926198
 30
0.0
 10
9.437110
 20
80.833198
 30
0.0
  0
SPLINE
  5
40d
100
AcDbEntity
  8
ink_ext_XXXXXX
 62
1
100
AcDbSpline
 70
8
 71
3
 72
8
 73
4
 74
0
 40
0
 40
0
 40
0
 40
0
 40
1
 40
1
 40
1
 40
1
 10
9.437110
 20
80.833198
 30
0.0
 10
8.604300
 20
77.384398
 30
0.0
 10
8.249610
 20
72.866798
 30
0.0
 10
10.984000
 20
66.920698
 30
0.0
  0
LWPOLYLINE
  5
40e
100
AcDbEntity
  8
ink_ext_XXXXXX
 62
1
100
AcDbPolyline
 90
1
 70
1
 10
18.473800
 20
83.089798
 30
0.0
  0
SPLINE
  5
40f
100
AcDbEntity
  8
ink_ext_XXXXXX
 62
1
100
AcDbSpline
 70
8
 71
3
 72
8
 73
4
 74
0
 40
0
 40
0
 40
0
 40
0
 40
1
 40
1
 40
1
 40
1
 10
10.505500
 20
64.300798
 30
0.0
 10
10.146500
 20
62.875398
 30
0.0
 10
10.267600
 20
57.998399
 30
0.0
 10
10.505500
 20
56.928499
 30
0.0
  0
SPLINE
  5
410
100
AcDbEntity
  8
ink_ext_XXXXXX
 62
1
100
AcDbSpline
 70
8
 71
3
 72
8
 73
4
 74
0
 40
0
 40
0
 40
0
 40
0
 40
1
 40
1
 40
1
 40
1
 10
10.505500
 20
56.928499
 30
0.0
 10
9.791020
 20
59.427299
 30
0.0
 10
3.250780
 20
64.062498
 30
0.0
 10
3.016410
 20
68.107798
 30
0.0
  0
SPLINE
  5
411
100
AcDbEntity
  8
ink_ext_XXXXXX
 62
1
100
AcDbSpline
 70
8
 71
3
 72
8
 73
4
 74
0
 40
0
 40
0
 40
0
 40
0
 40
1
 40
1
 40
1
 40
1
 10
3.016410
 20
68.107798
 30
0.0
 10
3.610160
 20
71.910898
 30
0.0
 10
6.226170
 20
77.260498
 30
0.0
 10
7.889450
 20
79.283198
 30
0.0
  0
SPLINE
  5
412
100
AcDbEntity
  8
ink_ext_XXXXXX
 62
1
100
AcDbSpline
 70
8
 71
3
 72
8
 73
4
 74
0
 40
0
 40
0
 40
0
 40
0
 40
1
 40
1
 40
1
 40
1
 10
7.889450
 20
79.283198
 30
0.0
 10
6.940630
 20
74.289098
 30
0.0
 10
8.127730
 20
68.701198
 30
0.0
 10
10.505500
 20
64.300798
 30
0.0
  0
LWPOLYLINE
  5
413
100
AcDbEntity
  8
ink_ext_XXXXXX
 62
1
100
AcDbPolyline
 90
1
 70
1
 10
10.984000
 20
66.920698
 30
0.0
  0
SPLINE
  5
414
100
AcDbEntity
  8
ink_ext_XXXXXX
 62
1
100
AcDbSpline
 70
8
 71
3
 72
8
 73
4
 74
0
 40
0
 40
0
 40
0
 40
0
 40
1
 40
1
 40
1
 40
1
 10
10.147700
 20
55.028499
 30
0.0
 10
9.319920
 20
57.408199
 30
0.0
 10
3.370700
 20
61.210198
 30
0.0
 10
2.661720
 20
64.421498
 30
0.0
  0
SPLINE
  5
415
100
AcDbEntity
  8
ink_ext_XXXXXX
 62
1
100
AcDbSpline
 70
8
 71
3
 72
8
 73
4
 74
0
 40
0
 40
0
 40
0
 40
0
 40
1
 40
1
 40
1
 40
1
 10
2.661720
 20
64.421498
 30
0.0
 10
2.184770
 20
60.855498
 30
0.0
 10
2.062500
 20
51.935899
 30
0.0
 10
1.826170
 20
49.796099
 30
0.0
  0
SPLINE
  5
416
100
AcDbEntity
  8
ink_ext_XXXXXX
 62
1
100
AcDbSpline
 70
8
 71
3
 72
8
 73
4
 74
0
 40
0
 40
0
 40
0
 40
0
 40
1
 40
1
 40
1
 40
1
 10
1.826170
 20
49.796099
 30
0.0
 10
1.589840
 20
47.656999
 30
0.0
 10
2.661720
 20
45.635499
 30
0.0
 10
4.796880
 20
45.040999
 30
0.0
  0
SPLINE
  5
417
100
AcDbEntity
  8
ink_ext_XXXXXX
 62
1
100
AcDbSpline
 70
8
 71
3
 72
8
 73
4
 74
0
 40
0
 40
0
 40
0
 40
0
 40
1
 40
1
 40
1
 40
1
 10
4.796880
 20
45.040999
 30
0.0
 10
6.940230
 20
44.445699
 30
0.0
 10
9.804300
 20
44.456999
 30
0.0
 10
11.219100
 20
42.901199
 30
0.0
  0
SPLINE
  5
418
100
AcDbEntity
  8
ink_ext_XXXXXX
 62
1
100
AcDbSpline
 70
8
 71
3
 72
8
 73
4
 74
0
 40
0
 40
0
 40
0
 40
0
 40
1
 40
1
 40
1
 40
1
 10
11.219100
 20
42.901199
 30
0.0
 10
12.409000
 20
41.593399
 30
0.0
 10
12.882000
 20
41.234799
 30
0.0
 10
13.244100
 20
41.353099
 30
0.0
  0
SPLINE
  5
419
100
AcDbEntity
  8
ink_ext_XXXXXX
 62
1
100
AcDbSpline
 70
8
 71
3
 72
8
 73
4
 74
0
 40
0
 40
0
 40
0
 40
0
 40
1
 40
1
 40
1
 40
1
 10
13.244100
 20
41.353099
 30
0.0
 10
11.932400
 20
43.496099
 30
0.0
 10
10.864500
 20
50.032799
 30
0.0
 10
10.147700
 20
55.028499
 30
0.0
  0
LWPOLYLINE
  5
41a
100
AcDbEntity
  8
ink_ext_XXXXXX
 62
1
100
AcDbPolyline
 90
1
 70
1
 10
10.505500
 20
64.300798
 30
0.0
  0
SPLINE
  5
41b
100
AcDbEntity
  8
ink_ext_XXXXXX
 62
1
100
AcDbSpline
 70
8
 71
3
 72
8
 73
4
 74
0
 40
0
 40
0
 40
0
 40
0
 40
1
 40
1
 40
1
 40
1
 10
14.429700
 20
38.263699
 30
0.0
 10
12.767200
 20
39.452699
 30
0.0
 10
12.412900
 20
40.047699
 30
0.0
 10
9.321090
 20
41.713699
 30
0.0
  0
SPLINE
  5
41c
100
AcDbEntity
  8
ink_ext_XXXXXX
 62
1
100
AcDbSpline
 70
8
 71
3
 72
8
 73
4
 74
0
 40
0
 40
0
 40
0
 40
0
 40
1
 40
1
 40
1
 40
1
 10
9.321090
 20
41.713699
 30
0.0
 10
6.228910
 20
43.379299
 30
0.0
 10
2.660550
 20
42.071899
 30
0.0
 10
1.593360
 20
44.923799
 30
0.0
  0
SPLINE
  5
41d
100
AcDbEntity
  8
ink_ext_XXXXXX
 62
1
100
AcDbSpline
 70
8
 71
3
 72
8
 73
4
 74
0
 40
0
 40
0
 40
0
 40
0
 40
1
 40
1
 40
1
 40
1
 10
1.593360
 20
44.923799
 30
0.0
 10
2.542580
 20
41.713699
 30
0.0
 10
6.701950
 20
36.124599
 30
0.0
 10
8.013280
 20
35.411699
 30
0.0
  0
SPLINE
  5
41e
100
AcDbEntity
  8
ink_ext_XXXXXX
 62
1
100
AcDbSpline
 70
8
 71
3
 72
8
 73
4
 74
0
 40
0
 40
0
 40
0
 40
0
 40
1
 40
1
 40
1
 40
1
 10
8.013280
 20
35.411699
 30
0.0
 10
9.321090
 20
34.698799
 30
0.0
 10
12.291000
 20
35.530099
 30
0.0
 10
15.859000
 20
33.627699
 30
0.0
  0
SPLINE
  5
41f
100
AcDbEntity
  8
ink_ext_XXXXXX
 62
1
100
AcDbSpline
 70
8
 71
3
 72
8
 73
4
 74
0
 40
0
 40
0
 40
0
 40
0
 40
1
 40
1
 40
1
 40
1
 10
15.859000
 20
33.627699
 30
0.0
 10
19.427700
 20
31.724999
 30
0.0
 10
20.140599
 20
31.248399
 30
0.0
 10
20.853499
 20
31.248399
 30
0.0
  0
SPLINE
  5
420
100
AcDbEntity
  8
ink_ext_XXXXXX
 62
1
100
AcDbSpline
 70
8
 71
3
 72
8
 73
4
 74
0
 40
0
 40
0
 40
0
 40
0
 40
1
 40
1
 40
1
 40
1
 10
20.853499
 20
31.248399
 30
0.0
 10
18.710900
 20
33.390999
 30
0.0
 10
16.808600
 20
35.053099
 30
0.0
 10
14.429700
 20
38.263699
 30
0.0
  0
LWPOLYLINE
  5
421
100
AcDbEntity
  8
ink_ext_XXXXXX
 62
1
100
AcDbPolyline
 90
1
 70
1
 10
10.147700
 20
55.028499
 30
0.0
  0
SPLINE
  5
422
100
AcDbEntity
  8
ink_ext_XXXXXX
 62
1
100
AcDbSpline
 70
8
 71
3
 72
8
 73
4
 74
0
 40
0
 40
0
 40
0
 40
0
 40
1
 40
1
 40
1
 40
1
 10
26.678499
 20
25.897299
 30
0.0
 10
24.419899
 20
27.206599
 30
0.0
 10
23.943399
 20
28.155899
 30
0.0
 10
22.397699
 20
28.872299
 30
0.0
  0
SPLINE
  5
423
100
AcDbEntity
  8
ink_ext_XXXXXX
 62
1
100
AcDbSpline
 70
8
 71
3
 72
8
 73
4
 74
0
 40
0
 40
0
 40
0
 40
0
 40
1
 40
1
 40
1
 40
1
 10
22.397699
 20
28.872299
 30
0.0
 10
20.851999
 20
29.585199
 30
0.0
 10
17.404700
 20
31.843799
 30
0.0
 10
15.382400
 20
32.436299
 30
0.0
  0
SPLINE
  5
424
100
AcDbEntity
  8
ink_ext_XXXXXX
 62
1
100
AcDbSpline
 70
8
 71
3
 72
8
 73
4
 74
0
 40
0
 40
0
 40
0
 40
0
 40
1
 40
1
 40
1
 40
1
 10
15.382400
 20
32.436299
 30
0.0
 10
13.360200
 20
33.032799
 30
0.0
 10
10.032400
 20
33.625799
 30
0.0
 10
8.842970
 20
33.982399
 30
0.0
  0
SPLINE
  5
425
100
AcDbEntity
  8
ink_ext_XXXXXX
 62
1
100
AcDbSpline
 70
8
 71
3
 72
8
 73
4
 74
0
 40
0
 40
0
 40
0
 40
0
 40
1
 40
1
 40
1
 40
1
 10
8.842970
 20
33.982399
 30
0.0
 10
10.625400
 20
31.487099
 30
0.0
 10
13.003900
 20
29.228499
 30
0.0
 10
16.571500
 20
27.919099
 30
0.0
  0
SPLINE
  5
426
100
AcDbEntity
  8
ink_ext_XXXXXX
 62
1
100
AcDbSpline
 70
8
 71
3
 72
8
 73
4
 74
0
 40
0
 40
0
 40
0
 40
0
 40
1
 40
1
 40
1
 40
1
 10
16.571500
 20
27.919099
 30
0.0
 10
20.139499
 20
26.609799
 30
0.0
 10
21.208599
 20
26.730099
 30
0.0
 10
22.990599
 20
26.609799
 30
0.0
  0
SPLINE
  5
427
100
AcDbEntity
  8
ink_ext_XXXXXX
 62
1
100
AcDbSpline
 70
8
 71
3
 72
8
 73
4
 74
0
 40
0
 40
0
 40
0
 40
0
 40
1
 40
1
 40
1
 40
1
 10
22.990599
 20
26.609799
 30
0.0
 10
24.776199
 20
26.493799
 30
0.0
 10
26.678499
 20
25.897299
 30
0.0
 10
26.678499
 20
25.897299
 30
0.0
  0
LWPOLYLINE
  5
428
100
AcDbEntity
  8
ink_ext_XXXXXX
 62
1
100
AcDbPolyline
 90
1
 70
1
 10
14.429700
 20
38.263699
 30
0.0
  0
SPLINE
  5
429
100
AcDbEntity
  8
ink_ext_XXXXXX
 62
1
100
AcDbSpline
 70
8
 71
3
 72
8
 73
4
 74
0
 40
0
 40
0
 40
0
 40
0
 40
1
 40
1
 40
1
 40
1
 10
32.505099
 20
25.543799
 30
0.0
 10
29.530499
 20
26.255099
 30
0.0
 10
26.082799
 20
28.873799
 30
0.0
 10
25.609799
 20
29.706599
 30
0.0
  0
SPLINE
  5
42a
100
AcDbEntity
  8
ink_ext_XXXXXX
 62
1
100
AcDbSpline
 70
8
 71
3
 72
8
 73
4
 74
0
 40
0
 40
0
 40
0
 40
0
 40
1
 40
1
 40
1
 40
1
 10
25.609799
 20
29.706599
 30
0.0
 10
24.894499
 20
32.915599
 30
0.0
 10
24.659799
 20
36.719099
 30
0.0
 10
24.894499
 20
37.907399
 30
0.0
  0
SPLINE
  5
42b
100
AcDbEntity
  8
ink_ext_XXXXXX
 62
1
100
AcDbSpline
 70
8
 71
3
 72
8
 73
4
 74
0
 40
0
 40
0
 40
0
 40
0
 40
1
 40
1
 40
1
 40
1
 10
24.894499
 20
37.907399
 30
0.0
 10
25.132799
 20
39.099599
 30
0.0
 10
26.801599
 20
40.049199
 30
0.0
 10
27.157399
 20
40.643799
 30
0.0
  0
SPLINE
  5
42c
100
AcDbEntity
  8
ink_ext_XXXXXX
 62
1
100
AcDbSpline
 70
8
 71
3
 72
8
 73
4
 74
0
 40
0
 40
0
 40
0
 40
0
 40
1
 40
1
 40
1
 40
1
 10
27.157399
 20
40.643799
 30
0.0
 10
27.630499
 20
39.216799
 30
0.0
 10
29.530499
 20
38.145699
 30
0.0
 10
29.651599
 20
36.124999
 30
0.0
  0
SPLINE
  5
42d
100
AcDbEntity
  8
ink_ext_XXXXXX
 62
1
100
AcDbSpline
 70
8
 71
3
 72
8
 73
4
 74
0
 40
0
 40
0
 40
0
 40
0
 40
1
 40
1
 40
1
 40
1
 10
29.651599
 20
36.124999
 30
0.0
 10
29.772299
 20
34.104299
 30
0.0
 10
29.772299
 20
34.104299
 30
0.0
 10
29.651599
 20
32.559799
 30
0.0
  0
SPLINE
  5
42e
100
AcDbEntity
  8
ink_ext_XXXXXX
 62
1
100
AcDbSpline
 70
8
 71
3
 72
8
 73
4
 74
0
 40
0
 40
0
 40
0
 40
0
 40
1
 40
1
 40
1
 40
1
 10
29.651599
 20
32.559799
 30
0.0
 10
29.530499
 20
31.012099
 30
0.0
 10
29.772299
 20
27.326199
 30
0.0
 10
32.505099
 20
25.543799
 30
0.0
  0
LWPOLYLINE
  5
42f
100
AcDbEntity
  8
ink_ext_XXXXXX
 62
1
100
AcDbPolyline
 90
1
 70
1
 10
26.678499
 20
25.897299
 30
0.0
  0
SPLINE
  5
430
100
AcDbEntity
  8
ink_ext_XXXXXX
 62
1
100
AcDbSpline
 70
8
 71
3
 72
8
 73
4
 74
0
 40
0
 40
0
 40
0
 40
0
 40
1
 40
1
 40
1
 40
1
 10
22.993799
 20
31.606999
 30
0.0
 10
22.993799
 20
34.697999
 30
0.0
 10
22.758199
 20
37.908999
 30
0.0
 10
24.064499
 20
39.334799
 30
0.0
  0
SPLINE
  5
431
100
AcDbEntity
  8
ink_ext_XXXXXX
 62
1
100
AcDbSpline
 70
8
 71
3
 72
8
 73
4
 74
0
 40
0
 40
0
 40
0
 40
0
 40
1
 40
1
 40
1
 40
1
 10
24.064499
 20
39.334799
 30
0.0
 10
25.370299
 20
40.764099
 30
0.0
 10
26.085199
 20
42.309799
 30
0.0
 10
26.085199
 20
42.309799
 30
0.0
  0
SPLINE
  5
432
100
AcDbEntity
  8
ink_ext_XXXXXX
 62
1
100
AcDbSpline
 70
8
 71
3
 72
8
 73
4
 74
0
 40
0
 40
0
 40
0
 40
0
 40
1
 40
1
 40
1
 40
1
 10
26.085199
 20
42.309799
 30
0.0
 10
24.539499
 20
44.805499
 30
0.0
 10
23.708999
 20
47.301599
 30
0.0
 10
23.469099
 20
49.086299
 30
0.0
  0
SPLINE
  5
433
100
AcDbEntity
  8
ink_ext_XXXXXX
 62
1
100
AcDbSpline
 70
8
 71
3
 72
8
 73
4
 74
0
 40
0
 40
0
 40
0
 40
0
 40
1
 40
1
 40
1
 40
1
 10
23.469099
 20
49.086299
 30
0.0
 10
23.233599
 20
50.871899
 30
0.0
 10
23.349199
 20
52.772699
 30
0.0
 10
23.349199
 20
52.772699
 30
0.0
  0
SPLINE
  5
434
100
AcDbEntity
  8
ink_ext_XXXXXX
 62
1
100
AcDbSpline
 70
8
 71
3
 72
8
 73
4
 74
0
 40
0
 40
0
 40
0
 40
0
 40
1
 40
1
 40
1
 40
1
 10
23.349199
 20
52.772699
 30
0.0
 10
21.208999
 20
51.941799
 30
0.0
 10
15.505900
 20
48.255899
 30
0.0
 10
15.977700
 20
41.594899
 30
0.0
  0
SPLINE
  5
435
100
AcDbEntity
  8
ink_ext_XXXXXX
 62
1
100
AcDbSpline
 70
8
 71
3
 72
8
 73
4
 74
0
 40
0
 40
0
 40
0
 40
0
 40
1
 40
1
 40
1
 40
1
 10
15.977700
 20
41.594899
 30
0.0
 10
16.808200
 20
38.979299
 30
0.0
 10
20.022699
 20
34.462099
 30
0.0
 10
22.993799
 20
31.606999
 30
0.0
  0
LWPOLYLINE
  5
436
100
AcDbEntity
  8
ink_ext_XXXXXX
 62
1
100
AcDbPolyline
 90
1
 70
1
 10
32.505099
 20
25.543799
 30
0.0
  0
SPLINE
  5
437
100
AcDbEntity
  8
ink_ext_XXXXXX
 62
1
100
AcDbSpline
 70
8
 71
3
 72
8
 73
4
 74
0
 40
0
 40
0
 40
0
 40
0
 40
1
 40
1
 40
1
 40
1
 10
14.551200
 20
45.875399
 30
0.0
 10
13.005900
 20
48.609799
 30
0.0
 10
12.169900
 20
55.504299
 30
0.0
 10
12.292600
 20
57.525399
 30
0.0
  0
SPLINE
  5
438
100
AcDbEntity
  8
ink_ext_XXXXXX
 62
1
100
AcDbSpline
 70
8
 71
3
 72
8
 73
4
 74
0
 40
0
 40
0
 40
0
 40
0
 40
1
 40
1
 40
1
 40
1
 10
12.292600
 20
57.525399
 30
0.0
 10
15.383200
 20
61.571098
 30
0.0
 10
19.785500
 20
66.564098
 30
0.0
 10
25.725799
 20
67.871498
 30
0.0
  0
SPLINE
  5
439
100
AcDbEntity
  8
ink_ext_XXXXXX
 62
1
100
AcDbSpline
 70
8
 71
3
 72
8
 73
4
 74
0
 40
0
 40
0
 40
0
 40
0
 40
1
 40
1
 40
1
 40
1
 10
25.725799
 20
67.871498
 30
0.0
 10
25.369099
 20
65.374998
 30
0.0
 10
24.421899
 20
63.354298
 30
0.0
 10
23.823399
 20
61.571098
 30
0.0
  0
SPLINE
  5
43a
100
AcDbEntity
  8
ink_ext_XXXXXX
 62
1
100
AcDbSpline
 70
8
 71
3
 72
8
 73
4
 74
0
 40
0
 40
0
 40
0
 40
0
 40
1
 40
1
 40
1
 40
1
 10
23.823399
 20
61.571098
 30
0.0
 10
23.232799
 20
59.787899
 30
0.0
 10
23.589799
 20
54.553499
 30
0.0
 10
23.589799
 20
54.553499
 30
0.0
  0
SPLINE
  5
43b
100
AcDbEntity
  8
ink_ext_XXXXXX
 62
1
100
AcDbSpline
 70
8
 71
3
 72
8
 73
4
 74
0
 40
0
 40
0
 40
0
 40
0
 40
1
 40
1
 40
1
 40
1
 10
23.589799
 20
54.553499
 30
0.0
 10
19.900800
 20
53.483599
 30
0.0
 10
16.334400
 20
50.035899
 30
0.0
 10
14.551200
 20
45.875399
 30
0.0
  0
LWPOLYLINE
  5
43c
100
AcDbEntity
  8
ink_ext_XXXXXX
 62
1
100
AcDbPolyline
 90
1
 70
1
 10
22.993799
 20
31.606999
 30
0.0
  0
SPLINE
  5
43d
100
AcDbEntity
  8
ink_ext_XXXXXX
 62
1
100
AcDbSpline
 70
8
 71
3
 72
8
 73
4
 74
0
 40
0
 40
0
 40
0
 40
0
 40
1
 40
1
 40
1
 40
1
 10
12.527300
 20
60.856598
 30
0.0
 10
14.195300
 20
63.113298
 30
0.0
 10
19.783600
 20
68.348798
 30
0.0
 10
25.846899
 20
68.940998
 30
0.0
  0
SPLINE
  5
43e
100
AcDbEntity
  8
ink_ext_XXXXXX
 62
1
100
AcDbSpline
 70
8
 71
3
 72
8
 73
4
 74
0
 40
0
 40
0
 40
0
 40
0
 40
1
 40
1
 40
1
 40
1
 10
25.846899
 20
68.940998
 30
0.0
 10
26.321899
 20
70.369898
 30
0.0
 10
27.035899
 20
72.508598
 30
0.0
 10
28.699999
 20
74.172698
 30
0.0
  0
SPLINE
  5
43f
100
AcDbEntity
  8
ink_ext_XXXXXX
 62
1
100
AcDbSpline
 70
8
 71
3
 72
8
 73
4
 74
0
 40
0
 40
0
 40
0
 40
0
 40
1
 40
1
 40
1
 40
1
 10
28.699999
 20
74.172698
 30
0.0
 10
30.364099
 20
75.836298
 30
0.0
 10
29.771099
 20
76.432798
 30
0.0
 10
30.721099
 20
77.382798
 30
0.0
  0
SPLINE
  5
440
100
AcDbEntity
  8
ink_ext_XXXXXX
 62
1
100
AcDbSpline
 70
8
 71
3
 72
8
 73
4
 74
0
 40
0
 40
0
 40
0
 40
0
 40
1
 40
1
 40
1
 40
1
 10
30.721099
 20
77.382798
 30
0.0
 10
31.670699
 20
78.336298
 30
0.0
 10
33.574199
 20
80.714498
 30
0.0
 10
33.574199
 20
82.496498
 30
0.0
  0
SPLINE
  5
441
100
AcDbEntity
  8
ink_ext_XXXXXX
 62
1
100
AcDbSpline
 70
8
 71
3
 72
8
 73
4
 74
0
 40
0
 40
0
 40
0
 40
0
 40
1
 40
1
 40
1
 40
1
 10
33.574199
 20
82.496498
 30
0.0
 10
30.246499
 20
81.664498
 30
0.0
 10
17.762500
 20
76.311298
 30
0.0
 10
13.602300
 20
69.655498
 30
0.0
  0
SPLINE
  5
442
100
AcDbEntity
  8
ink_ext_XXXXXX
 62
1
100
AcDbSpline
 70
8
 71
3
 72
8
 73
4
 74
0
 40
0
 40
0
 40
0
 40
0
 40
1
 40
1
 40
1
 40
1
 10
13.602300
 20
69.655498
 30
0.0
 10
12.527300
 20
66.919898
 30
0.0
 10
12.527300
 20
60.856598
 30
0.0
 10
12.527300
 20
60.856598
 30
0.0
  0
LWPOLYLINE
  5
443
100
AcDbEntity
  8
ink_ext_XXXXXX
 62
1
100
AcDbPolyline
 90
1
 70
1
 10
14.551200
 20
45.875399
 30
0.0
  0
SPLINE
  5
444
100
AcDbEntity
  8
ink_ext_XXXXXX
 62
1
100
AcDbSpline
 70
8
 71
3
 72
8
 73
4
 74
0
 40
0
 40
0
 40
0
 40
0
 40
1
 40
1
 40
1
 40
1
 10
15.737100
 20
74.766798
 30
0.0
 10
18.353900
 20
77.383598
 30
0.0
 10
25.253899
 20
82.494098
 30
0.0
 10
34.170299
 20
83.564098
 30
0.0
  0
SPLINE
  5
445
100
AcDbEntity
  8
ink_ext_XXXXXX
 62
1
100
AcDbSpline
 70
8
 71
3
 72
8
 73
4
 74
0
 40
0
 40
0
 40
0
 40
0
 40
1
 40
1
 40
1
 40
1
 10
34.170299
 20
83.564098
 30
0.0
 10
35.597999
 20
84.518398
 30
0.0
 10
35.120699
 20
85.230498
 30
0.0
 10
35.240199
 20
86.419098
 30
0.0
  0
SPLINE
  5
446
100
AcDbEntity
  8
ink_ext_XXXXXX
 62
1
100
AcDbSpline
 70
8
 71
3
 72
8
 73
4
 74
0
 40
0
 40
0
 40
0
 40
0
 40
1
 40
1
 40
1
 40
1
 10
35.240199
 20
86.419098
 30
0.0
 10
35.355499
 20
87.608598
 30
0.0
 10
35.717199
 20
91.056598
 30
0.0
 10
35.717199
 20
91.056598
 30
0.0
  0
SPLINE
  5
447
100
AcDbEntity
  8
ink_ext_XXXXXX
 62
1
100
AcDbSpline
 70
8
 71
3
 72
8
 73
4
 74
0
 40
0
 40
0
 40
0
 40
0
 40
1
 40
1
 40
1
 40
1
 10
35.717199
 20
91.056598
 30
0.0
 10
32.622999
 20
90.344498
 30
0.0
 10
28.224599
 20
88.558998
 30
0.0
 10
26.200399
 20
86.419098
 30
0.0
  0
SPLINE
  5
448
100
AcDbEntity
  8
ink_ext_XXXXXX
 62
1
100
AcDbSpline
 70
8
 71
3
 72
8
 73
4
 74
0
 40
0
 40
0
 40
0
 40
0
 40
1
 40
1
 40
1
 40
1
 10
26.200399
 20
86.419098
 30
0.0
 10
24.180099
 20
84.279698
 30
0.0
 10
22.159799
 20
83.564098
 30
0.0
 10
21.089799
 20
82.613698
 30
0.0
  0
SPLINE
  5
449
100
AcDbEntity
  8
ink_ext_XXXXXX
 62
1
100
AcDbSpline
 70
8
 71
3
 72
8
 73
4
 74
0
 40
0
 40
0
 40
0
 40
0
 40
1
 40
1
 40
1
 40
1
 10
21.089799
 20
82.613698
 30
0.0
 10
20.019899
 20
81.662898
 30
0.0
 10
16.333600
 20
76.667998
 30
0.0
 10
15.737100
 20
74.766798
 30
0.0
  0
LWPOLYLINE
  5
44a
100
AcDbEntity
  8
ink_ext_XXXXXX
 62
1
100
AcDbPolyline
 90
1
 70
1
 10
12.527300
 20
60.856598
 30
0.0
  0
SPLINE
  5
44b
100
AcDbEntity
  8
ink_ext_XXXXXX
 62
1
100
AcDbSpline
 70
8
 71
3
 72
8
 73
4
 74
0
 40
0
 40
0
 40
0
 40
0
 40
1
 40
1
 40
1
 40
1
 10
22.989099
 20
85.706998
 30
0.0
 10
24.061299
 20
86.537098
 30
0.0
 10
24.419899
 20
87.371098
 30
0.0
 10
26.200799
 20
88.914498
 30
0.0
  0
SPLINE
  5
44c
100
AcDbEntity
  8
ink_ext_XXXXXX
 62
1
100
AcDbSpline
 70
8
 71
3
 72
8
 73
4
 74
0
 40
0
 40
0
 40
0
 40
0
 40
1
 40
1
 40
1
 40
1
 10
26.200799
 20
88.914498
 30
0.0
 10
27.981599
 20
90.461698
 30
0.0
 10
33.574599
 20
91.767598
 30
0.0
 10
34.884399
 20
92.484798
 30
0.0
  0
SPLINE
  5
44d
100
AcDbEntity
  8
ink_ext_XXXXXX
 62
1
100
AcDbSpline
 70
8
 71
3
 72
8
 73
4
 74
0
 40
0
 40
0
 40
0
 40
0
 40
1
 40
1
 40
1
 40
1
 10
34.884399
 20
92.484798
 30
0.0
 10
34.049999
 20
94.028098
 30
0.0
 10
32.147999
 20
98.190598
 30
0.0
 10
30.959399
 20
99.616798
 30
0.0
  0
SPLINE
  5
44e
100
AcDbEntity
  8
ink_ext_XXXXXX
 62
1
100
AcDbSpline
 70
8
 71
3
 72
8
 73
4
 74
0
 40
0
 40
0
 40
0
 40
0
 40
1
 40
1
 40
1
 40
1
 10
30.959399
 20
99.616798
 30
0.0
 10
30.363299
 20
97.477298
 30
0.0
 10
29.412099
 20
95.337498
 30
0.0
 10
27.868799
 20
92.839098
 30
0.0
  0
SPLINE
  5
44f
100
AcDbEntity
  8
ink_ext_XXXXXX
 62
1
100
AcDbSpline
 70
8
 71
3
 72
8
 73
4
 74
0
 40
0
 40
0
 40
0
 40
0
 40
1
 40
1
 40
1
 40
1
 10
27.868799
 20
92.839098
 30
0.0
 10
26.321499
 20
90.340998
 30
0.0
 10
23.944099
 20
87.608998
 30
0.0
 10
22.989099
 20
85.706998
 30
0.0
  0
LWPOLYLINE
  5
450
100
AcDbEntity
  8
ink_ext_XXXXXX
 62
1
100
AcDbPolyline
 90
1
 70
1
 10
15.737100
 20
74.766798
 30
0.0
  0
SPLINE
  5
451
100
AcDbEntity
  8
ink_ext_XXXXXX
 62
1
100
AcDbSpline
 70
8
 71
3
 72
8
 73
4
 74
0
 40
0
 40
0
 40
0
 40
0
 40
1
 40
1
 40
1
 40
1
 10
29.056999
 20
104.969997
 30
0.0
 10
30.007399
 20
102.828997
 30
0.0
 10
32.265999
 20
98.669098
 30
0.0
 10
33.696099
 20
96.885898
 30
0.0
  0
SPLINE
  5
452
100
AcDbEntity
  8
ink_ext_XXXXXX
 62
1
100
AcDbSpline
 70
8
 71
3
 72
8
 73
4
 74
0
 40
0
 40
0
 40
0
 40
0
 40
1
 40
1
 40
1
 40
1
 10
33.696099
 20
96.885898
 30
0.0
 10
35.121899
 20
95.102698
 30
0.0
 10
35.954699
 20
94.980498
 30
0.0
 10
36.312099
 20
93.672698
 30
0.0
  0
SPLINE
  5
453
100
AcDbEntity
  8
ink_ext_XXXXXX
 62
1
100
AcDbSpline
 70
8
 71
3
 72
8
 73
4
 74
0
 40
0
 40
0
 40
0
 40
0
 40
1
 40
1
 40
1
 40
1
 10
36.312099
 20
93.672698
 30
0.0
 10
36.665599
 20
92.364498
 30
0.0
 10
37.498399
 20
87.847298
 30
0.0
 10
36.905099
 20
84.995298
 30
0.0
  0
SPLINE
  5
454
100
AcDbEntity
  8
ink_ext_XXXXXX
 62
1
100
AcDbSpline
 70
8
 71
3
 72
8
 73
4
 74
0
 40
0
 40
0
 40
0
 40
0
 40
1
 40
1
 40
1
 40
1
 10
36.905099
 20
84.995298
 30
0.0
 10
36.312099
 20
82.139498
 30
0.0
 10
33.220699
 20
78.215198
 30
0.0
 10
30.722699
 20
74.888298
 30
0.0
  0
SPLINE
  5
455
100
AcDbEntity
  8
ink_ext_XXXXXX
 62
1
100
AcDbSpline
 70
8
 71
3
 72
8
 73
4
 74
0
 40
0
 40
0
 40
0
 40
0
 40
1
 40
1
 40
1
 40
1
 10
30.722699
 20
74.888298
 30
0.0
 10
28.224199
 20
71.557398
 30
0.0
 10
25.847699
 20
65.613698
 30
0.0
 10
25.132799
 20
59.666399
 30
0.0
  0
SPLINE
  5
456
100
AcDbEntity
  8
ink_ext_XXXXXX
 62
1
100
AcDbSpline
 70
8
 71
3
 72
8
 73
4
 74
0
 40
0
 40
0
 40
0
 40
0
 40
1
 40
1
 40
1
 40
1
 10
25.132799
 20
59.666399
 30
0.0
 10
24.421899
 20
53.723399
 30
0.0
 10
24.779299
 20
49.084399
 30
0.0
 10
26.558599
 20
44.806599
 30
0.0
  0
SPLINE
  5
457
100
AcDbEntity
  8
ink_ext_XXXXXX
 62
1
100
AcDbSpline
 70
8
 71
3
 72
8
 73
4
 74
0
 40
0
 40
0
 40
0
 40
0
 40
1
 40
1
 40
1
 40
1
 10
26.558599
 20
44.806599
 30
0.0
 10
28.346099
 20
40.524999
 30
0.0
 10
31.075799
 20
39.334799
 30
0.0
 10
31.315599
 20
37.076199
 30
0.0
  0
SPLINE
  5
458
100
AcDbEntity
  8
ink_ext_XXXXXX
 62
1
100
AcDbSpline
 70
8
 71
3
 72
8
 73
4
 74
0
 40
0
 40
0
 40
0
 40
0
 40
1
 40
1
 40
1
 40
1
 10
31.315599
 20
37.076199
 30
0.0
 10
31.555099
 20
34.817599
 30
0.0
 10
30.604699
 20
34.102299
 30
0.0
 10
30.722699
 20
32.676599
 30
0.0
  0
SPLINE
  5
459
100
AcDbEntity
  8
ink_ext_XXXXXX
 62
1
100
AcDbSpline
 70
8
 71
3
 72
8
 73
4
 74
0
 40
0
 40
0
 40
0
 40
0
 40
1
 40
1
 40
1
 40
1
 10
30.722699
 20
32.676599
 30
0.0
 10
30.840199
 20
31.250399
 30
0.0
 10
31.794899
 20
29.702699
 30
0.0
 10
31.794899
 20
29.702699
 30
0.0
  0
SPLINE
  5
45a
100
AcDbEntity
  8
ink_ext_XXXXXX
 62
1
100
AcDbSpline
 70
8
 71
3
 72
8
 73
4
 74
0
 40
0
 40
0
 40
0
 40
0
 40
1
 40
1
 40
1
 40
1
 10
31.794899
 20
29.702699
 30
0.0
 10
32.387899
 20
32.794099
 30
0.0
 10
32.981299
 20
35.649999
 30
0.0
 10
33.098799
 20
39.216799
 30
0.0
  0
SPLINE
  5
45b
100
AcDbEntity
  8
ink_ext_XXXXXX
 62
1
100
AcDbSpline
 70
8
 71
3
 72
8
 73
4
 74
0
 40
0
 40
0
 40
0
 40
0
 40
1
 40
1
 40
1
 40
1
 10
33.098799
 20
39.216799
 30
0.0
 10
33.220699
 20
42.783599
 30
0.0
 10
33.098799
 20
47.775799
 30
0.0
 10
30.482799
 20
51.822299
 30
0.0
  0
SPLINE
  5
45c
100
AcDbEntity
  8
ink_ext_XXXXXX
 62
1
100
AcDbSpline
 70
8
 71
3
 72
8
 73
4
 74
0
 40
0
 40
0
 40
0
 40
0
 40
1
 40
1
 40
1
 40
1
 10
30.482799
 20
51.822299
 30
0.0
 10
27.870699
 20
55.864499
 30
0.0
 10
27.984399
 20
60.263698
 30
0.0
 10
28.463699
 20
64.065998
 30
0.0
  0
SPLINE
  5
45d
100
AcDbEntity
  8
ink_ext_XXXXXX
 62
1
100
AcDbSpline
 70
8
 71
3
 72
8
 73
4
 74
0
 40
0
 40
0
 40
0
 40
0
 40
1
 40
1
 40
1
 40
1
 10
28.463699
 20
64.065998
 30
0.0
 10
28.939099
 20
67.872698
 30
0.0
 10
30.604699
 20
70.371098
 30
0.0
 10
32.863299
 20
73.105098
 30
0.0
  0
SPLINE
  5
45e
100
AcDbEntity
  8
ink_ext_XXXXXX
 62
1
100
AcDbSpline
 70
8
 71
3
 72
8
 73
4
 74
0
 40
0
 40
0
 40
0
 40
0
 40
1
 40
1
 40
1
 40
1
 10
32.863299
 20
73.105098
 30
0.0
 10
35.121899
 20
75.839098
 30
0.0
 10
37.498399
 20
79.523398
 30
0.0
 10
37.855899
 20
82.854298
 30
0.0
  0
SPLINE
  5
45f
100
AcDbEntity
  8
ink_ext_XXXXXX
 62
1
100
AcDbSpline
 70
8
 71
3
 72
8
 73
4
 74
0
 40
0
 40
0
 40
0
 40
0
 40
1
 40
1
 40
1
 40
1
 10
37.855899
 20
82.854298
 30
0.0
 10
38.213299
 20
86.181598
 30
0.0
 10
38.688699
 20
90.581298
 30
0.0
 10
37.737899
 20
93.197298
 30
0.0
  0
SPLINE
  5
460
100
AcDbEntity
  8
ink_ext_XXXXXX
 62
1
100
AcDbSpline
 70
8
 71
3
 72
8
 73
4
 74
0
 40
0
 40
0
 40
0
 40
0
 40
1
 40
1
 40
1
 40
1
 10
37.737899
 20
93.197298
 30
0.0
 10
36.787499
 20
95.813298
 30
0.0
 10
33.931599
 20
97.361298
 30
0.0
 10
32.863299
 20
99.380098
 30
0.0
  0
SPLINE
  5
461
100
AcDbEntity
  8
ink_ext_XXXXXX
 62
1
100
AcDbSpline
 70
8
 71
3
 72
8
 73
4
 74
0
 40
0
 40
0
 40
0
 40
0
 40
1
 40
1
 40
1
 40
1
 10
32.863299
 20
99.380098
 30
0.0
 10
31.794899
 20
101.402997
 30
0.0
 10
29.056999
 20
104.969997
 30
0.0
 10
29.056999
 20
104.969997
 30
0.0
  0
LWPOLYLINE
  5
462
100
AcDbEntity
  8
ink_ext_XXXXXX
 62
1
100
AcDbPolyline
 90
1
 70
1
 10
22.989099
 20
85.706998
 30
0.0
  0
LWPOLYLINE
  5
463
100
AcDbEntity
  8
ink_ext_XXXXXX
 62
1
100
AcDbPolyline
 90
1
 70
1
 10
29.056999
 20
104.969997
 30
0.0
  0
ENDSEC
  0
SECTION
  2
OBJECTS
  0
DICTIONARY
  5
C
330
0
100
AcDbDictionary
  3
ACAD_GROUP
350
D
  3
ACAD_MLINESTYLE
350
17
  0
DICTIONARY
  5
D
330
C
100
AcDbDictionary
  0
DICTIONARY
  5
1A
330
C
100
AcDbDictionary
  0
DICTIONARY
  5
17
330
C
100
AcDbDictionary
  3
STANDARD
350
18
  0
DICTIONARY
  5
19
330
C
100
AcDbDictionary
  0
ENDSEC
  0
EOF
