  0
SECTION
  2
HEADER
  9
$ACADVER
  1
AC1021
  9
$ACADMAINTVER
 70
    25
  9
$DWGCODEPAGE
  3
ANSI_1256
  9
$INSBASE
 10
0.0
 20
0.0
 30
0.0
  9
$EXTMIN
 10
-41.3684
 20
-25.90059
 30
0.0
  9
$EXTMAX
 10
-31.49455
 20
-16.71467
 30
0.0
  9
$LIMMIN
 10
0.0
 20
0.0
  9
$LIMMAX
 10
12.0
 20
9.0
  9
$ORTHOMODE
 70
     0
  9
$REGENMODE
 70
     1
  9
$FILLMODE
 70
     1
  9
$QTEXTMODE
 70
     0
  9
$MIRRTEXT
 70
     1
  9
$LTSCALE
 40
1.0
  9
$ATTMODE
 70
     1
  9
$TEXTSIZE
 40
0.2
  9
$TRACEWID
 40
0.05
  9
$TEXTSTYLE
  7
Standard
  9
$CLAYER
  8
0
  9
$CELTYPE
  6
ByLayer
  9
$CECOLOR
 62
   256
  9
$CELTSCALE
 40
1.0
  9
$DISPSILH
 70
     0
  9
$DIMSCALE
 40
1.0
  9
$DIMASZ
 40
0.18
  9
$DIMEXO
 40
0.0625
  9
$DIMDLI
 40
0.38
  9
$DIMRND
 40
0.0
  9
$DIMDLE
 40
0.0
  9
$DIMEXE
 40
0.18
  9
$DIMTP
 40
0.0
  9
$DIMTM
 40
0.0
  9
$DIMTXT
 40
0.18
  9
$DIMCEN
 40
0.09
  9
$DIMTSZ
 40
0.0
  9
$DIMTOL
 70
     0
  9
$DIMLIM
 70
     0
  9
$DIMTIH
 70
     1
  9
$DIMTOH
 70
     1
  9
$DIMSE1
 70
     0
  9
$DIMSE2
 70
     0
  9
$DIMTAD
 70
     0
  9
$DIMZIN
 70
     0
  9
$DIMBLK
  1

  9
$DIMASO
 70
     1
  9
$DIMSHO
 70
     1
  9
$DIMPOST
  1

  9
$DIMAPOST
  1

  9
$DIMALT
 70
     0
  9
$DIMALTD
 70
     2
  9
$DIMALTF
 40
25.4
  9
$DIMLFAC
 40
1.0
  9
$DIMTOFL
 70
     0
  9
$DIMTVP
 40
0.0
  9
$DIMTIX
 70
     0
  9
$DIMSOXD
 70
     0
  9
$DIMSAH
 70
     0
  9
$DIMBLK1
  1

  9
$DIMBLK2
  1

  9
$DIMSTYLE
  2
Standard
  9
$DIMCLRD
 70
     0
  9
$DIMCLRE
 70
     0
  9
$DIMCLRT
 70
     0
  9
$DIMTFAC
 40
1.0
  9
$DIMGAP
 40
0.09
  9
$DIMJUST
 70
     0
  9
$DIMSD1
 70
     0
  9
$DIMSD2
 70
     0
  9
$DIMTOLJ
 70
     1
  9
$DIMTZIN
 70
     0
  9
$DIMALTZ
 70
     0
  9
$DIMALTTZ
 70
     0
  9
$DIMUPT
 70
     0
  9
$DIMDEC
 70
     4
  9
$DIMTDEC
 70
     4
  9
$DIMALTU
 70
     2
  9
$DIMALTTD
 70
     2
  9
$DIMTXSTY
  7
Standard
  9
$DIMAUNIT
 70
     0
  9
$DIMADEC
 70
     0
  9
$DIMALTRND
 40
0.0
  9
$DIMAZIN
 70
     0
  9
$DIMDSEP
 70
    46
  9
$DIMATFIT
 70
     3
  9
$DIMFRAC
 70
     0
  9
$DIMLDRBLK
  1

  9
$DIMLUNIT
 70
     2
  9
$DIMLWD
 70
    -2
  9
$DIMLWE
 70
    -2
  9
$DIMTMOVE
 70
     0
  9
$DIMFXL
 40
1.0
  9
$DIMFXLON
 70
     0
  9
$DIMJOGANG
 40
0.7853981633974483
  9
$DIMTFILL
 70
     0
  9
$DIMTFILLCLR
 70
     0
  9
$DIMARCSYM
 70
     0
  9
$DIMLTYPE
  6

  9
$DIMLTEX1
  6

  9
$DIMLTEX2
  6

  9
$LUNITS
 70
     2
  9
$LUPREC
 70
     4
  9
$SKETCHINC
 40
0.1
  9
$FILLETRAD
 40
0.5
  9
$AUNITS
 70
     0
  9
$AUPREC
 70
     0
  9
$MENU
  1
.
  9
$ELEVATION
 40
0.0
  9
$PELEVATION
 40
0.0
  9
$THICKNESS
 40
0.0
  9
$LIMCHECK
 70
     0
  9
$CHAMFERA
 40
0.0
  9
$CHAMFERB
 40
0.0
  9
$CHAMFERC
 40
0.0
  9
$CHAMFERD
 40
0.0
  9
$SKPOLY
 70
     0
  9
$TDCREATE
 40
2457728.945237743
  9
$TDUCREATE
 40
2457728.903571076
  9
$TDUPDATE
 40
2457728.945237801
  9
$TDUUPDATE
 40
2457728.903571134
  9
$TDINDWG
 40
0.0000000116
  9
$TDUSRTIMER
 40
0.0000000116
  9
$USRTIMER
 70
     1
  9
$ANGBASE
 50
0.0
  9
$ANGDIR
 70
     0
  9
$PDMODE
 70
     0
  9
$PDSIZE
 40
0.0
  9
$PLINEWID
 40
0.0
  9
$SPLFRAME
 70
     0
  9
$SPLINETYPE
 70
     6
  9
$SPLINESEGS
 70
     8
  9
$HANDSEED
  5
DA
  9
$SURFTAB1
 70
     6
  9
$SURFTAB2
 70
     6
  9
$SURFTYPE
 70
     6
  9
$SURFU
 70
     6
  9
$SURFV
 70
     6
  9
$UCSBASE
  2

  9
$UCSNAME
  2

  9
$UCSORG
 10
0.0
 20
0.0
 30
0.0
  9
$UCSXDIR
 10
1.0
 20
0.0
 30
0.0
  9
$UCSYDIR
 10
0.0
 20
1.0
 30
0.0
  9
$UCSORTHOREF
  2

  9
$UCSORTHOVIEW
 70
     0
  9
$UCSORGTOP
 10
0.0
 20
0.0
 30
0.0
  9
$UCSORGBOTTOM
 10
0.0
 20
0.0
 30
0.0
  9
$UCSORGLEFT
 10
0.0
 20
0.0
 30
0.0
  9
$UCSORGRIGHT
 10
0.0
 20
0.0
 30
0.0
  9
$UCSORGFRONT
 10
0.0
 20
0.0
 30
0.0
  9
$UCSORGBACK
 10
0.0
 20
0.0
 30
0.0
  9
$PUCSBASE
  2

  9
$PUCSNAME
  2

  9
$PUCSORG
 10
0.0
 20
0.0
 30
0.0
  9
$PUCSXDIR
 10
1.0
 20
0.0
 30
0.0
  9
$PUCSYDIR
 10
0.0
 20
1.0
 30
0.0
  9
$PUCSORTHOREF
  2

  9
$PUCSORTHOVIEW
 70
     0
  9
$PUCSORGTOP
 10
0.0
 20
0.0
 30
0.0
  9
$PUCSORGBOTTOM
 10
0.0
 20
0.0
 30
0.0
  9
$PUCSORGLEFT
 10
0.0
 20
0.0
 30
0.0
  9
$PUCSORGRIGHT
 10
0.0
 20
0.0
 30
0.0
  9
$PUCSORGFRONT
 10
0.0
 20
0.0
 30
0.0
  9
$PUCSORGBACK
 10
0.0
 20
0.0
 30
0.0
  9
$USERI1
 70
     0
  9
$USERI2
 70
     0
  9
$USERI3
 70
     0
  9
$USERI4
 70
     0
  9
$USERI5
 70
     0
  9
$USERR1
 40
0.0
  9
$USERR2
 40
0.0
  9
$USERR3
 40
0.0
  9
$USERR4
 40
0.0
  9
$USERR5
 40
0.0
  9
$WORLDVIEW
 70
     1
  9
$SHADEDGE
 70
     3
  9
$SHADEDIF
 70
    70
  9
$TILEMODE
 70
     1
  9
$MAXACTVP
 70
    64
  9
$PINSBASE
 10
0.0
 20
0.0
 30
0.0
  9
$PLIMCHECK
 70
     0
  9
$PEXTMIN
 10
1.000000000000000E+20
 20
1.000000000000000E+20
 30
1.000000000000000E+20
  9
$PEXTMAX
 10
-1.000000000000000E+20
 20
-1.000000000000000E+20
 30
-1.000000000000000E+20
  9
$PLIMMIN
 10
0.0
 20
0.0
  9
$PLIMMAX
 10
12.0
 20
9.0
  9
$UNITMODE
 70
     0
  9
$VISRETAIN
 70
     1
  9
$PLINEGEN
 70
     0
  9
$PSLTSCALE
 70
     1
  9
$TREEDEPTH
 70
  3020
  9
$CMLSTYLE
  2
Standard
  9
$CMLJUST
 70
     0
  9
$CMLSCALE
 40
1.0
  9
$PROXYGRAPHICS
 70
     1
  9
$MEASUREMENT
 70
     0
  9
$CELWEIGHT
370
    -1
  9
$ENDCAPS
280
     0
  9
$JOINSTYLE
280
     0
  9
$LWDISPLAY
290
     0
  9
$INSUNITS
 70
     5
  9
$HYPERLINKBASE
  1

  9
$STYLESHEET
  1

  9
$XEDIT
290
     1
  9
$CEPSNTYPE
380
     0
  9
$PSTYLEMODE
290
     1
  9
$FINGERPRINTGUID
  2
{7BDDE774-4C2D-4F1B-BFF3-B898C88C229F}
  9
$VERSIONGUID
  2
{FAEB1C32-E019-11D5-929B-00C0DF256EC4}
  9
$EXTNAMES
290
     1
  9
$PSVPSCALE
 40
0.0
  9
$OLESTARTUP
290
     0
  9
$SORTENTS
280
   127
  9
$INDEXCTL
280
     0
  9
$HIDETEXT
280
     1
  9
$XCLIPFRAME
290
     0
  9
$HALOGAP
280
     0
  9
$OBSCOLOR
 70
   257
  9
$OBSLTYPE
280
     0
  9
$INTERSECTIONDISPLAY
280
     0
  9
$INTERSECTIONCOLOR
 70
   257
  9
$DIMASSOC
280
     2
  9
$PROJECTNAME
  1

  9
$CAMERADISPLAY
290
     0
  9
$LENSLENGTH
 40
50.0
  9
$CAMERAHEIGHT
 40
0.0
  9
$STEPSPERSEC
 40
2.0
  9
$STEPSIZE
 40
6.0
  9
$3DDWFPREC
 40
2.0
  9
$PSOLWIDTH
 40
0.25
  9
$PSOLHEIGHT
 40
4.0
  9
$LOFTANG1
 40
1.570796326794897
  9
$LOFTANG2
 40
1.570796326794897
  9
$LOFTMAG1
 40
0.0
  9
$LOFTMAG2
 40
0.0
  9
$LOFTPARAM
 70
     7
  9
$LOFTNORMALS
280
     1
  9
$LATITUDE
 40
37.795
  9
$LONGITUDE
 40
-122.394
  9
$NORTHDIRECTION
 40
0.0
  9
$TIMEZONE
 70
 -8000
  9
$LIGHTGLYPHDISPLAY
280
     1
  9
$TILEMODELIGHTSYNCH
280
     1
  9
$CMATERIAL
347
44
  9
$SOLIDHIST
280
     0
  9
$SHOWHIST
280
     1
  9
$DWFFRAME
280
     2
  9
$DGNFRAME
280
     2
  9
$REALWORLDSCALE
290
     1
  9
$INTERFERECOLOR
 62
   256
  9
$CSHADOW
280
     0
  9
$SHADOWPLANELOCATION
 40
0.0
  0
ENDSEC
  0
SECTION
  2
CLASSES
  0
CLASS
  1
ACDBDICTIONARYWDFLT
  2
AcDbDictionaryWithDefault
  3
ObjectDBX Classes
 90
        0
 91
        4
280
     0
281
     0
  0
CLASS
  1
VISUALSTYLE
  2
AcDbVisualStyle
  3
ObjectDBX Classes
 90
     4095
 91
        4
280
     0
281
     0
  0
CLASS
  1
MATERIAL
  2
AcDbMaterial
  3
ObjectDBX Classes
 90
     1153
 91
        4
280
     0
281
     0
  0
CLASS
  1
SCALE
  2
AcDbScale
  3
ObjectDBX Classes
 90
     1153
 91
        4
280
     0
281
     0
  0
CLASS
  1
TABLESTYLE
  2
AcDbTableStyle
  3
ObjectDBX Classes
 90
     4095
 91
        4
280
     0
281
     0
  0
CLASS
  1
MLEADERSTYLE
  2
AcDbMLeaderStyle
  3
ACDB_MLEADERSTYLE_CLASS
 90
     4095
 91
        4
280
     0
281
     0
  0
CLASS
  1
SUN
  2
AcDbSun
  3
SCENEOE
 90
     1153
 91
        4
280
     0
281
     0
  0
CLASS
  1
DICTIONARYVAR
  2
AcDbDictionaryVar
  3
ObjectDBX Classes
 90
        0
 91
        4
280
     0
281
     0
  0
CLASS
  1
CELLSTYLEMAP
  2
AcDbCellStyleMap
  3
ObjectDBX Classes
 90
     1152
 91
        4
280
     0
281
     0
  0
ENDSEC
  0
SECTION
  2
TABLES
  0
TABLE
  2
VPORT
  5
8
330
0
100
AcDbSymbolTable
 70
     1
  0
VPORT
  5
29
330
8
100
AcDbSymbolTableRecord
100
AcDbViewportTableRecord
  2
*Active
 70
     0
 10
0.0
 20
0.0
 11
1.0
 21
1.0
 12
10.42990654205607
 22
4.5
 13
0.0
 23
0.0
 14
0.5
 24
0.5
 15
0.5
 25
0.5
 16
0.0
 26
0.0
 36
1.0
 17
0.0
 27
0.0
 37
0.0
 40
9.0
 41
1.972972972850329
 42
50.0
 43
0.0
 44
0.0
 50
0.0
 51
0.0
 71
     0
 72
   100
 73
     1
 74
     3
 75
     0
 76
     0
 77
     0
 78
     0
281
     0
 65
     1
110
0.0
120
0.0
130
0.0
111
1.0
121
0.0
131
0.0
112
0.0
122
1.0
132
0.0
 79
     0
146
0.0
 60
     3
 61
     5
292
     1
282
     1
141
0.0
142
0.0
 63
   250
361
6D
  0
ENDTAB
  0
TABLE
  2
LTYPE
  5
5
330
0
100
AcDbSymbolTable
 70
     1
  0
LTYPE
  5
14
330
5
100
AcDbSymbolTableRecord
100
AcDbLinetypeTableRecord
  2
ByBlock
 70
     0
  3

 72
    65
 73
     0
 40
0.0
  0
LTYPE
  5
15
330
5
100
AcDbSymbolTableRecord
100
AcDbLinetypeTableRecord
  2
ByLayer
 70
     0
  3

 72
    65
 73
     0
 40
0.0
  0
LTYPE
  5
16
330
5
100
AcDbSymbolTableRecord
100
AcDbLinetypeTableRecord
  2
Continuous
 70
     0
  3
Solid line
 72
    65
 73
     0
 40
0.0
  0
ENDTAB
  0
TABLE
  2
LAYER
  5
2
330
0
100
AcDbSymbolTable
 70
     2
  0
LAYER
  5
10
330
2
100
AcDbSymbolTableRecord
100
AcDbLayerTableRecord
  2
0
 70
     0
 62
     7
  6
Continuous
370
    -3
390
F
347
46
  0
LAYER
  5
6F
330
2
100
AcDbSymbolTableRecord
100
AcDbLayerTableRecord
  2
Layer 1
 70
     0
 62
     7
  6
Continuous
370
    -3
390
F
347
46
  0
ENDTAB
  0
TABLE
  2
STYLE
  5
3
330
0
100
AcDbSymbolTable
 70
     1
  0
STYLE
  5
11
330
3
100
AcDbSymbolTableRecord
100
AcDbTextStyleTableRecord
  2
Standard
 70
     0
 40
0.0
 41
1.0
 50
0.0
 71
     0
 42
0.2
  3
txt
  4

  0
ENDTAB
  0
TABLE
  2
VIEW
  5
6
330
0
100
AcDbSymbolTable
 70
     0
  0
ENDTAB
  0
TABLE
  2
UCS
  5
7
330
0
100
AcDbSymbolTable
 70
     0
  0
ENDTAB
  0
TABLE
  2
APPID
  5
9
330
0
100
AcDbSymbolTable
 70
     3
  0
APPID
  5
12
330
9
100
AcDbSymbolTableRecord
100
AcDbRegAppTableRecord
  2
ACAD
 70
     0
  0
APPID
  5
6E
330
9
100
AcDbSymbolTableRecord
100
AcDbRegAppTableRecord
  2
ODA
 70
     0
  0
APPID
  5
D2
330
9
100
AcDbSymbolTableRecord
100
AcDbRegAppTableRecord
  2
ACAD_MLEADERVER
 70
     0
  0
ENDTAB
  0
TABLE
  2
DIMSTYLE
  5
A
330
0
100
AcDbSymbolTable
 70
     1
100
AcDbDimStyleTable
  0
DIMSTYLE
105
27
330
A
100
AcDbSymbolTableRecord
100
AcDbDimStyleTableRecord
  2
Standard
 70
     0
178
     0
340
11
  0
ENDTAB
  0
TABLE
  2
BLOCK_RECORD
  5
1
330
0
100
AcDbSymbolTable
 70
     1
  0
BLOCK_RECORD
  5
1F
330
1
100
AcDbSymbolTableRecord
100
AcDbBlockTableRecord
  2
*Model_Space
340
22
 70
     0
280
     1
281
     0
  0
BLOCK_RECORD
  5
1B
330
1
100
AcDbSymbolTableRecord
100
AcDbBlockTableRecord
  2
*Paper_Space
340
1E
 70
     0
280
     1
281
     0
  0
BLOCK_RECORD
  5
23
330
1
100
AcDbSymbolTableRecord
100
AcDbBlockTableRecord
  2
*Paper_Space0
340
26
 70
     0
280
     1
281
     0
  0
ENDTAB
  0
ENDSEC
  0
SECTION
  2
BLOCKS
  0
BLOCK
  5
20
330
1F
100
AcDbEntity
  8
0
100
AcDbBlockBegin
  2
*Model_Space
 70
     0
 10
0.0
 20
0.0
 30
0.0
  3
*Model_Space
  1
*Model_Space
  0
ENDBLK
  5
21
330
1F
100
AcDbEntity
  8
0
100
AcDbBlockEnd
  0
BLOCK
  5
1C
330
1B
100
AcDbEntity
 67
     1
  8
0
100
AcDbBlockBegin
  2
*Paper_Space
 70
     0
 10
0.0
 20
0.0
 30
0.0
  3
*Paper_Space
  1
*Paper_Space
  0
ENDBLK
  5
1D
330
1B
100
AcDbEntity
 67
     1
  8
0
100
AcDbBlockEnd
  0
BLOCK
  5
24
330
23
100
AcDbEntity
  8
0
100
AcDbBlockBegin
  2
*Paper_Space0
 70
     0
 10
0.0
 20
0.0
 30
0.0
  3
*Paper_Space0
  1
*Paper_Space0
  0
ENDBLK
  5
25
330
23
100
AcDbEntity
  8
0
100
AcDbBlockEnd
  0
ENDSEC
  0
SECTION
  2
ENTITIES
  0
SPLINE
  5
70
330
1F
100
AcDbEntity
  8
Layer 1
370
     9
100
AcDbSpline
210
0.0
220
0.0
230
1.0
 70
    11
 71
     3
 72
   192
 73
   188
 74
     0
 42
0.000000001
 43
0.0000000001
 40
0.0
 40
0.0
 40
0.0
 40
0.0
 40
0.0208333333333333
 40
0.0208333333333333
 40
0.0208333333333333
 40
0.0208333333333333
 40
0.0416666666666667
 40
0.0416666666666667
 40
0.0416666666666667
 40
0.0416666666666667
 40
0.0625
 40
0.0625
 40
0.0625
 40
0.0625
 40
0.0833333333333333
 40
0.0833333333333333
 40
0.0833333333333333
 40
0.0833333333333333
 40
0.1041666666666667
 40
0.1041666666666667
 40
0.1041666666666667
 40
0.1041666666666667
 40
0.125
 40
0.125
 40
0.125
 40
0.125
 40
0.1458333333333333
 40
0.1458333333333333
 40
0.1458333333333333
 40
0.1458333333333333
 40
0.1666666666666667
 40
0.1666666666666667
 40
0.1666666666666667
 40
0.1666666666666667
 40
0.1875
 40
0.1875
 40
0.1875
 40
0.1875
 40
0.2083333333333333
 40
0.2083333333333333
 40
0.2083333333333333
 40
0.2083333333333333
 40
0.2291666666666667
 40
0.2291666666666667
 40
0.2291666666666667
 40
0.2291666666666667
 40
0.25
 40
0.25
 40
0.25
 40
0.25
 40
0.2708333333333333
 40
0.2708333333333333
 40
0.2708333333333333
 40
0.2708333333333333
 40
0.2916666666666667
 40
0.2916666666666667
 40
0.2916666666666667
 40
0.2916666666666667
 40
0.3125
 40
0.3125
 40
0.3125
 40
0.3125
 40
0.3333333333333333
 40
0.3333333333333333
 40
0.3333333333333333
 40
0.3333333333333333
 40
0.3541666666666667
 40
0.3541666666666667
 40
0.3541666666666667
 40
0.3541666666666667
 40
0.375
 40
0.375
 40
0.375
 40
0.375
 40
0.3958333333333333
 40
0.3958333333333333
 40
0.3958333333333333
 40
0.3958333333333333
 40
0.4166666666666667
 40
0.4166666666666667
 40
0.4166666666666667
 40
0.4166666666666667
 40
0.4375
 40
0.4375
 40
0.4375
 40
0.4375
 40
0.4583333333333333
 40
0.4583333333333333
 40
0.4583333333333333
 40
0.4583333333333333
 40
0.4791666666666667
 40
0.4791666666666667
 40
0.4791666666666667
 40
0.4791666666666667
 40
0.5
 40
0.5
 40
0.5
 40
0.5
 40
0.5208333333333334
 40
0.5208333333333334
 40
0.5208333333333334
 40
0.5208333333333334
 40
0.5416666666666666
 40
0.5416666666666666
 40
0.5416666666666666
 40
0.5416666666666666
 40
0.5625
 40
0.5625
 40
0.5625
 40
0.5625
 40
0.5833333333333334
 40
0.5833333333333334
 40
0.5833333333333334
 40
0.5833333333333334
 40
0.6041666666666666
 40
0.6041666666666666
 40
0.6041666666666666
 40
0.6041666666666666
 40
0.625
 40
0.625
 40
0.625
 40
0.625
 40
0.6458333333333334
 40
0.6458333333333334
 40
0.6458333333333334
 40
0.6458333333333334
 40
0.6666666666666666
 40
0.6666666666666666
 40
0.6666666666666666
 40
0.6666666666666666
 40
0.6875
 40
0.6875
 40
0.6875
 40
0.6875
 40
0.7083333333333334
 40
0.7083333333333334
 40
0.7083333333333334
 40
0.7083333333333334
 40
0.7291666666666666
 40
0.7291666666666666
 40
0.7291666666666666
 40
0.7291666666666666
 40
0.75
 40
0.75
 40
0.75
 40
0.75
 40
0.7708333333333334
 40
0.7708333333333334
 40
0.7708333333333334
 40
0.7708333333333334
 40
0.7916666666666666
 40
0.7916666666666666
 40
0.7916666666666666
 40
0.7916666666666666
 40
0.8125
 40
0.8125
 40
0.8125
 40
0.8125
 40
0.8333333333333334
 40
0.8333333333333334
 40
0.8333333333333334
 40
0.8333333333333334
 40
0.8541666666666666
 40
0.8541666666666666
 40
0.8541666666666666
 40
0.8541666666666666
 40
0.875
 40
0.875
 40
0.875
 40
0.875
 40
0.8958333333333334
 40
0.8958333333333334
 40
0.8958333333333334
 40
0.8958333333333334
 40
0.9166666666666666
 40
0.9166666666666666
 40
0.9166666666666666
 40
0.9166666666666666
 40
0.9375
 40
0.9375
 40
0.9375
 40
0.9375
 40
0.9583333333333334
 40
0.9583333333333334
 40
0.9583333333333334
 40
0.9583333333333334
 40
1.0
 40
1.0
 40
1.0
 40
1.0
 10
-32.06429
 20
-19.79775
 30
0.0
 10
-31.34193
 20
-20.537
 30
0.0
 10
-31.40812
 20
-21.77998
 30
0.0
 10
-31.7266
 20
-22.68681
 30
0.0
 10
-31.7266
 20
-22.68681
 30
0.0
 10
-31.8939
 20
-23.16335
 30
0.0
 10
-32.13787
 20
-23.61811
 30
0.0
 10
-32.49733
 20
-23.97788
 30
0.0
 10
-32.49733
 20
-23.97788
 30
0.0
 10
-32.82857
 20
-24.30948
 30
0.0
 10
-33.23537
 20
-24.5518
 30
0.0
 10
-33.67245
 20
-24.71702
 30
0.0
 10
-33.67245
 20
-24.71702
 30
0.0
 10
-34.17499
 20
-24.90687
 30
0.0
 10
-34.71098
 20
-25.02775
 30
0.0
 10
-35.24326
 20
-25.09699
 30
0.0
 10
-35.24326
 20
-25.09699
 30
0.0
 10
-35.9722
 20
-25.1917
 30
0.0
 10
-36.70219
 20
-25.14279
 30
0.0
 10
-37.43371
 20
-25.11707
 30
0.0
 10
-37.43371
 20
-25.11707
 30
0.0
 10
-38.1519
 20
-25.09187
 30
0.0
 10
-38.84688
 20
-25.17013
 30
0.0
 10
-39.54516
 20
-25.33963
 30
0.0
 10
-39.54516
 20
-25.33963
 30
0.0
 10
-39.72118
 20
-25.38234
 30
0.0
 10
-39.89639
 20
-25.42793
 30
0.0
 10
-40.07113
 20
-25.47535
 30
0.0
 10
-40.07113
 20
-25.47535
 30
0.0
 10
-40.21576
 20
-25.51464
 30
0.0
 10
-40.36505
 20
-25.53269
 30
0.0
 10
-40.51088
 20
-25.56798
 30
0.0
 10
-40.51088
 20
-25.56798
 30
0.0
 10
-40.72932
 20
-25.62088
 30
0.0
 10
-40.93018
 20
-25.70577
 30
0.0
 10
-41.1286
 20
-25.80357
 30
0.0
 10
-41.1286
 20
-25.80357
 30
0.0
 10
-41.13589
 20
-25.81547
 30
0.0
 10
-41.14298
 20
-25.82744
 30
0.0
 10
-41.14955
 20
-25.83988
 30
0.0
 10
-41.14955
 20
-25.83988
 30
0.0
 10
-41.16392
 20
-25.86732
 30
0.0
 10
-41.19387
 20
-25.86252
 30
0.0
 10
-41.21025
 20
-25.84453
 30
0.0
 10
-41.21025
 20
-25.84453
 30
0.0
 10
-41.23996
 20
-25.85973
 30
0.0
 10
-41.26975
 20
-25.8751
 30
0.0
 10
-41.29952
 20
-25.89071
 30
0.0
 10
-41.29952
 20
-25.89071
 30
0.0
 10
-41.3529
 20
-25.91879
 30
0.0
 10
-41.39057
 20
-25.84211
 30
0.0
 10
-41.3425
 20
-25.80988
 30
0.0
 10
-41.3425
 20
-25.80988
 30
0.0
 10
-41.32803
 20
-25.80015
 30
0.0
 10
-41.31335
 20
-25.79071
 30
0.0
 10
-41.29872
 20
-25.7813
 30
0.0
 10
-41.29872
 20
-25.7813
 30
0.0
 10
-41.14848
 20
-25.59638
 30
0.0
 10
-41.016
 20
-25.39815
 30
0.0
 10
-40.89821
 20
-25.191
 30
0.0
 10
-40.89821
 20
-25.191
 30
0.0
 10
-40.7503
 20
-24.93122
 30
0.0
 10
-40.62705
 20
-24.65606
 30
0.0
 10
-40.52693
 20
-24.37215
 30
0.0
 10
-40.52693
 20
-24.37215
 30
0.0
 10
-40.53809
 20
-24.36221
 30
0.0
 10
-40.54331
 20
-24.34625
 30
0.0
 10
-40.53256
 20
-24.33232
 30
0.0
 10
-40.53256
 20
-24.33232
 30
0.0
 10
-40.52329
 20
-24.32031
 30
0.0
 10
-40.51272
 20
-24.30889
 30
0.0
 10
-40.50159
 20
-24.29789
 30
0.0
 10
-40.50159
 20
-24.29789
 30
0.0
 10
-40.38331
 20
-23.94692
 30
0.0
 10
-40.29976
 20
-23.58383
 30
0.0
 10
-40.24918
 20
-23.22026
 30
0.0
 10
-40.24918
 20
-23.22026
 30
0.0
 10
-40.15492
 20
-22.54191
 30
0.0
 10
-40.23138
 20
-21.84757
 30
0.0
 10
-40.24757
 20
-21.1666
 30
0.0
 10
-40.24757
 20
-21.1666
 30
0.0
 10
-40.2547
 20
-20.86411
 30
0.0
 10
-40.25388
 20
-20.55565
 30
0.0
 10
-40.226
 20
-20.25091
 30
0.0
 10
-40.226
 20
-20.25091
 30
0.0
 10
-40.23609
 20
-20.23606
 30
0.0
 10
-40.23711
 20
-20.21695
 30
0.0
 10
-40.22127
 20
-20.20195
 30
0.0
 10
-40.22127
 20
-20.20195
 30
0.0
 10
-40.18658
 20
-19.85878
 30
0.0
 10
-40.11613
 20
-19.52083
 30
0.0
 10
-39.98269
 20
-19.20136
 30
0.0
 10
-39.98269
 20
-19.20136
 30
0.0
 10
-39.77291
 20
-18.69947
 30
0.0
 10
-39.48072
 20
-18.20831
 30
0.0
 10
-39.1234
 20
-17.79721
 30
0.0
 10
-39.1234
 20
-17.79721
 30
0.0
 10
-39.10741
 20
-17.77896
 30
0.0
 10
-39.09115
 20
-17.76081
 30
0.0
 10
-39.07482
 20
-17.74276
 30
0.0
 10
-39.07482
 20
-17.74276
 30
0.0
 10
-39.07102
 20
-17.73214
 30
0.0
 10
-39.06336
 20
-17.72275
 30
0.0
 10
-39.05213
 20
-17.71773
 30
0.0
 10
-39.05213
 20
-17.71773
 30
0.0
 10
-38.73882
 20
-17.37674
 30
0.0
 10
-38.35825
 20
-17.08803
 30
0.0
 10
-37.91195
 20
-16.94905
 30
0.0
 10
-37.91195
 20
-16.94905
 30
0.0
 10
-37.36374
 20
-16.77843
 30
0.0
 10
-36.82996
 20
-16.88237
 30
0.0
 10
-36.27899
 20
-16.98108
 30
0.0
 10
-36.27899
 20
-16.98108
 30
0.0
 10
-35.72032
 20
-17.08114
 30
0.0
 10
-35.10557
 20
-17.21914
 30
0.0
 10
-34.69886
 20
-17.64752
 30
0.0
 10
-34.69886
 20
-17.64752
 30
0.0
 10
-34.48474
 20
-17.87302
 30
0.0
 10
-34.33215
 20
-18.16554
 30
0.0
 10
-34.20078
 20
-18.44517
 30
0.0
 10
-34.20078
 20
-18.44517
 30
0.0
 10
-34.10425
 20
-18.65083
 30
0.0
 10
-34.02474
 20
-18.86293
 30
0.0
 10
-33.97413
 20
-19.08285
 30
0.0
 10
-33.97413
 20
-19.08285
 30
0.0
 10
-33.93566
 20
-18.90426
 30
0.0
 10
-33.84527
 20
-18.72478
 30
0.0
 10
-33.76433
 20
-18.57747
 30
0.0
 10
-33.76433
 20
-18.57747
 30
0.0
 10
-33.63074
 20
-18.33403
 30
0.0
 10
-33.47018
 20
-18.10676
 30
0.0
 10
-33.2985
 20
-17.88889
 30
0.0
 10
-33.2985
 20
-17.88889
 30
0.0
 10
-33.13159
 20
-17.67694
 30
0.0
 10
-32.99369
 20
-17.44294
 30
0.0
 10
-32.82688
 20
-17.23041
 30
0.0
 10
-32.82688
 20
-17.23041
 30
0.0
 10
-32.70241
 20
-17.07189
 30
0.0
 10
-32.56176
 20
-16.89866
 30
0.0
 10
-32.38942
 20
-16.7842
 30
0.0
 10
-32.38942
 20
-16.7842
 30
0.0
 10
-32.41132
 20
-16.76673
 30
0.0
 10
-32.40283
 20
-16.72044
 30
0.0
 10
-32.36607
 20
-16.71959
 30
0.0
 10
-32.36607
 20
-16.71959
 30
0.0
 10
-32.21087
 20
-16.71688
 30
0.0
 10
-32.05157
 20
-16.71714
 30
0.0
 10
-31.89826
 20
-16.74372
 30
0.0
 10
-31.89826
 20
-16.74372
 30
0.0
 10
-31.80889
 20
-16.75926
 30
0.0
 10
-31.68245
 20
-16.77586
 30
0.0
 10
-31.63802
 20
-16.8616
 30
0.0
 10
-31.63802
 20
-16.8616
 30
0.0
 10
-31.58837
 20
-16.84986
 30
0.0
 10
-31.55257
 20
-16.92353
 30
0.0
 10
-31.60392
 20
-16.94676
 30
0.0
 10
-31.60392
 20
-16.94676
 30
0.0
 10
-32.15228
 20
-17.19464
 30
0.0
 10
-32.58161
 20
-17.69002
 30
0.0
 10
-33.00805
 20
-18.10185
 30
0.0
 10
-33.00805
 20
-18.10185
 30
0.0
 10
-33.214
 20
-18.30072
 30
0.0
 10
-33.41753
 20
-18.5046
 30
0.0
 10
-33.58936
 20
-18.73433
 30
0.0
 10
-33.58936
 20
-18.73433
 30
0.0
 10
-33.61822
 20
-18.77288
 30
0.0
 10
-33.64696
 20
-18.81271
 30
0.0
 10
-33.67473
 20
-18.85376
 30
0.0
 10
-33.67473
 20
-18.85376
 30
0.0
 10
-33.69502
 20
-18.89492
 30
0.0
 10
-33.71493
 20
-18.93651
 30
0.0
 10
-33.73371
 20
-18.97874
 30
0.0
 10
-33.73371
 20
-18.97874
 30
0.0
 10
-33.73943
 20
-18.99171
 30
0.0
 10
-33.75107
 20
-18.99582
 30
0.0
 10
-33.76116
 20
-18.99359
 30
0.0
 10
-33.76116
 20
-18.99359
 30
0.0
 10
-33.80983
 20
-19.08108
 30
0.0
 10
-33.84989
 20
-19.17307
 30
0.0
 10
-33.87306
 20
-19.26879
 30
0.0
 10
-33.87306
 20
-19.26879
 30
0.0
 10
-33.67109
 20
-19.13095
 30
0.0
 10
-33.31519
 20
-19.20132
 30
0.0
 10
-33.10639
 20
-19.25774
 30
0.0
 10
-33.10639
 20
-19.25774
 30
0.0
 10
-32.73858
 20
-19.35726
 30
0.0
 10
-32.33553
 20
-19.52025
 30
0.0
 10
-32.06429
 20
-19.79775
 30
0.0
  0
SPLINE
  5
71
330
1F
100
AcDbEntity
  8
Layer 1
370
     9
100
AcDbSpline
210
0.0
220
0.0
230
1.0
 70
    11
 71
     3
 72
    48
 73
    44
 74
     0
 42
0.000000001
 43
0.0000000001
 40
0.0
 40
0.0
 40
0.0
 40
0.0
 40
0.0833333333333333
 40
0.0833333333333333
 40
0.0833333333333333
 40
0.0833333333333333
 40
0.1666666666666667
 40
0.1666666666666667
 40
0.1666666666666667
 40
0.1666666666666667
 40
0.25
 40
0.25
 40
0.25
 40
0.25
 40
0.3333333333333333
 40
0.3333333333333333
 40
0.3333333333333333
 40
0.3333333333333333
 40
0.4166666666666667
 40
0.4166666666666667
 40
0.4166666666666667
 40
0.4166666666666667
 40
0.5
 40
0.5
 40
0.5
 40
0.5
 40
0.5833333333333334
 40
0.5833333333333334
 40
0.5833333333333334
 40
0.5833333333333334
 40
0.6666666666666666
 40
0.6666666666666666
 40
0.6666666666666666
 40
0.6666666666666666
 40
0.75
 40
0.75
 40
0.75
 40
0.75
 40
0.8333333333333334
 40
0.8333333333333334
 40
0.8333333333333334
 40
0.8333333333333334
 40
1.0
 40
1.0
 40
1.0
 40
1.0
 10
-31.7981
 20
-16.81708
 30
0.0
 10
-31.7981
 20
-16.81708
 30
0.0
 10
-31.7981
 20
-16.81708
 30
0.0
 10
-31.7981
 20
-16.81708
 30
0.0
 10
-31.7981
 20
-16.81708
 30
0.0
 10
-31.78287
 20
-16.82029
 30
0.0
 10
-31.76815
 20
-16.82568
 30
0.0
 10
-31.75433
 20
-16.83416
 30
0.0
 10
-31.75433
 20
-16.83416
 30
0.0
 10
-31.74783
 20
-16.83817
 30
0.0
 10
-31.75262
 20
-16.84905
 30
0.0
 10
-31.75997
 20
-16.84645
 30
0.0
 10
-31.75997
 20
-16.84645
 30
0.0
 10
-31.8328
 20
-16.82044
 30
0.0
 10
-31.91682
 20
-16.88034
 30
0.0
 10
-31.97546
 20
-16.91708
 30
0.0
 10
-31.97546
 20
-16.91708
 30
0.0
 10
-32.06373
 20
-16.97244
 30
0.0
 10
-32.14689
 20
-17.0365
 30
0.0
 10
-32.22638
 20
-17.10377
 30
0.0
 10
-32.22638
 20
-17.10377
 30
0.0
 10
-32.38783
 20
-17.24034
 30
0.0
 10
-32.5412
 20
-17.38657
 30
0.0
 10
-32.68893
 20
-17.53786
 30
0.0
 10
-32.68893
 20
-17.53786
 30
0.0
 10
-32.93742
 20
-17.79241
 30
0.0
 10
-33.1712
 20
-18.05689
 30
0.0
 10
-33.37176
 20
-18.3446
 30
0.0
 10
-33.37176
 20
-18.3446
 30
0.0
 10
-33.28812
 20
-18.25357
 30
0.0
 10
-33.20145
 20
-18.16538
 30
0.0
 10
-33.11341
 20
-18.07938
 30
0.0
 10
-33.11341
 20
-18.07938
 30
0.0
 10
-32.89393
 20
-17.86496
 30
0.0
 10
-32.67444
 20
-17.64902
 30
0.0
 10
-32.44854
 20
-17.44129
 30
0.0
 10
-32.44854
 20
-17.44129
 30
0.0
 10
-32.20906
 20
-17.22111
 30
0.0
 10
-31.95496
 20
-17.00586
 30
0.0
 10
-31.65694
 20
-16.86929
 30
0.0
 10
-31.65694
 20
-16.86929
 30
0.0
 10
-31.68989
 20
-16.84287
 30
0.0
 10
-31.74283
 20
-16.82717
 30
0.0
 10
-31.7981
 20
-16.81708
 30
0.0
  0
SPLINE
  5
72
330
1F
100
AcDbEntity
  8
Layer 1
370
     9
100
AcDbSpline
210
0.0
220
0.0
230
1.0
 70
    11
 71
     3
 72
    40
 73
    36
 74
     0
 42
0.000000001
 43
0.0000000001
 40
0.0
 40
0.0
 40
0.0
 40
0.0
 40
0.1
 40
0.1
 40
0.1
 40
0.1
 40
0.2
 40
0.2
 40
0.2
 40
0.2
 40
0.3
 40
0.3
 40
0.3
 40
0.3
 40
0.4
 40
0.4
 40
0.4
 40
0.4
 40
0.5
 40
0.5
 40
0.5
 40
0.5
 40
0.6
 40
0.6
 40
0.6
 40
0.6
 40
0.7
 40
0.7
 40
0.7
 40
0.7
 40
0.8
 40
0.8
 40
0.8
 40
0.8
 40
1.0
 40
1.0
 40
1.0
 40
1.0
 10
-32.09606
 20
-16.80651
 30
0.0
 10
-32.09606
 20
-16.80651
 30
0.0
 10
-32.09606
 20
-16.80651
 30
0.0
 10
-32.09606
 20
-16.80651
 30
0.0
 10
-32.09606
 20
-16.80651
 30
0.0
 10
-32.30982
 20
-17.00106
 30
0.0
 10
-32.516
 20
-17.2051
 30
0.0
 10
-32.70641
 20
-17.42271
 30
0.0
 10
-32.70641
 20
-17.42271
 30
0.0
 10
-32.79288
 20
-17.52153
 30
0.0
 10
-32.87493
 20
-17.62382
 30
0.0
 10
-32.95821
 20
-17.72498
 30
0.0
 10
-32.95821
 20
-17.72498
 30
0.0
 10
-32.87129
 20
-17.62948
 30
0.0
 10
-32.7822
 20
-17.53579
 30
0.0
 10
-32.69062
 20
-17.44491
 30
0.0
 10
-32.69062
 20
-17.44491
 30
0.0
 10
-32.51843
 20
-17.27423
 30
0.0
 10
-32.34077
 20
-17.10431
 30
0.0
 10
-32.14283
 20
-16.96337
 30
0.0
 10
-32.14283
 20
-16.96337
 30
0.0
 10
-32.06494
 20
-16.90795
 30
0.0
 10
-31.92048
 20
-16.79776
 30
0.0
 10
-31.80604
 20
-16.81564
 30
0.0
 10
-31.80604
 20
-16.81564
 30
0.0
 10
-31.878
 20
-16.80324
 30
0.0
 10
-31.95256
 20
-16.8001
 30
0.0
 10
-31.99195
 20
-16.79722
 30
0.0
 10
-31.99195
 20
-16.79722
 30
0.0
 10
-32.02338
 20
-16.79492
 30
0.0
 10
-32.05482
 20
-16.79333
 30
0.0
 10
-32.08623
 20
-16.79204
 30
0.0
 10
-32.08623
 20
-16.79204
 30
0.0
 10
-32.08808
 20
-16.79706
 30
0.0
 10
-32.09115
 20
-16.80191
 30
0.0
 10
-32.09606
 20
-16.80651
 30
0.0
  0
SPLINE
  5
73
330
1F
100
AcDbEntity
  8
Layer 1
370
     9
100
AcDbSpline
210
0.0
220
0.0
230
1.0
 70
    11
 71
     3
 72
    36
 73
    32
 74
     0
 42
0.000000001
 43
0.0000000001
 40
0.0
 40
0.0
 40
0.0
 40
0.0
 40
0.1111111111111111
 40
0.1111111111111111
 40
0.1111111111111111
 40
0.1111111111111111
 40
0.2222222222222222
 40
0.2222222222222222
 40
0.2222222222222222
 40
0.2222222222222222
 40
0.3333333333333333
 40
0.3333333333333333
 40
0.3333333333333333
 40
0.3333333333333333
 40
0.4444444444444444
 40
0.4444444444444444
 40
0.4444444444444444
 40
0.4444444444444444
 40
0.5555555555555556
 40
0.5555555555555556
 40
0.5555555555555556
 40
0.5555555555555556
 40
0.6666666666666666
 40
0.6666666666666666
 40
0.6666666666666666
 40
0.6666666666666666
 40
0.7777777777777778
 40
0.7777777777777778
 40
0.7777777777777778
 40
0.7777777777777778
 40
1.0
 40
1.0
 40
1.0
 40
1.0
 10
-33.2531
 20
-17.95615
 30
0.0
 10
-33.2531
 20
-17.95615
 30
0.0
 10
-33.2531
 20
-17.95615
 30
0.0
 10
-33.2531
 20
-17.95615
 30
0.0
 10
-33.2531
 20
-17.95615
 30
0.0
 10
-33.2425
 20
-17.94431
 30
0.0
 10
-33.23193
 20
-17.93239
 30
0.0
 10
-33.22128
 20
-17.92066
 30
0.0
 10
-33.22128
 20
-17.92066
 30
0.0
 10
-33.0604
 20
-17.74127
 30
0.0
 10
-32.9155
 20
-17.54934
 30
0.0
 10
-32.75603
 20
-17.36895
 30
0.0
 10
-32.75603
 20
-17.36895
 30
0.0
 10
-32.5761
 20
-17.16532
 30
0.0
 10
-32.38513
 20
-16.97281
 30
0.0
 10
-32.18473
 20
-16.78959
 30
0.0
 10
-32.18473
 20
-16.78959
 30
0.0
 10
-32.23489
 20
-16.78889
 30
0.0
 10
-32.28513
 20
-16.78905
 30
0.0
 10
-32.33526
 20
-16.79018
 30
0.0
 10
-32.33526
 20
-16.79018
 30
0.0
 10
-32.50675
 20
-16.96101
 30
0.0
 10
-32.6684
 20
-17.1325
 30
0.0
 10
-32.81279
 20
-17.33002
 30
0.0
 10
-32.81279
 20
-17.33002
 30
0.0
 10
-32.9568
 20
-17.52703
 30
0.0
 10
-33.08352
 20
-17.7378
 30
0.0
 10
-33.23322
 20
-17.93031
 30
0.0
 10
-33.23322
 20
-17.93031
 30
0.0
 10
-33.23988
 20
-17.93891
 30
0.0
 10
-33.24645
 20
-17.94756
 30
0.0
 10
-33.2531
 20
-17.95615
 30
0.0
  0
SPLINE
  5
74
330
1F
100
AcDbEntity
  8
Layer 1
370
     9
100
AcDbSpline
210
0.0
220
0.0
230
1.0
 70
    11
 71
     3
 72
    24
 73
    20
 74
     0
 42
0.000000001
 43
0.0000000001
 40
0.0
 40
0.0
 40
0.0
 40
0.0
 40
0.1666666666666667
 40
0.1666666666666667
 40
0.1666666666666667
 40
0.1666666666666667
 40
0.3333333333333333
 40
0.3333333333333333
 40
0.3333333333333333
 40
0.3333333333333333
 40
0.5
 40
0.5
 40
0.5
 40
0.5
 40
0.6666666666666666
 40
0.6666666666666666
 40
0.6666666666666666
 40
0.6666666666666666
 40
1.0
 40
1.0
 40
1.0
 40
1.0
 10
-33.7645
 20
-18.84863
 30
0.0
 10
-33.7645
 20
-18.84863
 30
0.0
 10
-33.7645
 20
-18.84863
 30
0.0
 10
-33.7645
 20
-18.84863
 30
0.0
 10
-33.7645
 20
-18.84863
 30
0.0
 10
-33.75183
 20
-18.82797
 30
0.0
 10
-33.73887
 20
-18.80758
 30
0.0
 10
-33.72553
 20
-18.78745
 30
0.0
 10
-33.72553
 20
-18.78745
 30
0.0
 10
-33.61888
 20
-18.50945
 30
0.0
 10
-33.41177
 20
-18.25796
 30
0.0
 10
-33.22838
 20
-18.03645
 30
0.0
 10
-33.22838
 20
-18.03645
 30
0.0
 10
-33.21752
 20
-18.02337
 30
0.0
 10
-33.20621
 20
-18.01045
 30
0.0
 10
-33.19528
 20
-17.99732
 30
0.0
 10
-33.19528
 20
-17.99732
 30
0.0
 10
-33.41989
 20
-18.23879
 30
0.0
 10
-33.70411
 20
-18.5219
 30
0.0
 10
-33.7645
 20
-18.84863
 30
0.0
  0
SPLINE
  5
75
330
1F
100
AcDbEntity
  8
Layer 1
370
     9
100
AcDbSpline
210
0.0
220
0.0
230
1.0
 70
    11
 71
     3
 72
    28
 73
    24
 74
     0
 42
0.000000001
 43
0.0000000001
 40
0.0
 40
0.0
 40
0.0
 40
0.0
 40
0.1428571428571428
 40
0.1428571428571428
 40
0.1428571428571428
 40
0.1428571428571428
 40
0.2857142857142857
 40
0.2857142857142857
 40
0.2857142857142857
 40
0.2857142857142857
 40
0.4285714285714285
 40
0.4285714285714285
 40
0.4285714285714285
 40
0.4285714285714285
 40
0.5714285714285714
 40
0.5714285714285714
 40
0.5714285714285714
 40
0.5714285714285714
 40
0.7142857142857143
 40
0.7142857142857143
 40
0.7142857142857143
 40
0.7142857142857143
 40
1.0
 40
1.0
 40
1.0
 40
1.0
 10
-33.87873
 20
-19.0759
 30
0.0
 10
-33.87873
 20
-19.0759
 30
0.0
 10
-33.87873
 20
-19.0759
 30
0.0
 10
-33.87873
 20
-19.0759
 30
0.0
 10
-33.87873
 20
-19.0759
 30
0.0
 10
-33.85753
 20
-19.02027
 30
0.0
 10
-33.83142
 20
-18.96614
 30
0.0
 10
-33.80232
 20
-18.91355
 30
0.0
 10
-33.80232
 20
-18.91355
 30
0.0
 10
-33.80256
 20
-18.91265
 30
0.0
 10
-33.80297
 20
-18.91189
 30
0.0
 10
-33.80308
 20
-18.91083
 30
0.0
 10
-33.80308
 20
-18.91083
 30
0.0
 10
-33.80497
 20
-18.88728
 30
0.0
 10
-33.80481
 20
-18.8638
 30
0.0
 10
-33.80312
 20
-18.84046
 30
0.0
 10
-33.80312
 20
-18.84046
 30
0.0
 10
-33.81959
 20
-18.87992
 30
0.0
 10
-33.83478
 20
-18.9199
 30
0.0
 10
-33.84805
 20
-18.96059
 30
0.0
 10
-33.84805
 20
-18.96059
 30
0.0
 10
-33.86049
 20
-18.99902
 30
0.0
 10
-33.87018
 20
-19.03746
 30
0.0
 10
-33.87873
 20
-19.0759
 30
0.0
  0
SPLINE
  5
76
330
1F
100
AcDbEntity
  8
Layer 1
370
     9
100
AcDbSpline
210
0.0
220
0.0
230
1.0
 70
    11
 71
     3
 72
    52
 73
    48
 74
     0
 42
0.000000001
 43
0.0000000001
 40
0.0
 40
0.0
 40
0.0
 40
0.0
 40
0.0769230769230769
 40
0.0769230769230769
 40
0.0769230769230769
 40
0.0769230769230769
 40
0.1538461538461539
 40
0.1538461538461539
 40
0.1538461538461539
 40
0.1538461538461539
 40
0.2307692307692308
 40
0.2307692307692308
 40
0.2307692307692308
 40
0.2307692307692308
 40
0.3076923076923077
 40
0.3076923076923077
 40
0.3076923076923077
 40
0.3076923076923077
 40
0.3846153846153846
 40
0.3846153846153846
 40
0.3846153846153846
 40
0.3846153846153846
 40
0.4615384615384616
 40
0.4615384615384616
 40
0.4615384615384616
 40
0.4615384615384616
 40
0.5384615384615384
 40
0.5384615384615384
 40
0.5384615384615384
 40
0.5384615384615384
 40
0.6153846153846154
 40
0.6153846153846154
 40
0.6153846153846154
 40
0.6153846153846154
 40
0.6923076923076923
 40
0.6923076923076923
 40
0.6923076923076923
 40
0.6923076923076923
 40
0.7692307692307693
 40
0.7692307692307693
 40
0.7692307692307693
 40
0.7692307692307693
 40
0.8461538461538461
 40
0.8461538461538461
 40
0.8461538461538461
 40
0.8461538461538461
 40
1.0
 40
1.0
 40
1.0
 40
1.0
 10
-38.35249
 20
-17.25816
 30
0.0
 10
-38.35249
 20
-17.25816
 30
0.0
 10
-38.35249
 20
-17.25816
 30
0.0
 10
-38.35249
 20
-17.25816
 30
0.0
 10
-38.35249
 20
-17.25816
 30
0.0
 10
-38.11939
 20
-17.24621
 30
0.0
 10
-37.88494
 20
-17.20798
 30
0.0
 10
-37.65181
 20
-17.21274
 30
0.0
 10
-37.65181
 20
-17.21274
 30
0.0
 10
-37.40532
 20
-17.21775
 30
0.0
 10
-37.15478
 20
-17.25443
 30
0.0
 10
-36.91124
 20
-17.29106
 30
0.0
 10
-36.91124
 20
-17.29106
 30
0.0
 10
-36.43744
 20
-17.36227
 30
0.0
 10
-35.97102
 20
-17.47279
 30
0.0
 10
-35.52615
 20
-17.65308
 30
0.0
 10
-35.52615
 20
-17.65308
 30
0.0
 10
-35.13408
 20
-17.81201
 30
0.0
 10
-34.75815
 20
-18.02267
 30
0.0
 10
-34.46168
 20
-18.32943
 30
0.0
 10
-34.46168
 20
-18.32943
 30
0.0
 10
-34.3667
 20
-18.42768
 30
0.0
 10
-34.27878
 20
-18.53873
 30
0.0
 10
-34.20757
 20
-18.65799
 30
0.0
 10
-34.20757
 20
-18.65799
 30
0.0
 10
-34.25211
 20
-18.55137
 30
0.0
 10
-34.30224
 20
-18.44711
 30
0.0
 10
-34.35686
 20
-18.34497
 30
0.0
 10
-34.35686
 20
-18.34497
 30
0.0
 10
-34.51236
 20
-18.05449
 30
0.0
 10
-34.67465
 20
-17.76001
 30
0.0
 10
-34.94541
 20
-17.56087
 30
0.0
 10
-34.94541
 20
-17.56087
 30
0.0
 10
-35.44358
 20
-17.19443
 30
0.0
 10
-36.08162
 20
-17.11392
 30
0.0
 10
-36.67491
 20
-17.01307
 30
0.0
 10
-36.67491
 20
-17.01307
 30
0.0
 10
-36.96983
 20
-16.96294
 30
0.0
 10
-37.26092
 20
-16.92204
 30
0.0
 10
-37.55962
 20
-16.96833
 30
0.0
 10
-37.55962
 20
-16.96833
 30
0.0
 10
-37.81706
 20
-17.0082
 30
0.0
 10
-38.06547
 20
-17.09213
 30
0.0
 10
-38.2919
 20
-17.22181
 30
0.0
 10
-38.2919
 20
-17.22181
 30
0.0
 10
-38.31234
 20
-17.23355
 30
0.0
 10
-38.3324
 20
-17.24589
 30
0.0
 10
-38.35249
 20
-17.25816
 30
0.0
  0
SPLINE
  5
77
330
1F
100
AcDbEntity
  8
Layer 1
370
     9
100
AcDbSpline
210
0.0
220
0.0
230
1.0
 70
    11
 71
     3
 72
    68
 73
    64
 74
     0
 42
0.000000001
 43
0.0000000001
 40
0.0
 40
0.0
 40
0.0
 40
0.0
 40
0.0588235294117647
 40
0.0588235294117647
 40
0.0588235294117647
 40
0.0588235294117647
 40
0.1176470588235294
 40
0.1176470588235294
 40
0.1176470588235294
 40
0.1176470588235294
 40
0.1764705882352941
 40
0.1764705882352941
 40
0.1764705882352941
 40
0.1764705882352941
 40
0.2352941176470588
 40
0.2352941176470588
 40
0.2352941176470588
 40
0.2352941176470588
 40
0.2941176470588235
 40
0.2941176470588235
 40
0.2941176470588235
 40
0.2941176470588235
 40
0.3529411764705883
 40
0.3529411764705883
 40
0.3529411764705883
 40
0.3529411764705883
 40
0.4117647058823529
 40
0.4117647058823529
 40
0.4117647058823529
 40
0.4117647058823529
 40
0.4705882352941176
 40
0.4705882352941176
 40
0.4705882352941176
 40
0.4705882352941176
 40
0.5294117647058824
 40
0.5294117647058824
 40
0.5294117647058824
 40
0.5294117647058824
 40
0.5882352941176471
 40
0.5882352941176471
 40
0.5882352941176471
 40
0.5882352941176471
 40
0.6470588235294118
 40
0.6470588235294118
 40
0.6470588235294118
 40
0.6470588235294118
 40
0.7058823529411765
 40
0.7058823529411765
 40
0.7058823529411765
 40
0.7058823529411765
 40
0.7647058823529411
 40
0.7647058823529411
 40
0.7647058823529411
 40
0.7647058823529411
 40
0.8235294117647058
 40
0.8235294117647058
 40
0.8235294117647058
 40
0.8235294117647058
 40
0.8823529411764706
 40
0.8823529411764706
 40
0.8823529411764706
 40
0.8823529411764706
 40
1.0
 40
1.0
 40
1.0
 40
1.0
 10
-38.90454
 20
-17.70278
 30
0.0
 10
-38.90454
 20
-17.70278
 30
0.0
 10
-38.90454
 20
-17.70278
 30
0.0
 10
-38.90454
 20
-17.70278
 30
0.0
 10
-38.90454
 20
-17.70278
 30
0.0
 10
-37.87662
 20
-17.61655
 30
0.0
 10
-36.85055
 20
-17.53653
 30
0.0
 10
-35.85621
 20
-17.88392
 30
0.0
 10
-35.85621
 20
-17.88392
 30
0.0
 10
-35.39858
 20
-18.04387
 30
0.0
 10
-34.91687
 20
-18.27995
 30
0.0
 10
-34.57698
 20
-18.63454
 30
0.0
 10
-34.57698
 20
-18.63454
 30
0.0
 10
-34.33343
 20
-18.88872
 30
0.0
 10
-34.08515
 20
-19.29842
 30
0.0
 10
-34.16295
 20
-19.66766
 30
0.0
 10
-34.16295
 20
-19.66766
 30
0.0
 10
-34.10249
 20
-19.58607
 30
0.0
 10
-34.04702
 20
-19.50093
 30
0.0
 10
-33.99925
 20
-19.41085
 30
0.0
 10
-33.99925
 20
-19.41085
 30
0.0
 10
-34.00394
 20
-19.40733
 30
0.0
 10
-34.00765
 20
-19.40209
 30
0.0
 10
-34.01003
 20
-19.39558
 30
0.0
 10
-34.01003
 20
-19.39558
 30
0.0
 10
-34.01112
 20
-19.39462
 30
0.0
 10
-34.01219
 20
-19.3941
 30
0.0
 10
-34.0131
 20
-19.39275
 30
0.0
 10
-34.0131
 20
-19.39275
 30
0.0
 10
-34.06043
 20
-19.33023
 30
0.0
 10
-34.08229
 20
-19.26425
 30
0.0
 10
-34.09347
 20
-19.18658
 30
0.0
 10
-34.09347
 20
-19.18658
 30
0.0
 10
-34.10941
 20
-19.07601
 30
0.0
 10
-34.13765
 20
-18.9733
 30
0.0
 10
-34.18456
 20
-18.87116
 30
0.0
 10
-34.18456
 20
-18.87116
 30
0.0
 10
-34.26701
 20
-18.69151
 30
0.0
 10
-34.38026
 20
-18.52345
 30
0.0
 10
-34.52121
 20
-18.38432
 30
0.0
 10
-34.52121
 20
-18.38432
 30
0.0
 10
-34.83552
 20
-18.07383
 30
0.0
 10
-35.21514
 20
-17.85658
 30
0.0
 10
-35.62697
 20
-17.70144
 30
0.0
 10
-35.62697
 20
-17.70144
 30
0.0
 10
-36.08864
 20
-17.52745
 30
0.0
 10
-36.56641
 20
-17.41662
 30
0.0
 10
-37.05546
 20
-17.35379
 30
0.0
 10
-37.05546
 20
-17.35379
 30
0.0
 10
-37.28023
 20
-17.32484
 30
0.0
 10
-37.51232
 20
-17.28582
 30
0.0
 10
-37.73941
 20
-17.29549
 30
0.0
 10
-37.73941
 20
-17.29549
 30
0.0
 10
-37.95109
 20
-17.30445
 30
0.0
 10
-38.16335
 20
-17.34391
 30
0.0
 10
-38.3753
 20
-17.3351
 30
0.0
 10
-38.3753
 20
-17.3351
 30
0.0
 10
-38.40108
 20
-17.33399
 30
0.0
 10
-38.41235
 20
-17.31406
 30
0.0
 10
-38.41057
 20
-17.29484
 30
0.0
 10
-38.41057
 20
-17.29484
 30
0.0
 10
-38.59048
 20
-17.41161
 30
0.0
 10
-38.7547
 20
-17.54972
 30
0.0
 10
-38.90454
 20
-17.70278
 30
0.0
  0
SPLINE
  5
78
330
1F
100
AcDbEntity
  8
Layer 1
370
     9
100
AcDbSpline
210
0.0
220
0.0
230
1.0
 70
    11
 71
     3
 72
    48
 73
    44
 74
     0
 42
0.000000001
 43
0.0000000001
 40
0.0
 40
0.0
 40
0.0
 40
0.0
 40
0.0833333333333333
 40
0.0833333333333333
 40
0.0833333333333333
 40
0.0833333333333333
 40
0.1666666666666667
 40
0.1666666666666667
 40
0.1666666666666667
 40
0.1666666666666667
 40
0.25
 40
0.25
 40
0.25
 40
0.25
 40
0.3333333333333333
 40
0.3333333333333333
 40
0.3333333333333333
 40
0.3333333333333333
 40
0.4166666666666667
 40
0.4166666666666667
 40
0.4166666666666667
 40
0.4166666666666667
 40
0.5
 40
0.5
 40
0.5
 40
0.5
 40
0.5833333333333334
 40
0.5833333333333334
 40
0.5833333333333334
 40
0.5833333333333334
 40
0.6666666666666666
 40
0.6666666666666666
 40
0.6666666666666666
 40
0.6666666666666666
 40
0.75
 40
0.75
 40
0.75
 40
0.75
 40
0.8333333333333334
 40
0.8333333333333334
 40
0.8333333333333334
 40
0.8333333333333334
 40
1.0
 40
1.0
 40
1.0
 40
1.0
 10
-39.21821
 20
-18.06837
 30
0.0
 10
-39.21821
 20
-18.06837
 30
0.0
 10
-39.21821
 20
-18.06837
 30
0.0
 10
-39.21821
 20
-18.06837
 30
0.0
 10
-39.21821
 20
-18.06837
 30
0.0
 10
-39.00191
 20
-17.98269
 30
0.0
 10
-38.76346
 20
-17.95824
 30
0.0
 10
-38.53355
 20
-17.93688
 30
0.0
 10
-38.53355
 20
-17.93688
 30
0.0
 10
-38.21702
 20
-17.90719
 30
0.0
 10
-37.90152
 20
-17.86892
 30
0.0
 10
-37.58295
 20
-17.87907
 30
0.0
 10
-37.58295
 20
-17.87907
 30
0.0
 10
-36.99611
 20
-17.89776
 30
0.0
 10
-36.45055
 20
-18.05835
 30
0.0
 10
-35.90846
 20
-18.27259
 30
0.0
 10
-35.90846
 20
-18.27259
 30
0.0
 10
-35.50349
 20
-18.43275
 30
0.0
 10
-35.08688
 20
-18.62233
 30
0.0
 10
-34.76215
 20
-18.91916
 30
0.0
 10
-34.76215
 20
-18.91916
 30
0.0
 10
-34.50273
 20
-19.15619
 30
0.0
 10
-34.29261
 20
-19.48683
 30
0.0
 10
-34.30588
 20
-19.84527
 30
0.0
 10
-34.30588
 20
-19.84527
 30
0.0
 10
-34.26832
 20
-19.80208
 30
0.0
 10
-34.23201
 20
-19.75782
 30
0.0
 10
-34.19697
 20
-19.7126
 30
0.0
 10
-34.19697
 20
-19.7126
 30
0.0
 10
-34.19697
 20
-19.71249
 30
0.0
 10
-34.19705
 20
-19.71229
 30
0.0
 10
-34.19708
 20
-19.71218
 30
0.0
 10
-34.19708
 20
-19.71218
 30
0.0
 10
-34.17574
 20
-18.70806
 30
0.0
 10
-35.25386
 20
-18.13473
 30
0.0
 10
-36.08905
 20
-17.89556
 30
0.0
 10
-36.08905
 20
-17.89556
 30
0.0
 10
-37.04342
 20
-17.62221
 30
0.0
 10
-38.01308
 20
-17.71302
 30
0.0
 10
-38.98737
 20
-17.79055
 30
0.0
 10
-38.98737
 20
-17.79055
 30
0.0
 10
-39.06848
 20
-17.87949
 30
0.0
 10
-39.14542
 20
-17.97243
 30
0.0
 10
-39.21821
 20
-18.06837
 30
0.0
  0
SPLINE
  5
79
330
1F
100
AcDbEntity
  8
Layer 1
370
     9
100
AcDbSpline
210
0.0
220
0.0
230
1.0
 70
    11
 71
     3
 72
    60
 73
    56
 74
     0
 42
0.000000001
 43
0.0000000001
 40
0.0
 40
0.0
 40
0.0
 40
0.0
 40
0.0666666666666667
 40
0.0666666666666667
 40
0.0666666666666667
 40
0.0666666666666667
 40
0.1333333333333333
 40
0.1333333333333333
 40
0.1333333333333333
 40
0.1333333333333333
 40
0.2
 40
0.2
 40
0.2
 40
0.2
 40
0.2666666666666667
 40
0.2666666666666667
 40
0.2666666666666667
 40
0.2666666666666667
 40
0.3333333333333333
 40
0.3333333333333333
 40
0.3333333333333333
 40
0.3333333333333333
 40
0.4
 40
0.4
 40
0.4
 40
0.4
 40
0.4666666666666667
 40
0.4666666666666667
 40
0.4666666666666667
 40
0.4666666666666667
 40
0.5333333333333333
 40
0.5333333333333333
 40
0.5333333333333333
 40
0.5333333333333333
 40
0.6
 40
0.6
 40
0.6
 40
0.6
 40
0.6666666666666666
 40
0.6666666666666666
 40
0.6666666666666666
 40
0.6666666666666666
 40
0.7333333333333333
 40
0.7333333333333333
 40
0.7333333333333333
 40
0.7333333333333333
 40
0.8
 40
0.8
 40
0.8
 40
0.8
 40
0.8666666666666667
 40
0.8666666666666667
 40
0.8666666666666667
 40
0.8666666666666667
 40
1.0
 40
1.0
 40
1.0
 40
1.0
 10
-39.49425
 20
-18.47508
 30
0.0
 10
-39.49425
 20
-18.47508
 30
0.0
 10
-39.49425
 20
-18.47508
 30
0.0
 10
-39.49425
 20
-18.47508
 30
0.0
 10
-39.49425
 20
-18.47508
 30
0.0
 10
-38.95757
 20
-18.37215
 30
0.0
 10
-38.41844
 20
-18.25075
 30
0.0
 10
-37.87119
 20
-18.22918
 30
0.0
 10
-37.87119
 20
-18.22918
 30
0.0
 10
-37.36258
 20
-18.20916
 30
0.0
 10
-36.85461
 20
-18.291
 30
0.0
 10
-36.36535
 20
-18.42799
 30
0.0
 10
-36.36535
 20
-18.42799
 30
0.0
 10
-35.56419
 20
-18.65227
 30
0.0
 10
-34.65271
 20
-19.14237
 30
0.0
 10
-34.47912
 20
-20.03276
 30
0.0
 10
-34.47912
 20
-20.03276
 30
0.0
 10
-34.4354
 20
-19.98797
 30
0.0
 10
-34.39234
 20
-19.94243
 30
0.0
 10
-34.3504
 20
-19.89588
 30
0.0
 10
-34.3504
 20
-19.89588
 30
0.0
 10
-34.36444
 20
-19.71068
 30
0.0
 10
-34.39805
 20
-19.53622
 30
0.0
 10
-34.49209
 20
-19.36949
 30
0.0
 10
-34.49209
 20
-19.36949
 30
0.0
 10
-34.59375
 20
-19.18935
 30
0.0
 10
-34.73422
 20
-19.03671
 30
0.0
 10
-34.89624
 20
-18.9088
 30
0.0
 10
-34.89624
 20
-18.9088
 30
0.0
 10
-35.22726
 20
-18.64751
 30
0.0
 10
-35.61666
 20
-18.47017
 30
0.0
 10
-36.00899
 20
-18.32191
 30
0.0
 10
-36.00899
 20
-18.32191
 30
0.0
 10
-36.53467
 20
-18.12315
 30
0.0
 10
-37.06134
 20
-17.96955
 30
0.0
 10
-37.6287
 20
-17.96374
 30
0.0
 10
-37.6287
 20
-17.96374
 30
0.0
 10
-37.92052
 20
-17.9608
 30
0.0
 10
-38.20879
 20
-17.99278
 30
0.0
 10
-38.49887
 20
-18.01975
 30
0.0
 10
-38.49887
 20
-18.01975
 30
0.0
 10
-38.7602
 20
-18.04398
 30
0.0
 10
-39.03739
 20
-18.06757
 30
0.0
 10
-39.27525
 20
-18.18796
 30
0.0
 10
-39.27525
 20
-18.18796
 30
0.0
 10
-39.28698
 20
-18.19383
 30
0.0
 10
-39.29805
 20
-18.19399
 30
0.0
 10
-39.30772
 20
-18.19063
 30
0.0
 10
-39.30772
 20
-18.19063
 30
0.0
 10
-39.34533
 20
-18.24397
 30
0.0
 10
-39.38182
 20
-18.29799
 30
0.0
 10
-39.41706
 20
-18.35261
 30
0.0
 10
-39.41706
 20
-18.35261
 30
0.0
 10
-39.44334
 20
-18.39318
 30
0.0
 10
-39.469
 20
-18.43414
 30
0.0
 10
-39.49425
 20
-18.47508
 30
0.0
  0
SPLINE
  5
7A
330
1F
100
AcDbEntity
  8
Layer 1
370
     9
100
AcDbSpline
210
0.0
220
0.0
230
1.0
 70
    11
 71
     3
 72
    56
 73
    52
 74
     0
 42
0.000000001
 43
0.0000000001
 40
0.0
 40
0.0
 40
0.0
 40
0.0
 40
0.0714285714285714
 40
0.0714285714285714
 40
0.0714285714285714
 40
0.0714285714285714
 40
0.1428571428571428
 40
0.1428571428571428
 40
0.1428571428571428
 40
0.1428571428571428
 40
0.2142857142857143
 40
0.2142857142857143
 40
0.2142857142857143
 40
0.2142857142857143
 40
0.2857142857142857
 40
0.2857142857142857
 40
0.2857142857142857
 40
0.2857142857142857
 40
0.3571428571428572
 40
0.3571428571428572
 40
0.3571428571428572
 40
0.3571428571428572
 40
0.4285714285714285
 40
0.4285714285714285
 40
0.4285714285714285
 40
0.4285714285714285
 40
0.5
 40
0.5
 40
0.5
 40
0.5
 40
0.5714285714285714
 40
0.5714285714285714
 40
0.5714285714285714
 40
0.5714285714285714
 40
0.6428571428571429
 40
0.6428571428571429
 40
0.6428571428571429
 40
0.6428571428571429
 40
0.7142857142857143
 40
0.7142857142857143
 40
0.7142857142857143
 40
0.7142857142857143
 40
0.7857142857142857
 40
0.7857142857142857
 40
0.7857142857142857
 40
0.7857142857142857
 40
0.8571428571428571
 40
0.8571428571428571
 40
0.8571428571428571
 40
0.8571428571428571
 40
1.0
 40
1.0
 40
1.0
 40
1.0
 10
-39.77303
 20
-18.98291
 30
0.0
 10
-39.77303
 20
-18.98291
 30
0.0
 10
-39.77303
 20
-18.98291
 30
0.0
 10
-39.77303
 20
-18.98291
 30
0.0
 10
-39.77303
 20
-18.98291
 30
0.0
 10
-39.59237
 20
-18.90057
 30
0.0
 10
-39.39394
 20
-18.85642
 30
0.0
 10
-39.20022
 20
-18.82022
 30
0.0
 10
-39.20022
 20
-18.82022
 30
0.0
 10
-38.94038
 20
-18.77164
 30
0.0
 10
-38.68026
 20
-18.72066
 30
0.0
 10
-38.41974
 20
-18.67625
 30
0.0
 10
-38.41974
 20
-18.67625
 30
0.0
 10
-37.86501
 20
-18.58159
 30
0.0
 10
-37.28542
 20
-18.53013
 30
0.0
 10
-36.72673
 20
-18.61987
 30
0.0
 10
-36.72673
 20
-18.61987
 30
0.0
 10
-36.2102
 20
-18.70284
 30
0.0
 10
-35.69043
 20
-18.92647
 30
0.0
 10
-35.30357
 20
-19.28395
 30
0.0
 10
-35.30357
 20
-19.28395
 30
0.0
 10
-35.03566
 20
-19.53168
 30
0.0
 10
-34.72689
 20
-19.86956
 30
0.0
 10
-34.70131
 20
-20.25352
 30
0.0
 10
-34.70131
 20
-20.25352
 30
0.0
 10
-34.64739
 20
-20.20051
 30
0.0
 10
-34.59334
 20
-20.14761
 30
0.0
 10
-34.53982
 20
-20.09416
 30
0.0
 10
-34.53982
 20
-20.09416
 30
0.0
 10
-34.53266
 20
-20.08695
 30
0.0
 10
-34.52548
 20
-20.07979
 30
0.0
 10
-34.51834
 20
-20.07259
 30
0.0
 10
-34.51834
 20
-20.07259
 30
0.0
 10
-34.67788
 20
-19.64378
 30
0.0
 10
-34.90374
 20
-19.27663
 30
0.0
 10
-35.285
 20
-19.00767
 30
0.0
 10
-35.285
 20
-19.00767
 30
0.0
 10
-35.63605
 20
-18.76
 30
0.0
 10
-36.04099
 20
-18.6031
 30
0.0
 10
-36.45488
 20
-18.49591
 30
0.0
 10
-36.45488
 20
-18.49591
 30
0.0
 10
-36.94597
 20
-18.36873
 30
0.0
 10
-37.44737
 20
-18.29126
 30
0.0
 10
-37.95565
 20
-18.32458
 30
0.0
 10
-37.95565
 20
-18.32458
 30
0.0
 10
-38.49594
 20
-18.35976
 30
0.0
 10
-39.02281
 20
-18.48415
 30
0.0
 10
-39.55498
 20
-18.57556
 30
0.0
 10
-39.55498
 20
-18.57556
 30
0.0
 10
-39.63364
 20
-18.7087
 30
0.0
 10
-39.70694
 20
-18.84441
 30
0.0
 10
-39.77303
 20
-18.98291
 30
0.0
  0
SPLINE
  5
7B
330
1F
100
AcDbEntity
  8
Layer 1
370
     9
100
AcDbSpline
210
0.0
220
0.0
230
1.0
 70
    11
 71
     3
 72
    52
 73
    48
 74
     0
 42
0.000000001
 43
0.0000000001
 40
0.0
 40
0.0
 40
0.0
 40
0.0
 40
0.0769230769230769
 40
0.0769230769230769
 40
0.0769230769230769
 40
0.0769230769230769
 40
0.1538461538461539
 40
0.1538461538461539
 40
0.1538461538461539
 40
0.1538461538461539
 40
0.2307692307692308
 40
0.2307692307692308
 40
0.2307692307692308
 40
0.2307692307692308
 40
0.3076923076923077
 40
0.3076923076923077
 40
0.3076923076923077
 40
0.3076923076923077
 40
0.3846153846153846
 40
0.3846153846153846
 40
0.3846153846153846
 40
0.3846153846153846
 40
0.4615384615384616
 40
0.4615384615384616
 40
0.4615384615384616
 40
0.4615384615384616
 40
0.5384615384615384
 40
0.5384615384615384
 40
0.5384615384615384
 40
0.5384615384615384
 40
0.6153846153846154
 40
0.6153846153846154
 40
0.6153846153846154
 40
0.6153846153846154
 40
0.6923076923076923
 40
0.6923076923076923
 40
0.6923076923076923
 40
0.6923076923076923
 40
0.7692307692307693
 40
0.7692307692307693
 40
0.7692307692307693
 40
0.7692307692307693
 40
0.8461538461538461
 40
0.8461538461538461
 40
0.8461538461538461
 40
0.8461538461538461
 40
1.0
 40
1.0
 40
1.0
 40
1.0
 10
-39.94481
 20
-19.39682
 30
0.0
 10
-39.94481
 20
-19.39682
 30
0.0
 10
-39.94481
 20
-19.39682
 30
0.0
 10
-39.94481
 20
-19.39682
 30
0.0
 10
-39.94481
 20
-19.39682
 30
0.0
 10
-39.03984
 20
-18.87955
 30
0.0
 10
-37.87071
 20
-18.88328
 30
0.0
 10
-36.88785
 20
-19.1475
 30
0.0
 10
-36.88785
 20
-19.1475
 30
0.0
 10
-36.34671
 20
-19.29281
 30
0.0
 10
-35.82099
 20
-19.5353
 30
0.0
 10
-35.42858
 20
-19.94494
 30
0.0
 10
-35.42858
 20
-19.94494
 30
0.0
 10
-35.33163
 20
-20.04606
 30
0.0
 10
-35.02545
 20
-20.3611
 30
0.0
 10
-35.02965
 20
-20.57578
 30
0.0
 10
-35.02965
 20
-20.57578
 30
0.0
 10
-34.93692
 20
-20.48447
 30
0.0
 10
-34.84391
 20
-20.39361
 30
0.0
 10
-34.75102
 20
-20.30263
 30
0.0
 10
-34.75102
 20
-20.30263
 30
0.0
 10
-34.81468
 20
-19.88461
 30
0.0
 10
-35.12822
 20
-19.51753
 30
0.0
 10
-35.45037
 20
-19.26309
 30
0.0
 10
-35.45037
 20
-19.26309
 30
0.0
 10
-35.86495
 20
-18.93555
 30
0.0
 10
-36.37216
 20
-18.73171
 30
0.0
 10
-36.89799
 20
-18.67716
 30
0.0
 10
-36.89799
 20
-18.67716
 30
0.0
 10
-37.4256
 20
-18.62238
 30
0.0
 10
-37.96743
 20
-18.67363
 30
0.0
 10
-38.48701
 20
-18.77164
 30
0.0
 10
-38.48701
 20
-18.77164
 30
0.0
 10
-38.7183
 20
-18.81522
 30
0.0
 10
-38.95018
 20
-18.85594
 30
0.0
 10
-39.18123
 20
-18.90042
 30
0.0
 10
-39.18123
 20
-18.90042
 30
0.0
 10
-39.40207
 20
-18.94297
 30
0.0
 10
-39.62857
 20
-18.99129
 30
0.0
 10
-39.82688
 20
-19.10147
 30
0.0
 10
-39.82688
 20
-19.10147
 30
0.0
 10
-39.82707
 20
-19.10154
 30
0.0
 10
-39.82733
 20
-19.10163
 30
0.0
 10
-39.82755
 20
-19.10174
 30
0.0
 10
-39.82755
 20
-19.10174
 30
0.0
 10
-39.8704
 20
-19.19864
 30
0.0
 10
-39.90974
 20
-19.29698
 30
0.0
 10
-39.94481
 20
-19.39682
 30
0.0
  0
SPLINE
  5
7C
330
1F
100
AcDbEntity
  8
Layer 1
370
     9
100
AcDbSpline
210
0.0
220
0.0
230
1.0
 70
    11
 71
     3
 72
    64
 73
    60
 74
     0
 42
0.000000001
 43
0.0000000001
 40
0.0
 40
0.0
 40
0.0
 40
0.0
 40
0.0625
 40
0.0625
 40
0.0625
 40
0.0625
 40
0.125
 40
0.125
 40
0.125
 40
0.125
 40
0.1875
 40
0.1875
 40
0.1875
 40
0.1875
 40
0.25
 40
0.25
 40
0.25
 40
0.25
 40
0.3125
 40
0.3125
 40
0.3125
 40
0.3125
 40
0.375
 40
0.375
 40
0.375
 40
0.375
 40
0.4375
 40
0.4375
 40
0.4375
 40
0.4375
 40
0.5
 40
0.5
 40
0.5
 40
0.5
 40
0.5625
 40
0.5625
 40
0.5625
 40
0.5625
 40
0.625
 40
0.625
 40
0.625
 40
0.625
 40
0.6875
 40
0.6875
 40
0.6875
 40
0.6875
 40
0.75
 40
0.75
 40
0.75
 40
0.75
 40
0.8125
 40
0.8125
 40
0.8125
 40
0.8125
 40
0.875
 40
0.875
 40
0.875
 40
0.875
 40
1.0
 40
1.0
 40
1.0
 40
1.0
 10
-40.05839
 20
-19.78878
 30
0.0
 10
-40.05839
 20
-19.78878
 30
0.0
 10
-40.05839
 20
-19.78878
 30
0.0
 10
-40.05839
 20
-19.78878
 30
0.0
 10
-40.05839
 20
-19.78878
 30
0.0
 10
-40.01239
 20
-19.76048
 30
0.0
 10
-39.9573
 20
-19.7386
 30
0.0
 10
-39.92343
 20
-19.72039
 30
0.0
 10
-39.92343
 20
-19.72039
 30
0.0
 10
-39.81274
 20
-19.66082
 30
0.0
 10
-39.69966
 20
-19.60528
 30
0.0
 10
-39.58351
 20
-19.55703
 30
0.0
 10
-39.58351
 20
-19.55703
 30
0.0
 10
-39.33996
 20
-19.45554
 30
0.0
 10
-39.08735
 20
-19.37418
 30
0.0
 10
-38.82889
 20
-19.32052
 30
0.0
 10
-38.82889
 20
-19.32052
 30
0.0
 10
-38.33026
 20
-19.21711
 30
0.0
 10
-37.80321
 20
-19.19112
 30
0.0
 10
-37.30451
 20
-19.30877
 30
0.0
 10
-37.30451
 20
-19.30877
 30
0.0
 10
-36.82458
 20
-19.42207
 30
0.0
 10
-36.29349
 20
-19.61901
 30
0.0
 10
-35.92743
 20
-19.96027
 30
0.0
 10
-35.92743
 20
-19.96027
 30
0.0
 10
-35.76819
 20
-20.10868
 30
0.0
 10
-35.63611
 20
-20.29575
 30
0.0
 10
-35.53154
 20
-20.48635
 30
0.0
 10
-35.53154
 20
-20.48635
 30
0.0
 10
-35.45215
 20
-20.63102
 30
0.0
 10
-35.38617
 20
-20.77747
 30
0.0
 10
-35.39965
 20
-20.94031
 30
0.0
 10
-35.39965
 20
-20.94031
 30
0.0
 10
-35.34057
 20
-20.88413
 30
0.0
 10
-35.28209
 20
-20.82738
 30
0.0
 10
-35.22464
 20
-20.76952
 30
0.0
 10
-35.22464
 20
-20.76952
 30
0.0
 10
-35.18418
 20
-20.72884
 30
0.0
 10
-35.14341
 20
-20.68841
 30
0.0
 10
-35.10262
 20
-20.64801
 30
0.0
 10
-35.10262
 20
-20.64801
 30
0.0
 10
-35.07287
 20
-20.51004
 30
0.0
 10
-35.19505
 20
-20.34796
 30
0.0
 10
-35.2723
 20
-20.24946
 30
0.0
 10
-35.2723
 20
-20.24946
 30
0.0
 10
-35.36401
 20
-20.13254
 30
0.0
 10
-35.46445
 20
-20.01841
 30
0.0
 10
-35.57484
 20
-19.91863
 30
0.0
 10
-35.57484
 20
-19.91863
 30
0.0
 10
-36.00722
 20
-19.52718
 30
0.0
 10
-36.55709
 20
-19.30312
 30
0.0
 10
-37.12227
 20
-19.18305
 30
0.0
 10
-37.12227
 20
-19.18305
 30
0.0
 10
-38.06651
 20
-18.98237
 30
0.0
 10
-39.14582
 20
-19.0064
 30
0.0
 10
-39.98779
 20
-19.52703
 30
0.0
 10
-39.98779
 20
-19.52703
 30
0.0
 10
-40.01453
 20
-19.61314
 30
0.0
 10
-40.03837
 20
-19.70033
 30
0.0
 10
-40.05839
 20
-19.78878
 30
0.0
  0
SPLINE
  5
7D
330
1F
100
AcDbEntity
  8
Layer 1
370
     9
100
AcDbSpline
210
0.0
220
0.0
230
1.0
 70
    11
 71
     3
 72
    76
 73
    72
 74
     0
 42
0.000000001
 43
0.0000000001
 40
0.0
 40
0.0
 40
0.0
 40
0.0
 40
0.0526315789473684
 40
0.0526315789473684
 40
0.0526315789473684
 40
0.0526315789473684
 40
0.1052631578947368
 40
0.1052631578947368
 40
0.1052631578947368
 40
0.1052631578947368
 40
0.1578947368421053
 40
0.1578947368421053
 40
0.1578947368421053
 40
0.1578947368421053
 40
0.2105263157894737
 40
0.2105263157894737
 40
0.2105263157894737
 40
0.2105263157894737
 40
0.2631578947368421
 40
0.2631578947368421
 40
0.2631578947368421
 40
0.2631578947368421
 40
0.3157894736842105
 40
0.3157894736842105
 40
0.3157894736842105
 40
0.3157894736842105
 40
0.3684210526315789
 40
0.3684210526315789
 40
0.3684210526315789
 40
0.3684210526315789
 40
0.4210526315789473
 40
0.4210526315789473
 40
0.4210526315789473
 40
0.4210526315789473
 40
0.4736842105263158
 40
0.4736842105263158
 40
0.4736842105263158
 40
0.4736842105263158
 40
0.5263157894736842
 40
0.5263157894736842
 40
0.5263157894736842
 40
0.5263157894736842
 40
0.5789473684210527
 40
0.5789473684210527
 40
0.5789473684210527
 40
0.5789473684210527
 40
0.631578947368421
 40
0.631578947368421
 40
0.631578947368421
 40
0.631578947368421
 40
0.6842105263157895
 40
0.6842105263157895
 40
0.6842105263157895
 40
0.6842105263157895
 40
0.7368421052631579
 40
0.7368421052631579
 40
0.7368421052631579
 40
0.7368421052631579
 40
0.7894736842105263
 40
0.7894736842105263
 40
0.7894736842105263
 40
0.7894736842105263
 40
0.8421052631578947
 40
0.8421052631578947
 40
0.8421052631578947
 40
0.8421052631578947
 40
0.8947368421052632
 40
0.8947368421052632
 40
0.8947368421052632
 40
0.8947368421052632
 40
1.0
 40
1.0
 40
1.0
 40
1.0
 10
-40.11712
 20
-20.12961
 30
0.0
 10
-40.11712
 20
-20.12961
 30
0.0
 10
-40.11712
 20
-20.12961
 30
0.0
 10
-40.11712
 20
-20.12961
 30
0.0
 10
-40.11712
 20
-20.12961
 30
0.0
 10
-39.76749
 20
-19.90411
 30
0.0
 10
-39.35132
 20
-19.79247
 30
0.0
 10
-38.94826
 20
-19.70513
 30
0.0
 10
-38.94826
 20
-19.70513
 30
0.0
 10
-38.53115
 20
-19.6148
 30
0.0
 10
-38.10356
 20
-19.54699
 30
0.0
 10
-37.6779
 20
-19.61982
 30
0.0
 10
-37.6779
 20
-19.61982
 30
0.0
 10
-37.21316
 20
-19.69941
 30
0.0
 10
-36.72838
 20
-19.90042
 30
0.0
 10
-36.35074
 20
-20.18481
 30
0.0
 10
-36.35074
 20
-20.18481
 30
0.0
 10
-36.17499
 20
-20.31715
 30
0.0
 10
-35.99873
 20
-20.47087
 30
0.0
 10
-35.87487
 20
-20.65452
 30
0.0
 10
-35.87487
 20
-20.65452
 30
0.0
 10
-35.7709
 20
-20.80875
 30
0.0
 10
-35.69405
 20
-20.979
 30
0.0
 10
-35.63177
 20
-21.15385
 30
0.0
 10
-35.63177
 20
-21.15385
 30
0.0
 10
-35.56737
 20
-21.09645
 30
0.0
 10
-35.50365
 20
-21.03826
 30
0.0
 10
-35.44076
 20
-20.97917
 30
0.0
 10
-35.44076
 20
-20.97917
 30
0.0
 10
-35.43526
 20
-20.78366
 30
0.0
 10
-35.5773
 20
-20.56541
 30
0.0
 10
-35.68149
 20
-20.41091
 30
0.0
 10
-35.68149
 20
-20.41091
 30
0.0
 10
-35.80123
 20
-20.23339
 30
0.0
 10
-35.92791
 20
-20.0656
 30
0.0
 10
-36.10191
 20
-19.93715
 30
0.0
 10
-36.10191
 20
-19.93715
 30
0.0
 10
-36.46607
 20
-19.66819
 30
0.0
 10
-36.92632
 20
-19.48367
 30
0.0
 10
-37.36882
 20
-19.39142
 30
0.0
 10
-37.36882
 20
-19.39142
 30
0.0
 10
-37.84141
 20
-19.29292
 30
0.0
 10
-38.33676
 20
-19.30914
 30
0.0
 10
-38.80753
 20
-19.4108
 30
0.0
 10
-38.80753
 20
-19.4108
 30
0.0
 10
-39.0454
 20
-19.46205
 30
0.0
 10
-39.2799
 20
-19.53071
 30
0.0
 10
-39.50514
 20
-19.62312
 30
0.0
 10
-39.50514
 20
-19.62312
 30
0.0
 10
-39.61037
 20
-19.6662
 30
0.0
 10
-39.71455
 20
-19.71229
 30
0.0
 10
-39.81562
 20
-19.76461
 30
0.0
 10
-39.81562
 20
-19.76461
 30
0.0
 10
-39.87037
 20
-19.793
 30
0.0
 10
-39.92487
 20
-19.82194
 30
0.0
 10
-39.97807
 20
-19.85306
 30
0.0
 10
-39.97807
 20
-19.85306
 30
0.0
 10
-39.99395
 20
-19.86236
 30
0.0
 10
-40.05324
 20
-19.8852
 30
0.0
 10
-40.05789
 20
-19.89795
 30
0.0
 10
-40.05789
 20
-19.89795
 30
0.0
 10
-40.06355
 20
-19.91302
 30
0.0
 10
-40.07423
 20
-19.92145
 30
0.0
 10
-40.08599
 20
-19.92439
 30
0.0
 10
-40.08599
 20
-19.92439
 30
0.0
 10
-40.09733
 20
-19.98642
 30
0.0
 10
-40.1074
 20
-20.04874
 30
0.0
 10
-40.11514
 20
-20.11199
 30
0.0
 10
-40.11514
 20
-20.11199
 30
0.0
 10
-40.1159
 20
-20.11781
 30
0.0
 10
-40.11642
 20
-20.12374
 30
0.0
 10
-40.11712
 20
-20.12961
 30
0.0
  0
SPLINE
  5
7E
330
1F
100
AcDbEntity
  8
Layer 1
370
     9
100
AcDbSpline
210
0.0
220
0.0
230
1.0
 70
    11
 71
     3
 72
    48
 73
    44
 74
     0
 42
0.000000001
 43
0.0000000001
 40
0.0
 40
0.0
 40
0.0
 40
0.0
 40
0.0833333333333333
 40
0.0833333333333333
 40
0.0833333333333333
 40
0.0833333333333333
 40
0.1666666666666667
 40
0.1666666666666667
 40
0.1666666666666667
 40
0.1666666666666667
 40
0.25
 40
0.25
 40
0.25
 40
0.25
 40
0.3333333333333333
 40
0.3333333333333333
 40
0.3333333333333333
 40
0.3333333333333333
 40
0.4166666666666667
 40
0.4166666666666667
 40
0.4166666666666667
 40
0.4166666666666667
 40
0.5
 40
0.5
 40
0.5
 40
0.5
 40
0.5833333333333334
 40
0.5833333333333334
 40
0.5833333333333334
 40
0.5833333333333334
 40
0.6666666666666666
 40
0.6666666666666666
 40
0.6666666666666666
 40
0.6666666666666666
 40
0.75
 40
0.75
 40
0.75
 40
0.75
 40
0.8333333333333334
 40
0.8333333333333334
 40
0.8333333333333334
 40
0.8333333333333334
 40
1.0
 40
1.0
 40
1.0
 40
1.0
 10
-40.14753
 20
-20.49141
 30
0.0
 10
-40.14753
 20
-20.49141
 30
0.0
 10
-40.14753
 20
-20.49141
 30
0.0
 10
-40.14753
 20
-20.49141
 30
0.0
 10
-40.14753
 20
-20.49141
 30
0.0
 10
-39.47954
 20
-20.07693
 30
0.0
 10
-38.61782
 20
-19.90389
 30
0.0
 10
-37.84559
 20
-20.05145
 30
0.0
 10
-37.84559
 20
-20.05145
 30
0.0
 10
-37.42594
 20
-20.13164
 30
0.0
 10
-37.01288
 20
-20.29191
 30
0.0
 10
-36.6557
 20
-20.52755
 30
0.0
 10
-36.6557
 20
-20.52755
 30
0.0
 10
-36.34178
 20
-20.73476
 30
0.0
 10
-36.02883
 20
-20.99795
 30
0.0
 10
-35.80913
 20
-21.30851
 30
0.0
 10
-35.80913
 20
-21.30851
 30
0.0
 10
-35.75722
 20
-21.26431
 30
0.0
 10
-35.70566
 20
-21.21957
 30
0.0
 10
-35.65458
 20
-21.17435
 30
0.0
 10
-35.65458
 20
-21.17435
 30
0.0
 10
-35.75948
 20
-21.02241
 30
0.0
 10
-35.82361
 20
-20.84495
 30
0.0
 10
-35.93588
 20
-20.69775
 30
0.0
 10
-35.93588
 20
-20.69775
 30
0.0
 10
-36.07288
 20
-20.51816
 30
0.0
 10
-36.24319
 20
-20.35944
 30
0.0
 10
-36.42859
 20
-20.23073
 30
0.0
 10
-36.42859
 20
-20.23073
 30
0.0
 10
-36.79078
 20
-19.97953
 30
0.0
 10
-37.22903
 20
-19.78371
 30
0.0
 10
-37.66563
 20
-19.71063
 30
0.0
 10
-37.66563
 20
-19.71063
 30
0.0
 10
-38.08643
 20
-19.64021
 30
0.0
 10
-38.51528
 20
-19.69605
 30
0.0
 10
-38.92738
 20
-19.79358
 30
0.0
 10
-38.92738
 20
-19.79358
 30
0.0
 10
-39.34466
 20
-19.8923
 30
0.0
 10
-39.77368
 20
-19.99747
 30
0.0
 10
-40.12953
 20
-20.24717
 30
0.0
 10
-40.12953
 20
-20.24717
 30
0.0
 10
-40.13728
 20
-20.32853
 30
0.0
 10
-40.14325
 20
-20.40995
 30
0.0
 10
-40.14753
 20
-20.49141
 30
0.0
  0
SPLINE
  5
7F
330
1F
100
AcDbEntity
  8
Layer 1
370
     9
100
AcDbSpline
210
0.0
220
0.0
230
1.0
 70
    11
 71
     3
 72
    44
 73
    40
 74
     0
 42
0.000000001
 43
0.0000000001
 40
0.0
 40
0.0
 40
0.0
 40
0.0
 40
0.0909090909090909
 40
0.0909090909090909
 40
0.0909090909090909
 40
0.0909090909090909
 40
0.1818181818181818
 40
0.1818181818181818
 40
0.1818181818181818
 40
0.1818181818181818
 40
0.2727272727272727
 40
0.2727272727272727
 40
0.2727272727272727
 40
0.2727272727272727
 40
0.3636363636363636
 40
0.3636363636363636
 40
0.3636363636363636
 40
0.3636363636363636
 40
0.4545454545454545
 40
0.4545454545454545
 40
0.4545454545454545
 40
0.4545454545454545
 40
0.5454545454545454
 40
0.5454545454545454
 40
0.5454545454545454
 40
0.5454545454545454
 40
0.6363636363636364
 40
0.6363636363636364
 40
0.6363636363636364
 40
0.6363636363636364
 40
0.7272727272727273
 40
0.7272727272727273
 40
0.7272727272727273
 40
0.7272727272727273
 40
0.8181818181818182
 40
0.8181818181818182
 40
0.8181818181818182
 40
0.8181818181818182
 40
1.0
 40
1.0
 40
1.0
 40
1.0
 10
-40.1574
 20
-20.83096
 30
0.0
 10
-40.1574
 20
-20.83096
 30
0.0
 10
-40.1574
 20
-20.83096
 30
0.0
 10
-40.1574
 20
-20.83096
 30
0.0
 10
-40.1574
 20
-20.83096
 30
0.0
 10
-40.1562
 20
-20.82978
 30
0.0
 10
-40.1551
 20
-20.82856
 30
0.0
 10
-40.15363
 20
-20.82744
 30
0.0
 10
-40.15363
 20
-20.82744
 30
0.0
 10
-39.45328
 20
-20.29431
 30
0.0
 10
-38.48805
 20
-20.3044
 30
0.0
 10
-37.67919
 20
-20.54748
 30
0.0
 10
-37.67919
 20
-20.54748
 30
0.0
 10
-37.33953
 20
-20.64956
 30
0.0
 10
-36.99673
 20
-20.75762
 30
0.0
 10
-36.68116
 20
-20.92199
 30
0.0
 10
-36.68116
 20
-20.92199
 30
0.0
 10
-36.43371
 20
-21.05081
 30
0.0
 10
-36.1334
 20
-21.23531
 30
0.0
 10
-36.08117
 20
-21.5329
 30
0.0
 10
-36.08117
 20
-21.5329
 30
0.0
 10
-36.00434
 20
-21.47161
 30
0.0
 10
-35.92827
 20
-21.4092
 30
0.0
 10
-35.85303
 20
-21.34588
 30
0.0
 10
-35.85303
 20
-21.34588
 30
0.0
 10
-36.13706
 20
-21.0743
 30
0.0
 10
-36.39311
 20
-20.78862
 30
0.0
 10
-36.73174
 20
-20.57768
 30
0.0
 10
-36.73174
 20
-20.57768
 30
0.0
 10
-37.07752
 20
-20.36239
 30
0.0
 10
-37.46868
 20
-20.20431
 30
0.0
 10
-37.87094
 20
-20.13442
 30
0.0
 10
-37.87094
 20
-20.13442
 30
0.0
 10
-38.64616
 20
-19.99966
 30
0.0
 10
-39.49161
 20
-20.17169
 30
0.0
 10
-40.1523
 20
-20.59932
 30
0.0
 10
-40.1523
 20
-20.59932
 30
0.0
 10
-40.15513
 20
-20.67657
 30
0.0
 10
-40.15679
 20
-20.75371
 30
0.0
 10
-40.1574
 20
-20.83096
 30
0.0
  0
SPLINE
  5
80
330
1F
100
AcDbEntity
  8
Layer 1
370
     9
100
AcDbSpline
210
0.0
220
0.0
230
1.0
 70
    11
 71
     3
 72
    36
 73
    32
 74
     0
 42
0.000000001
 43
0.0000000001
 40
0.0
 40
0.0
 40
0.0
 40
0.0
 40
0.1111111111111111
 40
0.1111111111111111
 40
0.1111111111111111
 40
0.1111111111111111
 40
0.2222222222222222
 40
0.2222222222222222
 40
0.2222222222222222
 40
0.2222222222222222
 40
0.3333333333333333
 40
0.3333333333333333
 40
0.3333333333333333
 40
0.3333333333333333
 40
0.4444444444444444
 40
0.4444444444444444
 40
0.4444444444444444
 40
0.4444444444444444
 40
0.5555555555555556
 40
0.5555555555555556
 40
0.5555555555555556
 40
0.5555555555555556
 40
0.6666666666666666
 40
0.6666666666666666
 40
0.6666666666666666
 40
0.6666666666666666
 40
0.7777777777777778
 40
0.7777777777777778
 40
0.7777777777777778
 40
0.7777777777777778
 40
1.0
 40
1.0
 40
1.0
 40
1.0
 10
-40.15751
 20
-20.88531
 30
0.0
 10
-40.15751
 20
-20.88531
 30
0.0
 10
-40.15751
 20
-20.88531
 30
0.0
 10
-40.15751
 20
-20.88531
 30
0.0
 10
-40.15751
 20
-20.88531
 30
0.0
 10
-40.15772
 20
-21.00149
 30
0.0
 10
-40.15613
 20
-21.1176
 30
0.0
 10
-40.15307
 20
-21.23383
 30
0.0
 10
-40.15307
 20
-21.23383
 30
0.0
 10
-38.99815
 20
-20.55276
 30
0.0
 10
-37.35046
 20
-20.78072
 30
0.0
 10
-36.50925
 20
-21.86081
 30
0.0
 10
-36.50925
 20
-21.86081
 30
0.0
 10
-36.37618
 20
-21.76327
 30
0.0
 10
-36.24496
 20
-21.66294
 30
0.0
 10
-36.11562
 20
-21.56045
 30
0.0
 10
-36.11562
 20
-21.56045
 30
0.0
 10
-36.2055
 20
-21.25806
 30
0.0
 10
-36.53355
 20
-21.07328
 30
0.0
 10
-36.80008
 20
-20.94884
 30
0.0
 10
-36.80008
 20
-20.94884
 30
0.0
 10
-37.09675
 20
-20.81046
 30
0.0
 10
-37.41009
 20
-20.7134
 30
0.0
 10
-37.72334
 20
-20.6205
 30
0.0
 10
-37.72334
 20
-20.6205
 30
0.0
 10
-38.49247
 20
-20.39244
 30
0.0
 10
-39.42885
 20
-20.38549
 30
0.0
 10
-40.09425
 20
-20.89199
 30
0.0
 10
-40.09425
 20
-20.89199
 30
0.0
 10
-40.11649
 20
-20.90891
 30
0.0
 10
-40.14261
 20
-20.90133
 30
0.0
 10
-40.15751
 20
-20.88531
 30
0.0
  0
SPLINE
  5
81
330
1F
100
AcDbEntity
  8
Layer 1
370
     9
100
AcDbSpline
210
0.0
220
0.0
230
1.0
 70
    11
 71
     3
 72
    44
 73
    40
 74
     0
 42
0.000000001
 43
0.0000000001
 40
0.0
 40
0.0
 40
0.0
 40
0.0
 40
0.0909090909090909
 40
0.0909090909090909
 40
0.0909090909090909
 40
0.0909090909090909
 40
0.1818181818181818
 40
0.1818181818181818
 40
0.1818181818181818
 40
0.1818181818181818
 40
0.2727272727272727
 40
0.2727272727272727
 40
0.2727272727272727
 40
0.2727272727272727
 40
0.3636363636363636
 40
0.3636363636363636
 40
0.3636363636363636
 40
0.3636363636363636
 40
0.4545454545454545
 40
0.4545454545454545
 40
0.4545454545454545
 40
0.4545454545454545
 40
0.5454545454545454
 40
0.5454545454545454
 40
0.5454545454545454
 40
0.5454545454545454
 40
0.6363636363636364
 40
0.6363636363636364
 40
0.6363636363636364
 40
0.6363636363636364
 40
0.7272727272727273
 40
0.7272727272727273
 40
0.7272727272727273
 40
0.7272727272727273
 40
0.8181818181818182
 40
0.8181818181818182
 40
0.8181818181818182
 40
0.8181818181818182
 40
1.0
 40
1.0
 40
1.0
 40
1.0
 10
-40.12554
 20
-22.63263
 30
0.0
 10
-40.12554
 20
-22.63263
 30
0.0
 10
-40.12554
 20
-22.63263
 30
0.0
 10
-40.12554
 20
-22.63263
 30
0.0
 10
-40.12554
 20
-22.63263
 30
0.0
 10
-39.79552
 20
-22.36084
 30
0.0
 10
-39.36646
 20
-22.23713
 30
0.0
 10
-38.94057
 20
-22.27627
 30
0.0
 10
-38.94057
 20
-22.27627
 30
0.0
 10
-38.53288
 20
-22.31363
 30
0.0
 10
-38.08917
 20
-22.46686
 30
0.0
 10
-37.80273
 20
-22.77218
 30
0.0
 10
-37.80273
 20
-22.77218
 30
0.0
 10
-37.61629
 20
-22.62899
 30
0.0
 10
-37.42432
 20
-22.49573
 30
0.0
 10
-37.23095
 20
-22.36383
 30
0.0
 10
-37.23095
 20
-22.36383
 30
0.0
 10
-37.4013
 20
-22.22234
 30
0.0
 10
-37.62411
 20
-22.13719
 30
0.0
 10
-37.83099
 20
-22.07168
 30
0.0
 10
-37.83099
 20
-22.07168
 30
0.0
 10
-38.05111
 20
-22.0019
 30
0.0
 10
-38.27964
 20
-21.94611
 30
0.0
 10
-38.50933
 20
-21.91969
 30
0.0
 10
-38.50933
 20
-21.91969
 30
0.0
 10
-38.78267
 20
-21.88825
 30
0.0
 10
-39.05735
 20
-21.86576
 30
0.0
 10
-39.33077
 20
-21.9105
 30
0.0
 10
-39.33077
 20
-21.9105
 30
0.0
 10
-39.59803
 20
-21.95439
 30
0.0
 10
-39.84776
 20
-22.04729
 30
0.0
 10
-40.08735
 20
-22.17243
 30
0.0
 10
-40.08735
 20
-22.17243
 30
0.0
 10
-40.09995
 20
-22.17889
 30
0.0
 10
-40.11181
 20
-22.17867
 30
0.0
 10
-40.12185
 20
-22.17457
 30
0.0
 10
-40.12185
 20
-22.17457
 30
0.0
 10
-40.11875
 20
-22.32832
 30
0.0
 10
-40.11997
 20
-22.48095
 30
0.0
 10
-40.12554
 20
-22.63263
 30
0.0
  0
SPLINE
  5
82
330
1F
100
AcDbEntity
  8
Layer 1
370
     9
100
AcDbSpline
210
0.0
220
0.0
230
1.0
 70
    11
 71
     3
 72
    44
 73
    40
 74
     0
 42
0.000000001
 43
0.0000000001
 40
0.0
 40
0.0
 40
0.0
 40
0.0
 40
0.0909090909090909
 40
0.0909090909090909
 40
0.0909090909090909
 40
0.0909090909090909
 40
0.1818181818181818
 40
0.1818181818181818
 40
0.1818181818181818
 40
0.1818181818181818
 40
0.2727272727272727
 40
0.2727272727272727
 40
0.2727272727272727
 40
0.2727272727272727
 40
0.3636363636363636
 40
0.3636363636363636
 40
0.3636363636363636
 40
0.3636363636363636
 40
0.4545454545454545
 40
0.4545454545454545
 40
0.4545454545454545
 40
0.4545454545454545
 40
0.5454545454545454
 40
0.5454545454545454
 40
0.5454545454545454
 40
0.5454545454545454
 40
0.6363636363636364
 40
0.6363636363636364
 40
0.6363636363636364
 40
0.6363636363636364
 40
0.7272727272727273
 40
0.7272727272727273
 40
0.7272727272727273
 40
0.7272727272727273
 40
0.8181818181818182
 40
0.8181818181818182
 40
0.8181818181818182
 40
0.8181818181818182
 40
1.0
 40
1.0
 40
1.0
 40
1.0
 10
-37.19475
 20
-22.33916
 30
0.0
 10
-37.19475
 20
-22.33916
 30
0.0
 10
-37.19475
 20
-22.33916
 30
0.0
 10
-37.19475
 20
-22.33916
 30
0.0
 10
-37.19475
 20
-22.33916
 30
0.0
 10
-37.10924
 20
-22.28086
 30
0.0
 10
-37.02363
 20
-22.22288
 30
0.0
 10
-36.938
 20
-22.16426
 30
0.0
 10
-36.938
 20
-22.16426
 30
0.0
 10
-36.91265
 20
-22.14697
 30
0.0
 10
-36.88742
 20
-22.12946
 30
0.0
 10
-36.86222
 20
-22.11199
 30
0.0
 10
-36.86222
 20
-22.11199
 30
0.0
 10
-37.30718
 20
-21.70373
 30
0.0
 10
-37.81559
 20
-21.40765
 30
0.0
 10
-38.42997
 20
-21.35661
 30
0.0
 10
-38.42997
 20
-21.35661
 30
0.0
 10
-39.00987
 20
-21.30868
 30
0.0
 10
-39.56718
 20
-21.44877
 30
0.0
 10
-40.09225
 20
-21.68768
 30
0.0
 10
-40.09225
 20
-21.68768
 30
0.0
 10
-40.10995
 20
-21.69567
 30
0.0
 10
-40.12625
 20
-21.69124
 30
0.0
 10
-40.13776
 20
-21.68131
 30
0.0
 10
-40.13776
 20
-21.68131
 30
0.0
 10
-40.13245
 20
-21.81932
 30
0.0
 10
-40.12724
 20
-21.95723
 30
0.0
 10
-40.12372
 20
-22.09507
 30
0.0
 10
-40.12372
 20
-22.09507
 30
0.0
 10
-39.60161
 20
-21.82135
 30
0.0
 10
-39.06281
 20
-21.76033
 30
0.0
 10
-38.48269
 20
-21.83967
 30
0.0
 10
-38.48269
 20
-21.83967
 30
0.0
 10
-38.23183
 20
-21.87382
 30
0.0
 10
-37.98206
 20
-21.93175
 30
0.0
 10
-37.74415
 20
-22.01915
 30
0.0
 10
-37.74415
 20
-22.01915
 30
0.0
 10
-37.54756
 20
-22.09127
 30
0.0
 10
-37.33862
 20
-22.18166
 30
0.0
 10
-37.19475
 20
-22.33916
 30
0.0
  0
SPLINE
  5
83
330
1F
100
AcDbEntity
  8
Layer 1
370
     9
100
AcDbSpline
210
0.0
220
0.0
230
1.0
 70
    11
 71
     3
 72
    32
 73
    28
 74
     0
 42
0.000000001
 43
0.0000000001
 40
0.0
 40
0.0
 40
0.0
 40
0.0
 40
0.125
 40
0.125
 40
0.125
 40
0.125
 40
0.25
 40
0.25
 40
0.25
 40
0.25
 40
0.375
 40
0.375
 40
0.375
 40
0.375
 40
0.5
 40
0.5
 40
0.5
 40
0.5
 40
0.625
 40
0.625
 40
0.625
 40
0.625
 40
0.75
 40
0.75
 40
0.75
 40
0.75
 40
1.0
 40
1.0
 40
1.0
 40
1.0
 10
-36.83129
 20
-22.09068
 30
0.0
 10
-36.83129
 20
-22.09068
 30
0.0
 10
-36.83129
 20
-22.09068
 30
0.0
 10
-36.83129
 20
-22.09068
 30
0.0
 10
-36.83129
 20
-22.09068
 30
0.0
 10
-36.73499
 20
-22.02374
 30
0.0
 10
-36.63941
 20
-21.95561
 30
0.0
 10
-36.54468
 20
-21.88653
 30
0.0
 10
-36.54468
 20
-21.88653
 30
0.0
 10
-36.99909
 20
-21.41289
 30
0.0
 10
-37.55759
 20
-21.07179
 30
0.0
 10
-38.21356
 20
-20.96048
 30
0.0
 10
-38.21356
 20
-20.96048
 30
0.0
 10
-38.883
 20
-20.84692
 30
0.0
 10
-39.57105
 20
-20.97206
 30
0.0
 10
-40.15036
 20
-21.32774
 30
0.0
 10
-40.15036
 20
-21.32774
 30
0.0
 10
-40.1474
 20
-21.4249
 30
0.0
 10
-40.14379
 20
-21.52206
 30
0.0
 10
-40.1401
 20
-21.61923
 30
0.0
 10
-40.1401
 20
-21.61923
 30
0.0
 10
-40.13762
 20
-21.61725
 30
0.0
 10
-40.13477
 20
-21.61543
 30
0.0
 10
-40.13146
 20
-21.61377
 30
0.0
 10
-40.13146
 20
-21.61377
 30
0.0
 10
-39.06822
 20
-21.09261
 30
0.0
 10
-37.62751
 20
-21.10505
 30
0.0
 10
-36.83129
 20
-22.09068
 30
0.0
  0
SPLINE
  5
84
330
1F
100
AcDbEntity
  8
Layer 1
370
     9
100
AcDbSpline
210
0.0
220
0.0
230
1.0
 70
    11
 71
     3
 72
    36
 73
    32
 74
     0
 42
0.000000001
 43
0.0000000001
 40
0.0
 40
0.0
 40
0.0
 40
0.0
 40
0.1111111111111111
 40
0.1111111111111111
 40
0.1111111111111111
 40
0.1111111111111111
 40
0.2222222222222222
 40
0.2222222222222222
 40
0.2222222222222222
 40
0.2222222222222222
 40
0.3333333333333333
 40
0.3333333333333333
 40
0.3333333333333333
 40
0.3333333333333333
 40
0.4444444444444444
 40
0.4444444444444444
 40
0.4444444444444444
 40
0.4444444444444444
 40
0.5555555555555556
 40
0.5555555555555556
 40
0.5555555555555556
 40
0.5555555555555556
 40
0.6666666666666666
 40
0.6666666666666666
 40
0.6666666666666666
 40
0.6666666666666666
 40
0.7777777777777778
 40
0.7777777777777778
 40
0.7777777777777778
 40
0.7777777777777778
 40
1.0
 40
1.0
 40
1.0
 40
1.0
 10
-40.18196
 20
-23.2909
 30
0.0
 10
-40.18196
 20
-23.2909
 30
0.0
 10
-40.18196
 20
-23.2909
 30
0.0
 10
-40.18196
 20
-23.2909
 30
0.0
 10
-40.18196
 20
-23.2909
 30
0.0
 10
-39.88005
 20
-23.12887
 30
0.0
 10
-39.53287
 20
-23.03725
 30
0.0
 10
-39.19459
 20
-23.00046
 30
0.0
 10
-39.19459
 20
-23.00046
 30
0.0
 10
-38.90107
 20
-22.96854
 30
0.0
 10
-38.55055
 20
-22.97873
 30
0.0
 10
-38.326
 20
-23.19068
 30
0.0
 10
-38.326
 20
-23.19068
 30
0.0
 10
-38.16487
 20
-23.05849
 30
0.0
 10
-38.00296
 20
-22.92732
 30
0.0
 10
-37.8382
 20
-22.79973
 30
0.0
 10
-37.8382
 20
-22.79973
 30
0.0
 10
-38.17654
 20
-22.57742
 30
0.0
 10
-38.5293
 20
-22.39243
 30
0.0
 10
-38.94294
 20
-22.36307
 30
0.0
 10
-38.94294
 20
-22.36307
 30
0.0
 10
-39.36225
 20
-22.33328
 30
0.0
 10
-39.77331
 20
-22.44274
 30
0.0
 10
-40.09465
 20
-22.7205
 30
0.0
 10
-40.09465
 20
-22.7205
 30
0.0
 10
-40.10586
 20
-22.73017
 30
0.0
 10
-40.11816
 20
-22.73272
 30
0.0
 10
-40.12947
 20
-22.7308
 30
0.0
 10
-40.12947
 20
-22.7308
 30
0.0
 10
-40.13896
 20
-22.91873
 30
0.0
 10
-40.15602
 20
-23.10526
 30
0.0
 10
-40.18196
 20
-23.2909
 30
0.0
  0
SPLINE
  5
85
330
1F
100
AcDbEntity
  8
Layer 1
370
     9
100
AcDbSpline
210
0.0
220
0.0
230
1.0
 70
    11
 71
     3
 72
    44
 73
    40
 74
     0
 42
0.000000001
 43
0.0000000001
 40
0.0
 40
0.0
 40
0.0
 40
0.0
 40
0.0909090909090909
 40
0.0909090909090909
 40
0.0909090909090909
 40
0.0909090909090909
 40
0.1818181818181818
 40
0.1818181818181818
 40
0.1818181818181818
 40
0.1818181818181818
 40
0.2727272727272727
 40
0.2727272727272727
 40
0.2727272727272727
 40
0.2727272727272727
 40
0.3636363636363636
 40
0.3636363636363636
 40
0.3636363636363636
 40
0.3636363636363636
 40
0.4545454545454545
 40
0.4545454545454545
 40
0.4545454545454545
 40
0.4545454545454545
 40
0.5454545454545454
 40
0.5454545454545454
 40
0.5454545454545454
 40
0.5454545454545454
 40
0.6363636363636364
 40
0.6363636363636364
 40
0.6363636363636364
 40
0.6363636363636364
 40
0.7272727272727273
 40
0.7272727272727273
 40
0.7272727272727273
 40
0.7272727272727273
 40
0.8181818181818182
 40
0.8181818181818182
 40
0.8181818181818182
 40
0.8181818181818182
 40
1.0
 40
1.0
 40
1.0
 40
1.0
 10
-40.25969
 20
-23.72499
 30
0.0
 10
-40.25969
 20
-23.72499
 30
0.0
 10
-40.25969
 20
-23.72499
 30
0.0
 10
-40.25969
 20
-23.72499
 30
0.0
 10
-40.25969
 20
-23.72499
 30
0.0
 10
-40.16928
 20
-23.67278
 30
0.0
 10
-40.06243
 20
-23.63855
 30
0.0
 10
-39.9655
 20
-23.60667
 30
0.0
 10
-39.9655
 20
-23.60667
 30
0.0
 10
-39.80823
 20
-23.55484
 30
0.0
 10
-39.64672
 20
-23.51219
 30
0.0
 10
-39.4828
 20
-23.48752
 30
0.0
 10
-39.4828
 20
-23.48752
 30
0.0
 10
-39.27849
 20
-23.45688
 30
0.0
 10
-38.96835
 20
-23.41854
 30
0.0
 10
-38.8035
 20
-23.58041
 30
0.0
 10
-38.8035
 20
-23.58041
 30
0.0
 10
-38.7601
 20
-23.54597
 30
0.0
 10
-38.71677
 20
-23.51149
 30
0.0
 10
-38.67392
 20
-23.47641
 30
0.0
 10
-38.67392
 20
-23.47641
 30
0.0
 10
-38.5678
 20
-23.3895
 30
0.0
 10
-38.46199
 20
-23.30232
 30
0.0
 10
-38.35594
 20
-23.2152
 30
0.0
 10
-38.35594
 20
-23.2152
 30
0.0
 10
-38.61162
 20
-23.03751
 30
0.0
 10
-38.98103
 20
-23.04707
 30
0.0
 10
-39.27285
 20
-23.09363
 30
0.0
 10
-39.27285
 20
-23.09363
 30
0.0
 10
-39.58514
 20
-23.14339
 30
0.0
 10
-39.90282
 20
-23.23313
 30
0.0
 10
-40.17926
 20
-23.3897
 30
0.0
 10
-40.17926
 20
-23.3897
 30
0.0
 10
-40.18551
 20
-23.39335
 30
0.0
 10
-40.19168
 20
-23.39521
 30
0.0
 10
-40.19755
 20
-23.39564
 30
0.0
 10
-40.19755
 20
-23.39564
 30
0.0
 10
-40.21495
 20
-23.50577
 30
0.0
 10
-40.23548
 20
-23.61554
 30
0.0
 10
-40.25969
 20
-23.72499
 30
0.0
  0
SPLINE
  5
86
330
1F
100
AcDbEntity
  8
Layer 1
370
     9
100
AcDbSpline
210
0.0
220
0.0
230
1.0
 70
    11
 71
     3
 72
    44
 73
    40
 74
     0
 42
0.000000001
 43
0.0000000001
 40
0.0
 40
0.0
 40
0.0
 40
0.0
 40
0.0909090909090909
 40
0.0909090909090909
 40
0.0909090909090909
 40
0.0909090909090909
 40
0.1818181818181818
 40
0.1818181818181818
 40
0.1818181818181818
 40
0.1818181818181818
 40
0.2727272727272727
 40
0.2727272727272727
 40
0.2727272727272727
 40
0.2727272727272727
 40
0.3636363636363636
 40
0.3636363636363636
 40
0.3636363636363636
 40
0.3636363636363636
 40
0.4545454545454545
 40
0.4545454545454545
 40
0.4545454545454545
 40
0.4545454545454545
 40
0.5454545454545454
 40
0.5454545454545454
 40
0.5454545454545454
 40
0.5454545454545454
 40
0.6363636363636364
 40
0.6363636363636364
 40
0.6363636363636364
 40
0.6363636363636364
 40
0.7272727272727273
 40
0.7272727272727273
 40
0.7272727272727273
 40
0.7272727272727273
 40
0.8181818181818182
 40
0.8181818181818182
 40
0.8181818181818182
 40
0.8181818181818182
 40
1.0
 40
1.0
 40
1.0
 40
1.0
 10
-40.39391
 20
-24.21551
 30
0.0
 10
-40.39391
 20
-24.21551
 30
0.0
 10
-40.39391
 20
-24.21551
 30
0.0
 10
-40.39391
 20
-24.21551
 30
0.0
 10
-40.39391
 20
-24.21551
 30
0.0
 10
-40.34687
 20
-24.18636
 30
0.0
 10
-40.29733
 20
-24.16116
 30
0.0
 10
-40.25293
 20
-24.13884
 30
0.0
 10
-40.25293
 20
-24.13884
 30
0.0
 10
-40.13896
 20
-24.08161
 30
0.0
 10
-40.0198
 20
-24.03196
 30
0.0
 10
-39.89609
 20
-23.99967
 30
0.0
 10
-39.89609
 20
-23.99967
 30
0.0
 10
-39.71584
 20
-23.95264
 30
0.0
 10
-39.50843
 20
-23.91995
 30
0.0
 10
-39.32958
 20
-23.98323
 30
0.0
 10
-39.32958
 20
-23.98323
 30
0.0
 10
-39.16584
 20
-23.86017
 30
0.0
 10
-39.00204
 20
-23.73726
 30
0.0
 10
-38.84119
 20
-23.61052
 30
0.0
 10
-38.84119
 20
-23.61052
 30
0.0
 10
-39.02628
 20
-23.47263
 30
0.0
 10
-39.35298
 20
-23.53396
 30
0.0
 10
-39.55407
 20
-23.57486
 30
0.0
 10
-39.55407
 20
-23.57486
 30
0.0
 10
-39.80246
 20
-23.62525
 30
0.0
 10
-40.03674
 20
-23.7046
 30
0.0
 10
-40.26364
 20
-23.81654
 30
0.0
 10
-40.26364
 20
-23.81654
 30
0.0
 10
-40.27015
 20
-23.81969
 30
0.0
 10
-40.27632
 20
-23.82104
 30
0.0
 10
-40.28201
 20
-23.82104
 30
0.0
 10
-40.28201
 20
-23.82104
 30
0.0
 10
-40.30699
 20
-23.92471
 30
0.0
 10
-40.33494
 20
-24.02823
 30
0.0
 10
-40.36676
 20
-24.13153
 30
0.0
 10
-40.36676
 20
-24.13153
 30
0.0
 10
-40.37547
 20
-24.15961
 30
0.0
 10
-40.38483
 20
-24.18753
 30
0.0
 10
-40.39391
 20
-24.21551
 30
0.0
  0
SPLINE
  5
87
330
1F
100
AcDbEntity
  8
Layer 1
370
     9
100
AcDbSpline
210
0.0
220
0.0
230
1.0
 70
    11
 71
     3
 72
    44
 73
    40
 74
     0
 42
0.000000001
 43
0.0000000001
 40
0.0
 40
0.0
 40
0.0
 40
0.0
 40
0.0909090909090909
 40
0.0909090909090909
 40
0.0909090909090909
 40
0.0909090909090909
 40
0.1818181818181818
 40
0.1818181818181818
 40
0.1818181818181818
 40
0.1818181818181818
 40
0.2727272727272727
 40
0.2727272727272727
 40
0.2727272727272727
 40
0.2727272727272727
 40
0.3636363636363636
 40
0.3636363636363636
 40
0.3636363636363636
 40
0.3636363636363636
 40
0.4545454545454545
 40
0.4545454545454545
 40
0.4545454545454545
 40
0.4545454545454545
 40
0.5454545454545454
 40
0.5454545454545454
 40
0.5454545454545454
 40
0.5454545454545454
 40
0.6363636363636364
 40
0.6363636363636364
 40
0.6363636363636364
 40
0.6363636363636364
 40
0.7272727272727273
 40
0.7272727272727273
 40
0.7272727272727273
 40
0.7272727272727273
 40
0.8181818181818182
 40
0.8181818181818182
 40
0.8181818181818182
 40
0.8181818181818182
 40
1.0
 40
1.0
 40
1.0
 40
1.0
 10
-40.58661
 20
-24.72984
 30
0.0
 10
-40.58661
 20
-24.72984
 30
0.0
 10
-40.58661
 20
-24.72984
 30
0.0
 10
-40.58661
 20
-24.72984
 30
0.0
 10
-40.58661
 20
-24.72984
 30
0.0
 10
-40.41732
 20
-24.60374
 30
0.0
 10
-40.18111
 20
-24.50914
 30
0.0
 10
-39.96584
 20
-24.47684
 30
0.0
 10
-39.96584
 20
-24.47684
 30
0.0
 10
-39.93093
 20
-24.44806
 30
0.0
 10
-39.89578
 20
-24.41929
 30
0.0
 10
-39.86039
 20
-24.39088
 30
0.0
 10
-39.86039
 20
-24.39088
 30
0.0
 10
-39.85345
 20
-24.38197
 30
0.0
 10
-39.84666
 20
-24.37284
 30
0.0
 10
-39.83972
 20
-24.36404
 30
0.0
 10
-39.83972
 20
-24.36404
 30
0.0
 10
-39.83032
 20
-24.35202
 30
0.0
 10
-39.8178
 20
-24.34727
 30
0.0
 10
-39.80561
 20
-24.34743
 30
0.0
 10
-39.80561
 20
-24.34743
 30
0.0
 10
-39.66685
 20
-24.23773
 30
0.0
 10
-39.52565
 20
-24.13083
 30
0.0
 10
-39.38413
 20
-24.02428
 30
0.0
 10
-39.38413
 20
-24.02428
 30
0.0
 10
-39.55916
 20
-23.99262
 30
0.0
 10
-39.74621
 20
-24.02338
 30
0.0
 10
-39.91311
 20
-24.07734
 30
0.0
 10
-39.91311
 20
-24.07734
 30
0.0
 10
-40.02823
 20
-24.11472
 30
0.0
 10
-40.14133
 20
-24.15998
 30
0.0
 10
-40.24725
 20
-24.21887
 30
0.0
 10
-40.24725
 20
-24.21887
 30
0.0
 10
-40.3141
 20
-24.25609
 30
0.0
 10
-40.37402
 20
-24.30446
 30
0.0
 10
-40.43758
 20
-24.34594
 30
0.0
 10
-40.43758
 20
-24.34594
 30
0.0
 10
-40.48275
 20
-24.4754
 30
0.0
 10
-40.53181
 20
-24.60385
 30
0.0
 10
-40.58661
 20
-24.72984
 30
0.0
  0
SPLINE
  5
88
330
1F
100
AcDbEntity
  8
Layer 1
370
     9
100
AcDbSpline
210
0.0
220
0.0
230
1.0
 70
    11
 71
     3
 72
    44
 73
    40
 74
     0
 42
0.000000001
 43
0.0000000001
 40
0.0
 40
0.0
 40
0.0
 40
0.0
 40
0.0909090909090909
 40
0.0909090909090909
 40
0.0909090909090909
 40
0.0909090909090909
 40
0.1818181818181818
 40
0.1818181818181818
 40
0.1818181818181818
 40
0.1818181818181818
 40
0.2727272727272727
 40
0.2727272727272727
 40
0.2727272727272727
 40
0.2727272727272727
 40
0.3636363636363636
 40
0.3636363636363636
 40
0.3636363636363636
 40
0.3636363636363636
 40
0.4545454545454545
 40
0.4545454545454545
 40
0.4545454545454545
 40
0.4545454545454545
 40
0.5454545454545454
 40
0.5454545454545454
 40
0.5454545454545454
 40
0.5454545454545454
 40
0.6363636363636364
 40
0.6363636363636364
 40
0.6363636363636364
 40
0.6363636363636364
 40
0.7272727272727273
 40
0.7272727272727273
 40
0.7272727272727273
 40
0.7272727272727273
 40
0.8181818181818182
 40
0.8181818181818182
 40
0.8181818181818182
 40
0.8181818181818182
 40
1.0
 40
1.0
 40
1.0
 40
1.0
 10
-41.0415
 20
-25.56739
 30
0.0
 10
-41.0415
 20
-25.56739
 30
0.0
 10
-41.0415
 20
-25.56739
 30
0.0
 10
-41.0415
 20
-25.56739
 30
0.0
 10
-41.0415
 20
-25.56739
 30
0.0
 10
-40.96497
 20
-25.48736
 30
0.0
 10
-40.90003
 20
-25.39954
 30
0.0
 10
-40.82719
 20
-25.31646
 30
0.0
 10
-40.82719
 20
-25.31646
 30
0.0
 10
-40.6849
 20
-25.15406
 30
0.0
 10
-40.5375
 20
-24.99598
 30
0.0
 10
-40.38232
 20
-24.84591
 30
0.0
 10
-40.38232
 20
-24.84591
 30
0.0
 10
-40.28518
 20
-24.75184
 30
0.0
 10
-40.18458
 20
-24.66199
 30
0.0
 10
-40.0821
 20
-24.57449
 30
0.0
 10
-40.0821
 20
-24.57449
 30
0.0
 10
-40.13621
 20
-24.59274
 30
0.0
 10
-40.18997
 20
-24.61245
 30
0.0
 10
-40.24291
 20
-24.63573
 30
0.0
 10
-40.24291
 20
-24.63573
 30
0.0
 10
-40.36874
 20
-24.69077
 30
0.0
 10
-40.48042
 20
-24.76438
 30
0.0
 10
-40.6009
 20
-24.82829
 30
0.0
 10
-40.6009
 20
-24.82829
 30
0.0
 10
-40.6115
 20
-24.83395
 30
0.0
 10
-40.62219
 20
-24.8332
 30
0.0
 10
-40.63108
 20
-24.82883
 30
0.0
 10
-40.63108
 20
-24.82883
 30
0.0
 10
-40.78111
 20
-25.15305
 30
0.0
 10
-40.96841
 20
-25.459
 30
0.0
 10
-41.20767
 20
-25.72455
 30
0.0
 10
-41.20767
 20
-25.72455
 30
0.0
 10
-41.18853
 20
-25.71324
 30
0.0
 10
-41.16891
 20
-25.70272
 30
0.0
 10
-41.14948
 20
-25.69189
 30
0.0
 10
-41.14948
 20
-25.69189
 30
0.0
 10
-41.11656
 20
-25.64833
 30
0.0
 10
-41.07991
 20
-25.60765
 30
0.0
 10
-41.0415
 20
-25.56739
 30
0.0
  0
SPLINE
  5
89
330
1F
100
AcDbEntity
  8
Layer 1
370
     9
100
AcDbSpline
210
0.0
220
0.0
230
1.0
 70
    11
 71
     3
 72
    36
 73
    32
 74
     0
 42
0.000000001
 43
0.0000000001
 40
0.0
 40
0.0
 40
0.0
 40
0.0
 40
0.1111111111111111
 40
0.1111111111111111
 40
0.1111111111111111
 40
0.1111111111111111
 40
0.2222222222222222
 40
0.2222222222222222
 40
0.2222222222222222
 40
0.2222222222222222
 40
0.3333333333333333
 40
0.3333333333333333
 40
0.3333333333333333
 40
0.3333333333333333
 40
0.4444444444444444
 40
0.4444444444444444
 40
0.4444444444444444
 40
0.4444444444444444
 40
0.5555555555555556
 40
0.5555555555555556
 40
0.5555555555555556
 40
0.5555555555555556
 40
0.6666666666666666
 40
0.6666666666666666
 40
0.6666666666666666
 40
0.6666666666666666
 40
0.7777777777777778
 40
0.7777777777777778
 40
0.7777777777777778
 40
0.7777777777777778
 40
1.0
 40
1.0
 40
1.0
 40
1.0
 10
-40.48523
 20
-25.45094
 30
0.0
 10
-40.48523
 20
-25.45094
 30
0.0
 10
-40.48523
 20
-25.45094
 30
0.0
 10
-40.48523
 20
-25.45094
 30
0.0
 10
-40.48523
 20
-25.45094
 30
0.0
 10
-40.4258
 20
-25.26079
 30
0.0
 10
-40.31988
 20
-25.08423
 30
0.0
 10
-40.21605
 20
-24.9158
 30
0.0
 10
-40.21605
 20
-24.9158
 30
0.0
 10
-40.15919
 20
-24.82359
 30
0.0
 10
-40.1008
 20
-24.73139
 30
0.0
 10
-40.03998
 20
-24.64106
 30
0.0
 10
-40.03998
 20
-24.64106
 30
0.0
 10
-40.18196
 20
-24.76455
 30
0.0
 10
-40.31893
 20
-24.89369
 30
0.0
 10
-40.45042
 20
-25.02844
 30
0.0
 10
-40.45042
 20
-25.02844
 30
0.0
 10
-40.5873
 20
-25.16869
 30
0.0
 10
-40.72369
 20
-25.3114
 30
0.0
 10
-40.84415
 20
-25.46612
 30
0.0
 10
-40.84415
 20
-25.46612
 30
0.0
 10
-40.87971
 20
-25.51171
 30
0.0
 10
-40.91909
 20
-25.55398
 30
0.0
 10
-40.95859
 20
-25.59621
 30
0.0
 10
-40.95859
 20
-25.59621
 30
0.0
 10
-40.90051
 20
-25.57038
 30
0.0
 10
-40.84137
 20
-25.5463
 30
0.0
 10
-40.78066
 20
-25.52553
 30
0.0
 10
-40.78066
 20
-25.52553
 30
0.0
 10
-40.68338
 20
-25.49243
 30
0.0
 10
-40.58434
 20
-25.47086
 30
0.0
 10
-40.48523
 20
-25.45094
 30
0.0
  0
SPLINE
  5
8A
330
1F
100
AcDbEntity
  8
Layer 1
370
     9
100
AcDbSpline
210
0.0
220
0.0
230
1.0
 70
    11
 71
     3
 72
    44
 73
    40
 74
     0
 42
0.000000001
 43
0.0000000001
 40
0.0
 40
0.0
 40
0.0
 40
0.0
 40
0.0909090909090909
 40
0.0909090909090909
 40
0.0909090909090909
 40
0.0909090909090909
 40
0.1818181818181818
 40
0.1818181818181818
 40
0.1818181818181818
 40
0.1818181818181818
 40
0.2727272727272727
 40
0.2727272727272727
 40
0.2727272727272727
 40
0.2727272727272727
 40
0.3636363636363636
 40
0.3636363636363636
 40
0.3636363636363636
 40
0.3636363636363636
 40
0.4545454545454545
 40
0.4545454545454545
 40
0.4545454545454545
 40
0.4545454545454545
 40
0.5454545454545454
 40
0.5454545454545454
 40
0.5454545454545454
 40
0.5454545454545454
 40
0.6363636363636364
 40
0.6363636363636364
 40
0.6363636363636364
 40
0.6363636363636364
 40
0.7272727272727273
 40
0.7272727272727273
 40
0.7272727272727273
 40
0.7272727272727273
 40
0.8181818181818182
 40
0.8181818181818182
 40
0.8181818181818182
 40
0.8181818181818182
 40
1.0
 40
1.0
 40
1.0
 40
1.0
 10
-39.99206
 20
-25.33356
 30
0.0
 10
-39.99206
 20
-25.33356
 30
0.0
 10
-39.99206
 20
-25.33356
 30
0.0
 10
-39.99206
 20
-25.33356
 30
0.0
 10
-39.99206
 20
-25.33356
 30
0.0
 10
-39.92512
 20
-25.10148
 30
0.0
 10
-39.80152
 20
-24.88728
 30
0.0
 10
-39.67826
 20
-24.68137
 30
0.0
 10
-39.67826
 20
-24.68137
 30
0.0
 10
-39.55647
 20
-24.4778
 30
0.0
 10
-39.43184
 20
-24.27594
 30
0.0
 10
-39.30937
 20
-24.07291
 30
0.0
 10
-39.30937
 20
-24.07291
 30
0.0
 10
-39.41622
 20
-24.15214
 30
0.0
 10
-39.52337
 20
-24.2311
 30
0.0
 10
-39.63039
 20
-24.31075
 30
0.0
 10
-39.63039
 20
-24.31075
 30
0.0
 10
-39.68354
 20
-24.35037
 30
0.0
 10
-39.73597
 20
-24.39099
 30
0.0
 10
-39.78799
 20
-24.43215
 30
0.0
 10
-39.78799
 20
-24.43215
 30
0.0
 10
-39.79891
 20
-24.44785
 30
0.0
 10
-39.80968
 20
-24.46344
 30
0.0
 10
-39.82058
 20
-24.47909
 30
0.0
 10
-39.82058
 20
-24.47909
 30
0.0
 10
-39.8212
 20
-24.48426
 30
0.0
 10
-39.82405
 20
-24.48911
 30
0.0
 10
-39.82921
 20
-24.49152
 30
0.0
 10
-39.82921
 20
-24.49152
 30
0.0
 10
-40.04244
 20
-24.79877
 30
0.0
 10
-40.24832
 20
-25.10639
 30
0.0
 10
-40.42217
 20
-25.43845
 30
0.0
 10
-40.42217
 20
-25.43845
 30
0.0
 10
-40.34144
 20
-25.42245
 30
0.0
 10
-40.26071
 20
-25.40627
 30
0.0
 10
-40.18073
 20
-25.38442
 30
0.0
 10
-40.18073
 20
-25.38442
 30
0.0
 10
-40.11793
 20
-25.36734
 30
0.0
 10
-40.05495
 20
-25.35031
 30
0.0
 10
-39.99206
 20
-25.33356
 30
0.0
  0
SPLINE
  5
8B
330
1F
100
AcDbEntity
  8
Layer 1
370
     9
100
AcDbSpline
210
0.0
220
0.0
230
1.0
 70
    11
 71
     3
 72
    36
 73
    32
 74
     0
 42
0.000000001
 43
0.0000000001
 40
0.0
 40
0.0
 40
0.0
 40
0.0
 40
0.1111111111111111
 40
0.1111111111111111
 40
0.1111111111111111
 40
0.1111111111111111
 40
0.2222222222222222
 40
0.2222222222222222
 40
0.2222222222222222
 40
0.2222222222222222
 40
0.3333333333333333
 40
0.3333333333333333
 40
0.3333333333333333
 40
0.3333333333333333
 40
0.4444444444444444
 40
0.4444444444444444
 40
0.4444444444444444
 40
0.4444444444444444
 40
0.5555555555555556
 40
0.5555555555555556
 40
0.5555555555555556
 40
0.5555555555555556
 40
0.6666666666666666
 40
0.6666666666666666
 40
0.6666666666666666
 40
0.6666666666666666
 40
0.7777777777777778
 40
0.7777777777777778
 40
0.7777777777777778
 40
0.7777777777777778
 40
1.0
 40
1.0
 40
1.0
 40
1.0
 10
-39.44108
 20
-25.19565
 30
0.0
 10
-39.44108
 20
-25.19565
 30
0.0
 10
-39.44108
 20
-25.19565
 30
0.0
 10
-39.44108
 20
-25.19565
 30
0.0
 10
-39.44108
 20
-25.19565
 30
0.0
 10
-39.21751
 20
-24.69034
 30
0.0
 10
-38.96115
 20
-24.20467
 30
0.0
 10
-38.79217
 20
-23.67683
 30
0.0
 10
-38.79217
 20
-23.67683
 30
0.0
 10
-38.93074
 20
-23.78792
 30
0.0
 10
-39.0715
 20
-23.89534
 30
0.0
 10
-39.21337
 20
-24.00137
 30
0.0
 10
-39.21337
 20
-24.00137
 30
0.0
 10
-39.20313
 20
-24.01216
 30
0.0
 10
-39.19836
 20
-24.0286
 30
0.0
 10
-39.20708
 20
-24.04557
 30
0.0
 10
-39.20708
 20
-24.04557
 30
0.0
 10
-39.20748
 20
-24.04622
 30
0.0
 10
-39.20781
 20
-24.04692
 30
0.0
 10
-39.20818
 20
-24.04766
 30
0.0
 10
-39.20818
 20
-24.04766
 30
0.0
 10
-39.20231
 20
-24.05838
 30
0.0
 10
-39.20951
 20
-24.07456
 30
0.0
 10
-39.22193
 20
-24.07339
 30
0.0
 10
-39.22193
 20
-24.07339
 30
0.0
 10
-39.4457
 20
-24.4975
 30
0.0
 10
-39.73992
 20
-24.87655
 30
0.0
 10
-39.93206
 20
-25.3178
 30
0.0
 10
-39.93206
 20
-25.3178
 30
0.0
 10
-39.76904
 20
-25.27476
 30
0.0
 10
-39.60544
 20
-25.2335
 30
0.0
 10
-39.44108
 20
-25.19565
 30
0.0
  0
SPLINE
  5
8C
330
1F
100
AcDbEntity
  8
Layer 1
370
     9
100
AcDbSpline
210
0.0
220
0.0
230
1.0
 70
    11
 71
     3
 72
   100
 73
    96
 74
     0
 42
0.000000001
 43
0.0000000001
 40
0.0
 40
0.0
 40
0.0
 40
0.0
 40
0.04
 40
0.04
 40
0.04
 40
0.04
 40
0.08
 40
0.08
 40
0.08
 40
0.08
 40
0.12
 40
0.12
 40
0.12
 40
0.12
 40
0.16
 40
0.16
 40
0.16
 40
0.16
 40
0.2
 40
0.2
 40
0.2
 40
0.2
 40
0.24
 40
0.24
 40
0.24
 40
0.24
 40
0.28
 40
0.28
 40
0.28
 40
0.28
 40
0.32
 40
0.32
 40
0.32
 40
0.32
 40
0.36
 40
0.36
 40
0.36
 40
0.36
 40
0.4
 40
0.4
 40
0.4
 40
0.4
 40
0.44
 40
0.44
 40
0.44
 40
0.44
 40
0.48
 40
0.48
 40
0.48
 40
0.48
 40
0.52
 40
0.52
 40
0.52
 40
0.52
 40
0.56
 40
0.56
 40
0.56
 40
0.56
 40
0.6
 40
0.6
 40
0.6
 40
0.6
 40
0.64
 40
0.64
 40
0.64
 40
0.64
 40
0.68
 40
0.68
 40
0.68
 40
0.68
 40
0.72
 40
0.72
 40
0.72
 40
0.72
 40
0.76
 40
0.76
 40
0.76
 40
0.76
 40
0.8
 40
0.8
 40
0.8
 40
0.8
 40
0.84
 40
0.84
 40
0.84
 40
0.84
 40
0.88
 40
0.88
 40
0.88
 40
0.88
 40
0.92
 40
0.92
 40
0.92
 40
0.92
 40
1.0
 40
1.0
 40
1.0
 40
1.0
 10
-38.55469
 20
-24.99277
 30
0.0
 10
-38.55469
 20
-24.99277
 30
0.0
 10
-38.55469
 20
-24.99277
 30
0.0
 10
-38.55469
 20
-24.99277
 30
0.0
 10
-38.55469
 20
-24.99277
 30
0.0
 10
-38.50256
 20
-24.90927
 30
0.0
 10
-38.44996
 20
-24.8325
 30
0.0
 10
-38.4029
 20
-24.74512
 30
0.0
 10
-38.4029
 20
-24.74512
 30
0.0
 10
-38.28407
 20
-24.52435
 30
0.0
 10
-38.12833
 20
-24.32688
 30
0.0
 10
-38.00256
 20
-24.1105
 30
0.0
 10
-38.00256
 20
-24.1105
 30
0.0
 10
-37.88753
 20
-23.91238
 30
0.0
 10
-37.80051
 20
-23.69899
 30
0.0
 10
-37.77304
 20
-23.47007
 30
0.0
 10
-37.77304
 20
-23.47007
 30
0.0
 10
-37.75994
 20
-23.36014
 30
0.0
 10
-37.75156
 20
-23.24599
 30
0.0
 10
-37.7686
 20
-23.13592
 30
0.0
 10
-37.7686
 20
-23.13592
 30
0.0
 10
-37.7814
 20
-23.05358
 30
0.0
 10
-37.81756
 20
-22.97948
 30
0.0
 10
-37.83174
 20
-22.89903
 30
0.0
 10
-37.83174
 20
-22.89903
 30
0.0
 10
-37.83185
 20
-22.89855
 30
0.0
 10
-37.83171
 20
-22.89807
 30
0.0
 10
-37.83178
 20
-22.89753
 30
0.0
 10
-37.83178
 20
-22.89753
 30
0.0
 10
-37.85294
 20
-22.91397
 30
0.0
 10
-37.87423
 20
-22.93037
 30
0.0
 10
-37.89524
 20
-22.94697
 30
0.0
 10
-37.89524
 20
-22.94697
 30
0.0
 10
-38.02396
 20
-23.04904
 30
0.0
 10
-38.1514
 20
-23.15289
 30
0.0
 10
-38.27854
 20
-23.25693
 30
0.0
 10
-38.27854
 20
-23.25693
 30
0.0
 10
-38.27993
 20
-23.2588
 30
0.0
 10
-38.28168
 20
-23.26035
 30
0.0
 10
-38.28379
 20
-23.26127
 30
0.0
 10
-38.28379
 20
-23.26127
 30
0.0
 10
-38.42775
 20
-23.37931
 30
0.0
 10
-38.57145
 20
-23.49776
 30
0.0
 10
-38.71591
 20
-23.61517
 30
0.0
 10
-38.71591
 20
-23.61517
 30
0.0
 10
-38.70428
 20
-23.62377
 30
0.0
 10
-38.69744
 20
-23.63818
 30
0.0
 10
-38.70302
 20
-23.65622
 30
0.0
 10
-38.70302
 20
-23.65622
 30
0.0
 10
-38.86735
 20
-24.18295
 30
0.0
 10
-39.1018
 20
-24.69541
 30
0.0
 10
-39.36831
 20
-25.1791
 30
0.0
 10
-39.36831
 20
-25.1791
 30
0.0
 10
-39.23871
 20
-25.15011
 30
0.0
 10
-39.10851
 20
-25.12401
 30
0.0
 10
-38.9777
 20
-25.10083
 30
0.0
 10
-38.9777
 20
-25.10083
 30
0.0
 10
-38.88509
 20
-24.79086
 30
0.0
 10
-38.73608
 20
-24.49846
 30
0.0
 10
-38.60866
 20
-24.20212
 30
0.0
 10
-38.60866
 20
-24.20212
 30
0.0
 10
-38.54117
 20
-24.04489
 30
0.0
 10
-38.47519
 20
-23.88633
 30
0.0
 10
-38.42301
 20
-23.72339
 30
0.0
 10
-38.42301
 20
-23.72339
 30
0.0
 10
-38.37799
 20
-23.58265
 30
0.0
 10
-38.36062
 20
-23.43125
 30
0.0
 10
-38.3123
 20
-23.29308
 30
0.0
 10
-38.3123
 20
-23.29308
 30
0.0
 10
-38.29963
 20
-23.25684
 30
0.0
 10
-38.24864
 20
-23.26638
 30
0.0
 10
-38.2472
 20
-23.30376
 30
0.0
 10
-38.2472
 20
-23.30376
 30
0.0
 10
-38.24155
 20
-23.44887
 30
0.0
 10
-38.30122
 20
-23.61041
 30
0.0
 10
-38.34733
 20
-23.7465
 30
0.0
 10
-38.34733
 20
-23.7465
 30
0.0
 10
-38.40229
 20
-23.90886
 30
0.0
 10
-38.46651
 20
-24.06757
 30
0.0
 10
-38.53555
 20
-24.22437
 30
0.0
 10
-38.53555
 20
-24.22437
 30
0.0
 10
-38.66316
 20
-24.51405
 30
0.0
 10
-38.79509
 20
-24.80181
 30
0.0
 10
-38.92335
 20
-25.09133
 30
0.0
 10
-38.92335
 20
-25.09133
 30
0.0
 10
-38.86051
 20
-25.08065
 30
0.0
 10
-38.7976
 20
-25.07052
 30
0.0
 10
-38.73446
 20
-25.06154
 30
0.0
 10
-38.73446
 20
-25.06154
 30
0.0
 10
-38.67675
 20
-25.05338
 30
0.0
 10
-38.61891
 20
-25.04606
 30
0.0
 10
-38.56098
 20
-25.03912
 30
0.0
 10
-38.56098
 20
-25.03912
 30
0.0
 10
-38.56707
 20
-25.02534
 30
0.0
 10
-38.56518
 20
-25.0096
 30
0.0
 10
-38.55469
 20
-24.99277
 30
0.0
  0
SPLINE
  5
8D
330
1F
100
AcDbEntity
  8
Layer 1
370
     9
100
AcDbSpline
210
0.0
220
0.0
230
1.0
 70
    11
 71
     3
 72
    64
 73
    60
 74
     0
 42
0.000000001
 43
0.0000000001
 40
0.0
 40
0.0
 40
0.0
 40
0.0
 40
0.0625
 40
0.0625
 40
0.0625
 40
0.0625
 40
0.125
 40
0.125
 40
0.125
 40
0.125
 40
0.1875
 40
0.1875
 40
0.1875
 40
0.1875
 40
0.25
 40
0.25
 40
0.25
 40
0.25
 40
0.3125
 40
0.3125
 40
0.3125
 40
0.3125
 40
0.375
 40
0.375
 40
0.375
 40
0.375
 40
0.4375
 40
0.4375
 40
0.4375
 40
0.4375
 40
0.5
 40
0.5
 40
0.5
 40
0.5
 40
0.5625
 40
0.5625
 40
0.5625
 40
0.5625
 40
0.625
 40
0.625
 40
0.625
 40
0.625
 40
0.6875
 40
0.6875
 40
0.6875
 40
0.6875
 40
0.75
 40
0.75
 40
0.75
 40
0.75
 40
0.8125
 40
0.8125
 40
0.8125
 40
0.8125
 40
0.875
 40
0.875
 40
0.875
 40
0.875
 40
1.0
 40
1.0
 40
1.0
 40
1.0
 10
-38.04262
 20
-24.99668
 30
0.0
 10
-38.04262
 20
-24.99668
 30
0.0
 10
-38.04262
 20
-24.99668
 30
0.0
 10
-38.04262
 20
-24.99668
 30
0.0
 10
-38.04262
 20
-24.99668
 30
0.0
 10
-37.95966
 20
-24.83032
 30
0.0
 10
-37.81647
 20
-24.70171
 30
0.0
 10
-37.70291
 20
-24.55436
 30
0.0
 10
-37.70291
 20
-24.55436
 30
0.0
 10
-37.53905
 20
-24.34193
 30
0.0
 10
-37.41006
 20
-24.08118
 30
0.0
 10
-37.30806
 20
-23.83384
 30
0.0
 10
-37.30806
 20
-23.83384
 30
0.0
 10
-37.20992
 20
-23.59584
 30
0.0
 10
-37.13028
 20
-23.34892
 30
0.0
 10
-37.12907
 20
-23.08904
 30
0.0
 10
-37.12907
 20
-23.08904
 30
0.0
 10
-37.12852
 20
-22.97426
 30
0.0
 10
-37.13457
 20
-22.85899
 30
0.0
 10
-37.15655
 20
-22.74613
 30
0.0
 10
-37.15655
 20
-22.74613
 30
0.0
 10
-37.17403
 20
-22.65595
 30
0.0
 10
-37.215
 20
-22.56792
 30
0.0
 10
-37.22667
 20
-22.47818
 30
0.0
 10
-37.22667
 20
-22.47818
 30
0.0
 10
-37.22779
 20
-22.46953
 30
0.0
 10
-37.22596
 20
-22.46093
 30
0.0
 10
-37.22227
 20
-22.4534
 30
0.0
 10
-37.22227
 20
-22.4534
 30
0.0
 10
-37.41232
 20
-22.58569
 30
0.0
 10
-37.60098
 20
-22.71986
 30
0.0
 10
-37.78475
 20
-22.86091
 30
0.0
 10
-37.78475
 20
-22.86091
 30
0.0
 10
-37.78113
 20
-22.86268
 30
0.0
 10
-37.77761
 20
-22.86508
 30
0.0
 10
-37.77437
 20
-22.86854
 30
0.0
 10
-37.77437
 20
-22.86854
 30
0.0
 10
-37.66723
 20
-22.98391
 30
0.0
 10
-37.66712
 20
-23.2193
 30
0.0
 10
-37.67801
 20
-23.36623
 30
0.0
 10
-37.67801
 20
-23.36623
 30
0.0
 10
-37.6929
 20
-23.5682
 30
0.0
 10
-37.74152
 20
-23.76551
 30
0.0
 10
-37.82574
 20
-23.94985
 30
0.0
 10
-37.82574
 20
-23.94985
 30
0.0
 10
-37.93189
 20
-24.18225
 30
0.0
 10
-38.08971
 20
-24.38223
 30
0.0
 10
-38.2287
 20
-24.59483
 30
0.0
 10
-38.2287
 20
-24.59483
 30
0.0
 10
-38.29597
 20
-24.6977
 30
0.0
 10
-38.34544
 20
-24.82776
 30
0.0
 10
-38.42183
 20
-24.92215
 30
0.0
 10
-38.42183
 20
-24.92215
 30
0.0
 10
-38.44183
 20
-24.94676
 30
0.0
 10
-38.52369
 20
-25.00805
 30
0.0
 10
-38.50373
 20
-25.03244
 30
0.0
 10
-38.50373
 20
-25.03244
 30
0.0
 10
-38.35043
 20
-25.01526
 30
0.0
 10
-38.19664
 20
-25.00303
 30
0.0
 10
-38.04262
 20
-24.99668
 30
0.0
  0
SPLINE
  5
8E
330
1F
100
AcDbEntity
  8
Layer 1
370
     9
100
AcDbSpline
210
0.0
220
0.0
230
1.0
 70
    11
 71
     3
 72
    64
 73
    60
 74
     0
 42
0.000000001
 43
0.0000000001
 40
0.0
 40
0.0
 40
0.0
 40
0.0
 40
0.0625
 40
0.0625
 40
0.0625
 40
0.0625
 40
0.125
 40
0.125
 40
0.125
 40
0.125
 40
0.1875
 40
0.1875
 40
0.1875
 40
0.1875
 40
0.25
 40
0.25
 40
0.25
 40
0.25
 40
0.3125
 40
0.3125
 40
0.3125
 40
0.3125
 40
0.375
 40
0.375
 40
0.375
 40
0.375
 40
0.4375
 40
0.4375
 40
0.4375
 40
0.4375
 40
0.5
 40
0.5
 40
0.5
 40
0.5
 40
0.5625
 40
0.5625
 40
0.5625
 40
0.5625
 40
0.625
 40
0.625
 40
0.625
 40
0.625
 40
0.6875
 40
0.6875
 40
0.6875
 40
0.6875
 40
0.75
 40
0.75
 40
0.75
 40
0.75
 40
0.8125
 40
0.8125
 40
0.8125
 40
0.8125
 40
0.875
 40
0.875
 40
0.875
 40
0.875
 40
1.0
 40
1.0
 40
1.0
 40
1.0
 10
-37.50474
 20
-24.9995
 30
0.0
 10
-37.50474
 20
-24.9995
 30
0.0
 10
-37.50474
 20
-24.9995
 30
0.0
 10
-37.50474
 20
-24.9995
 30
0.0
 10
-37.50474
 20
-24.9995
 30
0.0
 10
-37.39173
 20
-24.70982
 30
0.0
 10
-37.1539
 20
-24.49974
 30
0.0
 10
-37.01118
 20
-24.2271
 30
0.0
 10
-37.01118
 20
-24.2271
 30
0.0
 10
-36.87442
 20
-23.96593
 30
0.0
 10
-36.80082
 20
-23.6842
 30
0.0
 10
-36.73613
 20
-23.39835
 30
0.0
 10
-36.73613
 20
-23.39835
 30
0.0
 10
-36.65407
 20
-23.0357
 30
0.0
 10
-36.52748
 20
-22.48879
 30
0.0
 10
-36.85294
 20
-22.20739
 30
0.0
 10
-36.85294
 20
-22.20739
 30
0.0
 10
-36.85502
 20
-22.20553
 30
0.0
 10
-36.8567
 20
-22.20365
 30
0.0
 10
-36.8583
 20
-22.20169
 30
0.0
 10
-36.8583
 20
-22.20169
 30
0.0
 10
-36.95579
 20
-22.26911
 30
0.0
 10
-37.05337
 20
-22.33627
 30
0.0
 10
-37.15083
 20
-22.40381
 30
0.0
 10
-37.15083
 20
-22.40381
 30
0.0
 10
-37.15314
 20
-22.41108
 30
0.0
 10
-37.16002
 20
-22.41619
 30
0.0
 10
-37.16774
 20
-22.41549
 30
0.0
 10
-37.16774
 20
-22.41549
 30
0.0
 10
-37.17336
 20
-22.4194
 30
0.0
 10
-37.17913
 20
-22.4234
 30
0.0
 10
-37.1848
 20
-22.42724
 30
0.0
 10
-37.1848
 20
-22.42724
 30
0.0
 10
-37.17535
 20
-22.42724
 30
0.0
 10
-37.16568
 20
-22.4313
 30
0.0
 10
-37.15759
 20
-22.44145
 30
0.0
 10
-37.15759
 20
-22.44145
 30
0.0
 10
-37.03884
 20
-22.58944
 30
0.0
 10
-37.03154
 20
-22.86956
 30
0.0
 10
-37.03408
 20
-23.05124
 30
0.0
 10
-37.03408
 20
-23.05124
 30
0.0
 10
-37.03758
 20
-23.30221
 30
0.0
 10
-37.09385
 20
-23.54043
 30
0.0
 10
-37.1888
 20
-23.77283
 30
0.0
 10
-37.1888
 20
-23.77283
 30
0.0
 10
-37.29391
 20
-24.03009
 30
0.0
 10
-37.41965
 20
-24.30824
 30
0.0
 10
-37.58829
 20
-24.53055
 30
0.0
 10
-37.58829
 20
-24.53055
 30
0.0
 10
-37.71096
 20
-24.69215
 30
0.0
 10
-37.8596
 20
-24.83181
 30
0.0
 10
-37.98003
 20
-24.99449
 30
0.0
 10
-37.98003
 20
-24.99449
 30
0.0
 10
-37.88681
 20
-24.99161
 30
0.0
 10
-37.79346
 20
-24.99113
 30
0.0
 10
-37.70014
 20
-24.99336
 30
0.0
 10
-37.70014
 20
-24.99336
 30
0.0
 10
-37.63501
 20
-24.99491
 30
0.0
 10
-37.56991
 20
-24.99731
 30
0.0
 10
-37.50474
 20
-24.9995
 30
0.0
  0
SPLINE
  5
8F
330
1F
100
AcDbEntity
  8
Layer 1
370
     9
100
AcDbSpline
210
0.0
220
0.0
230
1.0
 70
    11
 71
     3
 72
    40
 73
    36
 74
     0
 42
0.000000001
 43
0.0000000001
 40
0.0
 40
0.0
 40
0.0
 40
0.0
 40
0.1
 40
0.1
 40
0.1
 40
0.1
 40
0.2
 40
0.2
 40
0.2
 40
0.2
 40
0.3
 40
0.3
 40
0.3
 40
0.3
 40
0.4
 40
0.4
 40
0.4
 40
0.4
 40
0.5
 40
0.5
 40
0.5
 40
0.5
 40
0.6
 40
0.6
 40
0.6
 40
0.6
 40
0.7
 40
0.7
 40
0.7
 40
0.7
 40
0.8
 40
0.8
 40
0.8
 40
0.8
 40
1.0
 40
1.0
 40
1.0
 40
1.0
 10
-36.9985
 20
-25.01963
 30
0.0
 10
-36.9985
 20
-25.01963
 30
0.0
 10
-36.9985
 20
-25.01963
 30
0.0
 10
-36.9985
 20
-25.01963
 30
0.0
 10
-36.9985
 20
-25.01963
 30
0.0
 10
-36.70377
 20
-24.55078
 30
0.0
 10
-36.38077
 20
-24.08535
 30
0.0
 10
-36.23193
 20
-23.54453
 30
0.0
 10
-36.23193
 20
-23.54453
 30
0.0
 10
-36.16015
 20
-23.284
 30
0.0
 10
-36.12519
 20
-23.00533
 30
0.0
 10
-36.18186
 20
-22.73801
 30
0.0
 10
-36.18186
 20
-22.73801
 30
0.0
 10
-36.24203
 20
-22.45416
 30
0.0
 10
-36.3862
 20
-22.21931
 30
0.0
 10
-36.58234
 20
-22.00889
 30
0.0
 10
-36.58234
 20
-22.00889
 30
0.0
 10
-36.64779
 20
-22.05524
 30
0.0
 10
-36.71344
 20
-22.10127
 30
0.0
 10
-36.77939
 20
-22.14717
 30
0.0
 10
-36.77939
 20
-22.14717
 30
0.0
 10
-36.45184
 20
-22.43771
 30
0.0
 10
-36.55007
 20
-22.97602
 30
0.0
 10
-36.63369
 20
-23.35171
 30
0.0
 10
-36.63369
 20
-23.35171
 30
0.0
 10
-36.69789
 20
-23.64021
 30
0.0
 10
-36.76586
 20
-23.93213
 30
0.0
 10
-36.90079
 20
-24.19714
 30
0.0
 10
-36.90079
 20
-24.19714
 30
0.0
 10
-37.04897
 20
-24.48832
 30
0.0
 10
-37.2932
 20
-24.71394
 30
0.0
 10
-37.44572
 20
-25.00132
 30
0.0
 10
-37.44572
 20
-25.00132
 30
0.0
 10
-37.29661
 20
-25.00681
 30
0.0
 10
-37.14755
 20
-25.01344
 30
0.0
 10
-36.9985
 20
-25.01963
 30
0.0
  0
SPLINE
  5
90
330
1F
100
AcDbEntity
  8
Layer 1
370
     9
100
AcDbSpline
210
0.0
220
0.0
230
1.0
 70
    11
 71
     3
 72
    56
 73
    52
 74
     0
 42
0.000000001
 43
0.0000000001
 40
0.0
 40
0.0
 40
0.0
 40
0.0
 40
0.0714285714285714
 40
0.0714285714285714
 40
0.0714285714285714
 40
0.0714285714285714
 40
0.1428571428571428
 40
0.1428571428571428
 40
0.1428571428571428
 40
0.1428571428571428
 40
0.2142857142857143
 40
0.2142857142857143
 40
0.2142857142857143
 40
0.2142857142857143
 40
0.2857142857142857
 40
0.2857142857142857
 40
0.2857142857142857
 40
0.2857142857142857
 40
0.3571428571428572
 40
0.3571428571428572
 40
0.3571428571428572
 40
0.3571428571428572
 40
0.4285714285714285
 40
0.4285714285714285
 40
0.4285714285714285
 40
0.4285714285714285
 40
0.5
 40
0.5
 40
0.5
 40
0.5
 40
0.5714285714285714
 40
0.5714285714285714
 40
0.5714285714285714
 40
0.5714285714285714
 40
0.6428571428571429
 40
0.6428571428571429
 40
0.6428571428571429
 40
0.6428571428571429
 40
0.7142857142857143
 40
0.7142857142857143
 40
0.7142857142857143
 40
0.7142857142857143
 40
0.7857142857142857
 40
0.7857142857142857
 40
0.7857142857142857
 40
0.7857142857142857
 40
0.8571428571428571
 40
0.8571428571428571
 40
0.8571428571428571
 40
0.8571428571428571
 40
1.0
 40
1.0
 40
1.0
 40
1.0
 10
-36.54505
 20
-25.03565
 30
0.0
 10
-36.54505
 20
-25.03565
 30
0.0
 10
-36.54505
 20
-25.03565
 30
0.0
 10
-36.54505
 20
-25.03565
 30
0.0
 10
-36.54505
 20
-25.03565
 30
0.0
 10
-36.27972
 20
-24.79086
 30
0.0
 10
-36.02562
 20
-24.53354
 30
0.0
 10
-35.85155
 20
-24.2129
 30
0.0
 10
-35.85155
 20
-24.2129
 30
0.0
 10
-35.66283
 20
-23.86545
 30
0.0
 10
-35.58499
 20
-23.49894
 30
0.0
 10
-35.57217
 20
-23.10612
 30
0.0
 10
-35.57217
 20
-23.10612
 30
0.0
 10
-35.56335
 20
-22.83517
 30
0.0
 10
-35.59497
 20
-22.5574
 30
0.0
 10
-35.66173
 20
-22.2949
 30
0.0
 10
-35.66173
 20
-22.2949
 30
0.0
 10
-35.72162
 20
-22.05919
 30
0.0
 10
-35.81928
 20
-21.73587
 30
0.0
 10
-36.06934
 20
-21.63685
 30
0.0
 10
-36.06934
 20
-21.63685
 30
0.0
 10
-36.0722
 20
-21.63578
 30
0.0
 10
-36.07465
 20
-21.63434
 30
0.0
 10
-36.07705
 20
-21.6329
 30
0.0
 10
-36.07705
 20
-21.6329
 30
0.0
 10
-36.09106
 20
-21.64395
 30
0.0
 10
-36.10495
 20
-21.65526
 30
0.0
 10
-36.11905
 20
-21.66631
 30
0.0
 10
-36.11905
 20
-21.66631
 30
0.0
 10
-36.23444
 20
-21.75654
 30
0.0
 10
-36.35213
 20
-21.84351
 30
0.0
 10
-36.47087
 20
-21.92893
 30
0.0
 10
-36.47087
 20
-21.92893
 30
0.0
 10
-36.47375
 20
-21.93496
 30
0.0
 10
-36.47945
 20
-21.93928
 30
0.0
 10
-36.48581
 20
-21.93976
 30
0.0
 10
-36.48581
 20
-21.93976
 30
0.0
 10
-36.49476
 20
-21.94618
 30
0.0
 10
-36.50354
 20
-21.95258
 30
0.0
 10
-36.51245
 20
-21.95898
 30
0.0
 10
-36.51245
 20
-21.95898
 30
0.0
 10
-35.61781
 20
-22.87105
 30
0.0
 10
-36.28465
 20
-24.17301
 30
0.0
 10
-36.93507
 20
-25.0222
 30
0.0
 10
-36.93507
 20
-25.0222
 30
0.0
 10
-36.82026
 20
-25.02689
 30
0.0
 10
-36.70547
 20
-25.03137
 30
0.0
 10
-36.59061
 20
-25.03469
 30
0.0
 10
-36.59061
 20
-25.03469
 30
0.0
 10
-36.57542
 20
-25.03506
 30
0.0
 10
-36.56021
 20
-25.03522
 30
0.0
 10
-36.54505
 20
-25.03565
 30
0.0
  0
SPLINE
  5
91
330
1F
100
AcDbEntity
  8
Layer 1
370
     9
100
AcDbSpline
210
0.0
220
0.0
230
1.0
 70
    11
 71
     3
 72
    68
 73
    64
 74
     0
 42
0.000000001
 43
0.0000000001
 40
0.0
 40
0.0
 40
0.0
 40
0.0
 40
0.0588235294117647
 40
0.0588235294117647
 40
0.0588235294117647
 40
0.0588235294117647
 40
0.1176470588235294
 40
0.1176470588235294
 40
0.1176470588235294
 40
0.1176470588235294
 40
0.1764705882352941
 40
0.1764705882352941
 40
0.1764705882352941
 40
0.1764705882352941
 40
0.2352941176470588
 40
0.2352941176470588
 40
0.2352941176470588
 40
0.2352941176470588
 40
0.2941176470588235
 40
0.2941176470588235
 40
0.2941176470588235
 40
0.2941176470588235
 40
0.3529411764705883
 40
0.3529411764705883
 40
0.3529411764705883
 40
0.3529411764705883
 40
0.4117647058823529
 40
0.4117647058823529
 40
0.4117647058823529
 40
0.4117647058823529
 40
0.4705882352941176
 40
0.4705882352941176
 40
0.4705882352941176
 40
0.4705882352941176
 40
0.5294117647058824
 40
0.5294117647058824
 40
0.5294117647058824
 40
0.5294117647058824
 40
0.5882352941176471
 40
0.5882352941176471
 40
0.5882352941176471
 40
0.5882352941176471
 40
0.6470588235294118
 40
0.6470588235294118
 40
0.6470588235294118
 40
0.6470588235294118
 40
0.7058823529411765
 40
0.7058823529411765
 40
0.7058823529411765
 40
0.7058823529411765
 40
0.7647058823529411
 40
0.7647058823529411
 40
0.7647058823529411
 40
0.7647058823529411
 40
0.8235294117647058
 40
0.8235294117647058
 40
0.8235294117647058
 40
0.8235294117647058
 40
0.8823529411764706
 40
0.8823529411764706
 40
0.8823529411764706
 40
0.8823529411764706
 40
1.0
 40
1.0
 40
1.0
 40
1.0
 10
-35.97992
 20
-25.03309
 30
0.0
 10
-35.97992
 20
-25.03309
 30
0.0
 10
-35.97992
 20
-25.03309
 30
0.0
 10
-35.97992
 20
-25.03309
 30
0.0
 10
-35.97992
 20
-25.03309
 30
0.0
 10
-35.92757
 20
-24.99364
 30
0.0
 10
-35.87947
 20
-24.94259
 30
0.0
 10
-35.84556
 20
-24.90993
 30
0.0
 10
-35.84556
 20
-24.90993
 30
0.0
 10
-35.74747
 20
-24.81554
 30
0.0
 10
-35.65478
 20
-24.71554
 30
0.0
 10
-35.56371
 20
-24.61448
 30
0.0
 10
-35.56371
 20
-24.61448
 30
0.0
 10
-35.30588
 20
-24.32837
 30
0.0
 10
-35.09956
 20
-24.02129
 30
0.0
 10
-35.02791
 20
-23.63503
 30
0.0
 10
-35.02791
 20
-23.63503
 30
0.0
 10
-34.98229
 20
-23.3887
 30
0.0
 10
-35.00386
 20
-23.17627
 30
0.0
 10
-35.06504
 20
-22.93561
 30
0.0
 10
-35.06504
 20
-22.93561
 30
0.0
 10
-35.11563
 20
-22.73646
 30
0.0
 10
-35.13338
 20
-22.53541
 30
0.0
 10
-35.17409
 20
-22.33494
 30
0.0
 10
-35.17409
 20
-22.33494
 30
0.0
 10
-35.25003
 20
-21.96107
 30
0.0
 10
-35.56645
 20
-21.75921
 30
0.0
 10
-35.74211
 20
-21.44016
 30
0.0
 10
-35.74211
 20
-21.44016
 30
0.0
 10
-35.74859
 20
-21.43776
 30
0.0
 10
-35.75505
 20
-21.4353
 30
0.0
 10
-35.76151
 20
-21.4329
 30
0.0
 10
-35.76151
 20
-21.4329
 30
0.0
 10
-35.77603
 20
-21.42735
 30
0.0
 10
-35.78767
 20
-21.41241
 30
0.0
 10
-35.78503
 20
-21.39654
 30
0.0
 10
-35.78503
 20
-21.39654
 30
0.0
 10
-35.78593
 20
-21.39521
 30
0.0
 10
-35.78668
 20
-21.39372
 30
0.0
 10
-35.78748
 20
-21.39233
 30
0.0
 10
-35.78748
 20
-21.39233
 30
0.0
 10
-35.85822
 20
-21.45351
 30
0.0
 10
-35.92976
 20
-21.51405
 30
0.0
 10
-36.00256
 20
-21.5732
 30
0.0
 10
-36.00256
 20
-21.5732
 30
0.0
 10
-35.77791
 20
-21.68794
 30
0.0
 10
-35.66834
 20
-21.95557
 30
0.0
 10
-35.60423
 20
-22.1869
 30
0.0
 10
-35.60423
 20
-22.1869
 30
0.0
 10
-35.52567
 20
-22.47027
 30
0.0
 10
-35.48657
 20
-22.77255
 30
0.0
 10
-35.49371
 20
-23.06688
 30
0.0
 10
-35.49371
 20
-23.06688
 30
0.0
 10
-35.50346
 20
-23.46957
 30
0.0
 10
-35.5742
 20
-23.86268
 30
0.0
 10
-35.77144
 20
-24.21887
 30
0.0
 10
-35.77144
 20
-24.21887
 30
0.0
 10
-35.94586
 20
-24.53359
 30
0.0
 10
-36.18658
 20
-24.81185
 30
0.0
 10
-36.46729
 20
-25.03735
 30
0.0
 10
-36.46729
 20
-25.03735
 30
0.0
 10
-36.30411
 20
-25.04002
 30
0.0
 10
-36.14177
 20
-25.03875
 30
0.0
 10
-35.97992
 20
-25.03309
 30
0.0
  0
SPLINE
  5
92
330
1F
100
AcDbEntity
  8
Layer 1
370
     9
100
AcDbSpline
210
0.0
220
0.0
230
1.0
 70
    11
 71
     3
 72
    84
 73
    80
 74
     0
 42
0.000000001
 43
0.0000000001
 40
0.0
 40
0.0
 40
0.0
 40
0.0
 40
0.0476190476190476
 40
0.0476190476190476
 40
0.0476190476190476
 40
0.0476190476190476
 40
0.0952380952380952
 40
0.0952380952380952
 40
0.0952380952380952
 40
0.0952380952380952
 40
0.1428571428571428
 40
0.1428571428571428
 40
0.1428571428571428
 40
0.1428571428571428
 40
0.1904761904761905
 40
0.1904761904761905
 40
0.1904761904761905
 40
0.1904761904761905
 40
0.2380952380952381
 40
0.2380952380952381
 40
0.2380952380952381
 40
0.2380952380952381
 40
0.2857142857142857
 40
0.2857142857142857
 40
0.2857142857142857
 40
0.2857142857142857
 40
0.3333333333333333
 40
0.3333333333333333
 40
0.3333333333333333
 40
0.3333333333333333
 40
0.3809523809523809
 40
0.3809523809523809
 40
0.3809523809523809
 40
0.3809523809523809
 40
0.4285714285714285
 40
0.4285714285714285
 40
0.4285714285714285
 40
0.4285714285714285
 40
0.4761904761904762
 40
0.4761904761904762
 40
0.4761904761904762
 40
0.4761904761904762
 40
0.5238095238095238
 40
0.5238095238095238
 40
0.5238095238095238
 40
0.5238095238095238
 40
0.5714285714285714
 40
0.5714285714285714
 40
0.5714285714285714
 40
0.5714285714285714
 40
0.6190476190476191
 40
0.6190476190476191
 40
0.6190476190476191
 40
0.6190476190476191
 40
0.6666666666666666
 40
0.6666666666666666
 40
0.6666666666666666
 40
0.6666666666666666
 40
0.7142857142857143
 40
0.7142857142857143
 40
0.7142857142857143
 40
0.7142857142857143
 40
0.7619047619047619
 40
0.7619047619047619
 40
0.7619047619047619
 40
0.7619047619047619
 40
0.8095238095238095
 40
0.8095238095238095
 40
0.8095238095238095
 40
0.8095238095238095
 40
0.8571428571428571
 40
0.8571428571428571
 40
0.8571428571428571
 40
0.8571428571428571
 40
0.9047619047619048
 40
0.9047619047619048
 40
0.9047619047619048
 40
0.9047619047619048
 40
1.0
 40
1.0
 40
1.0
 40
1.0
 10
-34.68914
 20
-24.28262
 30
0.0
 10
-34.68914
 20
-24.28262
 30
0.0
 10
-34.68914
 20
-24.28262
 30
0.0
 10
-34.68914
 20
-24.28262
 30
0.0
 10
-34.68914
 20
-24.28262
 30
0.0
 10
-34.54048
 20
-23.96026
 30
0.0
 10
-34.4752
 20
-23.58848
 30
0.0
 10
-34.52774
 20
-23.23548
 30
0.0
 10
-34.52774
 20
-23.23548
 30
0.0
 10
-34.58615
 20
-22.84297
 30
0.0
 10
-34.72601
 20
-22.4542
 30
0.0
 10
-34.92971
 20
-22.11391
 30
0.0
 10
-34.92971
 20
-22.11391
 30
0.0
 10
-35.03061
 20
-21.94537
 30
0.0
 10
-35.13617
 20
-21.77858
 30
0.0
 10
-35.23991
 20
-21.6117
 30
0.0
 10
-35.23991
 20
-21.6117
 30
0.0
 10
-35.34135
 20
-21.4485
 30
0.0
 10
-35.45523
 20
-21.33621
 30
0.0
 10
-35.62105
 20
-21.24562
 30
0.0
 10
-35.62105
 20
-21.24562
 30
0.0
 10
-35.65748
 20
-21.27867
 30
0.0
 10
-35.69376
 20
-21.31064
 30
0.0
 10
-35.7307
 20
-21.34311
 30
0.0
 10
-35.7307
 20
-21.34311
 30
0.0
 10
-35.72694
 20
-21.34737
 30
0.0
 10
-35.72452
 20
-21.35272
 30
0.0
 10
-35.72331
 20
-21.35811
 30
0.0
 10
-35.72331
 20
-21.35811
 30
0.0
 10
-35.72302
 20
-21.35837
 30
0.0
 10
-35.72299
 20
-21.35949
 30
0.0
 10
-35.72277
 20
-21.3596
 30
0.0
 10
-35.72277
 20
-21.3596
 30
0.0
 10
-35.72275
 20
-21.3596
 30
0.0
 10
-35.72275
 20
-21.3596
 30
0.0
 10
-35.72272
 20
-21.3596
 30
0.0
 10
-35.72272
 20
-21.3596
 30
0.0
 10
-35.72096
 20
-21.36019
 30
0.0
 10
-35.71933
 20
-21.36136
 30
0.0
 10
-35.71781
 20
-21.36265
 30
0.0
 10
-35.71781
 20
-21.36265
 30
0.0
 10
-35.71386
 20
-21.36601
 30
0.0
 10
-35.70991
 20
-21.36863
 30
0.0
 10
-35.70628
 20
-21.37204
 30
0.0
 10
-35.70628
 20
-21.37204
 30
0.0
 10
-35.6912
 20
-21.37103
 30
0.0
 10
-35.67577
 20
-21.37728
 30
0.0
 10
-35.66605
 20
-21.39425
 30
0.0
 10
-35.66605
 20
-21.39425
 30
0.0
 10
-35.56072
 20
-21.57881
 30
0.0
 10
-35.40456
 20
-21.72637
 30
0.0
 10
-35.27874
 20
-21.8962
 30
0.0
 10
-35.27874
 20
-21.8962
 30
0.0
 10
-35.15596
 20
-22.06192
 30
0.0
 10
-35.10695
 20
-22.23595
 30
0.0
 10
-35.08029
 20
-22.43846
 30
0.0
 10
-35.08029
 20
-22.43846
 30
0.0
 10
-35.04983
 20
-22.67021
 30
0.0
 10
-34.98584
 20
-22.89028
 30
0.0
 10
-34.94354
 20
-23.1192
 30
0.0
 10
-34.94354
 20
-23.1192
 30
0.0
 10
-34.90242
 20
-23.3414
 30
0.0
 10
-34.9243
 20
-23.56702
 30
0.0
 10
-34.98573
 20
-23.78425
 30
0.0
 10
-34.98573
 20
-23.78425
 30
0.0
 10
-35.09412
 20
-24.16747
 30
0.0
 10
-35.31762
 20
-24.45522
 30
0.0
 10
-35.58696
 20
-24.73811
 30
0.0
 10
-35.58696
 20
-24.73811
 30
0.0
 10
-35.68533
 20
-24.84148
 30
0.0
 10
-35.78674
 20
-24.94371
 30
0.0
 10
-35.90083
 20
-25.02973
 30
0.0
 10
-35.90083
 20
-25.02973
 30
0.0
 10
-35.68458
 20
-25.02028
 30
0.0
 10
-35.46932
 20
-25.00244
 30
0.0
 10
-35.2546
 20
-24.9758
 30
0.0
 10
-35.2546
 20
-24.9758
 30
0.0
 10
-35.00981
 20
-24.80604
 30
0.0
 10
-34.80854
 20
-24.54155
 30
0.0
 10
-34.68914
 20
-24.28262
 30
0.0
  0
SPLINE
  5
93
330
1F
100
AcDbEntity
  8
Layer 1
370
     9
100
AcDbSpline
210
0.0
220
0.0
230
1.0
 70
    11
 71
     3
 72
    60
 73
    56
 74
     0
 42
0.000000001
 43
0.0000000001
 40
0.0
 40
0.0
 40
0.0
 40
0.0
 40
0.0666666666666667
 40
0.0666666666666667
 40
0.0666666666666667
 40
0.0666666666666667
 40
0.1333333333333333
 40
0.1333333333333333
 40
0.1333333333333333
 40
0.1333333333333333
 40
0.2
 40
0.2
 40
0.2
 40
0.2
 40
0.2666666666666667
 40
0.2666666666666667
 40
0.2666666666666667
 40
0.2666666666666667
 40
0.3333333333333333
 40
0.3333333333333333
 40
0.3333333333333333
 40
0.3333333333333333
 40
0.4
 40
0.4
 40
0.4
 40
0.4
 40
0.4666666666666667
 40
0.4666666666666667
 40
0.4666666666666667
 40
0.4666666666666667
 40
0.5333333333333333
 40
0.5333333333333333
 40
0.5333333333333333
 40
0.5333333333333333
 40
0.6
 40
0.6
 40
0.6
 40
0.6
 40
0.6666666666666666
 40
0.6666666666666666
 40
0.6666666666666666
 40
0.6666666666666666
 40
0.7333333333333333
 40
0.7333333333333333
 40
0.7333333333333333
 40
0.7333333333333333
 40
0.8
 40
0.8
 40
0.8
 40
0.8
 40
0.8666666666666667
 40
0.8666666666666667
 40
0.8666666666666667
 40
0.8666666666666667
 40
1.0
 40
1.0
 40
1.0
 40
1.0
 10
-34.74966
 20
-24.89742
 30
0.0
 10
-34.74966
 20
-24.89742
 30
0.0
 10
-34.74966
 20
-24.89742
 30
0.0
 10
-34.74966
 20
-24.89742
 30
0.0
 10
-34.74966
 20
-24.89742
 30
0.0
 10
-34.34354
 20
-24.27898
 30
0.0
 10
-34.21157
 20
-23.46765
 30
0.0
 10
-34.41295
 20
-22.75157
 30
0.0
 10
-34.41295
 20
-22.75157
 30
0.0
 10
-34.50589
 20
-22.42095
 30
0.0
 10
-34.66139
 20
-22.08856
 30
0.0
 10
-34.82853
 20
-21.78862
 30
0.0
 10
-34.82853
 20
-21.78862
 30
0.0
 10
-34.91809
 20
-21.62772
 30
0.0
 10
-35.03582
 20
-21.4935
 30
0.0
 10
-35.14603
 20
-21.34684
 30
0.0
 10
-35.14603
 20
-21.34684
 30
0.0
 10
-35.21108
 20
-21.26014
 30
0.0
 10
-35.26963
 20
-21.04018
 30
0.0
 10
-35.40151
 20
-21.06171
 30
0.0
 10
-35.40151
 20
-21.06171
 30
0.0
 10
-35.40171
 20
-21.06171
 30
0.0
 10
-35.4019
 20
-21.06164
 30
0.0
 10
-35.40205
 20
-21.0616
 30
0.0
 10
-35.40205
 20
-21.0616
 30
0.0
 10
-35.43752
 20
-21.0507
 30
0.0
 10
-35.50752
 20
-21.15177
 30
0.0
 10
-35.56283
 20
-21.20238
 30
0.0
 10
-35.56283
 20
-21.20238
 30
0.0
 10
-35.41384
 20
-21.27125
 30
0.0
 10
-35.29407
 20
-21.3801
 30
0.0
 10
-35.20538
 20
-21.51816
 30
0.0
 10
-35.20538
 20
-21.51816
 30
0.0
 10
-35.08758
 20
-21.7015
 30
0.0
 10
-34.96906
 20
-21.88845
 30
0.0
 10
-34.85923
 20
-22.0766
 30
0.0
 10
-34.85923
 20
-22.0766
 30
0.0
 10
-34.64609
 20
-22.44182
 30
0.0
 10
-34.48902
 20
-22.85834
 30
0.0
 10
-34.44295
 20
-23.28075
 30
0.0
 10
-34.44295
 20
-23.28075
 30
0.0
 10
-34.40334
 20
-23.64351
 30
0.0
 10
-34.47369
 20
-24.02742
 30
0.0
 10
-34.63915
 20
-24.35271
 30
0.0
 10
-34.63915
 20
-24.35271
 30
0.0
 10
-34.7232
 20
-24.51806
 30
0.0
 10
-34.83126
 20
-24.67672
 30
0.0
 10
-34.96828
 20
-24.80294
 30
0.0
 10
-34.96828
 20
-24.80294
 30
0.0
 10
-35.04169
 20
-24.87056
 30
0.0
 10
-35.11795
 20
-24.92294
 30
0.0
 10
-35.19864
 20
-24.96886
 30
0.0
 10
-35.19864
 20
-24.96886
 30
0.0
 10
-35.04865
 20
-24.94916
 30
0.0
 10
-34.89935
 20
-24.92637
 30
0.0
 10
-34.74966
 20
-24.89742
 30
0.0
  0
SPLINE
  5
94
330
1F
100
AcDbEntity
  8
Layer 1
370
     9
100
AcDbSpline
210
0.0
220
0.0
230
1.0
 70
    11
 71
     3
 72
    68
 73
    64
 74
     0
 42
0.000000001
 43
0.0000000001
 40
0.0
 40
0.0
 40
0.0
 40
0.0
 40
0.0588235294117647
 40
0.0588235294117647
 40
0.0588235294117647
 40
0.0588235294117647
 40
0.1176470588235294
 40
0.1176470588235294
 40
0.1176470588235294
 40
0.1176470588235294
 40
0.1764705882352941
 40
0.1764705882352941
 40
0.1764705882352941
 40
0.1764705882352941
 40
0.2352941176470588
 40
0.2352941176470588
 40
0.2352941176470588
 40
0.2352941176470588
 40
0.2941176470588235
 40
0.2941176470588235
 40
0.2941176470588235
 40
0.2941176470588235
 40
0.3529411764705883
 40
0.3529411764705883
 40
0.3529411764705883
 40
0.3529411764705883
 40
0.4117647058823529
 40
0.4117647058823529
 40
0.4117647058823529
 40
0.4117647058823529
 40
0.4705882352941176
 40
0.4705882352941176
 40
0.4705882352941176
 40
0.4705882352941176
 40
0.5294117647058824
 40
0.5294117647058824
 40
0.5294117647058824
 40
0.5294117647058824
 40
0.5882352941176471
 40
0.5882352941176471
 40
0.5882352941176471
 40
0.5882352941176471
 40
0.6470588235294118
 40
0.6470588235294118
 40
0.6470588235294118
 40
0.6470588235294118
 40
0.7058823529411765
 40
0.7058823529411765
 40
0.7058823529411765
 40
0.7058823529411765
 40
0.7647058823529411
 40
0.7647058823529411
 40
0.7647058823529411
 40
0.7647058823529411
 40
0.8235294117647058
 40
0.8235294117647058
 40
0.8235294117647058
 40
0.8235294117647058
 40
0.8823529411764706
 40
0.8823529411764706
 40
0.8823529411764706
 40
0.8823529411764706
 40
1.0
 40
1.0
 40
1.0
 40
1.0
 10
-34.37479
 20
-24.81382
 30
0.0
 10
-34.37479
 20
-24.81382
 30
0.0
 10
-34.37479
 20
-24.81382
 30
0.0
 10
-34.37479
 20
-24.81382
 30
0.0
 10
-34.37479
 20
-24.81382
 30
0.0
 10
-34.34439
 20
-24.74586
 30
0.0
 10
-34.27537
 20
-24.68318
 30
0.0
 10
-34.23396
 20
-24.62649
 30
0.0
 10
-34.23396
 20
-24.62649
 30
0.0
 10
-34.1125
 20
-24.46034
 30
0.0
 10
-34.0418
 20
-24.21327
 30
0.0
 10
-33.99519
 20
-24.01451
 30
0.0
 10
-33.99519
 20
-24.01451
 30
0.0
 10
-33.90356
 20
-23.62381
 30
0.0
 10
-33.87106
 20
-23.2216
 30
0.0
 10
-33.9974
 20
-22.83406
 30
0.0
 10
-33.9974
 20
-22.83406
 30
0.0
 10
-34.06275
 20
-22.63369
 30
0.0
 10
-34.16291
 20
-22.4478
 30
0.0
 10
-34.25201
 20
-22.25732
 30
0.0
 10
-34.25201
 20
-22.25732
 30
0.0
 10
-34.32897
 20
-22.09288
 30
0.0
 10
-34.40498
 20
-21.92749
 30
0.0
 10
-34.4915
 20
-21.7677
 30
0.0
 10
-34.4915
 20
-21.7677
 30
0.0
 10
-34.67791
 20
-21.42351
 30
0.0
 10
-34.90944
 20
-21.13607
 30
0.0
 10
-35.21995
 20
-20.89598
 30
0.0
 10
-35.21995
 20
-20.89598
 30
0.0
 10
-35.22542
 20
-20.89177
 30
0.0
 10
-35.22948
 20
-20.8869
 30
0.0
 10
-35.23244
 20
-20.88173
 30
0.0
 10
-35.23244
 20
-20.88173
 30
0.0
 10
-35.26576
 20
-20.91387
 30
0.0
 10
-35.29901
 20
-20.94607
 30
0.0
 10
-35.33252
 20
-20.97793
 30
0.0
 10
-35.33252
 20
-20.97793
 30
0.0
 10
-35.24267
 20
-21.00965
 30
0.0
 10
-35.18778
 20
-21.11813
 30
0.0
 10
-35.14149
 20
-21.1956
 30
0.0
 10
-35.14149
 20
-21.1956
 30
0.0
 10
-35.05474
 20
-21.34097
 30
0.0
 10
-34.93548
 20
-21.46414
 30
0.0
 10
-34.84228
 20
-21.6055
 30
0.0
 10
-34.84228
 20
-21.6055
 30
0.0
 10
-34.72804
 20
-21.77858
 30
0.0
 10
-34.6451
 20
-21.97153
 30
0.0
 10
-34.55737
 20
-22.15902
 30
0.0
 10
-34.55737
 20
-22.15902
 30
0.0
 10
-34.48232
 20
-22.31946
 30
0.0
 10
-34.40903
 20
-22.4825
 30
0.0
 10
-34.35803
 20
-22.65259
 30
0.0
 10
-34.35803
 20
-22.65259
 30
0.0
 10
-34.13867
 20
-23.38352
 30
0.0
 10
-34.23562
 20
-24.22677
 30
0.0
 10
-34.64368
 20
-24.87453
 30
0.0
 10
-34.64368
 20
-24.87453
 30
0.0
 10
-34.61104
 20
-24.86774
 30
0.0
 10
-34.57847
 20
-24.86117
 30
0.0
 10
-34.54583
 20
-24.85386
 30
0.0
 10
-34.54583
 20
-24.85386
 30
0.0
 10
-34.48877
 20
-24.84115
 30
0.0
 10
-34.43174
 20
-24.82776
 30
0.0
 10
-34.37479
 20
-24.81382
 30
0.0
  0
SPLINE
  5
95
330
1F
100
AcDbEntity
  8
Layer 1
370
     9
100
AcDbSpline
210
0.0
220
0.0
230
1.0
 70
    11
 71
     3
 72
    60
 73
    56
 74
     0
 42
0.000000001
 43
0.0000000001
 40
0.0
 40
0.0
 40
0.0
 40
0.0
 40
0.0666666666666667
 40
0.0666666666666667
 40
0.0666666666666667
 40
0.0666666666666667
 40
0.1333333333333333
 40
0.1333333333333333
 40
0.1333333333333333
 40
0.1333333333333333
 40
0.2
 40
0.2
 40
0.2
 40
0.2
 40
0.2666666666666667
 40
0.2666666666666667
 40
0.2666666666666667
 40
0.2666666666666667
 40
0.3333333333333333
 40
0.3333333333333333
 40
0.3333333333333333
 40
0.3333333333333333
 40
0.4
 40
0.4
 40
0.4
 40
0.4
 40
0.4666666666666667
 40
0.4666666666666667
 40
0.4666666666666667
 40
0.4666666666666667
 40
0.5333333333333333
 40
0.5333333333333333
 40
0.5333333333333333
 40
0.5333333333333333
 40
0.6
 40
0.6
 40
0.6
 40
0.6
 40
0.6666666666666666
 40
0.6666666666666666
 40
0.6666666666666666
 40
0.6666666666666666
 40
0.7333333333333333
 40
0.7333333333333333
 40
0.7333333333333333
 40
0.7333333333333333
 40
0.8
 40
0.8
 40
0.8
 40
0.8
 40
0.8666666666666667
 40
0.8666666666666667
 40
0.8666666666666667
 40
0.8666666666666667
 40
1.0
 40
1.0
 40
1.0
 40
1.0
 10
-33.92928
 20
-24.66722
 30
0.0
 10
-33.92928
 20
-24.66722
 30
0.0
 10
-33.92928
 20
-24.66722
 30
0.0
 10
-33.92928
 20
-24.66722
 30
0.0
 10
-33.92928
 20
-24.66722
 30
0.0
 10
-33.80972
 20
-24.23708
 30
0.0
 10
-33.6294
 20
-23.80746
 30
0.0
 10
-33.60329
 20
-23.35741
 30
0.0
 10
-33.60329
 20
-23.35741
 30
0.0
 10
-33.58104
 20
-22.97426
 30
0.0
 10
-33.67419
 20
-22.59285
 30
0.0
 10
-33.78135
 20
-22.22693
 30
0.0
 10
-33.78135
 20
-22.22693
 30
0.0
 10
-33.97126
 20
-21.57829
 30
0.0
 10
-34.30507
 20
-20.80319
 30
0.0
 10
-35.05682
 20
-20.71122
 30
0.0
 10
-35.05682
 20
-20.71122
 30
0.0
 10
-35.09534
 20
-20.74869
 30
0.0
 10
-35.13362
 20
-20.78638
 30
0.0
 10
-35.17222
 20
-20.8238
 30
0.0
 10
-35.17222
 20
-20.8238
 30
0.0
 10
-34.83436
 20
-21.04094
 30
0.0
 10
-34.59278
 20
-21.37198
 30
0.0
 10
-34.40955
 20
-21.72419
 30
0.0
 10
-34.40955
 20
-21.72419
 30
0.0
 10
-34.3142
 20
-21.90757
 30
0.0
 10
-34.22978
 20
-22.09592
 30
0.0
 10
-34.14341
 20
-22.28352
 30
0.0
 10
-34.14341
 20
-22.28352
 30
0.0
 10
-34.05784
 20
-22.46953
 30
0.0
 10
-33.96156
 20
-22.65189
 30
0.0
 10
-33.90693
 20
-22.85024
 30
0.0
 10
-33.90693
 20
-22.85024
 30
0.0
 10
-33.79917
 20
-23.24162
 30
0.0
 10
-33.824
 20
-23.64545
 30
0.0
 10
-33.92643
 20
-24.03554
 30
0.0
 10
-33.92643
 20
-24.03554
 30
0.0
 10
-33.95973
 20
-24.16234
 30
0.0
 10
-33.99977
 20
-24.28817
 30
0.0
 10
-34.05305
 20
-24.40813
 30
0.0
 10
-34.05305
 20
-24.40813
 30
0.0
 10
-34.08944
 20
-24.49018
 30
0.0
 10
-34.1232
 20
-24.59108
 30
0.0
 10
-34.18047
 20
-24.66045
 30
0.0
 10
-34.18047
 20
-24.66045
 30
0.0
 10
-34.21998
 20
-24.70822
 30
0.0
 10
-34.26213
 20
-24.7527
 30
0.0
 10
-34.3051
 20
-24.79626
 30
0.0
 10
-34.3051
 20
-24.79626
 30
0.0
 10
-34.1789
 20
-24.76396
 30
0.0
 10
-34.05333
 20
-24.72818
 30
0.0
 10
-33.9295
 20
-24.68778
 30
0.0
 10
-33.9295
 20
-24.68778
 30
0.0
 10
-33.93109
 20
-24.68158
 30
0.0
 10
-33.93131
 20
-24.67475
 30
0.0
 10
-33.92928
 20
-24.66722
 30
0.0
  0
SPLINE
  5
96
330
1F
100
AcDbEntity
  8
Layer 1
370
     9
100
AcDbSpline
210
0.0
220
0.0
230
1.0
 70
    11
 71
     3
 72
    52
 73
    48
 74
     0
 42
0.000000001
 43
0.0000000001
 40
0.0
 40
0.0
 40
0.0
 40
0.0
 40
0.0769230769230769
 40
0.0769230769230769
 40
0.0769230769230769
 40
0.0769230769230769
 40
0.1538461538461539
 40
0.1538461538461539
 40
0.1538461538461539
 40
0.1538461538461539
 40
0.2307692307692308
 40
0.2307692307692308
 40
0.2307692307692308
 40
0.2307692307692308
 40
0.3076923076923077
 40
0.3076923076923077
 40
0.3076923076923077
 40
0.3076923076923077
 40
0.3846153846153846
 40
0.3846153846153846
 40
0.3846153846153846
 40
0.3846153846153846
 40
0.4615384615384616
 40
0.4615384615384616
 40
0.4615384615384616
 40
0.4615384615384616
 40
0.5384615384615384
 40
0.5384615384615384
 40
0.5384615384615384
 40
0.5384615384615384
 40
0.6153846153846154
 40
0.6153846153846154
 40
0.6153846153846154
 40
0.6153846153846154
 40
0.6923076923076923
 40
0.6923076923076923
 40
0.6923076923076923
 40
0.6923076923076923
 40
0.7692307692307693
 40
0.7692307692307693
 40
0.7692307692307693
 40
0.7692307692307693
 40
0.8461538461538461
 40
0.8461538461538461
 40
0.8461538461538461
 40
0.8461538461538461
 40
1.0
 40
1.0
 40
1.0
 40
1.0
 10
-33.51702
 20
-24.53027
 30
0.0
 10
-33.51702
 20
-24.53027
 30
0.0
 10
-33.51702
 20
-24.53027
 30
0.0
 10
-33.51702
 20
-24.53027
 30
0.0
 10
-33.51702
 20
-24.53027
 30
0.0
 10
-33.43353
 20
-24.38053
 30
0.0
 10
-33.35947
 20
-24.22854
 30
0.0
 10
-33.31416
 20
-24.05941
 30
0.0
 10
-33.31416
 20
-24.05941
 30
0.0
 10
-33.2593
 20
-23.85467
 30
0.0
 10
-33.23167
 20
-23.64421
 30
0.0
 10
-33.22621
 20
-23.43237
 30
0.0
 10
-33.22621
 20
-23.43237
 30
0.0
 10
-33.2153
 20
-23.00057
 30
0.0
 10
-33.27726
 20
-22.57235
 30
0.0
 10
-33.35573
 20
-22.14878
 30
0.0
 10
-33.35573
 20
-22.14878
 30
0.0
 10
-33.39167
 20
-21.9552
 30
0.0
 10
-33.41795
 20
-21.7567
 30
0.0
 10
-33.51774
 20
-21.58309
 30
0.0
 10
-33.51774
 20
-21.58309
 30
0.0
 10
-33.60001
 20
-21.43995
 30
0.0
 10
-33.71031
 20
-21.31813
 30
0.0
 10
-33.83551
 20
-21.21119
 30
0.0
 10
-33.83551
 20
-21.21119
 30
0.0
 10
-34.14541
 20
-20.94622
 30
0.0
 10
-34.48731
 20
-20.71613
 30
0.0
 10
-34.81476
 20
-20.47434
 30
0.0
 10
-34.81476
 20
-20.47434
 30
0.0
 10
-34.88015
 20
-20.53834
 30
0.0
 10
-34.94549
 20
-20.60231
 30
0.0
 10
-35.01085
 20
-20.66626
 30
0.0
 10
-35.01085
 20
-20.66626
 30
0.0
 10
-34.28446
 20
-20.67176
 30
0.0
 10
-33.90504
 20
-21.52547
 30
0.0
 10
-33.72313
 20
-22.11931
 30
0.0
 10
-33.72313
 20
-22.11931
 30
0.0
 10
-33.60602
 20
-22.50156
 30
0.0
 10
-33.48735
 20
-22.91884
 30
0.0
 10
-33.51295
 20
-23.32175
 30
0.0
 10
-33.51295
 20
-23.32175
 30
0.0
 10
-33.54233
 20
-23.78554
 30
0.0
 10
-33.71632
 20
-24.2185
 30
0.0
 10
-33.8469
 20
-24.6599
 30
0.0
 10
-33.8469
 20
-24.6599
 30
0.0
 10
-33.73514
 20
-24.62121
 30
0.0
 10
-33.62494
 20
-24.57822
 30
0.0
 10
-33.51702
 20
-24.53027
 30
0.0
  0
SPLINE
  5
97
330
1F
100
AcDbEntity
  8
Layer 1
370
     9
100
AcDbSpline
210
0.0
220
0.0
230
1.0
 70
    11
 71
     3
 72
    80
 73
    76
 74
     0
 42
0.000000001
 43
0.0000000001
 40
0.0
 40
0.0
 40
0.0
 40
0.0
 40
0.05
 40
0.05
 40
0.05
 40
0.05
 40
0.1
 40
0.1
 40
0.1
 40
0.1
 40
0.15
 40
0.15
 40
0.15
 40
0.15
 40
0.2
 40
0.2
 40
0.2
 40
0.2
 40
0.25
 40
0.25
 40
0.25
 40
0.25
 40
0.3
 40
0.3
 40
0.3
 40
0.3
 40
0.35
 40
0.35
 40
0.35
 40
0.35
 40
0.4
 40
0.4
 40
0.4
 40
0.4
 40
0.45
 40
0.45
 40
0.45
 40
0.45
 40
0.5
 40
0.5
 40
0.5
 40
0.5
 40
0.55
 40
0.55
 40
0.55
 40
0.55
 40
0.6
 40
0.6
 40
0.6
 40
0.6
 40
0.65
 40
0.65
 40
0.65
 40
0.65
 40
0.7
 40
0.7
 40
0.7
 40
0.7
 40
0.75
 40
0.75
 40
0.75
 40
0.75
 40
0.8
 40
0.8
 40
0.8
 40
0.8
 40
0.85
 40
0.85
 40
0.85
 40
0.85
 40
0.9
 40
0.9
 40
0.9
 40
0.9
 40
1.0
 40
1.0
 40
1.0
 40
1.0
 10
-33.21549
 20
-24.37935
 30
0.0
 10
-33.21549
 20
-24.37935
 30
0.0
 10
-33.21549
 20
-24.37935
 30
0.0
 10
-33.21549
 20
-24.37935
 30
0.0
 10
-33.21549
 20
-24.37935
 30
0.0
 10
-33.2334
 20
-24.37018
 30
0.0
 10
-33.24478
 20
-24.34887
 30
0.0
 10
-33.22961
 20
-24.32939
 30
0.0
 10
-33.22961
 20
-24.32939
 30
0.0
 10
-33.09937
 20
-24.16255
 30
0.0
 10
-33.04706
 20
-23.9584
 30
0.0
 10
-33.00199
 20
-23.75504
 30
0.0
 10
-33.00199
 20
-23.75504
 30
0.0
 10
-32.95282
 20
-23.53354
 30
0.0
 10
-32.87856
 20
-23.31145
 30
0.0
 10
-32.84879
 20
-23.08679
 30
0.0
 10
-32.84879
 20
-23.08679
 30
0.0
 10
-32.78092
 20
-22.57385
 30
0.0
 10
-32.88025
 20
-22.03085
 30
0.0
 10
-33.09801
 20
-21.56285
 30
0.0
 10
-33.09801
 20
-21.56285
 30
0.0
 10
-33.26458
 20
-21.20483
 30
0.0
 10
-33.50506
 20
-20.83784
 30
0.0
 10
-33.82252
 20
-20.59578
 30
0.0
 10
-33.82252
 20
-20.59578
 30
0.0
 10
-33.94941
 20
-20.49895
 30
0.0
 10
-34.0825
 20
-20.40685
 30
0.0
 10
-34.22417
 20
-20.33281
 30
0.0
 10
-34.22417
 20
-20.33281
 30
0.0
 10
-34.30651
 20
-20.28966
 30
0.0
 10
-34.45245
 20
-20.20169
 30
0.0
 10
-34.56099
 20
-20.22704
 30
0.0
 10
-34.56099
 20
-20.22704
 30
0.0
 10
-34.57295
 20
-20.23868
 30
0.0
 10
-34.58499
 20
-20.25021
 30
0.0
 10
-34.59681
 20
-20.26169
 30
0.0
 10
-34.59681
 20
-20.26169
 30
0.0
 10
-34.63207
 20
-20.29575
 30
0.0
 10
-34.66709
 20
-20.33003
 30
0.0
 10
-34.70225
 20
-20.3642
 30
0.0
 10
-34.70225
 20
-20.3642
 30
0.0
 10
-34.7041
 20
-20.37477
 30
0.0
 10
-34.71135
 20
-20.38021
 30
0.0
 10
-34.7195
 20
-20.38102
 30
0.0
 10
-34.7195
 20
-20.38102
 30
0.0
 10
-34.73142
 20
-20.39265
 30
0.0
 10
-34.74333
 20
-20.40434
 30
0.0
 10
-34.75531
 20
-20.41604
 30
0.0
 10
-34.75531
 20
-20.41604
 30
0.0
 10
-34.53202
 20
-20.51154
 30
0.0
 10
-34.3531
 20
-20.70576
 30
0.0
 10
-34.15668
 20
-20.8434
 30
0.0
 10
-34.15668
 20
-20.8434
 30
0.0
 10
-34.00501
 20
-20.94948
 30
0.0
 10
-33.85291
 20
-21.0625
 30
0.0
 10
-33.71755
 20
-21.1892
 30
0.0
 10
-33.71755
 20
-21.1892
 30
0.0
 10
-33.59279
 20
-21.3059
 30
0.0
 10
-33.47715
 20
-21.43931
 30
0.0
 10
-33.40515
 20
-21.59595
 30
0.0
 10
-33.40515
 20
-21.59595
 30
0.0
 10
-33.32178
 20
-21.77731
 30
0.0
 10
-33.29415
 20
-21.9712
 30
0.0
 10
-33.26111
 20
-22.16649
 30
0.0
 10
-33.26111
 20
-22.16649
 30
0.0
 10
-33.186
 20
-22.60999
 30
0.0
 10
-33.12155
 20
-23.06528
 30
0.0
 10
-33.15476
 20
-23.51603
 30
0.0
 10
-33.15476
 20
-23.51603
 30
0.0
 10
-33.17884
 20
-23.84298
 30
0.0
 10
-33.25088
 20
-24.20559
 30
0.0
 10
-33.43187
 20
-24.49121
 30
0.0
 10
-33.43187
 20
-24.49121
 30
0.0
 10
-33.35849
 20
-24.45656
 30
0.0
 10
-33.28634
 20
-24.41929
 30
0.0
 10
-33.21549
 20
-24.37935
 30
0.0
  0
SPLINE
  5
98
330
1F
100
AcDbEntity
  8
Layer 1
370
     9
100
AcDbSpline
210
0.0
220
0.0
230
1.0
 70
    11
 71
     3
 72
    68
 73
    64
 74
     0
 42
0.000000001
 43
0.0000000001
 40
0.0
 40
0.0
 40
0.0
 40
0.0
 40
0.0588235294117647
 40
0.0588235294117647
 40
0.0588235294117647
 40
0.0588235294117647
 40
0.1176470588235294
 40
0.1176470588235294
 40
0.1176470588235294
 40
0.1176470588235294
 40
0.1764705882352941
 40
0.1764705882352941
 40
0.1764705882352941
 40
0.1764705882352941
 40
0.2352941176470588
 40
0.2352941176470588
 40
0.2352941176470588
 40
0.2352941176470588
 40
0.2941176470588235
 40
0.2941176470588235
 40
0.2941176470588235
 40
0.2941176470588235
 40
0.3529411764705883
 40
0.3529411764705883
 40
0.3529411764705883
 40
0.3529411764705883
 40
0.4117647058823529
 40
0.4117647058823529
 40
0.4117647058823529
 40
0.4117647058823529
 40
0.4705882352941176
 40
0.4705882352941176
 40
0.4705882352941176
 40
0.4705882352941176
 40
0.5294117647058824
 40
0.5294117647058824
 40
0.5294117647058824
 40
0.5294117647058824
 40
0.5882352941176471
 40
0.5882352941176471
 40
0.5882352941176471
 40
0.5882352941176471
 40
0.6470588235294118
 40
0.6470588235294118
 40
0.6470588235294118
 40
0.6470588235294118
 40
0.7058823529411765
 40
0.7058823529411765
 40
0.7058823529411765
 40
0.7058823529411765
 40
0.7647058823529411
 40
0.7647058823529411
 40
0.7647058823529411
 40
0.7647058823529411
 40
0.8235294117647058
 40
0.8235294117647058
 40
0.8235294117647058
 40
0.8235294117647058
 40
0.8823529411764706
 40
0.8823529411764706
 40
0.8823529411764706
 40
0.8823529411764706
 40
1.0
 40
1.0
 40
1.0
 40
1.0
 10
-32.71368
 20
-23.86668
 30
0.0
 10
-32.71368
 20
-23.86668
 30
0.0
 10
-32.71368
 20
-23.86668
 30
0.0
 10
-32.71368
 20
-23.86668
 30
0.0
 10
-32.71368
 20
-23.86668
 30
0.0
 10
-32.65291
 20
-23.6567
 30
0.0
 10
-32.62135
 20
-23.44149
 30
0.0
 10
-32.59807
 20
-23.22443
 30
0.0
 10
-32.59807
 20
-23.22443
 30
0.0
 10
-32.54991
 20
-22.77458
 30
0.0
 10
-32.54329
 20
-22.30627
 30
0.0
 10
-32.61619
 20
-21.85851
 30
0.0
 10
-32.61619
 20
-21.85851
 30
0.0
 10
-32.68378
 20
-21.44357
 30
0.0
 10
-32.88964
 20
-21.05651
 30
0.0
 10
-33.18116
 20
-20.75478
 30
0.0
 10
-33.18116
 20
-20.75478
 30
0.0
 10
-33.33559
 20
-20.59488
 30
0.0
 10
-33.51352
 20
-20.45917
 30
0.0
 10
-33.68527
 20
-20.31855
 30
0.0
 10
-33.68527
 20
-20.31855
 30
0.0
 10
-33.86663
 20
-20.17018
 30
0.0
 10
-34.05287
 20
-20.03479
 30
0.0
 10
-34.28155
 20
-19.97079
 30
0.0
 10
-34.28155
 20
-19.97079
 30
0.0
 10
-34.28829
 20
-19.96898
 30
0.0
 10
-34.2937
 20
-19.96598
 30
0.0
 10
-34.2983
 20
-19.96256
 30
0.0
 10
-34.2983
 20
-19.96256
 30
0.0
 10
-34.36164
 20
-20.03154
 30
0.0
 10
-34.42773
 20
-20.09763
 30
0.0
 10
-34.49308
 20
-20.16132
 30
0.0
 10
-34.49308
 20
-20.16132
 30
0.0
 10
-34.29311
 20
-20.16287
 30
0.0
 10
-33.96238
 20
-20.40237
 30
0.0
 10
-33.87623
 20
-20.46301
 30
0.0
 10
-33.87623
 20
-20.46301
 30
0.0
 10
-33.53162
 20
-20.70528
 30
0.0
 10
-33.25993
 20
-21.04878
 30
0.0
 10
-33.07075
 20
-21.42425
 30
0.0
 10
-33.07075
 20
-21.42425
 30
0.0
 10
-32.82456
 20
-21.91297
 30
0.0
 10
-32.68629
 20
-22.50124
 30
0.0
 10
-32.75913
 20
-23.04862
 30
0.0
 10
-32.75913
 20
-23.04862
 30
0.0
 10
-32.792
 20
-23.29533
 30
0.0
 10
-32.86714
 20
-23.53669
 30
0.0
 10
-32.92274
 20
-23.77923
 30
0.0
 10
-32.92274
 20
-23.77923
 30
0.0
 10
-32.96382
 20
-23.95825
 30
0.0
 10
-33.00618
 20
-24.1831
 30
0.0
 10
-33.13108
 20
-24.33007
 30
0.0
 10
-33.13108
 20
-24.33007
 30
0.0
 10
-33.02293
 20
-24.2643
 30
0.0
 10
-32.91961
 20
-24.19186
 30
0.0
 10
-32.82167
 20
-24.11343
 30
0.0
 10
-32.82167
 20
-24.11343
 30
0.0
 10
-32.81535
 20
-24.10148
 30
0.0
 10
-32.80915
 20
-24.08946
 30
0.0
 10
-32.80267
 20
-24.07755
 30
0.0
 10
-32.80267
 20
-24.07755
 30
0.0
 10
-32.7653
 20
-24.00976
 30
0.0
 10
-32.73533
 20
-23.94148
 30
0.0
 10
-32.71368
 20
-23.86668
 30
0.0
  0
SPLINE
  5
99
330
1F
100
AcDbEntity
  8
Layer 1
370
     9
100
AcDbSpline
210
0.0
220
0.0
230
1.0
 70
    11
 71
     3
 72
    68
 73
    64
 74
     0
 42
0.000000001
 43
0.0000000001
 40
0.0
 40
0.0
 40
0.0
 40
0.0
 40
0.0588235294117647
 40
0.0588235294117647
 40
0.0588235294117647
 40
0.0588235294117647
 40
0.1176470588235294
 40
0.1176470588235294
 40
0.1176470588235294
 40
0.1176470588235294
 40
0.1764705882352941
 40
0.1764705882352941
 40
0.1764705882352941
 40
0.1764705882352941
 40
0.2352941176470588
 40
0.2352941176470588
 40
0.2352941176470588
 40
0.2352941176470588
 40
0.2941176470588235
 40
0.2941176470588235
 40
0.2941176470588235
 40
0.2941176470588235
 40
0.3529411764705883
 40
0.3529411764705883
 40
0.3529411764705883
 40
0.3529411764705883
 40
0.4117647058823529
 40
0.4117647058823529
 40
0.4117647058823529
 40
0.4117647058823529
 40
0.4705882352941176
 40
0.4705882352941176
 40
0.4705882352941176
 40
0.4705882352941176
 40
0.5294117647058824
 40
0.5294117647058824
 40
0.5294117647058824
 40
0.5294117647058824
 40
0.5882352941176471
 40
0.5882352941176471
 40
0.5882352941176471
 40
0.5882352941176471
 40
0.6470588235294118
 40
0.6470588235294118
 40
0.6470588235294118
 40
0.6470588235294118
 40
0.7058823529411765
 40
0.7058823529411765
 40
0.7058823529411765
 40
0.7058823529411765
 40
0.7647058823529411
 40
0.7647058823529411
 40
0.7647058823529411
 40
0.7647058823529411
 40
0.8235294117647058
 40
0.8235294117647058
 40
0.8235294117647058
 40
0.8235294117647058
 40
0.8823529411764706
 40
0.8823529411764706
 40
0.8823529411764706
 40
0.8823529411764706
 40
1.0
 40
1.0
 40
1.0
 40
1.0
 10
-32.23804
 20
-22.62216
 30
0.0
 10
-32.23804
 20
-22.62216
 30
0.0
 10
-32.23804
 20
-22.62216
 30
0.0
 10
-32.23804
 20
-22.62216
 30
0.0
 10
-32.23804
 20
-22.62216
 30
0.0
 10
-32.2215
 20
-22.22636
 30
0.0
 10
-32.22882
 20
-21.81996
 30
0.0
 10
-32.32803
 20
-21.43418
 30
0.0
 10
-32.32803
 20
-21.43418
 30
0.0
 10
-32.38037
 20
-21.23051
 30
0.0
 10
-32.45357
 20
-21.01365
 30
0.0
 10
-32.58722
 20
-20.8474
 30
0.0
 10
-32.58722
 20
-20.8474
 30
0.0
 10
-32.71445
 20
-20.68917
 30
0.0
 10
-32.87439
 20
-20.56595
 30
0.0
 10
-33.04126
 20
-20.45213
 30
0.0
 10
-33.04126
 20
-20.45213
 30
0.0
 10
-33.20396
 20
-20.3413
 30
0.0
 10
-33.3709
 20
-20.2373
 30
0.0
 10
-33.52658
 20
-20.11663
 30
0.0
 10
-33.52658
 20
-20.11663
 30
0.0
 10
-33.71485
 20
-19.97079
 30
0.0
 10
-33.89729
 20
-19.85952
 30
0.0
 10
-34.11905
 20
-19.77159
 30
0.0
 10
-34.11905
 20
-19.77159
 30
0.0
 10
-34.12444
 20
-19.76941
 30
0.0
 10
-34.12888
 20
-19.76609
 30
0.0
 10
-34.13247
 20
-19.76214
 30
0.0
 10
-34.13247
 20
-19.76214
 30
0.0
 10
-34.16325
 20
-19.80415
 30
0.0
 10
-34.19587
 20
-19.84537
 30
0.0
 10
-34.22993
 20
-19.88531
 30
0.0
 10
-34.22993
 20
-19.88531
 30
0.0
 10
-33.98973
 20
-19.95808
 30
0.0
 10
-33.79196
 20
-20.10483
 30
0.0
 10
-33.60078
 20
-20.26447
 30
0.0
 10
-33.60078
 20
-20.26447
 30
0.0
 10
-33.4155
 20
-20.41923
 30
0.0
 10
-33.21912
 20
-20.5622
 30
0.0
 10
-33.05882
 20
-20.74421
 30
0.0
 10
-33.05882
 20
-20.74421
 30
0.0
 10
-32.75642
 20
-21.0876
 30
0.0
 10
-32.55904
 20
-21.49622
 30
0.0
 10
-32.50706
 20
-21.95247
 30
0.0
 10
-32.50706
 20
-21.95247
 30
0.0
 10
-32.45104
 20
-22.44486
 30
0.0
 10
-32.46069
 20
-22.9514
 30
0.0
 10
-32.54681
 20
-23.43994
 30
0.0
 10
-32.54681
 20
-23.43994
 30
0.0
 10
-32.56889
 20
-23.56531
 30
0.0
 10
-32.58659
 20
-23.69017
 30
0.0
 10
-32.62428
 20
-23.81233
 30
0.0
 10
-32.62428
 20
-23.81233
 30
0.0
 10
-32.64134
 20
-23.86759
 30
0.0
 10
-32.66069
 20
-23.94148
 30
0.0
 10
-32.69056
 20
-24.00207
 30
0.0
 10
-32.69056
 20
-24.00207
 30
0.0
 10
-32.55629
 20
-23.88082
 30
0.0
 10
-32.43402
 20
-23.74698
 30
0.0
 10
-32.32491
 20
-23.60209
 30
0.0
 10
-32.32491
 20
-23.60209
 30
0.0
 10
-32.23874
 20
-23.28939
 30
0.0
 10
-32.25113
 20
-22.93533
 30
0.0
 10
-32.23804
 20
-22.62216
 30
0.0
  0
SPLINE
  5
9A
330
1F
100
AcDbEntity
  8
Layer 1
370
     9
100
AcDbSpline
210
0.0
220
0.0
230
1.0
 70
    11
 71
     3
 72
    72
 73
    68
 74
     0
 42
0.000000001
 43
0.0000000001
 40
0.0
 40
0.0
 40
0.0
 40
0.0
 40
0.0555555555555556
 40
0.0555555555555556
 40
0.0555555555555556
 40
0.0555555555555556
 40
0.1111111111111111
 40
0.1111111111111111
 40
0.1111111111111111
 40
0.1111111111111111
 40
0.1666666666666667
 40
0.1666666666666667
 40
0.1666666666666667
 40
0.1666666666666667
 40
0.2222222222222222
 40
0.2222222222222222
 40
0.2222222222222222
 40
0.2222222222222222
 40
0.2777777777777778
 40
0.2777777777777778
 40
0.2777777777777778
 40
0.2777777777777778
 40
0.3333333333333333
 40
0.3333333333333333
 40
0.3333333333333333
 40
0.3333333333333333
 40
0.3888888888888889
 40
0.3888888888888889
 40
0.3888888888888889
 40
0.3888888888888889
 40
0.4444444444444444
 40
0.4444444444444444
 40
0.4444444444444444
 40
0.4444444444444444
 40
0.5
 40
0.5
 40
0.5
 40
0.5
 40
0.5555555555555556
 40
0.5555555555555556
 40
0.5555555555555556
 40
0.5555555555555556
 40
0.6111111111111112
 40
0.6111111111111112
 40
0.6111111111111112
 40
0.6111111111111112
 40
0.6666666666666666
 40
0.6666666666666666
 40
0.6666666666666666
 40
0.6666666666666666
 40
0.7222222222222222
 40
0.7222222222222222
 40
0.7222222222222222
 40
0.7222222222222222
 40
0.7777777777777778
 40
0.7777777777777778
 40
0.7777777777777778
 40
0.7777777777777778
 40
0.8333333333333334
 40
0.8333333333333334
 40
0.8333333333333334
 40
0.8333333333333334
 40
0.8888888888888888
 40
0.8888888888888888
 40
0.8888888888888888
 40
0.8888888888888888
 40
1.0
 40
1.0
 40
1.0
 40
1.0
 10
-31.91019
 20
-21.99417
 30
0.0
 10
-31.91019
 20
-21.99417
 30
0.0
 10
-31.91019
 20
-21.99417
 30
0.0
 10
-31.91019
 20
-21.99417
 30
0.0
 10
-31.91019
 20
-21.99417
 30
0.0
 10
-31.93729
 20
-21.64532
 30
0.0
 10
-32.00365
 20
-21.28647
 30
0.0
 10
-32.16528
 20
-20.97282
 30
0.0
 10
-32.16528
 20
-20.97282
 30
0.0
 10
-32.33812
 20
-20.63742
 30
0.0
 10
-32.60399
 20
-20.36846
 30
0.0
 10
-32.92098
 20
-20.1666
 30
0.0
 10
-32.92098
 20
-20.1666
 30
0.0
 10
-33.08307
 20
-20.06341
 30
0.0
 10
-33.25625
 20
-19.98018
 30
0.0
 10
-33.4189
 20
-19.87821
 30
0.0
 10
-33.4189
 20
-19.87821
 30
0.0
 10
-33.60249
 20
-19.76299
 30
0.0
 10
-33.78281
 20
-19.64218
 30
0.0
 10
-33.99353
 20
-19.58249
 30
0.0
 10
-33.99353
 20
-19.58249
 30
0.0
 10
-34.00177
 20
-19.58009
 30
0.0
 10
-34.00808
 20
-19.57624
 30
0.0
 10
-34.01299
 20
-19.57144
 30
0.0
 10
-34.01299
 20
-19.57144
 30
0.0
 10
-34.03627
 20
-19.61607
 30
0.0
 10
-34.06221
 20
-19.65965
 30
0.0
 10
-34.09051
 20
-19.70208
 30
0.0
 10
-34.09051
 20
-19.70208
 30
0.0
 10
-33.85584
 20
-19.741
 30
0.0
 10
-33.65908
 20
-19.89385
 30
0.0
 10
-33.47532
 20
-20.03581
 30
0.0
 10
-33.47532
 20
-20.03581
 30
0.0
 10
-33.29968
 20
-20.17141
 30
0.0
 10
-33.10828
 20
-20.28337
 30
0.0
 10
-32.92813
 20
-20.41246
 30
0.0
 10
-32.92813
 20
-20.41246
 30
0.0
 10
-32.7664
 20
-20.52842
 30
0.0
 10
-32.60407
 20
-20.65563
 30
0.0
 10
-32.48935
 20
-20.82055
 30
0.0
 10
-32.48935
 20
-20.82055
 30
0.0
 10
-32.37359
 20
-20.98697
 30
0.0
 10
-32.29607
 20
-21.18151
 30
0.0
 10
-32.24644
 20
-21.37739
 30
0.0
 10
-32.24644
 20
-21.37739
 30
0.0
 10
-32.14075
 20
-21.79397
 30
0.0
 10
-32.13148
 20
-22.23125
 30
0.0
 10
-32.15704
 20
-22.65836
 30
0.0
 10
-32.15704
 20
-22.65836
 30
0.0
 10
-32.16965
 20
-22.86978
 30
0.0
 10
-32.17914
 20
-23.08365
 30
0.0
 10
-32.20484
 20
-23.29394
 30
0.0
 10
-32.20484
 20
-23.29394
 30
0.0
 10
-32.21199
 20
-23.3525
 30
0.0
 10
-32.22008
 20
-23.41165
 30
0.0
 10
-32.2313
 20
-23.47012
 30
0.0
 10
-32.2313
 20
-23.47012
 30
0.0
 10
-32.19446
 20
-23.41481
 30
0.0
 10
-32.15914
 20
-23.35843
 30
0.0
 10
-32.12604
 20
-23.3004
 30
0.0
 10
-32.12604
 20
-23.3004
 30
0.0
 10
-32.0436
 20
-23.15566
 30
0.0
 10
-31.97019
 20
-23.00478
 30
0.0
 10
-31.90643
 20
-22.84921
 30
0.0
 10
-31.90643
 20
-22.84921
 30
0.0
 10
-31.9127
 20
-22.56488
 30
0.0
 10
-31.88803
 20
-22.27925
 30
0.0
 10
-31.91019
 20
-21.99417
 30
0.0
  0
SPLINE
  5
9B
330
1F
100
AcDbEntity
  8
Layer 1
370
     9
100
AcDbSpline
210
0.0
220
0.0
230
1.0
 70
    11
 71
     3
 72
    64
 73
    60
 74
     0
 42
0.000000001
 43
0.0000000001
 40
0.0
 40
0.0
 40
0.0
 40
0.0
 40
0.0625
 40
0.0625
 40
0.0625
 40
0.0625
 40
0.125
 40
0.125
 40
0.125
 40
0.125
 40
0.1875
 40
0.1875
 40
0.1875
 40
0.1875
 40
0.25
 40
0.25
 40
0.25
 40
0.25
 40
0.3125
 40
0.3125
 40
0.3125
 40
0.3125
 40
0.375
 40
0.375
 40
0.375
 40
0.375
 40
0.4375
 40
0.4375
 40
0.4375
 40
0.4375
 40
0.5
 40
0.5
 40
0.5
 40
0.5
 40
0.5625
 40
0.5625
 40
0.5625
 40
0.5625
 40
0.625
 40
0.625
 40
0.625
 40
0.625
 40
0.6875
 40
0.6875
 40
0.6875
 40
0.6875
 40
0.75
 40
0.75
 40
0.75
 40
0.75
 40
0.8125
 40
0.8125
 40
0.8125
 40
0.8125
 40
0.875
 40
0.875
 40
0.875
 40
0.875
 40
1.0
 40
1.0
 40
1.0
 40
1.0
 10
-31.62425
 20
-21.61277
 30
0.0
 10
-31.62425
 20
-21.61277
 30
0.0
 10
-31.62425
 20
-21.61277
 30
0.0
 10
-31.62425
 20
-21.61277
 30
0.0
 10
-31.62425
 20
-21.61277
 30
0.0
 10
-31.6341
 20
-21.57294
 30
0.0
 10
-31.64515
 20
-21.53499
 30
0.0
 10
-31.65425
 20
-21.50167
 30
0.0
 10
-31.65425
 20
-21.50167
 30
0.0
 10
-31.68812
 20
-21.37807
 30
0.0
 10
-31.71992
 20
-21.25032
 30
0.0
 10
-31.76074
 20
-21.12918
 30
0.0
 10
-31.76074
 20
-21.12918
 30
0.0
 10
-31.87129
 20
-20.80118
 30
0.0
 10
-32.08357
 20
-20.48501
 30
0.0
 10
-32.30819
 20
-20.22368
 30
0.0
 10
-32.30819
 20
-20.22368
 30
0.0
 10
-32.69207
 20
-19.7771
 30
0.0
 10
-33.34183
 20
-19.43323
 30
0.0
 10
-33.93873
 20
-19.44513
 30
0.0
 10
-33.93873
 20
-19.44513
 30
0.0
 10
-33.94516
 20
-19.44524
 30
0.0
 10
-33.95071
 20
-19.44406
 30
0.0
 10
-33.95573
 20
-19.44231
 30
0.0
 10
-33.95573
 20
-19.44231
 30
0.0
 10
-33.96201
 20
-19.45934
 30
0.0
 10
-33.96856
 20
-19.47615
 30
0.0
 10
-33.97569
 20
-19.49275
 30
0.0
 10
-33.97569
 20
-19.49275
 30
0.0
 10
-33.97273
 20
-19.49301
 30
0.0
 10
-33.96966
 20
-19.4934
 30
0.0
 10
-33.96652
 20
-19.49425
 30
0.0
 10
-33.96652
 20
-19.49425
 30
0.0
 10
-33.74512
 20
-19.55179
 30
0.0
 10
-33.5593
 20
-19.67758
 30
0.0
 10
-33.36658
 20
-19.79589
 30
0.0
 10
-33.36658
 20
-19.79589
 30
0.0
 10
-33.19198
 20
-19.90308
 30
0.0
 10
-33.00591
 20
-19.99011
 30
0.0
 10
-32.83531
 20
-20.1042
 30
0.0
 10
-32.83531
 20
-20.1042
 30
0.0
 10
-32.52263
 20
-20.31342
 30
0.0
 10
-32.24748
 20
-20.58666
 30
0.0
 10
-32.08138
 20
-20.92819
 30
0.0
 10
-32.08138
 20
-20.92819
 30
0.0
 10
-31.92451
 20
-21.25075
 30
0.0
 10
-31.85022
 20
-21.60338
 30
0.0
 10
-31.82772
 20
-21.95994
 30
0.0
 10
-31.82772
 20
-21.95994
 30
0.0
 10
-31.81396
 20
-22.17745
 30
0.0
 10
-31.8077
 20
-22.40872
 30
0.0
 10
-31.82566
 20
-22.63438
 30
0.0
 10
-31.82566
 20
-22.63438
 30
0.0
 10
-31.72814
 20
-22.35047
 30
0.0
 10
-31.6629
 20
-22.05524
 30
0.0
 10
-31.63514
 20
-21.75899
 30
0.0
 10
-31.63514
 20
-21.75899
 30
0.0
 10
-31.63057
 20
-21.71063
 30
0.0
 10
-31.6271
 20
-21.66178
 30
0.0
 10
-31.62425
 20
-21.61277
 30
0.0
  0
SPLINE
  5
9C
330
1F
100
AcDbEntity
  8
Layer 1
370
     9
100
AcDbSpline
210
0.0
220
0.0
230
1.0
 70
    11
 71
     3
 72
    36
 73
    32
 74
     0
 42
0.000000001
 43
0.0000000001
 40
0.0
 40
0.0
 40
0.0
 40
0.0
 40
0.1111111111111111
 40
0.1111111111111111
 40
0.1111111111111111
 40
0.1111111111111111
 40
0.2222222222222222
 40
0.2222222222222222
 40
0.2222222222222222
 40
0.2222222222222222
 40
0.3333333333333333
 40
0.3333333333333333
 40
0.3333333333333333
 40
0.3333333333333333
 40
0.4444444444444444
 40
0.4444444444444444
 40
0.4444444444444444
 40
0.4444444444444444
 40
0.5555555555555556
 40
0.5555555555555556
 40
0.5555555555555556
 40
0.5555555555555556
 40
0.6666666666666666
 40
0.6666666666666666
 40
0.6666666666666666
 40
0.6666666666666666
 40
0.7777777777777778
 40
0.7777777777777778
 40
0.7777777777777778
 40
0.7777777777777778
 40
1.0
 40
1.0
 40
1.0
 40
1.0
 10
-31.89738
 20
-20.19998
 30
0.0
 10
-31.89738
 20
-20.19998
 30
0.0
 10
-31.89738
 20
-20.19998
 30
0.0
 10
-31.89738
 20
-20.19998
 30
0.0
 10
-31.89738
 20
-20.19998
 30
0.0
 10
-32.1231
 20
-19.81243
 30
0.0
 10
-32.47514
 20
-19.59076
 30
0.0
 10
-32.88561
 20
-19.43611
 30
0.0
 10
-32.88561
 20
-19.43611
 30
0.0
 10
-33.14345
 20
-19.33905
 30
0.0
 10
-33.62011
 20
-19.16425
 30
0.0
 10
-33.88553
 20
-19.35207
 30
0.0
 10
-33.88553
 20
-19.35207
 30
0.0
 10
-33.5699
 20
-19.35159
 30
0.0
 10
-33.25342
 20
-19.45779
 30
0.0
 10
-32.97599
 20
-19.60144
 30
0.0
 10
-32.97599
 20
-19.60144
 30
0.0
 10
-32.6794
 20
-19.755
 30
0.0
 10
-32.38585
 20
-19.95883
 30
0.0
 10
-32.18746
 20
-20.23217
 30
0.0
 10
-32.18746
 20
-20.23217
 30
0.0
 10
-31.96671
 20
-20.53659
 30
0.0
 10
-31.73235
 20
-20.84922
 30
0.0
 10
-31.65468
 20
-21.22544
 30
0.0
 10
-31.65468
 20
-21.22544
 30
0.0
 10
-31.6436
 20
-21.27925
 30
0.0
 10
-31.63052
 20
-21.33228
 30
0.0
 10
-31.61758
 20
-21.38528
 30
0.0
 10
-31.61758
 20
-21.38528
 30
0.0
 10
-31.61822
 20
-20.97361
 30
0.0
 10
-31.69053
 20
-20.5551
 30
0.0
 10
-31.89738
 20
-20.19998
 30
0.0
  0
ENDSEC
  0
SECTION
  2
OBJECTS
  0
DICTIONARY
  5
C
330
0
100
AcDbDictionary
281
     1
  3
ACAD_DETAILVIEWSTYLE
350
D8
  3
ACAD_GROUP
350
D
  3
ACAD_LAYOUT
350
1A
  3
ACAD_MATERIAL
350
43
  3
ACAD_MLEADERSTYLE
350
6B
  3
ACAD_MLINESTYLE
350
17
  3
ACAD_PLOTSETTINGS
350
19
  3
ACAD_PLOTSTYLENAME
350
E
  3
ACAD_SCALELIST
350
47
  3
ACAD_SECTIONVIEWSTYLE
350
D9
  3
ACAD_TABLESTYLE
350
69
  3
ACAD_VISUALSTYLE
350
2A
  3
ACDB_RECOMPOSE_DATA
350
D5
  3
AcDbVariableDictionary
350
9D
  0
SUN
  5
6D
330
29
100
AcDbSun
 90
        1
290
     0
 63
     7
421
 16777215
 40
1.0
291
     1
 91
  2455826
 92
 54000000
292
     0
 70
     2
 71
   256
280
     1
  0
DICTIONARY
  5
D8
102
{ACAD_REACTORS
330
C
102
}
330
C
100
AcDbDictionary
281
     1
  0
DICTIONARY
  5
D
102
{ACAD_REACTORS
330
C
102
}
330
C
100
AcDbDictionary
281
     1
  0
DICTIONARY
  5
1A
102
{ACAD_REACTORS
330
C
102
}
330
C
100
AcDbDictionary
281
     1
  3
Layout1
350
1E
  3
Layout2
350
26
  3
Model
350
22
  0
DICTIONARY
  5
43
102
{ACAD_REACTORS
330
C
102
}
330
C
100
AcDbDictionary
281
     1
  3
ByBlock
350
45
  3
ByLayer
350
44
  3
Global
350
46
  0
DICTIONARY
  5
6B
102
{ACAD_REACTORS
330
C
102
}
330
C
100
AcDbDictionary
281
     1
  3
Standard
350
6C
  0
DICTIONARY
  5
17
102
{ACAD_REACTORS
330
C
102
}
330
C
100
AcDbDictionary
281
     1
  3
Standard
350
18
  0
DICTIONARY
  5
19
102
{ACAD_REACTORS
330
C
102
}
330
C
100
AcDbDictionary
281
     1
  0
ACDBDICTIONARYWDFLT
  5
E
102
{ACAD_REACTORS
330
C
102
}
330
C
100
AcDbDictionary
281
     1
  3
Normal
350
F
100
AcDbDictionaryWithDefault
340
F
  0
DICTIONARY
  5
47
102
{ACAD_REACTORS
330
C
102
}
330
C
100
AcDbDictionary
281
     1
  3
A0
350
48
  3
A1
350
49
  3
A2
350
4A
  3
A3
350
4B
  3
A4
350
4C
  3
A5
350
4D
  3
A6
350
4E
  3
A7
350
4F
  3
A8
350
50
  3
A9
350
51
  3
B0
350
52
  3
B1
350
53
  3
B2
350
54
  3
B3
350
55
  3
B4
350
56
  3
B5
350
57
  3
B6
350
58
  3
B7
350
59
  3
B8
350
5A
  3
B9
350
5B
  3
C0
350
5C
  3
C1
350
5D
  3
C2
350
5E
  3
C3
350
5F
  3
C4
350
60
  3
C5
350
61
  3
C6
350
62
  3
C7
350
63
  3
C8
350
64
  3
C9
350
65
  3
D0
350
66
  3
D1
350
67
  3
D2
350
68
  0
DICTIONARY
  5
D9
102
{ACAD_REACTORS
330
C
102
}
330
C
100
AcDbDictionary
281
     1
  0
DICTIONARY
  5
69
102
{ACAD_REACTORS
330
C
102
}
330
C
100
AcDbDictionary
281
     1
  3
Standard
350
6A
  0
DICTIONARY
  5
2A
102
{ACAD_REACTORS
330
C
102
}
330
C
100
AcDbDictionary
281
     1
  3
2dWireframe
350
2F
  3
Basic
350
32
  3
Brighten
350
36
  3
ColorChange
350
3A
  3
Conceptual
350
34
  3
Dim
350
35
  3
EdgeColorOff
350
3D
  3
Facepattern
350
39
  3
Flat
350
2B
  3
FlatWithEdges
350
2C
  3
Gouraud
350
2D
  3
GouraudWithEdges
350
2E
  3
Hidden
350
31
  3
JitterOff
350
3B
  3
Linepattern
350
38
  3
OverhangOff
350
3C
  3
Realistic
350
33
  3
Shaded
350
42
  3
Shaded with edges
350
41
  3
Shades of Gray
350
3E
  3
Sketchy
350
3F
  3
Thicken
350
37
  3
Wireframe
350
30
  3
X-Ray
350
40
  0
XRECORD
  5
D5
102
{ACAD_REACTORS
330
C
102
}
330
C
100
AcDbXrecord
280
     1
 90
        1
330
6A
  0
DICTIONARY
  5
9D
102
{ACAD_REACTORS
330
C
102
}
330
C
100
AcDbDictionary
281
     1
  3
CANNOSCALE
350
9E
  3
CMLEADERSTYLE
350
D7
  3
CTABLESTYLE
350
D6
  3
XCLIPFRAME
350
9F
  0
LAYOUT
  5
1E
102
{ACAD_REACTORS
330
1A
102
}
330
1A
100
AcDbPlotSettings
  1

  2
none_device
  4

  6

 40
0.0
 41
0.0
 42
0.0
 43
0.0
 44
0.0
 45
0.0
 46
0.0
 47
0.0
 48
0.0
 49
0.0
140
0.0
141
0.0
142
1.0
143
1.0
 70
   688
 72
     0
 73
     0
 74
     5
  7

 75
    16
 76
     0
 77
     2
 78
   300
147
1.0
148
0.0
149
0.0
100
AcDbLayout
  1
Layout1
 70
     1
 71
     1
 10
0.0
 20
0.0
 11
12.0
 21
9.0
 12
0.0
 22
0.0
 32
0.0
 14
1.000000000000000E+20
 24
1.000000000000000E+20
 34
1.000000000000000E+20
 15
-1.000000000000000E+20
 25
-1.000000000000000E+20
 35
-1.000000000000000E+20
146
0.0
 13
0.0
 23
0.0
 33
0.0
 16
1.0
 26
0.0
 36
0.0
 17
0.0
 27
1.0
 37
0.0
 76
     0
330
1B
  0
LAYOUT
  5
26
102
{ACAD_REACTORS
330
1A
102
}
330
1A
100
AcDbPlotSettings
  1

  2
none_device
  4

  6

 40
0.0
 41
0.0
 42
0.0
 43
0.0
 44
0.0
 45
0.0
 46
0.0
 47
0.0
 48
0.0
 49
0.0
140
0.0
141
0.0
142
1.0
143
1.0
 70
   688
 72
     0
 73
     0
 74
     5
  7

 75
    16
 76
     0
 77
     2
 78
   300
147
1.0
148
0.0
149
0.0
100
AcDbLayout
  1
Layout2
 70
     1
 71
     2
 10
0.0
 20
0.0
 11
0.0
 21
0.0
 12
0.0
 22
0.0
 32
0.0
 14
0.0
 24
0.0
 34
0.0
 15
0.0
 25
0.0
 35
0.0
146
0.0
 13
0.0
 23
0.0
 33
0.0
 16
1.0
 26
0.0
 36
0.0
 17
0.0
 27
1.0
 37
0.0
 76
     0
330
23
  0
LAYOUT
  5
22
102
{ACAD_REACTORS
330
1A
102
}
330
1A
100
AcDbPlotSettings
  1

  2
none_device
  4
Letter_(8.50_x_11.00_Inches)
  6

 40
6.35
 41
6.35
 42
6.35000508
 43
6.35000508
 44
215.9
 45
279.4
 46
0.0
 47
0.0
 48
0.0
 49
0.0
140
0.0
141
0.0
142
1.0
143
1.0
 70
  1712
 72
     0
 73
     0
 74
     0
  7

 75
     0
 76
     0
 77
     2
 78
   300
147
1.0
148
0.0
149
0.0
100
AcDbLayout
  1
Model
 70
     1
 71
     0
 10
0.0
 20
0.0
 11
12.0
 21
9.0
 12
0.0
 22
0.0
 32
0.0
 14
-41.3684
 24
-25.90059
 34
0.0
 15
-31.49455
 25
-16.71467
 35
0.0
146
0.0
 13
0.0
 23
0.0
 33
0.0
 16
1.0
 26
0.0
 36
0.0
 17
0.0
 27
1.0
 37
0.0
 76
     0
330
1F
331
29
  0
MATERIAL
  5
45
102
{ACAD_REACTORS
330
43
102
}
330
43
100
AcDbMaterial
  1
ByBlock
 72
     1
 94
      127
  0
MATERIAL
  5
44
102
{ACAD_REACTORS
330
43
102
}
330
43
100
AcDbMaterial
  1
ByLayer
 72
     1
 94
      127
  0
MATERIAL
  5
46
102
{ACAD_REACTORS
330
43
102
}
330
43
100
AcDbMaterial
  1
Global
 72
     1
 94
      127
  0
MLEADERSTYLE
  5
6C
102
{ACAD_REACTORS
330
6B
102
}
102
{ACAD_XDICTIONARY
360
D3
102
}
330
6B
100
AcDbMLeaderStyle
170
     2
171
     1
172
     0
 90
        2
 40
0.0
 41
0.0
173
     1
 91
-1056964608
340
14
 92
       -2
290
     1
 42
0.09
291
     1
 43
0.36
  3
Standard
341
0
 44
0.18
300

342
11
174
     1
178
     6
175
     1
176
     0
 93
-1056964608
 45
0.18
292
     0
297
     0
 46
0.18
343
0
 94
-1056964608
 47
1.0
 49
1.0
140
1.0
293
     1
141
0.0
294
     1
177
     0
142
1.0
295
     0
296
     0
143
0.125
1001
ACAD_MLEADERVER
1070
     2
  0
MLINESTYLE
  5
18
102
{ACAD_REACTORS
330
17
102
}
330
17
100
AcDbMlineStyle
  2
Standard
 70
     0
  3

 62
   256
 51
90.0
 52
90.0
 71
     2
 49
0.5
 62
   256
  6
BYLAYER
 49
-0.5
 62
   256
  6
BYLAYER
  0
ACDBPLACEHOLDER
  5
F
102
{ACAD_REACTORS
330
E
102
}
330
E
  0
SCALE
  5
48
102
{ACAD_REACTORS
330
47
102
}
330
47
100
AcDbScale
 70
     0
300
1:1
140
1.0
141
1.0
290
     1
  0
SCALE
  5
49
102
{ACAD_REACTORS
330
47
102
}
330
47
100
AcDbScale
 70
     0
300
1:2
140
1.0
141
2.0
290
     0
  0
SCALE
  5
4A
102
{ACAD_REACTORS
330
47
102
}
330
47
100
AcDbScale
 70
     0
300
1:4
140
1.0
141
4.0
290
     0
  0
SCALE
  5
4B
102
{ACAD_REACTORS
330
47
102
}
330
47
100
AcDbScale
 70
     0
300
1:5
140
1.0
141
5.0
290
     0
  0
SCALE
  5
4C
102
{ACAD_REACTORS
330
47
102
}
330
47
100
AcDbScale
 70
     0
300
1:8
140
1.0
141
8.0
290
     0
  0
SCALE
  5
4D
102
{ACAD_REACTORS
330
47
102
}
330
47
100
AcDbScale
 70
     0
300
1:10
140
1.0
141
10.0
290
     0
  0
SCALE
  5
4E
102
{ACAD_REACTORS
330
47
102
}
330
47
100
AcDbScale
 70
     0
300
1:16
140
1.0
141
16.0
290
     0
  0
SCALE
  5
4F
102
{ACAD_REACTORS
330
47
102
}
330
47
100
AcDbScale
 70
     0
300
1:20
140
1.0
141
20.0
290
     0
  0
SCALE
  5
50
102
{ACAD_REACTORS
330
47
102
}
330
47
100
AcDbScale
 70
     0
300
1:30
140
1.0
141
30.0
290
     0
  0
SCALE
  5
51
102
{ACAD_REACTORS
330
47
102
}
330
47
100
AcDbScale
 70
     0
300
1:40
140
1.0
141
40.0
290
     0
  0
SCALE
  5
52
102
{ACAD_REACTORS
330
47
102
}
330
47
100
AcDbScale
 70
     0
300
1:50
140
1.0
141
50.0
290
     0
  0
SCALE
  5
53
102
{ACAD_REACTORS
330
47
102
}
330
47
100
AcDbScale
 70
     0
300
1:100
140
1.0
141
100.0
290
     0
  0
SCALE
  5
54
102
{ACAD_REACTORS
330
47
102
}
330
47
100
AcDbScale
 70
     0
300
2:1
140
2.0
141
1.0
290
     0
  0
SCALE
  5
55
102
{ACAD_REACTORS
330
47
102
}
330
47
100
AcDbScale
 70
     0
300
4:1
140
4.0
141
1.0
290
     0
  0
SCALE
  5
56
102
{ACAD_REACTORS
330
47
102
}
330
47
100
AcDbScale
 70
     0
300
8:1
140
8.0
141
1.0
290
     0
  0
SCALE
  5
57
102
{ACAD_REACTORS
330
47
102
}
330
47
100
AcDbScale
 70
     0
300
10:1
140
10.0
141
1.0
290
     0
  0
SCALE
  5
58
102
{ACAD_REACTORS
330
47
102
}
330
47
100
AcDbScale
 70
     0
300
100:1
140
100.0
141
1.0
290
     0
  0
SCALE
  5
59
102
{ACAD_REACTORS
330
47
102
}
330
47
100
AcDbScale
 70
     0
300
1/128\" = 1\'-0\"
140
0.0078125
141
12.0
290
     0
  0
SCALE
  5
5A
102
{ACAD_REACTORS
330
47
102
}
330
47
100
AcDbScale
 70
     0
300
1/64\" = 1\'-0\"
140
0.015625
141
12.0
290
     0
  0
SCALE
  5
5B
102
{ACAD_REACTORS
330
47
102
}
330
47
100
AcDbScale
 70
     0
300
1/32\" = 1\'-0\"
140
0.03125
141
12.0
290
     0
  0
SCALE
  5
5C
102
{ACAD_REACTORS
330
47
102
}
330
47
100
AcDbScale
 70
     0
300
1/16\" = 1\'-0\"
140
0.0625
141
12.0
290
     0
  0
SCALE
  5
5D
102
{ACAD_REACTORS
330
47
102
}
330
47
100
AcDbScale
 70
     0
300
3/32\" = 1\'-0\"
140
0.09375
141
12.0
290
     0
  0
SCALE
  5
5E
102
{ACAD_REACTORS
330
47
102
}
330
47
100
AcDbScale
 70
     0
300
1/8\" = 1\'-0\"
140
0.125
141
12.0
290
     0
  0
SCALE
  5
5F
102
{ACAD_REACTORS
330
47
102
}
330
47
100
AcDbScale
 70
     0
300
3/16\" = 1\'-0\"
140
0.1875
141
12.0
290
     0
  0
SCALE
  5
60
102
{ACAD_REACTORS
330
47
102
}
330
47
100
AcDbScale
 70
     0
300
1/4\" = 1\'-0\"
140
0.25
141
12.0
290
     0
  0
SCALE
  5
61
102
{ACAD_REACTORS
330
47
102
}
330
47
100
AcDbScale
 70
     0
300
3/8\" = 1\'-0\"
140
0.375
141
12.0
290
     0
  0
SCALE
  5
62
102
{ACAD_REACTORS
330
47
102
}
330
47
100
AcDbScale
 70
     0
300
1/2\" = 1\'-0\"
140
0.5
141
12.0
290
     0
  0
SCALE
  5
63
102
{ACAD_REACTORS
330
47
102
}
330
47
100
AcDbScale
 70
     0
300
3/4\" = 1\'-0\"
140
0.75
141
12.0
290
     0
  0
SCALE
  5
64
102
{ACAD_REACTORS
330
47
102
}
330
47
100
AcDbScale
 70
     0
300
1\" = 1\'-0\"
140
1.0
141
12.0
290
     0
  0
SCALE
  5
65
102
{ACAD_REACTORS
330
47
102
}
330
47
100
AcDbScale
 70
     0
300
1-1/2\" = 1\'-0\"
140
1.5
141
12.0
290
     0
  0
SCALE
  5
66
102
{ACAD_REACTORS
330
47
102
}
330
47
100
AcDbScale
 70
     0
300
3\" = 1\'-0\"
140
3.0
141
12.0
290
     0
  0
SCALE
  5
67
102
{ACAD_REACTORS
330
47
102
}
330
47
100
AcDbScale
 70
     0
300
6\" = 1\'-0\"
140
6.0
141
12.0
290
     0
  0
SCALE
  5
68
102
{ACAD_REACTORS
330
47
102
}
330
47
100
AcDbScale
 70
     0
300
1\'-0\" = 1\'-0\"
140
12.0
141
12.0
290
     0
  0
TABLESTYLE
  5
6A
102
{ACAD_REACTORS
330
69
102
}
102
{ACAD_XDICTIONARY
360
D0
102
}
330
69
100
AcDbTableStyle
  3
Standard
 70
     0
 71
     0
 40
0.06
 41
0.06
280
     0
281
     0
  7
Standard
140
0.18
170
     2
 62
     0
 63
   257
283
     0
 90
        4
 91
        0
  1

274
    -2
284
     1
 64
     0
275
    -2
285
     1
 65
     0
276
    -2
286
     1
 66
     0
277
    -2
287
     1
 67
     0
278
    -2
288
     1
 68
     0
279
    -2
289
     1
 69
     0
  7
Standard
140
0.25
170
     5
 62
     0
 63
   257
283
     0
 90
        4
 91
        0
  1

274
    -2
284
     1
 64
     0
275
    -2
285
     1
 65
     0
276
    -2
286
     1
 66
     0
277
    -2
287
     1
 67
     0
278
    -2
288
     1
 68
     0
279
    -2
289
     1
 69
     0
  7
Standard
140
0.18
170
     5
 62
     0
 63
   257
283
     0
 90
        4
 91
        0
  1

274
    -2
284
     1
 64
     0
275
    -2
285
     1
 65
     0
276
    -2
286
     1
 66
     0
277
    -2
287
     1
 67
     0
278
    -2
288
     1
 68
     0
279
    -2
289
     1
 69
     0
  0
VISUALSTYLE
  5
2F
102
{ACAD_REACTORS
330
2A
102
}
102
{ACAD_XDICTIONARY
360
A8
102
}
330
2A
100
AcDbVisualStyle
  2
2dWireframe
 70
     4
 71
     0
 72
     2
 73
     0
 90
        0
 40
0.6
 41
30.0
 62
     5
 63
     7
421
 16777215
 74
     1
 91
        4
 64
     7
 65
   257
 75
     1
175
     1
 42
1.0
 92
        0
 66
   257
 43
1.0
 76
     1
 77
     6
 78
     2
 67
     7
 79
     5
170
     0
171
     0
290
     0
174
     0
 93
        1
 44
0.0
173
     0
291
     0
 45
0.0
  0
VISUALSTYLE
  5
32
102
{ACAD_REACTORS
330
2A
102
}
102
{ACAD_XDICTIONARY
360
AE
102
}
330
2A
100
AcDbVisualStyle
  2
Basic
 70
     7
 71
     1
 72
     0
 73
     1
 90
        0
 40
0.6
 41
30.0
 62
     5
 63
     7
421
 16777215
 74
     0
 91
        4
 64
     7
 65
   257
 75
     1
175
     1
 42
1.0
 92
        8
 66
     7
 43
1.0
 76
     1
 77
     6
 78
     2
 67
     7
 79
     5
170
     0
171
     0
290
     0
174
     0
 93
        1
 44
0.0
173
     0
291
     1
 45
0.0
  0
VISUALSTYLE
  5
36
102
{ACAD_REACTORS
330
2A
102
}
102
{ACAD_XDICTIONARY
360
B6
102
}
330
2A
100
AcDbVisualStyle
  2
Brighten
 70
    12
 71
     2
 72
     2
 73
     0
 90
        0
 40
0.6
 41
30.0
 62
     5
 63
     7
421
 16777215
 74
     1
 91
        4
 64
     7
 65
   257
 75
     1
175
     1
 42
1.0
 92
        8
 66
     7
 43
1.0
 76
     1
 77
     6
 78
     2
 67
     7
 79
     5
170
     0
171
     0
290
     0
174
     0
 93
        1
 44
50.0
173
     0
291
     1
 45
0.0
  0
VISUALSTYLE
  5
3A
102
{ACAD_REACTORS
330
2A
102
}
102
{ACAD_XDICTIONARY
360
BE
102
}
330
2A
100
AcDbVisualStyle
  2
ColorChange
 70
    16
 71
     2
 72
     2
 73
     3
 90
        0
 40
0.6
 41
30.0
 62
     5
 63
     8
421
  8421504
 74
     1
 91
        4
 64
     7
 65
   257
 75
     1
175
     1
 42
1.0
 92
        8
 66
     8
424
  8421504
 43
1.0
 76
     1
 77
     6
 78
     2
 67
     7
 79
     5
170
     0
171
     0
290
     0
174
     0
 93
        1
 44
0.0
173
     0
291
     1
 45
0.0
  0
VISUALSTYLE
  5
34
102
{ACAD_REACTORS
330
2A
102
}
102
{ACAD_XDICTIONARY
360
B2
102
}
330
2A
100
AcDbVisualStyle
  2
Conceptual
 70
     9
 71
     3
 72
     2
 73
     0
 90
        0
 40
0.6
 41
30.0
 62
     5
 63
     7
421
 16777215
 74
     2
 91
        2
 64
     7
 65
   257
 75
     1
175
     1
 42
179.0
 92
        8
 66
     7
 43
1.0
 76
     1
 77
     6
 78
     2
 67
     7
 79
     3
170
     0
171
     0
290
     0
174
     0
 93
        1
 44
0.0
173
     0
291
     0
 45
0.0
  0
VISUALSTYLE
  5
35
102
{ACAD_REACTORS
330
2A
102
}
102
{ACAD_XDICTIONARY
360
B4
102
}
330
2A
100
AcDbVisualStyle
  2
Dim
 70
    11
 71
     2
 72
     2
 73
     0
 90
        0
 40
0.6
 41
30.0
 62
     5
 63
     7
421
 16777215
 74
     1
 91
        4
 64
     7
 65
   257
 75
     1
175
     1
 42
1.0
 92
        8
 66
     7
 43
1.0
 76
     1
 77
     6
 78
     2
 67
     7
 79
     5
170
     0
171
     0
290
     0
174
     0
 93
        1
 44
-50.0
173
     0
291
     1
 45
0.0
  0
VISUALSTYLE
  5
3D
102
{ACAD_REACTORS
330
2A
102
}
102
{ACAD_XDICTIONARY
360
C4
102
}
330
2A
100
AcDbVisualStyle
  2
EdgeColorOff
 70
    22
 71
     2
 72
     2
 73
     0
 90
        0
 40
0.6
 41
30.0
 62
     5
 63
     7
421
 16777215
 74
     1
 91
        4
 64
     7
 65
   257
 75
     1
175
     1
 42
1.0
 92
        8
 66
     7
 43
1.0
 76
     1
 77
     6
 78
     2
 67
     7
 79
     5
170
     0
171
     0
290
     0
174
     0
 93
        1
 44
0.0
173
     0
291
     1
 45
0.0
  0
VISUALSTYLE
  5
39
102
{ACAD_REACTORS
330
2A
102
}
102
{ACAD_XDICTIONARY
360
BC
102
}
330
2A
100
AcDbVisualStyle
  2
Facepattern
 70
    15
 71
     2
 72
     2
 73
     0
 90
        0
 40
0.6
 41
30.0
 62
     5
 63
     7
421
 16777215
 74
     1
 91
        4
 64
     7
 65
   257
 75
     1
175
     1
 42
1.0
 92
        8
 66
     7
 43
1.0
 76
     1
 77
     6
 78
     2
 67
     7
 79
     5
170
     0
171
     0
290
     0
174
     0
 93
        1
 44
0.0
173
     0
291
     1
 45
0.0
  0
VISUALSTYLE
  5
2B
102
{ACAD_REACTORS
330
2A
102
}
102
{ACAD_XDICTIONARY
360
A0
102
}
330
2A
100
AcDbVisualStyle
  2
Flat
 70
     0
 71
     2
 72
     1
 73
     1
 90
        2
 40
0.6
 41
30.0
 62
     5
 63
     7
421
 16777215
 74
     0
 91
        0
 64
     7
 65
   257
 75
     1
175
     1
 42
1.0
 92
        8
 66
     7
 43
1.0
 76
     1
 77
     6
 78
     2
 67
     7
 79
     5
170
     0
171
     0
290
     0
174
     0
 93
       13
 44
0.0
173
     0
291
     1
 45
0.0
  0
VISUALSTYLE
  5
2C
102
{ACAD_REACTORS
330
2A
102
}
102
{ACAD_XDICTIONARY
360
A2
102
}
330
2A
100
AcDbVisualStyle
  2
FlatWithEdges
 70
     1
 71
     2
 72
     1
 73
     1
 90
        2
 40
0.6
 41
30.0
 62
     5
 63
     7
421
 16777215
 74
     1
 91
        0
 64
     7
 65
   257
 75
     1
175
     1
 42
1.0
 92
        0
 66
   257
 43
1.0
 76
     1
 77
     6
 78
     2
 67
     7
 79
     5
170
     0
171
     0
290
     0
174
     0
 93
       13
 44
0.0
173
     0
291
     1
 45
0.0
  0
VISUALSTYLE
  5
2D
102
{ACAD_REACTORS
330
2A
102
}
102
{ACAD_XDICTIONARY
360
A4
102
}
330
2A
100
AcDbVisualStyle
  2
Gouraud
 70
     2
 71
     2
 72
     2
 73
     1
 90
        2
 40
0.6
 41
30.0
 62
     5
 63
     7
421
 16777215
 74
     0
 91
        0
 64
     7
 65
   257
 75
     1
175
     1
 42
1.0
 92
        0
 66
     7
 43
1.0
 76
     1
 77
     6
 78
     2
 67
     7
 79
     5
170
     0
171
     0
290
     0
174
     0
 93
       13
 44
0.0
173
     0
291
     1
 45
0.0
  0
VISUALSTYLE
  5
2E
102
{ACAD_REACTORS
330
2A
102
}
102
{ACAD_XDICTIONARY
360
A6
102
}
330
2A
100
AcDbVisualStyle
  2
GouraudWithEdges
 70
     3
 71
     2
 72
     2
 73
     1
 90
        2
 40
0.6
 41
30.0
 62
     5
 63
     7
421
 16777215
 74
     1
 91
        0
 64
     7
 65
   257
 75
     1
175
     1
 42
1.0
 92
        0
 66
   257
 43
1.0
 76
     1
 77
     6
 78
     2
 67
     7
 79
     5
170
     0
171
     0
290
     0
174
     0
 93
       13
 44
0.0
173
     0
291
     1
 45
0.0
  0
VISUALSTYLE
  5
31
102
{ACAD_REACTORS
330
2A
102
}
102
{ACAD_XDICTIONARY
360
AC
102
}
330
2A
100
AcDbVisualStyle
  2
Hidden
 70
     6
 71
     1
 72
     2
 73
     2
 90
        0
 40
0.6
 41
30.0
 62
     5
 63
     7
421
 16777215
 74
     2
 91
        2
 64
     7
 65
   257
 75
     2
175
     1
 42
40.0
 92
        0
 66
   257
 43
1.0
 76
     1
 77
     6
 78
     2
 67
     7
 79
     3
170
     0
171
     0
290
     0
174
     0
 93
        1
 44
0.0
173
     0
291
     0
 45
0.0
  0
VISUALSTYLE
  5
3B
102
{ACAD_REACTORS
330
2A
102
}
102
{ACAD_XDICTIONARY
360
C0
102
}
330
2A
100
AcDbVisualStyle
  2
JitterOff
 70
    20
 71
     2
 72
     2
 73
     0
 90
        0
 40
0.6
 41
30.0
 62
     5
 63
     7
421
 16777215
 74
     1
 91
        4
 64
     7
 65
   257
 75
     1
175
     1
 42
1.0
 92
       10
 66
     7
 43
1.0
 76
     1
 77
     6
 78
     2
 67
     7
 79
     5
170
     0
171
     0
290
     0
174
     0
 93
        1
 44
0.0
173
     0
291
     1
 45
0.0
  0
VISUALSTYLE
  5
38
102
{ACAD_REACTORS
330
2A
102
}
102
{ACAD_XDICTIONARY
360
BA
102
}
330
2A
100
AcDbVisualStyle
  2
Linepattern
 70
    14
 71
     2
 72
     2
 73
     0
 90
        0
 40
0.6
 41
30.0
 62
     5
 63
     7
421
 16777215
 74
     1
 91
        4
 64
     7
 65
   257
 75
     7
175
     7
 42
1.0
 92
        8
 66
     7
 43
1.0
 76
     1
 77
     6
 78
     2
 67
     7
 79
     5
170
     0
171
     0
290
     0
174
     0
 93
        1
 44
0.0
173
     0
291
     1
 45
0.0
  0
VISUALSTYLE
  5
3C
102
{ACAD_REACTORS
330
2A
102
}
102
{ACAD_XDICTIONARY
360
C2
102
}
330
2A
100
AcDbVisualStyle
  2
OverhangOff
 70
    21
 71
     2
 72
     2
 73
     0
 90
        0
 40
0.6
 41
30.0
 62
     5
 63
     7
421
 16777215
 74
     1
 91
        4
 64
     7
 65
   257
 75
     1
175
     1
 42
1.0
 92
        9
 66
     7
 43
1.0
 76
     1
 77
     6
 78
     2
 67
     7
 79
     5
170
     0
171
     0
290
     0
174
     0
 93
        1
 44
0.0
173
     0
291
     1
 45
0.0
  0
VISUALSTYLE
  5
33
102
{ACAD_REACTORS
330
2A
102
}
102
{ACAD_XDICTIONARY
360
B0
102
}
330
2A
100
AcDbVisualStyle
  2
Realistic
 70
     8
 71
     2
 72
     3
 73
     0
 90
        2
 40
0.6
 41
30.0
 62
     5
 63
     7
421
 16777215
 74
     0
 91
        0
 64
     7
 65
   257
 75
     1
175
     1
 42
1.0
 92
        8
 66
   257
 43
1.0
 76
     1
 77
     6
 78
     2
 67
     7
 79
     3
170
     0
171
     0
290
     0
174
     0
 93
       13
 44
0.0
173
     0
291
     0
 45
0.0
  0
VISUALSTYLE
  5
42
102
{ACAD_REACTORS
330
2A
102
}
102
{ACAD_XDICTIONARY
360
CE
102
}
330
2A
100
AcDbVisualStyle
  2
Shaded
 70
    27
 71
     2
 72
     2
 73
     1
 90
        2
 40
0.6
 41
30.0
 62
     5
 63
     7
421
 16777215
 74
     0
 91
        4
 64
     7
 65
   257
 75
     1
175
     1
 42
1.0
 92
        8
 66
   257
 43
1.0
 76
     1
 77
     6
 78
     2
 67
     8
425
  7895160
 79
     3
170
     0
171
     0
290
     0
174
     0
 93
        5
 44
0.0
173
     0
291
     0
 45
0.0
  0
VISUALSTYLE
  5
41
102
{ACAD_REACTORS
330
2A
102
}
102
{ACAD_XDICTIONARY
360
CC
102
}
330
2A
100
AcDbVisualStyle
  2
Shaded with edges
 70
    26
 71
     2
 72
     2
 73
     1
 90
        2
 40
0.6
 41
30.0
 62
     5
 63
     7
421
 16777215
 74
     1
 91
       10
 64
     7
 65
   257
 75
     2
175
     1
 42
1.0
 92
        8
 66
   257
 43
1.0
 76
     1
 77
     6
 78
     2
 67
     7
 79
     3
170
     0
171
     0
290
     0
174
     0
 93
        5
 44
0.0
173
     0
291
     0
 45
0.0
  0
VISUALSTYLE
  5
3E
102
{ACAD_REACTORS
330
2A
102
}
102
{ACAD_XDICTIONARY
360
C6
102
}
330
2A
100
AcDbVisualStyle
  2
Shades of Gray
 70
    23
 71
     2
 72
     2
 73
     3
 90
        0
 40
0.6
 41
30.0
 62
     5
 63
     7
421
 16777215
 74
     2
 91
        2
 64
     7
 65
     7
 75
     1
175
     1
 42
40.0
 92
        8
 66
     7
 43
1.0
 76
     1
 77
     6
 78
     2
 67
     7
 79
     3
170
     0
171
     0
290
     0
174
     0
 93
        1
 44
0.0
173
     0
291
     0
 45
0.0
  0
VISUALSTYLE
  5
3F
102
{ACAD_REACTORS
330
2A
102
}
102
{ACAD_XDICTIONARY
360
C8
102
}
330
2A
100
AcDbVisualStyle
  2
Sketchy
 70
    24
 71
     1
 72
     2
 73
     2
 90
        0
 40
0.6
 41
30.0
 62
     5
 63
     7
421
 16777215
 74
     2
 91
        2
 64
     7
 65
     7
 75
     1
175
     1
 42
40.0
 92
       11
 66
     7
 43
1.0
 76
     1
 77
     6
 78
     2
 67
     7
 79
     6
170
     0
171
     0
290
     0
174
     0
 93
        1
 44
0.0
173
     0
291
     0
 45
0.0
  0
VISUALSTYLE
  5
37
102
{ACAD_REACTORS
330
2A
102
}
102
{ACAD_XDICTIONARY
360
B8
102
}
330
2A
100
AcDbVisualStyle
  2
Thicken
 70
    13
 71
     2
 72
     2
 73
     0
 90
        0
 40
0.6
 41
30.0
 62
     5
 63
     7
421
 16777215
 74
     1
 91
        4
 64
     7
 65
   257
 75
     1
175
     1
 42
1.0
 92
       12
 66
     7
 43
1.0
 76
     1
 77
     6
 78
     2
 67
     7
 79
     5
170
     0
171
     0
290
     0
174
     0
 93
        1
 44
0.0
173
     0
291
     1
 45
0.0
  0
VISUALSTYLE
  5
30
102
{ACAD_REACTORS
330
2A
102
}
102
{ACAD_XDICTIONARY
360
AA
102
}
330
2A
100
AcDbVisualStyle
  2
Wireframe
 70
     5
 71
     0
 72
     2
 73
     0
 90
        0
 40
0.6
 41
30.0
 62
     5
 63
     7
421
 16777215
 74
     1
 91
        4
 64
     7
 65
   257
 75
     1
175
     1
 42
1.0
 92
        0
 66
   257
 43
1.0
 76
     1
 77
     6
 78
     2
 67
     7
 79
     3
170
     0
171
     0
290
     0
174
     0
 93
        1
 44
0.0
173
     0
291
     0
 45
0.0
  0
VISUALSTYLE
  5
40
102
{ACAD_REACTORS
330
2A
102
}
102
{ACAD_XDICTIONARY
360
CA
102
}
330
2A
100
AcDbVisualStyle
  2
X-Ray
 70
    25
 71
     2
 72
     2
 73
     1
 90
        1
 40
0.5
 41
30.0
 62
     5
 63
     7
421
 16777215
 74
     1
 91
        0
 64
     7
 65
   257
 75
     1
175
     1
 42
1.0
 92
        8
 66
     7
 43
1.0
 76
     1
 77
     6
 78
     2
 67
     7
 79
     3
170
     0
171
     0
290
     0
174
     0
 93
       13
 44
0.0
173
     0
291
     0
 45
0.0
  0
DICTIONARYVAR
  5
9E
102
{ACAD_REACTORS
330
9D
102
}
330
9D
100
DictionaryVariables
280
     0
  1
1:1
  0
DICTIONARYVAR
  5
D7
102
{ACAD_REACTORS
330
9D
102
}
330
9D
100
DictionaryVariables
280
     0
  1
Standard
  0
DICTIONARYVAR
  5
D6
102
{ACAD_REACTORS
330
9D
102
}
330
9D
100
DictionaryVariables
280
     0
  1
Standard
  0
DICTIONARYVAR
  5
9F
102
{ACAD_REACTORS
330
9D
102
}
330
9D
100
DictionaryVariables
280
     0
  1
2
  0
DICTIONARY
  5
D3
330
6C
100
AcDbDictionary
280
     1
281
     1
  3
ACAD_XREC_ROUNDTRIP
360
D4
  0
DICTIONARY
  5
D0
330
6A
100
AcDbDictionary
280
     1
281
     1
  3
ACAD_ROUNDTRIP_2008_TABLESTYLE_CELLSTYLEMAP
360
D1
  0
DICTIONARY
  5
A8
330
2F
100
AcDbDictionary
280
     1
281
     1
  3
ACAD_XREC_ROUNDTRIP
360
A9
  0
DICTIONARY
  5
AE
330
32
100
AcDbDictionary
280
     1
281
     1
  3
ACAD_XREC_ROUNDTRIP
360
AF
  0
DICTIONARY
  5
B6
330
36
100
AcDbDictionary
280
     1
281
     1
  3
ACAD_XREC_ROUNDTRIP
360
B7
  0
DICTIONARY
  5
BE
330
3A
100
AcDbDictionary
280
     1
281
     1
  3
ACAD_XREC_ROUNDTRIP
360
BF
  0
DICTIONARY
  5
B2
330
34
100
AcDbDictionary
280
     1
281
     1
  3
ACAD_XREC_ROUNDTRIP
360
B3
  0
DICTIONARY
  5
B4
330
35
100
AcDbDictionary
280
     1
281
     1
  3
ACAD_XREC_ROUNDTRIP
360
B5
  0
DICTIONARY
  5
C4
330
3D
100
AcDbDictionary
280
     1
281
     1
  3
ACAD_XREC_ROUNDTRIP
360
C5
  0
DICTIONARY
  5
BC
330
39
100
AcDbDictionary
280
     1
281
     1
  3
ACAD_XREC_ROUNDTRIP
360
BD
  0
DICTIONARY
  5
A0
330
2B
100
AcDbDictionary
280
     1
281
     1
  3
ACAD_XREC_ROUNDTRIP
360
A1
  0
DICTIONARY
  5
A2
330
2C
100
AcDbDictionary
280
     1
281
     1
  3
ACAD_XREC_ROUNDTRIP
360
A3
  0
DICTIONARY
  5
A4
330
2D
100
AcDbDictionary
280
     1
281
     1
  3
ACAD_XREC_ROUNDTRIP
360
A5
  0
DICTIONARY
  5
A6
330
2E
100
AcDbDictionary
280
     1
281
     1
  3
ACAD_XREC_ROUNDTRIP
360
A7
  0
DICTIONARY
  5
AC
330
31
100
AcDbDictionary
280
     1
281
     1
  3
ACAD_XREC_ROUNDTRIP
360
AD
  0
DICTIONARY
  5
C0
330
3B
100
AcDbDictionary
280
     1
281
     1
  3
ACAD_XREC_ROUNDTRIP
360
C1
  0
DICTIONARY
  5
BA
330
38
100
AcDbDictionary
280
     1
281
     1
  3
ACAD_XREC_ROUNDTRIP
360
BB
  0
DICTIONARY
  5
C2
330
3C
100
AcDbDictionary
280
     1
281
     1
  3
ACAD_XREC_ROUNDTRIP
360
C3
  0
DICTIONARY
  5
B0
330
33
100
AcDbDictionary
280
     1
281
     1
  3
ACAD_XREC_ROUNDTRIP
360
B1
  0
DICTIONARY
  5
CE
330
42
100
AcDbDictionary
280
     1
281
     1
  3
ACAD_XREC_ROUNDTRIP
360
CF
  0
DICTIONARY
  5
CC
330
41
100
AcDbDictionary
280
     1
281
     1
  3
ACAD_XREC_ROUNDTRIP
360
CD
  0
DICTIONARY
  5
C6
330
3E
100
AcDbDictionary
280
     1
281
     1
  3
ACAD_XREC_ROUNDTRIP
360
C7
  0
DICTIONARY
  5
C8
330
3F
100
AcDbDictionary
280
     1
281
     1
  3
ACAD_XREC_ROUNDTRIP
360
C9
  0
DICTIONARY
  5
B8
330
37
100
AcDbDictionary
280
     1
281
     1
  3
ACAD_XREC_ROUNDTRIP
360
B9
  0
DICTIONARY
  5
AA
330
30
100
AcDbDictionary
280
     1
281
     1
  3
ACAD_XREC_ROUNDTRIP
360
AB
  0
DICTIONARY
  5
CA
330
40
100
AcDbDictionary
280
     1
281
     1
  3
ACAD_XREC_ROUNDTRIP
360
CB
  0
XRECORD
  5
D4
102
{ACAD_REACTORS
330
D3
102
}
330
D3
100
AcDbXrecord
280
     1
102
ACAD_ROUNDTRIP_2010_MLEADER_STYLE
  0
CELLSTYLEMAP
  5
D1
102
{ACAD_REACTORS
330
D0
102
}
330
D0
100
AcDbCellStyleMap
 90
        3
300
CELLSTYLE
  1
TABLEFORMAT_BEGIN
 90
        5
170
     1
 91
        0
 92
    32768
 62
   257
 93
        1
300
CONTENTFORMAT
  1
CONTENTFORMAT_BEGIN
 90
        0
 91
        0
 92
        4
 93
        0
300

 40
0.0
140
1.0
 94
        5
 62
     0
340
11
144
0.25
309
CONTENTFORMAT_END
171
     1
301
MARGIN
  1
CELLMARGIN_BEGIN
 40
0.06
 40
0.06
 40
0.06
 40
0.06
 40
0.06
 40
0.06
309
CELLMARGIN_END
 94
        6
 95
        1
302
GRIDFORMAT
  1
GRIDFORMAT_BEGIN
 90
        0
 91
        1
 62
     0
 92
       -2
340
14
 93
        0
 40
0.045
309
GRIDFORMAT_END
 95
        2
302
GRIDFORMAT
  1
GRIDFORMAT_BEGIN
 90
        0
 91
        1
 62
     0
 92
       -2
340
14
 93
        0
 40
0.045
309
GRIDFORMAT_END
 95
        4
302
GRIDFORMAT
  1
GRIDFORMAT_BEGIN
 90
        0
 91
        1
 62
     0
 92
       -2
340
14
 93
        0
 40
0.045
309
GRIDFORMAT_END
 95
        8
302
GRIDFORMAT
  1
GRIDFORMAT_BEGIN
 90
        0
 91
        1
 62
     0
 92
       -2
340
14
 93
        0
 40
0.045
309
GRIDFORMAT_END
 95
       16
302
GRIDFORMAT
  1
GRIDFORMAT_BEGIN
 90
        0
 91
        1
 62
     0
 92
       -2
340
14
 93
        0
 40
0.045
309
GRIDFORMAT_END
 95
       32
302
GRIDFORMAT
  1
GRIDFORMAT_BEGIN
 90
        0
 91
        1
 62
     0
 92
       -2
340
14
 93
        0
 40
0.045
309
GRIDFORMAT_END
309
TABLEFORMAT_END
  1
CELLSTYLE_BEGIN
 90
        1
 91
        1
300
_TITLE
309
CELLSTYLE_END
300
CELLSTYLE
  1
TABLEFORMAT_BEGIN
 90
        5
170
     1
 91
        0
 92
        0
 62
   257
 93
        1
300
CONTENTFORMAT
  1
CONTENTFORMAT_BEGIN
 90
        0
 91
        0
 92
        4
 93
        0
300

 40
0.0
140
1.0
 94
        5
 62
     0
340
11
144
0.18
309
CONTENTFORMAT_END
171
     1
301
MARGIN
  1
CELLMARGIN_BEGIN
 40
0.06
 40
0.06
 40
0.06
 40
0.06
 40
0.06
 40
0.06
309
CELLMARGIN_END
 94
        6
 95
        1
302
GRIDFORMAT
  1
GRIDFORMAT_BEGIN
 90
        0
 91
        1
 62
     0
 92
       -2
340
14
 93
        0
 40
0.045
309
GRIDFORMAT_END
 95
        2
302
GRIDFORMAT
  1
GRIDFORMAT_BEGIN
 90
        0
 91
        1
 62
     0
 92
       -2
340
14
 93
        0
 40
0.045
309
GRIDFORMAT_END
 95
        4
302
GRIDFORMAT
  1
GRIDFORMAT_BEGIN
 90
        0
 91
        1
 62
     0
 92
       -2
340
14
 93
        0
 40
0.045
309
GRIDFORMAT_END
 95
        8
302
GRIDFORMAT
  1
GRIDFORMAT_BEGIN
 90
        0
 91
        1
 62
     0
 92
       -2
340
14
 93
        0
 40
0.045
309
GRIDFORMAT_END
 95
       16
302
GRIDFORMAT
  1
GRIDFORMAT_BEGIN
 90
        0
 91
        1
 62
     0
 92
       -2
340
14
 93
        0
 40
0.045
309
GRIDFORMAT_END
 95
       32
302
GRIDFORMAT
  1
GRIDFORMAT_BEGIN
 90
        0
 91
        1
 62
     0
 92
       -2
340
14
 93
        0
 40
0.045
309
GRIDFORMAT_END
309
TABLEFORMAT_END
  1
CELLSTYLE_BEGIN
 90
        2
 91
        1
300
_HEADER
309
CELLSTYLE_END
300
CELLSTYLE
  1
TABLEFORMAT_BEGIN
 90
        5
170
     1
 91
        0
 92
        0
 62
   257
 93
        1
300
CONTENTFORMAT
  1
CONTENTFORMAT_BEGIN
 90
        0
 91
        0
 92
        4
 93
        0
300

 40
0.0
140
1.0
 94
        2
 62
     0
340
11
144
0.18
309
CONTENTFORMAT_END
171
     1
301
MARGIN
  1
CELLMARGIN_BEGIN
 40
0.06
 40
0.06
 40
0.06
 40
0.06
 40
0.06
 40
0.06
309
CELLMARGIN_END
 94
        6
 95
        1
302
GRIDFORMAT
  1
GRIDFORMAT_BEGIN
 90
        0
 91
        1
 62
     0
 92
       -2
340
14
 93
        0
 40
0.045
309
GRIDFORMAT_END
 95
        2
302
GRIDFORMAT
  1
GRIDFORMAT_BEGIN
 90
        0
 91
        1
 62
     0
 92
       -2
340
14
 93
        0
 40
0.045
309
GRIDFORMAT_END
 95
        4
302
GRIDFORMAT
  1
GRIDFORMAT_BEGIN
 90
        0
 91
        1
 62
     0
 92
       -2
340
14
 93
        0
 40
0.045
309
GRIDFORMAT_END
 95
        8
302
GRIDFORMAT
  1
GRIDFORMAT_BEGIN
 90
        0
 91
        1
 62
     0
 92
       -2
340
14
 93
        0
 40
0.045
309
GRIDFORMAT_END
 95
       16
302
GRIDFORMAT
  1
GRIDFORMAT_BEGIN
 90
        0
 91
        1
 62
     0
 92
       -2
340
14
 93
        0
 40
0.045
309
GRIDFORMAT_END
 95
       32
302
GRIDFORMAT
  1
GRIDFORMAT_BEGIN
 90
        0
 91
        1
 62
     0
 92
       -2
340
14
 93
        0
 40
0.045
309
GRIDFORMAT_END
309
TABLEFORMAT_END
  1
CELLSTYLE_BEGIN
 90
        3
 91
        2
300
_DATA
309
CELLSTYLE_END
  0
XRECORD
  5
A9
102
{ACAD_REACTORS
330
A8
102
}
330
A8
100
AcDbXrecord
280
     1
102
RTVSPropertyOp0
 70
     1
102
RTVSPropertyOp1
 70
     1
102
RTVSPropertyOp2
 70
     1
102
RTVSPropertyOp3
 70
     1
102
RTVSPropertyOp4
 70
     1
102
RTVSPropertyOp5
 70
     1
102
RTVSPropertyOp6
 70
     1
102
RTVSPropertyOp7
 70
     1
102
RTVSPropertyOp8
 70
     1
102
RTVSPropertyOp9
 70
     1
102
RTVSPropertyOp10
 70
     1
102
RTVSPropertyOp11
 70
     1
102
RTVSPropertyOp12
 70
     1
102
RTVSPropertyOp13
 70
     1
102
RTVSPropertyOp14
 70
     1
102
RTVSPropertyOp15
 70
     1
102
RTVSPropertyOp16
 70
     1
102
RTVSPropertyOp17
 70
     1
102
RTVSPropertyOp18
 70
     1
102
RTVSPropertyOp19
 70
     1
102
RTVSPropertyOp20
 70
     1
102
RTVSPropertyOp21
 70
     1
102
RTVSPropertyOp22
 70
     1
102
RTVSPropertyOp23
 70
     1
102
RTVSPropertyOp24
 70
     1
102
RTVSPropertyOp25
 70
     1
102
RTVSPropertyOp26
 70
     1
102
RTVSPropertyOp27
 70
     1
102
RTVSPropertyOp28
 70
     1
102
RTVSPropertyOp29
 70
     1
102
RTVSPropertyOp30
 70
     1
102
RTVSPropertyOp31
 70
     1
102
RTVSPropertyOp32
 70
     1
102
RTVSPropertyOp33
 70
     1
102
RTVSPropertyOp34
 70
     1
102
RTVSPropertyOp35
 70
     1
102
RTVSPropertyOp36
 70
     1
102
RTVSPropertyOp37
 70
     1
102
RTVSPropertyOp38
 70
     1
102
RTVSPropertyOp39
 70
     1
102
RTVSPropertyOp40
 70
     1
102
RTVSPropertyOp41
 70
     1
102
RTVSPropertyOp42
 70
     1
102
RTVSPropertyOp43
 70
     1
102
RTVSPropertyOp44
 70
     1
102
RTVSPropertyOp45
 70
     1
102
RTVSPropertyOp46
 70
     1
102
RTVSPropertyOp47
 70
     1
102
RTVSPropertyOp48
 70
     1
102
RTVSPropertyOp49
 70
     1
102
RTVSPropertyOp50
 70
     1
102
RTVSPropertyOp51
 70
     0
102
RTVSPropertyOp52
 70
     0
102
RTVSPropertyOp53
 70
     1
102
RTVSPropertyOp54
 70
     1
102
RTVSPropertyOp55
 70
     1
102
RTVSPropertyOp56
 70
     1
102
RTVSPropertyOp57
 70
     1
102
RTVSPost2010Prop28
280
     1
102
RTVSPost2010PropOp28
 70
     1
102
RTVSPost2010Prop29
280
     1
102
RTVSPost2010PropOp29
 70
     1
102
RTVSPost2010Prop30
280
     0
102
RTVSPost2010PropOp30
 70
     1
102
RTVSPost2010Prop31
280
     0
102
RTVSPost2010PropOp31
 70
     1
102
RTVSPost2010Prop32
280
     0
102
RTVSPost2010PropOp32
 70
     1
102
RTVSPost2010Prop33
280
     0
102
RTVSPost2010PropOp33
 70
     1
102
RTVSPost2010Prop34
280
     0
102
RTVSPost2010PropOp34
 70
     1
102
RTVSPost2010Prop35
280
     0
102
RTVSPost2010PropOp35
 70
     1
102
RTVSPost2010Prop36
280
     0
102
RTVSPost2010PropOp36
 70
     1
102
RTVSPost2010Prop37
 90
       50
102
RTVSPost2010PropOp37
 70
     1
102
RTVSPost2010Prop38
140
0.0
102
RTVSPost2010PropOp38
 70
     1
102
RTVSPost2010Prop39
140
1.0
102
RTVSPost2010PropOp39
 70
     1
102
RTVSPost2010Prop40
 90
        0
102
RTVSPost2010PropOp40
 70
     1
102
RTVSPost2010Prop41ColorIndex
 90
       18
102
RTVSPost2010Prop41ColorRGB
 90
        0
102
RTVSPost2010PropOp41
 70
     1
102
RTVSPost2010Prop42
 90
       50
102
RTVSPost2010PropOp42
 70
     1
102
RTVSPost2010Prop43
 90
        3
102
RTVSPost2010PropOp43
 70
     1
102
RTVSPost2010Prop44ColorIndex
 90
        5
102
RTVSPost2010Prop44ColorRGB
 90
      255
102
RTVSPost2010PropOp44
 70
     1
102
RTVSPost2010Prop45
280
     0
102
RTVSPost2010PropOp45
 70
     1
102
RTVSPost2010Prop46
 90
       50
102
RTVSPost2010PropOp46
 70
     1
102
RTVSPost2010Prop47
 90
       50
102
RTVSPost2010PropOp47
 70
     1
102
RTVSPost2010Prop48
 90
       50
102
RTVSPost2010PropOp48
 70
     1
102
RTVSPost2010Prop49
280
     0
102
RTVSPost2010PropOp49
 70
     1
102
RTVSPost2010Prop50
 90
       50
102
RTVSPost2010PropOp50
 70
     1
102
RTVSPost2010Prop51ColorIndex
 90
      256
102
RTVSPost2010Prop51ColorRGB
 90
-16777216
102
RTVSPost2010PropOp51
 70
     0
102
RTVSPost2010Prop52
140
1.0
102
RTVSPost2010PropOp52
 70
     0
102
RTVSPost2010Prop53
 90
        2
102
RTVSPost2010PropOp53
 70
     1
102
RTVSPost2010Prop54
  1
strokes_ogs.tif
102
RTVSPost2010PropOp54
 70
     1
102
RTVSPost2010Prop55
280
     0
102
RTVSPost2010PropOp55
 70
     1
102
RTVSPost2010Prop56
140
1.0
102
RTVSPost2010PropOp56
 70
     1
102
RTVSPost2010Prop57
140
1.0
102
RTVSPost2010PropOp57
 70
     1
  0
XRECORD
  5
AF
102
{ACAD_REACTORS
330
AE
102
}
330
AE
100
AcDbXrecord
280
     1
102
RTVSPropertyOp0
 70
     1
102
RTVSPropertyOp1
 70
     1
102
RTVSPropertyOp2
 70
     1
102
RTVSPropertyOp3
 70
     1
102
RTVSPropertyOp4
 70
     1
102
RTVSPropertyOp5
 70
     1
102
RTVSPropertyOp6
 70
     1
102
RTVSPropertyOp7
 70
     1
102
RTVSPropertyOp8
 70
     1
102
RTVSPropertyOp9
 70
     1
102
RTVSPropertyOp10
 70
     1
102
RTVSPropertyOp11
 70
     1
102
RTVSPropertyOp12
 70
     1
102
RTVSPropertyOp13
 70
     1
102
RTVSPropertyOp14
 70
     1
102
RTVSPropertyOp15
 70
     1
102
RTVSPropertyOp16
 70
     1
102
RTVSPropertyOp17
 70
     1
102
RTVSPropertyOp18
 70
     1
102
RTVSPropertyOp19
 70
     1
102
RTVSPropertyOp20
 70
     1
102
RTVSPropertyOp21
 70
     1
102
RTVSPropertyOp22
 70
     1
102
RTVSPropertyOp23
 70
     1
102
RTVSPropertyOp24
 70
     1
102
RTVSPropertyOp25
 70
     1
102
RTVSPropertyOp26
 70
     1
102
RTVSPropertyOp27
 70
     1
102
RTVSPropertyOp28
 70
     1
102
RTVSPropertyOp29
 70
     1
102
RTVSPropertyOp30
 70
     1
102
RTVSPropertyOp31
 70
     1
102
RTVSPropertyOp32
 70
     1
102
RTVSPropertyOp33
 70
     1
102
RTVSPropertyOp34
 70
     1
102
RTVSPropertyOp35
 70
     1
102
RTVSPropertyOp36
 70
     1
102
RTVSPropertyOp37
 70
     1
102
RTVSPropertyOp38
 70
     1
102
RTVSPropertyOp39
 70
     1
102
RTVSPropertyOp40
 70
     1
102
RTVSPropertyOp41
 70
     1
102
RTVSPropertyOp42
 70
     1
102
RTVSPropertyOp43
 70
     1
102
RTVSPropertyOp44
 70
     1
102
RTVSPropertyOp45
 70
     1
102
RTVSPropertyOp46
 70
     1
102
RTVSPropertyOp47
 70
     1
102
RTVSPropertyOp48
 70
     1
102
RTVSPropertyOp49
 70
     1
102
RTVSPropertyOp50
 70
     1
102
RTVSPropertyOp51
 70
     0
102
RTVSPropertyOp52
 70
     0
102
RTVSPropertyOp53
 70
     1
102
RTVSPropertyOp54
 70
     1
102
RTVSPropertyOp55
 70
     1
102
RTVSPropertyOp56
 70
     1
102
RTVSPropertyOp57
 70
     1
102
RTVSPost2010Prop28
280
     0
102
RTVSPost2010PropOp28
 70
     1
102
RTVSPost2010Prop29
280
     1
102
RTVSPost2010PropOp29
 70
     1
102
RTVSPost2010Prop30
280
     1
102
RTVSPost2010PropOp30
 70
     1
102
RTVSPost2010Prop31
280
     0
102
RTVSPost2010PropOp31
 70
     1
102
RTVSPost2010Prop32
280
     0
102
RTVSPost2010PropOp32
 70
     1
102
RTVSPost2010Prop33
280
     0
102
RTVSPost2010PropOp33
 70
     1
102
RTVSPost2010Prop34
280
     0
102
RTVSPost2010PropOp34
 70
     1
102
RTVSPost2010Prop35
280
     0
102
RTVSPost2010PropOp35
 70
     1
102
RTVSPost2010Prop36
280
     0
102
RTVSPost2010PropOp36
 70
     1
102
RTVSPost2010Prop37
 90
       50
102
RTVSPost2010PropOp37
 70
     1
102
RTVSPost2010Prop38
140
0.0
102
RTVSPost2010PropOp38
 70
     1
102
RTVSPost2010Prop39
140
1.0
102
RTVSPost2010PropOp39
 70
     1
102
RTVSPost2010Prop40
 90
        0
102
RTVSPost2010PropOp40
 70
     1
102
RTVSPost2010Prop41ColorIndex
 90
       18
102
RTVSPost2010Prop41ColorRGB
 90
        0
102
RTVSPost2010PropOp41
 70
     1
102
RTVSPost2010Prop42
 90
       50
102
RTVSPost2010PropOp42
 70
     1
102
RTVSPost2010Prop43
 90
        3
102
RTVSPost2010PropOp43
 70
     1
102
RTVSPost2010Prop44ColorIndex
 90
        5
102
RTVSPost2010Prop44ColorRGB
 90
      255
102
RTVSPost2010PropOp44
 70
     1
102
RTVSPost2010Prop45
280
     0
102
RTVSPost2010PropOp45
 70
     1
102
RTVSPost2010Prop46
 90
       50
102
RTVSPost2010PropOp46
 70
     1
102
RTVSPost2010Prop47
 90
       50
102
RTVSPost2010PropOp47
 70
     1
102
RTVSPost2010Prop48
 90
       50
102
RTVSPost2010PropOp48
 70
     1
102
RTVSPost2010Prop49
280
     0
102
RTVSPost2010PropOp49
 70
     1
102
RTVSPost2010Prop50
 90
       50
102
RTVSPost2010PropOp50
 70
     1
102
RTVSPost2010Prop51ColorIndex
 90
      256
102
RTVSPost2010Prop51ColorRGB
 90
-16777216
102
RTVSPost2010PropOp51
 70
     0
102
RTVSPost2010Prop52
140
1.0
102
RTVSPost2010PropOp52
 70
     0
102
RTVSPost2010Prop53
 90
        2
102
RTVSPost2010PropOp53
 70
     1
102
RTVSPost2010Prop54
  1
strokes_ogs.tif
102
RTVSPost2010PropOp54
 70
     1
102
RTVSPost2010Prop55
280
     0
102
RTVSPost2010PropOp55
 70
     1
102
RTVSPost2010Prop56
140
1.0
102
RTVSPost2010PropOp56
 70
     1
102
RTVSPost2010Prop57
140
1.0
102
RTVSPost2010PropOp57
 70
     1
  0
XRECORD
  5
B7
102
{ACAD_REACTORS
330
B6
102
}
330
B6
100
AcDbXrecord
280
     1
102
RTVSPropertyOp0
 70
     1
102
RTVSPropertyOp1
 70
     1
102
RTVSPropertyOp2
 70
     1
102
RTVSPropertyOp3
 70
     1
102
RTVSPropertyOp4
 70
     1
102
RTVSPropertyOp5
 70
     1
102
RTVSPropertyOp6
 70
     1
102
RTVSPropertyOp7
 70
     1
102
RTVSPropertyOp8
 70
     1
102
RTVSPropertyOp9
 70
     1
102
RTVSPropertyOp10
 70
     1
102
RTVSPropertyOp11
 70
     1
102
RTVSPropertyOp12
 70
     1
102
RTVSPropertyOp13
 70
     1
102
RTVSPropertyOp14
 70
     1
102
RTVSPropertyOp15
 70
     1
102
RTVSPropertyOp16
 70
     1
102
RTVSPropertyOp17
 70
     1
102
RTVSPropertyOp18
 70
     1
102
RTVSPropertyOp19
 70
     1
102
RTVSPropertyOp20
 70
     1
102
RTVSPropertyOp21
 70
     1
102
RTVSPropertyOp22
 70
     1
102
RTVSPropertyOp23
 70
     1
102
RTVSPropertyOp24
 70
     1
102
RTVSPropertyOp25
 70
     1
102
RTVSPropertyOp26
 70
     1
102
RTVSPropertyOp27
 70
     1
102
RTVSPropertyOp28
 70
     1
102
RTVSPropertyOp29
 70
     1
102
RTVSPropertyOp30
 70
     1
102
RTVSPropertyOp31
 70
     1
102
RTVSPropertyOp32
 70
     1
102
RTVSPropertyOp33
 70
     1
102
RTVSPropertyOp34
 70
     1
102
RTVSPropertyOp35
 70
     1
102
RTVSPropertyOp36
 70
     1
102
RTVSPropertyOp37
 70
     1
102
RTVSPropertyOp38
 70
     1
102
RTVSPropertyOp39
 70
     1
102
RTVSPropertyOp40
 70
     1
102
RTVSPropertyOp41
 70
     1
102
RTVSPropertyOp42
 70
     1
102
RTVSPropertyOp43
 70
     1
102
RTVSPropertyOp44
 70
     1
102
RTVSPropertyOp45
 70
     1
102
RTVSPropertyOp46
 70
     1
102
RTVSPropertyOp47
 70
     1
102
RTVSPropertyOp48
 70
     1
102
RTVSPropertyOp49
 70
     1
102
RTVSPropertyOp50
 70
     1
102
RTVSPropertyOp51
 70
     0
102
RTVSPropertyOp52
 70
     0
102
RTVSPropertyOp53
 70
     1
102
RTVSPropertyOp54
 70
     1
102
RTVSPropertyOp55
 70
     1
102
RTVSPropertyOp56
 70
     1
102
RTVSPropertyOp57
 70
     1
102
RTVSPost2010Prop28
280
     0
102
RTVSPost2010PropOp28
 70
     1
102
RTVSPost2010Prop29
280
     1
102
RTVSPost2010PropOp29
 70
     1
102
RTVSPost2010Prop30
280
     1
102
RTVSPost2010PropOp30
 70
     1
102
RTVSPost2010Prop31
280
     0
102
RTVSPost2010PropOp31
 70
     1
102
RTVSPost2010Prop32
280
     0
102
RTVSPost2010PropOp32
 70
     1
102
RTVSPost2010Prop33
280
     0
102
RTVSPost2010PropOp33
 70
     1
102
RTVSPost2010Prop34
280
     0
102
RTVSPost2010PropOp34
 70
     1
102
RTVSPost2010Prop35
280
     0
102
RTVSPost2010PropOp35
 70
     1
102
RTVSPost2010Prop36
280
     0
102
RTVSPost2010PropOp36
 70
     1
102
RTVSPost2010Prop37
 90
       50
102
RTVSPost2010PropOp37
 70
     1
102
RTVSPost2010Prop38
140
0.0
102
RTVSPost2010PropOp38
 70
     1
102
RTVSPost2010Prop39
140
1.0
102
RTVSPost2010PropOp39
 70
     1
102
RTVSPost2010Prop40
 90
        0
102
RTVSPost2010PropOp40
 70
     1
102
RTVSPost2010Prop41ColorIndex
 90
       18
102
RTVSPost2010Prop41ColorRGB
 90
        0
102
RTVSPost2010PropOp41
 70
     1
102
RTVSPost2010Prop42
 90
       50
102
RTVSPost2010PropOp42
 70
     1
102
RTVSPost2010Prop43
 90
        3
102
RTVSPost2010PropOp43
 70
     1
102
RTVSPost2010Prop44ColorIndex
 90
        5
102
RTVSPost2010Prop44ColorRGB
 90
      255
102
RTVSPost2010PropOp44
 70
     1
102
RTVSPost2010Prop45
280
     0
102
RTVSPost2010PropOp45
 70
     1
102
RTVSPost2010Prop46
 90
       50
102
RTVSPost2010PropOp46
 70
     1
102
RTVSPost2010Prop47
 90
       50
102
RTVSPost2010PropOp47
 70
     1
102
RTVSPost2010Prop48
 90
       50
102
RTVSPost2010PropOp48
 70
     1
102
RTVSPost2010Prop49
280
     0
102
RTVSPost2010PropOp49
 70
     1
102
RTVSPost2010Prop50
 90
       50
102
RTVSPost2010PropOp50
 70
     1
102
RTVSPost2010Prop51ColorIndex
 90
      256
102
RTVSPost2010Prop51ColorRGB
 90
-16777216
102
RTVSPost2010PropOp51
 70
     0
102
RTVSPost2010Prop52
140
1.0
102
RTVSPost2010PropOp52
 70
     0
102
RTVSPost2010Prop53
 90
        2
102
RTVSPost2010PropOp53
 70
     1
102
RTVSPost2010Prop54
  1
strokes_ogs.tif
102
RTVSPost2010PropOp54
 70
     1
102
RTVSPost2010Prop55
280
     0
102
RTVSPost2010PropOp55
 70
     1
102
RTVSPost2010Prop56
140
1.0
102
RTVSPost2010PropOp56
 70
     1
102
RTVSPost2010Prop57
140
1.0
102
RTVSPost2010PropOp57
 70
     1
  0
XRECORD
  5
BF
102
{ACAD_REACTORS
330
BE
102
}
330
BE
100
AcDbXrecord
280
     1
102
RTVSPropertyOp0
 70
     1
102
RTVSPropertyOp1
 70
     1
102
RTVSPropertyOp2
 70
     1
102
RTVSPropertyOp3
 70
     1
102
RTVSPropertyOp4
 70
     1
102
RTVSPropertyOp5
 70
     1
102
RTVSPropertyOp6
 70
     1
102
RTVSPropertyOp7
 70
     1
102
RTVSPropertyOp8
 70
     1
102
RTVSPropertyOp9
 70
     1
102
RTVSPropertyOp10
 70
     1
102
RTVSPropertyOp11
 70
     1
102
RTVSPropertyOp12
 70
     1
102
RTVSPropertyOp13
 70
     1
102
RTVSPropertyOp14
 70
     1
102
RTVSPropertyOp15
 70
     1
102
RTVSPropertyOp16
 70
     1
102
RTVSPropertyOp17
 70
     1
102
RTVSPropertyOp18
 70
     1
102
RTVSPropertyOp19
 70
     1
102
RTVSPropertyOp20
 70
     1
102
RTVSPropertyOp21
 70
     1
102
RTVSPropertyOp22
 70
     1
102
RTVSPropertyOp23
 70
     1
102
RTVSPropertyOp24
 70
     1
102
RTVSPropertyOp25
 70
     1
102
RTVSPropertyOp26
 70
     1
102
RTVSPropertyOp27
 70
     1
102
RTVSPropertyOp28
 70
     1
102
RTVSPropertyOp29
 70
     1
102
RTVSPropertyOp30
 70
     1
102
RTVSPropertyOp31
 70
     1
102
RTVSPropertyOp32
 70
     1
102
RTVSPropertyOp33
 70
     1
102
RTVSPropertyOp34
 70
     1
102
RTVSPropertyOp35
 70
     1
102
RTVSPropertyOp36
 70
     1
102
RTVSPropertyOp37
 70
     1
102
RTVSPropertyOp38
 70
     1
102
RTVSPropertyOp39
 70
     1
102
RTVSPropertyOp40
 70
     1
102
RTVSPropertyOp41
 70
     1
102
RTVSPropertyOp42
 70
     1
102
RTVSPropertyOp43
 70
     1
102
RTVSPropertyOp44
 70
     1
102
RTVSPropertyOp45
 70
     1
102
RTVSPropertyOp46
 70
     1
102
RTVSPropertyOp47
 70
     1
102
RTVSPropertyOp48
 70
     1
102
RTVSPropertyOp49
 70
     1
102
RTVSPropertyOp50
 70
     1
102
RTVSPropertyOp51
 70
     0
102
RTVSPropertyOp52
 70
     0
102
RTVSPropertyOp53
 70
     1
102
RTVSPropertyOp54
 70
     1
102
RTVSPropertyOp55
 70
     1
102
RTVSPropertyOp56
 70
     1
102
RTVSPropertyOp57
 70
     1
102
RTVSPost2010Prop28
280
     0
102
RTVSPost2010PropOp28
 70
     1
102
RTVSPost2010Prop29
280
     1
102
RTVSPost2010PropOp29
 70
     1
102
RTVSPost2010Prop30
280
     1
102
RTVSPost2010PropOp30
 70
     1
102
RTVSPost2010Prop31
280
     0
102
RTVSPost2010PropOp31
 70
     1
102
RTVSPost2010Prop32
280
     0
102
RTVSPost2010PropOp32
 70
     1
102
RTVSPost2010Prop33
280
     0
102
RTVSPost2010PropOp33
 70
     1
102
RTVSPost2010Prop34
280
     0
102
RTVSPost2010PropOp34
 70
     1
102
RTVSPost2010Prop35
280
     0
102
RTVSPost2010PropOp35
 70
     1
102
RTVSPost2010Prop36
280
     0
102
RTVSPost2010PropOp36
 70
     1
102
RTVSPost2010Prop37
 90
       50
102
RTVSPost2010PropOp37
 70
     1
102
RTVSPost2010Prop38
140
0.0
102
RTVSPost2010PropOp38
 70
     1
102
RTVSPost2010Prop39
140
1.0
102
RTVSPost2010PropOp39
 70
     1
102
RTVSPost2010Prop40
 90
        0
102
RTVSPost2010PropOp40
 70
     1
102
RTVSPost2010Prop41ColorIndex
 90
       18
102
RTVSPost2010Prop41ColorRGB
 90
        0
102
RTVSPost2010PropOp41
 70
     1
102
RTVSPost2010Prop42
 90
       50
102
RTVSPost2010PropOp42
 70
     1
102
RTVSPost2010Prop43
 90
        3
102
RTVSPost2010PropOp43
 70
     1
102
RTVSPost2010Prop44ColorIndex
 90
        5
102
RTVSPost2010Prop44ColorRGB
 90
      255
102
RTVSPost2010PropOp44
 70
     1
102
RTVSPost2010Prop45
280
     0
102
RTVSPost2010PropOp45
 70
     1
102
RTVSPost2010Prop46
 90
       50
102
RTVSPost2010PropOp46
 70
     1
102
RTVSPost2010Prop47
 90
       50
102
RTVSPost2010PropOp47
 70
     1
102
RTVSPost2010Prop48
 90
       50
102
RTVSPost2010PropOp48
 70
     1
102
RTVSPost2010Prop49
280
     0
102
RTVSPost2010PropOp49
 70
     1
102
RTVSPost2010Prop50
 90
       50
102
RTVSPost2010PropOp50
 70
     1
102
RTVSPost2010Prop51ColorIndex
 90
      256
102
RTVSPost2010Prop51ColorRGB
 90
-16777216
102
RTVSPost2010PropOp51
 70
     0
102
RTVSPost2010Prop52
140
1.0
102
RTVSPost2010PropOp52
 70
     0
102
RTVSPost2010Prop53
 90
        2
102
RTVSPost2010PropOp53
 70
     1
102
RTVSPost2010Prop54
  1
strokes_ogs.tif
102
RTVSPost2010PropOp54
 70
     1
102
RTVSPost2010Prop55
280
     0
102
RTVSPost2010PropOp55
 70
     1
102
RTVSPost2010Prop56
140
1.0
102
RTVSPost2010PropOp56
 70
     1
102
RTVSPost2010Prop57
140
1.0
102
RTVSPost2010PropOp57
 70
     1
  0
XRECORD
  5
B3
102
{ACAD_REACTORS
330
B2
102
}
330
B2
100
AcDbXrecord
280
     1
102
RTVSPropertyOp0
 70
     1
102
RTVSPropertyOp1
 70
     1
102
RTVSPropertyOp2
 70
     1
102
RTVSPropertyOp3
 70
     1
102
RTVSPropertyOp4
 70
     1
102
RTVSPropertyOp5
 70
     1
102
RTVSPropertyOp6
 70
     1
102
RTVSPropertyOp7
 70
     1
102
RTVSPropertyOp8
 70
     1
102
RTVSPropertyOp9
 70
     1
102
RTVSPropertyOp10
 70
     1
102
RTVSPropertyOp11
 70
     1
102
RTVSPropertyOp12
 70
     1
102
RTVSPropertyOp13
 70
     1
102
RTVSPropertyOp14
 70
     1
102
RTVSPropertyOp15
 70
     1
102
RTVSPropertyOp16
 70
     1
102
RTVSPropertyOp17
 70
     1
102
RTVSPropertyOp18
 70
     1
102
RTVSPropertyOp19
 70
     1
102
RTVSPropertyOp20
 70
     1
102
RTVSPropertyOp21
 70
     1
102
RTVSPropertyOp22
 70
     1
102
RTVSPropertyOp23
 70
     1
102
RTVSPropertyOp24
 70
     1
102
RTVSPropertyOp25
 70
     1
102
RTVSPropertyOp26
 70
     1
102
RTVSPropertyOp27
 70
     1
102
RTVSPropertyOp28
 70
     1
102
RTVSPropertyOp29
 70
     1
102
RTVSPropertyOp30
 70
     1
102
RTVSPropertyOp31
 70
     1
102
RTVSPropertyOp32
 70
     1
102
RTVSPropertyOp33
 70
     1
102
RTVSPropertyOp34
 70
     1
102
RTVSPropertyOp35
 70
     1
102
RTVSPropertyOp36
 70
     1
102
RTVSPropertyOp37
 70
     1
102
RTVSPropertyOp38
 70
     1
102
RTVSPropertyOp39
 70
     1
102
RTVSPropertyOp40
 70
     1
102
RTVSPropertyOp41
 70
     1
102
RTVSPropertyOp42
 70
     1
102
RTVSPropertyOp43
 70
     1
102
RTVSPropertyOp44
 70
     1
102
RTVSPropertyOp45
 70
     1
102
RTVSPropertyOp46
 70
     1
102
RTVSPropertyOp47
 70
     1
102
RTVSPropertyOp48
 70
     1
102
RTVSPropertyOp49
 70
     1
102
RTVSPropertyOp50
 70
     1
102
RTVSPropertyOp51
 70
     0
102
RTVSPropertyOp52
 70
     0
102
RTVSPropertyOp53
 70
     1
102
RTVSPropertyOp54
 70
     1
102
RTVSPropertyOp55
 70
     1
102
RTVSPropertyOp56
 70
     1
102
RTVSPropertyOp57
 70
     1
102
RTVSPost2010Prop28
280
     0
102
RTVSPost2010PropOp28
 70
     1
102
RTVSPost2010Prop29
280
     1
102
RTVSPost2010PropOp29
 70
     1
102
RTVSPost2010Prop30
280
     1
102
RTVSPost2010PropOp30
 70
     1
102
RTVSPost2010Prop31
280
     0
102
RTVSPost2010PropOp31
 70
     1
102
RTVSPost2010Prop32
280
     0
102
RTVSPost2010PropOp32
 70
     1
102
RTVSPost2010Prop33
280
     0
102
RTVSPost2010PropOp33
 70
     1
102
RTVSPost2010Prop34
280
     0
102
RTVSPost2010PropOp34
 70
     1
102
RTVSPost2010Prop35
280
     0
102
RTVSPost2010PropOp35
 70
     1
102
RTVSPost2010Prop36
280
     0
102
RTVSPost2010PropOp36
 70
     1
102
RTVSPost2010Prop37
 90
       50
102
RTVSPost2010PropOp37
 70
     1
102
RTVSPost2010Prop38
140
0.0
102
RTVSPost2010PropOp38
 70
     1
102
RTVSPost2010Prop39
140
1.0
102
RTVSPost2010PropOp39
 70
     1
102
RTVSPost2010Prop40
 90
        0
102
RTVSPost2010PropOp40
 70
     1
102
RTVSPost2010Prop41ColorIndex
 90
       18
102
RTVSPost2010Prop41ColorRGB
 90
        0
102
RTVSPost2010PropOp41
 70
     1
102
RTVSPost2010Prop42
 90
       50
102
RTVSPost2010PropOp42
 70
     1
102
RTVSPost2010Prop43
 90
        3
102
RTVSPost2010PropOp43
 70
     1
102
RTVSPost2010Prop44ColorIndex
 90
        5
102
RTVSPost2010Prop44ColorRGB
 90
      255
102
RTVSPost2010PropOp44
 70
     1
102
RTVSPost2010Prop45
280
     0
102
RTVSPost2010PropOp45
 70
     1
102
RTVSPost2010Prop46
 90
       50
102
RTVSPost2010PropOp46
 70
     1
102
RTVSPost2010Prop47
 90
       50
102
RTVSPost2010PropOp47
 70
     1
102
RTVSPost2010Prop48
 90
       50
102
RTVSPost2010PropOp48
 70
     1
102
RTVSPost2010Prop49
280
     0
102
RTVSPost2010PropOp49
 70
     1
102
RTVSPost2010Prop50
 90
       50
102
RTVSPost2010PropOp50
 70
     1
102
RTVSPost2010Prop51ColorIndex
 90
      256
102
RTVSPost2010Prop51ColorRGB
 90
-16777216
102
RTVSPost2010PropOp51
 70
     0
102
RTVSPost2010Prop52
140
1.0
102
RTVSPost2010PropOp52
 70
     0
102
RTVSPost2010Prop53
 90
        2
102
RTVSPost2010PropOp53
 70
     1
102
RTVSPost2010Prop54
  1
strokes_ogs.tif
102
RTVSPost2010PropOp54
 70
     1
102
RTVSPost2010Prop55
280
     0
102
RTVSPost2010PropOp55
 70
     1
102
RTVSPost2010Prop56
140
1.0
102
RTVSPost2010PropOp56
 70
     1
102
RTVSPost2010Prop57
140
1.0
102
RTVSPost2010PropOp57
 70
     1
  0
XRECORD
  5
B5
102
{ACAD_REACTORS
330
B4
102
}
330
B4
100
AcDbXrecord
280
     1
102
RTVSPropertyOp0
 70
     1
102
RTVSPropertyOp1
 70
     1
102
RTVSPropertyOp2
 70
     1
102
RTVSPropertyOp3
 70
     1
102
RTVSPropertyOp4
 70
     1
102
RTVSPropertyOp5
 70
     1
102
RTVSPropertyOp6
 70
     1
102
RTVSPropertyOp7
 70
     1
102
RTVSPropertyOp8
 70
     1
102
RTVSPropertyOp9
 70
     1
102
RTVSPropertyOp10
 70
     1
102
RTVSPropertyOp11
 70
     1
102
RTVSPropertyOp12
 70
     1
102
RTVSPropertyOp13
 70
     1
102
RTVSPropertyOp14
 70
     1
102
RTVSPropertyOp15
 70
     1
102
RTVSPropertyOp16
 70
     1
102
RTVSPropertyOp17
 70
     1
102
RTVSPropertyOp18
 70
     1
102
RTVSPropertyOp19
 70
     1
102
RTVSPropertyOp20
 70
     1
102
RTVSPropertyOp21
 70
     1
102
RTVSPropertyOp22
 70
     1
102
RTVSPropertyOp23
 70
     1
102
RTVSPropertyOp24
 70
     1
102
RTVSPropertyOp25
 70
     1
102
RTVSPropertyOp26
 70
     1
102
RTVSPropertyOp27
 70
     1
102
RTVSPropertyOp28
 70
     1
102
RTVSPropertyOp29
 70
     1
102
RTVSPropertyOp30
 70
     1
102
RTVSPropertyOp31
 70
     1
102
RTVSPropertyOp32
 70
     1
102
RTVSPropertyOp33
 70
     1
102
RTVSPropertyOp34
 70
     1
102
RTVSPropertyOp35
 70
     1
102
RTVSPropertyOp36
 70
     1
102
RTVSPropertyOp37
 70
     1
102
RTVSPropertyOp38
 70
     1
102
RTVSPropertyOp39
 70
     1
102
RTVSPropertyOp40
 70
     1
102
RTVSPropertyOp41
 70
     1
102
RTVSPropertyOp42
 70
     1
102
RTVSPropertyOp43
 70
     1
102
RTVSPropertyOp44
 70
     1
102
RTVSPropertyOp45
 70
     1
102
RTVSPropertyOp46
 70
     1
102
RTVSPropertyOp47
 70
     1
102
RTVSPropertyOp48
 70
     1
102
RTVSPropertyOp49
 70
     1
102
RTVSPropertyOp50
 70
     1
102
RTVSPropertyOp51
 70
     0
102
RTVSPropertyOp52
 70
     0
102
RTVSPropertyOp53
 70
     1
102
RTVSPropertyOp54
 70
     1
102
RTVSPropertyOp55
 70
     1
102
RTVSPropertyOp56
 70
     1
102
RTVSPropertyOp57
 70
     1
102
RTVSPost2010Prop28
280
     0
102
RTVSPost2010PropOp28
 70
     1
102
RTVSPost2010Prop29
280
     1
102
RTVSPost2010PropOp29
 70
     1
102
RTVSPost2010Prop30
280
     1
102
RTVSPost2010PropOp30
 70
     1
102
RTVSPost2010Prop31
280
     0
102
RTVSPost2010PropOp31
 70
     1
102
RTVSPost2010Prop32
280
     0
102
RTVSPost2010PropOp32
 70
     1
102
RTVSPost2010Prop33
280
     0
102
RTVSPost2010PropOp33
 70
     1
102
RTVSPost2010Prop34
280
     0
102
RTVSPost2010PropOp34
 70
     1
102
RTVSPost2010Prop35
280
     0
102
RTVSPost2010PropOp35
 70
     1
102
RTVSPost2010Prop36
280
     0
102
RTVSPost2010PropOp36
 70
     1
102
RTVSPost2010Prop37
 90
       50
102
RTVSPost2010PropOp37
 70
     1
102
RTVSPost2010Prop38
140
0.0
102
RTVSPost2010PropOp38
 70
     1
102
RTVSPost2010Prop39
140
1.0
102
RTVSPost2010PropOp39
 70
     1
102
RTVSPost2010Prop40
 90
        0
102
RTVSPost2010PropOp40
 70
     1
102
RTVSPost2010Prop41ColorIndex
 90
       18
102
RTVSPost2010Prop41ColorRGB
 90
        0
102
RTVSPost2010PropOp41
 70
     1
102
RTVSPost2010Prop42
 90
       50
102
RTVSPost2010PropOp42
 70
     1
102
RTVSPost2010Prop43
 90
        3
102
RTVSPost2010PropOp43
 70
     1
102
RTVSPost2010Prop44ColorIndex
 90
        5
102
RTVSPost2010Prop44ColorRGB
 90
      255
102
RTVSPost2010PropOp44
 70
     1
102
RTVSPost2010Prop45
280
     0
102
RTVSPost2010PropOp45
 70
     1
102
RTVSPost2010Prop46
 90
       50
102
RTVSPost2010PropOp46
 70
     1
102
RTVSPost2010Prop47
 90
       50
102
RTVSPost2010PropOp47
 70
     1
102
RTVSPost2010Prop48
 90
       50
102
RTVSPost2010PropOp48
 70
     1
102
RTVSPost2010Prop49
280
     0
102
RTVSPost2010PropOp49
 70
     1
102
RTVSPost2010Prop50
 90
       50
102
RTVSPost2010PropOp50
 70
     1
102
RTVSPost2010Prop51ColorIndex
 90
      256
102
RTVSPost2010Prop51ColorRGB
 90
-16777216
102
RTVSPost2010PropOp51
 70
     0
102
RTVSPost2010Prop52
140
1.0
102
RTVSPost2010PropOp52
 70
     0
102
RTVSPost2010Prop53
 90
        2
102
RTVSPost2010PropOp53
 70
     1
102
RTVSPost2010Prop54
  1
strokes_ogs.tif
102
RTVSPost2010PropOp54
 70
     1
102
RTVSPost2010Prop55
280
     0
102
RTVSPost2010PropOp55
 70
     1
102
RTVSPost2010Prop56
140
1.0
102
RTVSPost2010PropOp56
 70
     1
102
RTVSPost2010Prop57
140
1.0
102
RTVSPost2010PropOp57
 70
     1
  0
XRECORD
  5
C5
102
{ACAD_REACTORS
330
C4
102
}
330
C4
100
AcDbXrecord
280
     1
102
RTVSPropertyOp0
 70
     0
102
RTVSPropertyOp1
 70
     0
102
RTVSPropertyOp2
 70
     0
102
RTVSPropertyOp3
 70
     0
102
RTVSPropertyOp4
 70
     0
102
RTVSPropertyOp5
 70
     0
102
RTVSPropertyOp6
 70
     0
102
RTVSPropertyOp7
 70
     0
102
RTVSPropertyOp8
 70
     0
102
RTVSPropertyOp9
 70
     0
102
RTVSPropertyOp10
 70
     0
102
RTVSPropertyOp11
 70
     0
102
RTVSPropertyOp12
 70
     0
102
RTVSPropertyOp13
 70
     0
102
RTVSPropertyOp14
 70
     2
102
RTVSPropertyOp15
 70
     0
102
RTVSPropertyOp16
 70
     0
102
RTVSPropertyOp17
 70
     0
102
RTVSPropertyOp18
 70
     0
102
RTVSPropertyOp19
 70
     0
102
RTVSPropertyOp20
 70
     0
102
RTVSPropertyOp21
 70
     0
102
RTVSPropertyOp22
 70
     0
102
RTVSPropertyOp23
 70
     0
102
RTVSPropertyOp24
 70
     0
102
RTVSPropertyOp25
 70
     0
102
RTVSPropertyOp26
 70
     0
102
RTVSPropertyOp27
 70
     0
102
RTVSPropertyOp28
 70
     0
102
RTVSPropertyOp29
 70
     0
102
RTVSPropertyOp30
 70
     0
102
RTVSPropertyOp31
 70
     0
102
RTVSPropertyOp32
 70
     0
102
RTVSPropertyOp33
 70
     0
102
RTVSPropertyOp34
 70
     0
102
RTVSPropertyOp35
 70
     0
102
RTVSPropertyOp36
 70
     0
102
RTVSPropertyOp37
 70
     0
102
RTVSPropertyOp38
 70
     0
102
RTVSPropertyOp39
 70
     0
102
RTVSPropertyOp40
 70
     0
102
RTVSPropertyOp41
 70
     0
102
RTVSPropertyOp42
 70
     0
102
RTVSPropertyOp43
 70
     0
102
RTVSPropertyOp44
 70
     0
102
RTVSPropertyOp45
 70
     0
102
RTVSPropertyOp46
 70
     0
102
RTVSPropertyOp47
 70
     0
102
RTVSPropertyOp48
 70
     0
102
RTVSPropertyOp49
 70
     0
102
RTVSPropertyOp50
 70
     0
102
RTVSPropertyOp51
 70
     0
102
RTVSPropertyOp52
 70
     0
102
RTVSPropertyOp53
 70
     0
102
RTVSPropertyOp54
 70
     0
102
RTVSPropertyOp55
 70
     0
102
RTVSPropertyOp56
 70
     0
102
RTVSPropertyOp57
 70
     0
102
RTVSPost2010Prop28
280
     0
102
RTVSPost2010PropOp28
 70
     0
102
RTVSPost2010Prop29
280
     1
102
RTVSPost2010PropOp29
 70
     0
102
RTVSPost2010Prop30
280
     1
102
RTVSPost2010PropOp30
 70
     0
102
RTVSPost2010Prop31
280
     0
102
RTVSPost2010PropOp31
 70
     0
102
RTVSPost2010Prop32
280
     0
102
RTVSPost2010PropOp32
 70
     0
102
RTVSPost2010Prop33
280
     0
102
RTVSPost2010PropOp33
 70
     0
102
RTVSPost2010Prop34
280
     0
102
RTVSPost2010PropOp34
 70
     0
102
RTVSPost2010Prop35
280
     0
102
RTVSPost2010PropOp35
 70
     0
102
RTVSPost2010Prop36
280
     0
102
RTVSPost2010PropOp36
 70
     0
102
RTVSPost2010Prop37
 90
       50
102
RTVSPost2010PropOp37
 70
     0
102
RTVSPost2010Prop38
140
0.0
102
RTVSPost2010PropOp38
 70
     0
102
RTVSPost2010Prop39
140
1.0
102
RTVSPost2010PropOp39
 70
     0
102
RTVSPost2010Prop40
 90
        0
102
RTVSPost2010PropOp40
 70
     0
102
RTVSPost2010Prop41ColorIndex
 90
       18
102
RTVSPost2010Prop41ColorRGB
 90
        0
102
RTVSPost2010PropOp41
 70
     0
102
RTVSPost2010Prop42
 90
       50
102
RTVSPost2010PropOp42
 70
     0
102
RTVSPost2010Prop43
 90
        3
102
RTVSPost2010PropOp43
 70
     0
102
RTVSPost2010Prop44ColorIndex
 90
        5
102
RTVSPost2010Prop44ColorRGB
 90
      255
102
RTVSPost2010PropOp44
 70
     0
102
RTVSPost2010Prop45
280
     0
102
RTVSPost2010PropOp45
 70
     0
102
RTVSPost2010Prop46
 90
       50
102
RTVSPost2010PropOp46
 70
     0
102
RTVSPost2010Prop47
 90
       50
102
RTVSPost2010PropOp47
 70
     0
102
RTVSPost2010Prop48
 90
       50
102
RTVSPost2010PropOp48
 70
     0
102
RTVSPost2010Prop49
280
     0
102
RTVSPost2010PropOp49
 70
     0
102
RTVSPost2010Prop50
 90
       50
102
RTVSPost2010PropOp50
 70
     0
102
RTVSPost2010Prop51ColorIndex
 90
      256
102
RTVSPost2010Prop51ColorRGB
 90
-16777216
102
RTVSPost2010PropOp51
 70
     0
102
RTVSPost2010Prop52
140
1.0
102
RTVSPost2010PropOp52
 70
     0
102
RTVSPost2010Prop53
 90
        2
102
RTVSPost2010PropOp53
 70
     0
102
RTVSPost2010Prop54
  1
strokes_ogs.tif
102
RTVSPost2010PropOp54
 70
     0
102
RTVSPost2010Prop55
280
     0
102
RTVSPost2010PropOp55
 70
     0
102
RTVSPost2010Prop56
140
1.0
102
RTVSPost2010PropOp56
 70
     0
102
RTVSPost2010Prop57
140
1.0
102
RTVSPost2010PropOp57
 70
     0
  0
XRECORD
  5
BD
102
{ACAD_REACTORS
330
BC
102
}
330
BC
100
AcDbXrecord
280
     1
102
RTVSPropertyOp0
 70
     1
102
RTVSPropertyOp1
 70
     1
102
RTVSPropertyOp2
 70
     1
102
RTVSPropertyOp3
 70
     1
102
RTVSPropertyOp4
 70
     1
102
RTVSPropertyOp5
 70
     1
102
RTVSPropertyOp6
 70
     1
102
RTVSPropertyOp7
 70
     1
102
RTVSPropertyOp8
 70
     1
102
RTVSPropertyOp9
 70
     1
102
RTVSPropertyOp10
 70
     1
102
RTVSPropertyOp11
 70
     1
102
RTVSPropertyOp12
 70
     1
102
RTVSPropertyOp13
 70
     1
102
RTVSPropertyOp14
 70
     1
102
RTVSPropertyOp15
 70
     1
102
RTVSPropertyOp16
 70
     1
102
RTVSPropertyOp17
 70
     1
102
RTVSPropertyOp18
 70
     1
102
RTVSPropertyOp19
 70
     1
102
RTVSPropertyOp20
 70
     1
102
RTVSPropertyOp21
 70
     1
102
RTVSPropertyOp22
 70
     1
102
RTVSPropertyOp23
 70
     1
102
RTVSPropertyOp24
 70
     1
102
RTVSPropertyOp25
 70
     1
102
RTVSPropertyOp26
 70
     1
102
RTVSPropertyOp27
 70
     1
102
RTVSPropertyOp28
 70
     1
102
RTVSPropertyOp29
 70
     1
102
RTVSPropertyOp30
 70
     1
102
RTVSPropertyOp31
 70
     1
102
RTVSPropertyOp32
 70
     1
102
RTVSPropertyOp33
 70
     1
102
RTVSPropertyOp34
 70
     1
102
RTVSPropertyOp35
 70
     1
102
RTVSPropertyOp36
 70
     1
102
RTVSPropertyOp37
 70
     1
102
RTVSPropertyOp38
 70
     1
102
RTVSPropertyOp39
 70
     1
102
RTVSPropertyOp40
 70
     1
102
RTVSPropertyOp41
 70
     1
102
RTVSPropertyOp42
 70
     1
102
RTVSPropertyOp43
 70
     1
102
RTVSPropertyOp44
 70
     1
102
RTVSPropertyOp45
 70
     1
102
RTVSPropertyOp46
 70
     1
102
RTVSPropertyOp47
 70
     1
102
RTVSPropertyOp48
 70
     1
102
RTVSPropertyOp49
 70
     1
102
RTVSPropertyOp50
 70
     1
102
RTVSPropertyOp51
 70
     0
102
RTVSPropertyOp52
 70
     0
102
RTVSPropertyOp53
 70
     1
102
RTVSPropertyOp54
 70
     1
102
RTVSPropertyOp55
 70
     1
102
RTVSPropertyOp56
 70
     1
102
RTVSPropertyOp57
 70
     1
102
RTVSPost2010Prop28
280
     0
102
RTVSPost2010PropOp28
 70
     1
102
RTVSPost2010Prop29
280
     1
102
RTVSPost2010PropOp29
 70
     1
102
RTVSPost2010Prop30
280
     1
102
RTVSPost2010PropOp30
 70
     1
102
RTVSPost2010Prop31
280
     0
102
RTVSPost2010PropOp31
 70
     1
102
RTVSPost2010Prop32
280
     0
102
RTVSPost2010PropOp32
 70
     1
102
RTVSPost2010Prop33
280
     0
102
RTVSPost2010PropOp33
 70
     1
102
RTVSPost2010Prop34
280
     0
102
RTVSPost2010PropOp34
 70
     1
102
RTVSPost2010Prop35
280
     0
102
RTVSPost2010PropOp35
 70
     1
102
RTVSPost2010Prop36
280
     0
102
RTVSPost2010PropOp36
 70
     1
102
RTVSPost2010Prop37
 90
       50
102
RTVSPost2010PropOp37
 70
     1
102
RTVSPost2010Prop38
140
0.0
102
RTVSPost2010PropOp38
 70
     1
102
RTVSPost2010Prop39
140
1.0
102
RTVSPost2010PropOp39
 70
     1
102
RTVSPost2010Prop40
 90
        0
102
RTVSPost2010PropOp40
 70
     1
102
RTVSPost2010Prop41ColorIndex
 90
       18
102
RTVSPost2010Prop41ColorRGB
 90
        0
102
RTVSPost2010PropOp41
 70
     1
102
RTVSPost2010Prop42
 90
       50
102
RTVSPost2010PropOp42
 70
     1
102
RTVSPost2010Prop43
 90
        3
102
RTVSPost2010PropOp43
 70
     1
102
RTVSPost2010Prop44ColorIndex
 90
        5
102
RTVSPost2010Prop44ColorRGB
 90
      255
102
RTVSPost2010PropOp44
 70
     1
102
RTVSPost2010Prop45
280
     0
102
RTVSPost2010PropOp45
 70
     1
102
RTVSPost2010Prop46
 90
       50
102
RTVSPost2010PropOp46
 70
     1
102
RTVSPost2010Prop47
 90
       50
102
RTVSPost2010PropOp47
 70
     1
102
RTVSPost2010Prop48
 90
       50
102
RTVSPost2010PropOp48
 70
     1
102
RTVSPost2010Prop49
280
     0
102
RTVSPost2010PropOp49
 70
     1
102
RTVSPost2010Prop50
 90
       50
102
RTVSPost2010PropOp50
 70
     1
102
RTVSPost2010Prop51ColorIndex
 90
      256
102
RTVSPost2010Prop51ColorRGB
 90
-16777216
102
RTVSPost2010PropOp51
 70
     0
102
RTVSPost2010Prop52
140
1.0
102
RTVSPost2010PropOp52
 70
     0
102
RTVSPost2010Prop53
 90
        2
102
RTVSPost2010PropOp53
 70
     1
102
RTVSPost2010Prop54
  1
strokes_ogs.tif
102
RTVSPost2010PropOp54
 70
     1
102
RTVSPost2010Prop55
280
     0
102
RTVSPost2010PropOp55
 70
     1
102
RTVSPost2010Prop56
140
1.0
102
RTVSPost2010PropOp56
 70
     1
102
RTVSPost2010Prop57
140
1.0
102
RTVSPost2010PropOp57
 70
     1
  0
XRECORD
  5
A1
102
{ACAD_REACTORS
330
A0
102
}
330
A0
100
AcDbXrecord
280
     1
102
RTVSPropertyOp0
 70
     1
102
RTVSPropertyOp1
 70
     1
102
RTVSPropertyOp2
 70
     1
102
RTVSPropertyOp3
 70
     1
102
RTVSPropertyOp4
 70
     1
102
RTVSPropertyOp5
 70
     1
102
RTVSPropertyOp6
 70
     1
102
RTVSPropertyOp7
 70
     1
102
RTVSPropertyOp8
 70
     1
102
RTVSPropertyOp9
 70
     1
102
RTVSPropertyOp10
 70
     1
102
RTVSPropertyOp11
 70
     1
102
RTVSPropertyOp12
 70
     1
102
RTVSPropertyOp13
 70
     1
102
RTVSPropertyOp14
 70
     1
102
RTVSPropertyOp15
 70
     1
102
RTVSPropertyOp16
 70
     1
102
RTVSPropertyOp17
 70
     1
102
RTVSPropertyOp18
 70
     1
102
RTVSPropertyOp19
 70
     1
102
RTVSPropertyOp20
 70
     1
102
RTVSPropertyOp21
 70
     1
102
RTVSPropertyOp22
 70
     1
102
RTVSPropertyOp23
 70
     1
102
RTVSPropertyOp24
 70
     1
102
RTVSPropertyOp25
 70
     1
102
RTVSPropertyOp26
 70
     1
102
RTVSPropertyOp27
 70
     1
102
RTVSPropertyOp28
 70
     1
102
RTVSPropertyOp29
 70
     1
102
RTVSPropertyOp30
 70
     1
102
RTVSPropertyOp31
 70
     1
102
RTVSPropertyOp32
 70
     1
102
RTVSPropertyOp33
 70
     1
102
RTVSPropertyOp34
 70
     1
102
RTVSPropertyOp35
 70
     1
102
RTVSPropertyOp36
 70
     1
102
RTVSPropertyOp37
 70
     1
102
RTVSPropertyOp38
 70
     1
102
RTVSPropertyOp39
 70
     1
102
RTVSPropertyOp40
 70
     1
102
RTVSPropertyOp41
 70
     1
102
RTVSPropertyOp42
 70
     1
102
RTVSPropertyOp43
 70
     1
102
RTVSPropertyOp44
 70
     1
102
RTVSPropertyOp45
 70
     1
102
RTVSPropertyOp46
 70
     1
102
RTVSPropertyOp47
 70
     1
102
RTVSPropertyOp48
 70
     1
102
RTVSPropertyOp49
 70
     1
102
RTVSPropertyOp50
 70
     1
102
RTVSPropertyOp51
 70
     0
102
RTVSPropertyOp52
 70
     0
102
RTVSPropertyOp53
 70
     1
102
RTVSPropertyOp54
 70
     1
102
RTVSPropertyOp55
 70
     1
102
RTVSPropertyOp56
 70
     1
102
RTVSPropertyOp57
 70
     1
102
RTVSPost2010Prop28
280
     0
102
RTVSPost2010PropOp28
 70
     1
102
RTVSPost2010Prop29
280
     1
102
RTVSPost2010PropOp29
 70
     1
102
RTVSPost2010Prop30
280
     1
102
RTVSPost2010PropOp30
 70
     1
102
RTVSPost2010Prop31
280
     0
102
RTVSPost2010PropOp31
 70
     1
102
RTVSPost2010Prop32
280
     0
102
RTVSPost2010PropOp32
 70
     1
102
RTVSPost2010Prop33
280
     0
102
RTVSPost2010PropOp33
 70
     1
102
RTVSPost2010Prop34
280
     0
102
RTVSPost2010PropOp34
 70
     1
102
RTVSPost2010Prop35
280
     0
102
RTVSPost2010PropOp35
 70
     1
102
RTVSPost2010Prop36
280
     0
102
RTVSPost2010PropOp36
 70
     1
102
RTVSPost2010Prop37
 90
       50
102
RTVSPost2010PropOp37
 70
     1
102
RTVSPost2010Prop38
140
0.0
102
RTVSPost2010PropOp38
 70
     1
102
RTVSPost2010Prop39
140
1.0
102
RTVSPost2010PropOp39
 70
     1
102
RTVSPost2010Prop40
 90
        0
102
RTVSPost2010PropOp40
 70
     1
102
RTVSPost2010Prop41ColorIndex
 90
       18
102
RTVSPost2010Prop41ColorRGB
 90
        0
102
RTVSPost2010PropOp41
 70
     1
102
RTVSPost2010Prop42
 90
       50
102
RTVSPost2010PropOp42
 70
     1
102
RTVSPost2010Prop43
 90
        3
102
RTVSPost2010PropOp43
 70
     1
102
RTVSPost2010Prop44ColorIndex
 90
        5
102
RTVSPost2010Prop44ColorRGB
 90
      255
102
RTVSPost2010PropOp44
 70
     1
102
RTVSPost2010Prop45
280
     0
102
RTVSPost2010PropOp45
 70
     1
102
RTVSPost2010Prop46
 90
       50
102
RTVSPost2010PropOp46
 70
     1
102
RTVSPost2010Prop47
 90
       50
102
RTVSPost2010PropOp47
 70
     1
102
RTVSPost2010Prop48
 90
       50
102
RTVSPost2010PropOp48
 70
     1
102
RTVSPost2010Prop49
280
     0
102
RTVSPost2010PropOp49
 70
     1
102
RTVSPost2010Prop50
 90
       50
102
RTVSPost2010PropOp50
 70
     1
102
RTVSPost2010Prop51ColorIndex
 90
      256
102
RTVSPost2010Prop51ColorRGB
 90
-16777216
102
RTVSPost2010PropOp51
 70
     0
102
RTVSPost2010Prop52
140
1.0
102
RTVSPost2010PropOp52
 70
     0
102
RTVSPost2010Prop53
 90
        2
102
RTVSPost2010PropOp53
 70
     1
102
RTVSPost2010Prop54
  1
strokes_ogs.tif
102
RTVSPost2010PropOp54
 70
     1
102
RTVSPost2010Prop55
280
     0
102
RTVSPost2010PropOp55
 70
     1
102
RTVSPost2010Prop56
140
1.0
102
RTVSPost2010PropOp56
 70
     1
102
RTVSPost2010Prop57
140
1.0
102
RTVSPost2010PropOp57
 70
     1
  0
XRECORD
  5
A3
102
{ACAD_REACTORS
330
A2
102
}
330
A2
100
AcDbXrecord
280
     1
102
RTVSPropertyOp0
 70
     1
102
RTVSPropertyOp1
 70
     1
102
RTVSPropertyOp2
 70
     1
102
RTVSPropertyOp3
 70
     1
102
RTVSPropertyOp4
 70
     1
102
RTVSPropertyOp5
 70
     1
102
RTVSPropertyOp6
 70
     1
102
RTVSPropertyOp7
 70
     1
102
RTVSPropertyOp8
 70
     1
102
RTVSPropertyOp9
 70
     1
102
RTVSPropertyOp10
 70
     1
102
RTVSPropertyOp11
 70
     1
102
RTVSPropertyOp12
 70
     1
102
RTVSPropertyOp13
 70
     1
102
RTVSPropertyOp14
 70
     1
102
RTVSPropertyOp15
 70
     1
102
RTVSPropertyOp16
 70
     1
102
RTVSPropertyOp17
 70
     1
102
RTVSPropertyOp18
 70
     1
102
RTVSPropertyOp19
 70
     1
102
RTVSPropertyOp20
 70
     1
102
RTVSPropertyOp21
 70
     1
102
RTVSPropertyOp22
 70
     1
102
RTVSPropertyOp23
 70
     1
102
RTVSPropertyOp24
 70
     1
102
RTVSPropertyOp25
 70
     1
102
RTVSPropertyOp26
 70
     1
102
RTVSPropertyOp27
 70
     1
102
RTVSPropertyOp28
 70
     1
102
RTVSPropertyOp29
 70
     1
102
RTVSPropertyOp30
 70
     1
102
RTVSPropertyOp31
 70
     1
102
RTVSPropertyOp32
 70
     1
102
RTVSPropertyOp33
 70
     1
102
RTVSPropertyOp34
 70
     1
102
RTVSPropertyOp35
 70
     1
102
RTVSPropertyOp36
 70
     1
102
RTVSPropertyOp37
 70
     1
102
RTVSPropertyOp38
 70
     1
102
RTVSPropertyOp39
 70
     1
102
RTVSPropertyOp40
 70
     1
102
RTVSPropertyOp41
 70
     1
102
RTVSPropertyOp42
 70
     1
102
RTVSPropertyOp43
 70
     1
102
RTVSPropertyOp44
 70
     1
102
RTVSPropertyOp45
 70
     1
102
RTVSPropertyOp46
 70
     1
102
RTVSPropertyOp47
 70
     1
102
RTVSPropertyOp48
 70
     1
102
RTVSPropertyOp49
 70
     1
102
RTVSPropertyOp50
 70
     1
102
RTVSPropertyOp51
 70
     0
102
RTVSPropertyOp52
 70
     0
102
RTVSPropertyOp53
 70
     1
102
RTVSPropertyOp54
 70
     1
102
RTVSPropertyOp55
 70
     1
102
RTVSPropertyOp56
 70
     1
102
RTVSPropertyOp57
 70
     1
102
RTVSPost2010Prop28
280
     0
102
RTVSPost2010PropOp28
 70
     1
102
RTVSPost2010Prop29
280
     1
102
RTVSPost2010PropOp29
 70
     1
102
RTVSPost2010Prop30
280
     1
102
RTVSPost2010PropOp30
 70
     1
102
RTVSPost2010Prop31
280
     0
102
RTVSPost2010PropOp31
 70
     1
102
RTVSPost2010Prop32
280
     0
102
RTVSPost2010PropOp32
 70
     1
102
RTVSPost2010Prop33
280
     0
102
RTVSPost2010PropOp33
 70
     1
102
RTVSPost2010Prop34
280
     0
102
RTVSPost2010PropOp34
 70
     1
102
RTVSPost2010Prop35
280
     0
102
RTVSPost2010PropOp35
 70
     1
102
RTVSPost2010Prop36
280
     0
102
RTVSPost2010PropOp36
 70
     1
102
RTVSPost2010Prop37
 90
       50
102
RTVSPost2010PropOp37
 70
     1
102
RTVSPost2010Prop38
140
0.0
102
RTVSPost2010PropOp38
 70
     1
102
RTVSPost2010Prop39
140
1.0
102
RTVSPost2010PropOp39
 70
     1
102
RTVSPost2010Prop40
 90
        0
102
RTVSPost2010PropOp40
 70
     1
102
RTVSPost2010Prop41ColorIndex
 90
       18
102
RTVSPost2010Prop41ColorRGB
 90
        0
102
RTVSPost2010PropOp41
 70
     1
102
RTVSPost2010Prop42
 90
       50
102
RTVSPost2010PropOp42
 70
     1
102
RTVSPost2010Prop43
 90
        3
102
RTVSPost2010PropOp43
 70
     1
102
RTVSPost2010Prop44ColorIndex
 90
        5
102
RTVSPost2010Prop44ColorRGB
 90
      255
102
RTVSPost2010PropOp44
 70
     1
102
RTVSPost2010Prop45
280
     0
102
RTVSPost2010PropOp45
 70
     1
102
RTVSPost2010Prop46
 90
       50
102
RTVSPost2010PropOp46
 70
     1
102
RTVSPost2010Prop47
 90
       50
102
RTVSPost2010PropOp47
 70
     1
102
RTVSPost2010Prop48
 90
       50
102
RTVSPost2010PropOp48
 70
     1
102
RTVSPost2010Prop49
280
     0
102
RTVSPost2010PropOp49
 70
     1
102
RTVSPost2010Prop50
 90
       50
102
RTVSPost2010PropOp50
 70
     1
102
RTVSPost2010Prop51ColorIndex
 90
      256
102
RTVSPost2010Prop51ColorRGB
 90
-16777216
102
RTVSPost2010PropOp51
 70
     0
102
RTVSPost2010Prop52
140
1.0
102
RTVSPost2010PropOp52
 70
     0
102
RTVSPost2010Prop53
 90
        2
102
RTVSPost2010PropOp53
 70
     1
102
RTVSPost2010Prop54
  1
strokes_ogs.tif
102
RTVSPost2010PropOp54
 70
     1
102
RTVSPost2010Prop55
280
     0
102
RTVSPost2010PropOp55
 70
     1
102
RTVSPost2010Prop56
140
1.0
102
RTVSPost2010PropOp56
 70
     1
102
RTVSPost2010Prop57
140
1.0
102
RTVSPost2010PropOp57
 70
     1
  0
XRECORD
  5
A5
102
{ACAD_REACTORS
330
A4
102
}
330
A4
100
AcDbXrecord
280
     1
102
RTVSPropertyOp0
 70
     1
102
RTVSPropertyOp1
 70
     1
102
RTVSPropertyOp2
 70
     1
102
RTVSPropertyOp3
 70
     1
102
RTVSPropertyOp4
 70
     1
102
RTVSPropertyOp5
 70
     1
102
RTVSPropertyOp6
 70
     1
102
RTVSPropertyOp7
 70
     1
102
RTVSPropertyOp8
 70
     1
102
RTVSPropertyOp9
 70
     1
102
RTVSPropertyOp10
 70
     1
102
RTVSPropertyOp11
 70
     1
102
RTVSPropertyOp12
 70
     1
102
RTVSPropertyOp13
 70
     1
102
RTVSPropertyOp14
 70
     1
102
RTVSPropertyOp15
 70
     1
102
RTVSPropertyOp16
 70
     1
102
RTVSPropertyOp17
 70
     1
102
RTVSPropertyOp18
 70
     1
102
RTVSPropertyOp19
 70
     1
102
RTVSPropertyOp20
 70
     1
102
RTVSPropertyOp21
 70
     1
102
RTVSPropertyOp22
 70
     1
102
RTVSPropertyOp23
 70
     1
102
RTVSPropertyOp24
 70
     1
102
RTVSPropertyOp25
 70
     1
102
RTVSPropertyOp26
 70
     1
102
RTVSPropertyOp27
 70
     1
102
RTVSPropertyOp28
 70
     1
102
RTVSPropertyOp29
 70
     1
102
RTVSPropertyOp30
 70
     1
102
RTVSPropertyOp31
 70
     1
102
RTVSPropertyOp32
 70
     1
102
RTVSPropertyOp33
 70
     1
102
RTVSPropertyOp34
 70
     1
102
RTVSPropertyOp35
 70
     1
102
RTVSPropertyOp36
 70
     1
102
RTVSPropertyOp37
 70
     1
102
RTVSPropertyOp38
 70
     1
102
RTVSPropertyOp39
 70
     1
102
RTVSPropertyOp40
 70
     1
102
RTVSPropertyOp41
 70
     1
102
RTVSPropertyOp42
 70
     1
102
RTVSPropertyOp43
 70
     1
102
RTVSPropertyOp44
 70
     1
102
RTVSPropertyOp45
 70
     1
102
RTVSPropertyOp46
 70
     1
102
RTVSPropertyOp47
 70
     1
102
RTVSPropertyOp48
 70
     1
102
RTVSPropertyOp49
 70
     1
102
RTVSPropertyOp50
 70
     1
102
RTVSPropertyOp51
 70
     0
102
RTVSPropertyOp52
 70
     0
102
RTVSPropertyOp53
 70
     1
102
RTVSPropertyOp54
 70
     1
102
RTVSPropertyOp55
 70
     1
102
RTVSPropertyOp56
 70
     1
102
RTVSPropertyOp57
 70
     1
102
RTVSPost2010Prop28
280
     0
102
RTVSPost2010PropOp28
 70
     1
102
RTVSPost2010Prop29
280
     1
102
RTVSPost2010PropOp29
 70
     1
102
RTVSPost2010Prop30
280
     1
102
RTVSPost2010PropOp30
 70
     1
102
RTVSPost2010Prop31
280
     0
102
RTVSPost2010PropOp31
 70
     1
102
RTVSPost2010Prop32
280
     0
102
RTVSPost2010PropOp32
 70
     1
102
RTVSPost2010Prop33
280
     0
102
RTVSPost2010PropOp33
 70
     1
102
RTVSPost2010Prop34
280
     0
102
RTVSPost2010PropOp34
 70
     1
102
RTVSPost2010Prop35
280
     0
102
RTVSPost2010PropOp35
 70
     1
102
RTVSPost2010Prop36
280
     0
102
RTVSPost2010PropOp36
 70
     1
102
RTVSPost2010Prop37
 90
       50
102
RTVSPost2010PropOp37
 70
     1
102
RTVSPost2010Prop38
140
0.0
102
RTVSPost2010PropOp38
 70
     1
102
RTVSPost2010Prop39
140
1.0
102
RTVSPost2010PropOp39
 70
     1
102
RTVSPost2010Prop40
 90
        0
102
RTVSPost2010PropOp40
 70
     1
102
RTVSPost2010Prop41ColorIndex
 90
       18
102
RTVSPost2010Prop41ColorRGB
 90
        0
102
RTVSPost2010PropOp41
 70
     1
102
RTVSPost2010Prop42
 90
       50
102
RTVSPost2010PropOp42
 70
     1
102
RTVSPost2010Prop43
 90
        3
102
RTVSPost2010PropOp43
 70
     1
102
RTVSPost2010Prop44ColorIndex
 90
        5
102
RTVSPost2010Prop44ColorRGB
 90
      255
102
RTVSPost2010PropOp44
 70
     1
102
RTVSPost2010Prop45
280
     0
102
RTVSPost2010PropOp45
 70
     1
102
RTVSPost2010Prop46
 90
       50
102
RTVSPost2010PropOp46
 70
     1
102
RTVSPost2010Prop47
 90
       50
102
RTVSPost2010PropOp47
 70
     1
102
RTVSPost2010Prop48
 90
       50
102
RTVSPost2010PropOp48
 70
     1
102
RTVSPost2010Prop49
280
     0
102
RTVSPost2010PropOp49
 70
     1
102
RTVSPost2010Prop50
 90
       50
102
RTVSPost2010PropOp50
 70
     1
102
RTVSPost2010Prop51ColorIndex
 90
      256
102
RTVSPost2010Prop51ColorRGB
 90
-16777216
102
RTVSPost2010PropOp51
 70
     0
102
RTVSPost2010Prop52
140
1.0
102
RTVSPost2010PropOp52
 70
     0
102
RTVSPost2010Prop53
 90
        2
102
RTVSPost2010PropOp53
 70
     1
102
RTVSPost2010Prop54
  1
strokes_ogs.tif
102
RTVSPost2010PropOp54
 70
     1
102
RTVSPost2010Prop55
280
     0
102
RTVSPost2010PropOp55
 70
     1
102
RTVSPost2010Prop56
140
1.0
102
RTVSPost2010PropOp56
 70
     1
102
RTVSPost2010Prop57
140
1.0
102
RTVSPost2010PropOp57
 70
     1
  0
XRECORD
  5
A7
102
{ACAD_REACTORS
330
A6
102
}
330
A6
100
AcDbXrecord
280
     1
102
RTVSPropertyOp0
 70
     1
102
RTVSPropertyOp1
 70
     1
102
RTVSPropertyOp2
 70
     1
102
RTVSPropertyOp3
 70
     1
102
RTVSPropertyOp4
 70
     1
102
RTVSPropertyOp5
 70
     1
102
RTVSPropertyOp6
 70
     1
102
RTVSPropertyOp7
 70
     1
102
RTVSPropertyOp8
 70
     1
102
RTVSPropertyOp9
 70
     1
102
RTVSPropertyOp10
 70
     1
102
RTVSPropertyOp11
 70
     1
102
RTVSPropertyOp12
 70
     1
102
RTVSPropertyOp13
 70
     1
102
RTVSPropertyOp14
 70
     1
102
RTVSPropertyOp15
 70
     1
102
RTVSPropertyOp16
 70
     1
102
RTVSPropertyOp17
 70
     1
102
RTVSPropertyOp18
 70
     1
102
RTVSPropertyOp19
 70
     1
102
RTVSPropertyOp20
 70
     1
102
RTVSPropertyOp21
 70
     1
102
RTVSPropertyOp22
 70
     1
102
RTVSPropertyOp23
 70
     1
102
RTVSPropertyOp24
 70
     1
102
RTVSPropertyOp25
 70
     1
102
RTVSPropertyOp26
 70
     1
102
RTVSPropertyOp27
 70
     1
102
RTVSPropertyOp28
 70
     1
102
RTVSPropertyOp29
 70
     1
102
RTVSPropertyOp30
 70
     1
102
RTVSPropertyOp31
 70
     1
102
RTVSPropertyOp32
 70
     1
102
RTVSPropertyOp33
 70
     1
102
RTVSPropertyOp34
 70
     1
102
RTVSPropertyOp35
 70
     1
102
RTVSPropertyOp36
 70
     1
102
RTVSPropertyOp37
 70
     1
102
RTVSPropertyOp38
 70
     1
102
RTVSPropertyOp39
 70
     1
102
RTVSPropertyOp40
 70
     1
102
RTVSPropertyOp41
 70
     1
102
RTVSPropertyOp42
 70
     1
102
RTVSPropertyOp43
 70
     1
102
RTVSPropertyOp44
 70
     1
102
RTVSPropertyOp45
 70
     1
102
RTVSPropertyOp46
 70
     1
102
RTVSPropertyOp47
 70
     1
102
RTVSPropertyOp48
 70
     1
102
RTVSPropertyOp49
 70
     1
102
RTVSPropertyOp50
 70
     1
102
RTVSPropertyOp51
 70
     0
102
RTVSPropertyOp52
 70
     0
102
RTVSPropertyOp53
 70
     1
102
RTVSPropertyOp54
 70
     1
102
RTVSPropertyOp55
 70
     1
102
RTVSPropertyOp56
 70
     1
102
RTVSPropertyOp57
 70
     1
102
RTVSPost2010Prop28
280
     0
102
RTVSPost2010PropOp28
 70
     1
102
RTVSPost2010Prop29
280
     1
102
RTVSPost2010PropOp29
 70
     1
102
RTVSPost2010Prop30
280
     1
102
RTVSPost2010PropOp30
 70
     1
102
RTVSPost2010Prop31
280
     0
102
RTVSPost2010PropOp31
 70
     1
102
RTVSPost2010Prop32
280
     0
102
RTVSPost2010PropOp32
 70
     1
102
RTVSPost2010Prop33
280
     0
102
RTVSPost2010PropOp33
 70
     1
102
RTVSPost2010Prop34
280
     0
102
RTVSPost2010PropOp34
 70
     1
102
RTVSPost2010Prop35
280
     0
102
RTVSPost2010PropOp35
 70
     1
102
RTVSPost2010Prop36
280
     0
102
RTVSPost2010PropOp36
 70
     1
102
RTVSPost2010Prop37
 90
       50
102
RTVSPost2010PropOp37
 70
     1
102
RTVSPost2010Prop38
140
0.0
102
RTVSPost2010PropOp38
 70
     1
102
RTVSPost2010Prop39
140
1.0
102
RTVSPost2010PropOp39
 70
     1
102
RTVSPost2010Prop40
 90
        0
102
RTVSPost2010PropOp40
 70
     1
102
RTVSPost2010Prop41ColorIndex
 90
       18
102
RTVSPost2010Prop41ColorRGB
 90
        0
102
RTVSPost2010PropOp41
 70
     1
102
RTVSPost2010Prop42
 90
       50
102
RTVSPost2010PropOp42
 70
     1
102
RTVSPost2010Prop43
 90
        3
102
RTVSPost2010PropOp43
 70
     1
102
RTVSPost2010Prop44ColorIndex
 90
        5
102
RTVSPost2010Prop44ColorRGB
 90
      255
102
RTVSPost2010PropOp44
 70
     1
102
RTVSPost2010Prop45
280
     0
102
RTVSPost2010PropOp45
 70
     1
102
RTVSPost2010Prop46
 90
       50
102
RTVSPost2010PropOp46
 70
     1
102
RTVSPost2010Prop47
 90
       50
102
RTVSPost2010PropOp47
 70
     1
102
RTVSPost2010Prop48
 90
       50
102
RTVSPost2010PropOp48
 70
     1
102
RTVSPost2010Prop49
280
     0
102
RTVSPost2010PropOp49
 70
     1
102
RTVSPost2010Prop50
 90
       50
102
RTVSPost2010PropOp50
 70
     1
102
RTVSPost2010Prop51ColorIndex
 90
      256
102
RTVSPost2010Prop51ColorRGB
 90
-16777216
102
RTVSPost2010PropOp51
 70
     0
102
RTVSPost2010Prop52
140
1.0
102
RTVSPost2010PropOp52
 70
     0
102
RTVSPost2010Prop53
 90
        2
102
RTVSPost2010PropOp53
 70
     1
102
RTVSPost2010Prop54
  1
strokes_ogs.tif
102
RTVSPost2010PropOp54
 70
     1
102
RTVSPost2010Prop55
280
     0
102
RTVSPost2010PropOp55
 70
     1
102
RTVSPost2010Prop56
140
1.0
102
RTVSPost2010PropOp56
 70
     1
102
RTVSPost2010Prop57
140
1.0
102
RTVSPost2010PropOp57
 70
     1
  0
XRECORD
  5
AD
102
{ACAD_REACTORS
330
AC
102
}
330
AC
100
AcDbXrecord
280
     1
102
RTVSPropertyOp0
 70
     1
102
RTVSPropertyOp1
 70
     1
102
RTVSPropertyOp2
 70
     1
102
RTVSPropertyOp3
 70
     1
102
RTVSPropertyOp4
 70
     1
102
RTVSPropertyOp5
 70
     1
102
RTVSPropertyOp6
 70
     1
102
RTVSPropertyOp7
 70
     1
102
RTVSPropertyOp8
 70
     1
102
RTVSPropertyOp9
 70
     1
102
RTVSPropertyOp10
 70
     1
102
RTVSPropertyOp11
 70
     1
102
RTVSPropertyOp12
 70
     1
102
RTVSPropertyOp13
 70
     1
102
RTVSPropertyOp14
 70
     1
102
RTVSPropertyOp15
 70
     1
102
RTVSPropertyOp16
 70
     1
102
RTVSPropertyOp17
 70
     1
102
RTVSPropertyOp18
 70
     1
102
RTVSPropertyOp19
 70
     1
102
RTVSPropertyOp20
 70
     1
102
RTVSPropertyOp21
 70
     1
102
RTVSPropertyOp22
 70
     1
102
RTVSPropertyOp23
 70
     1
102
RTVSPropertyOp24
 70
     1
102
RTVSPropertyOp25
 70
     1
102
RTVSPropertyOp26
 70
     1
102
RTVSPropertyOp27
 70
     1
102
RTVSPropertyOp28
 70
     1
102
RTVSPropertyOp29
 70
     1
102
RTVSPropertyOp30
 70
     1
102
RTVSPropertyOp31
 70
     1
102
RTVSPropertyOp32
 70
     1
102
RTVSPropertyOp33
 70
     1
102
RTVSPropertyOp34
 70
     1
102
RTVSPropertyOp35
 70
     1
102
RTVSPropertyOp36
 70
     1
102
RTVSPropertyOp37
 70
     1
102
RTVSPropertyOp38
 70
     1
102
RTVSPropertyOp39
 70
     1
102
RTVSPropertyOp40
 70
     1
102
RTVSPropertyOp41
 70
     1
102
RTVSPropertyOp42
 70
     1
102
RTVSPropertyOp43
 70
     1
102
RTVSPropertyOp44
 70
     1
102
RTVSPropertyOp45
 70
     1
102
RTVSPropertyOp46
 70
     1
102
RTVSPropertyOp47
 70
     1
102
RTVSPropertyOp48
 70
     1
102
RTVSPropertyOp49
 70
     1
102
RTVSPropertyOp50
 70
     1
102
RTVSPropertyOp51
 70
     0
102
RTVSPropertyOp52
 70
     0
102
RTVSPropertyOp53
 70
     1
102
RTVSPropertyOp54
 70
     1
102
RTVSPropertyOp55
 70
     1
102
RTVSPropertyOp56
 70
     1
102
RTVSPropertyOp57
 70
     1
102
RTVSPost2010Prop28
280
     0
102
RTVSPost2010PropOp28
 70
     1
102
RTVSPost2010Prop29
280
     1
102
RTVSPost2010PropOp29
 70
     1
102
RTVSPost2010Prop30
280
     1
102
RTVSPost2010PropOp30
 70
     1
102
RTVSPost2010Prop31
280
     0
102
RTVSPost2010PropOp31
 70
     1
102
RTVSPost2010Prop32
280
     0
102
RTVSPost2010PropOp32
 70
     1
102
RTVSPost2010Prop33
280
     0
102
RTVSPost2010PropOp33
 70
     1
102
RTVSPost2010Prop34
280
     0
102
RTVSPost2010PropOp34
 70
     1
102
RTVSPost2010Prop35
280
     0
102
RTVSPost2010PropOp35
 70
     1
102
RTVSPost2010Prop36
280
     0
102
RTVSPost2010PropOp36
 70
     1
102
RTVSPost2010Prop37
 90
       50
102
RTVSPost2010PropOp37
 70
     1
102
RTVSPost2010Prop38
140
0.0
102
RTVSPost2010PropOp38
 70
     1
102
RTVSPost2010Prop39
140
1.0
102
RTVSPost2010PropOp39
 70
     1
102
RTVSPost2010Prop40
 90
        0
102
RTVSPost2010PropOp40
 70
     1
102
RTVSPost2010Prop41ColorIndex
 90
       18
102
RTVSPost2010Prop41ColorRGB
 90
        0
102
RTVSPost2010PropOp41
 70
     1
102
RTVSPost2010Prop42
 90
       50
102
RTVSPost2010PropOp42
 70
     1
102
RTVSPost2010Prop43
 90
        3
102
RTVSPost2010PropOp43
 70
     1
102
RTVSPost2010Prop44ColorIndex
 90
        5
102
RTVSPost2010Prop44ColorRGB
 90
      255
102
RTVSPost2010PropOp44
 70
     1
102
RTVSPost2010Prop45
280
     0
102
RTVSPost2010PropOp45
 70
     1
102
RTVSPost2010Prop46
 90
       50
102
RTVSPost2010PropOp46
 70
     1
102
RTVSPost2010Prop47
 90
       50
102
RTVSPost2010PropOp47
 70
     1
102
RTVSPost2010Prop48
 90
       50
102
RTVSPost2010PropOp48
 70
     1
102
RTVSPost2010Prop49
280
     0
102
RTVSPost2010PropOp49
 70
     1
102
RTVSPost2010Prop50
 90
       50
102
RTVSPost2010PropOp50
 70
     1
102
RTVSPost2010Prop51ColorIndex
 90
      256
102
RTVSPost2010Prop51ColorRGB
 90
-16777216
102
RTVSPost2010PropOp51
 70
     0
102
RTVSPost2010Prop52
140
1.0
102
RTVSPost2010PropOp52
 70
     0
102
RTVSPost2010Prop53
 90
        2
102
RTVSPost2010PropOp53
 70
     1
102
RTVSPost2010Prop54
  1
strokes_ogs.tif
102
RTVSPost2010PropOp54
 70
     1
102
RTVSPost2010Prop55
280
     0
102
RTVSPost2010PropOp55
 70
     1
102
RTVSPost2010Prop56
140
1.0
102
RTVSPost2010PropOp56
 70
     1
102
RTVSPost2010Prop57
140
1.0
102
RTVSPost2010PropOp57
 70
     1
  0
XRECORD
  5
C1
102
{ACAD_REACTORS
330
C0
102
}
330
C0
100
AcDbXrecord
280
     1
102
RTVSPropertyOp0
 70
     0
102
RTVSPropertyOp1
 70
     0
102
RTVSPropertyOp2
 70
     0
102
RTVSPropertyOp3
 70
     0
102
RTVSPropertyOp4
 70
     0
102
RTVSPropertyOp5
 70
     0
102
RTVSPropertyOp6
 70
     0
102
RTVSPropertyOp7
 70
     0
102
RTVSPropertyOp8
 70
     0
102
RTVSPropertyOp9
 70
     0
102
RTVSPropertyOp10
 70
     0
102
RTVSPropertyOp11
 70
     0
102
RTVSPropertyOp12
 70
     0
102
RTVSPropertyOp13
 70
     0
102
RTVSPropertyOp14
 70
     2
102
RTVSPropertyOp15
 70
     0
102
RTVSPropertyOp16
 70
     0
102
RTVSPropertyOp17
 70
     0
102
RTVSPropertyOp18
 70
     0
102
RTVSPropertyOp19
 70
     0
102
RTVSPropertyOp20
 70
     0
102
RTVSPropertyOp21
 70
     0
102
RTVSPropertyOp22
 70
     0
102
RTVSPropertyOp23
 70
     0
102
RTVSPropertyOp24
 70
     0
102
RTVSPropertyOp25
 70
     0
102
RTVSPropertyOp26
 70
     0
102
RTVSPropertyOp27
 70
     0
102
RTVSPropertyOp28
 70
     0
102
RTVSPropertyOp29
 70
     0
102
RTVSPropertyOp30
 70
     0
102
RTVSPropertyOp31
 70
     0
102
RTVSPropertyOp32
 70
     0
102
RTVSPropertyOp33
 70
     0
102
RTVSPropertyOp34
 70
     0
102
RTVSPropertyOp35
 70
     0
102
RTVSPropertyOp36
 70
     0
102
RTVSPropertyOp37
 70
     0
102
RTVSPropertyOp38
 70
     0
102
RTVSPropertyOp39
 70
     0
102
RTVSPropertyOp40
 70
     0
102
RTVSPropertyOp41
 70
     0
102
RTVSPropertyOp42
 70
     0
102
RTVSPropertyOp43
 70
     0
102
RTVSPropertyOp44
 70
     0
102
RTVSPropertyOp45
 70
     0
102
RTVSPropertyOp46
 70
     0
102
RTVSPropertyOp47
 70
     0
102
RTVSPropertyOp48
 70
     0
102
RTVSPropertyOp49
 70
     0
102
RTVSPropertyOp50
 70
     0
102
RTVSPropertyOp51
 70
     0
102
RTVSPropertyOp52
 70
     0
102
RTVSPropertyOp53
 70
     0
102
RTVSPropertyOp54
 70
     0
102
RTVSPropertyOp55
 70
     0
102
RTVSPropertyOp56
 70
     0
102
RTVSPropertyOp57
 70
     0
102
RTVSPost2010Prop28
280
     0
102
RTVSPost2010PropOp28
 70
     0
102
RTVSPost2010Prop29
280
     1
102
RTVSPost2010PropOp29
 70
     0
102
RTVSPost2010Prop30
280
     1
102
RTVSPost2010PropOp30
 70
     0
102
RTVSPost2010Prop31
280
     0
102
RTVSPost2010PropOp31
 70
     0
102
RTVSPost2010Prop32
280
     0
102
RTVSPost2010PropOp32
 70
     0
102
RTVSPost2010Prop33
280
     0
102
RTVSPost2010PropOp33
 70
     0
102
RTVSPost2010Prop34
280
     0
102
RTVSPost2010PropOp34
 70
     0
102
RTVSPost2010Prop35
280
     0
102
RTVSPost2010PropOp35
 70
     0
102
RTVSPost2010Prop36
280
     0
102
RTVSPost2010PropOp36
 70
     0
102
RTVSPost2010Prop37
 90
       50
102
RTVSPost2010PropOp37
 70
     0
102
RTVSPost2010Prop38
140
0.0
102
RTVSPost2010PropOp38
 70
     0
102
RTVSPost2010Prop39
140
1.0
102
RTVSPost2010PropOp39
 70
     0
102
RTVSPost2010Prop40
 90
        0
102
RTVSPost2010PropOp40
 70
     0
102
RTVSPost2010Prop41ColorIndex
 90
       18
102
RTVSPost2010Prop41ColorRGB
 90
        0
102
RTVSPost2010PropOp41
 70
     0
102
RTVSPost2010Prop42
 90
       50
102
RTVSPost2010PropOp42
 70
     0
102
RTVSPost2010Prop43
 90
        3
102
RTVSPost2010PropOp43
 70
     0
102
RTVSPost2010Prop44ColorIndex
 90
        5
102
RTVSPost2010Prop44ColorRGB
 90
      255
102
RTVSPost2010PropOp44
 70
     0
102
RTVSPost2010Prop45
280
     0
102
RTVSPost2010PropOp45
 70
     0
102
RTVSPost2010Prop46
 90
       50
102
RTVSPost2010PropOp46
 70
     0
102
RTVSPost2010Prop47
 90
       50
102
RTVSPost2010PropOp47
 70
     0
102
RTVSPost2010Prop48
 90
       50
102
RTVSPost2010PropOp48
 70
     0
102
RTVSPost2010Prop49
280
     0
102
RTVSPost2010PropOp49
 70
     0
102
RTVSPost2010Prop50
 90
       50
102
RTVSPost2010PropOp50
 70
     0
102
RTVSPost2010Prop51ColorIndex
 90
      256
102
RTVSPost2010Prop51ColorRGB
 90
-16777216
102
RTVSPost2010PropOp51
 70
     0
102
RTVSPost2010Prop52
140
1.0
102
RTVSPost2010PropOp52
 70
     0
102
RTVSPost2010Prop53
 90
        2
102
RTVSPost2010PropOp53
 70
     0
102
RTVSPost2010Prop54
  1
strokes_ogs.tif
102
RTVSPost2010PropOp54
 70
     0
102
RTVSPost2010Prop55
280
     0
102
RTVSPost2010PropOp55
 70
     0
102
RTVSPost2010Prop56
140
1.0
102
RTVSPost2010PropOp56
 70
     0
102
RTVSPost2010Prop57
140
1.0
102
RTVSPost2010PropOp57
 70
     0
  0
XRECORD
  5
BB
102
{ACAD_REACTORS
330
BA
102
}
330
BA
100
AcDbXrecord
280
     1
102
RTVSPropertyOp0
 70
     1
102
RTVSPropertyOp1
 70
     1
102
RTVSPropertyOp2
 70
     1
102
RTVSPropertyOp3
 70
     1
102
RTVSPropertyOp4
 70
     1
102
RTVSPropertyOp5
 70
     1
102
RTVSPropertyOp6
 70
     1
102
RTVSPropertyOp7
 70
     1
102
RTVSPropertyOp8
 70
     1
102
RTVSPropertyOp9
 70
     1
102
RTVSPropertyOp10
 70
     1
102
RTVSPropertyOp11
 70
     1
102
RTVSPropertyOp12
 70
     1
102
RTVSPropertyOp13
 70
     1
102
RTVSPropertyOp14
 70
     1
102
RTVSPropertyOp15
 70
     1
102
RTVSPropertyOp16
 70
     1
102
RTVSPropertyOp17
 70
     1
102
RTVSPropertyOp18
 70
     1
102
RTVSPropertyOp19
 70
     1
102
RTVSPropertyOp20
 70
     1
102
RTVSPropertyOp21
 70
     1
102
RTVSPropertyOp22
 70
     1
102
RTVSPropertyOp23
 70
     1
102
RTVSPropertyOp24
 70
     1
102
RTVSPropertyOp25
 70
     1
102
RTVSPropertyOp26
 70
     1
102
RTVSPropertyOp27
 70
     1
102
RTVSPropertyOp28
 70
     1
102
RTVSPropertyOp29
 70
     1
102
RTVSPropertyOp30
 70
     1
102
RTVSPropertyOp31
 70
     1
102
RTVSPropertyOp32
 70
     1
102
RTVSPropertyOp33
 70
     1
102
RTVSPropertyOp34
 70
     1
102
RTVSPropertyOp35
 70
     1
102
RTVSPropertyOp36
 70
     1
102
RTVSPropertyOp37
 70
     1
102
RTVSPropertyOp38
 70
     1
102
RTVSPropertyOp39
 70
     1
102
RTVSPropertyOp40
 70
     1
102
RTVSPropertyOp41
 70
     1
102
RTVSPropertyOp42
 70
     1
102
RTVSPropertyOp43
 70
     1
102
RTVSPropertyOp44
 70
     1
102
RTVSPropertyOp45
 70
     1
102
RTVSPropertyOp46
 70
     1
102
RTVSPropertyOp47
 70
     1
102
RTVSPropertyOp48
 70
     1
102
RTVSPropertyOp49
 70
     1
102
RTVSPropertyOp50
 70
     1
102
RTVSPropertyOp51
 70
     0
102
RTVSPropertyOp52
 70
     0
102
RTVSPropertyOp53
 70
     1
102
RTVSPropertyOp54
 70
     1
102
RTVSPropertyOp55
 70
     1
102
RTVSPropertyOp56
 70
     1
102
RTVSPropertyOp57
 70
     1
102
RTVSPost2010Prop28
280
     0
102
RTVSPost2010PropOp28
 70
     1
102
RTVSPost2010Prop29
280
     1
102
RTVSPost2010PropOp29
 70
     1
102
RTVSPost2010Prop30
280
     1
102
RTVSPost2010PropOp30
 70
     1
102
RTVSPost2010Prop31
280
     0
102
RTVSPost2010PropOp31
 70
     1
102
RTVSPost2010Prop32
280
     0
102
RTVSPost2010PropOp32
 70
     1
102
RTVSPost2010Prop33
280
     0
102
RTVSPost2010PropOp33
 70
     1
102
RTVSPost2010Prop34
280
     0
102
RTVSPost2010PropOp34
 70
     1
102
RTVSPost2010Prop35
280
     0
102
RTVSPost2010PropOp35
 70
     1
102
RTVSPost2010Prop36
280
     0
102
RTVSPost2010PropOp36
 70
     1
102
RTVSPost2010Prop37
 90
       50
102
RTVSPost2010PropOp37
 70
     1
102
RTVSPost2010Prop38
140
0.0
102
RTVSPost2010PropOp38
 70
     1
102
RTVSPost2010Prop39
140
1.0
102
RTVSPost2010PropOp39
 70
     1
102
RTVSPost2010Prop40
 90
        0
102
RTVSPost2010PropOp40
 70
     1
102
RTVSPost2010Prop41ColorIndex
 90
       18
102
RTVSPost2010Prop41ColorRGB
 90
        0
102
RTVSPost2010PropOp41
 70
     1
102
RTVSPost2010Prop42
 90
       50
102
RTVSPost2010PropOp42
 70
     1
102
RTVSPost2010Prop43
 90
        3
102
RTVSPost2010PropOp43
 70
     1
102
RTVSPost2010Prop44ColorIndex
 90
        5
102
RTVSPost2010Prop44ColorRGB
 90
      255
102
RTVSPost2010PropOp44
 70
     1
102
RTVSPost2010Prop45
280
     0
102
RTVSPost2010PropOp45
 70
     1
102
RTVSPost2010Prop46
 90
       50
102
RTVSPost2010PropOp46
 70
     1
102
RTVSPost2010Prop47
 90
       50
102
RTVSPost2010PropOp47
 70
     1
102
RTVSPost2010Prop48
 90
       50
102
RTVSPost2010PropOp48
 70
     1
102
RTVSPost2010Prop49
280
     0
102
RTVSPost2010PropOp49
 70
     1
102
RTVSPost2010Prop50
 90
       50
102
RTVSPost2010PropOp50
 70
     1
102
RTVSPost2010Prop51ColorIndex
 90
      256
102
RTVSPost2010Prop51ColorRGB
 90
-16777216
102
RTVSPost2010PropOp51
 70
     0
102
RTVSPost2010Prop52
140
1.0
102
RTVSPost2010PropOp52
 70
     0
102
RTVSPost2010Prop53
 90
        2
102
RTVSPost2010PropOp53
 70
     1
102
RTVSPost2010Prop54
  1
strokes_ogs.tif
102
RTVSPost2010PropOp54
 70
     1
102
RTVSPost2010Prop55
280
     0
102
RTVSPost2010PropOp55
 70
     1
102
RTVSPost2010Prop56
140
1.0
102
RTVSPost2010PropOp56
 70
     1
102
RTVSPost2010Prop57
140
1.0
102
RTVSPost2010PropOp57
 70
     1
  0
XRECORD
  5
C3
102
{ACAD_REACTORS
330
C2
102
}
330
C2
100
AcDbXrecord
280
     1
102
RTVSPropertyOp0
 70
     0
102
RTVSPropertyOp1
 70
     0
102
RTVSPropertyOp2
 70
     0
102
RTVSPropertyOp3
 70
     0
102
RTVSPropertyOp4
 70
     0
102
RTVSPropertyOp5
 70
     0
102
RTVSPropertyOp6
 70
     0
102
RTVSPropertyOp7
 70
     0
102
RTVSPropertyOp8
 70
     0
102
RTVSPropertyOp9
 70
     0
102
RTVSPropertyOp10
 70
     0
102
RTVSPropertyOp11
 70
     0
102
RTVSPropertyOp12
 70
     0
102
RTVSPropertyOp13
 70
     0
102
RTVSPropertyOp14
 70
     2
102
RTVSPropertyOp15
 70
     0
102
RTVSPropertyOp16
 70
     0
102
RTVSPropertyOp17
 70
     0
102
RTVSPropertyOp18
 70
     0
102
RTVSPropertyOp19
 70
     0
102
RTVSPropertyOp20
 70
     0
102
RTVSPropertyOp21
 70
     0
102
RTVSPropertyOp22
 70
     0
102
RTVSPropertyOp23
 70
     0
102
RTVSPropertyOp24
 70
     0
102
RTVSPropertyOp25
 70
     0
102
RTVSPropertyOp26
 70
     0
102
RTVSPropertyOp27
 70
     0
102
RTVSPropertyOp28
 70
     0
102
RTVSPropertyOp29
 70
     0
102
RTVSPropertyOp30
 70
     0
102
RTVSPropertyOp31
 70
     0
102
RTVSPropertyOp32
 70
     0
102
RTVSPropertyOp33
 70
     0
102
RTVSPropertyOp34
 70
     0
102
RTVSPropertyOp35
 70
     0
102
RTVSPropertyOp36
 70
     0
102
RTVSPropertyOp37
 70
     0
102
RTVSPropertyOp38
 70
     0
102
RTVSPropertyOp39
 70
     0
102
RTVSPropertyOp40
 70
     0
102
RTVSPropertyOp41
 70
     0
102
RTVSPropertyOp42
 70
     0
102
RTVSPropertyOp43
 70
     0
102
RTVSPropertyOp44
 70
     0
102
RTVSPropertyOp45
 70
     0
102
RTVSPropertyOp46
 70
     0
102
RTVSPropertyOp47
 70
     0
102
RTVSPropertyOp48
 70
     0
102
RTVSPropertyOp49
 70
     0
102
RTVSPropertyOp50
 70
     0
102
RTVSPropertyOp51
 70
     0
102
RTVSPropertyOp52
 70
     0
102
RTVSPropertyOp53
 70
     0
102
RTVSPropertyOp54
 70
     0
102
RTVSPropertyOp55
 70
     0
102
RTVSPropertyOp56
 70
     0
102
RTVSPropertyOp57
 70
     0
102
RTVSPost2010Prop28
280
     0
102
RTVSPost2010PropOp28
 70
     0
102
RTVSPost2010Prop29
280
     1
102
RTVSPost2010PropOp29
 70
     0
102
RTVSPost2010Prop30
280
     1
102
RTVSPost2010PropOp30
 70
     0
102
RTVSPost2010Prop31
280
     0
102
RTVSPost2010PropOp31
 70
     0
102
RTVSPost2010Prop32
280
     0
102
RTVSPost2010PropOp32
 70
     0
102
RTVSPost2010Prop33
280
     0
102
RTVSPost2010PropOp33
 70
     0
102
RTVSPost2010Prop34
280
     0
102
RTVSPost2010PropOp34
 70
     0
102
RTVSPost2010Prop35
280
     0
102
RTVSPost2010PropOp35
 70
     0
102
RTVSPost2010Prop36
280
     0
102
RTVSPost2010PropOp36
 70
     0
102
RTVSPost2010Prop37
 90
       50
102
RTVSPost2010PropOp37
 70
     0
102
RTVSPost2010Prop38
140
0.0
102
RTVSPost2010PropOp38
 70
     0
102
RTVSPost2010Prop39
140
1.0
102
RTVSPost2010PropOp39
 70
     0
102
RTVSPost2010Prop40
 90
        0
102
RTVSPost2010PropOp40
 70
     0
102
RTVSPost2010Prop41ColorIndex
 90
       18
102
RTVSPost2010Prop41ColorRGB
 90
        0
102
RTVSPost2010PropOp41
 70
     0
102
RTVSPost2010Prop42
 90
       50
102
RTVSPost2010PropOp42
 70
     0
102
RTVSPost2010Prop43
 90
        3
102
RTVSPost2010PropOp43
 70
     0
102
RTVSPost2010Prop44ColorIndex
 90
        5
102
RTVSPost2010Prop44ColorRGB
 90
      255
102
RTVSPost2010PropOp44
 70
     0
102
RTVSPost2010Prop45
280
     0
102
RTVSPost2010PropOp45
 70
     0
102
RTVSPost2010Prop46
 90
       50
102
RTVSPost2010PropOp46
 70
     0
102
RTVSPost2010Prop47
 90
       50
102
RTVSPost2010PropOp47
 70
     0
102
RTVSPost2010Prop48
 90
       50
102
RTVSPost2010PropOp48
 70
     0
102
RTVSPost2010Prop49
280
     0
102
RTVSPost2010PropOp49
 70
     0
102
RTVSPost2010Prop50
 90
       50
102
RTVSPost2010PropOp50
 70
     0
102
RTVSPost2010Prop51ColorIndex
 90
      256
102
RTVSPost2010Prop51ColorRGB
 90
-16777216
102
RTVSPost2010PropOp51
 70
     0
102
RTVSPost2010Prop52
140
1.0
102
RTVSPost2010PropOp52
 70
     0
102
RTVSPost2010Prop53
 90
        2
102
RTVSPost2010PropOp53
 70
     0
102
RTVSPost2010Prop54
  1
strokes_ogs.tif
102
RTVSPost2010PropOp54
 70
     0
102
RTVSPost2010Prop55
280
     0
102
RTVSPost2010PropOp55
 70
     0
102
RTVSPost2010Prop56
140
1.0
102
RTVSPost2010PropOp56
 70
     0
102
RTVSPost2010Prop57
140
1.0
102
RTVSPost2010PropOp57
 70
     0
  0
XRECORD
  5
B1
102
{ACAD_REACTORS
330
B0
102
}
330
B0
100
AcDbXrecord
280
     1
102
RTVSPropertyOp0
 70
     1
102
RTVSPropertyOp1
 70
     1
102
RTVSPropertyOp2
 70
     1
102
RTVSPropertyOp3
 70
     1
102
RTVSPropertyOp4
 70
     1
102
RTVSPropertyOp5
 70
     1
102
RTVSPropertyOp6
 70
     1
102
RTVSPropertyOp7
 70
     1
102
RTVSPropertyOp8
 70
     1
102
RTVSPropertyOp9
 70
     1
102
RTVSPropertyOp10
 70
     1
102
RTVSPropertyOp11
 70
     1
102
RTVSPropertyOp12
 70
     1
102
RTVSPropertyOp13
 70
     1
102
RTVSPropertyOp14
 70
     1
102
RTVSPropertyOp15
 70
     1
102
RTVSPropertyOp16
 70
     1
102
RTVSPropertyOp17
 70
     1
102
RTVSPropertyOp18
 70
     1
102
RTVSPropertyOp19
 70
     1
102
RTVSPropertyOp20
 70
     1
102
RTVSPropertyOp21
 70
     1
102
RTVSPropertyOp22
 70
     1
102
RTVSPropertyOp23
 70
     1
102
RTVSPropertyOp24
 70
     1
102
RTVSPropertyOp25
 70
     1
102
RTVSPropertyOp26
 70
     1
102
RTVSPropertyOp27
 70
     1
102
RTVSPropertyOp28
 70
     1
102
RTVSPropertyOp29
 70
     1
102
RTVSPropertyOp30
 70
     1
102
RTVSPropertyOp31
 70
     1
102
RTVSPropertyOp32
 70
     1
102
RTVSPropertyOp33
 70
     1
102
RTVSPropertyOp34
 70
     1
102
RTVSPropertyOp35
 70
     1
102
RTVSPropertyOp36
 70
     1
102
RTVSPropertyOp37
 70
     1
102
RTVSPropertyOp38
 70
     1
102
RTVSPropertyOp39
 70
     1
102
RTVSPropertyOp40
 70
     1
102
RTVSPropertyOp41
 70
     1
102
RTVSPropertyOp42
 70
     1
102
RTVSPropertyOp43
 70
     1
102
RTVSPropertyOp44
 70
     1
102
RTVSPropertyOp45
 70
     1
102
RTVSPropertyOp46
 70
     1
102
RTVSPropertyOp47
 70
     1
102
RTVSPropertyOp48
 70
     1
102
RTVSPropertyOp49
 70
     1
102
RTVSPropertyOp50
 70
     1
102
RTVSPropertyOp51
 70
     0
102
RTVSPropertyOp52
 70
     0
102
RTVSPropertyOp53
 70
     1
102
RTVSPropertyOp54
 70
     1
102
RTVSPropertyOp55
 70
     1
102
RTVSPropertyOp56
 70
     1
102
RTVSPropertyOp57
 70
     1
102
RTVSPost2010Prop28
280
     0
102
RTVSPost2010PropOp28
 70
     1
102
RTVSPost2010Prop29
280
     1
102
RTVSPost2010PropOp29
 70
     1
102
RTVSPost2010Prop30
280
     1
102
RTVSPost2010PropOp30
 70
     1
102
RTVSPost2010Prop31
280
     0
102
RTVSPost2010PropOp31
 70
     1
102
RTVSPost2010Prop32
280
     0
102
RTVSPost2010PropOp32
 70
     1
102
RTVSPost2010Prop33
280
     0
102
RTVSPost2010PropOp33
 70
     1
102
RTVSPost2010Prop34
280
     0
102
RTVSPost2010PropOp34
 70
     1
102
RTVSPost2010Prop35
280
     0
102
RTVSPost2010PropOp35
 70
     1
102
RTVSPost2010Prop36
280
     0
102
RTVSPost2010PropOp36
 70
     1
102
RTVSPost2010Prop37
 90
       50
102
RTVSPost2010PropOp37
 70
     1
102
RTVSPost2010Prop38
140
0.0
102
RTVSPost2010PropOp38
 70
     1
102
RTVSPost2010Prop39
140
1.0
102
RTVSPost2010PropOp39
 70
     1
102
RTVSPost2010Prop40
 90
        0
102
RTVSPost2010PropOp40
 70
     1
102
RTVSPost2010Prop41ColorIndex
 90
       18
102
RTVSPost2010Prop41ColorRGB
 90
        0
102
RTVSPost2010PropOp41
 70
     1
102
RTVSPost2010Prop42
 90
       50
102
RTVSPost2010PropOp42
 70
     1
102
RTVSPost2010Prop43
 90
        3
102
RTVSPost2010PropOp43
 70
     1
102
RTVSPost2010Prop44ColorIndex
 90
        5
102
RTVSPost2010Prop44ColorRGB
 90
      255
102
RTVSPost2010PropOp44
 70
     1
102
RTVSPost2010Prop45
280
     0
102
RTVSPost2010PropOp45
 70
     1
102
RTVSPost2010Prop46
 90
       50
102
RTVSPost2010PropOp46
 70
     1
102
RTVSPost2010Prop47
 90
       50
102
RTVSPost2010PropOp47
 70
     1
102
RTVSPost2010Prop48
 90
       50
102
RTVSPost2010PropOp48
 70
     1
102
RTVSPost2010Prop49
280
     0
102
RTVSPost2010PropOp49
 70
     1
102
RTVSPost2010Prop50
 90
       50
102
RTVSPost2010PropOp50
 70
     1
102
RTVSPost2010Prop51ColorIndex
 90
      256
102
RTVSPost2010Prop51ColorRGB
 90
-16777216
102
RTVSPost2010PropOp51
 70
     0
102
RTVSPost2010Prop52
140
1.0
102
RTVSPost2010PropOp52
 70
     0
102
RTVSPost2010Prop53
 90
        2
102
RTVSPost2010PropOp53
 70
     1
102
RTVSPost2010Prop54
  1
strokes_ogs.tif
102
RTVSPost2010PropOp54
 70
     1
102
RTVSPost2010Prop55
280
     0
102
RTVSPost2010PropOp55
 70
     1
102
RTVSPost2010Prop56
140
1.0
102
RTVSPost2010PropOp56
 70
     1
102
RTVSPost2010Prop57
140
1.0
102
RTVSPost2010PropOp57
 70
     1
  0
XRECORD
  5
CF
102
{ACAD_REACTORS
330
CE
102
}
330
CE
100
AcDbXrecord
280
     1
102
RTVSPropertyOp0
 70
     1
102
RTVSPropertyOp1
 70
     1
102
RTVSPropertyOp2
 70
     1
102
RTVSPropertyOp3
 70
     1
102
RTVSPropertyOp4
 70
     1
102
RTVSPropertyOp5
 70
     1
102
RTVSPropertyOp6
 70
     1
102
RTVSPropertyOp7
 70
     1
102
RTVSPropertyOp8
 70
     1
102
RTVSPropertyOp9
 70
     1
102
RTVSPropertyOp10
 70
     1
102
RTVSPropertyOp11
 70
     1
102
RTVSPropertyOp12
 70
     1
102
RTVSPropertyOp13
 70
     1
102
RTVSPropertyOp14
 70
     1
102
RTVSPropertyOp15
 70
     1
102
RTVSPropertyOp16
 70
     1
102
RTVSPropertyOp17
 70
     1
102
RTVSPropertyOp18
 70
     1
102
RTVSPropertyOp19
 70
     1
102
RTVSPropertyOp20
 70
     1
102
RTVSPropertyOp21
 70
     1
102
RTVSPropertyOp22
 70
     1
102
RTVSPropertyOp23
 70
     1
102
RTVSPropertyOp24
 70
     1
102
RTVSPropertyOp25
 70
     1
102
RTVSPropertyOp26
 70
     1
102
RTVSPropertyOp27
 70
     1
102
RTVSPropertyOp28
 70
     1
102
RTVSPropertyOp29
 70
     1
102
RTVSPropertyOp30
 70
     1
102
RTVSPropertyOp31
 70
     1
102
RTVSPropertyOp32
 70
     1
102
RTVSPropertyOp33
 70
     1
102
RTVSPropertyOp34
 70
     1
102
RTVSPropertyOp35
 70
     1
102
RTVSPropertyOp36
 70
     1
102
RTVSPropertyOp37
 70
     1
102
RTVSPropertyOp38
 70
     1
102
RTVSPropertyOp39
 70
     1
102
RTVSPropertyOp40
 70
     1
102
RTVSPropertyOp41
 70
     1
102
RTVSPropertyOp42
 70
     1
102
RTVSPropertyOp43
 70
     1
102
RTVSPropertyOp44
 70
     1
102
RTVSPropertyOp45
 70
     1
102
RTVSPropertyOp46
 70
     1
102
RTVSPropertyOp47
 70
     1
102
RTVSPropertyOp48
 70
     1
102
RTVSPropertyOp49
 70
     1
102
RTVSPropertyOp50
 70
     1
102
RTVSPropertyOp51
 70
     0
102
RTVSPropertyOp52
 70
     0
102
RTVSPropertyOp53
 70
     1
102
RTVSPropertyOp54
 70
     1
102
RTVSPropertyOp55
 70
     1
102
RTVSPropertyOp56
 70
     1
102
RTVSPropertyOp57
 70
     1
102
RTVSPost2010Prop28
280
     0
102
RTVSPost2010PropOp28
 70
     1
102
RTVSPost2010Prop29
280
     1
102
RTVSPost2010PropOp29
 70
     1
102
RTVSPost2010Prop30
280
     1
102
RTVSPost2010PropOp30
 70
     1
102
RTVSPost2010Prop31
280
     0
102
RTVSPost2010PropOp31
 70
     1
102
RTVSPost2010Prop32
280
     0
102
RTVSPost2010PropOp32
 70
     1
102
RTVSPost2010Prop33
280
     0
102
RTVSPost2010PropOp33
 70
     1
102
RTVSPost2010Prop34
280
     0
102
RTVSPost2010PropOp34
 70
     1
102
RTVSPost2010Prop35
280
     0
102
RTVSPost2010PropOp35
 70
     1
102
RTVSPost2010Prop36
280
     0
102
RTVSPost2010PropOp36
 70
     1
102
RTVSPost2010Prop37
 90
       50
102
RTVSPost2010PropOp37
 70
     1
102
RTVSPost2010Prop38
140
0.0
102
RTVSPost2010PropOp38
 70
     1
102
RTVSPost2010Prop39
140
1.0
102
RTVSPost2010PropOp39
 70
     1
102
RTVSPost2010Prop40
 90
        0
102
RTVSPost2010PropOp40
 70
     1
102
RTVSPost2010Prop41ColorIndex
 90
       18
102
RTVSPost2010Prop41ColorRGB
 90
        0
102
RTVSPost2010PropOp41
 70
     1
102
RTVSPost2010Prop42
 90
       50
102
RTVSPost2010PropOp42
 70
     1
102
RTVSPost2010Prop43
 90
        3
102
RTVSPost2010PropOp43
 70
     1
102
RTVSPost2010Prop44ColorIndex
 90
        5
102
RTVSPost2010Prop44ColorRGB
 90
      255
102
RTVSPost2010PropOp44
 70
     1
102
RTVSPost2010Prop45
280
     0
102
RTVSPost2010PropOp45
 70
     1
102
RTVSPost2010Prop46
 90
       50
102
RTVSPost2010PropOp46
 70
     1
102
RTVSPost2010Prop47
 90
       50
102
RTVSPost2010PropOp47
 70
     1
102
RTVSPost2010Prop48
 90
       50
102
RTVSPost2010PropOp48
 70
     1
102
RTVSPost2010Prop49
280
     0
102
RTVSPost2010PropOp49
 70
     1
102
RTVSPost2010Prop50
 90
       50
102
RTVSPost2010PropOp50
 70
     1
102
RTVSPost2010Prop51ColorIndex
 90
      256
102
RTVSPost2010Prop51ColorRGB
 90
-16777216
102
RTVSPost2010PropOp51
 70
     0
102
RTVSPost2010Prop52
140
1.0
102
RTVSPost2010PropOp52
 70
     0
102
RTVSPost2010Prop53
 90
        2
102
RTVSPost2010PropOp53
 70
     1
102
RTVSPost2010Prop54
  1
strokes_ogs.tif
102
RTVSPost2010PropOp54
 70
     1
102
RTVSPost2010Prop55
280
     0
102
RTVSPost2010PropOp55
 70
     1
102
RTVSPost2010Prop56
140
1.0
102
RTVSPost2010PropOp56
 70
     1
102
RTVSPost2010Prop57
140
1.0
102
RTVSPost2010PropOp57
 70
     1
  0
XRECORD
  5
CD
102
{ACAD_REACTORS
330
CC
102
}
330
CC
100
AcDbXrecord
280
     1
102
RTVSPropertyOp0
 70
     1
102
RTVSPropertyOp1
 70
     1
102
RTVSPropertyOp2
 70
     1
102
RTVSPropertyOp3
 70
     1
102
RTVSPropertyOp4
 70
     1
102
RTVSPropertyOp5
 70
     1
102
RTVSPropertyOp6
 70
     1
102
RTVSPropertyOp7
 70
     1
102
RTVSPropertyOp8
 70
     1
102
RTVSPropertyOp9
 70
     1
102
RTVSPropertyOp10
 70
     1
102
RTVSPropertyOp11
 70
     1
102
RTVSPropertyOp12
 70
     1
102
RTVSPropertyOp13
 70
     1
102
RTVSPropertyOp14
 70
     1
102
RTVSPropertyOp15
 70
     1
102
RTVSPropertyOp16
 70
     1
102
RTVSPropertyOp17
 70
     1
102
RTVSPropertyOp18
 70
     1
102
RTVSPropertyOp19
 70
     1
102
RTVSPropertyOp20
 70
     1
102
RTVSPropertyOp21
 70
     1
102
RTVSPropertyOp22
 70
     1
102
RTVSPropertyOp23
 70
     1
102
RTVSPropertyOp24
 70
     1
102
RTVSPropertyOp25
 70
     1
102
RTVSPropertyOp26
 70
     1
102
RTVSPropertyOp27
 70
     1
102
RTVSPropertyOp28
 70
     1
102
RTVSPropertyOp29
 70
     1
102
RTVSPropertyOp30
 70
     1
102
RTVSPropertyOp31
 70
     1
102
RTVSPropertyOp32
 70
     1
102
RTVSPropertyOp33
 70
     1
102
RTVSPropertyOp34
 70
     1
102
RTVSPropertyOp35
 70
     1
102
RTVSPropertyOp36
 70
     1
102
RTVSPropertyOp37
 70
     1
102
RTVSPropertyOp38
 70
     1
102
RTVSPropertyOp39
 70
     1
102
RTVSPropertyOp40
 70
     1
102
RTVSPropertyOp41
 70
     1
102
RTVSPropertyOp42
 70
     1
102
RTVSPropertyOp43
 70
     1
102
RTVSPropertyOp44
 70
     1
102
RTVSPropertyOp45
 70
     1
102
RTVSPropertyOp46
 70
     1
102
RTVSPropertyOp47
 70
     1
102
RTVSPropertyOp48
 70
     1
102
RTVSPropertyOp49
 70
     1
102
RTVSPropertyOp50
 70
     1
102
RTVSPropertyOp51
 70
     0
102
RTVSPropertyOp52
 70
     0
102
RTVSPropertyOp53
 70
     1
102
RTVSPropertyOp54
 70
     1
102
RTVSPropertyOp55
 70
     1
102
RTVSPropertyOp56
 70
     1
102
RTVSPropertyOp57
 70
     1
102
RTVSPost2010Prop28
280
     0
102
RTVSPost2010PropOp28
 70
     1
102
RTVSPost2010Prop29
280
     1
102
RTVSPost2010PropOp29
 70
     1
102
RTVSPost2010Prop30
280
     1
102
RTVSPost2010PropOp30
 70
     1
102
RTVSPost2010Prop31
280
     0
102
RTVSPost2010PropOp31
 70
     1
102
RTVSPost2010Prop32
280
     0
102
RTVSPost2010PropOp32
 70
     1
102
RTVSPost2010Prop33
280
     0
102
RTVSPost2010PropOp33
 70
     1
102
RTVSPost2010Prop34
280
     0
102
RTVSPost2010PropOp34
 70
     1
102
RTVSPost2010Prop35
280
     0
102
RTVSPost2010PropOp35
 70
     1
102
RTVSPost2010Prop36
280
     0
102
RTVSPost2010PropOp36
 70
     1
102
RTVSPost2010Prop37
 90
       50
102
RTVSPost2010PropOp37
 70
     1
102
RTVSPost2010Prop38
140
0.0
102
RTVSPost2010PropOp38
 70
     1
102
RTVSPost2010Prop39
140
1.0
102
RTVSPost2010PropOp39
 70
     1
102
RTVSPost2010Prop40
 90
        0
102
RTVSPost2010PropOp40
 70
     1
102
RTVSPost2010Prop41ColorIndex
 90
       18
102
RTVSPost2010Prop41ColorRGB
 90
        0
102
RTVSPost2010PropOp41
 70
     1
102
RTVSPost2010Prop42
 90
       50
102
RTVSPost2010PropOp42
 70
     1
102
RTVSPost2010Prop43
 90
        3
102
RTVSPost2010PropOp43
 70
     1
102
RTVSPost2010Prop44ColorIndex
 90
        5
102
RTVSPost2010Prop44ColorRGB
 90
      255
102
RTVSPost2010PropOp44
 70
     1
102
RTVSPost2010Prop45
280
     0
102
RTVSPost2010PropOp45
 70
     1
102
RTVSPost2010Prop46
 90
       50
102
RTVSPost2010PropOp46
 70
     1
102
RTVSPost2010Prop47
 90
       50
102
RTVSPost2010PropOp47
 70
     1
102
RTVSPost2010Prop48
 90
       50
102
RTVSPost2010PropOp48
 70
     1
102
RTVSPost2010Prop49
280
     0
102
RTVSPost2010PropOp49
 70
     1
102
RTVSPost2010Prop50
 90
       50
102
RTVSPost2010PropOp50
 70
     1
102
RTVSPost2010Prop51ColorIndex
 90
      256
102
RTVSPost2010Prop51ColorRGB
 90
-16777216
102
RTVSPost2010PropOp51
 70
     0
102
RTVSPost2010Prop52
140
1.0
102
RTVSPost2010PropOp52
 70
     0
102
RTVSPost2010Prop53
 90
        2
102
RTVSPost2010PropOp53
 70
     1
102
RTVSPost2010Prop54
  1
strokes_ogs.tif
102
RTVSPost2010PropOp54
 70
     1
102
RTVSPost2010Prop55
280
     0
102
RTVSPost2010PropOp55
 70
     1
102
RTVSPost2010Prop56
140
1.0
102
RTVSPost2010PropOp56
 70
     1
102
RTVSPost2010Prop57
140
1.0
102
RTVSPost2010PropOp57
 70
     1
  0
XRECORD
  5
C7
102
{ACAD_REACTORS
330
C6
102
}
330
C6
100
AcDbXrecord
280
     1
102
RTVSPropertyOp0
 70
     1
102
RTVSPropertyOp1
 70
     1
102
RTVSPropertyOp2
 70
     1
102
RTVSPropertyOp3
 70
     1
102
RTVSPropertyOp4
 70
     1
102
RTVSPropertyOp5
 70
     1
102
RTVSPropertyOp6
 70
     1
102
RTVSPropertyOp7
 70
     1
102
RTVSPropertyOp8
 70
     1
102
RTVSPropertyOp9
 70
     1
102
RTVSPropertyOp10
 70
     1
102
RTVSPropertyOp11
 70
     1
102
RTVSPropertyOp12
 70
     1
102
RTVSPropertyOp13
 70
     1
102
RTVSPropertyOp14
 70
     1
102
RTVSPropertyOp15
 70
     1
102
RTVSPropertyOp16
 70
     1
102
RTVSPropertyOp17
 70
     1
102
RTVSPropertyOp18
 70
     1
102
RTVSPropertyOp19
 70
     1
102
RTVSPropertyOp20
 70
     1
102
RTVSPropertyOp21
 70
     1
102
RTVSPropertyOp22
 70
     1
102
RTVSPropertyOp23
 70
     1
102
RTVSPropertyOp24
 70
     1
102
RTVSPropertyOp25
 70
     1
102
RTVSPropertyOp26
 70
     1
102
RTVSPropertyOp27
 70
     1
102
RTVSPropertyOp28
 70
     1
102
RTVSPropertyOp29
 70
     1
102
RTVSPropertyOp30
 70
     1
102
RTVSPropertyOp31
 70
     1
102
RTVSPropertyOp32
 70
     1
102
RTVSPropertyOp33
 70
     1
102
RTVSPropertyOp34
 70
     1
102
RTVSPropertyOp35
 70
     1
102
RTVSPropertyOp36
 70
     1
102
RTVSPropertyOp37
 70
     1
102
RTVSPropertyOp38
 70
     1
102
RTVSPropertyOp39
 70
     1
102
RTVSPropertyOp40
 70
     1
102
RTVSPropertyOp41
 70
     1
102
RTVSPropertyOp42
 70
     1
102
RTVSPropertyOp43
 70
     1
102
RTVSPropertyOp44
 70
     1
102
RTVSPropertyOp45
 70
     1
102
RTVSPropertyOp46
 70
     1
102
RTVSPropertyOp47
 70
     1
102
RTVSPropertyOp48
 70
     1
102
RTVSPropertyOp49
 70
     1
102
RTVSPropertyOp50
 70
     1
102
RTVSPropertyOp51
 70
     0
102
RTVSPropertyOp52
 70
     0
102
RTVSPropertyOp53
 70
     1
102
RTVSPropertyOp54
 70
     1
102
RTVSPropertyOp55
 70
     1
102
RTVSPropertyOp56
 70
     1
102
RTVSPropertyOp57
 70
     1
102
RTVSPost2010Prop28
280
     0
102
RTVSPost2010PropOp28
 70
     1
102
RTVSPost2010Prop29
280
     1
102
RTVSPost2010PropOp29
 70
     1
102
RTVSPost2010Prop30
280
     1
102
RTVSPost2010PropOp30
 70
     1
102
RTVSPost2010Prop31
280
     0
102
RTVSPost2010PropOp31
 70
     1
102
RTVSPost2010Prop32
280
     0
102
RTVSPost2010PropOp32
 70
     1
102
RTVSPost2010Prop33
280
     0
102
RTVSPost2010PropOp33
 70
     1
102
RTVSPost2010Prop34
280
     0
102
RTVSPost2010PropOp34
 70
     1
102
RTVSPost2010Prop35
280
     0
102
RTVSPost2010PropOp35
 70
     1
102
RTVSPost2010Prop36
280
     0
102
RTVSPost2010PropOp36
 70
     1
102
RTVSPost2010Prop37
 90
       50
102
RTVSPost2010PropOp37
 70
     1
102
RTVSPost2010Prop38
140
0.0
102
RTVSPost2010PropOp38
 70
     1
102
RTVSPost2010Prop39
140
1.0
102
RTVSPost2010PropOp39
 70
     1
102
RTVSPost2010Prop40
 90
        0
102
RTVSPost2010PropOp40
 70
     1
102
RTVSPost2010Prop41ColorIndex
 90
       18
102
RTVSPost2010Prop41ColorRGB
 90
        0
102
RTVSPost2010PropOp41
 70
     1
102
RTVSPost2010Prop42
 90
       50
102
RTVSPost2010PropOp42
 70
     1
102
RTVSPost2010Prop43
 90
        3
102
RTVSPost2010PropOp43
 70
     1
102
RTVSPost2010Prop44ColorIndex
 90
        5
102
RTVSPost2010Prop44ColorRGB
 90
      255
102
RTVSPost2010PropOp44
 70
     1
102
RTVSPost2010Prop45
280
     0
102
RTVSPost2010PropOp45
 70
     1
102
RTVSPost2010Prop46
 90
       50
102
RTVSPost2010PropOp46
 70
     1
102
RTVSPost2010Prop47
 90
       50
102
RTVSPost2010PropOp47
 70
     1
102
RTVSPost2010Prop48
 90
       50
102
RTVSPost2010PropOp48
 70
     1
102
RTVSPost2010Prop49
280
     0
102
RTVSPost2010PropOp49
 70
     1
102
RTVSPost2010Prop50
 90
       50
102
RTVSPost2010PropOp50
 70
     1
102
RTVSPost2010Prop51ColorIndex
 90
      256
102
RTVSPost2010Prop51ColorRGB
 90
-16777216
102
RTVSPost2010PropOp51
 70
     0
102
RTVSPost2010Prop52
140
1.0
102
RTVSPost2010PropOp52
 70
     0
102
RTVSPost2010Prop53
 90
        2
102
RTVSPost2010PropOp53
 70
     1
102
RTVSPost2010Prop54
  1
strokes_ogs.tif
102
RTVSPost2010PropOp54
 70
     1
102
RTVSPost2010Prop55
280
     0
102
RTVSPost2010PropOp55
 70
     1
102
RTVSPost2010Prop56
140
1.0
102
RTVSPost2010PropOp56
 70
     1
102
RTVSPost2010Prop57
140
1.0
102
RTVSPost2010PropOp57
 70
     1
  0
XRECORD
  5
C9
102
{ACAD_REACTORS
330
C8
102
}
330
C8
100
AcDbXrecord
280
     1
102
RTVSPropertyOp0
 70
     1
102
RTVSPropertyOp1
 70
     1
102
RTVSPropertyOp2
 70
     1
102
RTVSPropertyOp3
 70
     1
102
RTVSPropertyOp4
 70
     1
102
RTVSPropertyOp5
 70
     1
102
RTVSPropertyOp6
 70
     1
102
RTVSPropertyOp7
 70
     1
102
RTVSPropertyOp8
 70
     1
102
RTVSPropertyOp9
 70
     1
102
RTVSPropertyOp10
 70
     1
102
RTVSPropertyOp11
 70
     1
102
RTVSPropertyOp12
 70
     1
102
RTVSPropertyOp13
 70
     1
102
RTVSPropertyOp14
 70
     1
102
RTVSPropertyOp15
 70
     1
102
RTVSPropertyOp16
 70
     1
102
RTVSPropertyOp17
 70
     1
102
RTVSPropertyOp18
 70
     1
102
RTVSPropertyOp19
 70
     1
102
RTVSPropertyOp20
 70
     1
102
RTVSPropertyOp21
 70
     1
102
RTVSPropertyOp22
 70
     1
102
RTVSPropertyOp23
 70
     1
102
RTVSPropertyOp24
 70
     1
102
RTVSPropertyOp25
 70
     1
102
RTVSPropertyOp26
 70
     1
102
RTVSPropertyOp27
 70
     1
102
RTVSPropertyOp28
 70
     1
102
RTVSPropertyOp29
 70
     1
102
RTVSPropertyOp30
 70
     1
102
RTVSPropertyOp31
 70
     1
102
RTVSPropertyOp32
 70
     1
102
RTVSPropertyOp33
 70
     1
102
RTVSPropertyOp34
 70
     1
102
RTVSPropertyOp35
 70
     1
102
RTVSPropertyOp36
 70
     1
102
RTVSPropertyOp37
 70
     1
102
RTVSPropertyOp38
 70
     1
102
RTVSPropertyOp39
 70
     1
102
RTVSPropertyOp40
 70
     1
102
RTVSPropertyOp41
 70
     1
102
RTVSPropertyOp42
 70
     1
102
RTVSPropertyOp43
 70
     1
102
RTVSPropertyOp44
 70
     1
102
RTVSPropertyOp45
 70
     1
102
RTVSPropertyOp46
 70
     1
102
RTVSPropertyOp47
 70
     1
102
RTVSPropertyOp48
 70
     1
102
RTVSPropertyOp49
 70
     1
102
RTVSPropertyOp50
 70
     1
102
RTVSPropertyOp51
 70
     0
102
RTVSPropertyOp52
 70
     0
102
RTVSPropertyOp53
 70
     1
102
RTVSPropertyOp54
 70
     1
102
RTVSPropertyOp55
 70
     1
102
RTVSPropertyOp56
 70
     1
102
RTVSPropertyOp57
 70
     1
102
RTVSPost2010Prop28
280
     0
102
RTVSPost2010PropOp28
 70
     1
102
RTVSPost2010Prop29
280
     1
102
RTVSPost2010PropOp29
 70
     1
102
RTVSPost2010Prop30
280
     1
102
RTVSPost2010PropOp30
 70
     1
102
RTVSPost2010Prop31
280
     0
102
RTVSPost2010PropOp31
 70
     1
102
RTVSPost2010Prop32
280
     0
102
RTVSPost2010PropOp32
 70
     1
102
RTVSPost2010Prop33
280
     0
102
RTVSPost2010PropOp33
 70
     1
102
RTVSPost2010Prop34
280
     0
102
RTVSPost2010PropOp34
 70
     1
102
RTVSPost2010Prop35
280
     0
102
RTVSPost2010PropOp35
 70
     1
102
RTVSPost2010Prop36
280
     0
102
RTVSPost2010PropOp36
 70
     1
102
RTVSPost2010Prop37
 90
       50
102
RTVSPost2010PropOp37
 70
     1
102
RTVSPost2010Prop38
140
0.0
102
RTVSPost2010PropOp38
 70
     1
102
RTVSPost2010Prop39
140
1.0
102
RTVSPost2010PropOp39
 70
     1
102
RTVSPost2010Prop40
 90
        0
102
RTVSPost2010PropOp40
 70
     1
102
RTVSPost2010Prop41ColorIndex
 90
       18
102
RTVSPost2010Prop41ColorRGB
 90
        0
102
RTVSPost2010PropOp41
 70
     1
102
RTVSPost2010Prop42
 90
       50
102
RTVSPost2010PropOp42
 70
     1
102
RTVSPost2010Prop43
 90
        3
102
RTVSPost2010PropOp43
 70
     1
102
RTVSPost2010Prop44ColorIndex
 90
        5
102
RTVSPost2010Prop44ColorRGB
 90
      255
102
RTVSPost2010PropOp44
 70
     1
102
RTVSPost2010Prop45
280
     0
102
RTVSPost2010PropOp45
 70
     1
102
RTVSPost2010Prop46
 90
       50
102
RTVSPost2010PropOp46
 70
     1
102
RTVSPost2010Prop47
 90
       50
102
RTVSPost2010PropOp47
 70
     1
102
RTVSPost2010Prop48
 90
       50
102
RTVSPost2010PropOp48
 70
     1
102
RTVSPost2010Prop49
280
     0
102
RTVSPost2010PropOp49
 70
     1
102
RTVSPost2010Prop50
 90
       50
102
RTVSPost2010PropOp50
 70
     1
102
RTVSPost2010Prop51ColorIndex
 90
      256
102
RTVSPost2010Prop51ColorRGB
 90
-16777216
102
RTVSPost2010PropOp51
 70
     0
102
RTVSPost2010Prop52
140
1.0
102
RTVSPost2010PropOp52
 70
     0
102
RTVSPost2010Prop53
 90
        2
102
RTVSPost2010PropOp53
 70
     1
102
RTVSPost2010Prop54
  1
strokes_ogs.tif
102
RTVSPost2010PropOp54
 70
     1
102
RTVSPost2010Prop55
280
     0
102
RTVSPost2010PropOp55
 70
     1
102
RTVSPost2010Prop56
140
1.0
102
RTVSPost2010PropOp56
 70
     1
102
RTVSPost2010Prop57
140
1.0
102
RTVSPost2010PropOp57
 70
     1
  0
XRECORD
  5
B9
102
{ACAD_REACTORS
330
B8
102
}
330
B8
100
AcDbXrecord
280
     1
102
RTVSPropertyOp0
 70
     1
102
RTVSPropertyOp1
 70
     1
102
RTVSPropertyOp2
 70
     1
102
RTVSPropertyOp3
 70
     1
102
RTVSPropertyOp4
 70
     1
102
RTVSPropertyOp5
 70
     1
102
RTVSPropertyOp6
 70
     1
102
RTVSPropertyOp7
 70
     1
102
RTVSPropertyOp8
 70
     1
102
RTVSPropertyOp9
 70
     1
102
RTVSPropertyOp10
 70
     1
102
RTVSPropertyOp11
 70
     1
102
RTVSPropertyOp12
 70
     1
102
RTVSPropertyOp13
 70
     1
102
RTVSPropertyOp14
 70
     1
102
RTVSPropertyOp15
 70
     1
102
RTVSPropertyOp16
 70
     1
102
RTVSPropertyOp17
 70
     1
102
RTVSPropertyOp18
 70
     1
102
RTVSPropertyOp19
 70
     1
102
RTVSPropertyOp20
 70
     1
102
RTVSPropertyOp21
 70
     1
102
RTVSPropertyOp22
 70
     1
102
RTVSPropertyOp23
 70
     1
102
RTVSPropertyOp24
 70
     1
102
RTVSPropertyOp25
 70
     1
102
RTVSPropertyOp26
 70
     1
102
RTVSPropertyOp27
 70
     1
102
RTVSPropertyOp28
 70
     1
102
RTVSPropertyOp29
 70
     1
102
RTVSPropertyOp30
 70
     1
102
RTVSPropertyOp31
 70
     1
102
RTVSPropertyOp32
 70
     1
102
RTVSPropertyOp33
 70
     1
102
RTVSPropertyOp34
 70
     1
102
RTVSPropertyOp35
 70
     1
102
RTVSPropertyOp36
 70
     1
102
RTVSPropertyOp37
 70
     1
102
RTVSPropertyOp38
 70
     1
102
RTVSPropertyOp39
 70
     1
102
RTVSPropertyOp40
 70
     1
102
RTVSPropertyOp41
 70
     1
102
RTVSPropertyOp42
 70
     1
102
RTVSPropertyOp43
 70
     1
102
RTVSPropertyOp44
 70
     1
102
RTVSPropertyOp45
 70
     1
102
RTVSPropertyOp46
 70
     1
102
RTVSPropertyOp47
 70
     1
102
RTVSPropertyOp48
 70
     1
102
RTVSPropertyOp49
 70
     1
102
RTVSPropertyOp50
 70
     1
102
RTVSPropertyOp51
 70
     0
102
RTVSPropertyOp52
 70
     0
102
RTVSPropertyOp53
 70
     1
102
RTVSPropertyOp54
 70
     1
102
RTVSPropertyOp55
 70
     1
102
RTVSPropertyOp56
 70
     1
102
RTVSPropertyOp57
 70
     1
102
RTVSPost2010Prop28
280
     0
102
RTVSPost2010PropOp28
 70
     1
102
RTVSPost2010Prop29
280
     1
102
RTVSPost2010PropOp29
 70
     1
102
RTVSPost2010Prop30
280
     1
102
RTVSPost2010PropOp30
 70
     1
102
RTVSPost2010Prop31
280
     0
102
RTVSPost2010PropOp31
 70
     1
102
RTVSPost2010Prop32
280
     0
102
RTVSPost2010PropOp32
 70
     1
102
RTVSPost2010Prop33
280
     0
102
RTVSPost2010PropOp33
 70
     1
102
RTVSPost2010Prop34
280
     0
102
RTVSPost2010PropOp34
 70
     1
102
RTVSPost2010Prop35
280
     0
102
RTVSPost2010PropOp35
 70
     1
102
RTVSPost2010Prop36
280
     0
102
RTVSPost2010PropOp36
 70
     1
102
RTVSPost2010Prop37
 90
       50
102
RTVSPost2010PropOp37
 70
     1
102
RTVSPost2010Prop38
140
0.0
102
RTVSPost2010PropOp38
 70
     1
102
RTVSPost2010Prop39
140
1.0
102
RTVSPost2010PropOp39
 70
     1
102
RTVSPost2010Prop40
 90
        0
102
RTVSPost2010PropOp40
 70
     1
102
RTVSPost2010Prop41ColorIndex
 90
       18
102
RTVSPost2010Prop41ColorRGB
 90
        0
102
RTVSPost2010PropOp41
 70
     1
102
RTVSPost2010Prop42
 90
       50
102
RTVSPost2010PropOp42
 70
     1
102
RTVSPost2010Prop43
 90
        3
102
RTVSPost2010PropOp43
 70
     1
102
RTVSPost2010Prop44ColorIndex
 90
        5
102
RTVSPost2010Prop44ColorRGB
 90
      255
102
RTVSPost2010PropOp44
 70
     1
102
RTVSPost2010Prop45
280
     0
102
RTVSPost2010PropOp45
 70
     1
102
RTVSPost2010Prop46
 90
       50
102
RTVSPost2010PropOp46
 70
     1
102
RTVSPost2010Prop47
 90
       50
102
RTVSPost2010PropOp47
 70
     1
102
RTVSPost2010Prop48
 90
       50
102
RTVSPost2010PropOp48
 70
     1
102
RTVSPost2010Prop49
280
     0
102
RTVSPost2010PropOp49
 70
     1
102
RTVSPost2010Prop50
 90
       50
102
RTVSPost2010PropOp50
 70
     1
102
RTVSPost2010Prop51ColorIndex
 90
      256
102
RTVSPost2010Prop51ColorRGB
 90
-16777216
102
RTVSPost2010PropOp51
 70
     0
102
RTVSPost2010Prop52
140
1.0
102
RTVSPost2010PropOp52
 70
     0
102
RTVSPost2010Prop53
 90
        2
102
RTVSPost2010PropOp53
 70
     1
102
RTVSPost2010Prop54
  1
strokes_ogs.tif
102
RTVSPost2010PropOp54
 70
     1
102
RTVSPost2010Prop55
280
     0
102
RTVSPost2010PropOp55
 70
     1
102
RTVSPost2010Prop56
140
1.0
102
RTVSPost2010PropOp56
 70
     1
102
RTVSPost2010Prop57
140
1.0
102
RTVSPost2010PropOp57
 70
     1
  0
XRECORD
  5
AB
102
{ACAD_REACTORS
330
AA
102
}
330
AA
100
AcDbXrecord
280
     1
102
RTVSPropertyOp0
 70
     1
102
RTVSPropertyOp1
 70
     1
102
RTVSPropertyOp2
 70
     1
102
RTVSPropertyOp3
 70
     1
102
RTVSPropertyOp4
 70
     1
102
RTVSPropertyOp5
 70
     1
102
RTVSPropertyOp6
 70
     1
102
RTVSPropertyOp7
 70
     1
102
RTVSPropertyOp8
 70
     1
102
RTVSPropertyOp9
 70
     1
102
RTVSPropertyOp10
 70
     1
102
RTVSPropertyOp11
 70
     1
102
RTVSPropertyOp12
 70
     1
102
RTVSPropertyOp13
 70
     1
102
RTVSPropertyOp14
 70
     1
102
RTVSPropertyOp15
 70
     1
102
RTVSPropertyOp16
 70
     1
102
RTVSPropertyOp17
 70
     1
102
RTVSPropertyOp18
 70
     1
102
RTVSPropertyOp19
 70
     1
102
RTVSPropertyOp20
 70
     1
102
RTVSPropertyOp21
 70
     1
102
RTVSPropertyOp22
 70
     1
102
RTVSPropertyOp23
 70
     1
102
RTVSPropertyOp24
 70
     1
102
RTVSPropertyOp25
 70
     1
102
RTVSPropertyOp26
 70
     1
102
RTVSPropertyOp27
 70
     1
102
RTVSPropertyOp28
 70
     1
102
RTVSPropertyOp29
 70
     1
102
RTVSPropertyOp30
 70
     1
102
RTVSPropertyOp31
 70
     1
102
RTVSPropertyOp32
 70
     1
102
RTVSPropertyOp33
 70
     1
102
RTVSPropertyOp34
 70
     1
102
RTVSPropertyOp35
 70
     1
102
RTVSPropertyOp36
 70
     1
102
RTVSPropertyOp37
 70
     1
102
RTVSPropertyOp38
 70
     1
102
RTVSPropertyOp39
 70
     1
102
RTVSPropertyOp40
 70
     1
102
RTVSPropertyOp41
 70
     1
102
RTVSPropertyOp42
 70
     1
102
RTVSPropertyOp43
 70
     1
102
RTVSPropertyOp44
 70
     1
102
RTVSPropertyOp45
 70
     1
102
RTVSPropertyOp46
 70
     1
102
RTVSPropertyOp47
 70
     1
102
RTVSPropertyOp48
 70
     1
102
RTVSPropertyOp49
 70
     1
102
RTVSPropertyOp50
 70
     1
102
RTVSPropertyOp51
 70
     0
102
RTVSPropertyOp52
 70
     0
102
RTVSPropertyOp53
 70
     1
102
RTVSPropertyOp54
 70
     1
102
RTVSPropertyOp55
 70
     1
102
RTVSPropertyOp56
 70
     1
102
RTVSPropertyOp57
 70
     1
102
RTVSPost2010Prop28
280
     0
102
RTVSPost2010PropOp28
 70
     1
102
RTVSPost2010Prop29
280
     1
102
RTVSPost2010PropOp29
 70
     1
102
RTVSPost2010Prop30
280
     1
102
RTVSPost2010PropOp30
 70
     1
102
RTVSPost2010Prop31
280
     0
102
RTVSPost2010PropOp31
 70
     1
102
RTVSPost2010Prop32
280
     0
102
RTVSPost2010PropOp32
 70
     1
102
RTVSPost2010Prop33
280
     0
102
RTVSPost2010PropOp33
 70
     1
102
RTVSPost2010Prop34
280
     0
102
RTVSPost2010PropOp34
 70
     1
102
RTVSPost2010Prop35
280
     0
102
RTVSPost2010PropOp35
 70
     1
102
RTVSPost2010Prop36
280
     0
102
RTVSPost2010PropOp36
 70
     1
102
RTVSPost2010Prop37
 90
       50
102
RTVSPost2010PropOp37
 70
     1
102
RTVSPost2010Prop38
140
0.0
102
RTVSPost2010PropOp38
 70
     1
102
RTVSPost2010Prop39
140
1.0
102
RTVSPost2010PropOp39
 70
     1
102
RTVSPost2010Prop40
 90
        0
102
RTVSPost2010PropOp40
 70
     1
102
RTVSPost2010Prop41ColorIndex
 90
       18
102
RTVSPost2010Prop41ColorRGB
 90
        0
102
RTVSPost2010PropOp41
 70
     1
102
RTVSPost2010Prop42
 90
       50
102
RTVSPost2010PropOp42
 70
     1
102
RTVSPost2010Prop43
 90
        3
102
RTVSPost2010PropOp43
 70
     1
102
RTVSPost2010Prop44ColorIndex
 90
        5
102
RTVSPost2010Prop44ColorRGB
 90
      255
102
RTVSPost2010PropOp44
 70
     1
102
RTVSPost2010Prop45
280
     0
102
RTVSPost2010PropOp45
 70
     1
102
RTVSPost2010Prop46
 90
       50
102
RTVSPost2010PropOp46
 70
     1
102
RTVSPost2010Prop47
 90
       50
102
RTVSPost2010PropOp47
 70
     1
102
RTVSPost2010Prop48
 90
       50
102
RTVSPost2010PropOp48
 70
     1
102
RTVSPost2010Prop49
280
     0
102
RTVSPost2010PropOp49
 70
     1
102
RTVSPost2010Prop50
 90
       50
102
RTVSPost2010PropOp50
 70
     1
102
RTVSPost2010Prop51ColorIndex
 90
      256
102
RTVSPost2010Prop51ColorRGB
 90
-16777216
102
RTVSPost2010PropOp51
 70
     0
102
RTVSPost2010Prop52
140
1.0
102
RTVSPost2010PropOp52
 70
     0
102
RTVSPost2010Prop53
 90
        2
102
RTVSPost2010PropOp53
 70
     1
102
RTVSPost2010Prop54
  1
strokes_ogs.tif
102
RTVSPost2010PropOp54
 70
     1
102
RTVSPost2010Prop55
280
     0
102
RTVSPost2010PropOp55
 70
     1
102
RTVSPost2010Prop56
140
1.0
102
RTVSPost2010PropOp56
 70
     1
102
RTVSPost2010Prop57
140
1.0
102
RTVSPost2010PropOp57
 70
     1
  0
XRECORD
  5
CB
102
{ACAD_REACTORS
330
CA
102
}
330
CA
100
AcDbXrecord
280
     1
102
RTVSPropertyOp0
 70
     1
102
RTVSPropertyOp1
 70
     1
102
RTVSPropertyOp2
 70
     1
102
RTVSPropertyOp3
 70
     1
102
RTVSPropertyOp4
 70
     1
102
RTVSPropertyOp5
 70
     1
102
RTVSPropertyOp6
 70
     1
102
RTVSPropertyOp7
 70
     1
102
RTVSPropertyOp8
 70
     1
102
RTVSPropertyOp9
 70
     1
102
RTVSPropertyOp10
 70
     1
102
RTVSPropertyOp11
 70
     1
102
RTVSPropertyOp12
 70
     1
102
RTVSPropertyOp13
 70
     1
102
RTVSPropertyOp14
 70
     1
102
RTVSPropertyOp15
 70
     1
102
RTVSPropertyOp16
 70
     1
102
RTVSPropertyOp17
 70
     1
102
RTVSPropertyOp18
 70
     1
102
RTVSPropertyOp19
 70
     1
102
RTVSPropertyOp20
 70
     1
102
RTVSPropertyOp21
 70
     1
102
RTVSPropertyOp22
 70
     1
102
RTVSPropertyOp23
 70
     1
102
RTVSPropertyOp24
 70
     1
102
RTVSPropertyOp25
 70
     1
102
RTVSPropertyOp26
 70
     1
102
RTVSPropertyOp27
 70
     1
102
RTVSPropertyOp28
 70
     1
102
RTVSPropertyOp29
 70
     1
102
RTVSPropertyOp30
 70
     1
102
RTVSPropertyOp31
 70
     1
102
RTVSPropertyOp32
 70
     1
102
RTVSPropertyOp33
 70
     1
102
RTVSPropertyOp34
 70
     1
102
RTVSPropertyOp35
 70
     1
102
RTVSPropertyOp36
 70
     1
102
RTVSPropertyOp37
 70
     1
102
RTVSPropertyOp38
 70
     1
102
RTVSPropertyOp39
 70
     1
102
RTVSPropertyOp40
 70
     1
102
RTVSPropertyOp41
 70
     1
102
RTVSPropertyOp42
 70
     1
102
RTVSPropertyOp43
 70
     1
102
RTVSPropertyOp44
 70
     1
102
RTVSPropertyOp45
 70
     1
102
RTVSPropertyOp46
 70
     1
102
RTVSPropertyOp47
 70
     1
102
RTVSPropertyOp48
 70
     1
102
RTVSPropertyOp49
 70
     1
102
RTVSPropertyOp50
 70
     1
102
RTVSPropertyOp51
 70
     0
102
RTVSPropertyOp52
 70
     0
102
RTVSPropertyOp53
 70
     1
102
RTVSPropertyOp54
 70
     1
102
RTVSPropertyOp55
 70
     1
102
RTVSPropertyOp56
 70
     1
102
RTVSPropertyOp57
 70
     1
102
RTVSPost2010Prop28
280
     0
102
RTVSPost2010PropOp28
 70
     1
102
RTVSPost2010Prop29
280
     1
102
RTVSPost2010PropOp29
 70
     1
102
RTVSPost2010Prop30
280
     1
102
RTVSPost2010PropOp30
 70
     1
102
RTVSPost2010Prop31
280
     0
102
RTVSPost2010PropOp31
 70
     1
102
RTVSPost2010Prop32
280
     0
102
RTVSPost2010PropOp32
 70
     1
102
RTVSPost2010Prop33
280
     0
102
RTVSPost2010PropOp33
 70
     1
102
RTVSPost2010Prop34
280
     0
102
RTVSPost2010PropOp34
 70
     1
102
RTVSPost2010Prop35
280
     0
102
RTVSPost2010PropOp35
 70
     1
102
RTVSPost2010Prop36
280
     0
102
RTVSPost2010PropOp36
 70
     1
102
RTVSPost2010Prop37
 90
       50
102
RTVSPost2010PropOp37
 70
     1
102
RTVSPost2010Prop38
140
0.0
102
RTVSPost2010PropOp38
 70
     1
102
RTVSPost2010Prop39
140
1.0
102
RTVSPost2010PropOp39
 70
     1
102
RTVSPost2010Prop40
 90
        0
102
RTVSPost2010PropOp40
 70
     1
102
RTVSPost2010Prop41ColorIndex
 90
       18
102
RTVSPost2010Prop41ColorRGB
 90
        0
102
RTVSPost2010PropOp41
 70
     1
102
RTVSPost2010Prop42
 90
       50
102
RTVSPost2010PropOp42
 70
     1
102
RTVSPost2010Prop43
 90
        3
102
RTVSPost2010PropOp43
 70
     1
102
RTVSPost2010Prop44ColorIndex
 90
        5
102
RTVSPost2010Prop44ColorRGB
 90
      255
102
RTVSPost2010PropOp44
 70
     1
102
RTVSPost2010Prop45
280
     0
102
RTVSPost2010PropOp45
 70
     1
102
RTVSPost2010Prop46
 90
       50
102
RTVSPost2010PropOp46
 70
     1
102
RTVSPost2010Prop47
 90
       50
102
RTVSPost2010PropOp47
 70
     1
102
RTVSPost2010Prop48
 90
       50
102
RTVSPost2010PropOp48
 70
     1
102
RTVSPost2010Prop49
280
     0
102
RTVSPost2010PropOp49
 70
     1
102
RTVSPost2010Prop50
 90
       50
102
RTVSPost2010PropOp50
 70
     1
102
RTVSPost2010Prop51ColorIndex
 90
      256
102
RTVSPost2010Prop51ColorRGB
 90
-16777216
102
RTVSPost2010PropOp51
 70
     0
102
RTVSPost2010Prop52
140
1.0
102
RTVSPost2010PropOp52
 70
     0
102
RTVSPost2010Prop53
 90
        2
102
RTVSPost2010PropOp53
 70
     1
102
RTVSPost2010Prop54
  1
strokes_ogs.tif
102
RTVSPost2010PropOp54
 70
     1
102
RTVSPost2010Prop55
280
     0
102
RTVSPost2010PropOp55
 70
     1
102
RTVSPost2010Prop56
140
1.0
102
RTVSPost2010PropOp56
 70
     1
102
RTVSPost2010Prop57
140
1.0
102
RTVSPost2010PropOp57
 70
     1
  0
ENDSEC
  0
EOF
