  0
SECTION
  2
HEADER
  9
$ACADVER
  1
AC1021
  9
$ACADMAINTVER
 70
    25
  9
$DWGCODEPAGE
  3
ANSI_1256
  9
$INSBASE
 10
0.0
 20
0.0
 30
0.0
  9
$EXTMIN
 10
-45.07275
 20
-25.18489
 30
0.0
  9
$EXTMAX
 10
-33.78401
 20
-12.26982
 30
0.0
  9
$LIMMIN
 10
0.0
 20
0.0
  9
$LIMMAX
 10
12.0
 20
9.0
  9
$ORTHOMODE
 70
     0
  9
$REGENMODE
 70
     1
  9
$FILLMODE
 70
     1
  9
$QTEXTMODE
 70
     0
  9
$MIRRTEXT
 70
     1
  9
$LTSCALE
 40
1.0
  9
$ATTMODE
 70
     1
  9
$TEXTSIZE
 40
0.2
  9
$TRACEWID
 40
0.05
  9
$TEXTSTYLE
  7
Standard
  9
$CLAYER
  8
0
  9
$CELTYPE
  6
ByLayer
  9
$CECOLOR
 62
   256
  9
$CELTSCALE
 40
1.0
  9
$DISPSILH
 70
     0
  9
$DIMSCALE
 40
1.0
  9
$DIMASZ
 40
0.18
  9
$DIMEXO
 40
0.0625
  9
$DIMDLI
 40
0.38
  9
$DIMRND
 40
0.0
  9
$DIMDLE
 40
0.0
  9
$DIMEXE
 40
0.18
  9
$DIMTP
 40
0.0
  9
$DIMTM
 40
0.0
  9
$DIMTXT
 40
0.18
  9
$DIMCEN
 40
0.09
  9
$DIMTSZ
 40
0.0
  9
$DIMTOL
 70
     0
  9
$DIMLIM
 70
     0
  9
$DIMTIH
 70
     1
  9
$DIMTOH
 70
     1
  9
$DIMSE1
 70
     0
  9
$DIMSE2
 70
     0
  9
$DIMTAD
 70
     0
  9
$DIMZIN
 70
     0
  9
$DIMBLK
  1

  9
$DIMASO
 70
     1
  9
$DIMSHO
 70
     1
  9
$DIMPOST
  1

  9
$DIMAPOST
  1

  9
$DIMALT
 70
     0
  9
$DIMALTD
 70
     2
  9
$DIMALTF
 40
25.4
  9
$DIMLFAC
 40
1.0
  9
$DIMTOFL
 70
     0
  9
$DIMTVP
 40
0.0
  9
$DIMTIX
 70
     0
  9
$DIMSOXD
 70
     0
  9
$DIMSAH
 70
     0
  9
$DIMBLK1
  1

  9
$DIMBLK2
  1

  9
$DIMSTYLE
  2
Standard
  9
$DIMCLRD
 70
     0
  9
$DIMCLRE
 70
     0
  9
$DIMCLRT
 70
     0
  9
$DIMTFAC
 40
1.0
  9
$DIMGAP
 40
0.09
  9
$DIMJUST
 70
     0
  9
$DIMSD1
 70
     0
  9
$DIMSD2
 70
     0
  9
$DIMTOLJ
 70
     1
  9
$DIMTZIN
 70
     0
  9
$DIMALTZ
 70
     0
  9
$DIMALTTZ
 70
     0
  9
$DIMUPT
 70
     0
  9
$DIMDEC
 70
     4
  9
$DIMTDEC
 70
     4
  9
$DIMALTU
 70
     2
  9
$DIMALTTD
 70
     2
  9
$DIMTXSTY
  7
Standard
  9
$DIMAUNIT
 70
     0
  9
$DIMADEC
 70
     0
  9
$DIMALTRND
 40
0.0
  9
$DIMAZIN
 70
     0
  9
$DIMDSEP
 70
    46
  9
$DIMATFIT
 70
     3
  9
$DIMFRAC
 70
     0
  9
$DIMLDRBLK
  1

  9
$DIMLUNIT
 70
     2
  9
$DIMLWD
 70
    -2
  9
$DIMLWE
 70
    -2
  9
$DIMTMOVE
 70
     0
  9
$DIMFXL
 40
1.0
  9
$DIMFXLON
 70
     0
  9
$DIMJOGANG
 40
0.7853981633974483
  9
$DIMTFILL
 70
     0
  9
$DIMTFILLCLR
 70
     0
  9
$DIMARCSYM
 70
     0
  9
$DIMLTYPE
  6

  9
$DIMLTEX1
  6

  9
$DIMLTEX2
  6

  9
$LUNITS
 70
     2
  9
$LUPREC
 70
     4
  9
$SKETCHINC
 40
0.1
  9
$FILLETRAD
 40
0.5
  9
$AUNITS
 70
     0
  9
$AUPREC
 70
     0
  9
$MENU
  1
.
  9
$ELEVATION
 40
0.0
  9
$PELEVATION
 40
0.0
  9
$THICKNESS
 40
0.0
  9
$LIMCHECK
 70
     0
  9
$CHAMFERA
 40
0.0
  9
$CHAMFERB
 40
0.0
  9
$CHAMFERC
 40
0.0
  9
$CHAMFERD
 40
0.0
  9
$SKPOLY
 70
     0
  9
$TDCREATE
 40
2457728.943700579
  9
$TDUCREATE
 40
2457728.902033912
  9
$TDUPDATE
 40
2457728.943700683
  9
$TDUUPDATE
 40
2457728.902034016
  9
$TDINDWG
 40
0.0000000116
  9
$TDUSRTIMER
 40
0.0000000116
  9
$USRTIMER
 70
     1
  9
$ANGBASE
 50
0.0
  9
$ANGDIR
 70
     0
  9
$PDMODE
 70
     0
  9
$PDSIZE
 40
0.0
  9
$PLINEWID
 40
0.0
  9
$SPLFRAME
 70
     0
  9
$SPLINETYPE
 70
     6
  9
$SPLINESEGS
 70
     8
  9
$HANDSEED
  5
D1
  9
$SURFTAB1
 70
     6
  9
$SURFTAB2
 70
     6
  9
$SURFTYPE
 70
     6
  9
$SURFU
 70
     6
  9
$SURFV
 70
     6
  9
$UCSBASE
  2

  9
$UCSNAME
  2

  9
$UCSORG
 10
0.0
 20
0.0
 30
0.0
  9
$UCSXDIR
 10
1.0
 20
0.0
 30
0.0
  9
$UCSYDIR
 10
0.0
 20
1.0
 30
0.0
  9
$UCSORTHOREF
  2

  9
$UCSORTHOVIEW
 70
     0
  9
$UCSORGTOP
 10
0.0
 20
0.0
 30
0.0
  9
$UCSORGBOTTOM
 10
0.0
 20
0.0
 30
0.0
  9
$UCSORGLEFT
 10
0.0
 20
0.0
 30
0.0
  9
$UCSORGRIGHT
 10
0.0
 20
0.0
 30
0.0
  9
$UCSORGFRONT
 10
0.0
 20
0.0
 30
0.0
  9
$UCSORGBACK
 10
0.0
 20
0.0
 30
0.0
  9
$PUCSBASE
  2

  9
$PUCSNAME
  2

  9
$PUCSORG
 10
0.0
 20
0.0
 30
0.0
  9
$PUCSXDIR
 10
1.0
 20
0.0
 30
0.0
  9
$PUCSYDIR
 10
0.0
 20
1.0
 30
0.0
  9
$PUCSORTHOREF
  2

  9
$PUCSORTHOVIEW
 70
     0
  9
$PUCSORGTOP
 10
0.0
 20
0.0
 30
0.0
  9
$PUCSORGBOTTOM
 10
0.0
 20
0.0
 30
0.0
  9
$PUCSORGLEFT
 10
0.0
 20
0.0
 30
0.0
  9
$PUCSORGRIGHT
 10
0.0
 20
0.0
 30
0.0
  9
$PUCSORGFRONT
 10
0.0
 20
0.0
 30
0.0
  9
$PUCSORGBACK
 10
0.0
 20
0.0
 30
0.0
  9
$USERI1
 70
     0
  9
$USERI2
 70
     0
  9
$USERI3
 70
     0
  9
$USERI4
 70
     0
  9
$USERI5
 70
     0
  9
$USERR1
 40
0.0
  9
$USERR2
 40
0.0
  9
$USERR3
 40
0.0
  9
$USERR4
 40
0.0
  9
$USERR5
 40
0.0
  9
$WORLDVIEW
 70
     1
  9
$SHADEDGE
 70
     3
  9
$SHADEDIF
 70
    70
  9
$TILEMODE
 70
     1
  9
$MAXACTVP
 70
    64
  9
$PINSBASE
 10
0.0
 20
0.0
 30
0.0
  9
$PLIMCHECK
 70
     0
  9
$PEXTMIN
 10
1.000000000000000E+20
 20
1.000000000000000E+20
 30
1.000000000000000E+20
  9
$PEXTMAX
 10
-1.000000000000000E+20
 20
-1.000000000000000E+20
 30
-1.000000000000000E+20
  9
$PLIMMIN
 10
0.0
 20
0.0
  9
$PLIMMAX
 10
12.0
 20
9.0
  9
$UNITMODE
 70
     0
  9
$VISRETAIN
 70
     1
  9
$PLINEGEN
 70
     0
  9
$PSLTSCALE
 70
     1
  9
$TREEDEPTH
 70
  3020
  9
$CMLSTYLE
  2
Standard
  9
$CMLJUST
 70
     0
  9
$CMLSCALE
 40
1.0
  9
$PROXYGRAPHICS
 70
     1
  9
$MEASUREMENT
 70
     0
  9
$CELWEIGHT
370
    -1
  9
$ENDCAPS
280
     0
  9
$JOINSTYLE
280
     0
  9
$LWDISPLAY
290
     0
  9
$INSUNITS
 70
     5
  9
$HYPERLINKBASE
  1

  9
$STYLESHEET
  1

  9
$XEDIT
290
     1
  9
$CEPSNTYPE
380
     0
  9
$PSTYLEMODE
290
     1
  9
$FINGERPRINTGUID
  2
{0200DC66-0465-40A2-A436-7355A1EBA077}
  9
$VERSIONGUID
  2
{FAEB1C32-E019-11D5-929B-00C0DF256EC4}
  9
$EXTNAMES
290
     1
  9
$PSVPSCALE
 40
0.0
  9
$OLESTARTUP
290
     0
  9
$SORTENTS
280
   127
  9
$INDEXCTL
280
     0
  9
$HIDETEXT
280
     1
  9
$XCLIPFRAME
290
     0
  9
$HALOGAP
280
     0
  9
$OBSCOLOR
 70
   257
  9
$OBSLTYPE
280
     0
  9
$INTERSECTIONDISPLAY
280
     0
  9
$INTERSECTIONCOLOR
 70
   257
  9
$DIMASSOC
280
     2
  9
$PROJECTNAME
  1

  9
$CAMERADISPLAY
290
     0
  9
$LENSLENGTH
 40
50.0
  9
$CAMERAHEIGHT
 40
0.0
  9
$STEPSPERSEC
 40
2.0
  9
$STEPSIZE
 40
6.0
  9
$3DDWFPREC
 40
2.0
  9
$PSOLWIDTH
 40
0.25
  9
$PSOLHEIGHT
 40
4.0
  9
$LOFTANG1
 40
1.570796326794897
  9
$LOFTANG2
 40
1.570796326794897
  9
$LOFTMAG1
 40
0.0
  9
$LOFTMAG2
 40
0.0
  9
$LOFTPARAM
 70
     7
  9
$LOFTNORMALS
280
     1
  9
$LATITUDE
 40
37.795
  9
$LONGITUDE
 40
-122.394
  9
$NORTHDIRECTION
 40
0.0
  9
$TIMEZONE
 70
 -8000
  9
$LIGHTGLYPHDISPLAY
280
     1
  9
$TILEMODELIGHTSYNCH
280
     1
  9
$CMATERIAL
347
44
  9
$SOLIDHIST
280
     0
  9
$SHOWHIST
280
     1
  9
$DWFFRAME
280
     2
  9
$DGNFRAME
280
     2
  9
$REALWORLDSCALE
290
     1
  9
$INTERFERECOLOR
 62
   256
  9
$CSHADOW
280
     0
  9
$SHADOWPLANELOCATION
 40
0.0
  0
ENDSEC
  0
SECTION
  2
CLASSES
  0
CLASS
  1
ACDBDICTIONARYWDFLT
  2
AcDbDictionaryWithDefault
  3
ObjectDBX Classes
 90
        0
 91
        4
280
     0
281
     0
  0
CLASS
  1
VISUALSTYLE
  2
AcDbVisualStyle
  3
ObjectDBX Classes
 90
     4095
 91
        4
280
     0
281
     0
  0
CLASS
  1
MATERIAL
  2
AcDbMaterial
  3
ObjectDBX Classes
 90
     1153
 91
        4
280
     0
281
     0
  0
CLASS
  1
SCALE
  2
AcDbScale
  3
ObjectDBX Classes
 90
     1153
 91
        4
280
     0
281
     0
  0
CLASS
  1
TABLESTYLE
  2
AcDbTableStyle
  3
ObjectDBX Classes
 90
     4095
 91
        4
280
     0
281
     0
  0
CLASS
  1
MLEADERSTYLE
  2
AcDbMLeaderStyle
  3
ACDB_MLEADERSTYLE_CLASS
 90
     4095
 91
        4
280
     0
281
     0
  0
CLASS
  1
SUN
  2
AcDbSun
  3
SCENEOE
 90
     1153
 91
        4
280
     0
281
     0
  0
CLASS
  1
DICTIONARYVAR
  2
AcDbDictionaryVar
  3
ObjectDBX Classes
 90
        0
 91
        4
280
     0
281
     0
  0
CLASS
  1
CELLSTYLEMAP
  2
AcDbCellStyleMap
  3
ObjectDBX Classes
 90
     1152
 91
        4
280
     0
281
     0
  0
ENDSEC
  0
SECTION
  2
TABLES
  0
TABLE
  2
VPORT
  5
8
330
0
100
AcDbSymbolTable
 70
     1
  0
VPORT
  5
29
330
8
100
AcDbSymbolTableRecord
100
AcDbViewportTableRecord
  2
*Active
 70
     0
 10
0.0
 20
0.0
 11
1.0
 21
1.0
 12
10.42990654205607
 22
4.5
 13
0.0
 23
0.0
 14
0.5
 24
0.5
 15
0.5
 25
0.5
 16
0.0
 26
0.0
 36
1.0
 17
0.0
 27
0.0
 37
0.0
 40
9.0
 41
1.972972972850329
 42
50.0
 43
0.0
 44
0.0
 50
0.0
 51
0.0
 71
     0
 72
   100
 73
     1
 74
     3
 75
     0
 76
     0
 77
     0
 78
     0
281
     0
 65
     1
110
0.0
120
0.0
130
0.0
111
1.0
121
0.0
131
0.0
112
0.0
122
1.0
132
0.0
 79
     0
146
0.0
 60
     3
 61
     5
292
     1
282
     1
141
0.0
142
0.0
 63
   250
361
6D
  0
ENDTAB
  0
TABLE
  2
LTYPE
  5
5
330
0
100
AcDbSymbolTable
 70
     1
  0
LTYPE
  5
14
330
5
100
AcDbSymbolTableRecord
100
AcDbLinetypeTableRecord
  2
ByBlock
 70
     0
  3

 72
    65
 73
     0
 40
0.0
  0
LTYPE
  5
15
330
5
100
AcDbSymbolTableRecord
100
AcDbLinetypeTableRecord
  2
ByLayer
 70
     0
  3

 72
    65
 73
     0
 40
0.0
  0
LTYPE
  5
16
330
5
100
AcDbSymbolTableRecord
100
AcDbLinetypeTableRecord
  2
Continuous
 70
     0
  3
Solid line
 72
    65
 73
     0
 40
0.0
  0
ENDTAB
  0
TABLE
  2
LAYER
  5
2
330
0
100
AcDbSymbolTable
 70
     2
  0
LAYER
  5
10
330
2
100
AcDbSymbolTableRecord
100
AcDbLayerTableRecord
  2
0
 70
     0
 62
     7
  6
Continuous
370
    -3
390
F
347
46
  0
LAYER
  5
6F
330
2
100
AcDbSymbolTableRecord
100
AcDbLayerTableRecord
  2
Layer 1
 70
     0
 62
     7
  6
Continuous
370
    -3
390
F
347
46
  0
ENDTAB
  0
TABLE
  2
STYLE
  5
3
330
0
100
AcDbSymbolTable
 70
     1
  0
STYLE
  5
11
330
3
100
AcDbSymbolTableRecord
100
AcDbTextStyleTableRecord
  2
Standard
 70
     0
 40
0.0
 41
1.0
 50
0.0
 71
     0
 42
0.2
  3
txt
  4

  0
ENDTAB
  0
TABLE
  2
VIEW
  5
6
330
0
100
AcDbSymbolTable
 70
     0
  0
ENDTAB
  0
TABLE
  2
UCS
  5
7
330
0
100
AcDbSymbolTable
 70
     0
  0
ENDTAB
  0
TABLE
  2
APPID
  5
9
330
0
100
AcDbSymbolTable
 70
     3
  0
APPID
  5
12
330
9
100
AcDbSymbolTableRecord
100
AcDbRegAppTableRecord
  2
ACAD
 70
     0
  0
APPID
  5
6E
330
9
100
AcDbSymbolTableRecord
100
AcDbRegAppTableRecord
  2
ODA
 70
     0
  0
APPID
  5
C9
330
9
100
AcDbSymbolTableRecord
100
AcDbRegAppTableRecord
  2
ACAD_MLEADERVER
 70
     0
  0
ENDTAB
  0
TABLE
  2
DIMSTYLE
  5
A
330
0
100
AcDbSymbolTable
 70
     1
100
AcDbDimStyleTable
  0
DIMSTYLE
105
27
330
A
100
AcDbSymbolTableRecord
100
AcDbDimStyleTableRecord
  2
Standard
 70
     0
178
     0
340
11
  0
ENDTAB
  0
TABLE
  2
BLOCK_RECORD
  5
1
330
0
100
AcDbSymbolTable
 70
     1
  0
BLOCK_RECORD
  5
1F
330
1
100
AcDbSymbolTableRecord
100
AcDbBlockTableRecord
  2
*Model_Space
340
22
 70
     0
280
     1
281
     0
  0
BLOCK_RECORD
  5
1B
330
1
100
AcDbSymbolTableRecord
100
AcDbBlockTableRecord
  2
*Paper_Space
340
1E
 70
     0
280
     1
281
     0
  0
BLOCK_RECORD
  5
23
330
1
100
AcDbSymbolTableRecord
100
AcDbBlockTableRecord
  2
*Paper_Space0
340
26
 70
     0
280
     1
281
     0
  0
ENDTAB
  0
ENDSEC
  0
SECTION
  2
BLOCKS
  0
BLOCK
  5
20
330
1F
100
AcDbEntity
  8
0
100
AcDbBlockBegin
  2
*Model_Space
 70
     0
 10
0.0
 20
0.0
 30
0.0
  3
*Model_Space
  1
*Model_Space
  0
ENDBLK
  5
21
330
1F
100
AcDbEntity
  8
0
100
AcDbBlockEnd
  0
BLOCK
  5
1C
330
1B
100
AcDbEntity
 67
     1
  8
0
100
AcDbBlockBegin
  2
*Paper_Space
 70
     0
 10
0.0
 20
0.0
 30
0.0
  3
*Paper_Space
  1
*Paper_Space
  0
ENDBLK
  5
1D
330
1B
100
AcDbEntity
 67
     1
  8
0
100
AcDbBlockEnd
  0
BLOCK
  5
24
330
23
100
AcDbEntity
  8
0
100
AcDbBlockBegin
  2
*Paper_Space0
 70
     0
 10
0.0
 20
0.0
 30
0.0
  3
*Paper_Space0
  1
*Paper_Space0
  0
ENDBLK
  5
25
330
23
100
AcDbEntity
  8
0
100
AcDbBlockEnd
  0
ENDSEC
  0
SECTION
  2
ENTITIES
  0
SPLINE
  5
70
330
1F
100
AcDbEntity
  8
Layer 1
370
     9
100
AcDbSpline
210
0.0
220
0.0
230
1.0
 70
    11
 71
     3
 72
   524
 73
   520
 74
     0
 42
0.000000001
 43
0.0000000001
 40
0.0
 40
0.0
 40
0.0
 40
0.0
 40
0.0076335877862595
 40
0.0076335877862595
 40
0.0076335877862595
 40
0.0076335877862595
 40
0.0152671755725191
 40
0.0152671755725191
 40
0.0152671755725191
 40
0.0152671755725191
 40
0.0229007633587786
 40
0.0229007633587786
 40
0.0229007633587786
 40
0.0229007633587786
 40
0.0305343511450382
 40
0.0305343511450382
 40
0.0305343511450382
 40
0.0305343511450382
 40
0.0381679389312977
 40
0.0381679389312977
 40
0.0381679389312977
 40
0.0381679389312977
 40
0.0458015267175573
 40
0.0458015267175573
 40
0.0458015267175573
 40
0.0458015267175573
 40
0.0534351145038168
 40
0.0534351145038168
 40
0.0534351145038168
 40
0.0534351145038168
 40
0.0610687022900763
 40
0.0610687022900763
 40
0.0610687022900763
 40
0.0610687022900763
 40
0.0687022900763359
 40
0.0687022900763359
 40
0.0687022900763359
 40
0.0687022900763359
 40
0.0763358778625954
 40
0.0763358778625954
 40
0.0763358778625954
 40
0.0763358778625954
 40
0.083969465648855
 40
0.083969465648855
 40
0.083969465648855
 40
0.083969465648855
 40
0.0916030534351145
 40
0.0916030534351145
 40
0.0916030534351145
 40
0.0916030534351145
 40
0.099236641221374
 40
0.099236641221374
 40
0.099236641221374
 40
0.099236641221374
 40
0.1068702290076336
 40
0.1068702290076336
 40
0.1068702290076336
 40
0.1068702290076336
 40
0.1145038167938931
 40
0.1145038167938931
 40
0.1145038167938931
 40
0.1145038167938931
 40
0.1221374045801527
 40
0.1221374045801527
 40
0.1221374045801527
 40
0.1221374045801527
 40
0.1297709923664122
 40
0.1297709923664122
 40
0.1297709923664122
 40
0.1297709923664122
 40
0.1374045801526718
 40
0.1374045801526718
 40
0.1374045801526718
 40
0.1374045801526718
 40
0.1450381679389313
 40
0.1450381679389313
 40
0.1450381679389313
 40
0.1450381679389313
 40
0.1526717557251908
 40
0.1526717557251908
 40
0.1526717557251908
 40
0.1526717557251908
 40
0.1603053435114504
 40
0.1603053435114504
 40
0.1603053435114504
 40
0.1603053435114504
 40
0.1679389312977099
 40
0.1679389312977099
 40
0.1679389312977099
 40
0.1679389312977099
 40
0.1755725190839695
 40
0.1755725190839695
 40
0.1755725190839695
 40
0.1755725190839695
 40
0.183206106870229
 40
0.183206106870229
 40
0.183206106870229
 40
0.183206106870229
 40
0.1908396946564886
 40
0.1908396946564886
 40
0.1908396946564886
 40
0.1908396946564886
 40
0.1984732824427481
 40
0.1984732824427481
 40
0.1984732824427481
 40
0.1984732824427481
 40
0.2061068702290076
 40
0.2061068702290076
 40
0.2061068702290076
 40
0.2061068702290076
 40
0.2137404580152672
 40
0.2137404580152672
 40
0.2137404580152672
 40
0.2137404580152672
 40
0.2213740458015267
 40
0.2213740458015267
 40
0.2213740458015267
 40
0.2213740458015267
 40
0.2290076335877863
 40
0.2290076335877863
 40
0.2290076335877863
 40
0.2290076335877863
 40
0.2366412213740458
 40
0.2366412213740458
 40
0.2366412213740458
 40
0.2366412213740458
 40
0.2442748091603053
 40
0.2442748091603053
 40
0.2442748091603053
 40
0.2442748091603053
 40
0.2519083969465649
 40
0.2519083969465649
 40
0.2519083969465649
 40
0.2519083969465649
 40
0.2595419847328244
 40
0.2595419847328244
 40
0.2595419847328244
 40
0.2595419847328244
 40
0.267175572519084
 40
0.267175572519084
 40
0.267175572519084
 40
0.267175572519084
 40
0.2748091603053435
 40
0.2748091603053435
 40
0.2748091603053435
 40
0.2748091603053435
 40
0.2824427480916031
 40
0.2824427480916031
 40
0.2824427480916031
 40
0.2824427480916031
 40
0.2900763358778626
 40
0.2900763358778626
 40
0.2900763358778626
 40
0.2900763358778626
 40
0.2977099236641221
 40
0.2977099236641221
 40
0.2977099236641221
 40
0.2977099236641221
 40
0.3053435114503817
 40
0.3053435114503817
 40
0.3053435114503817
 40
0.3053435114503817
 40
0.3129770992366412
 40
0.3129770992366412
 40
0.3129770992366412
 40
0.3129770992366412
 40
0.3206106870229007
 40
0.3206106870229007
 40
0.3206106870229007
 40
0.3206106870229007
 40
0.3282442748091603
 40
0.3282442748091603
 40
0.3282442748091603
 40
0.3282442748091603
 40
0.3358778625954199
 40
0.3358778625954199
 40
0.3358778625954199
 40
0.3358778625954199
 40
0.3435114503816794
 40
0.3435114503816794
 40
0.3435114503816794
 40
0.3435114503816794
 40
0.3511450381679389
 40
0.3511450381679389
 40
0.3511450381679389
 40
0.3511450381679389
 40
0.3587786259541985
 40
0.3587786259541985
 40
0.3587786259541985
 40
0.3587786259541985
 40
0.366412213740458
 40
0.366412213740458
 40
0.366412213740458
 40
0.366412213740458
 40
0.3740458015267176
 40
0.3740458015267176
 40
0.3740458015267176
 40
0.3740458015267176
 40
0.3816793893129771
 40
0.3816793893129771
 40
0.3816793893129771
 40
0.3816793893129771
 40
0.3893129770992366
 40
0.3893129770992366
 40
0.3893129770992366
 40
0.3893129770992366
 40
0.3969465648854962
 40
0.3969465648854962
 40
0.3969465648854962
 40
0.3969465648854962
 40
0.4045801526717557
 40
0.4045801526717557
 40
0.4045801526717557
 40
0.4045801526717557
 40
0.4122137404580153
 40
0.4122137404580153
 40
0.4122137404580153
 40
0.4122137404580153
 40
0.4198473282442748
 40
0.4198473282442748
 40
0.4198473282442748
 40
0.4198473282442748
 40
0.4274809160305343
 40
0.4274809160305343
 40
0.4274809160305343
 40
0.4274809160305343
 40
0.4351145038167939
 40
0.4351145038167939
 40
0.4351145038167939
 40
0.4351145038167939
 40
0.4427480916030535
 40
0.4427480916030535
 40
0.4427480916030535
 40
0.4427480916030535
 40
0.4503816793893129
 40
0.4503816793893129
 40
0.4503816793893129
 40
0.4503816793893129
 40
0.4580152671755725
 40
0.4580152671755725
 40
0.4580152671755725
 40
0.4580152671755725
 40
0.4656488549618321
 40
0.4656488549618321
 40
0.4656488549618321
 40
0.4656488549618321
 40
0.4732824427480916
 40
0.4732824427480916
 40
0.4732824427480916
 40
0.4732824427480916
 40
0.4809160305343512
 40
0.4809160305343512
 40
0.4809160305343512
 40
0.4809160305343512
 40
0.4885496183206107
 40
0.4885496183206107
 40
0.4885496183206107
 40
0.4885496183206107
 40
0.4961832061068702
 40
0.4961832061068702
 40
0.4961832061068702
 40
0.4961832061068702
 40
0.5038167938931297
 40
0.5038167938931297
 40
0.5038167938931297
 40
0.5038167938931297
 40
0.5114503816793893
 40
0.5114503816793893
 40
0.5114503816793893
 40
0.5114503816793893
 40
0.5190839694656488
 40
0.5190839694656488
 40
0.5190839694656488
 40
0.5190839694656488
 40
0.5267175572519084
 40
0.5267175572519084
 40
0.5267175572519084
 40
0.5267175572519084
 40
0.5343511450381679
 40
0.5343511450381679
 40
0.5343511450381679
 40
0.5343511450381679
 40
0.5419847328244275
 40
0.5419847328244275
 40
0.5419847328244275
 40
0.5419847328244275
 40
0.549618320610687
 40
0.549618320610687
 40
0.549618320610687
 40
0.549618320610687
 40
0.5572519083969466
 40
0.5572519083969466
 40
0.5572519083969466
 40
0.5572519083969466
 40
0.5648854961832062
 40
0.5648854961832062
 40
0.5648854961832062
 40
0.5648854961832062
 40
0.5725190839694656
 40
0.5725190839694656
 40
0.5725190839694656
 40
0.5725190839694656
 40
0.5801526717557252
 40
0.5801526717557252
 40
0.5801526717557252
 40
0.5801526717557252
 40
0.5877862595419847
 40
0.5877862595419847
 40
0.5877862595419847
 40
0.5877862595419847
 40
0.5954198473282443
 40
0.5954198473282443
 40
0.5954198473282443
 40
0.5954198473282443
 40
0.6030534351145038
 40
0.6030534351145038
 40
0.6030534351145038
 40
0.6030534351145038
 40
0.6106870229007634
 40
0.6106870229007634
 40
0.6106870229007634
 40
0.6106870229007634
 40
0.6183206106870229
 40
0.6183206106870229
 40
0.6183206106870229
 40
0.6183206106870229
 40
0.6259541984732825
 40
0.6259541984732825
 40
0.6259541984732825
 40
0.6259541984732825
 40
0.6335877862595419
 40
0.6335877862595419
 40
0.6335877862595419
 40
0.6335877862595419
 40
0.6412213740458015
 40
0.6412213740458015
 40
0.6412213740458015
 40
0.6412213740458015
 40
0.648854961832061
 40
0.648854961832061
 40
0.648854961832061
 40
0.648854961832061
 40
0.6564885496183206
 40
0.6564885496183206
 40
0.6564885496183206
 40
0.6564885496183206
 40
0.6641221374045801
 40
0.6641221374045801
 40
0.6641221374045801
 40
0.6641221374045801
 40
0.6717557251908397
 40
0.6717557251908397
 40
0.6717557251908397
 40
0.6717557251908397
 40
0.6793893129770993
 40
0.6793893129770993
 40
0.6793893129770993
 40
0.6793893129770993
 40
0.6870229007633588
 40
0.6870229007633588
 40
0.6870229007633588
 40
0.6870229007633588
 40
0.6946564885496184
 40
0.6946564885496184
 40
0.6946564885496184
 40
0.6946564885496184
 40
0.7022900763358778
 40
0.7022900763358778
 40
0.7022900763358778
 40
0.7022900763358778
 40
0.7099236641221374
 40
0.7099236641221374
 40
0.7099236641221374
 40
0.7099236641221374
 40
0.7175572519083969
 40
0.7175572519083969
 40
0.7175572519083969
 40
0.7175572519083969
 40
0.7251908396946565
 40
0.7251908396946565
 40
0.7251908396946565
 40
0.7251908396946565
 40
0.732824427480916
 40
0.732824427480916
 40
0.732824427480916
 40
0.732824427480916
 40
0.7404580152671756
 40
0.7404580152671756
 40
0.7404580152671756
 40
0.7404580152671756
 40
0.7480916030534351
 40
0.7480916030534351
 40
0.7480916030534351
 40
0.7480916030534351
 40
0.7557251908396947
 40
0.7557251908396947
 40
0.7557251908396947
 40
0.7557251908396947
 40
0.7633587786259542
 40
0.7633587786259542
 40
0.7633587786259542
 40
0.7633587786259542
 40
0.7709923664122137
 40
0.7709923664122137
 40
0.7709923664122137
 40
0.7709923664122137
 40
0.7786259541984732
 40
0.7786259541984732
 40
0.7786259541984732
 40
0.7786259541984732
 40
0.7862595419847328
 40
0.7862595419847328
 40
0.7862595419847328
 40
0.7862595419847328
 40
0.7938931297709924
 40
0.7938931297709924
 40
0.7938931297709924
 40
0.7938931297709924
 40
0.8015267175572519
 40
0.8015267175572519
 40
0.8015267175572519
 40
0.8015267175572519
 40
0.8091603053435115
 40
0.8091603053435115
 40
0.8091603053435115
 40
0.8091603053435115
 40
0.816793893129771
 40
0.816793893129771
 40
0.816793893129771
 40
0.816793893129771
 40
0.8244274809160306
 40
0.8244274809160306
 40
0.8244274809160306
 40
0.8244274809160306
 40
0.8320610687022901
 40
0.8320610687022901
 40
0.8320610687022901
 40
0.8320610687022901
 40
0.8396946564885496
 40
0.8396946564885496
 40
0.8396946564885496
 40
0.8396946564885496
 40
0.8473282442748091
 40
0.8473282442748091
 40
0.8473282442748091
 40
0.8473282442748091
 40
0.8549618320610687
 40
0.8549618320610687
 40
0.8549618320610687
 40
0.8549618320610687
 40
0.8625954198473282
 40
0.8625954198473282
 40
0.8625954198473282
 40
0.8625954198473282
 40
0.8702290076335878
 40
0.8702290076335878
 40
0.8702290076335878
 40
0.8702290076335878
 40
0.8778625954198473
 40
0.8778625954198473
 40
0.8778625954198473
 40
0.8778625954198473
 40
0.8854961832061069
 40
0.8854961832061069
 40
0.8854961832061069
 40
0.8854961832061069
 40
0.8931297709923665
 40
0.8931297709923665
 40
0.8931297709923665
 40
0.8931297709923665
 40
0.9007633587786259
 40
0.9007633587786259
 40
0.9007633587786259
 40
0.9007633587786259
 40
0.9083969465648855
 40
0.9083969465648855
 40
0.9083969465648855
 40
0.9083969465648855
 40
0.916030534351145
 40
0.916030534351145
 40
0.916030534351145
 40
0.916030534351145
 40
0.9236641221374046
 40
0.9236641221374046
 40
0.9236641221374046
 40
0.9236641221374046
 40
0.9312977099236641
 40
0.9312977099236641
 40
0.9312977099236641
 40
0.9312977099236641
 40
0.9389312977099237
 40
0.9389312977099237
 40
0.9389312977099237
 40
0.9389312977099237
 40
0.9465648854961832
 40
0.9465648854961832
 40
0.9465648854961832
 40
0.9465648854961832
 40
0.9541984732824428
 40
0.9541984732824428
 40
0.9541984732824428
 40
0.9541984732824428
 40
0.9618320610687023
 40
0.9618320610687023
 40
0.9618320610687023
 40
0.9618320610687023
 40
0.9694656488549618
 40
0.9694656488549618
 40
0.9694656488549618
 40
0.9694656488549618
 40
0.9770992366412213
 40
0.9770992366412213
 40
0.9770992366412213
 40
0.9770992366412213
 40
0.9847328244274809
 40
0.9847328244274809
 40
0.9847328244274809
 40
0.9847328244274809
 40
1.0
 40
1.0
 40
1.0
 40
1.0
 10
-33.82512
 20
-14.24375
 30
0.0
 10
-34.77964
 20
-14.43856
 30
0.0
 10
-35.57183
 20
-15.05114
 30
0.0
 10
-36.36838
 20
-15.58084
 30
0.0
 10
-36.36838
 20
-15.58084
 30
0.0
 10
-36.78078
 20
-15.85485
 30
0.0
 10
-37.18183
 20
-16.14522
 30
0.0
 10
-37.59207
 20
-16.4223
 30
0.0
 10
-37.59207
 20
-16.4223
 30
0.0
 10
-37.87846
 20
-16.61578
 30
0.0
 10
-38.13785
 20
-16.8875
 30
0.0
 10
-38.46857
 20
-17.00301
 30
0.0
 10
-38.46857
 20
-17.00301
 30
0.0
 10
-37.97733
 20
-17.27509
 30
0.0
 10
-37.54042
 20
-17.74269
 30
0.0
 10
-37.24377
 20
-18.21604
 30
0.0
 10
-37.24377
 20
-18.21604
 30
0.0
 10
-36.95678
 20
-18.67386
 30
0.0
 10
-36.76826
 20
-19.21156
 30
0.0
 10
-36.83307
 20
-19.75803
 30
0.0
 10
-36.83307
 20
-19.75803
 30
0.0
 10
-36.91539
 20
-20.45235
 30
0.0
 10
-37.35906
 20
-21.00211
 30
0.0
 10
-37.87631
 20
-21.44349
 30
0.0
 10
-37.87631
 20
-21.44349
 30
0.0
 10
-38.01664
 20
-21.5632
 30
0.0
 10
-38.15771
 20
-21.67807
 30
0.0
 10
-38.30746
 20
-21.77927
 30
0.0
 10
-38.30746
 20
-21.77927
 30
0.0
 10
-38.28225
 20
-22.09798
 30
0.0
 10
-38.65534
 20
-22.38753
 30
0.0
 10
-38.88229
 20
-22.53727
 30
0.0
 10
-38.88229
 20
-22.53727
 30
0.0
 10
-39.22826
 20
-22.76539
 30
0.0
 10
-39.63519
 20
-22.92015
 30
0.0
 10
-39.95309
 20
-23.18863
 30
0.0
 10
-39.95309
 20
-23.18863
 30
0.0
 10
-39.98511
 20
-23.21559
 30
0.0
 10
-40.03326
 20
-23.17582
 30
0.0
 10
-40.00276
 20
-23.14334
 30
0.0
 10
-40.00276
 20
-23.14334
 30
0.0
 10
-39.99612
 20
-23.13622
 30
0.0
 10
-39.98907
 20
-23.12958
 30
0.0
 10
-39.98238
 20
-23.12272
 30
0.0
 10
-39.98238
 20
-23.12272
 30
0.0
 10
-39.98843
 20
-23.1261
 30
0.0
 10
-39.99471
 20
-23.12743
 30
0.0
 10
-40.00054
 20
-23.12615
 30
0.0
 10
-40.00054
 20
-23.12615
 30
0.0
 10
-40.11001
 20
-23.24633
 30
0.0
 10
-40.22464
 20
-23.36201
 30
0.0
 10
-40.34597
 20
-23.46914
 30
0.0
 10
-40.34597
 20
-23.46914
 30
0.0
 10
-40.37923
 20
-23.49855
 30
0.0
 10
-40.43838
 20
-23.49553
 30
0.0
 10
-40.4516
 20
-23.44528
 30
0.0
 10
-40.4516
 20
-23.44528
 30
0.0
 10
-40.5362
 20
-23.12306
 30
0.0
 10
-40.64426
 20
-22.80697
 30
0.0
 10
-40.7954
 20
-22.50945
 30
0.0
 10
-40.7954
 20
-22.50945
 30
0.0
 10
-40.91203
 20
-22.27969
 30
0.0
 10
-41.05665
 20
-22.06829
 30
0.0
 10
-41.18154
 20
-21.84354
 30
0.0
 10
-41.18154
 20
-21.84354
 30
0.0
 10
-41.19924
 20
-21.81164
 30
0.0
 10
-41.21717
 20
-21.77794
 30
0.0
 10
-41.23471
 20
-21.74311
 30
0.0
 10
-41.23471
 20
-21.74311
 30
0.0
 10
-41.23669
 20
-21.74439
 30
0.0
 10
-41.23896
 20
-21.74532
 30
0.0
 10
-41.24174
 20
-21.74527
 30
0.0
 10
-41.24174
 20
-21.74527
 30
0.0
 10
-41.30475
 20
-21.74503
 30
0.0
 10
-41.36442
 20
-21.73136
 30
0.0
 10
-41.42107
 20
-21.70888
 30
0.0
 10
-41.42107
 20
-21.70888
 30
0.0
 10
-41.50865
 20
-21.92984
 30
0.0
 10
-41.65001
 20
-22.12465
 30
0.0
 10
-41.78607
 20
-22.31824
 30
0.0
 10
-41.78607
 20
-22.31824
 30
0.0
 10
-41.92227
 20
-22.51179
 30
0.0
 10
-42.0411
 20
-22.71184
 30
0.0
 10
-42.15895
 20
-22.91667
 30
0.0
 10
-42.15895
 20
-22.91667
 30
0.0
 10
-42.37647
 20
-23.29424
 30
0.0
 10
-42.64372
 20
-23.7205
 30
0.0
 10
-42.68965
 20
-24.16603
 30
0.0
 10
-42.68965
 20
-24.16603
 30
0.0
 10
-42.6857
 20
-24.16684
 30
0.0
 10
-42.68174
 20
-24.16882
 30
0.0
 10
-42.67801
 20
-24.17296
 30
0.0
 10
-42.67801
 20
-24.17296
 30
0.0
 10
-42.52563
 20
-24.3492
 30
0.0
 10
-42.32907
 20
-24.57673
 30
0.0
 10
-42.43317
 20
-24.82721
 30
0.0
 10
-42.43317
 20
-24.82721
 30
0.0
 10
-42.50887
 20
-25.00921
 30
0.0
 10
-42.68372
 20
-25.14908
 30
0.0
 10
-42.88075
 20
-25.17661
 30
0.0
 10
-42.88075
 20
-25.17661
 30
0.0
 10
-43.2376
 20
-25.22669
 30
0.0
 10
-43.57261
 20
-24.84683
 30
0.0
 10
-43.32714
 20
-24.52415
 30
0.0
 10
-43.32714
 20
-24.52415
 30
0.0
 10
-43.1353
 20
-24.27193
 30
0.0
 10
-42.65979
 20
-24.25086
 30
0.0
 10
-42.62386
 20
-24.64754
 30
0.0
 10
-42.62386
 20
-24.64754
 30
0.0
 10
-42.61076
 20
-24.79118
 30
0.0
 10
-42.70689
 20
-25.03967
 30
0.0
 10
-42.89477
 20
-24.92508
 30
0.0
 10
-42.89477
 20
-24.92508
 30
0.0
 10
-42.97856
 20
-24.87396
 30
0.0
 10
-43.07456
 20
-24.79647
 30
0.0
 10
-43.04907
 20
-24.68357
 30
0.0
 10
-43.04907
 20
-24.68357
 30
0.0
 10
-43.02776
 20
-24.58913
 30
0.0
 10
-42.94764
 20
-24.56672
 30
0.0
 10
-42.86258
 20
-24.57318
 30
0.0
 10
-42.86258
 20
-24.57318
 30
0.0
 10
-42.7944
 20
-24.57837
 30
0.0
 10
-42.7898
 20
-24.68586
 30
0.0
 10
-42.85903
 20
-24.68055
 30
0.0
 10
-42.85903
 20
-24.68055
 30
0.0
 10
-42.87522
 20
-24.83664
 30
0.0
 10
-42.83929
 20
-24.87722
 30
0.0
 10
-42.75109
 20
-24.80247
 30
0.0
 10
-42.75109
 20
-24.80247
 30
0.0
 10
-42.74502
 20
-24.78489
 30
0.0
 10
-42.73897
 20
-24.7673
 30
0.0
 10
-42.73292
 20
-24.74972
 30
0.0
 10
-42.73292
 20
-24.74972
 30
0.0
 10
-42.72528
 20
-24.70908
 30
0.0
 10
-42.7268
 20
-24.66867
 30
0.0
 10
-42.7374
 20
-24.62866
 30
0.0
 10
-42.7374
 20
-24.62866
 30
0.0
 10
-42.7558
 20
-24.57801
 30
0.0
 10
-42.78402
 20
-24.52446
 30
0.0
 10
-42.82717
 20
-24.49022
 30
0.0
 10
-42.82717
 20
-24.49022
 30
0.0
 10
-42.8953
 20
-24.43607
 30
0.0
 10
-42.98135
 20
-24.42245
 30
0.0
 10
-43.0631
 20
-24.45417
 30
0.0
 10
-43.0631
 20
-24.45417
 30
0.0
 10
-43.20807
 20
-24.5106
 30
0.0
 10
-43.3538
 20
-24.68177
 30
0.0
 10
-43.29115
 20
-24.84695
 30
0.0
 10
-43.29115
 20
-24.84695
 30
0.0
 10
-43.19486
 20
-25.10122
 30
0.0
 10
-42.88156
 20
-25.13399
 30
0.0
 10
-42.6826
 20
-24.97865
 30
0.0
 10
-42.6826
 20
-24.97865
 30
0.0
 10
-42.56966
 20
-24.89055
 30
0.0
 10
-42.47667
 20
-24.74675
 30
0.0
 10
-42.52121
 20
-24.59654
 30
0.0
 10
-42.52121
 20
-24.59654
 30
0.0
 10
-42.56028
 20
-24.46453
 30
0.0
 10
-42.64039
 20
-24.35165
 30
0.0
 10
-42.70246
 20
-24.22978
 30
0.0
 10
-42.70246
 20
-24.22978
 30
0.0
 10
-42.70542
 20
-24.22966
 30
0.0
 10
-42.70834
 20
-24.22769
 30
0.0
 10
-42.7088
 20
-24.22354
 30
0.0
 10
-42.7088
 20
-24.22354
 30
0.0
 10
-42.7091
 20
-24.22104
 30
0.0
 10
-42.70916
 20
-24.21854
 30
0.0
 10
-42.70944
 20
-24.21609
 30
0.0
 10
-42.70944
 20
-24.21609
 30
0.0
 10
-42.71132
 20
-24.21214
 30
0.0
 10
-42.71346
 20
-24.20823
 30
0.0
 10
-42.71539
 20
-24.20428
 30
0.0
 10
-42.71539
 20
-24.20428
 30
0.0
 10
-42.7198
 20
-24.19502
 30
0.0
 10
-42.71759
 20
-24.18477
 30
0.0
 10
-42.71235
 20
-24.17685
 30
0.0
 10
-42.71235
 20
-24.17685
 30
0.0
 10
-42.74252
 20
-23.74722
 30
0.0
 10
-42.49344
 20
-23.31794
 30
0.0
 10
-42.29356
 20
-22.95503
 30
0.0
 10
-42.29356
 20
-22.95503
 30
0.0
 10
-42.17997
 20
-22.74875
 30
0.0
 10
-42.06975
 20
-22.54106
 30
0.0
 10
-41.9378
 20
-22.34567
 30
0.0
 10
-41.9378
 20
-22.34567
 30
0.0
 10
-41.78922
 20
-22.12565
 30
0.0
 10
-41.62067
 20
-21.90562
 30
0.0
 10
-41.52623
 20
-21.6549
 30
0.0
 10
-41.52623
 20
-21.6549
 30
0.0
 10
-41.65798
 20
-21.5731
 30
0.0
 10
-41.77188
 20
-21.44978
 30
0.0
 10
-41.87108
 20
-21.34387
 30
0.0
 10
-41.87108
 20
-21.34387
 30
0.0
 10
-41.98031
 20
-21.2273
 30
0.0
 10
-42.08663
 20
-21.10533
 30
0.0
 10
-42.20786
 20
-21.00094
 30
0.0
 10
-42.20786
 20
-21.00094
 30
0.0
 10
-42.27906
 20
-20.93974
 30
0.0
 10
-42.35626
 20
-20.89538
 30
0.0
 10
-42.43376
 20
-20.85114
 30
0.0
 10
-42.43376
 20
-20.85114
 30
0.0
 10
-42.45577
 20
-20.84547
 30
0.0
 10
-42.47813
 20
-20.84018
 30
0.0
 10
-42.50071
 20
-20.83511
 30
0.0
 10
-42.50071
 20
-20.83511
 30
0.0
 10
-42.50637
 20
-20.84187
 30
0.0
 10
-42.51194
 20
-20.84862
 30
0.0
 10
-42.51749
 20
-20.85533
 30
0.0
 10
-42.51749
 20
-20.85533
 30
0.0
 10
-43.02362
 20
-21.41549
 30
0.0
 10
-43.52056
 20
-22.17094
 30
0.0
 10
-44.36119
 20
-22.21082
 30
0.0
 10
-44.36119
 20
-22.21082
 30
0.0
 10
-44.63065
 20
-22.22357
 30
0.0
 10
-44.92206
 20
-22.11872
 30
0.0
 10
-45.03594
 20
-21.85262
 30
0.0
 10
-45.03594
 20
-21.85262
 30
0.0
 10
-45.11932
 20
-21.65776
 30
0.0
 10
-45.0392
 20
-21.44699
 30
0.0
 10
-44.86075
 20
-21.33648
 30
0.0
 10
-44.86075
 20
-21.33648
 30
0.0
 10
-44.69306
 20
-21.23273
 30
0.0
 10
-44.45546
 20
-21.1958
 30
0.0
 10
-44.29039
 20
-21.32717
 30
0.0
 10
-44.29039
 20
-21.32717
 30
0.0
 10
-44.10461
 20
-21.475
 30
0.0
 10
-44.06624
 20
-21.77101
 30
0.0
 10
-44.26082
 20
-21.93415
 30
0.0
 10
-44.26082
 20
-21.93415
 30
0.0
 10
-44.42546
 20
-22.07224
 30
0.0
 10
-44.73533
 20
-22.04833
 30
0.0
 10
-44.75111
 20
-21.77875
 30
0.0
 10
-44.75111
 20
-21.77875
 30
0.0
 10
-44.76555
 20
-21.53031
 30
0.0
 10
-44.49675
 20
-21.47593
 30
0.0
 10
-44.41324
 20
-21.7101
 30
0.0
 10
-44.41324
 20
-21.7101
 30
0.0
 10
-44.38745
 20
-21.78235
 30
0.0
 10
-44.50127
 20
-21.81654
 30
0.0
 10
-44.52701
 20
-21.74451
 30
0.0
 10
-44.52701
 20
-21.74451
 30
0.0
 10
-44.57569
 20
-21.60821
 30
0.0
 10
-44.66315
 20
-21.70527
 30
0.0
 10
-44.62598
 20
-21.79599
 30
0.0
 10
-44.62598
 20
-21.79599
 30
0.0
 10
-44.59991
 20
-21.85974
 30
0.0
 10
-44.53702
 20
-21.92093
 30
0.0
 10
-44.46251
 20
-21.90888
 30
0.0
 10
-44.46251
 20
-21.90888
 30
0.0
 10
-44.37045
 20
-21.89414
 30
0.0
 10
-44.2851
 20
-21.81037
 30
0.0
 10
-44.26215
 20
-21.71988
 30
0.0
 10
-44.26215
 20
-21.71988
 30
0.0
 10
-44.21848
 20
-21.54801
 30
0.0
 10
-44.33383
 20
-21.37944
 30
0.0
 10
-44.51251
 20
-21.36134
 30
0.0
 10
-44.51251
 20
-21.36134
 30
0.0
 10
-44.83827
 20
-21.3285
 30
0.0
 10
-45.1128
 20
-21.67476
 30
0.0
 10
-44.84538
 20
-21.93991
 30
0.0
 10
-44.84538
 20
-21.93991
 30
0.0
 10
-44.52806
 20
-22.2546
 30
0.0
 10
-44.0165
 20
-22.07109
 30
0.0
 10
-43.6798
 20
-21.88319
 30
0.0
 10
-43.6798
 20
-21.88319
 30
0.0
 10
-43.21455
 20
-21.62364
 30
0.0
 10
-42.95276
 20
-21.16396
 30
0.0
 10
-42.57221
 20
-20.8127
 30
0.0
 10
-42.57221
 20
-20.8127
 30
0.0
 10
-42.60652
 20
-20.80687
 30
0.0
 10
-42.64005
 20
-20.79506
 30
0.0
 10
-42.67515
 20
-20.79594
 30
0.0
 10
-42.67515
 20
-20.79594
 30
0.0
 10
-42.69839
 20
-20.80035
 30
0.0
 10
-42.71475
 20
-20.77439
 30
0.0
 10
-42.71061
 20
-20.75377
 30
0.0
 10
-42.71061
 20
-20.75377
 30
0.0
 10
-42.71894
 20
-20.75279
 30
0.0
 10
-42.72668
 20
-20.74872
 30
0.0
 10
-42.73163
 20
-20.74039
 30
0.0
 10
-42.73163
 20
-20.74039
 30
0.0
 10
-42.85327
 20
-20.53456
 30
0.0
 10
-43.03824
 20
-20.3667
 30
0.0
 10
-43.23136
 20
-20.22837
 30
0.0
 10
-43.23136
 20
-20.22837
 30
0.0
 10
-43.41012
 20
-20.10022
 30
0.0
 10
-43.62869
 20
-20.01749
 30
0.0
 10
-43.79654
 20
-19.87798
 30
0.0
 10
-43.79654
 20
-19.87798
 30
0.0
 10
-43.8069
 20
-19.86942
 30
0.0
 10
-43.80853
 20
-19.85847
 30
0.0
 10
-43.80515
 20
-19.84876
 30
0.0
 10
-43.80515
 20
-19.84876
 30
0.0
 10
-44.07858
 20
-19.76456
 30
0.0
 10
-44.35647
 20
-19.71397
 30
0.0
 10
-44.64986
 20
-19.7542
 30
0.0
 10
-44.64986
 20
-19.7542
 30
0.0
 10
-44.6968
 20
-19.76048
 30
0.0
 10
-44.72911
 20
-19.7011
 30
0.0
 10
-44.70763
 20
-19.66273
 30
0.0
 10
-44.70763
 20
-19.66273
 30
0.0
 10
-44.48387
 20
-19.26402
 30
0.0
 10
-44.33301
 20
-18.73953
 30
0.0
 10
-43.93913
 20
-18.46909
 30
0.0
 10
-43.93913
 20
-18.46909
 30
0.0
 10
-43.93692
 20
-18.46531
 30
0.0
 10
-43.93487
 20
-18.46152
 30
0.0
 10
-43.93127
 20
-18.45797
 30
0.0
 10
-43.93127
 20
-18.45797
 30
0.0
 10
-43.86786
 20
-18.39415
 30
0.0
 10
-43.79521
 20
-18.34205
 30
0.0
 10
-43.72027
 20
-18.29279
 30
0.0
 10
-43.72027
 20
-18.29279
 30
0.0
 10
-43.71787
 20
-18.2833
 30
0.0
 10
-43.71246
 20
-18.27469
 30
0.0
 10
-43.70275
 20
-18.26874
 30
0.0
 10
-43.70275
 20
-18.26874
 30
0.0
 10
-43.18292
 20
-17.94775
 30
0.0
 10
-43.00493
 20
-17.37239
 30
0.0
 10
-42.5976
 20
-16.94794
 30
0.0
 10
-42.5976
 20
-16.94794
 30
0.0
 10
-42.14561
 20
-16.47709
 30
0.0
 10
-41.58305
 20
-16.22178
 30
0.0
 10
-40.95937
 20
-16.05345
 30
0.0
 10
-40.95937
 20
-16.05345
 30
0.0
 10
-40.45353
 20
-15.91703
 30
0.0
 10
-39.99069
 20
-15.9427
 30
0.0
 10
-39.51968
 20
-16.17689
 30
0.0
 10
-39.51968
 20
-16.17689
 30
0.0
 10
-39.31251
 20
-16.27988
 30
0.0
 10
-39.10524
 20
-16.40094
 30
0.0
 10
-38.92573
 20
-16.54772
 30
0.0
 10
-38.92573
 20
-16.54772
 30
0.0
 10
-38.80428
 20
-16.64709
 30
0.0
 10
-38.67386
 20
-16.75906
 30
0.0
 10
-38.60929
 20
-16.90474
 30
0.0
 10
-38.60929
 20
-16.90474
 30
0.0
 10
-38.2922
 20
-16.54877
 30
0.0
 10
-37.93146
 20
-16.21782
 30
0.0
 10
-37.55026
 20
-15.91307
 30
0.0
 10
-37.55026
 20
-15.91307
 30
0.0
 10
-37.5608
 20
-15.90936
 30
0.0
 10
-37.57081
 20
-15.9019
 30
0.0
 10
-37.57885
 20
-15.88926
 30
0.0
 10
-37.57885
 20
-15.88926
 30
0.0
 10
-37.5799
 20
-15.88757
 30
0.0
 10
-37.58083
 20
-15.88571
 30
0.0
 10
-37.58199
 20
-15.88385
 30
0.0
 10
-37.58199
 20
-15.88385
 30
0.0
 10
-38.55363
 20
-15.9005
 30
0.0
 10
-39.46243
 20
-15.32269
 30
0.0
 10
-40.16909
 20
-14.70616
 30
0.0
 10
-40.16909
 20
-14.70616
 30
0.0
 10
-40.55256
 20
-14.37149
 30
0.0
 10
-40.91342
 20
-14.00701
 30
0.0
 10
-41.32292
 20
-13.70326
 30
0.0
 10
-41.32292
 20
-13.70326
 30
0.0
 10
-41.52844
 20
-13.55084
 30
0.0
 10
-41.74516
 20
-13.41027
 30
0.0
 10
-41.97821
 20
-13.30333
 30
0.0
 10
-41.97821
 20
-13.30333
 30
0.0
 10
-42.21681
 20
-13.1938
 30
0.0
 10
-42.46472
 20
-13.12686
 30
0.0
 10
-42.71597
 20
-13.05663
 30
0.0
 10
-42.71597
 20
-13.05663
 30
0.0
 10
-42.72504
 20
-13.06502
 30
0.0
 10
-42.7364
 20
-13.05925
 30
0.0
 10
-42.7399
 20
-13.04982
 30
0.0
 10
-42.7399
 20
-13.04982
 30
0.0
 10
-42.74659
 20
-13.04795
 30
0.0
 10
-42.75323
 20
-13.04609
 30
0.0
 10
-42.75992
 20
-13.04423
 30
0.0
 10
-42.75992
 20
-13.04423
 30
0.0
 10
-42.80162
 20
-13.03252
 30
0.0
 10
-42.8001
 20
-12.96126
 30
0.0
 10
-42.75247
 20
-12.96498
 30
0.0
 10
-42.75247
 20
-12.96498
 30
0.0
 10
-42.74945
 20
-12.96522
 30
0.0
 10
-42.74654
 20
-12.96557
 30
0.0
 10
-42.74351
 20
-12.96574
 30
0.0
 10
-42.74351
 20
-12.96574
 30
0.0
 10
-42.74228
 20
-12.96527
 30
0.0
 10
-42.74142
 20
-12.96441
 30
0.0
 10
-42.74002
 20
-12.964
 30
0.0
 10
-42.74002
 20
-12.964
 30
0.0
 10
-42.73728
 20
-12.96312
 30
0.0
 10
-42.73449
 20
-12.96236
 30
0.0
 10
-42.73175
 20
-12.96155
 30
0.0
 10
-42.73175
 20
-12.96155
 30
0.0
 10
-42.7364
 20
-12.96126
 30
0.0
 10
-42.74078
 20
-12.96062
 30
0.0
 10
-42.74466
 20
-12.95957
 30
0.0
 10
-42.74466
 20
-12.95957
 30
0.0
 10
-42.75906
 20
-12.9626
 30
0.0
 10
-42.77321
 20
-12.96586
 30
0.0
 10
-42.78769
 20
-12.96977
 30
0.0
 10
-42.78769
 20
-12.96977
 30
0.0
 10
-42.83784
 20
-12.98339
 30
0.0
 10
-42.86746
 20
-12.917
 30
0.0
 10
-42.82514
 20
-12.88778
 30
0.0
 10
-42.82514
 20
-12.88778
 30
0.0
 10
-42.72587
 20
-12.81954
 30
0.0
 10
-42.60674
 20
-12.79823
 30
0.0
 10
-42.48203
 20
-12.80482
 30
0.0
 10
-42.48203
 20
-12.80482
 30
0.0
 10
-42.46177
 20
-12.8002
 30
0.0
 10
-42.44157
 20
-12.79561
 30
0.0
 10
-42.42136
 20
-12.79096
 30
0.0
 10
-42.42136
 20
-12.79096
 30
0.0
 10
-42.41681
 20
-12.78427
 30
0.0
 10
-42.41047
 20
-12.77808
 30
0.0
 10
-42.40121
 20
-12.77303
 30
0.0
 10
-42.40121
 20
-12.77303
 30
0.0
 10
-42.32628
 20
-12.73162
 30
0.0
 10
-42.2482
 20
-12.70374
 30
0.0
 10
-42.16557
 20
-12.68133
 30
0.0
 10
-42.16557
 20
-12.68133
 30
0.0
 10
-42.1639
 20
-12.6808
 30
0.0
 10
-42.16226
 20
-12.68073
 30
0.0
 10
-42.16052
 20
-12.68057
 30
0.0
 10
-42.16052
 20
-12.68057
 30
0.0
 10
-41.91544
 20
-12.60277
 30
0.0
 10
-41.6507
 20
-12.56453
 30
0.0
 10
-41.38621
 20
-12.54579
 30
0.0
 10
-41.38621
 20
-12.54579
 30
0.0
 10
-41.18749
 20
-12.49757
 30
0.0
 10
-40.98859
 20
-12.44971
 30
0.0
 10
-40.78743
 20
-12.41175
 30
0.0
 10
-40.78743
 20
-12.41175
 30
0.0
 10
-40.14523
 20
-12.29064
 30
0.0
 10
-39.39828
 20
-12.19801
 30
0.0
 10
-38.75438
 20
-12.36155
 30
0.0
 10
-38.75438
 20
-12.36155
 30
0.0
 10
-38.13051
 20
-12.51986
 30
0.0
 10
-37.6511
 20
-12.98351
 30
0.0
 10
-37.56254
 20
-13.63694
 30
0.0
 10
-37.56254
 20
-13.63694
 30
0.0
 10
-37.51346
 20
-13.99903
 30
0.0
 10
-37.56097
 20
-14.35979
 30
0.0
 10
-37.57501
 20
-14.72241
 30
0.0
 10
-37.57501
 20
-14.72241
 30
0.0
 10
-37.58857
 20
-15.0739
 30
0.0
 10
-37.64581
 20
-15.50615
 30
0.0
 10
-37.48313
 20
-15.82889
 30
0.0
 10
-37.48313
 20
-15.82889
 30
0.0
 10
-37.48103
 20
-15.83302
 30
0.0
 10
-37.47958
 20
-15.83697
 30
0.0
 10
-37.47848
 20
-15.84099
 30
0.0
 10
-37.47848
 20
-15.84099
 30
0.0
 10
-37.47305
 20
-15.84147
 30
0.0
 10
-37.46765
 20
-15.84221
 30
0.0
 10
-37.46229
 20
-15.84256
 30
0.0
 10
-37.46229
 20
-15.84256
 30
0.0
 10
-37.14118
 20
-15.5912
 30
0.0
 10
-36.80681
 20
-15.35855
 30
0.0
 10
-36.47243
 20
-15.14552
 30
0.0
 10
-36.47243
 20
-15.14552
 30
0.0
 10
-36.07989
 20
-14.8955
 30
0.0
 10
-35.67308
 20
-14.66721
 30
0.0
 10
-35.24886
 20
-14.47519
 30
0.0
 10
-35.24886
 20
-14.47519
 30
0.0
 10
-34.84328
 20
-14.29178
 30
0.0
 10
-34.39304
 20
-14.08462
 30
0.0
 10
-33.9492
 20
-14.02128
 30
0.0
 10
-33.9492
 20
-14.02128
 30
0.0
 10
-33.89551
 20
-14.01359
 30
0.0
 10
-33.8901
 20
-14.09197
 30
0.0
 10
-33.93458
 20
-14.10955
 30
0.0
 10
-33.93458
 20
-14.10955
 30
0.0
 10
-34.14553
 20
-14.19227
 30
0.0
 10
-34.36992
 20
-14.24177
 30
0.0
 10
-34.5833
 20
-14.31938
 30
0.0
 10
-34.5833
 20
-14.31938
 30
0.0
 10
-34.813
 20
-14.40287
 30
0.0
 10
-35.04014
 20
-14.49428
 30
0.0
 10
-35.2615
 20
-14.59798
 30
0.0
 10
-35.2615
 20
-14.59798
 30
0.0
 10
-35.67884
 20
-14.79351
 30
0.0
 10
-36.08279
 20
-15.01742
 30
0.0
 10
-36.46905
 20
-15.269
 30
0.0
 10
-36.46905
 20
-15.269
 30
0.0
 10
-36.85612
 20
-15.52124
 30
0.0
 10
-37.2305
 20
-15.79384
 30
0.0
 10
-37.58788
 20
-16.08693
 30
0.0
 10
-37.58788
 20
-16.08693
 30
0.0
 10
-37.9286
 20
-16.36663
 30
0.0
 10
-38.24684
 20
-16.67045
 30
0.0
 10
-38.57959
 20
-16.95906
 30
0.0
 10
-38.57959
 20
-16.95906
 30
0.0
 10
-38.57371
 20
-16.96739
 30
0.0
 10
-38.57459
 20
-16.97961
 30
0.0
 10
-38.58099
 20
-16.98649
 30
0.0
 10
-38.58099
 20
-16.98649
 30
0.0
 10
-38.58071
 20
-16.98706
 30
0.0
 10
-38.58059
 20
-16.98753
 30
0.0
 10
-38.5804
 20
-16.98811
 30
0.0
 10
-38.5804
 20
-16.98811
 30
0.0
 10
-38.57621
 20
-16.99032
 30
0.0
 10
-38.57209
 20
-16.99282
 30
0.0
 10
-38.56866
 20
-16.99609
 30
0.0
 10
-38.56866
 20
-16.99609
 30
0.0
 10
-38.56761
 20
-16.99615
 30
0.0
 10
-38.56697
 20
-16.99644
 30
0.0
 10
-38.56597
 20
-16.99661
 30
0.0
 10
-38.56597
 20
-16.99661
 30
0.0
 10
-38.16394
 20
-16.81158
 30
0.0
 10
-37.83812
 20
-16.47488
 30
0.0
 10
-37.47941
 20
-16.22161
 30
0.0
 10
-37.47941
 20
-16.22161
 30
0.0
 10
-37.07503
 20
-15.93624
 30
0.0
 10
-36.67388
 20
-15.64535
 30
0.0
 10
-36.25746
 20
-15.37753
 30
0.0
 10
-36.25746
 20
-15.37753
 30
0.0
 10
-35.50789
 20
-14.89526
 30
0.0
 10
-34.75315
 20
-14.26599
 30
0.0
 10
-33.84276
 20
-14.13784
 30
0.0
 10
-33.84276
 20
-14.13784
 30
0.0
 10
-33.78209
 20
-14.12929
 30
0.0
 10
-33.76521
 20
-14.23147
 30
0.0
 10
-33.82512
 20
-14.24375
 30
0.0
  0
SPLINE
  5
71
330
1F
100
AcDbEntity
  8
Layer 1
370
     9
100
AcDbSpline
210
0.0
220
0.0
230
1.0
 70
    11
 71
     3
 72
    52
 73
    48
 74
     0
 42
0.000000001
 43
0.0000000001
 40
0.0
 40
0.0
 40
0.0
 40
0.0
 40
0.0769230769230769
 40
0.0769230769230769
 40
0.0769230769230769
 40
0.0769230769230769
 40
0.1538461538461539
 40
0.1538461538461539
 40
0.1538461538461539
 40
0.1538461538461539
 40
0.2307692307692308
 40
0.2307692307692308
 40
0.2307692307692308
 40
0.2307692307692308
 40
0.3076923076923077
 40
0.3076923076923077
 40
0.3076923076923077
 40
0.3076923076923077
 40
0.3846153846153846
 40
0.3846153846153846
 40
0.3846153846153846
 40
0.3846153846153846
 40
0.4615384615384616
 40
0.4615384615384616
 40
0.4615384615384616
 40
0.4615384615384616
 40
0.5384615384615384
 40
0.5384615384615384
 40
0.5384615384615384
 40
0.5384615384615384
 40
0.6153846153846154
 40
0.6153846153846154
 40
0.6153846153846154
 40
0.6153846153846154
 40
0.6923076923076923
 40
0.6923076923076923
 40
0.6923076923076923
 40
0.6923076923076923
 40
0.7692307692307693
 40
0.7692307692307693
 40
0.7692307692307693
 40
0.7692307692307693
 40
0.8461538461538461
 40
0.8461538461538461
 40
0.8461538461538461
 40
0.8461538461538461
 40
1.0
 40
1.0
 40
1.0
 40
1.0
 10
-40.76688
 20
-12.52691
 30
0.0
 10
-40.76688
 20
-12.52691
 30
0.0
 10
-40.76688
 20
-12.52691
 30
0.0
 10
-40.76688
 20
-12.52691
 30
0.0
 10
-40.76688
 20
-12.52691
 30
0.0
 10
-40.75652
 20
-12.52686
 30
0.0
 10
-40.74585
 20
-12.52691
 30
0.0
 10
-40.73556
 20
-12.52679
 30
0.0
 10
-40.73556
 20
-12.52679
 30
0.0
 10
-40.17661
 20
-12.52441
 30
0.0
 10
-39.61964
 20
-12.65849
 30
0.0
 10
-39.10623
 20
-12.87578
 30
0.0
 10
-39.10623
 20
-12.87578
 30
0.0
 10
-38.61598
 20
-13.08312
 30
0.0
 10
-38.18635
 20
-13.43992
 30
0.0
 10
-37.97669
 20
-13.93953
 30
0.0
 10
-37.97669
 20
-13.93953
 30
0.0
 10
-37.86915
 20
-14.1956
 30
0.0
 10
-37.82898
 20
-14.46762
 30
0.0
 10
-37.80685
 20
-14.74296
 30
0.0
 10
-37.80685
 20
-14.74296
 30
0.0
 10
-37.78776
 20
-14.98173
 30
0.0
 10
-37.75609
 20
-15.21142
 30
0.0
 10
-37.70868
 20
-15.44257
 30
0.0
 10
-37.70868
 20
-15.44257
 30
0.0
 10
-37.72068
 20
-15.27476
 30
0.0
 10
-37.70805
 20
-15.10179
 30
0.0
 10
-37.70787
 20
-14.93993
 30
0.0
 10
-37.70787
 20
-14.93993
 30
0.0
 10
-37.70723
 20
-14.60806
 30
0.0
 10
-37.66089
 20
-14.27693
 30
0.0
 10
-37.66956
 20
-13.945
 30
0.0
 10
-37.66956
 20
-13.945
 30
0.0
 10
-37.679
 20
-13.5853
 30
0.0
 10
-37.75811
 20
-13.2157
 30
0.0
 10
-38.00586
 20
-12.94024
 30
0.0
 10
-38.00586
 20
-12.94024
 30
0.0
 10
-38.21343
 20
-12.70938
 30
0.0
 10
-38.47979
 20
-12.55479
 30
0.0
 10
-38.78209
 20
-12.48395
 30
0.0
 10
-38.78209
 20
-12.48395
 30
0.0
 10
-39.41236
 20
-12.33593
 30
0.0
 10
-40.12368
 20
-12.40773
 30
0.0
 10
-40.7533
 20
-12.52424
 30
0.0
 10
-40.7533
 20
-12.52424
 30
0.0
 10
-40.75792
 20
-12.52505
 30
0.0
 10
-40.7624
 20
-12.52605
 30
0.0
 10
-40.76688
 20
-12.52691
 30
0.0
  0
SPLINE
  5
72
330
1F
100
AcDbEntity
  8
Layer 1
370
     9
100
AcDbSpline
210
0.0
220
0.0
230
1.0
 70
    11
 71
     3
 72
    40
 73
    36
 74
     0
 42
0.000000001
 43
0.0000000001
 40
0.0
 40
0.0
 40
0.0
 40
0.0
 40
0.1
 40
0.1
 40
0.1
 40
0.1
 40
0.2
 40
0.2
 40
0.2
 40
0.2
 40
0.3
 40
0.3
 40
0.3
 40
0.3
 40
0.4
 40
0.4
 40
0.4
 40
0.4
 40
0.5
 40
0.5
 40
0.5
 40
0.5
 40
0.6
 40
0.6
 40
0.6
 40
0.6
 40
0.7
 40
0.7
 40
0.7
 40
0.7
 40
0.8
 40
0.8
 40
0.8
 40
0.8
 40
1.0
 40
1.0
 40
1.0
 40
1.0
 10
-41.13601
 20
-12.64947
 30
0.0
 10
-41.13601
 20
-12.64947
 30
0.0
 10
-41.13601
 20
-12.64947
 30
0.0
 10
-41.13601
 20
-12.64947
 30
0.0
 10
-41.13601
 20
-12.64947
 30
0.0
 10
-40.56909
 20
-12.67502
 30
0.0
 10
-39.99909
 20
-12.84173
 30
0.0
 10
-39.5312
 20
-13.11386
 30
0.0
 10
-39.5312
 20
-13.11386
 30
0.0
 10
-39.07962
 20
-13.37639
 30
0.0
 10
-38.72661
 20
-13.73098
 30
0.0
 10
-38.45634
 20
-14.17818
 30
0.0
 10
-38.45634
 20
-14.17818
 30
0.0
 10
-38.19643
 20
-14.60799
 30
0.0
 10
-37.98187
 20
-15.06488
 30
0.0
 10
-37.75685
 20
-15.51419
 30
0.0
 10
-37.75685
 20
-15.51419
 30
0.0
 10
-37.75347
 20
-15.5189
 30
0.0
 10
-37.7502
 20
-15.52357
 30
0.0
 10
-37.74682
 20
-15.52834
 30
0.0
 10
-37.74682
 20
-15.52834
 30
0.0
 10
-37.94868
 20
-15.12514
 30
0.0
 10
-37.87784
 20
-14.61877
 30
0.0
 10
-38.00266
 20
-14.19351
 30
0.0
 10
-38.00266
 20
-14.19351
 30
0.0
 10
-38.16271
 20
-13.64904
 30
0.0
 10
-38.58671
 20
-13.22047
 30
0.0
 10
-39.1046
 20
-13.00237
 30
0.0
 10
-39.1046
 20
-13.00237
 30
0.0
 10
-39.61254
 20
-12.78868
 30
0.0
 10
-40.17614
 20
-12.62968
 30
0.0
 10
-40.73171
 20
-12.6412
 30
0.0
 10
-40.73171
 20
-12.6412
 30
0.0
 10
-40.86236
 20
-12.64382
 30
0.0
 10
-40.99831
 20
-12.64523
 30
0.0
 10
-41.13601
 20
-12.64947
 30
0.0
  0
SPLINE
  5
73
330
1F
100
AcDbEntity
  8
Layer 1
370
     9
100
AcDbSpline
210
0.0
220
0.0
230
1.0
 70
    11
 71
     3
 72
    44
 73
    40
 74
     0
 42
0.000000001
 43
0.0000000001
 40
0.0
 40
0.0
 40
0.0
 40
0.0
 40
0.0909090909090909
 40
0.0909090909090909
 40
0.0909090909090909
 40
0.0909090909090909
 40
0.1818181818181818
 40
0.1818181818181818
 40
0.1818181818181818
 40
0.1818181818181818
 40
0.2727272727272727
 40
0.2727272727272727
 40
0.2727272727272727
 40
0.2727272727272727
 40
0.3636363636363636
 40
0.3636363636363636
 40
0.3636363636363636
 40
0.3636363636363636
 40
0.4545454545454545
 40
0.4545454545454545
 40
0.4545454545454545
 40
0.4545454545454545
 40
0.5454545454545454
 40
0.5454545454545454
 40
0.5454545454545454
 40
0.5454545454545454
 40
0.6363636363636364
 40
0.6363636363636364
 40
0.6363636363636364
 40
0.6363636363636364
 40
0.7272727272727273
 40
0.7272727272727273
 40
0.7272727272727273
 40
0.7272727272727273
 40
0.8181818181818182
 40
0.8181818181818182
 40
0.8181818181818182
 40
0.8181818181818182
 40
1.0
 40
1.0
 40
1.0
 40
1.0
 10
-37.84231
 20
-15.61451
 30
0.0
 10
-37.84231
 20
-15.61451
 30
0.0
 10
-37.84231
 20
-15.61451
 30
0.0
 10
-37.84231
 20
-15.61451
 30
0.0
 10
-37.84231
 20
-15.61451
 30
0.0
 10
-38.6356
 20
-15.19913
 30
0.0
 10
-39.2055
 20
-14.50464
 30
0.0
 10
-39.90261
 20
-13.95793
 30
0.0
 10
-39.90261
 20
-13.95793
 30
0.0
 10
-40.22971
 20
-13.70122
 30
0.0
 10
-40.5804
 20
-13.4925
 30
0.0
 10
-40.95966
 20
-13.32155
 30
0.0
 10
-40.95966
 20
-13.32155
 30
0.0
 10
-41.15535
 20
-13.2334
 30
0.0
 10
-41.34359
 20
-13.18029
 30
0.0
 10
-41.55073
 20
-13.12336
 30
0.0
 10
-41.55073
 20
-13.12336
 30
0.0
 10
-41.62672
 20
-13.10245
 30
0.0
 10
-41.67431
 20
-13.15567
 30
0.0
 10
-41.75814
 20
-13.12767
 30
0.0
 10
-41.75814
 20
-13.12767
 30
0.0
 10
-41.37936
 20
-13.28743
 30
0.0
 10
-41.02626
 20
-13.51898
 30
0.0
 10
-40.67419
 20
-13.77853
 30
0.0
 10
-40.67419
 20
-13.77853
 30
0.0
 10
-40.21555
 20
-14.11653
 30
0.0
 10
-39.78669
 20
-14.40987
 30
0.0
 10
-39.32713
 20
-14.74639
 30
0.0
 10
-39.32713
 20
-14.74639
 30
0.0
 10
-39.01795
 20
-14.97265
 30
0.0
 10
-38.69675
 20
-15.15529
 30
0.0
 10
-38.35818
 20
-15.33248
 30
0.0
 10
-38.35818
 20
-15.33248
 30
0.0
 10
-38.17559
 20
-15.42801
 30
0.0
 10
-37.99445
 20
-15.52343
 30
0.0
 10
-37.82374
 20
-15.63535
 30
0.0
 10
-37.82374
 20
-15.63535
 30
0.0
 10
-37.8309
 20
-15.62632
 30
0.0
 10
-37.83503
 20
-15.62359
 30
0.0
 10
-37.84231
 20
-15.61451
 30
0.0
  0
SPLINE
  5
74
330
1F
100
AcDbEntity
  8
Layer 1
370
     9
100
AcDbSpline
210
0.0
220
0.0
230
1.0
 70
    11
 71
     3
 72
    40
 73
    36
 74
     0
 42
0.000000001
 43
0.0000000001
 40
0.0
 40
0.0
 40
0.0
 40
0.0
 40
0.1
 40
0.1
 40
0.1
 40
0.1
 40
0.2
 40
0.2
 40
0.2
 40
0.2
 40
0.3
 40
0.3
 40
0.3
 40
0.3
 40
0.4
 40
0.4
 40
0.4
 40
0.4
 40
0.5
 40
0.5
 40
0.5
 40
0.5
 40
0.6
 40
0.6
 40
0.6
 40
0.6
 40
0.7
 40
0.7
 40
0.7
 40
0.7
 40
0.8
 40
0.8
 40
0.8
 40
0.8
 40
1.0
 40
1.0
 40
1.0
 40
1.0
 10
-41.28425
 20
-12.76808
 30
0.0
 10
-41.28425
 20
-12.76808
 30
0.0
 10
-41.28425
 20
-12.76808
 30
0.0
 10
-41.28425
 20
-12.76808
 30
0.0
 10
-41.28425
 20
-12.76808
 30
0.0
 10
-40.88548
 20
-12.79113
 30
0.0
 10
-40.4948
 20
-12.88738
 30
0.0
 10
-40.14046
 20
-13.08604
 30
0.0
 10
-40.14046
 20
-13.08604
 30
0.0
 10
-39.62419
 20
-13.37558
 30
0.0
 10
-39.21447
 20
-13.81551
 30
0.0
 10
-38.81936
 20
-14.24892
 30
0.0
 10
-38.81936
 20
-14.24892
 30
0.0
 10
-38.59636
 20
-14.49347
 30
0.0
 10
-38.37866
 20
-14.74319
 30
0.0
 10
-38.17052
 20
-15.0006
 30
0.0
 10
-38.17052
 20
-15.0006
 30
0.0
 10
-38.13332
 20
-15.04659
 30
0.0
 10
-38.09512
 20
-15.09283
 30
0.0
 10
-38.05646
 20
-15.13929
 30
0.0
 10
-38.05646
 20
-15.13929
 30
0.0
 10
-38.20871
 20
-14.85561
 30
0.0
 10
-38.34735
 20
-14.56363
 30
0.0
 10
-38.51503
 20
-14.28957
 30
0.0
 10
-38.51503
 20
-14.28957
 30
0.0
 10
-38.78769
 20
-13.84392
 30
0.0
 10
-39.12235
 20
-13.46914
 30
0.0
 10
-39.58197
 20
-13.21161
 30
0.0
 10
-39.58197
 20
-13.21161
 30
0.0
 10
-39.97859
 20
-12.98932
 30
0.0
 10
-40.41643
 20
-12.84342
 30
0.0
 10
-40.86877
 20
-12.79108
 30
0.0
 10
-40.86877
 20
-12.79108
 30
0.0
 10
-41.0085
 20
-12.77489
 30
0.0
 10
-41.14661
 20
-12.76796
 30
0.0
 10
-41.28425
 20
-12.76808
 30
0.0
  0
SPLINE
  5
75
330
1F
100
AcDbEntity
  8
Layer 1
370
     9
100
AcDbSpline
210
0.0
220
0.0
230
1.0
 70
    11
 71
     3
 72
    48
 73
    44
 74
     0
 42
0.000000001
 43
0.0000000001
 40
0.0
 40
0.0
 40
0.0
 40
0.0
 40
0.0833333333333333
 40
0.0833333333333333
 40
0.0833333333333333
 40
0.0833333333333333
 40
0.1666666666666667
 40
0.1666666666666667
 40
0.1666666666666667
 40
0.1666666666666667
 40
0.25
 40
0.25
 40
0.25
 40
0.25
 40
0.3333333333333333
 40
0.3333333333333333
 40
0.3333333333333333
 40
0.3333333333333333
 40
0.4166666666666667
 40
0.4166666666666667
 40
0.4166666666666667
 40
0.4166666666666667
 40
0.5
 40
0.5
 40
0.5
 40
0.5
 40
0.5833333333333334
 40
0.5833333333333334
 40
0.5833333333333334
 40
0.5833333333333334
 40
0.6666666666666666
 40
0.6666666666666666
 40
0.6666666666666666
 40
0.6666666666666666
 40
0.75
 40
0.75
 40
0.75
 40
0.75
 40
0.8333333333333334
 40
0.8333333333333334
 40
0.8333333333333334
 40
0.8333333333333334
 40
1.0
 40
1.0
 40
1.0
 40
1.0
 10
-41.87172
 20
-12.88295
 30
0.0
 10
-41.87172
 20
-12.88295
 30
0.0
 10
-41.87172
 20
-12.88295
 30
0.0
 10
-41.87172
 20
-12.88295
 30
0.0
 10
-41.87172
 20
-12.88295
 30
0.0
 10
-41.76111
 20
-12.90269
 30
0.0
 10
-41.65094
 20
-12.93412
 30
0.0
 10
-41.55004
 20
-12.96346
 30
0.0
 10
-41.55004
 20
-12.96346
 30
0.0
 10
-41.35302
 20
-13.02087
 30
0.0
 10
-41.15878
 20
-13.09016
 30
0.0
 10
-40.97183
 20
-13.17505
 30
0.0
 10
-40.97183
 20
-13.17505
 30
0.0
 10
-40.60047
 20
-13.34391
 30
0.0
 10
-40.24536
 20
-13.5541
 30
0.0
 10
-39.92292
 20
-13.80451
 30
0.0
 10
-39.92292
 20
-13.80451
 30
0.0
 10
-39.55978
 20
-14.0866
 30
0.0
 10
-39.23595
 20
-14.41649
 30
0.0
 10
-38.89406
 20
-14.72328
 30
0.0
 10
-38.89406
 20
-14.72328
 30
0.0
 10
-38.57442
 20
-15.01008
 30
0.0
 10
-38.24086
 20
-15.28181
 30
0.0
 10
-37.89791
 20
-15.54045
 30
0.0
 10
-37.89791
 20
-15.54045
 30
0.0
 10
-38.00814
 20
-15.39756
 30
0.0
 10
-38.11415
 20
-15.25037
 30
0.0
 10
-38.22762
 20
-15.11255
 30
0.0
 10
-38.22762
 20
-15.11255
 30
0.0
 10
-38.44505
 20
-14.84845
 30
0.0
 10
-38.66681
 20
-14.58761
 30
0.0
 10
-38.89825
 20
-14.33567
 30
0.0
 10
-38.89825
 20
-14.33567
 30
0.0
 10
-39.27472
 20
-13.92597
 30
0.0
 10
-39.66291
 20
-13.48445
 30
0.0
 10
-40.15192
 20
-13.20615
 30
0.0
 10
-40.15192
 20
-13.20615
 30
0.0
 10
-40.52956
 20
-12.99125
 30
0.0
 10
-40.9472
 20
-12.86985
 30
0.0
 10
-41.38254
 20
-12.85983
 30
0.0
 10
-41.38254
 20
-12.85983
 30
0.0
 10
-41.54754
 20
-12.85587
 30
0.0
 10
-41.71022
 20
-12.86554
 30
0.0
 10
-41.87172
 20
-12.88295
 30
0.0
  0
SPLINE
  5
76
330
1F
100
AcDbEntity
  8
Layer 1
370
     9
100
AcDbSpline
210
0.0
220
0.0
230
1.0
 70
    11
 71
     3
 72
    48
 73
    44
 74
     0
 42
0.000000001
 43
0.0000000001
 40
0.0
 40
0.0
 40
0.0
 40
0.0
 40
0.0833333333333333
 40
0.0833333333333333
 40
0.0833333333333333
 40
0.0833333333333333
 40
0.1666666666666667
 40
0.1666666666666667
 40
0.1666666666666667
 40
0.1666666666666667
 40
0.25
 40
0.25
 40
0.25
 40
0.25
 40
0.3333333333333333
 40
0.3333333333333333
 40
0.3333333333333333
 40
0.3333333333333333
 40
0.4166666666666667
 40
0.4166666666666667
 40
0.4166666666666667
 40
0.4166666666666667
 40
0.5
 40
0.5
 40
0.5
 40
0.5
 40
0.5833333333333334
 40
0.5833333333333334
 40
0.5833333333333334
 40
0.5833333333333334
 40
0.6666666666666666
 40
0.6666666666666666
 40
0.6666666666666666
 40
0.6666666666666666
 40
0.75
 40
0.75
 40
0.75
 40
0.75
 40
0.8333333333333334
 40
0.8333333333333334
 40
0.8333333333333334
 40
0.8333333333333334
 40
1.0
 40
1.0
 40
1.0
 40
1.0
 10
-37.66327
 20
-15.82049
 30
0.0
 10
-37.66327
 20
-15.82049
 30
0.0
 10
-37.66327
 20
-15.82049
 30
0.0
 10
-37.66327
 20
-15.82049
 30
0.0
 10
-37.66327
 20
-15.82049
 30
0.0
 10
-37.6635
 20
-15.82039
 30
0.0
 10
-37.66379
 20
-15.82021
 30
0.0
 10
-37.66403
 20
-15.81992
 30
0.0
 10
-37.66403
 20
-15.81992
 30
0.0
 10
-37.66694
 20
-15.81689
 30
0.0
 10
-37.66979
 20
-15.81356
 30
0.0
 10
-37.67265
 20
-15.81049
 30
0.0
 10
-37.67265
 20
-15.81049
 30
0.0
 10
-38.21617
 20
-15.51064
 30
0.0
 10
-38.79205
 20
-15.26814
 30
0.0
 10
-39.29813
 20
-14.90517
 30
0.0
 10
-39.29813
 20
-14.90517
 30
0.0
 10
-39.75082
 20
-14.58051
 30
0.0
 10
-40.19326
 20
-14.23944
 30
0.0
 10
-40.64077
 20
-13.90774
 30
0.0
 10
-40.64077
 20
-13.90774
 30
0.0
 10
-40.98445
 20
-13.65307
 30
0.0
 10
-41.33247
 20
-13.39822
 30
0.0
 10
-41.7112
 20
-13.19741
 30
0.0
 10
-41.7112
 20
-13.19741
 30
0.0
 10
-41.91534
 20
-13.0893
 30
0.0
 10
-42.12663
 20
-12.99054
 30
0.0
 10
-42.34654
 20
-12.95265
 30
0.0
 10
-42.34654
 20
-12.95265
 30
0.0
 10
-42.4156
 20
-12.96475
 30
0.0
 10
-42.48477
 20
-12.97744
 30
0.0
 10
-42.55399
 20
-12.99013
 30
0.0
 10
-42.55399
 20
-12.99013
 30
0.0
 10
-41.65677
 20
-13.14536
 30
0.0
 10
-40.94644
 20
-13.86349
 30
0.0
 10
-40.29765
 20
-14.44859
 30
0.0
 10
-40.29765
 20
-14.44859
 30
0.0
 10
-39.88974
 20
-14.81656
 30
0.0
 10
-39.46262
 20
-15.17235
 30
0.0
 10
-38.96899
 20
-15.42092
 30
0.0
 10
-38.96899
 20
-15.42092
 30
0.0
 10
-38.55497
 20
-15.62935
 30
0.0
 10
-38.11934
 20
-15.76303
 30
0.0
 10
-37.66327
 20
-15.82049
 30
0.0
  0
SPLINE
  5
77
330
1F
100
AcDbEntity
  8
Layer 1
370
     9
100
AcDbSpline
210
0.0
220
0.0
230
1.0
 70
    11
 71
     3
 72
    48
 73
    44
 74
     0
 42
0.000000001
 43
0.0000000001
 40
0.0
 40
0.0
 40
0.0
 40
0.0
 40
0.0833333333333333
 40
0.0833333333333333
 40
0.0833333333333333
 40
0.0833333333333333
 40
0.1666666666666667
 40
0.1666666666666667
 40
0.1666666666666667
 40
0.1666666666666667
 40
0.25
 40
0.25
 40
0.25
 40
0.25
 40
0.3333333333333333
 40
0.3333333333333333
 40
0.3333333333333333
 40
0.3333333333333333
 40
0.4166666666666667
 40
0.4166666666666667
 40
0.4166666666666667
 40
0.4166666666666667
 40
0.5
 40
0.5
 40
0.5
 40
0.5
 40
0.5833333333333334
 40
0.5833333333333334
 40
0.5833333333333334
 40
0.5833333333333334
 40
0.6666666666666666
 40
0.6666666666666666
 40
0.6666666666666666
 40
0.6666666666666666
 40
0.75
 40
0.75
 40
0.75
 40
0.75
 40
0.8333333333333334
 40
0.8333333333333334
 40
0.8333333333333334
 40
0.8333333333333334
 40
1.0
 40
1.0
 40
1.0
 40
1.0
 10
-38.65179
 20
-16.9703
 30
0.0
 10
-38.65179
 20
-16.9703
 30
0.0
 10
-38.65179
 20
-16.9703
 30
0.0
 10
-38.65179
 20
-16.9703
 30
0.0
 10
-38.65179
 20
-16.9703
 30
0.0
 10
-39.08551
 20
-16.80989
 30
0.0
 10
-39.50913
 20
-16.62771
 30
0.0
 10
-39.97049
 20
-16.55591
 30
0.0
 10
-39.97049
 20
-16.55591
 30
0.0
 10
-40.44205
 20
-16.48233
 30
0.0
 10
-40.86377
 20
-16.58294
 30
0.0
 10
-41.28553
 20
-16.79539
 30
0.0
 10
-41.28553
 20
-16.79539
 30
0.0
 10
-41.78114
 20
-17.04476
 30
0.0
 10
-42.24936
 20
-17.31743
 30
0.0
 10
-42.65308
 20
-17.70333
 30
0.0
 10
-42.65308
 20
-17.70333
 30
0.0
 10
-42.83067
 20
-17.87311
 30
0.0
 10
-42.99859
 20
-18.08091
 30
0.0
 10
-43.19771
 20
-18.2313
 30
0.0
 10
-43.19771
 20
-18.2313
 30
0.0
 10
-42.5126
 20
-17.86497
 30
0.0
 10
-41.93094
 20
-17.31114
 30
0.0
 10
-41.17183
 20
-17.0914
 30
0.0
 10
-41.17183
 20
-17.0914
 30
0.0
 10
-40.48701
 20
-16.89316
 30
0.0
 10
-39.73533
 20
-16.83796
 30
0.0
 10
-39.08125
 20
-17.16622
 30
0.0
 10
-39.08125
 20
-17.16622
 30
0.0
 10
-39.06937
 20
-17.17215
 30
0.0
 10
-39.0621
 20
-17.18065
 30
0.0
 10
-39.05819
 20
-17.19008
 30
0.0
 10
-39.05819
 20
-17.19008
 30
0.0
 10
-38.94344
 20
-17.10048
 30
0.0
 10
-38.8104
 20
-17.03609
 30
0.0
 10
-38.65639
 20
-17.00792
 30
0.0
 10
-38.65639
 20
-17.00792
 30
0.0
 10
-38.65081
 20
-16.99865
 30
0.0
 10
-38.64347
 20
-16.99189
 30
0.0
 10
-38.63502
 20
-16.98765
 30
0.0
 10
-38.63502
 20
-16.98765
 30
0.0
 10
-38.64312
 20
-16.98463
 30
0.0
 10
-38.64922
 20
-16.97827
 30
0.0
 10
-38.65179
 20
-16.9703
 30
0.0
  0
SPLINE
  5
78
330
1F
100
AcDbEntity
  8
Layer 1
370
     9
100
AcDbSpline
210
0.0
220
0.0
230
1.0
 70
    11
 71
     3
 72
    36
 73
    32
 74
     0
 42
0.000000001
 43
0.0000000001
 40
0.0
 40
0.0
 40
0.0
 40
0.0
 40
0.1111111111111111
 40
0.1111111111111111
 40
0.1111111111111111
 40
0.1111111111111111
 40
0.2222222222222222
 40
0.2222222222222222
 40
0.2222222222222222
 40
0.2222222222222222
 40
0.3333333333333333
 40
0.3333333333333333
 40
0.3333333333333333
 40
0.3333333333333333
 40
0.4444444444444444
 40
0.4444444444444444
 40
0.4444444444444444
 40
0.4444444444444444
 40
0.5555555555555556
 40
0.5555555555555556
 40
0.5555555555555556
 40
0.5555555555555556
 40
0.6666666666666666
 40
0.6666666666666666
 40
0.6666666666666666
 40
0.6666666666666666
 40
0.7777777777777778
 40
0.7777777777777778
 40
0.7777777777777778
 40
0.7777777777777778
 40
1.0
 40
1.0
 40
1.0
 40
1.0
 10
-39.27187
 20
-21.40954
 30
0.0
 10
-39.27187
 20
-21.40954
 30
0.0
 10
-39.27187
 20
-21.40954
 30
0.0
 10
-39.27187
 20
-21.40954
 30
0.0
 10
-39.27187
 20
-21.40954
 30
0.0
 10
-39.21662
 20
-21.12827
 30
0.0
 10
-39.16282
 20
-20.84716
 30
0.0
 10
-39.12456
 20
-20.5621
 30
0.0
 10
-39.12456
 20
-20.5621
 30
0.0
 10
-39.06803
 20
-20.14208
 30
0.0
 10
-39.03245
 20
-19.72008
 30
0.0
 10
-38.99438
 20
-19.29802
 30
0.0
 10
-38.99438
 20
-19.29802
 30
0.0
 10
-38.92865
 20
-18.57051
 30
0.0
 10
-38.87991
 20
-17.82199
 30
0.0
 10
-38.68813
 20
-17.11353
 30
0.0
 10
-38.68813
 20
-17.11353
 30
0.0
 10
-39.07077
 20
-17.2252
 30
0.0
 10
-39.30406
 20
-17.63097
 30
0.0
 10
-39.42448
 20
-17.99125
 30
0.0
 10
-39.42448
 20
-17.99125
 30
0.0
 10
-39.55233
 20
-18.37377
 30
0.0
 10
-39.62977
 20
-18.80573
 30
0.0
 10
-39.57278
 20
-19.20918
 30
0.0
 10
-39.57278
 20
-19.20918
 30
0.0
 10
-39.49668
 20
-19.74796
 30
0.0
 10
-39.30115
 20
-20.2664
 30
0.0
 10
-39.26686
 20
-20.8123
 30
0.0
 10
-39.26686
 20
-20.8123
 30
0.0
 10
-39.2551
 20
-20.99937
 30
0.0
 10
-39.25539
 20
-21.20361
 30
0.0
 10
-39.27187
 20
-21.40954
 30
0.0
  0
SPLINE
  5
79
330
1F
100
AcDbEntity
  8
Layer 1
370
     9
100
AcDbSpline
210
0.0
220
0.0
230
1.0
 70
    11
 71
     3
 72
    40
 73
    36
 74
     0
 42
0.000000001
 43
0.0000000001
 40
0.0
 40
0.0
 40
0.0
 40
0.0
 40
0.1
 40
0.1
 40
0.1
 40
0.1
 40
0.2
 40
0.2
 40
0.2
 40
0.2
 40
0.3
 40
0.3
 40
0.3
 40
0.3
 40
0.4
 40
0.4
 40
0.4
 40
0.4
 40
0.5
 40
0.5
 40
0.5
 40
0.5
 40
0.6
 40
0.6
 40
0.6
 40
0.6
 40
0.7
 40
0.7
 40
0.7
 40
0.7
 40
0.8
 40
0.8
 40
0.8
 40
0.8
 40
1.0
 40
1.0
 40
1.0
 40
1.0
 10
-42.4903
 20
-19.17237
 30
0.0
 10
-42.4903
 20
-19.17237
 30
0.0
 10
-42.4903
 20
-19.17237
 30
0.0
 10
-42.4903
 20
-19.17237
 30
0.0
 10
-42.4903
 20
-19.17237
 30
0.0
 10
-42.72668
 20
-19.31065
 30
0.0
 10
-43.08365
 20
-19.27397
 30
0.0
 10
-43.33249
 20
-19.29586
 30
0.0
 10
-43.33249
 20
-19.29586
 30
0.0
 10
-43.59812
 20
-19.31922
 30
0.0
 10
-43.83286
 20
-19.38896
 30
0.0
 10
-44.06315
 20
-19.48317
 30
0.0
 10
-44.06315
 20
-19.48317
 30
0.0
 10
-43.85029
 20
-19.45114
 30
0.0
 10
-43.63026
 20
-19.45516
 30
0.0
 10
-43.44248
 20
-19.49674
 30
0.0
 10
-43.44248
 20
-19.49674
 30
0.0
 10
-43.24091
 20
-19.54134
 30
0.0
 10
-43.05075
 20
-19.62459
 30
0.0
 10
-42.84989
 20
-19.6714
 30
0.0
 10
-42.84989
 20
-19.6714
 30
0.0
 10
-42.75823
 20
-19.69276
 30
0.0
 10
-42.66374
 20
-19.69533
 30
0.0
 10
-42.57274
 20
-19.71624
 30
0.0
 10
-42.57274
 20
-19.71624
 30
0.0
 10
-42.56045
 20
-19.71903
 30
0.0
 10
-42.51271
 20
-19.7291
 30
0.0
 10
-42.46998
 20
-19.7351
 30
0.0
 10
-42.46998
 20
-19.7351
 30
0.0
 10
-42.4702
 20
-19.61406
 30
0.0
 10
-42.47923
 20
-19.49324
 30
0.0
 10
-42.48989
 20
-19.37015
 30
0.0
 10
-42.48989
 20
-19.37015
 30
0.0
 10
-42.49589
 20
-19.30117
 30
0.0
 10
-42.49594
 20
-19.23525
 30
0.0
 10
-42.4903
 20
-19.17237
 30
0.0
  0
SPLINE
  5
7A
330
1F
100
AcDbEntity
  8
Layer 1
370
     9
100
AcDbSpline
210
0.0
220
0.0
230
1.0
 70
    11
 71
     3
 72
    36
 73
    32
 74
     0
 42
0.000000001
 43
0.0000000001
 40
0.0
 40
0.0
 40
0.0
 40
0.0
 40
0.1111111111111111
 40
0.1111111111111111
 40
0.1111111111111111
 40
0.1111111111111111
 40
0.2222222222222222
 40
0.2222222222222222
 40
0.2222222222222222
 40
0.2222222222222222
 40
0.3333333333333333
 40
0.3333333333333333
 40
0.3333333333333333
 40
0.3333333333333333
 40
0.4444444444444444
 40
0.4444444444444444
 40
0.4444444444444444
 40
0.4444444444444444
 40
0.5555555555555556
 40
0.5555555555555556
 40
0.5555555555555556
 40
0.5555555555555556
 40
0.6666666666666666
 40
0.6666666666666666
 40
0.6666666666666666
 40
0.6666666666666666
 40
0.7777777777777778
 40
0.7777777777777778
 40
0.7777777777777778
 40
0.7777777777777778
 40
1.0
 40
1.0
 40
1.0
 40
1.0
 10
-42.46729
 20
-19.03595
 30
0.0
 10
-42.46729
 20
-19.03595
 30
0.0
 10
-42.46729
 20
-19.03595
 30
0.0
 10
-42.46729
 20
-19.03595
 30
0.0
 10
-42.46729
 20
-19.03595
 30
0.0
 10
-42.42095
 20
-18.85336
 30
0.0
 10
-42.31434
 20
-18.7021
 30
0.0
 10
-42.13909
 20
-18.5856
 30
0.0
 10
-42.13909
 20
-18.5856
 30
0.0
 10
-42.22486
 20
-18.57115
 30
0.0
 10
-42.31044
 20
-18.55811
 30
0.0
 10
-42.39609
 20
-18.54629
 30
0.0
 10
-42.39609
 20
-18.54629
 30
0.0
 10
-42.38364
 20
-18.56656
 30
0.0
 10
-42.3845
 20
-18.59456
 30
0.0
 10
-42.41123
 20
-18.61132
 30
0.0
 10
-42.41123
 20
-18.61132
 30
0.0
 10
-42.76266
 20
-18.83159
 30
0.0
 10
-43.20121
 20
-18.81825
 30
0.0
 10
-43.57535
 20
-18.98215
 30
0.0
 10
-43.57535
 20
-18.98215
 30
0.0
 10
-43.79736
 20
-19.07938
 30
0.0
 10
-43.9658
 20
-19.25226
 30
0.0
 10
-44.14566
 20
-19.40754
 30
0.0
 10
-44.14566
 20
-19.40754
 30
0.0
 10
-43.94926
 20
-19.31671
 30
0.0
 10
-43.73983
 20
-19.25406
 30
0.0
 10
-43.52656
 20
-19.21842
 30
0.0
 10
-43.52656
 20
-19.21842
 30
0.0
 10
-43.16254
 20
-19.1577
 30
0.0
 10
-42.79591
 20
-19.2168
 30
0.0
 10
-42.46729
 20
-19.03595
 30
0.0
  0
SPLINE
  5
7B
330
1F
100
AcDbEntity
  8
Layer 1
370
     9
100
AcDbSpline
210
0.0
220
0.0
230
1.0
 70
    11
 71
     3
 72
    40
 73
    36
 74
     0
 42
0.000000001
 43
0.0000000001
 40
0.0
 40
0.0
 40
0.0
 40
0.0
 40
0.1
 40
0.1
 40
0.1
 40
0.1
 40
0.2
 40
0.2
 40
0.2
 40
0.2
 40
0.3
 40
0.3
 40
0.3
 40
0.3
 40
0.4
 40
0.4
 40
0.4
 40
0.4
 40
0.5
 40
0.5
 40
0.5
 40
0.5
 40
0.6
 40
0.6
 40
0.6
 40
0.6
 40
0.7
 40
0.7
 40
0.7
 40
0.7
 40
0.8
 40
0.8
 40
0.8
 40
0.8
 40
1.0
 40
1.0
 40
1.0
 40
1.0
 10
-39.3843
 20
-17.58618
 30
0.0
 10
-39.3843
 20
-17.58618
 30
0.0
 10
-39.3843
 20
-17.58618
 30
0.0
 10
-39.3843
 20
-17.58618
 30
0.0
 10
-39.3843
 20
-17.58618
 30
0.0
 10
-39.31415
 20
-17.46025
 30
0.0
 10
-39.23083
 20
-17.3463
 30
0.0
 10
-39.13185
 20
-17.25285
 30
0.0
 10
-39.13185
 20
-17.25285
 30
0.0
 10
-39.80666
 20
-16.92698
 30
0.0
 10
-40.62185
 20
-17.00366
 30
0.0
 10
-41.31202
 20
-17.24721
 30
0.0
 10
-41.31202
 20
-17.24721
 30
0.0
 10
-41.99802
 20
-17.48931
 30
0.0
 10
-42.5374
 20
-18.02339
 30
0.0
 10
-43.19695
 20
-18.31293
 30
0.0
 10
-43.19695
 20
-18.31293
 30
0.0
 10
-43.12109
 20
-18.305
 30
0.0
 10
-43.04465
 20
-18.29931
 30
0.0
 10
-42.96912
 20
-18.28888
 30
0.0
 10
-42.96912
 20
-18.28888
 30
0.0
 10
-42.76278
 20
-18.26035
 30
0.0
 10
-42.57111
 20
-18.18856
 30
0.0
 10
-42.37314
 20
-18.1265
 30
0.0
 10
-42.37314
 20
-18.1265
 30
0.0
 10
-42.0181
 20
-18.01542
 30
0.0
 10
-41.65967
 20
-17.92889
 30
0.0
 10
-41.29915
 20
-17.83847
 30
0.0
 10
-41.29915
 20
-17.83847
 30
0.0
 10
-40.96571
 20
-17.75491
 30
0.0
 10
-40.6336
 20
-17.65973
 30
0.0
 10
-40.29387
 20
-17.60418
 30
0.0
 10
-40.29387
 20
-17.60418
 30
0.0
 10
-40.00054
 20
-17.55615
 30
0.0
 10
-39.67775
 20
-17.51212
 30
0.0
 10
-39.3843
 20
-17.58618
 30
0.0
  0
SPLINE
  5
7C
330
1F
100
AcDbEntity
  8
Layer 1
370
     9
100
AcDbSpline
210
0.0
220
0.0
230
1.0
 70
    11
 71
     3
 72
    40
 73
    36
 74
     0
 42
0.000000001
 43
0.0000000001
 40
0.0
 40
0.0
 40
0.0
 40
0.0
 40
0.1
 40
0.1
 40
0.1
 40
0.1
 40
0.2
 40
0.2
 40
0.2
 40
0.2
 40
0.3
 40
0.3
 40
0.3
 40
0.3
 40
0.4
 40
0.4
 40
0.4
 40
0.4
 40
0.5
 40
0.5
 40
0.5
 40
0.5
 40
0.6
 40
0.6
 40
0.6
 40
0.6
 40
0.7
 40
0.7
 40
0.7
 40
0.7
 40
0.8
 40
0.8
 40
0.8
 40
0.8
 40
1.0
 40
1.0
 40
1.0
 40
1.0
 10
-40.38947
 20
-17.71974
 30
0.0
 10
-40.38947
 20
-17.71974
 30
0.0
 10
-40.38947
 20
-17.71974
 30
0.0
 10
-40.38947
 20
-17.71974
 30
0.0
 10
-40.38947
 20
-17.71974
 30
0.0
 10
-40.7217
 20
-17.79008
 30
0.0
 10
-41.04803
 20
-17.88261
 30
0.0
 10
-41.37793
 20
-17.96232
 30
0.0
 10
-41.37793
 20
-17.96232
 30
0.0
 10
-41.73414
 20
-18.04836
 30
0.0
 10
-42.08558
 20
-18.14415
 30
0.0
 10
-42.43469
 20
-18.25564
 30
0.0
 10
-42.43469
 20
-18.25564
 30
0.0
 10
-42.42572
 20
-18.25483
 30
0.0
 10
-42.41688
 20
-18.25412
 30
0.0
 10
-42.40814
 20
-18.25326
 30
0.0
 10
-42.40814
 20
-18.25326
 30
0.0
 10
-42.08972
 20
-18.22199
 30
0.0
 10
-41.77723
 20
-18.1513
 30
0.0
 10
-41.45672
 20
-18.13756
 30
0.0
 10
-41.45672
 20
-18.13756
 30
0.0
 10
-40.83564
 20
-18.11095
 30
0.0
 10
-40.18778
 20
-18.16458
 30
0.0
 10
-39.59874
 20
-17.92907
 30
0.0
 10
-39.59874
 20
-17.92907
 30
0.0
 10
-39.57249
 20
-17.91859
 30
0.0
 10
-39.55192
 20
-17.92929
 30
0.0
 10
-39.5408
 20
-17.94741
 30
0.0
 10
-39.5408
 20
-17.94741
 30
0.0
 10
-39.50366
 20
-17.8373
 30
0.0
 10
-39.46
 20
-17.73005
 30
0.0
 10
-39.40776
 20
-17.62985
 30
0.0
 10
-39.40776
 20
-17.62985
 30
0.0
 10
-39.73994
 20
-17.64219
 30
0.0
 10
-40.06005
 20
-17.64976
 30
0.0
 10
-40.38947
 20
-17.71974
 30
0.0
  0
SPLINE
  5
7D
330
1F
100
AcDbEntity
  8
Layer 1
370
     9
100
AcDbSpline
210
0.0
220
0.0
230
1.0
 70
    11
 71
     3
 72
    52
 73
    48
 74
     0
 42
0.000000001
 43
0.0000000001
 40
0.0
 40
0.0
 40
0.0
 40
0.0
 40
0.0769230769230769
 40
0.0769230769230769
 40
0.0769230769230769
 40
0.0769230769230769
 40
0.1538461538461539
 40
0.1538461538461539
 40
0.1538461538461539
 40
0.1538461538461539
 40
0.2307692307692308
 40
0.2307692307692308
 40
0.2307692307692308
 40
0.2307692307692308
 40
0.3076923076923077
 40
0.3076923076923077
 40
0.3076923076923077
 40
0.3076923076923077
 40
0.3846153846153846
 40
0.3846153846153846
 40
0.3846153846153846
 40
0.3846153846153846
 40
0.4615384615384616
 40
0.4615384615384616
 40
0.4615384615384616
 40
0.4615384615384616
 40
0.5384615384615384
 40
0.5384615384615384
 40
0.5384615384615384
 40
0.5384615384615384
 40
0.6153846153846154
 40
0.6153846153846154
 40
0.6153846153846154
 40
0.6153846153846154
 40
0.6923076923076923
 40
0.6923076923076923
 40
0.6923076923076923
 40
0.6923076923076923
 40
0.7692307692307693
 40
0.7692307692307693
 40
0.7692307692307693
 40
0.7692307692307693
 40
0.8461538461538461
 40
0.8461538461538461
 40
0.8461538461538461
 40
0.8461538461538461
 40
1.0
 40
1.0
 40
1.0
 40
1.0
 10
-42.95904
 20
-18.38641
 30
0.0
 10
-42.95904
 20
-18.38641
 30
0.0
 10
-42.95904
 20
-18.38641
 30
0.0
 10
-42.95904
 20
-18.38641
 30
0.0
 10
-42.95904
 20
-18.38641
 30
0.0
 10
-42.58059
 20
-18.40004
 30
0.0
 10
-42.20343
 20
-18.45383
 30
0.0
 10
-41.83115
 20
-18.53744
 30
0.0
 10
-41.83115
 20
-18.53744
 30
0.0
 10
-41.19052
 20
-18.68131
 30
0.0
 10
-40.53718
 20
-18.78978
 30
0.0
 10
-39.89585
 20
-18.63554
 30
0.0
 10
-39.89585
 20
-18.63554
 30
0.0
 10
-39.88025
 20
-18.61999
 30
0.0
 10
-39.86465
 20
-18.60487
 30
0.0
 10
-39.84939
 20
-18.5888
 30
0.0
 10
-39.84939
 20
-18.5888
 30
0.0
 10
-39.83414
 20
-18.57272
 30
0.0
 10
-39.81614
 20
-18.56994
 30
0.0
 10
-39.80043
 20
-18.57489
 30
0.0
 10
-39.80043
 20
-18.57489
 30
0.0
 10
-39.77614
 20
-18.55794
 30
0.0
 10
-39.75199
 20
-18.54065
 30
0.0
 10
-39.72742
 20
-18.524
 30
0.0
 10
-39.72742
 20
-18.524
 30
0.0
 10
-39.70889
 20
-18.51131
 30
0.0
 10
-39.68829
 20
-18.49336
 30
0.0
 10
-39.66639
 20
-18.48004
 30
0.0
 10
-39.66639
 20
-18.48004
 30
0.0
 10
-39.64433
 20
-18.33319
 30
0.0
 10
-39.61231
 20
-18.18182
 30
0.0
 10
-39.56806
 20
-18.03375
 30
0.0
 10
-39.56806
 20
-18.03375
 30
0.0
 10
-40.14773
 20
-18.26793
 30
0.0
 10
-40.7819
 20
-18.22273
 30
0.0
 10
-41.39407
 20
-18.23771
 30
0.0
 10
-41.39407
 20
-18.23771
 30
0.0
 10
-41.71545
 20
-18.24562
 30
0.0
 10
-42.02817
 20
-18.30943
 30
0.0
 10
-42.34742
 20
-18.33145
 30
0.0
 10
-42.34742
 20
-18.33145
 30
0.0
 10
-42.49868
 20
-18.34181
 30
0.0
 10
-42.65048
 20
-18.34513
 30
0.0
 10
-42.80155
 20
-18.35508
 30
0.0
 10
-42.80155
 20
-18.35508
 30
0.0
 10
-42.85391
 20
-18.36651
 30
0.0
 10
-42.90637
 20
-18.37722
 30
0.0
 10
-42.95904
 20
-18.38641
 30
0.0
  0
SPLINE
  5
7E
330
1F
100
AcDbEntity
  8
Layer 1
370
     9
100
AcDbSpline
210
0.0
220
0.0
230
1.0
 70
    11
 71
     3
 72
    44
 73
    40
 74
     0
 42
0.000000001
 43
0.0000000001
 40
0.0
 40
0.0
 40
0.0
 40
0.0
 40
0.0909090909090909
 40
0.0909090909090909
 40
0.0909090909090909
 40
0.0909090909090909
 40
0.1818181818181818
 40
0.1818181818181818
 40
0.1818181818181818
 40
0.1818181818181818
 40
0.2727272727272727
 40
0.2727272727272727
 40
0.2727272727272727
 40
0.2727272727272727
 40
0.3636363636363636
 40
0.3636363636363636
 40
0.3636363636363636
 40
0.3636363636363636
 40
0.4545454545454545
 40
0.4545454545454545
 40
0.4545454545454545
 40
0.4545454545454545
 40
0.5454545454545454
 40
0.5454545454545454
 40
0.5454545454545454
 40
0.5454545454545454
 40
0.6363636363636364
 40
0.6363636363636364
 40
0.6363636363636364
 40
0.6363636363636364
 40
0.7272727272727273
 40
0.7272727272727273
 40
0.7272727272727273
 40
0.7272727272727273
 40
0.8181818181818182
 40
0.8181818181818182
 40
0.8181818181818182
 40
0.8181818181818182
 40
1.0
 40
1.0
 40
1.0
 40
1.0
 10
-39.70511
 20
-18.92334
 30
0.0
 10
-39.70511
 20
-18.92334
 30
0.0
 10
-39.70511
 20
-18.92334
 30
0.0
 10
-39.70511
 20
-18.92334
 30
0.0
 10
-39.70511
 20
-18.92334
 30
0.0
 10
-39.7032
 20
-18.82937
 30
0.0
 10
-39.69661
 20
-18.72736
 30
0.0
 10
-39.68508
 20
-18.62111
 30
0.0
 10
-39.68508
 20
-18.62111
 30
0.0
 10
-39.71675
 20
-18.63608
 30
0.0
 10
-39.7489
 20
-18.64976
 30
0.0
 10
-39.78121
 20
-18.66262
 30
0.0
 10
-39.78121
 20
-18.66262
 30
0.0
 10
-40.08946
 20
-19.0328
 30
0.0
 10
-40.59628
 20
-19.32991
 30
0.0
 10
-41.05927
 20
-19.44847
 30
0.0
 10
-41.05927
 20
-19.44847
 30
0.0
 10
-41.35144
 20
-19.52322
 30
0.0
 10
-41.68034
 20
-19.5673
 30
0.0
 10
-41.94223
 20
-19.72655
 30
0.0
 10
-41.94223
 20
-19.72655
 30
0.0
 10
-42.04384
 20
-19.78832
 30
0.0
 10
-42.12425
 20
-19.86464
 30
0.0
 10
-42.19731
 20
-19.94749
 30
0.0
 10
-42.19731
 20
-19.94749
 30
0.0
 10
-42.18671
 20
-19.94174
 30
0.0
 10
-42.17588
 20
-19.9362
 30
0.0
 10
-42.16478
 20
-19.93108
 30
0.0
 10
-42.16478
 20
-19.93108
 30
0.0
 10
-41.95418
 20
-19.83356
 30
0.0
 10
-41.72682
 20
-19.81173
 30
0.0
 10
-41.49694
 20
-19.80904
 30
0.0
 10
-41.49694
 20
-19.80904
 30
0.0
 10
-40.83005
 20
-19.80137
 30
0.0
 10
-40.17731
 20
-19.79396
 30
0.0
 10
-39.68089
 20
-19.29598
 30
0.0
 10
-39.68089
 20
-19.29598
 30
0.0
 10
-39.69801
 20
-19.17237
 30
0.0
 10
-39.70773
 20
-19.04812
 30
0.0
 10
-39.70511
 20
-18.92334
 30
0.0
  0
SPLINE
  5
7F
330
1F
100
AcDbEntity
  8
Layer 1
370
     9
100
AcDbSpline
210
0.0
220
0.0
230
1.0
 70
    11
 71
     3
 72
    68
 73
    64
 74
     0
 42
0.000000001
 43
0.0000000001
 40
0.0
 40
0.0
 40
0.0
 40
0.0
 40
0.0588235294117647
 40
0.0588235294117647
 40
0.0588235294117647
 40
0.0588235294117647
 40
0.1176470588235294
 40
0.1176470588235294
 40
0.1176470588235294
 40
0.1176470588235294
 40
0.1764705882352941
 40
0.1764705882352941
 40
0.1764705882352941
 40
0.1764705882352941
 40
0.2352941176470588
 40
0.2352941176470588
 40
0.2352941176470588
 40
0.2352941176470588
 40
0.2941176470588235
 40
0.2941176470588235
 40
0.2941176470588235
 40
0.2941176470588235
 40
0.3529411764705883
 40
0.3529411764705883
 40
0.3529411764705883
 40
0.3529411764705883
 40
0.4117647058823529
 40
0.4117647058823529
 40
0.4117647058823529
 40
0.4117647058823529
 40
0.4705882352941176
 40
0.4705882352941176
 40
0.4705882352941176
 40
0.4705882352941176
 40
0.5294117647058824
 40
0.5294117647058824
 40
0.5294117647058824
 40
0.5294117647058824
 40
0.5882352941176471
 40
0.5882352941176471
 40
0.5882352941176471
 40
0.5882352941176471
 40
0.6470588235294118
 40
0.6470588235294118
 40
0.6470588235294118
 40
0.6470588235294118
 40
0.7058823529411765
 40
0.7058823529411765
 40
0.7058823529411765
 40
0.7058823529411765
 40
0.7647058823529411
 40
0.7647058823529411
 40
0.7647058823529411
 40
0.7647058823529411
 40
0.8235294117647058
 40
0.8235294117647058
 40
0.8235294117647058
 40
0.8235294117647058
 40
0.8823529411764706
 40
0.8823529411764706
 40
0.8823529411764706
 40
0.8823529411764706
 40
1.0
 40
1.0
 40
1.0
 40
1.0
 10
-42.3558
 20
-19.76648
 30
0.0
 10
-42.3558
 20
-19.76648
 30
0.0
 10
-42.3558
 20
-19.76648
 30
0.0
 10
-42.3558
 20
-19.76648
 30
0.0
 10
-42.3558
 20
-19.76648
 30
0.0
 10
-42.35614
 20
-19.76718
 30
0.0
 10
-42.35666
 20
-19.76782
 30
0.0
 10
-42.35702
 20
-19.76851
 30
0.0
 10
-42.35702
 20
-19.76851
 30
0.0
 10
-42.36214
 20
-19.87188
 30
0.0
 10
-42.37525
 20
-19.97318
 30
0.0
 10
-42.39538
 20
-20.07257
 30
0.0
 10
-42.39538
 20
-20.07257
 30
0.0
 10
-42.39528
 20
-20.07233
 30
0.0
 10
-42.39516
 20
-20.07221
 30
0.0
 10
-42.39504
 20
-20.07198
 30
0.0
 10
-42.39504
 20
-20.07198
 30
0.0
 10
-42.39516
 20
-20.06843
 30
0.0
 10
-42.39464
 20
-20.06476
 30
0.0
 10
-42.39307
 20
-20.06097
 30
0.0
 10
-42.39307
 20
-20.06097
 30
0.0
 10
-42.28489
 20
-19.79315
 30
0.0
 10
-42.21269
 20
-19.5121
 30
0.0
 10
-42.05072
 20
-19.26919
 30
0.0
 10
-42.05072
 20
-19.26919
 30
0.0
 10
-41.89694
 20
-19.03857
 30
0.0
 10
-41.64739
 20
-18.88864
 30
0.0
 10
-41.42836
 20
-18.72422
 30
0.0
 10
-41.42836
 20
-18.72422
 30
0.0
 10
-41.49758
 20
-18.71117
 30
0.0
 10
-41.5664
 20
-18.69738
 30
0.0
 10
-41.63436
 20
-18.68288
 30
0.0
 10
-41.63436
 20
-18.68288
 30
0.0
 10
-41.74987
 20
-18.65831
 30
0.0
 10
-41.86522
 20
-18.63514
 30
0.0
 10
-41.98038
 20
-18.61378
 30
0.0
 10
-41.98038
 20
-18.61378
 30
0.0
 10
-41.98433
 20
-18.62484
 30
0.0
 10
-41.99219
 20
-18.63497
 30
0.0
 10
-42.00529
 20
-18.64283
 30
0.0
 10
-42.00529
 20
-18.64283
 30
0.0
 10
-42.16204
 20
-18.73686
 30
0.0
 10
-42.30358
 20
-18.85418
 30
0.0
 10
-42.3534
 20
-19.03345
 30
0.0
 10
-42.3534
 20
-19.03345
 30
0.0
 10
-42.35242
 20
-19.0419
 30
0.0
 10
-42.3544
 20
-19.05057
 30
0.0
 10
-42.35947
 20
-19.05878
 30
0.0
 10
-42.35947
 20
-19.05878
 30
0.0
 10
-42.36075
 20
-19.06454
 30
0.0
 10
-42.36233
 20
-19.07024
 30
0.0
 10
-42.36337
 20
-19.07607
 30
0.0
 10
-42.36337
 20
-19.07607
 30
0.0
 10
-42.39976
 20
-19.27264
 30
0.0
 10
-42.35511
 20
-19.46757
 30
0.0
 10
-42.35464
 20
-19.66512
 30
0.0
 10
-42.35464
 20
-19.66512
 30
0.0
 10
-42.35445
 20
-19.69393
 30
0.0
 10
-42.35545
 20
-19.72253
 30
0.0
 10
-42.35661
 20
-19.75105
 30
0.0
 10
-42.35661
 20
-19.75105
 30
0.0
 10
-42.35423
 20
-19.75594
 30
0.0
 10
-42.3533
 20
-19.76101
 30
0.0
 10
-42.3558
 20
-19.76648
 30
0.0
  0
SPLINE
  5
80
330
1F
100
AcDbEntity
  8
Layer 1
370
     9
100
AcDbSpline
210
0.0
220
0.0
230
1.0
 70
    11
 71
     3
 72
    40
 73
    36
 74
     0
 42
0.000000001
 43
0.0000000001
 40
0.0
 40
0.0
 40
0.0
 40
0.0
 40
0.1
 40
0.1
 40
0.1
 40
0.1
 40
0.2
 40
0.2
 40
0.2
 40
0.2
 40
0.3
 40
0.3
 40
0.3
 40
0.3
 40
0.4
 40
0.4
 40
0.4
 40
0.4
 40
0.5
 40
0.5
 40
0.5
 40
0.5
 40
0.6
 40
0.6
 40
0.6
 40
0.6
 40
0.7
 40
0.7
 40
0.7
 40
0.7
 40
0.8
 40
0.8
 40
0.8
 40
0.8
 40
1.0
 40
1.0
 40
1.0
 40
1.0
 10
-42.22153
 20
-19.82837
 30
0.0
 10
-42.22153
 20
-19.82837
 30
0.0
 10
-42.22153
 20
-19.82837
 30
0.0
 10
-42.22153
 20
-19.82837
 30
0.0
 10
-42.22153
 20
-19.82837
 30
0.0
 10
-42.17955
 20
-19.78156
 30
0.0
 10
-42.1342
 20
-19.73877
 30
0.0
 10
-42.08494
 20
-19.70243
 30
0.0
 10
-42.08494
 20
-19.70243
 30
0.0
 10
-41.86801
 20
-19.54191
 30
0.0
 10
-41.60098
 20
-19.46686
 30
0.0
 10
-41.34206
 20
-19.40421
 30
0.0
 10
-41.34206
 20
-19.40421
 30
0.0
 10
-41.03814
 20
-19.33079
 30
0.0
 10
-40.76507
 20
-19.24178
 30
0.0
 10
-40.49341
 20
-19.08381
 30
0.0
 10
-40.49341
 20
-19.08381
 30
0.0
 10
-40.31727
 20
-18.98151
 30
0.0
 10
-40.1528
 20
-18.86862
 30
0.0
 10
-40.00217
 20
-18.73575
 30
0.0
 10
-40.00217
 20
-18.73575
 30
0.0
 10
-40.42336
 20
-18.84719
 30
0.0
 10
-40.87472
 20
-18.81861
 30
0.0
 10
-41.30806
 20
-18.7456
 30
0.0
 10
-41.30806
 20
-18.7456
 30
0.0
 10
-41.30766
 20
-18.76289
 30
0.0
 10
-41.31418
 20
-18.78058
 30
0.0
 10
-41.33106
 20
-18.79392
 30
0.0
 10
-41.33106
 20
-18.79392
 30
0.0
 10
-41.57199
 20
-18.98465
 30
0.0
 10
-41.8486
 20
-19.14022
 30
0.0
 10
-42.00995
 20
-19.41109
 30
0.0
 10
-42.00995
 20
-19.41109
 30
0.0
 10
-42.08982
 20
-19.54529
 30
0.0
 10
-42.15464
 20
-19.68724
 30
0.0
 10
-42.22153
 20
-19.82837
 30
0.0
  0
SPLINE
  5
81
330
1F
100
AcDbEntity
  8
Layer 1
370
     9
100
AcDbSpline
210
0.0
220
0.0
230
1.0
 70
    11
 71
     3
 72
    44
 73
    40
 74
     0
 42
0.000000001
 43
0.0000000001
 40
0.0
 40
0.0
 40
0.0
 40
0.0
 40
0.0909090909090909
 40
0.0909090909090909
 40
0.0909090909090909
 40
0.0909090909090909
 40
0.1818181818181818
 40
0.1818181818181818
 40
0.1818181818181818
 40
0.1818181818181818
 40
0.2727272727272727
 40
0.2727272727272727
 40
0.2727272727272727
 40
0.2727272727272727
 40
0.3636363636363636
 40
0.3636363636363636
 40
0.3636363636363636
 40
0.3636363636363636
 40
0.4545454545454545
 40
0.4545454545454545
 40
0.4545454545454545
 40
0.4545454545454545
 40
0.5454545454545454
 40
0.5454545454545454
 40
0.5454545454545454
 40
0.5454545454545454
 40
0.6363636363636364
 40
0.6363636363636364
 40
0.6363636363636364
 40
0.6363636363636364
 40
0.7272727272727273
 40
0.7272727272727273
 40
0.7272727272727273
 40
0.7272727272727273
 40
0.8181818181818182
 40
0.8181818181818182
 40
0.8181818181818182
 40
0.8181818181818182
 40
1.0
 40
1.0
 40
1.0
 40
1.0
 10
-42.21478
 20
-20.08043
 30
0.0
 10
-42.21478
 20
-20.08043
 30
0.0
 10
-42.21478
 20
-20.08043
 30
0.0
 10
-42.21478
 20
-20.08043
 30
0.0
 10
-42.21478
 20
-20.08043
 30
0.0
 10
-41.91575
 20
-19.99501
 30
0.0
 10
-41.50027
 20
-20.07471
 30
0.0
 10
-41.2541
 20
-20.14436
 30
0.0
 10
-41.2541
 20
-20.14436
 30
0.0
 10
-40.98888
 20
-20.21911
 30
0.0
 10
-40.72792
 20
-20.30872
 30
0.0
 10
-40.45917
 20
-20.37113
 30
0.0
 10
-40.45917
 20
-20.37113
 30
0.0
 10
-40.2778
 20
-20.41311
 30
0.0
 10
-40.08839
 20
-20.45416
 30
0.0
 10
-39.90115
 20
-20.4484
 30
0.0
 10
-39.90115
 20
-20.4484
 30
0.0
 10
-39.73196
 20
-20.44304
 30
0.0
 10
-39.63152
 20
-20.3957
 30
0.0
 10
-39.49387
 20
-20.30691
 30
0.0
 10
-39.49387
 20
-20.30691
 30
0.0
 10
-39.48003
 20
-20.29795
 30
0.0
 10
-39.46565
 20
-20.29981
 30
0.0
 10
-39.45476
 20
-20.3072
 30
0.0
 10
-39.45476
 20
-20.3072
 30
0.0
 10
-39.51909
 20
-20.01375
 30
0.0
 10
-39.60823
 20
-19.71879
 30
0.0
 10
-39.6611
 20
-19.42087
 30
0.0
 10
-39.6611
 20
-19.42087
 30
0.0
 10
-40.05282
 20
-19.80263
 30
0.0
 10
-40.58733
 20
-19.89853
 30
0.0
 10
-41.12658
 20
-19.91024
 30
0.0
 10
-41.12658
 20
-19.91024
 30
0.0
 10
-41.39767
 20
-19.91612
 30
0.0
 10
-41.69263
 20
-19.88555
 30
0.0
 10
-41.95685
 20
-19.95891
 30
0.0
 10
-41.95685
 20
-19.95891
 30
0.0
 10
-42.05612
 20
-19.98639
 30
0.0
 10
-42.14107
 20
-20.02785
 30
0.0
 10
-42.21478
 20
-20.08043
 30
0.0
  0
SPLINE
  5
82
330
1F
100
AcDbEntity
  8
Layer 1
370
     9
100
AcDbSpline
210
0.0
220
0.0
230
1.0
 70
    11
 71
     3
 72
    52
 73
    48
 74
     0
 42
0.000000001
 43
0.0000000001
 40
0.0
 40
0.0
 40
0.0
 40
0.0
 40
0.0769230769230769
 40
0.0769230769230769
 40
0.0769230769230769
 40
0.0769230769230769
 40
0.1538461538461539
 40
0.1538461538461539
 40
0.1538461538461539
 40
0.1538461538461539
 40
0.2307692307692308
 40
0.2307692307692308
 40
0.2307692307692308
 40
0.2307692307692308
 40
0.3076923076923077
 40
0.3076923076923077
 40
0.3076923076923077
 40
0.3076923076923077
 40
0.3846153846153846
 40
0.3846153846153846
 40
0.3846153846153846
 40
0.3846153846153846
 40
0.4615384615384616
 40
0.4615384615384616
 40
0.4615384615384616
 40
0.4615384615384616
 40
0.5384615384615384
 40
0.5384615384615384
 40
0.5384615384615384
 40
0.5384615384615384
 40
0.6153846153846154
 40
0.6153846153846154
 40
0.6153846153846154
 40
0.6153846153846154
 40
0.6923076923076923
 40
0.6923076923076923
 40
0.6923076923076923
 40
0.6923076923076923
 40
0.7692307692307693
 40
0.7692307692307693
 40
0.7692307692307693
 40
0.7692307692307693
 40
0.8461538461538461
 40
0.8461538461538461
 40
0.8461538461538461
 40
0.8461538461538461
 40
1.0
 40
1.0
 40
1.0
 40
1.0
 10
-43.50909
 20
-18.27788
 30
0.0
 10
-43.50909
 20
-18.27788
 30
0.0
 10
-43.50909
 20
-18.27788
 30
0.0
 10
-43.50909
 20
-18.27788
 30
0.0
 10
-43.50909
 20
-18.27788
 30
0.0
 10
-43.28901
 20
-18.19235
 30
0.0
 10
-43.12104
 20
-18.03276
 30
0.0
 10
-42.94916
 20
-17.85216
 30
0.0
 10
-42.94916
 20
-17.85216
 30
0.0
 10
-42.76924
 20
-17.66287
 30
0.0
 10
-42.58007
 20
-17.48016
 30
0.0
 10
-42.37176
 20
-17.32208
 30
0.0
 10
-42.37176
 20
-17.32208
 30
0.0
 10
-41.98567
 20
-17.02892
 30
0.0
 10
-41.54433
 20
-16.78101
 30
0.0
 10
-41.09566
 20
-16.59609
 30
0.0
 10
-41.09566
 20
-16.59609
 30
0.0
 10
-40.70632
 20
-16.43592
 30
0.0
 10
-40.30406
 20
-16.38813
 30
0.0
 10
-39.88986
 20
-16.47604
 30
0.0
 10
-39.88986
 20
-16.47604
 30
0.0
 10
-39.48375
 20
-16.56227
 30
0.0
 10
-39.0621
 20
-16.68373
 30
0.0
 10
-38.69551
 20
-16.88838
 30
0.0
 10
-38.69551
 20
-16.88838
 30
0.0
 10
-38.80754
 20
-16.73496
 30
0.0
 10
-38.98361
 20
-16.6128
 30
0.0
 10
-39.13342
 20
-16.5151
 30
0.0
 10
-39.13342
 20
-16.5151
 30
0.0
 10
-39.30954
 20
-16.40035
 30
0.0
 10
-39.49527
 20
-16.29374
 30
0.0
 10
-39.68789
 20
-16.20861
 30
0.0
 10
-39.68789
 20
-16.20861
 30
0.0
 10
-40.21662
 20
-15.97496
 30
0.0
 10
-40.74056
 20
-16.08343
 30
0.0
 10
-41.26684
 20
-16.26381
 30
0.0
 10
-41.26684
 20
-16.26381
 30
0.0
 10
-41.86822
 20
-16.47011
 30
0.0
 10
-42.40121
 20
-16.80301
 30
0.0
 10
-42.75759
 20
-17.34286
 30
0.0
 10
-42.75759
 20
-17.34286
 30
0.0
 10
-42.96499
 20
-17.65709
 30
0.0
 10
-43.14466
 20
-18.00685
 30
0.0
 10
-43.44953
 20
-18.22547
 30
0.0
 10
-43.44953
 20
-18.22547
 30
0.0
 10
-43.46846
 20
-18.24406
 30
0.0
 10
-43.48842
 20
-18.26135
 30
0.0
 10
-43.50909
 20
-18.27788
 30
0.0
  0
SPLINE
  5
83
330
1F
100
AcDbEntity
  8
Layer 1
370
     9
100
AcDbSpline
210
0.0
220
0.0
230
1.0
 70
    11
 71
     3
 72
    28
 73
    24
 74
     0
 42
0.000000001
 43
0.0000000001
 40
0.0
 40
0.0
 40
0.0
 40
0.0
 40
0.1428571428571428
 40
0.1428571428571428
 40
0.1428571428571428
 40
0.1428571428571428
 40
0.2857142857142857
 40
0.2857142857142857
 40
0.2857142857142857
 40
0.2857142857142857
 40
0.4285714285714285
 40
0.4285714285714285
 40
0.4285714285714285
 40
0.4285714285714285
 40
0.5714285714285714
 40
0.5714285714285714
 40
0.5714285714285714
 40
0.5714285714285714
 40
0.7142857142857143
 40
0.7142857142857143
 40
0.7142857142857143
 40
0.7142857142857143
 40
1.0
 40
1.0
 40
1.0
 40
1.0
 10
-43.65827
 20
-18.90879
 30
0.0
 10
-43.65827
 20
-18.90879
 30
0.0
 10
-43.65827
 20
-18.90879
 30
0.0
 10
-43.65827
 20
-18.90879
 30
0.0
 10
-43.65827
 20
-18.90879
 30
0.0
 10
-43.27927
 20
-18.74093
 30
0.0
 10
-42.84476
 20
-18.73167
 30
0.0
 10
-42.47825
 20
-18.53546
 30
0.0
 10
-42.47825
 20
-18.53546
 30
0.0
 10
-42.93407
 20
-18.47845
 30
0.0
 10
-43.3909
 20
-18.467
 30
0.0
 10
-43.85739
 20
-18.54372
 30
0.0
 10
-43.85739
 20
-18.54372
 30
0.0
 10
-44.18133
 20
-18.84661
 30
0.0
 10
-44.33423
 20
-19.23402
 30
0.0
 10
-44.54058
 20
-19.61859
 30
0.0
 10
-44.54058
 20
-19.61859
 30
0.0
 10
-44.53702
 20
-19.61842
 30
0.0
 10
-44.53366
 20
-19.6183
 30
0.0
 10
-44.53009
 20
-19.61825
 30
0.0
 10
-44.53009
 20
-19.61825
 30
0.0
 10
-44.24905
 20
-19.38377
 30
0.0
 10
-43.99695
 20
-19.05878
 30
0.0
 10
-43.65827
 20
-18.90879
 30
0.0
  0
SPLINE
  5
84
330
1F
100
AcDbEntity
  8
Layer 1
370
     9
100
AcDbSpline
210
0.0
220
0.0
230
1.0
 70
    11
 71
     3
 72
    24
 73
    20
 74
     0
 42
0.000000001
 43
0.0000000001
 40
0.0
 40
0.0
 40
0.0
 40
0.0
 40
0.1666666666666667
 40
0.1666666666666667
 40
0.1666666666666667
 40
0.1666666666666667
 40
0.3333333333333333
 40
0.3333333333333333
 40
0.3333333333333333
 40
0.3333333333333333
 40
0.5
 40
0.5
 40
0.5
 40
0.5
 40
0.6666666666666666
 40
0.6666666666666666
 40
0.6666666666666666
 40
0.6666666666666666
 40
1.0
 40
1.0
 40
1.0
 40
1.0
 10
-42.52273
 20
-20.18372
 30
0.0
 10
-42.52273
 20
-20.18372
 30
0.0
 10
-42.52273
 20
-20.18372
 30
0.0
 10
-42.52273
 20
-20.18372
 30
0.0
 10
-42.52273
 20
-20.18372
 30
0.0
 10
-42.8206
 20
-20.19635
 30
0.0
 10
-43.09925
 20
-20.10353
 30
0.0
 10
-43.37599
 20
-20.00071
 30
0.0
 10
-43.37599
 20
-20.00071
 30
0.0
 10
-43.28499
 20
-20.06214
 30
0.0
 10
-43.19957
 20
-20.13043
 30
0.0
 10
-43.12494
 20
-20.1897
 30
0.0
 10
-43.12494
 20
-20.1897
 30
0.0
 10
-42.95916
 20
-20.3217
 30
0.0
 10
-42.80267
 20
-20.46807
 30
0.0
 10
-42.70344
 20
-20.6559
 30
0.0
 10
-42.70344
 20
-20.6559
 30
0.0
 10
-42.63253
 20
-20.50214
 30
0.0
 10
-42.56564
 20
-20.34679
 30
0.0
 10
-42.52273
 20
-20.18372
 30
0.0
  0
SPLINE
  5
85
330
1F
100
AcDbEntity
  8
Layer 1
370
     9
100
AcDbSpline
210
0.0
220
0.0
230
1.0
 70
    11
 71
     3
 72
    40
 73
    36
 74
     0
 42
0.000000001
 43
0.0000000001
 40
0.0
 40
0.0
 40
0.0
 40
0.0
 40
0.1
 40
0.1
 40
0.1
 40
0.1
 40
0.2
 40
0.2
 40
0.2
 40
0.2
 40
0.3
 40
0.3
 40
0.3
 40
0.3
 40
0.4
 40
0.4
 40
0.4
 40
0.4
 40
0.5
 40
0.5
 40
0.5
 40
0.5
 40
0.6
 40
0.6
 40
0.6
 40
0.6
 40
0.7
 40
0.7
 40
0.7
 40
0.7
 40
0.8
 40
0.8
 40
0.8
 40
0.8
 40
1.0
 40
1.0
 40
1.0
 40
1.0
 10
-42.51353
 20
-20.14517
 30
0.0
 10
-42.51353
 20
-20.14517
 30
0.0
 10
-42.51353
 20
-20.14517
 30
0.0
 10
-42.51353
 20
-20.14517
 30
0.0
 10
-42.51353
 20
-20.14517
 30
0.0
 10
-42.50415
 20
-20.10586
 30
0.0
 10
-42.49589
 20
-20.06633
 30
0.0
 10
-42.48972
 20
-20.02616
 30
0.0
 10
-42.48972
 20
-20.02616
 30
0.0
 10
-42.47858
 20
-19.95256
 30
0.0
 10
-42.47306
 20
-19.8799
 30
0.0
 10
-42.47103
 20
-19.80735
 30
0.0
 10
-42.47103
 20
-19.80735
 30
0.0
 10
-42.51627
 20
-19.80537
 30
0.0
 10
-42.56314
 20
-19.79554
 30
0.0
 10
-42.58969
 20
-19.79146
 30
0.0
 10
-42.58969
 20
-19.79146
 30
0.0
 10
-42.69961
 20
-19.77439
 30
0.0
 10
-42.8079
 20
-19.7822
 30
0.0
 10
-42.91754
 20
-19.75379
 30
0.0
 10
-42.91754
 20
-19.75379
 30
0.0
 10
-43.01395
 20
-19.72881
 30
0.0
 10
-43.10839
 20
-19.69789
 30
0.0
 10
-43.20388
 20
-19.66966
 30
0.0
 10
-43.20388
 20
-19.66966
 30
0.0
 10
-43.43596
 20
-19.60125
 30
0.0
 10
-43.66594
 20
-19.55484
 30
0.0
 10
-43.90949
 20
-19.58144
 30
0.0
 10
-43.90949
 20
-19.58144
 30
0.0
 10
-44.00283
 20
-19.5918
 30
0.0
 10
-44.09191
 20
-19.61271
 30
0.0
 10
-44.17983
 20
-19.63676
 30
0.0
 10
-44.17983
 20
-19.63676
 30
0.0
 10
-43.61174
 20
-19.72117
 30
0.0
 10
-43.08277
 20
-20.04269
 30
0.0
 10
-42.51353
 20
-20.14517
 30
0.0
  0
SPLINE
  5
86
330
1F
100
AcDbEntity
  8
Layer 1
370
     9
100
AcDbSpline
210
0.0
220
0.0
230
1.0
 70
    11
 71
     3
 72
    64
 73
    60
 74
     0
 42
0.000000001
 43
0.0000000001
 40
0.0
 40
0.0
 40
0.0
 40
0.0
 40
0.0625
 40
0.0625
 40
0.0625
 40
0.0625
 40
0.125
 40
0.125
 40
0.125
 40
0.125
 40
0.1875
 40
0.1875
 40
0.1875
 40
0.1875
 40
0.25
 40
0.25
 40
0.25
 40
0.25
 40
0.3125
 40
0.3125
 40
0.3125
 40
0.3125
 40
0.375
 40
0.375
 40
0.375
 40
0.375
 40
0.4375
 40
0.4375
 40
0.4375
 40
0.4375
 40
0.5
 40
0.5
 40
0.5
 40
0.5
 40
0.5625
 40
0.5625
 40
0.5625
 40
0.5625
 40
0.625
 40
0.625
 40
0.625
 40
0.625
 40
0.6875
 40
0.6875
 40
0.6875
 40
0.6875
 40
0.75
 40
0.75
 40
0.75
 40
0.75
 40
0.8125
 40
0.8125
 40
0.8125
 40
0.8125
 40
0.875
 40
0.875
 40
0.875
 40
0.875
 40
1.0
 40
1.0
 40
1.0
 40
1.0
 10
-42.51609
 20
-20.53084
 30
0.0
 10
-42.51609
 20
-20.53084
 30
0.0
 10
-42.51609
 20
-20.53084
 30
0.0
 10
-42.51609
 20
-20.53084
 30
0.0
 10
-42.51609
 20
-20.53084
 30
0.0
 10
-42.359
 20
-20.46121
 30
0.0
 10
-42.16488
 20
-20.44461
 30
0.0
 10
-42.01217
 20
-20.46126
 30
0.0
 10
-42.01217
 20
-20.46126
 30
0.0
 10
-41.74037
 20
-20.49119
 30
0.0
 10
-41.48925
 20
-20.60071
 30
0.0
 10
-41.24146
 20
-20.71041
 30
0.0
 10
-41.24146
 20
-20.71041
 30
0.0
 10
-41.19459
 20
-20.73113
 30
0.0
 10
-41.1479
 20
-20.75139
 30
0.0
 10
-41.10091
 20
-20.7713
 30
0.0
 10
-41.10091
 20
-20.7713
 30
0.0
 10
-41.08477
 20
-20.77008
 30
0.0
 10
-41.06882
 20
-20.76927
 30
0.0
 10
-41.05246
 20
-20.76758
 30
0.0
 10
-41.05246
 20
-20.76758
 30
0.0
 10
-41.02462
 20
-20.76489
 30
0.0
 10
-41.01043
 20
-20.78644
 30
0.0
 10
-41.01043
 20
-20.80868
 30
0.0
 10
-41.01043
 20
-20.80868
 30
0.0
 10
-40.77014
 20
-20.90493
 30
0.0
 10
-40.5249
 20
-20.97904
 30
0.0
 10
-40.25941
 20
-20.98091
 30
0.0
 10
-40.25941
 20
-20.98091
 30
0.0
 10
-39.96176
 20
-20.98294
 30
0.0
 10
-39.67105
 20
-20.91767
 30
0.0
 10
-39.3754
 20
-20.89969
 30
0.0
 10
-39.3754
 20
-20.89969
 30
0.0
 10
-39.38238
 20
-20.74132
 30
0.0
 10
-39.39962
 20
-20.58313
 30
0.0
 10
-39.43024
 20
-20.42418
 30
0.0
 10
-39.43024
 20
-20.42418
 30
0.0
 10
-39.43443
 20
-20.40316
 30
0.0
 10
-39.43886
 20
-20.38213
 30
0.0
 10
-39.44322
 20
-20.36111
 30
0.0
 10
-39.44322
 20
-20.36111
 30
0.0
 10
-39.54587
 20
-20.56542
 30
0.0
 10
-39.89539
 20
-20.55663
 30
0.0
 10
-40.08253
 20
-20.53741
 30
0.0
 10
-40.08253
 20
-20.53741
 30
0.0
 10
-40.37392
 20
-20.50767
 30
0.0
 10
-40.66091
 20
-20.43006
 30
0.0
 10
-40.94038
 20
-20.34382
 30
0.0
 10
-40.94038
 20
-20.34382
 30
0.0
 10
-41.20995
 20
-20.26074
 30
0.0
 10
-41.48332
 20
-20.1698
 30
0.0
 10
-41.76559
 20
-20.14267
 30
0.0
 10
-41.76559
 20
-20.14267
 30
0.0
 10
-41.91778
 20
-20.12798
 30
0.0
 10
-42.08889
 20
-20.11996
 30
0.0
 10
-42.23265
 20
-20.18208
 30
0.0
 10
-42.23265
 20
-20.18208
 30
0.0
 10
-42.39493
 20
-20.25219
 30
0.0
 10
-42.46136
 20
-20.37696
 30
0.0
 10
-42.51609
 20
-20.53084
 30
0.0
  0
SPLINE
  5
87
330
1F
100
AcDbEntity
  8
Layer 1
370
     9
100
AcDbSpline
210
0.0
220
0.0
230
1.0
 70
    11
 71
     3
 72
    32
 73
    28
 74
     0
 42
0.000000001
 43
0.0000000001
 40
0.0
 40
0.0
 40
0.0
 40
0.0
 40
0.125
 40
0.125
 40
0.125
 40
0.125
 40
0.25
 40
0.25
 40
0.25
 40
0.25
 40
0.375
 40
0.375
 40
0.375
 40
0.375
 40
0.5
 40
0.5
 40
0.5
 40
0.5
 40
0.625
 40
0.625
 40
0.625
 40
0.625
 40
0.75
 40
0.75
 40
0.75
 40
0.75
 40
1.0
 40
1.0
 40
1.0
 40
1.0
 10
-41.81281
 20
-20.72082
 30
0.0
 10
-41.81281
 20
-20.72082
 30
0.0
 10
-41.81281
 20
-20.72082
 30
0.0
 10
-41.81281
 20
-20.72082
 30
0.0
 10
-41.81281
 20
-20.72082
 30
0.0
 10
-41.67098
 20
-20.74672
 30
0.0
 10
-41.53595
 20
-20.7656
 30
0.0
 10
-41.39983
 20
-20.77363
 30
0.0
 10
-41.39983
 20
-20.77363
 30
0.0
 10
-41.54352
 20
-20.71191
 30
0.0
 10
-41.6892
 20
-20.65474
 30
0.0
 10
-41.84069
 20
-20.61963
 30
0.0
 10
-41.84069
 20
-20.61963
 30
0.0
 10
-41.98509
 20
-20.58615
 30
0.0
 10
-42.14054
 20
-20.56456
 30
0.0
 10
-42.28732
 20
-20.59837
 30
0.0
 10
-42.28732
 20
-20.59837
 30
0.0
 10
-42.3689
 20
-20.61723
 30
0.0
 10
-42.44022
 20
-20.65276
 30
0.0
 10
-42.5123
 20
-20.68757
 30
0.0
 10
-42.5123
 20
-20.68757
 30
0.0
 10
-42.48587
 20
-20.69334
 30
0.0
 10
-42.45996
 20
-20.70196
 30
0.0
 10
-42.43417
 20
-20.7121
 30
0.0
 10
-42.43417
 20
-20.7121
 30
0.0
 10
-42.23277
 20
-20.65893
 30
0.0
 10
-42.01536
 20
-20.68379
 30
0.0
 10
-41.81281
 20
-20.72082
 30
0.0
  0
SPLINE
  5
88
330
1F
100
AcDbEntity
  8
Layer 1
370
     9
100
AcDbSpline
210
0.0
220
0.0
230
1.0
 70
    11
 71
     3
 72
    24
 73
    20
 74
     0
 42
0.000000001
 43
0.0000000001
 40
0.0
 40
0.0
 40
0.0
 40
0.0
 40
0.1666666666666667
 40
0.1666666666666667
 40
0.1666666666666667
 40
0.1666666666666667
 40
0.3333333333333333
 40
0.3333333333333333
 40
0.3333333333333333
 40
0.3333333333333333
 40
0.5
 40
0.5
 40
0.5
 40
0.5
 40
0.6666666666666666
 40
0.6666666666666666
 40
0.6666666666666666
 40
0.6666666666666666
 40
1.0
 40
1.0
 40
1.0
 40
1.0
 10
-41.39021
 20
-21.2244
 30
0.0
 10
-41.39021
 20
-21.2244
 30
0.0
 10
-41.39021
 20
-21.2244
 30
0.0
 10
-41.39021
 20
-21.2244
 30
0.0
 10
-41.39021
 20
-21.2244
 30
0.0
 10
-41.39459
 20
-21.10667
 30
0.0
 10
-41.37014
 20
-20.99237
 30
0.0
 10
-41.30108
 20
-20.89143
 30
0.0
 10
-41.30108
 20
-20.89143
 30
0.0
 10
-41.43529
 20
-20.8916
 30
0.0
 10
-41.57171
 20
-20.86709
 30
0.0
 10
-41.70003
 20
-20.84192
 30
0.0
 10
-41.70003
 20
-20.84192
 30
0.0
 10
-41.90613
 20
-20.80158
 30
0.0
 10
-42.09903
 20
-20.76827
 30
0.0
 10
-42.30044
 20
-20.77432
 30
0.0
 10
-42.30044
 20
-20.77432
 30
0.0
 10
-41.98281
 20
-20.87388
 30
0.0
 10
-41.70887
 20
-21.12234
 30
0.0
 10
-41.39021
 20
-21.2244
 30
0.0
  0
SPLINE
  5
89
330
1F
100
AcDbEntity
  8
Layer 1
370
     9
100
AcDbSpline
210
0.0
220
0.0
230
1.0
 70
    11
 71
     3
 72
    36
 73
    32
 74
     0
 42
0.000000001
 43
0.0000000001
 40
0.0
 40
0.0
 40
0.0
 40
0.0
 40
0.1111111111111111
 40
0.1111111111111111
 40
0.1111111111111111
 40
0.1111111111111111
 40
0.2222222222222222
 40
0.2222222222222222
 40
0.2222222222222222
 40
0.2222222222222222
 40
0.3333333333333333
 40
0.3333333333333333
 40
0.3333333333333333
 40
0.3333333333333333
 40
0.4444444444444444
 40
0.4444444444444444
 40
0.4444444444444444
 40
0.4444444444444444
 40
0.5555555555555556
 40
0.5555555555555556
 40
0.5555555555555556
 40
0.5555555555555556
 40
0.6666666666666666
 40
0.6666666666666666
 40
0.6666666666666666
 40
0.6666666666666666
 40
0.7777777777777778
 40
0.7777777777777778
 40
0.7777777777777778
 40
0.7777777777777778
 40
1.0
 40
1.0
 40
1.0
 40
1.0
 10
-41.25117
 20
-21.70952
 30
0.0
 10
-41.25117
 20
-21.70952
 30
0.0
 10
-41.25117
 20
-21.70952
 30
0.0
 10
-41.25117
 20
-21.70952
 30
0.0
 10
-41.25117
 20
-21.70952
 30
0.0
 10
-41.31849
 20
-21.56977
 30
0.0
 10
-41.37612
 20
-21.41235
 30
0.0
 10
-41.38864
 20
-21.25909
 30
0.0
 10
-41.38864
 20
-21.25909
 30
0.0
 10
-41.5798
 20
-21.24769
 30
0.0
 10
-41.74794
 20
-21.1681
 30
0.0
 10
-41.91411
 20
-21.07441
 30
0.0
 10
-41.91411
 20
-21.07441
 30
0.0
 10
-41.96092
 20
-21.04804
 30
0.0
 10
-42.00681
 20
-21.02323
 30
0.0
 10
-42.05263
 20
-20.99994
 30
0.0
 10
-42.05263
 20
-20.99994
 30
0.0
 10
-41.99772
 20
-21.05742
 30
0.0
 10
-41.94723
 20
-21.11477
 30
0.0
 10
-41.90218
 20
-21.16496
 30
0.0
 10
-41.90218
 20
-21.16496
 30
0.0
 10
-41.75721
 20
-21.32594
 30
0.0
 10
-41.61788
 20
-21.47295
 30
0.0
 10
-41.44874
 20
-21.59185
 30
0.0
 10
-41.44874
 20
-21.59185
 30
0.0
 10
-41.434
 20
-21.59504
 30
0.0
 10
-41.42062
 20
-21.60385
 30
0.0
 10
-41.412
 20
-21.61683
 30
0.0
 10
-41.412
 20
-21.61683
 30
0.0
 10
-41.36135
 20
-21.65031
 30
0.0
 10
-41.30818
 20
-21.6814
 30
0.0
 10
-41.25117
 20
-21.70952
 30
0.0
  0
SPLINE
  5
8A
330
1F
100
AcDbEntity
  8
Layer 1
370
     9
100
AcDbSpline
210
0.0
220
0.0
230
1.0
 70
    11
 71
     3
 72
    40
 73
    36
 74
     0
 42
0.000000001
 43
0.0000000001
 40
0.0
 40
0.0
 40
0.0
 40
0.0
 40
0.1
 40
0.1
 40
0.1
 40
0.1
 40
0.2
 40
0.2
 40
0.2
 40
0.2
 40
0.3
 40
0.3
 40
0.3
 40
0.3
 40
0.4
 40
0.4
 40
0.4
 40
0.4
 40
0.5
 40
0.5
 40
0.5
 40
0.5
 40
0.6
 40
0.6
 40
0.6
 40
0.6
 40
0.7
 40
0.7
 40
0.7
 40
0.7
 40
0.8
 40
0.8
 40
0.8
 40
0.8
 40
1.0
 40
1.0
 40
1.0
 40
1.0
 10
-40.54511
 20
-22.78578
 30
0.0
 10
-40.54511
 20
-22.78578
 30
0.0
 10
-40.54511
 20
-22.78578
 30
0.0
 10
-40.54511
 20
-22.78578
 30
0.0
 10
-40.54511
 20
-22.78578
 30
0.0
 10
-40.55052
 20
-22.75487
 30
0.0
 10
-40.55547
 20
-22.72553
 30
0.0
 10
-40.56071
 20
-22.69891
 30
0.0
 10
-40.56071
 20
-22.69891
 30
0.0
 10
-40.59686
 20
-22.51243
 30
0.0
 10
-40.62762
 20
-22.3257
 30
0.0
 10
-40.66929
 20
-22.14026
 30
0.0
 10
-40.66929
 20
-22.14026
 30
0.0
 10
-40.73591
 20
-21.84478
 30
0.0
 10
-40.94954
 20
-21.30929
 30
0.0
 10
-40.73887
 20
-21.02242
 30
0.0
 10
-40.73887
 20
-21.02242
 30
0.0
 10
-40.84577
 20
-20.99732
 30
0.0
 10
-40.95285
 20
-20.96373
 30
0.0
 10
-41.0602
 20
-20.92017
 30
0.0
 10
-41.0602
 20
-20.92017
 30
0.0
 10
-41.09194
 20
-20.90726
 30
0.0
 10
-41.12349
 20
-20.89381
 30
0.0
 10
-41.15504
 20
-20.88024
 30
0.0
 10
-41.15504
 20
-20.88024
 30
0.0
 10
-41.16111
 20
-20.88117
 30
0.0
 10
-41.16716
 20
-20.88193
 30
0.0
 10
-41.17311
 20
-20.88281
 30
0.0
 10
-41.17311
 20
-20.88281
 30
0.0
 10
-41.37485
 20
-21.27704
 30
0.0
 10
-41.17549
 20
-21.63575
 30
0.0
 10
-40.95925
 20
-21.97858
 30
0.0
 10
-40.95925
 20
-21.97858
 30
0.0
 10
-40.79623
 20
-22.23719
 30
0.0
 10
-40.6591
 20
-22.50636
 30
0.0
 10
-40.54511
 20
-22.78578
 30
0.0
  0
SPLINE
  5
8B
330
1F
100
AcDbEntity
  8
Layer 1
370
     9
100
AcDbSpline
210
0.0
220
0.0
230
1.0
 70
    11
 71
     3
 72
    24
 73
    20
 74
     0
 42
0.000000001
 43
0.0000000001
 40
0.0
 40
0.0
 40
0.0
 40
0.0
 40
0.1666666666666667
 40
0.1666666666666667
 40
0.1666666666666667
 40
0.1666666666666667
 40
0.3333333333333333
 40
0.3333333333333333
 40
0.3333333333333333
 40
0.3333333333333333
 40
0.5
 40
0.5
 40
0.5
 40
0.5
 40
0.6666666666666666
 40
0.6666666666666666
 40
0.6666666666666666
 40
0.6666666666666666
 40
1.0
 40
1.0
 40
1.0
 40
1.0
 10
-40.39309
 20
-23.20697
 30
0.0
 10
-40.39309
 20
-23.20697
 30
0.0
 10
-40.39309
 20
-23.20697
 30
0.0
 10
-40.39309
 20
-23.20697
 30
0.0
 10
-40.39309
 20
-23.20697
 30
0.0
 10
-40.39395
 20
-23.19416
 30
0.0
 10
-40.39338
 20
-23.18123
 30
0.0
 10
-40.39355
 20
-23.1683
 30
0.0
 10
-40.39355
 20
-23.1683
 30
0.0
 10
-40.39407
 20
-23.16784
 30
0.0
 10
-40.39478
 20
-23.16761
 30
0.0
 10
-40.39535
 20
-23.16702
 30
0.0
 10
-40.39535
 20
-23.16702
 30
0.0
 10
-40.40105
 20
-23.16203
 30
0.0
 10
-40.40636
 20
-23.15644
 30
0.0
 10
-40.41166
 20
-23.15072
 30
0.0
 10
-40.41166
 20
-23.15072
 30
0.0
 10
-40.4056
 20
-23.16958
 30
0.0
 10
-40.39907
 20
-23.18816
 30
0.0
 10
-40.39309
 20
-23.20697
 30
0.0
  0
SPLINE
  5
8C
330
1F
100
AcDbEntity
  8
Layer 1
370
     9
100
AcDbSpline
210
0.0
220
0.0
230
1.0
 70
    11
 71
     3
 72
    36
 73
    32
 74
     0
 42
0.000000001
 43
0.0000000001
 40
0.0
 40
0.0
 40
0.0
 40
0.0
 40
0.1111111111111111
 40
0.1111111111111111
 40
0.1111111111111111
 40
0.1111111111111111
 40
0.2222222222222222
 40
0.2222222222222222
 40
0.2222222222222222
 40
0.2222222222222222
 40
0.3333333333333333
 40
0.3333333333333333
 40
0.3333333333333333
 40
0.3333333333333333
 40
0.4444444444444444
 40
0.4444444444444444
 40
0.4444444444444444
 40
0.4444444444444444
 40
0.5555555555555556
 40
0.5555555555555556
 40
0.5555555555555556
 40
0.5555555555555556
 40
0.6666666666666666
 40
0.6666666666666666
 40
0.6666666666666666
 40
0.6666666666666666
 40
0.7777777777777778
 40
0.7777777777777778
 40
0.7777777777777778
 40
0.7777777777777778
 40
1.0
 40
1.0
 40
1.0
 40
1.0
 10
-40.37264
 20
-21.09893
 30
0.0
 10
-40.37264
 20
-21.09893
 30
0.0
 10
-40.37264
 20
-21.09893
 30
0.0
 10
-40.37264
 20
-21.09893
 30
0.0
 10
-40.37264
 20
-21.09893
 30
0.0
 10
-40.37847
 20
-21.0909
 30
0.0
 10
-40.38097
 20
-21.08292
 30
0.0
 10
-40.38126
 20
-21.07534
 30
0.0
 10
-40.38126
 20
-21.07534
 30
0.0
 10
-40.46691
 20
-21.06988
 30
0.0
 10
-40.55249
 20
-21.0595
 30
0.0
 10
-40.63821
 20
-21.04368
 30
0.0
 10
-40.63821
 20
-21.04368
 30
0.0
 10
-40.78667
 20
-21.46102
 30
0.0
 10
-40.61183
 20
-21.84721
 30
0.0
 10
-40.53754
 20
-22.26409
 30
0.0
 10
-40.53754
 20
-22.26409
 30
0.0
 10
-40.50347
 20
-22.45564
 30
0.0
 10
-40.48112
 20
-22.64954
 30
0.0
 10
-40.44274
 20
-22.84028
 30
0.0
 10
-40.44274
 20
-22.84028
 30
0.0
 10
-40.42988
 20
-22.90432
 30
0.0
 10
-40.41754
 20
-22.97104
 30
0.0
 10
-40.3978
 20
-23.03421
 30
0.0
 10
-40.3978
 20
-23.03421
 30
0.0
 10
-40.44176
 20
-22.86438
 30
0.0
 10
-40.39774
 20
-22.52237
 30
0.0
 10
-40.39116
 20
-22.46124
 30
0.0
 10
-40.39116
 20
-22.46124
 30
0.0
 10
-40.34237
 20
-22.00506
 30
0.0
 10
-40.06657
 20
-21.52291
 30
0.0
 10
-40.37264
 20
-21.09893
 30
0.0
  0
SPLINE
  5
8D
330
1F
100
AcDbEntity
  8
Layer 1
370
     9
100
AcDbSpline
210
0.0
220
0.0
230
1.0
 70
    11
 71
     3
 72
    28
 73
    24
 74
     0
 42
0.000000001
 43
0.0000000001
 40
0.0
 40
0.0
 40
0.0
 40
0.0
 40
0.1428571428571428
 40
0.1428571428571428
 40
0.1428571428571428
 40
0.1428571428571428
 40
0.2857142857142857
 40
0.2857142857142857
 40
0.2857142857142857
 40
0.2857142857142857
 40
0.4285714285714285
 40
0.4285714285714285
 40
0.4285714285714285
 40
0.4285714285714285
 40
0.5714285714285714
 40
0.5714285714285714
 40
0.5714285714285714
 40
0.5714285714285714
 40
0.7142857142857143
 40
0.7142857142857143
 40
0.7142857142857143
 40
0.7142857142857143
 40
1.0
 40
1.0
 40
1.0
 40
1.0
 10
-40.1008
 20
-22.30579
 30
0.0
 10
-40.1008
 20
-22.30579
 30
0.0
 10
-40.1008
 20
-22.30579
 30
0.0
 10
-40.1008
 20
-22.30579
 30
0.0
 10
-40.1008
 20
-22.30579
 30
0.0
 10
-39.9248
 20
-21.91988
 30
0.0
 10
-39.73789
 20
-21.47645
 30
0.0
 10
-39.82255
 20
-21.04676
 30
0.0
 10
-39.82255
 20
-21.04676
 30
0.0
 10
-39.97295
 20
-21.07028
 30
0.0
 10
-40.12282
 20
-21.08205
 30
0.0
 10
-40.27262
 20
-21.07971
 30
0.0
 10
-40.27262
 20
-21.07971
 30
0.0
 10
-40.02743
 20
-21.4499
 30
0.0
 10
-40.17714
 20
-21.87702
 30
0.0
 10
-40.27134
 20
-22.2765
 30
0.0
 10
-40.27134
 20
-22.2765
 30
0.0
 10
-40.28653
 20
-22.34089
 30
0.0
 10
-40.34475
 20
-22.66654
 30
0.0
 10
-40.35297
 20
-22.89426
 30
0.0
 10
-40.35297
 20
-22.89426
 30
0.0
 10
-40.29387
 20
-22.68784
 30
0.0
 10
-40.18336
 20
-22.48669
 30
0.0
 10
-40.1008
 20
-22.30579
 30
0.0
  0
SPLINE
  5
8E
330
1F
100
AcDbEntity
  8
Layer 1
370
     9
100
AcDbSpline
210
0.0
220
0.0
230
1.0
 70
    11
 71
     3
 72
    36
 73
    32
 74
     0
 42
0.000000001
 43
0.0000000001
 40
0.0
 40
0.0
 40
0.0
 40
0.0
 40
0.1111111111111111
 40
0.1111111111111111
 40
0.1111111111111111
 40
0.1111111111111111
 40
0.2222222222222222
 40
0.2222222222222222
 40
0.2222222222222222
 40
0.2222222222222222
 40
0.3333333333333333
 40
0.3333333333333333
 40
0.3333333333333333
 40
0.3333333333333333
 40
0.4444444444444444
 40
0.4444444444444444
 40
0.4444444444444444
 40
0.4444444444444444
 40
0.5555555555555556
 40
0.5555555555555556
 40
0.5555555555555556
 40
0.5555555555555556
 40
0.6666666666666666
 40
0.6666666666666666
 40
0.6666666666666666
 40
0.6666666666666666
 40
0.7777777777777778
 40
0.7777777777777778
 40
0.7777777777777778
 40
0.7777777777777778
 40
1.0
 40
1.0
 40
1.0
 40
1.0
 10
-39.95273
 20
-22.88867
 30
0.0
 10
-39.95273
 20
-22.88867
 30
0.0
 10
-39.95273
 20
-22.88867
 30
0.0
 10
-39.95273
 20
-22.88867
 30
0.0
 10
-39.95273
 20
-22.88867
 30
0.0
 10
-39.82069
 20
-22.73722
 30
0.0
 10
-39.66472
 20
-22.57292
 30
0.0
 10
-39.57283
 20
-22.38904
 30
0.0
 10
-39.57283
 20
-22.38904
 30
0.0
 10
-39.51297
 20
-22.06205
 30
0.0
 10
-39.41266
 20
-21.7501
 30
0.0
 10
-39.38623
 20
-21.41549
 30
0.0
 10
-39.38623
 20
-21.41549
 30
0.0
 10
-39.37364
 20
-21.25747
 30
0.0
 10
-39.36892
 20
-21.10138
 30
0.0
 10
-39.37371
 20
-20.94558
 30
0.0
 10
-39.37371
 20
-20.94558
 30
0.0
 10
-39.49527
 20
-20.98068
 30
0.0
 10
-39.61609
 20
-21.00968
 30
0.0
 10
-39.73644
 20
-21.03197
 30
0.0
 10
-39.73644
 20
-21.03197
 30
0.0
 10
-39.61312
 20
-21.40559
 30
0.0
 10
-39.78919
 20
-21.81823
 30
0.0
 10
-39.92066
 20
-22.16546
 30
0.0
 10
-39.92066
 20
-22.16546
 30
0.0
 10
-40.05463
 20
-22.51912
 30
0.0
 10
-40.30558
 20
-22.86898
 30
0.0
 10
-40.30249
 20
-23.25919
 30
0.0
 10
-40.30249
 20
-23.25919
 30
0.0
 10
-40.18028
 20
-23.14112
 30
0.0
 10
-40.06412
 20
-23.01635
 30
0.0
 10
-39.95273
 20
-22.88867
 30
0.0
  0
SPLINE
  5
8F
330
1F
100
AcDbEntity
  8
Layer 1
370
     9
100
AcDbSpline
210
0.0
220
0.0
230
1.0
 70
    11
 71
     3
 72
    28
 73
    24
 74
     0
 42
0.000000001
 43
0.0000000001
 40
0.0
 40
0.0
 40
0.0
 40
0.0
 40
0.1428571428571428
 40
0.1428571428571428
 40
0.1428571428571428
 40
0.1428571428571428
 40
0.2857142857142857
 40
0.2857142857142857
 40
0.2857142857142857
 40
0.2857142857142857
 40
0.4285714285714285
 40
0.4285714285714285
 40
0.4285714285714285
 40
0.4285714285714285
 40
0.5714285714285714
 40
0.5714285714285714
 40
0.5714285714285714
 40
0.5714285714285714
 40
0.7142857142857143
 40
0.7142857142857143
 40
0.7142857142857143
 40
0.7142857142857143
 40
1.0
 40
1.0
 40
1.0
 40
1.0
 10
-39.50575
 20
-22.45857
 30
0.0
 10
-39.50575
 20
-22.45857
 30
0.0
 10
-39.50575
 20
-22.45857
 30
0.0
 10
-39.50575
 20
-22.45857
 30
0.0
 10
-39.50575
 20
-22.45857
 30
0.0
 10
-39.51025
 20
-22.46433
 30
0.0
 10
-39.51549
 20
-22.46707
 30
0.0
 10
-39.52089
 20
-22.46795
 30
0.0
 10
-39.52089
 20
-22.46795
 30
0.0
 10
-39.54861
 20
-22.54956
 30
0.0
 10
-39.59431
 20
-22.62764
 30
0.0
 10
-39.64643
 20
-22.70148
 30
0.0
 10
-39.64643
 20
-22.70148
 30
0.0
 10
-39.53353
 20
-22.59794
 30
0.0
 10
-39.41533
 20
-22.50148
 30
0.0
 10
-39.29074
 20
-22.42566
 30
0.0
 10
-39.29074
 20
-22.42566
 30
0.0
 10
-39.10273
 20
-22.31103
 30
0.0
 10
-38.94199
 20
-22.21682
 30
0.0
 10
-38.82431
 20
-22.04687
 30
0.0
 10
-38.82431
 20
-22.04687
 30
0.0
 10
-39.07094
 20
-22.14503
 30
0.0
 10
-39.34482
 20
-22.24919
 30
0.0
 10
-39.50575
 20
-22.45857
 30
0.0
  0
SPLINE
  5
90
330
1F
100
AcDbEntity
  8
Layer 1
370
     9
100
AcDbSpline
210
0.0
220
0.0
230
1.0
 70
    11
 71
     3
 72
    32
 73
    28
 74
     0
 42
0.000000001
 43
0.0000000001
 40
0.0
 40
0.0
 40
0.0
 40
0.0
 40
0.125
 40
0.125
 40
0.125
 40
0.125
 40
0.25
 40
0.25
 40
0.25
 40
0.25
 40
0.375
 40
0.375
 40
0.375
 40
0.375
 40
0.5
 40
0.5
 40
0.5
 40
0.5
 40
0.625
 40
0.625
 40
0.625
 40
0.625
 40
0.75
 40
0.75
 40
0.75
 40
0.75
 40
1.0
 40
1.0
 40
1.0
 40
1.0
 10
-38.43036
 20
-21.85781
 30
0.0
 10
-38.43036
 20
-21.85781
 30
0.0
 10
-38.43036
 20
-21.85781
 30
0.0
 10
-38.43036
 20
-21.85781
 30
0.0
 10
-38.43036
 20
-21.85781
 30
0.0
 10
-38.51177
 20
-21.90648
 30
0.0
 10
-38.59631
 20
-21.95074
 30
0.0
 10
-38.68493
 20
-21.9894
 30
0.0
 10
-38.68493
 20
-21.9894
 30
0.0
 10
-38.70285
 20
-22.19894
 30
0.0
 10
-38.95868
 20
-22.34601
 30
0.0
 10
-39.11846
 20
-22.43969
 30
0.0
 10
-39.11846
 20
-22.43969
 30
0.0
 10
-39.34744
 20
-22.57413
 30
0.0
 10
-39.53923
 20
-22.75265
 30
0.0
 10
-39.73783
 20
-22.92429
 30
0.0
 10
-39.73783
 20
-22.92429
 30
0.0
 10
-39.52549
 20
-22.78246
 30
0.0
 10
-39.28224
 20
-22.67359
 30
0.0
 10
-39.07222
 20
-22.54339
 30
0.0
 10
-39.07222
 20
-22.54339
 30
0.0
 10
-38.90163
 20
-22.43778
 30
0.0
 10
-38.72539
 20
-22.32424
 30
0.0
 10
-38.59164
 20
-22.17246
 30
0.0
 10
-38.59164
 20
-22.17246
 30
0.0
 10
-38.49884
 20
-22.06724
 30
0.0
 10
-38.45634
 20
-21.97118
 30
0.0
 10
-38.43036
 20
-21.85781
 30
0.0
  0
SPLINE
  5
91
330
1F
100
AcDbEntity
  8
Layer 1
370
     9
100
AcDbSpline
210
0.0
220
0.0
230
1.0
 70
    11
 71
     3
 72
    52
 73
    48
 74
     0
 42
0.000000001
 43
0.0000000001
 40
0.0
 40
0.0
 40
0.0
 40
0.0
 40
0.0769230769230769
 40
0.0769230769230769
 40
0.0769230769230769
 40
0.0769230769230769
 40
0.1538461538461539
 40
0.1538461538461539
 40
0.1538461538461539
 40
0.1538461538461539
 40
0.2307692307692308
 40
0.2307692307692308
 40
0.2307692307692308
 40
0.2307692307692308
 40
0.3076923076923077
 40
0.3076923076923077
 40
0.3076923076923077
 40
0.3076923076923077
 40
0.3846153846153846
 40
0.3846153846153846
 40
0.3846153846153846
 40
0.3846153846153846
 40
0.4615384615384616
 40
0.4615384615384616
 40
0.4615384615384616
 40
0.4615384615384616
 40
0.5384615384615384
 40
0.5384615384615384
 40
0.5384615384615384
 40
0.5384615384615384
 40
0.6153846153846154
 40
0.6153846153846154
 40
0.6153846153846154
 40
0.6153846153846154
 40
0.6923076923076923
 40
0.6923076923076923
 40
0.6923076923076923
 40
0.6923076923076923
 40
0.7692307692307693
 40
0.7692307692307693
 40
0.7692307692307693
 40
0.7692307692307693
 40
0.8461538461538461
 40
0.8461538461538461
 40
0.8461538461538461
 40
0.8461538461538461
 40
1.0
 40
1.0
 40
1.0
 40
1.0
 10
-38.01809
 20
-17.52155
 30
0.0
 10
-38.01809
 20
-17.52155
 30
0.0
 10
-38.01809
 20
-17.52155
 30
0.0
 10
-38.01809
 20
-17.52155
 30
0.0
 10
-38.01809
 20
-17.52155
 30
0.0
 10
-37.53449
 20
-18.23194
 30
0.0
 10
-37.41978
 20
-19.21347
 30
0.0
 10
-37.6008
 20
-20.03087
 30
0.0
 10
-37.6008
 20
-20.03087
 30
0.0
 10
-37.7092
 20
-20.52012
 30
0.0
 10
-37.96306
 20
-20.94399
 30
0.0
 10
-38.30739
 20
-21.30446
 30
0.0
 10
-38.30739
 20
-21.30446
 30
0.0
 10
-38.56423
 20
-21.57344
 30
0.0
 10
-38.84522
 20
-21.82992
 30
0.0
 10
-39.13272
 20
-22.07276
 30
0.0
 10
-39.13272
 20
-22.07276
 30
0.0
 10
-39.08696
 20
-22.05083
 30
0.0
 10
-39.042
 20
-22.03068
 30
0.0
 10
-38.9999
 20
-22.01182
 30
0.0
 10
-38.9999
 20
-22.01182
 30
0.0
 10
-38.78775
 20
-21.91633
 30
0.0
 10
-38.59257
 20
-21.82533
 30
0.0
 10
-38.4044
 20
-21.70724
 30
0.0
 10
-38.4044
 20
-21.70724
 30
0.0
 10
-38.404
 20
-21.70364
 30
0.0
 10
-38.40347
 20
-21.70014
 30
0.0
 10
-38.40295
 20
-21.69648
 30
0.0
 10
-38.40295
 20
-21.69648
 30
0.0
 10
-38.39904
 20
-21.66759
 30
0.0
 10
-38.36888
 20
-21.66009
 30
0.0
 10
-38.34653
 20
-21.66976
 30
0.0
 10
-38.34653
 20
-21.66976
 30
0.0
 10
-38.29115
 20
-21.6329
 30
0.0
 10
-38.23614
 20
-21.59394
 30
0.0
 10
-38.18159
 20
-21.5508
 30
0.0
 10
-38.18159
 20
-21.5508
 30
0.0
 10
-37.63684
 20
-21.12024
 30
0.0
 10
-37.08191
 20
-20.57235
 30
0.0
 10
-36.96728
 20
-19.85609
 30
0.0
 10
-36.96728
 20
-19.85609
 30
0.0
 10
-36.87843
 20
-19.30105
 30
0.0
 10
-37.0475
 20
-18.74822
 30
0.0
 10
-37.34997
 20
-18.283
 30
0.0
 10
-37.34997
 20
-18.283
 30
0.0
 10
-37.54049
 20
-17.98996
 30
0.0
 10
-37.77052
 20
-17.74863
 30
0.0
 10
-38.01809
 20
-17.52155
 30
0.0
  0
SPLINE
  5
92
330
1F
100
AcDbEntity
  8
Layer 1
370
     9
100
AcDbSpline
210
0.0
220
0.0
230
1.0
 70
    11
 71
     3
 72
    48
 73
    44
 74
     0
 42
0.000000001
 43
0.0000000001
 40
0.0
 40
0.0
 40
0.0
 40
0.0
 40
0.0833333333333333
 40
0.0833333333333333
 40
0.0833333333333333
 40
0.0833333333333333
 40
0.1666666666666667
 40
0.1666666666666667
 40
0.1666666666666667
 40
0.1666666666666667
 40
0.25
 40
0.25
 40
0.25
 40
0.25
 40
0.3333333333333333
 40
0.3333333333333333
 40
0.3333333333333333
 40
0.3333333333333333
 40
0.4166666666666667
 40
0.4166666666666667
 40
0.4166666666666667
 40
0.4166666666666667
 40
0.5
 40
0.5
 40
0.5
 40
0.5
 40
0.5833333333333334
 40
0.5833333333333334
 40
0.5833333333333334
 40
0.5833333333333334
 40
0.6666666666666666
 40
0.6666666666666666
 40
0.6666666666666666
 40
0.6666666666666666
 40
0.75
 40
0.75
 40
0.75
 40
0.75
 40
0.8333333333333334
 40
0.8333333333333334
 40
0.8333333333333334
 40
0.8333333333333334
 40
1.0
 40
1.0
 40
1.0
 40
1.0
 10
-38.14816
 20
-17.5336
 30
0.0
 10
-38.14816
 20
-17.5336
 30
0.0
 10
-38.14816
 20
-17.5336
 30
0.0
 10
-38.14816
 20
-17.5336
 30
0.0
 10
-38.14816
 20
-17.5336
 30
0.0
 10
-38.08789
 20
-17.6779
 30
0.0
 10
-38.03345
 20
-17.83095
 30
0.0
 10
-38.016
 20
-17.98543
 30
0.0
 10
-38.016
 20
-17.98543
 30
0.0
 10
-37.95544
 20
-18.52114
 30
0.0
 10
-38.01774
 20
-19.11362
 30
0.0
 10
-38.14694
 20
-19.63642
 30
0.0
 10
-38.14694
 20
-19.63642
 30
0.0
 10
-38.27358
 20
-20.14872
 30
0.0
 10
-38.47625
 20
-20.66219
 30
0.0
 10
-38.76935
 20
-21.10317
 30
0.0
 10
-38.76935
 20
-21.10317
 30
0.0
 10
-38.89453
 20
-21.2917
 30
0.0
 10
-39.02919
 20
-21.47395
 30
0.0
 10
-39.14832
 20
-21.6666
 30
0.0
 10
-39.14832
 20
-21.6666
 30
0.0
 10
-39.24905
 20
-21.82964
 30
0.0
 10
-39.3613
 20
-22.0103
 30
0.0
 10
-39.39128
 20
-22.20406
 30
0.0
 10
-39.39128
 20
-22.20406
 30
0.0
 10
-39.09615
 20
-21.88809
 30
0.0
 10
-38.74023
 20
-21.62742
 30
0.0
 10
-38.43945
 20
-21.31727
 30
0.0
 10
-38.43945
 20
-21.31727
 30
0.0
 10
-38.09651
 20
-20.96339
 30
0.0
 10
-37.80871
 20
-20.55349
 30
0.0
 10
-37.7027
 20
-20.06407
 30
0.0
 10
-37.7027
 20
-20.06407
 30
0.0
 10
-37.60016
 20
-19.59053
 30
0.0
 10
-37.59381
 20
-19.04823
 30
0.0
 10
-37.71339
 20
-18.57686
 30
0.0
 10
-37.71339
 20
-18.57686
 30
0.0
 10
-37.78182
 20
-18.30774
 30
0.0
 10
-37.87253
 20
-18.03299
 30
0.0
 10
-37.99631
 20
-17.78385
 30
0.0
 10
-37.99631
 20
-17.78385
 30
0.0
 10
-38.04086
 20
-17.69412
 30
0.0
 10
-38.09186
 20
-17.61158
 30
0.0
 10
-38.14816
 20
-17.5336
 30
0.0
  0
SPLINE
  5
93
330
1F
100
AcDbEntity
  8
Layer 1
370
     9
100
AcDbSpline
210
0.0
220
0.0
230
1.0
 70
    11
 71
     3
 72
    56
 73
    52
 74
     0
 42
0.000000001
 43
0.0000000001
 40
0.0
 40
0.0
 40
0.0
 40
0.0
 40
0.0714285714285714
 40
0.0714285714285714
 40
0.0714285714285714
 40
0.0714285714285714
 40
0.1428571428571428
 40
0.1428571428571428
 40
0.1428571428571428
 40
0.1428571428571428
 40
0.2142857142857143
 40
0.2142857142857143
 40
0.2142857142857143
 40
0.2142857142857143
 40
0.2857142857142857
 40
0.2857142857142857
 40
0.2857142857142857
 40
0.2857142857142857
 40
0.3571428571428572
 40
0.3571428571428572
 40
0.3571428571428572
 40
0.3571428571428572
 40
0.4285714285714285
 40
0.4285714285714285
 40
0.4285714285714285
 40
0.4285714285714285
 40
0.5
 40
0.5
 40
0.5
 40
0.5
 40
0.5714285714285714
 40
0.5714285714285714
 40
0.5714285714285714
 40
0.5714285714285714
 40
0.6428571428571429
 40
0.6428571428571429
 40
0.6428571428571429
 40
0.6428571428571429
 40
0.7142857142857143
 40
0.7142857142857143
 40
0.7142857142857143
 40
0.7142857142857143
 40
0.7857142857142857
 40
0.7857142857142857
 40
0.7857142857142857
 40
0.7857142857142857
 40
0.8571428571428571
 40
0.8571428571428571
 40
0.8571428571428571
 40
0.8571428571428571
 40
1.0
 40
1.0
 40
1.0
 40
1.0
 10
-38.47853
 20
-17.16325
 30
0.0
 10
-38.47853
 20
-17.16325
 30
0.0
 10
-38.47853
 20
-17.16325
 30
0.0
 10
-38.47853
 20
-17.16325
 30
0.0
 10
-38.47853
 20
-17.16325
 30
0.0
 10
-38.49646
 20
-17.14613
 30
0.0
 10
-38.49884
 20
-17.12534
 30
0.0
 10
-38.49232
 20
-17.10781
 30
0.0
 10
-38.49232
 20
-17.10781
 30
0.0
 10
-38.50303
 20
-17.09857
 30
0.0
 10
-38.51375
 20
-17.08948
 30
0.0
 10
-38.52446
 20
-17.08028
 30
0.0
 10
-38.52446
 20
-17.08028
 30
0.0
 10
-38.53034
 20
-17.07509
 30
0.0
 10
-38.53418
 20
-17.06945
 30
0.0
 10
-38.5368
 20
-17.06345
 30
0.0
 10
-38.5368
 20
-17.06345
 30
0.0
 10
-38.54168
 20
-17.07335
 30
0.0
 10
-38.55002
 20
-17.08169
 30
0.0
 10
-38.56166
 20
-17.08645
 30
0.0
 10
-38.56166
 20
-17.08645
 30
0.0
 10
-38.73039
 20
-17.8603
 30
0.0
 10
-38.80952
 20
-18.63771
 30
0.0
 10
-38.88789
 20
-19.4254
 30
0.0
 10
-38.88789
 20
-19.4254
 30
0.0
 10
-38.96031
 20
-20.15215
 30
0.0
 10
-39.01307
 20
-20.92338
 30
0.0
 10
-39.25208
 20
-21.62114
 30
0.0
 10
-39.25208
 20
-21.62114
 30
0.0
 10
-39.16911
 20
-21.49153
 30
0.0
 10
-39.07793
 20
-21.3678
 30
0.0
 10
-38.99636
 20
-21.25095
 30
0.0
 10
-38.99636
 20
-21.25095
 30
0.0
 10
-38.70705
 20
-20.83611
 30
0.0
 10
-38.47305
 20
-20.38761
 30
0.0
 10
-38.32399
 20
-19.9025
 30
0.0
 10
-38.32399
 20
-19.9025
 30
0.0
 10
-38.16673
 20
-19.3903
 30
0.0
 10
-38.07986
 20
-18.8203
 30
0.0
 10
-38.09139
 20
-18.28405
 30
0.0
 10
-38.09139
 20
-18.28405
 30
0.0
 10
-38.09651
 20
-18.05238
 30
0.0
 10
-38.13256
 20
-17.83975
 30
0.0
 10
-38.20557
 20
-17.62025
 30
0.0
 10
-38.20557
 20
-17.62025
 30
0.0
 10
-38.23648
 20
-17.52755
 30
0.0
 10
-38.27065
 20
-17.42368
 30
0.0
 10
-38.3173
 20
-17.32791
 30
0.0
 10
-38.3173
 20
-17.32791
 30
0.0
 10
-38.36854
 20
-17.27195
 30
0.0
 10
-38.42221
 20
-17.21735
 30
0.0
 10
-38.47853
 20
-17.16325
 30
0.0
  0
ENDSEC
  0
SECTION
  2
OBJECTS
  0
DICTIONARY
  5
C
330
0
100
AcDbDictionary
281
     1
  3
ACAD_DETAILVIEWSTYLE
350
CF
  3
ACAD_GROUP
350
D
  3
ACAD_LAYOUT
350
1A
  3
ACAD_MATERIAL
350
43
  3
ACAD_MLEADERSTYLE
350
6B
  3
ACAD_MLINESTYLE
350
17
  3
ACAD_PLOTSETTINGS
350
19
  3
ACAD_PLOTSTYLENAME
350
E
  3
ACAD_SCALELIST
350
47
  3
ACAD_SECTIONVIEWSTYLE
350
D0
  3
ACAD_TABLESTYLE
350
69
  3
ACAD_VISUALSTYLE
350
2A
  3
ACDB_RECOMPOSE_DATA
350
CC
  3
AcDbVariableDictionary
350
94
  0
SUN
  5
6D
330
29
100
AcDbSun
 90
        1
290
     0
 63
     7
421
 16777215
 40
1.0
291
     1
 91
  2455826
 92
 54000000
292
     0
 70
     2
 71
   256
280
     1
  0
DICTIONARY
  5
CF
102
{ACAD_REACTORS
330
C
102
}
330
C
100
AcDbDictionary
281
     1
  0
DICTIONARY
  5
D
102
{ACAD_REACTORS
330
C
102
}
330
C
100
AcDbDictionary
281
     1
  0
DICTIONARY
  5
1A
102
{ACAD_REACTORS
330
C
102
}
330
C
100
AcDbDictionary
281
     1
  3
Layout1
350
1E
  3
Layout2
350
26
  3
Model
350
22
  0
DICTIONARY
  5
43
102
{ACAD_REACTORS
330
C
102
}
330
C
100
AcDbDictionary
281
     1
  3
ByBlock
350
45
  3
ByLayer
350
44
  3
Global
350
46
  0
DICTIONARY
  5
6B
102
{ACAD_REACTORS
330
C
102
}
330
C
100
AcDbDictionary
281
     1
  3
Standard
350
6C
  0
DICTIONARY
  5
17
102
{ACAD_REACTORS
330
C
102
}
330
C
100
AcDbDictionary
281
     1
  3
Standard
350
18
  0
DICTIONARY
  5
19
102
{ACAD_REACTORS
330
C
102
}
330
C
100
AcDbDictionary
281
     1
  0
ACDBDICTIONARYWDFLT
  5
E
102
{ACAD_REACTORS
330
C
102
}
330
C
100
AcDbDictionary
281
     1
  3
Normal
350
F
100
AcDbDictionaryWithDefault
340
F
  0
DICTIONARY
  5
47
102
{ACAD_REACTORS
330
C
102
}
330
C
100
AcDbDictionary
281
     1
  3
A0
350
48
  3
A1
350
49
  3
A2
350
4A
  3
A3
350
4B
  3
A4
350
4C
  3
A5
350
4D
  3
A6
350
4E
  3
A7
350
4F
  3
A8
350
50
  3
A9
350
51
  3
B0
350
52
  3
B1
350
53
  3
B2
350
54
  3
B3
350
55
  3
B4
350
56
  3
B5
350
57
  3
B6
350
58
  3
B7
350
59
  3
B8
350
5A
  3
B9
350
5B
  3
C0
350
5C
  3
C1
350
5D
  3
C2
350
5E
  3
C3
350
5F
  3
C4
350
60
  3
C5
350
61
  3
C6
350
62
  3
C7
350
63
  3
C8
350
64
  3
C9
350
65
  3
D0
350
66
  3
D1
350
67
  3
D2
350
68
  0
DICTIONARY
  5
D0
102
{ACAD_REACTORS
330
C
102
}
330
C
100
AcDbDictionary
281
     1
  0
DICTIONARY
  5
69
102
{ACAD_REACTORS
330
C
102
}
330
C
100
AcDbDictionary
281
     1
  3
Standard
350
6A
  0
DICTIONARY
  5
2A
102
{ACAD_REACTORS
330
C
102
}
330
C
100
AcDbDictionary
281
     1
  3
2dWireframe
350
2F
  3
Basic
350
32
  3
Brighten
350
36
  3
ColorChange
350
3A
  3
Conceptual
350
34
  3
Dim
350
35
  3
EdgeColorOff
350
3D
  3
Facepattern
350
39
  3
Flat
350
2B
  3
FlatWithEdges
350
2C
  3
Gouraud
350
2D
  3
GouraudWithEdges
350
2E
  3
Hidden
350
31
  3
JitterOff
350
3B
  3
Linepattern
350
38
  3
OverhangOff
350
3C
  3
Realistic
350
33
  3
Shaded
350
42
  3
Shaded with edges
350
41
  3
Shades of Gray
350
3E
  3
Sketchy
350
3F
  3
Thicken
350
37
  3
Wireframe
350
30
  3
X-Ray
350
40
  0
XRECORD
  5
CC
102
{ACAD_REACTORS
330
C
102
}
330
C
100
AcDbXrecord
280
     1
 90
        1
330
6A
  0
DICTIONARY
  5
94
102
{ACAD_REACTORS
330
C
102
}
330
C
100
AcDbDictionary
281
     1
  3
CANNOSCALE
350
95
  3
CMLEADERSTYLE
350
CE
  3
CTABLESTYLE
350
CD
  3
XCLIPFRAME
350
96
  0
LAYOUT
  5
1E
102
{ACAD_REACTORS
330
1A
102
}
330
1A
100
AcDbPlotSettings
  1

  2
none_device
  4

  6

 40
0.0
 41
0.0
 42
0.0
 43
0.0
 44
0.0
 45
0.0
 46
0.0
 47
0.0
 48
0.0
 49
0.0
140
0.0
141
0.0
142
1.0
143
1.0
 70
   688
 72
     0
 73
     0
 74
     5
  7

 75
    16
 76
     0
 77
     2
 78
   300
147
1.0
148
0.0
149
0.0
100
AcDbLayout
  1
Layout1
 70
     1
 71
     1
 10
0.0
 20
0.0
 11
12.0
 21
9.0
 12
0.0
 22
0.0
 32
0.0
 14
1.000000000000000E+20
 24
1.000000000000000E+20
 34
1.000000000000000E+20
 15
-1.000000000000000E+20
 25
-1.000000000000000E+20
 35
-1.000000000000000E+20
146
0.0
 13
0.0
 23
0.0
 33
0.0
 16
1.0
 26
0.0
 36
0.0
 17
0.0
 27
1.0
 37
0.0
 76
     0
330
1B
  0
LAYOUT
  5
26
102
{ACAD_REACTORS
330
1A
102
}
330
1A
100
AcDbPlotSettings
  1

  2
none_device
  4

  6

 40
0.0
 41
0.0
 42
0.0
 43
0.0
 44
0.0
 45
0.0
 46
0.0
 47
0.0
 48
0.0
 49
0.0
140
0.0
141
0.0
142
1.0
143
1.0
 70
   688
 72
     0
 73
     0
 74
     5
  7

 75
    16
 76
     0
 77
     2
 78
   300
147
1.0
148
0.0
149
0.0
100
AcDbLayout
  1
Layout2
 70
     1
 71
     2
 10
0.0
 20
0.0
 11
0.0
 21
0.0
 12
0.0
 22
0.0
 32
0.0
 14
0.0
 24
0.0
 34
0.0
 15
0.0
 25
0.0
 35
0.0
146
0.0
 13
0.0
 23
0.0
 33
0.0
 16
1.0
 26
0.0
 36
0.0
 17
0.0
 27
1.0
 37
0.0
 76
     0
330
23
  0
LAYOUT
  5
22
102
{ACAD_REACTORS
330
1A
102
}
330
1A
100
AcDbPlotSettings
  1

  2
none_device
  4
Letter_(8.50_x_11.00_Inches)
  6

 40
6.35
 41
6.35
 42
6.35000508
 43
6.35000508
 44
215.9
 45
279.4
 46
0.0
 47
0.0
 48
0.0
 49
0.0
140
0.0
141
0.0
142
1.0
143
1.0
 70
  1712
 72
     0
 73
     0
 74
     0
  7

 75
     0
 76
     0
 77
     2
 78
   300
147
1.0
148
0.0
149
0.0
100
AcDbLayout
  1
Model
 70
     1
 71
     0
 10
0.0
 20
0.0
 11
12.0
 21
9.0
 12
0.0
 22
0.0
 32
0.0
 14
-45.07275
 24
-25.18489
 34
0.0
 15
-33.78401
 25
-12.26982
 35
0.0
146
0.0
 13
0.0
 23
0.0
 33
0.0
 16
1.0
 26
0.0
 36
0.0
 17
0.0
 27
1.0
 37
0.0
 76
     0
330
1F
331
29
  0
MATERIAL
  5
45
102
{ACAD_REACTORS
330
43
102
}
330
43
100
AcDbMaterial
  1
ByBlock
 72
     1
 94
      127
  0
MATERIAL
  5
44
102
{ACAD_REACTORS
330
43
102
}
330
43
100
AcDbMaterial
  1
ByLayer
 72
     1
 94
      127
  0
MATERIAL
  5
46
102
{ACAD_REACTORS
330
43
102
}
330
43
100
AcDbMaterial
  1
Global
 72
     1
 94
      127
  0
MLEADERSTYLE
  5
6C
102
{ACAD_REACTORS
330
6B
102
}
102
{ACAD_XDICTIONARY
360
CA
102
}
330
6B
100
AcDbMLeaderStyle
170
     2
171
     1
172
     0
 90
        2
 40
0.0
 41
0.0
173
     1
 91
-1056964608
340
14
 92
       -2
290
     1
 42
0.09
291
     1
 43
0.36
  3
Standard
341
0
 44
0.18
300

342
11
174
     1
178
     6
175
     1
176
     0
 93
-1056964608
 45
0.18
292
     0
297
     0
 46
0.18
343
0
 94
-1056964608
 47
1.0
 49
1.0
140
1.0
293
     1
141
0.0
294
     1
177
     0
142
1.0
295
     0
296
     0
143
0.125
1001
ACAD_MLEADERVER
1070
     2
  0
MLINESTYLE
  5
18
102
{ACAD_REACTORS
330
17
102
}
330
17
100
AcDbMlineStyle
  2
Standard
 70
     0
  3

 62
   256
 51
90.0
 52
90.0
 71
     2
 49
0.5
 62
   256
  6
BYLAYER
 49
-0.5
 62
   256
  6
BYLAYER
  0
ACDBPLACEHOLDER
  5
F
102
{ACAD_REACTORS
330
E
102
}
330
E
  0
SCALE
  5
48
102
{ACAD_REACTORS
330
47
102
}
330
47
100
AcDbScale
 70
     0
300
1:1
140
1.0
141
1.0
290
     1
  0
SCALE
  5
49
102
{ACAD_REACTORS
330
47
102
}
330
47
100
AcDbScale
 70
     0
300
1:2
140
1.0
141
2.0
290
     0
  0
SCALE
  5
4A
102
{ACAD_REACTORS
330
47
102
}
330
47
100
AcDbScale
 70
     0
300
1:4
140
1.0
141
4.0
290
     0
  0
SCALE
  5
4B
102
{ACAD_REACTORS
330
47
102
}
330
47
100
AcDbScale
 70
     0
300
1:5
140
1.0
141
5.0
290
     0
  0
SCALE
  5
4C
102
{ACAD_REACTORS
330
47
102
}
330
47
100
AcDbScale
 70
     0
300
1:8
140
1.0
141
8.0
290
     0
  0
SCALE
  5
4D
102
{ACAD_REACTORS
330
47
102
}
330
47
100
AcDbScale
 70
     0
300
1:10
140
1.0
141
10.0
290
     0
  0
SCALE
  5
4E
102
{ACAD_REACTORS
330
47
102
}
330
47
100
AcDbScale
 70
     0
300
1:16
140
1.0
141
16.0
290
     0
  0
SCALE
  5
4F
102
{ACAD_REACTORS
330
47
102
}
330
47
100
AcDbScale
 70
     0
300
1:20
140
1.0
141
20.0
290
     0
  0
SCALE
  5
50
102
{ACAD_REACTORS
330
47
102
}
330
47
100
AcDbScale
 70
     0
300
1:30
140
1.0
141
30.0
290
     0
  0
SCALE
  5
51
102
{ACAD_REACTORS
330
47
102
}
330
47
100
AcDbScale
 70
     0
300
1:40
140
1.0
141
40.0
290
     0
  0
SCALE
  5
52
102
{ACAD_REACTORS
330
47
102
}
330
47
100
AcDbScale
 70
     0
300
1:50
140
1.0
141
50.0
290
     0
  0
SCALE
  5
53
102
{ACAD_REACTORS
330
47
102
}
330
47
100
AcDbScale
 70
     0
300
1:100
140
1.0
141
100.0
290
     0
  0
SCALE
  5
54
102
{ACAD_REACTORS
330
47
102
}
330
47
100
AcDbScale
 70
     0
300
2:1
140
2.0
141
1.0
290
     0
  0
SCALE
  5
55
102
{ACAD_REACTORS
330
47
102
}
330
47
100
AcDbScale
 70
     0
300
4:1
140
4.0
141
1.0
290
     0
  0
SCALE
  5
56
102
{ACAD_REACTORS
330
47
102
}
330
47
100
AcDbScale
 70
     0
300
8:1
140
8.0
141
1.0
290
     0
  0
SCALE
  5
57
102
{ACAD_REACTORS
330
47
102
}
330
47
100
AcDbScale
 70
     0
300
10:1
140
10.0
141
1.0
290
     0
  0
SCALE
  5
58
102
{ACAD_REACTORS
330
47
102
}
330
47
100
AcDbScale
 70
     0
300
100:1
140
100.0
141
1.0
290
     0
  0
SCALE
  5
59
102
{ACAD_REACTORS
330
47
102
}
330
47
100
AcDbScale
 70
     0
300
1/128\" = 1\'-0\"
140
0.0078125
141
12.0
290
     0
  0
SCALE
  5
5A
102
{ACAD_REACTORS
330
47
102
}
330
47
100
AcDbScale
 70
     0
300
1/64\" = 1\'-0\"
140
0.015625
141
12.0
290
     0
  0
SCALE
  5
5B
102
{ACAD_REACTORS
330
47
102
}
330
47
100
AcDbScale
 70
     0
300
1/32\" = 1\'-0\"
140
0.03125
141
12.0
290
     0
  0
SCALE
  5
5C
102
{ACAD_REACTORS
330
47
102
}
330
47
100
AcDbScale
 70
     0
300
1/16\" = 1\'-0\"
140
0.0625
141
12.0
290
     0
  0
SCALE
  5
5D
102
{ACAD_REACTORS
330
47
102
}
330
47
100
AcDbScale
 70
     0
300
3/32\" = 1\'-0\"
140
0.09375
141
12.0
290
     0
  0
SCALE
  5
5E
102
{ACAD_REACTORS
330
47
102
}
330
47
100
AcDbScale
 70
     0
300
1/8\" = 1\'-0\"
140
0.125
141
12.0
290
     0
  0
SCALE
  5
5F
102
{ACAD_REACTORS
330
47
102
}
330
47
100
AcDbScale
 70
     0
300
3/16\" = 1\'-0\"
140
0.1875
141
12.0
290
     0
  0
SCALE
  5
60
102
{ACAD_REACTORS
330
47
102
}
330
47
100
AcDbScale
 70
     0
300
1/4\" = 1\'-0\"
140
0.25
141
12.0
290
     0
  0
SCALE
  5
61
102
{ACAD_REACTORS
330
47
102
}
330
47
100
AcDbScale
 70
     0
300
3/8\" = 1\'-0\"
140
0.375
141
12.0
290
     0
  0
SCALE
  5
62
102
{ACAD_REACTORS
330
47
102
}
330
47
100
AcDbScale
 70
     0
300
1/2\" = 1\'-0\"
140
0.5
141
12.0
290
     0
  0
SCALE
  5
63
102
{ACAD_REACTORS
330
47
102
}
330
47
100
AcDbScale
 70
     0
300
3/4\" = 1\'-0\"
140
0.75
141
12.0
290
     0
  0
SCALE
  5
64
102
{ACAD_REACTORS
330
47
102
}
330
47
100
AcDbScale
 70
     0
300
1\" = 1\'-0\"
140
1.0
141
12.0
290
     0
  0
SCALE
  5
65
102
{ACAD_REACTORS
330
47
102
}
330
47
100
AcDbScale
 70
     0
300
1-1/2\" = 1\'-0\"
140
1.5
141
12.0
290
     0
  0
SCALE
  5
66
102
{ACAD_REACTORS
330
47
102
}
330
47
100
AcDbScale
 70
     0
300
3\" = 1\'-0\"
140
3.0
141
12.0
290
     0
  0
SCALE
  5
67
102
{ACAD_REACTORS
330
47
102
}
330
47
100
AcDbScale
 70
     0
300
6\" = 1\'-0\"
140
6.0
141
12.0
290
     0
  0
SCALE
  5
68
102
{ACAD_REACTORS
330
47
102
}
330
47
100
AcDbScale
 70
     0
300
1\'-0\" = 1\'-0\"
140
12.0
141
12.0
290
     0
  0
TABLESTYLE
  5
6A
102
{ACAD_REACTORS
330
69
102
}
102
{ACAD_XDICTIONARY
360
C7
102
}
330
69
100
AcDbTableStyle
  3
Standard
 70
     0
 71
     0
 40
0.06
 41
0.06
280
     0
281
     0
  7
Standard
140
0.18
170
     2
 62
     0
 63
   257
283
     0
 90
        4
 91
        0
  1

274
    -2
284
     1
 64
     0
275
    -2
285
     1
 65
     0
276
    -2
286
     1
 66
     0
277
    -2
287
     1
 67
     0
278
    -2
288
     1
 68
     0
279
    -2
289
     1
 69
     0
  7
Standard
140
0.25
170
     5
 62
     0
 63
   257
283
     0
 90
        4
 91
        0
  1

274
    -2
284
     1
 64
     0
275
    -2
285
     1
 65
     0
276
    -2
286
     1
 66
     0
277
    -2
287
     1
 67
     0
278
    -2
288
     1
 68
     0
279
    -2
289
     1
 69
     0
  7
Standard
140
0.18
170
     5
 62
     0
 63
   257
283
     0
 90
        4
 91
        0
  1

274
    -2
284
     1
 64
     0
275
    -2
285
     1
 65
     0
276
    -2
286
     1
 66
     0
277
    -2
287
     1
 67
     0
278
    -2
288
     1
 68
     0
279
    -2
289
     1
 69
     0
  0
VISUALSTYLE
  5
2F
102
{ACAD_REACTORS
330
2A
102
}
102
{ACAD_XDICTIONARY
360
9F
102
}
330
2A
100
AcDbVisualStyle
  2
2dWireframe
 70
     4
 71
     0
 72
     2
 73
     0
 90
        0
 40
0.6
 41
30.0
 62
     5
 63
     7
421
 16777215
 74
     1
 91
        4
 64
     7
 65
   257
 75
     1
175
     1
 42
1.0
 92
        0
 66
   257
 43
1.0
 76
     1
 77
     6
 78
     2
 67
     7
 79
     5
170
     0
171
     0
290
     0
174
     0
 93
        1
 44
0.0
173
     0
291
     0
 45
0.0
  0
VISUALSTYLE
  5
32
102
{ACAD_REACTORS
330
2A
102
}
102
{ACAD_XDICTIONARY
360
A5
102
}
330
2A
100
AcDbVisualStyle
  2
Basic
 70
     7
 71
     1
 72
     0
 73
     1
 90
        0
 40
0.6
 41
30.0
 62
     5
 63
     7
421
 16777215
 74
     0
 91
        4
 64
     7
 65
   257
 75
     1
175
     1
 42
1.0
 92
        8
 66
     7
 43
1.0
 76
     1
 77
     6
 78
     2
 67
     7
 79
     5
170
     0
171
     0
290
     0
174
     0
 93
        1
 44
0.0
173
     0
291
     1
 45
0.0
  0
VISUALSTYLE
  5
36
102
{ACAD_REACTORS
330
2A
102
}
102
{ACAD_XDICTIONARY
360
AD
102
}
330
2A
100
AcDbVisualStyle
  2
Brighten
 70
    12
 71
     2
 72
     2
 73
     0
 90
        0
 40
0.6
 41
30.0
 62
     5
 63
     7
421
 16777215
 74
     1
 91
        4
 64
     7
 65
   257
 75
     1
175
     1
 42
1.0
 92
        8
 66
     7
 43
1.0
 76
     1
 77
     6
 78
     2
 67
     7
 79
     5
170
     0
171
     0
290
     0
174
     0
 93
        1
 44
50.0
173
     0
291
     1
 45
0.0
  0
VISUALSTYLE
  5
3A
102
{ACAD_REACTORS
330
2A
102
}
102
{ACAD_XDICTIONARY
360
B5
102
}
330
2A
100
AcDbVisualStyle
  2
ColorChange
 70
    16
 71
     2
 72
     2
 73
     3
 90
        0
 40
0.6
 41
30.0
 62
     5
 63
     8
421
  8421504
 74
     1
 91
        4
 64
     7
 65
   257
 75
     1
175
     1
 42
1.0
 92
        8
 66
     8
424
  8421504
 43
1.0
 76
     1
 77
     6
 78
     2
 67
     7
 79
     5
170
     0
171
     0
290
     0
174
     0
 93
        1
 44
0.0
173
     0
291
     1
 45
0.0
  0
VISUALSTYLE
  5
34
102
{ACAD_REACTORS
330
2A
102
}
102
{ACAD_XDICTIONARY
360
A9
102
}
330
2A
100
AcDbVisualStyle
  2
Conceptual
 70
     9
 71
     3
 72
     2
 73
     0
 90
        0
 40
0.6
 41
30.0
 62
     5
 63
     7
421
 16777215
 74
     2
 91
        2
 64
     7
 65
   257
 75
     1
175
     1
 42
179.0
 92
        8
 66
     7
 43
1.0
 76
     1
 77
     6
 78
     2
 67
     7
 79
     3
170
     0
171
     0
290
     0
174
     0
 93
        1
 44
0.0
173
     0
291
     0
 45
0.0
  0
VISUALSTYLE
  5
35
102
{ACAD_REACTORS
330
2A
102
}
102
{ACAD_XDICTIONARY
360
AB
102
}
330
2A
100
AcDbVisualStyle
  2
Dim
 70
    11
 71
     2
 72
     2
 73
     0
 90
        0
 40
0.6
 41
30.0
 62
     5
 63
     7
421
 16777215
 74
     1
 91
        4
 64
     7
 65
   257
 75
     1
175
     1
 42
1.0
 92
        8
 66
     7
 43
1.0
 76
     1
 77
     6
 78
     2
 67
     7
 79
     5
170
     0
171
     0
290
     0
174
     0
 93
        1
 44
-50.0
173
     0
291
     1
 45
0.0
  0
VISUALSTYLE
  5
3D
102
{ACAD_REACTORS
330
2A
102
}
102
{ACAD_XDICTIONARY
360
BB
102
}
330
2A
100
AcDbVisualStyle
  2
EdgeColorOff
 70
    22
 71
     2
 72
     2
 73
     0
 90
        0
 40
0.6
 41
30.0
 62
     5
 63
     7
421
 16777215
 74
     1
 91
        4
 64
     7
 65
   257
 75
     1
175
     1
 42
1.0
 92
        8
 66
     7
 43
1.0
 76
     1
 77
     6
 78
     2
 67
     7
 79
     5
170
     0
171
     0
290
     0
174
     0
 93
        1
 44
0.0
173
     0
291
     1
 45
0.0
  0
VISUALSTYLE
  5
39
102
{ACAD_REACTORS
330
2A
102
}
102
{ACAD_XDICTIONARY
360
B3
102
}
330
2A
100
AcDbVisualStyle
  2
Facepattern
 70
    15
 71
     2
 72
     2
 73
     0
 90
        0
 40
0.6
 41
30.0
 62
     5
 63
     7
421
 16777215
 74
     1
 91
        4
 64
     7
 65
   257
 75
     1
175
     1
 42
1.0
 92
        8
 66
     7
 43
1.0
 76
     1
 77
     6
 78
     2
 67
     7
 79
     5
170
     0
171
     0
290
     0
174
     0
 93
        1
 44
0.0
173
     0
291
     1
 45
0.0
  0
VISUALSTYLE
  5
2B
102
{ACAD_REACTORS
330
2A
102
}
102
{ACAD_XDICTIONARY
360
97
102
}
330
2A
100
AcDbVisualStyle
  2
Flat
 70
     0
 71
     2
 72
     1
 73
     1
 90
        2
 40
0.6
 41
30.0
 62
     5
 63
     7
421
 16777215
 74
     0
 91
        0
 64
     7
 65
   257
 75
     1
175
     1
 42
1.0
 92
        8
 66
     7
 43
1.0
 76
     1
 77
     6
 78
     2
 67
     7
 79
     5
170
     0
171
     0
290
     0
174
     0
 93
       13
 44
0.0
173
     0
291
     1
 45
0.0
  0
VISUALSTYLE
  5
2C
102
{ACAD_REACTORS
330
2A
102
}
102
{ACAD_XDICTIONARY
360
99
102
}
330
2A
100
AcDbVisualStyle
  2
FlatWithEdges
 70
     1
 71
     2
 72
     1
 73
     1
 90
        2
 40
0.6
 41
30.0
 62
     5
 63
     7
421
 16777215
 74
     1
 91
        0
 64
     7
 65
   257
 75
     1
175
     1
 42
1.0
 92
        0
 66
   257
 43
1.0
 76
     1
 77
     6
 78
     2
 67
     7
 79
     5
170
     0
171
     0
290
     0
174
     0
 93
       13
 44
0.0
173
     0
291
     1
 45
0.0
  0
VISUALSTYLE
  5
2D
102
{ACAD_REACTORS
330
2A
102
}
102
{ACAD_XDICTIONARY
360
9B
102
}
330
2A
100
AcDbVisualStyle
  2
Gouraud
 70
     2
 71
     2
 72
     2
 73
     1
 90
        2
 40
0.6
 41
30.0
 62
     5
 63
     7
421
 16777215
 74
     0
 91
        0
 64
     7
 65
   257
 75
     1
175
     1
 42
1.0
 92
        0
 66
     7
 43
1.0
 76
     1
 77
     6
 78
     2
 67
     7
 79
     5
170
     0
171
     0
290
     0
174
     0
 93
       13
 44
0.0
173
     0
291
     1
 45
0.0
  0
VISUALSTYLE
  5
2E
102
{ACAD_REACTORS
330
2A
102
}
102
{ACAD_XDICTIONARY
360
9D
102
}
330
2A
100
AcDbVisualStyle
  2
GouraudWithEdges
 70
     3
 71
     2
 72
     2
 73
     1
 90
        2
 40
0.6
 41
30.0
 62
     5
 63
     7
421
 16777215
 74
     1
 91
        0
 64
     7
 65
   257
 75
     1
175
     1
 42
1.0
 92
        0
 66
   257
 43
1.0
 76
     1
 77
     6
 78
     2
 67
     7
 79
     5
170
     0
171
     0
290
     0
174
     0
 93
       13
 44
0.0
173
     0
291
     1
 45
0.0
  0
VISUALSTYLE
  5
31
102
{ACAD_REACTORS
330
2A
102
}
102
{ACAD_XDICTIONARY
360
A3
102
}
330
2A
100
AcDbVisualStyle
  2
Hidden
 70
     6
 71
     1
 72
     2
 73
     2
 90
        0
 40
0.6
 41
30.0
 62
     5
 63
     7
421
 16777215
 74
     2
 91
        2
 64
     7
 65
   257
 75
     2
175
     1
 42
40.0
 92
        0
 66
   257
 43
1.0
 76
     1
 77
     6
 78
     2
 67
     7
 79
     3
170
     0
171
     0
290
     0
174
     0
 93
        1
 44
0.0
173
     0
291
     0
 45
0.0
  0
VISUALSTYLE
  5
3B
102
{ACAD_REACTORS
330
2A
102
}
102
{ACAD_XDICTIONARY
360
B7
102
}
330
2A
100
AcDbVisualStyle
  2
JitterOff
 70
    20
 71
     2
 72
     2
 73
     0
 90
        0
 40
0.6
 41
30.0
 62
     5
 63
     7
421
 16777215
 74
     1
 91
        4
 64
     7
 65
   257
 75
     1
175
     1
 42
1.0
 92
       10
 66
     7
 43
1.0
 76
     1
 77
     6
 78
     2
 67
     7
 79
     5
170
     0
171
     0
290
     0
174
     0
 93
        1
 44
0.0
173
     0
291
     1
 45
0.0
  0
VISUALSTYLE
  5
38
102
{ACAD_REACTORS
330
2A
102
}
102
{ACAD_XDICTIONARY
360
B1
102
}
330
2A
100
AcDbVisualStyle
  2
Linepattern
 70
    14
 71
     2
 72
     2
 73
     0
 90
        0
 40
0.6
 41
30.0
 62
     5
 63
     7
421
 16777215
 74
     1
 91
        4
 64
     7
 65
   257
 75
     7
175
     7
 42
1.0
 92
        8
 66
     7
 43
1.0
 76
     1
 77
     6
 78
     2
 67
     7
 79
     5
170
     0
171
     0
290
     0
174
     0
 93
        1
 44
0.0
173
     0
291
     1
 45
0.0
  0
VISUALSTYLE
  5
3C
102
{ACAD_REACTORS
330
2A
102
}
102
{ACAD_XDICTIONARY
360
B9
102
}
330
2A
100
AcDbVisualStyle
  2
OverhangOff
 70
    21
 71
     2
 72
     2
 73
     0
 90
        0
 40
0.6
 41
30.0
 62
     5
 63
     7
421
 16777215
 74
     1
 91
        4
 64
     7
 65
   257
 75
     1
175
     1
 42
1.0
 92
        9
 66
     7
 43
1.0
 76
     1
 77
     6
 78
     2
 67
     7
 79
     5
170
     0
171
     0
290
     0
174
     0
 93
        1
 44
0.0
173
     0
291
     1
 45
0.0
  0
VISUALSTYLE
  5
33
102
{ACAD_REACTORS
330
2A
102
}
102
{ACAD_XDICTIONARY
360
A7
102
}
330
2A
100
AcDbVisualStyle
  2
Realistic
 70
     8
 71
     2
 72
     3
 73
     0
 90
        2
 40
0.6
 41
30.0
 62
     5
 63
     7
421
 16777215
 74
     0
 91
        0
 64
     7
 65
   257
 75
     1
175
     1
 42
1.0
 92
        8
 66
   257
 43
1.0
 76
     1
 77
     6
 78
     2
 67
     7
 79
     3
170
     0
171
     0
290
     0
174
     0
 93
       13
 44
0.0
173
     0
291
     0
 45
0.0
  0
VISUALSTYLE
  5
42
102
{ACAD_REACTORS
330
2A
102
}
102
{ACAD_XDICTIONARY
360
C5
102
}
330
2A
100
AcDbVisualStyle
  2
Shaded
 70
    27
 71
     2
 72
     2
 73
     1
 90
        2
 40
0.6
 41
30.0
 62
     5
 63
     7
421
 16777215
 74
     0
 91
        4
 64
     7
 65
   257
 75
     1
175
     1
 42
1.0
 92
        8
 66
   257
 43
1.0
 76
     1
 77
     6
 78
     2
 67
     8
425
  7895160
 79
     3
170
     0
171
     0
290
     0
174
     0
 93
        5
 44
0.0
173
     0
291
     0
 45
0.0
  0
VISUALSTYLE
  5
41
102
{ACAD_REACTORS
330
2A
102
}
102
{ACAD_XDICTIONARY
360
C3
102
}
330
2A
100
AcDbVisualStyle
  2
Shaded with edges
 70
    26
 71
     2
 72
     2
 73
     1
 90
        2
 40
0.6
 41
30.0
 62
     5
 63
     7
421
 16777215
 74
     1
 91
       10
 64
     7
 65
   257
 75
     2
175
     1
 42
1.0
 92
        8
 66
   257
 43
1.0
 76
     1
 77
     6
 78
     2
 67
     7
 79
     3
170
     0
171
     0
290
     0
174
     0
 93
        5
 44
0.0
173
     0
291
     0
 45
0.0
  0
VISUALSTYLE
  5
3E
102
{ACAD_REACTORS
330
2A
102
}
102
{ACAD_XDICTIONARY
360
BD
102
}
330
2A
100
AcDbVisualStyle
  2
Shades of Gray
 70
    23
 71
     2
 72
     2
 73
     3
 90
        0
 40
0.6
 41
30.0
 62
     5
 63
     7
421
 16777215
 74
     2
 91
        2
 64
     7
 65
     7
 75
     1
175
     1
 42
40.0
 92
        8
 66
     7
 43
1.0
 76
     1
 77
     6
 78
     2
 67
     7
 79
     3
170
     0
171
     0
290
     0
174
     0
 93
        1
 44
0.0
173
     0
291
     0
 45
0.0
  0
VISUALSTYLE
  5
3F
102
{ACAD_REACTORS
330
2A
102
}
102
{ACAD_XDICTIONARY
360
BF
102
}
330
2A
100
AcDbVisualStyle
  2
Sketchy
 70
    24
 71
     1
 72
     2
 73
     2
 90
        0
 40
0.6
 41
30.0
 62
     5
 63
     7
421
 16777215
 74
     2
 91
        2
 64
     7
 65
     7
 75
     1
175
     1
 42
40.0
 92
       11
 66
     7
 43
1.0
 76
     1
 77
     6
 78
     2
 67
     7
 79
     6
170
     0
171
     0
290
     0
174
     0
 93
        1
 44
0.0
173
     0
291
     0
 45
0.0
  0
VISUALSTYLE
  5
37
102
{ACAD_REACTORS
330
2A
102
}
102
{ACAD_XDICTIONARY
360
AF
102
}
330
2A
100
AcDbVisualStyle
  2
Thicken
 70
    13
 71
     2
 72
     2
 73
     0
 90
        0
 40
0.6
 41
30.0
 62
     5
 63
     7
421
 16777215
 74
     1
 91
        4
 64
     7
 65
   257
 75
     1
175
     1
 42
1.0
 92
       12
 66
     7
 43
1.0
 76
     1
 77
     6
 78
     2
 67
     7
 79
     5
170
     0
171
     0
290
     0
174
     0
 93
        1
 44
0.0
173
     0
291
     1
 45
0.0
  0
VISUALSTYLE
  5
30
102
{ACAD_REACTORS
330
2A
102
}
102
{ACAD_XDICTIONARY
360
A1
102
}
330
2A
100
AcDbVisualStyle
  2
Wireframe
 70
     5
 71
     0
 72
     2
 73
     0
 90
        0
 40
0.6
 41
30.0
 62
     5
 63
     7
421
 16777215
 74
     1
 91
        4
 64
     7
 65
   257
 75
     1
175
     1
 42
1.0
 92
        0
 66
   257
 43
1.0
 76
     1
 77
     6
 78
     2
 67
     7
 79
     3
170
     0
171
     0
290
     0
174
     0
 93
        1
 44
0.0
173
     0
291
     0
 45
0.0
  0
VISUALSTYLE
  5
40
102
{ACAD_REACTORS
330
2A
102
}
102
{ACAD_XDICTIONARY
360
C1
102
}
330
2A
100
AcDbVisualStyle
  2
X-Ray
 70
    25
 71
     2
 72
     2
 73
     1
 90
        1
 40
0.5
 41
30.0
 62
     5
 63
     7
421
 16777215
 74
     1
 91
        0
 64
     7
 65
   257
 75
     1
175
     1
 42
1.0
 92
        8
 66
     7
 43
1.0
 76
     1
 77
     6
 78
     2
 67
     7
 79
     3
170
     0
171
     0
290
     0
174
     0
 93
       13
 44
0.0
173
     0
291
     0
 45
0.0
  0
DICTIONARYVAR
  5
95
102
{ACAD_REACTORS
330
94
102
}
330
94
100
DictionaryVariables
280
     0
  1
1:1
  0
DICTIONARYVAR
  5
CE
102
{ACAD_REACTORS
330
94
102
}
330
94
100
DictionaryVariables
280
     0
  1
Standard
  0
DICTIONARYVAR
  5
CD
102
{ACAD_REACTORS
330
94
102
}
330
94
100
DictionaryVariables
280
     0
  1
Standard
  0
DICTIONARYVAR
  5
96
102
{ACAD_REACTORS
330
94
102
}
330
94
100
DictionaryVariables
280
     0
  1
2
  0
DICTIONARY
  5
CA
330
6C
100
AcDbDictionary
280
     1
281
     1
  3
ACAD_XREC_ROUNDTRIP
360
CB
  0
DICTIONARY
  5
C7
330
6A
100
AcDbDictionary
280
     1
281
     1
  3
ACAD_ROUNDTRIP_2008_TABLESTYLE_CELLSTYLEMAP
360
C8
  0
DICTIONARY
  5
9F
330
2F
100
AcDbDictionary
280
     1
281
     1
  3
ACAD_XREC_ROUNDTRIP
360
A0
  0
DICTIONARY
  5
A5
330
32
100
AcDbDictionary
280
     1
281
     1
  3
ACAD_XREC_ROUNDTRIP
360
A6
  0
DICTIONARY
  5
AD
330
36
100
AcDbDictionary
280
     1
281
     1
  3
ACAD_XREC_ROUNDTRIP
360
AE
  0
DICTIONARY
  5
B5
330
3A
100
AcDbDictionary
280
     1
281
     1
  3
ACAD_XREC_ROUNDTRIP
360
B6
  0
DICTIONARY
  5
A9
330
34
100
AcDbDictionary
280
     1
281
     1
  3
ACAD_XREC_ROUNDTRIP
360
AA
  0
DICTIONARY
  5
AB
330
35
100
AcDbDictionary
280
     1
281
     1
  3
ACAD_XREC_ROUNDTRIP
360
AC
  0
DICTIONARY
  5
BB
330
3D
100
AcDbDictionary
280
     1
281
     1
  3
ACAD_XREC_ROUNDTRIP
360
BC
  0
DICTIONARY
  5
B3
330
39
100
AcDbDictionary
280
     1
281
     1
  3
ACAD_XREC_ROUNDTRIP
360
B4
  0
DICTIONARY
  5
97
330
2B
100
AcDbDictionary
280
     1
281
     1
  3
ACAD_XREC_ROUNDTRIP
360
98
  0
DICTIONARY
  5
99
330
2C
100
AcDbDictionary
280
     1
281
     1
  3
ACAD_XREC_ROUNDTRIP
360
9A
  0
DICTIONARY
  5
9B
330
2D
100
AcDbDictionary
280
     1
281
     1
  3
ACAD_XREC_ROUNDTRIP
360
9C
  0
DICTIONARY
  5
9D
330
2E
100
AcDbDictionary
280
     1
281
     1
  3
ACAD_XREC_ROUNDTRIP
360
9E
  0
DICTIONARY
  5
A3
330
31
100
AcDbDictionary
280
     1
281
     1
  3
ACAD_XREC_ROUNDTRIP
360
A4
  0
DICTIONARY
  5
B7
330
3B
100
AcDbDictionary
280
     1
281
     1
  3
ACAD_XREC_ROUNDTRIP
360
B8
  0
DICTIONARY
  5
B1
330
38
100
AcDbDictionary
280
     1
281
     1
  3
ACAD_XREC_ROUNDTRIP
360
B2
  0
DICTIONARY
  5
B9
330
3C
100
AcDbDictionary
280
     1
281
     1
  3
ACAD_XREC_ROUNDTRIP
360
BA
  0
DICTIONARY
  5
A7
330
33
100
AcDbDictionary
280
     1
281
     1
  3
ACAD_XREC_ROUNDTRIP
360
A8
  0
DICTIONARY
  5
C5
330
42
100
AcDbDictionary
280
     1
281
     1
  3
ACAD_XREC_ROUNDTRIP
360
C6
  0
DICTIONARY
  5
C3
330
41
100
AcDbDictionary
280
     1
281
     1
  3
ACAD_XREC_ROUNDTRIP
360
C4
  0
DICTIONARY
  5
BD
330
3E
100
AcDbDictionary
280
     1
281
     1
  3
ACAD_XREC_ROUNDTRIP
360
BE
  0
DICTIONARY
  5
BF
330
3F
100
AcDbDictionary
280
     1
281
     1
  3
ACAD_XREC_ROUNDTRIP
360
C0
  0
DICTIONARY
  5
AF
330
37
100
AcDbDictionary
280
     1
281
     1
  3
ACAD_XREC_ROUNDTRIP
360
B0
  0
DICTIONARY
  5
A1
330
30
100
AcDbDictionary
280
     1
281
     1
  3
ACAD_XREC_ROUNDTRIP
360
A2
  0
DICTIONARY
  5
C1
330
40
100
AcDbDictionary
280
     1
281
     1
  3
ACAD_XREC_ROUNDTRIP
360
C2
  0
XRECORD
  5
CB
102
{ACAD_REACTORS
330
CA
102
}
330
CA
100
AcDbXrecord
280
     1
102
ACAD_ROUNDTRIP_2010_MLEADER_STYLE
  0
CELLSTYLEMAP
  5
C8
102
{ACAD_REACTORS
330
C7
102
}
330
C7
100
AcDbCellStyleMap
 90
        3
300
CELLSTYLE
  1
TABLEFORMAT_BEGIN
 90
        5
170
     1
 91
        0
 92
    32768
 62
   257
 93
        1
300
CONTENTFORMAT
  1
CONTENTFORMAT_BEGIN
 90
        0
 91
        0
 92
        4
 93
        0
300

 40
0.0
140
1.0
 94
        5
 62
     0
340
11
144
0.25
309
CONTENTFORMAT_END
171
     1
301
MARGIN
  1
CELLMARGIN_BEGIN
 40
0.06
 40
0.06
 40
0.06
 40
0.06
 40
0.06
 40
0.06
309
CELLMARGIN_END
 94
        6
 95
        1
302
GRIDFORMAT
  1
GRIDFORMAT_BEGIN
 90
        0
 91
        1
 62
     0
 92
       -2
340
14
 93
        0
 40
0.045
309
GRIDFORMAT_END
 95
        2
302
GRIDFORMAT
  1
GRIDFORMAT_BEGIN
 90
        0
 91
        1
 62
     0
 92
       -2
340
14
 93
        0
 40
0.045
309
GRIDFORMAT_END
 95
        4
302
GRIDFORMAT
  1
GRIDFORMAT_BEGIN
 90
        0
 91
        1
 62
     0
 92
       -2
340
14
 93
        0
 40
0.045
309
GRIDFORMAT_END
 95
        8
302
GRIDFORMAT
  1
GRIDFORMAT_BEGIN
 90
        0
 91
        1
 62
     0
 92
       -2
340
14
 93
        0
 40
0.045
309
GRIDFORMAT_END
 95
       16
302
GRIDFORMAT
  1
GRIDFORMAT_BEGIN
 90
        0
 91
        1
 62
     0
 92
       -2
340
14
 93
        0
 40
0.045
309
GRIDFORMAT_END
 95
       32
302
GRIDFORMAT
  1
GRIDFORMAT_BEGIN
 90
        0
 91
        1
 62
     0
 92
       -2
340
14
 93
        0
 40
0.045
309
GRIDFORMAT_END
309
TABLEFORMAT_END
  1
CELLSTYLE_BEGIN
 90
        1
 91
        1
300
_TITLE
309
CELLSTYLE_END
300
CELLSTYLE
  1
TABLEFORMAT_BEGIN
 90
        5
170
     1
 91
        0
 92
        0
 62
   257
 93
        1
300
CONTENTFORMAT
  1
CONTENTFORMAT_BEGIN
 90
        0
 91
        0
 92
        4
 93
        0
300

 40
0.0
140
1.0
 94
        5
 62
     0
340
11
144
0.18
309
CONTENTFORMAT_END
171
     1
301
MARGIN
  1
CELLMARGIN_BEGIN
 40
0.06
 40
0.06
 40
0.06
 40
0.06
 40
0.06
 40
0.06
309
CELLMARGIN_END
 94
        6
 95
        1
302
GRIDFORMAT
  1
GRIDFORMAT_BEGIN
 90
        0
 91
        1
 62
     0
 92
       -2
340
14
 93
        0
 40
0.045
309
GRIDFORMAT_END
 95
        2
302
GRIDFORMAT
  1
GRIDFORMAT_BEGIN
 90
        0
 91
        1
 62
     0
 92
       -2
340
14
 93
        0
 40
0.045
309
GRIDFORMAT_END
 95
        4
302
GRIDFORMAT
  1
GRIDFORMAT_BEGIN
 90
        0
 91
        1
 62
     0
 92
       -2
340
14
 93
        0
 40
0.045
309
GRIDFORMAT_END
 95
        8
302
GRIDFORMAT
  1
GRIDFORMAT_BEGIN
 90
        0
 91
        1
 62
     0
 92
       -2
340
14
 93
        0
 40
0.045
309
GRIDFORMAT_END
 95
       16
302
GRIDFORMAT
  1
GRIDFORMAT_BEGIN
 90
        0
 91
        1
 62
     0
 92
       -2
340
14
 93
        0
 40
0.045
309
GRIDFORMAT_END
 95
       32
302
GRIDFORMAT
  1
GRIDFORMAT_BEGIN
 90
        0
 91
        1
 62
     0
 92
       -2
340
14
 93
        0
 40
0.045
309
GRIDFORMAT_END
309
TABLEFORMAT_END
  1
CELLSTYLE_BEGIN
 90
        2
 91
        1
300
_HEADER
309
CELLSTYLE_END
300
CELLSTYLE
  1
TABLEFORMAT_BEGIN
 90
        5
170
     1
 91
        0
 92
        0
 62
   257
 93
        1
300
CONTENTFORMAT
  1
CONTENTFORMAT_BEGIN
 90
        0
 91
        0
 92
        4
 93
        0
300

 40
0.0
140
1.0
 94
        2
 62
     0
340
11
144
0.18
309
CONTENTFORMAT_END
171
     1
301
MARGIN
  1
CELLMARGIN_BEGIN
 40
0.06
 40
0.06
 40
0.06
 40
0.06
 40
0.06
 40
0.06
309
CELLMARGIN_END
 94
        6
 95
        1
302
GRIDFORMAT
  1
GRIDFORMAT_BEGIN
 90
        0
 91
        1
 62
     0
 92
       -2
340
14
 93
        0
 40
0.045
309
GRIDFORMAT_END
 95
        2
302
GRIDFORMAT
  1
GRIDFORMAT_BEGIN
 90
        0
 91
        1
 62
     0
 92
       -2
340
14
 93
        0
 40
0.045
309
GRIDFORMAT_END
 95
        4
302
GRIDFORMAT
  1
GRIDFORMAT_BEGIN
 90
        0
 91
        1
 62
     0
 92
       -2
340
14
 93
        0
 40
0.045
309
GRIDFORMAT_END
 95
        8
302
GRIDFORMAT
  1
GRIDFORMAT_BEGIN
 90
        0
 91
        1
 62
     0
 92
       -2
340
14
 93
        0
 40
0.045
309
GRIDFORMAT_END
 95
       16
302
GRIDFORMAT
  1
GRIDFORMAT_BEGIN
 90
        0
 91
        1
 62
     0
 92
       -2
340
14
 93
        0
 40
0.045
309
GRIDFORMAT_END
 95
       32
302
GRIDFORMAT
  1
GRIDFORMAT_BEGIN
 90
        0
 91
        1
 62
     0
 92
       -2
340
14
 93
        0
 40
0.045
309
GRIDFORMAT_END
309
TABLEFORMAT_END
  1
CELLSTYLE_BEGIN
 90
        3
 91
        2
300
_DATA
309
CELLSTYLE_END
  0
XRECORD
  5
A0
102
{ACAD_REACTORS
330
9F
102
}
330
9F
100
AcDbXrecord
280
     1
102
RTVSPropertyOp0
 70
     1
102
RTVSPropertyOp1
 70
     1
102
RTVSPropertyOp2
 70
     1
102
RTVSPropertyOp3
 70
     1
102
RTVSPropertyOp4
 70
     1
102
RTVSPropertyOp5
 70
     1
102
RTVSPropertyOp6
 70
     1
102
RTVSPropertyOp7
 70
     1
102
RTVSPropertyOp8
 70
     1
102
RTVSPropertyOp9
 70
     1
102
RTVSPropertyOp10
 70
     1
102
RTVSPropertyOp11
 70
     1
102
RTVSPropertyOp12
 70
     1
102
RTVSPropertyOp13
 70
     1
102
RTVSPropertyOp14
 70
     1
102
RTVSPropertyOp15
 70
     1
102
RTVSPropertyOp16
 70
     1
102
RTVSPropertyOp17
 70
     1
102
RTVSPropertyOp18
 70
     1
102
RTVSPropertyOp19
 70
     1
102
RTVSPropertyOp20
 70
     1
102
RTVSPropertyOp21
 70
     1
102
RTVSPropertyOp22
 70
     1
102
RTVSPropertyOp23
 70
     1
102
RTVSPropertyOp24
 70
     1
102
RTVSPropertyOp25
 70
     1
102
RTVSPropertyOp26
 70
     1
102
RTVSPropertyOp27
 70
     1
102
RTVSPropertyOp28
 70
     1
102
RTVSPropertyOp29
 70
     1
102
RTVSPropertyOp30
 70
     1
102
RTVSPropertyOp31
 70
     1
102
RTVSPropertyOp32
 70
     1
102
RTVSPropertyOp33
 70
     1
102
RTVSPropertyOp34
 70
     1
102
RTVSPropertyOp35
 70
     1
102
RTVSPropertyOp36
 70
     1
102
RTVSPropertyOp37
 70
     1
102
RTVSPropertyOp38
 70
     1
102
RTVSPropertyOp39
 70
     1
102
RTVSPropertyOp40
 70
     1
102
RTVSPropertyOp41
 70
     1
102
RTVSPropertyOp42
 70
     1
102
RTVSPropertyOp43
 70
     1
102
RTVSPropertyOp44
 70
     1
102
RTVSPropertyOp45
 70
     1
102
RTVSPropertyOp46
 70
     1
102
RTVSPropertyOp47
 70
     1
102
RTVSPropertyOp48
 70
     1
102
RTVSPropertyOp49
 70
     1
102
RTVSPropertyOp50
 70
     1
102
RTVSPropertyOp51
 70
     0
102
RTVSPropertyOp52
 70
     0
102
RTVSPropertyOp53
 70
     1
102
RTVSPropertyOp54
 70
     1
102
RTVSPropertyOp55
 70
     1
102
RTVSPropertyOp56
 70
     1
102
RTVSPropertyOp57
 70
     1
102
RTVSPost2010Prop28
280
     1
102
RTVSPost2010PropOp28
 70
     1
102
RTVSPost2010Prop29
280
     1
102
RTVSPost2010PropOp29
 70
     1
102
RTVSPost2010Prop30
280
     0
102
RTVSPost2010PropOp30
 70
     1
102
RTVSPost2010Prop31
280
     0
102
RTVSPost2010PropOp31
 70
     1
102
RTVSPost2010Prop32
280
     0
102
RTVSPost2010PropOp32
 70
     1
102
RTVSPost2010Prop33
280
     0
102
RTVSPost2010PropOp33
 70
     1
102
RTVSPost2010Prop34
280
     0
102
RTVSPost2010PropOp34
 70
     1
102
RTVSPost2010Prop35
280
     0
102
RTVSPost2010PropOp35
 70
     1
102
RTVSPost2010Prop36
280
     0
102
RTVSPost2010PropOp36
 70
     1
102
RTVSPost2010Prop37
 90
       50
102
RTVSPost2010PropOp37
 70
     1
102
RTVSPost2010Prop38
140
0.0
102
RTVSPost2010PropOp38
 70
     1
102
RTVSPost2010Prop39
140
1.0
102
RTVSPost2010PropOp39
 70
     1
102
RTVSPost2010Prop40
 90
        0
102
RTVSPost2010PropOp40
 70
     1
102
RTVSPost2010Prop41ColorIndex
 90
       18
102
RTVSPost2010Prop41ColorRGB
 90
        0
102
RTVSPost2010PropOp41
 70
     1
102
RTVSPost2010Prop42
 90
       50
102
RTVSPost2010PropOp42
 70
     1
102
RTVSPost2010Prop43
 90
        3
102
RTVSPost2010PropOp43
 70
     1
102
RTVSPost2010Prop44ColorIndex
 90
        5
102
RTVSPost2010Prop44ColorRGB
 90
      255
102
RTVSPost2010PropOp44
 70
     1
102
RTVSPost2010Prop45
280
     0
102
RTVSPost2010PropOp45
 70
     1
102
RTVSPost2010Prop46
 90
       50
102
RTVSPost2010PropOp46
 70
     1
102
RTVSPost2010Prop47
 90
       50
102
RTVSPost2010PropOp47
 70
     1
102
RTVSPost2010Prop48
 90
       50
102
RTVSPost2010PropOp48
 70
     1
102
RTVSPost2010Prop49
280
     0
102
RTVSPost2010PropOp49
 70
     1
102
RTVSPost2010Prop50
 90
       50
102
RTVSPost2010PropOp50
 70
     1
102
RTVSPost2010Prop51ColorIndex
 90
      256
102
RTVSPost2010Prop51ColorRGB
 90
-16777216
102
RTVSPost2010PropOp51
 70
     0
102
RTVSPost2010Prop52
140
1.0
102
RTVSPost2010PropOp52
 70
     0
102
RTVSPost2010Prop53
 90
        2
102
RTVSPost2010PropOp53
 70
     1
102
RTVSPost2010Prop54
  1
strokes_ogs.tif
102
RTVSPost2010PropOp54
 70
     1
102
RTVSPost2010Prop55
280
     0
102
RTVSPost2010PropOp55
 70
     1
102
RTVSPost2010Prop56
140
1.0
102
RTVSPost2010PropOp56
 70
     1
102
RTVSPost2010Prop57
140
1.0
102
RTVSPost2010PropOp57
 70
     1
  0
XRECORD
  5
A6
102
{ACAD_REACTORS
330
A5
102
}
330
A5
100
AcDbXrecord
280
     1
102
RTVSPropertyOp0
 70
     1
102
RTVSPropertyOp1
 70
     1
102
RTVSPropertyOp2
 70
     1
102
RTVSPropertyOp3
 70
     1
102
RTVSPropertyOp4
 70
     1
102
RTVSPropertyOp5
 70
     1
102
RTVSPropertyOp6
 70
     1
102
RTVSPropertyOp7
 70
     1
102
RTVSPropertyOp8
 70
     1
102
RTVSPropertyOp9
 70
     1
102
RTVSPropertyOp10
 70
     1
102
RTVSPropertyOp11
 70
     1
102
RTVSPropertyOp12
 70
     1
102
RTVSPropertyOp13
 70
     1
102
RTVSPropertyOp14
 70
     1
102
RTVSPropertyOp15
 70
     1
102
RTVSPropertyOp16
 70
     1
102
RTVSPropertyOp17
 70
     1
102
RTVSPropertyOp18
 70
     1
102
RTVSPropertyOp19
 70
     1
102
RTVSPropertyOp20
 70
     1
102
RTVSPropertyOp21
 70
     1
102
RTVSPropertyOp22
 70
     1
102
RTVSPropertyOp23
 70
     1
102
RTVSPropertyOp24
 70
     1
102
RTVSPropertyOp25
 70
     1
102
RTVSPropertyOp26
 70
     1
102
RTVSPropertyOp27
 70
     1
102
RTVSPropertyOp28
 70
     1
102
RTVSPropertyOp29
 70
     1
102
RTVSPropertyOp30
 70
     1
102
RTVSPropertyOp31
 70
     1
102
RTVSPropertyOp32
 70
     1
102
RTVSPropertyOp33
 70
     1
102
RTVSPropertyOp34
 70
     1
102
RTVSPropertyOp35
 70
     1
102
RTVSPropertyOp36
 70
     1
102
RTVSPropertyOp37
 70
     1
102
RTVSPropertyOp38
 70
     1
102
RTVSPropertyOp39
 70
     1
102
RTVSPropertyOp40
 70
     1
102
RTVSPropertyOp41
 70
     1
102
RTVSPropertyOp42
 70
     1
102
RTVSPropertyOp43
 70
     1
102
RTVSPropertyOp44
 70
     1
102
RTVSPropertyOp45
 70
     1
102
RTVSPropertyOp46
 70
     1
102
RTVSPropertyOp47
 70
     1
102
RTVSPropertyOp48
 70
     1
102
RTVSPropertyOp49
 70
     1
102
RTVSPropertyOp50
 70
     1
102
RTVSPropertyOp51
 70
     0
102
RTVSPropertyOp52
 70
     0
102
RTVSPropertyOp53
 70
     1
102
RTVSPropertyOp54
 70
     1
102
RTVSPropertyOp55
 70
     1
102
RTVSPropertyOp56
 70
     1
102
RTVSPropertyOp57
 70
     1
102
RTVSPost2010Prop28
280
     0
102
RTVSPost2010PropOp28
 70
     1
102
RTVSPost2010Prop29
280
     1
102
RTVSPost2010PropOp29
 70
     1
102
RTVSPost2010Prop30
280
     1
102
RTVSPost2010PropOp30
 70
     1
102
RTVSPost2010Prop31
280
     0
102
RTVSPost2010PropOp31
 70
     1
102
RTVSPost2010Prop32
280
     0
102
RTVSPost2010PropOp32
 70
     1
102
RTVSPost2010Prop33
280
     0
102
RTVSPost2010PropOp33
 70
     1
102
RTVSPost2010Prop34
280
     0
102
RTVSPost2010PropOp34
 70
     1
102
RTVSPost2010Prop35
280
     0
102
RTVSPost2010PropOp35
 70
     1
102
RTVSPost2010Prop36
280
     0
102
RTVSPost2010PropOp36
 70
     1
102
RTVSPost2010Prop37
 90
       50
102
RTVSPost2010PropOp37
 70
     1
102
RTVSPost2010Prop38
140
0.0
102
RTVSPost2010PropOp38
 70
     1
102
RTVSPost2010Prop39
140
1.0
102
RTVSPost2010PropOp39
 70
     1
102
RTVSPost2010Prop40
 90
        0
102
RTVSPost2010PropOp40
 70
     1
102
RTVSPost2010Prop41ColorIndex
 90
       18
102
RTVSPost2010Prop41ColorRGB
 90
        0
102
RTVSPost2010PropOp41
 70
     1
102
RTVSPost2010Prop42
 90
       50
102
RTVSPost2010PropOp42
 70
     1
102
RTVSPost2010Prop43
 90
        3
102
RTVSPost2010PropOp43
 70
     1
102
RTVSPost2010Prop44ColorIndex
 90
        5
102
RTVSPost2010Prop44ColorRGB
 90
      255
102
RTVSPost2010PropOp44
 70
     1
102
RTVSPost2010Prop45
280
     0
102
RTVSPost2010PropOp45
 70
     1
102
RTVSPost2010Prop46
 90
       50
102
RTVSPost2010PropOp46
 70
     1
102
RTVSPost2010Prop47
 90
       50
102
RTVSPost2010PropOp47
 70
     1
102
RTVSPost2010Prop48
 90
       50
102
RTVSPost2010PropOp48
 70
     1
102
RTVSPost2010Prop49
280
     0
102
RTVSPost2010PropOp49
 70
     1
102
RTVSPost2010Prop50
 90
       50
102
RTVSPost2010PropOp50
 70
     1
102
RTVSPost2010Prop51ColorIndex
 90
      256
102
RTVSPost2010Prop51ColorRGB
 90
-16777216
102
RTVSPost2010PropOp51
 70
     0
102
RTVSPost2010Prop52
140
1.0
102
RTVSPost2010PropOp52
 70
     0
102
RTVSPost2010Prop53
 90
        2
102
RTVSPost2010PropOp53
 70
     1
102
RTVSPost2010Prop54
  1
strokes_ogs.tif
102
RTVSPost2010PropOp54
 70
     1
102
RTVSPost2010Prop55
280
     0
102
RTVSPost2010PropOp55
 70
     1
102
RTVSPost2010Prop56
140
1.0
102
RTVSPost2010PropOp56
 70
     1
102
RTVSPost2010Prop57
140
1.0
102
RTVSPost2010PropOp57
 70
     1
  0
XRECORD
  5
AE
102
{ACAD_REACTORS
330
AD
102
}
330
AD
100
AcDbXrecord
280
     1
102
RTVSPropertyOp0
 70
     1
102
RTVSPropertyOp1
 70
     1
102
RTVSPropertyOp2
 70
     1
102
RTVSPropertyOp3
 70
     1
102
RTVSPropertyOp4
 70
     1
102
RTVSPropertyOp5
 70
     1
102
RTVSPropertyOp6
 70
     1
102
RTVSPropertyOp7
 70
     1
102
RTVSPropertyOp8
 70
     1
102
RTVSPropertyOp9
 70
     1
102
RTVSPropertyOp10
 70
     1
102
RTVSPropertyOp11
 70
     1
102
RTVSPropertyOp12
 70
     1
102
RTVSPropertyOp13
 70
     1
102
RTVSPropertyOp14
 70
     1
102
RTVSPropertyOp15
 70
     1
102
RTVSPropertyOp16
 70
     1
102
RTVSPropertyOp17
 70
     1
102
RTVSPropertyOp18
 70
     1
102
RTVSPropertyOp19
 70
     1
102
RTVSPropertyOp20
 70
     1
102
RTVSPropertyOp21
 70
     1
102
RTVSPropertyOp22
 70
     1
102
RTVSPropertyOp23
 70
     1
102
RTVSPropertyOp24
 70
     1
102
RTVSPropertyOp25
 70
     1
102
RTVSPropertyOp26
 70
     1
102
RTVSPropertyOp27
 70
     1
102
RTVSPropertyOp28
 70
     1
102
RTVSPropertyOp29
 70
     1
102
RTVSPropertyOp30
 70
     1
102
RTVSPropertyOp31
 70
     1
102
RTVSPropertyOp32
 70
     1
102
RTVSPropertyOp33
 70
     1
102
RTVSPropertyOp34
 70
     1
102
RTVSPropertyOp35
 70
     1
102
RTVSPropertyOp36
 70
     1
102
RTVSPropertyOp37
 70
     1
102
RTVSPropertyOp38
 70
     1
102
RTVSPropertyOp39
 70
     1
102
RTVSPropertyOp40
 70
     1
102
RTVSPropertyOp41
 70
     1
102
RTVSPropertyOp42
 70
     1
102
RTVSPropertyOp43
 70
     1
102
RTVSPropertyOp44
 70
     1
102
RTVSPropertyOp45
 70
     1
102
RTVSPropertyOp46
 70
     1
102
RTVSPropertyOp47
 70
     1
102
RTVSPropertyOp48
 70
     1
102
RTVSPropertyOp49
 70
     1
102
RTVSPropertyOp50
 70
     1
102
RTVSPropertyOp51
 70
     0
102
RTVSPropertyOp52
 70
     0
102
RTVSPropertyOp53
 70
     1
102
RTVSPropertyOp54
 70
     1
102
RTVSPropertyOp55
 70
     1
102
RTVSPropertyOp56
 70
     1
102
RTVSPropertyOp57
 70
     1
102
RTVSPost2010Prop28
280
     0
102
RTVSPost2010PropOp28
 70
     1
102
RTVSPost2010Prop29
280
     1
102
RTVSPost2010PropOp29
 70
     1
102
RTVSPost2010Prop30
280
     1
102
RTVSPost2010PropOp30
 70
     1
102
RTVSPost2010Prop31
280
     0
102
RTVSPost2010PropOp31
 70
     1
102
RTVSPost2010Prop32
280
     0
102
RTVSPost2010PropOp32
 70
     1
102
RTVSPost2010Prop33
280
     0
102
RTVSPost2010PropOp33
 70
     1
102
RTVSPost2010Prop34
280
     0
102
RTVSPost2010PropOp34
 70
     1
102
RTVSPost2010Prop35
280
     0
102
RTVSPost2010PropOp35
 70
     1
102
RTVSPost2010Prop36
280
     0
102
RTVSPost2010PropOp36
 70
     1
102
RTVSPost2010Prop37
 90
       50
102
RTVSPost2010PropOp37
 70
     1
102
RTVSPost2010Prop38
140
0.0
102
RTVSPost2010PropOp38
 70
     1
102
RTVSPost2010Prop39
140
1.0
102
RTVSPost2010PropOp39
 70
     1
102
RTVSPost2010Prop40
 90
        0
102
RTVSPost2010PropOp40
 70
     1
102
RTVSPost2010Prop41ColorIndex
 90
       18
102
RTVSPost2010Prop41ColorRGB
 90
        0
102
RTVSPost2010PropOp41
 70
     1
102
RTVSPost2010Prop42
 90
       50
102
RTVSPost2010PropOp42
 70
     1
102
RTVSPost2010Prop43
 90
        3
102
RTVSPost2010PropOp43
 70
     1
102
RTVSPost2010Prop44ColorIndex
 90
        5
102
RTVSPost2010Prop44ColorRGB
 90
      255
102
RTVSPost2010PropOp44
 70
     1
102
RTVSPost2010Prop45
280
     0
102
RTVSPost2010PropOp45
 70
     1
102
RTVSPost2010Prop46
 90
       50
102
RTVSPost2010PropOp46
 70
     1
102
RTVSPost2010Prop47
 90
       50
102
RTVSPost2010PropOp47
 70
     1
102
RTVSPost2010Prop48
 90
       50
102
RTVSPost2010PropOp48
 70
     1
102
RTVSPost2010Prop49
280
     0
102
RTVSPost2010PropOp49
 70
     1
102
RTVSPost2010Prop50
 90
       50
102
RTVSPost2010PropOp50
 70
     1
102
RTVSPost2010Prop51ColorIndex
 90
      256
102
RTVSPost2010Prop51ColorRGB
 90
-16777216
102
RTVSPost2010PropOp51
 70
     0
102
RTVSPost2010Prop52
140
1.0
102
RTVSPost2010PropOp52
 70
     0
102
RTVSPost2010Prop53
 90
        2
102
RTVSPost2010PropOp53
 70
     1
102
RTVSPost2010Prop54
  1
strokes_ogs.tif
102
RTVSPost2010PropOp54
 70
     1
102
RTVSPost2010Prop55
280
     0
102
RTVSPost2010PropOp55
 70
     1
102
RTVSPost2010Prop56
140
1.0
102
RTVSPost2010PropOp56
 70
     1
102
RTVSPost2010Prop57
140
1.0
102
RTVSPost2010PropOp57
 70
     1
  0
XRECORD
  5
B6
102
{ACAD_REACTORS
330
B5
102
}
330
B5
100
AcDbXrecord
280
     1
102
RTVSPropertyOp0
 70
     1
102
RTVSPropertyOp1
 70
     1
102
RTVSPropertyOp2
 70
     1
102
RTVSPropertyOp3
 70
     1
102
RTVSPropertyOp4
 70
     1
102
RTVSPropertyOp5
 70
     1
102
RTVSPropertyOp6
 70
     1
102
RTVSPropertyOp7
 70
     1
102
RTVSPropertyOp8
 70
     1
102
RTVSPropertyOp9
 70
     1
102
RTVSPropertyOp10
 70
     1
102
RTVSPropertyOp11
 70
     1
102
RTVSPropertyOp12
 70
     1
102
RTVSPropertyOp13
 70
     1
102
RTVSPropertyOp14
 70
     1
102
RTVSPropertyOp15
 70
     1
102
RTVSPropertyOp16
 70
     1
102
RTVSPropertyOp17
 70
     1
102
RTVSPropertyOp18
 70
     1
102
RTVSPropertyOp19
 70
     1
102
RTVSPropertyOp20
 70
     1
102
RTVSPropertyOp21
 70
     1
102
RTVSPropertyOp22
 70
     1
102
RTVSPropertyOp23
 70
     1
102
RTVSPropertyOp24
 70
     1
102
RTVSPropertyOp25
 70
     1
102
RTVSPropertyOp26
 70
     1
102
RTVSPropertyOp27
 70
     1
102
RTVSPropertyOp28
 70
     1
102
RTVSPropertyOp29
 70
     1
102
RTVSPropertyOp30
 70
     1
102
RTVSPropertyOp31
 70
     1
102
RTVSPropertyOp32
 70
     1
102
RTVSPropertyOp33
 70
     1
102
RTVSPropertyOp34
 70
     1
102
RTVSPropertyOp35
 70
     1
102
RTVSPropertyOp36
 70
     1
102
RTVSPropertyOp37
 70
     1
102
RTVSPropertyOp38
 70
     1
102
RTVSPropertyOp39
 70
     1
102
RTVSPropertyOp40
 70
     1
102
RTVSPropertyOp41
 70
     1
102
RTVSPropertyOp42
 70
     1
102
RTVSPropertyOp43
 70
     1
102
RTVSPropertyOp44
 70
     1
102
RTVSPropertyOp45
 70
     1
102
RTVSPropertyOp46
 70
     1
102
RTVSPropertyOp47
 70
     1
102
RTVSPropertyOp48
 70
     1
102
RTVSPropertyOp49
 70
     1
102
RTVSPropertyOp50
 70
     1
102
RTVSPropertyOp51
 70
     0
102
RTVSPropertyOp52
 70
     0
102
RTVSPropertyOp53
 70
     1
102
RTVSPropertyOp54
 70
     1
102
RTVSPropertyOp55
 70
     1
102
RTVSPropertyOp56
 70
     1
102
RTVSPropertyOp57
 70
     1
102
RTVSPost2010Prop28
280
     0
102
RTVSPost2010PropOp28
 70
     1
102
RTVSPost2010Prop29
280
     1
102
RTVSPost2010PropOp29
 70
     1
102
RTVSPost2010Prop30
280
     1
102
RTVSPost2010PropOp30
 70
     1
102
RTVSPost2010Prop31
280
     0
102
RTVSPost2010PropOp31
 70
     1
102
RTVSPost2010Prop32
280
     0
102
RTVSPost2010PropOp32
 70
     1
102
RTVSPost2010Prop33
280
     0
102
RTVSPost2010PropOp33
 70
     1
102
RTVSPost2010Prop34
280
     0
102
RTVSPost2010PropOp34
 70
     1
102
RTVSPost2010Prop35
280
     0
102
RTVSPost2010PropOp35
 70
     1
102
RTVSPost2010Prop36
280
     0
102
RTVSPost2010PropOp36
 70
     1
102
RTVSPost2010Prop37
 90
       50
102
RTVSPost2010PropOp37
 70
     1
102
RTVSPost2010Prop38
140
0.0
102
RTVSPost2010PropOp38
 70
     1
102
RTVSPost2010Prop39
140
1.0
102
RTVSPost2010PropOp39
 70
     1
102
RTVSPost2010Prop40
 90
        0
102
RTVSPost2010PropOp40
 70
     1
102
RTVSPost2010Prop41ColorIndex
 90
       18
102
RTVSPost2010Prop41ColorRGB
 90
        0
102
RTVSPost2010PropOp41
 70
     1
102
RTVSPost2010Prop42
 90
       50
102
RTVSPost2010PropOp42
 70
     1
102
RTVSPost2010Prop43
 90
        3
102
RTVSPost2010PropOp43
 70
     1
102
RTVSPost2010Prop44ColorIndex
 90
        5
102
RTVSPost2010Prop44ColorRGB
 90
      255
102
RTVSPost2010PropOp44
 70
     1
102
RTVSPost2010Prop45
280
     0
102
RTVSPost2010PropOp45
 70
     1
102
RTVSPost2010Prop46
 90
       50
102
RTVSPost2010PropOp46
 70
     1
102
RTVSPost2010Prop47
 90
       50
102
RTVSPost2010PropOp47
 70
     1
102
RTVSPost2010Prop48
 90
       50
102
RTVSPost2010PropOp48
 70
     1
102
RTVSPost2010Prop49
280
     0
102
RTVSPost2010PropOp49
 70
     1
102
RTVSPost2010Prop50
 90
       50
102
RTVSPost2010PropOp50
 70
     1
102
RTVSPost2010Prop51ColorIndex
 90
      256
102
RTVSPost2010Prop51ColorRGB
 90
-16777216
102
RTVSPost2010PropOp51
 70
     0
102
RTVSPost2010Prop52
140
1.0
102
RTVSPost2010PropOp52
 70
     0
102
RTVSPost2010Prop53
 90
        2
102
RTVSPost2010PropOp53
 70
     1
102
RTVSPost2010Prop54
  1
strokes_ogs.tif
102
RTVSPost2010PropOp54
 70
     1
102
RTVSPost2010Prop55
280
     0
102
RTVSPost2010PropOp55
 70
     1
102
RTVSPost2010Prop56
140
1.0
102
RTVSPost2010PropOp56
 70
     1
102
RTVSPost2010Prop57
140
1.0
102
RTVSPost2010PropOp57
 70
     1
  0
XRECORD
  5
AA
102
{ACAD_REACTORS
330
A9
102
}
330
A9
100
AcDbXrecord
280
     1
102
RTVSPropertyOp0
 70
     1
102
RTVSPropertyOp1
 70
     1
102
RTVSPropertyOp2
 70
     1
102
RTVSPropertyOp3
 70
     1
102
RTVSPropertyOp4
 70
     1
102
RTVSPropertyOp5
 70
     1
102
RTVSPropertyOp6
 70
     1
102
RTVSPropertyOp7
 70
     1
102
RTVSPropertyOp8
 70
     1
102
RTVSPropertyOp9
 70
     1
102
RTVSPropertyOp10
 70
     1
102
RTVSPropertyOp11
 70
     1
102
RTVSPropertyOp12
 70
     1
102
RTVSPropertyOp13
 70
     1
102
RTVSPropertyOp14
 70
     1
102
RTVSPropertyOp15
 70
     1
102
RTVSPropertyOp16
 70
     1
102
RTVSPropertyOp17
 70
     1
102
RTVSPropertyOp18
 70
     1
102
RTVSPropertyOp19
 70
     1
102
RTVSPropertyOp20
 70
     1
102
RTVSPropertyOp21
 70
     1
102
RTVSPropertyOp22
 70
     1
102
RTVSPropertyOp23
 70
     1
102
RTVSPropertyOp24
 70
     1
102
RTVSPropertyOp25
 70
     1
102
RTVSPropertyOp26
 70
     1
102
RTVSPropertyOp27
 70
     1
102
RTVSPropertyOp28
 70
     1
102
RTVSPropertyOp29
 70
     1
102
RTVSPropertyOp30
 70
     1
102
RTVSPropertyOp31
 70
     1
102
RTVSPropertyOp32
 70
     1
102
RTVSPropertyOp33
 70
     1
102
RTVSPropertyOp34
 70
     1
102
RTVSPropertyOp35
 70
     1
102
RTVSPropertyOp36
 70
     1
102
RTVSPropertyOp37
 70
     1
102
RTVSPropertyOp38
 70
     1
102
RTVSPropertyOp39
 70
     1
102
RTVSPropertyOp40
 70
     1
102
RTVSPropertyOp41
 70
     1
102
RTVSPropertyOp42
 70
     1
102
RTVSPropertyOp43
 70
     1
102
RTVSPropertyOp44
 70
     1
102
RTVSPropertyOp45
 70
     1
102
RTVSPropertyOp46
 70
     1
102
RTVSPropertyOp47
 70
     1
102
RTVSPropertyOp48
 70
     1
102
RTVSPropertyOp49
 70
     1
102
RTVSPropertyOp50
 70
     1
102
RTVSPropertyOp51
 70
     0
102
RTVSPropertyOp52
 70
     0
102
RTVSPropertyOp53
 70
     1
102
RTVSPropertyOp54
 70
     1
102
RTVSPropertyOp55
 70
     1
102
RTVSPropertyOp56
 70
     1
102
RTVSPropertyOp57
 70
     1
102
RTVSPost2010Prop28
280
     0
102
RTVSPost2010PropOp28
 70
     1
102
RTVSPost2010Prop29
280
     1
102
RTVSPost2010PropOp29
 70
     1
102
RTVSPost2010Prop30
280
     1
102
RTVSPost2010PropOp30
 70
     1
102
RTVSPost2010Prop31
280
     0
102
RTVSPost2010PropOp31
 70
     1
102
RTVSPost2010Prop32
280
     0
102
RTVSPost2010PropOp32
 70
     1
102
RTVSPost2010Prop33
280
     0
102
RTVSPost2010PropOp33
 70
     1
102
RTVSPost2010Prop34
280
     0
102
RTVSPost2010PropOp34
 70
     1
102
RTVSPost2010Prop35
280
     0
102
RTVSPost2010PropOp35
 70
     1
102
RTVSPost2010Prop36
280
     0
102
RTVSPost2010PropOp36
 70
     1
102
RTVSPost2010Prop37
 90
       50
102
RTVSPost2010PropOp37
 70
     1
102
RTVSPost2010Prop38
140
0.0
102
RTVSPost2010PropOp38
 70
     1
102
RTVSPost2010Prop39
140
1.0
102
RTVSPost2010PropOp39
 70
     1
102
RTVSPost2010Prop40
 90
        0
102
RTVSPost2010PropOp40
 70
     1
102
RTVSPost2010Prop41ColorIndex
 90
       18
102
RTVSPost2010Prop41ColorRGB
 90
        0
102
RTVSPost2010PropOp41
 70
     1
102
RTVSPost2010Prop42
 90
       50
102
RTVSPost2010PropOp42
 70
     1
102
RTVSPost2010Prop43
 90
        3
102
RTVSPost2010PropOp43
 70
     1
102
RTVSPost2010Prop44ColorIndex
 90
        5
102
RTVSPost2010Prop44ColorRGB
 90
      255
102
RTVSPost2010PropOp44
 70
     1
102
RTVSPost2010Prop45
280
     0
102
RTVSPost2010PropOp45
 70
     1
102
RTVSPost2010Prop46
 90
       50
102
RTVSPost2010PropOp46
 70
     1
102
RTVSPost2010Prop47
 90
       50
102
RTVSPost2010PropOp47
 70
     1
102
RTVSPost2010Prop48
 90
       50
102
RTVSPost2010PropOp48
 70
     1
102
RTVSPost2010Prop49
280
     0
102
RTVSPost2010PropOp49
 70
     1
102
RTVSPost2010Prop50
 90
       50
102
RTVSPost2010PropOp50
 70
     1
102
RTVSPost2010Prop51ColorIndex
 90
      256
102
RTVSPost2010Prop51ColorRGB
 90
-16777216
102
RTVSPost2010PropOp51
 70
     0
102
RTVSPost2010Prop52
140
1.0
102
RTVSPost2010PropOp52
 70
     0
102
RTVSPost2010Prop53
 90
        2
102
RTVSPost2010PropOp53
 70
     1
102
RTVSPost2010Prop54
  1
strokes_ogs.tif
102
RTVSPost2010PropOp54
 70
     1
102
RTVSPost2010Prop55
280
     0
102
RTVSPost2010PropOp55
 70
     1
102
RTVSPost2010Prop56
140
1.0
102
RTVSPost2010PropOp56
 70
     1
102
RTVSPost2010Prop57
140
1.0
102
RTVSPost2010PropOp57
 70
     1
  0
XRECORD
  5
AC
102
{ACAD_REACTORS
330
AB
102
}
330
AB
100
AcDbXrecord
280
     1
102
RTVSPropertyOp0
 70
     1
102
RTVSPropertyOp1
 70
     1
102
RTVSPropertyOp2
 70
     1
102
RTVSPropertyOp3
 70
     1
102
RTVSPropertyOp4
 70
     1
102
RTVSPropertyOp5
 70
     1
102
RTVSPropertyOp6
 70
     1
102
RTVSPropertyOp7
 70
     1
102
RTVSPropertyOp8
 70
     1
102
RTVSPropertyOp9
 70
     1
102
RTVSPropertyOp10
 70
     1
102
RTVSPropertyOp11
 70
     1
102
RTVSPropertyOp12
 70
     1
102
RTVSPropertyOp13
 70
     1
102
RTVSPropertyOp14
 70
     1
102
RTVSPropertyOp15
 70
     1
102
RTVSPropertyOp16
 70
     1
102
RTVSPropertyOp17
 70
     1
102
RTVSPropertyOp18
 70
     1
102
RTVSPropertyOp19
 70
     1
102
RTVSPropertyOp20
 70
     1
102
RTVSPropertyOp21
 70
     1
102
RTVSPropertyOp22
 70
     1
102
RTVSPropertyOp23
 70
     1
102
RTVSPropertyOp24
 70
     1
102
RTVSPropertyOp25
 70
     1
102
RTVSPropertyOp26
 70
     1
102
RTVSPropertyOp27
 70
     1
102
RTVSPropertyOp28
 70
     1
102
RTVSPropertyOp29
 70
     1
102
RTVSPropertyOp30
 70
     1
102
RTVSPropertyOp31
 70
     1
102
RTVSPropertyOp32
 70
     1
102
RTVSPropertyOp33
 70
     1
102
RTVSPropertyOp34
 70
     1
102
RTVSPropertyOp35
 70
     1
102
RTVSPropertyOp36
 70
     1
102
RTVSPropertyOp37
 70
     1
102
RTVSPropertyOp38
 70
     1
102
RTVSPropertyOp39
 70
     1
102
RTVSPropertyOp40
 70
     1
102
RTVSPropertyOp41
 70
     1
102
RTVSPropertyOp42
 70
     1
102
RTVSPropertyOp43
 70
     1
102
RTVSPropertyOp44
 70
     1
102
RTVSPropertyOp45
 70
     1
102
RTVSPropertyOp46
 70
     1
102
RTVSPropertyOp47
 70
     1
102
RTVSPropertyOp48
 70
     1
102
RTVSPropertyOp49
 70
     1
102
RTVSPropertyOp50
 70
     1
102
RTVSPropertyOp51
 70
     0
102
RTVSPropertyOp52
 70
     0
102
RTVSPropertyOp53
 70
     1
102
RTVSPropertyOp54
 70
     1
102
RTVSPropertyOp55
 70
     1
102
RTVSPropertyOp56
 70
     1
102
RTVSPropertyOp57
 70
     1
102
RTVSPost2010Prop28
280
     0
102
RTVSPost2010PropOp28
 70
     1
102
RTVSPost2010Prop29
280
     1
102
RTVSPost2010PropOp29
 70
     1
102
RTVSPost2010Prop30
280
     1
102
RTVSPost2010PropOp30
 70
     1
102
RTVSPost2010Prop31
280
     0
102
RTVSPost2010PropOp31
 70
     1
102
RTVSPost2010Prop32
280
     0
102
RTVSPost2010PropOp32
 70
     1
102
RTVSPost2010Prop33
280
     0
102
RTVSPost2010PropOp33
 70
     1
102
RTVSPost2010Prop34
280
     0
102
RTVSPost2010PropOp34
 70
     1
102
RTVSPost2010Prop35
280
     0
102
RTVSPost2010PropOp35
 70
     1
102
RTVSPost2010Prop36
280
     0
102
RTVSPost2010PropOp36
 70
     1
102
RTVSPost2010Prop37
 90
       50
102
RTVSPost2010PropOp37
 70
     1
102
RTVSPost2010Prop38
140
0.0
102
RTVSPost2010PropOp38
 70
     1
102
RTVSPost2010Prop39
140
1.0
102
RTVSPost2010PropOp39
 70
     1
102
RTVSPost2010Prop40
 90
        0
102
RTVSPost2010PropOp40
 70
     1
102
RTVSPost2010Prop41ColorIndex
 90
       18
102
RTVSPost2010Prop41ColorRGB
 90
        0
102
RTVSPost2010PropOp41
 70
     1
102
RTVSPost2010Prop42
 90
       50
102
RTVSPost2010PropOp42
 70
     1
102
RTVSPost2010Prop43
 90
        3
102
RTVSPost2010PropOp43
 70
     1
102
RTVSPost2010Prop44ColorIndex
 90
        5
102
RTVSPost2010Prop44ColorRGB
 90
      255
102
RTVSPost2010PropOp44
 70
     1
102
RTVSPost2010Prop45
280
     0
102
RTVSPost2010PropOp45
 70
     1
102
RTVSPost2010Prop46
 90
       50
102
RTVSPost2010PropOp46
 70
     1
102
RTVSPost2010Prop47
 90
       50
102
RTVSPost2010PropOp47
 70
     1
102
RTVSPost2010Prop48
 90
       50
102
RTVSPost2010PropOp48
 70
     1
102
RTVSPost2010Prop49
280
     0
102
RTVSPost2010PropOp49
 70
     1
102
RTVSPost2010Prop50
 90
       50
102
RTVSPost2010PropOp50
 70
     1
102
RTVSPost2010Prop51ColorIndex
 90
      256
102
RTVSPost2010Prop51ColorRGB
 90
-16777216
102
RTVSPost2010PropOp51
 70
     0
102
RTVSPost2010Prop52
140
1.0
102
RTVSPost2010PropOp52
 70
     0
102
RTVSPost2010Prop53
 90
        2
102
RTVSPost2010PropOp53
 70
     1
102
RTVSPost2010Prop54
  1
strokes_ogs.tif
102
RTVSPost2010PropOp54
 70
     1
102
RTVSPost2010Prop55
280
     0
102
RTVSPost2010PropOp55
 70
     1
102
RTVSPost2010Prop56
140
1.0
102
RTVSPost2010PropOp56
 70
     1
102
RTVSPost2010Prop57
140
1.0
102
RTVSPost2010PropOp57
 70
     1
  0
XRECORD
  5
BC
102
{ACAD_REACTORS
330
BB
102
}
330
BB
100
AcDbXrecord
280
     1
102
RTVSPropertyOp0
 70
     0
102
RTVSPropertyOp1
 70
     0
102
RTVSPropertyOp2
 70
     0
102
RTVSPropertyOp3
 70
     0
102
RTVSPropertyOp4
 70
     0
102
RTVSPropertyOp5
 70
     0
102
RTVSPropertyOp6
 70
     0
102
RTVSPropertyOp7
 70
     0
102
RTVSPropertyOp8
 70
     0
102
RTVSPropertyOp9
 70
     0
102
RTVSPropertyOp10
 70
     0
102
RTVSPropertyOp11
 70
     0
102
RTVSPropertyOp12
 70
     0
102
RTVSPropertyOp13
 70
     0
102
RTVSPropertyOp14
 70
     2
102
RTVSPropertyOp15
 70
     0
102
RTVSPropertyOp16
 70
     0
102
RTVSPropertyOp17
 70
     0
102
RTVSPropertyOp18
 70
     0
102
RTVSPropertyOp19
 70
     0
102
RTVSPropertyOp20
 70
     0
102
RTVSPropertyOp21
 70
     0
102
RTVSPropertyOp22
 70
     0
102
RTVSPropertyOp23
 70
     0
102
RTVSPropertyOp24
 70
     0
102
RTVSPropertyOp25
 70
     0
102
RTVSPropertyOp26
 70
     0
102
RTVSPropertyOp27
 70
     0
102
RTVSPropertyOp28
 70
     0
102
RTVSPropertyOp29
 70
     0
102
RTVSPropertyOp30
 70
     0
102
RTVSPropertyOp31
 70
     0
102
RTVSPropertyOp32
 70
     0
102
RTVSPropertyOp33
 70
     0
102
RTVSPropertyOp34
 70
     0
102
RTVSPropertyOp35
 70
     0
102
RTVSPropertyOp36
 70
     0
102
RTVSPropertyOp37
 70
     0
102
RTVSPropertyOp38
 70
     0
102
RTVSPropertyOp39
 70
     0
102
RTVSPropertyOp40
 70
     0
102
RTVSPropertyOp41
 70
     0
102
RTVSPropertyOp42
 70
     0
102
RTVSPropertyOp43
 70
     0
102
RTVSPropertyOp44
 70
     0
102
RTVSPropertyOp45
 70
     0
102
RTVSPropertyOp46
 70
     0
102
RTVSPropertyOp47
 70
     0
102
RTVSPropertyOp48
 70
     0
102
RTVSPropertyOp49
 70
     0
102
RTVSPropertyOp50
 70
     0
102
RTVSPropertyOp51
 70
     0
102
RTVSPropertyOp52
 70
     0
102
RTVSPropertyOp53
 70
     0
102
RTVSPropertyOp54
 70
     0
102
RTVSPropertyOp55
 70
     0
102
RTVSPropertyOp56
 70
     0
102
RTVSPropertyOp57
 70
     0
102
RTVSPost2010Prop28
280
     0
102
RTVSPost2010PropOp28
 70
     0
102
RTVSPost2010Prop29
280
     1
102
RTVSPost2010PropOp29
 70
     0
102
RTVSPost2010Prop30
280
     1
102
RTVSPost2010PropOp30
 70
     0
102
RTVSPost2010Prop31
280
     0
102
RTVSPost2010PropOp31
 70
     0
102
RTVSPost2010Prop32
280
     0
102
RTVSPost2010PropOp32
 70
     0
102
RTVSPost2010Prop33
280
     0
102
RTVSPost2010PropOp33
 70
     0
102
RTVSPost2010Prop34
280
     0
102
RTVSPost2010PropOp34
 70
     0
102
RTVSPost2010Prop35
280
     0
102
RTVSPost2010PropOp35
 70
     0
102
RTVSPost2010Prop36
280
     0
102
RTVSPost2010PropOp36
 70
     0
102
RTVSPost2010Prop37
 90
       50
102
RTVSPost2010PropOp37
 70
     0
102
RTVSPost2010Prop38
140
0.0
102
RTVSPost2010PropOp38
 70
     0
102
RTVSPost2010Prop39
140
1.0
102
RTVSPost2010PropOp39
 70
     0
102
RTVSPost2010Prop40
 90
        0
102
RTVSPost2010PropOp40
 70
     0
102
RTVSPost2010Prop41ColorIndex
 90
       18
102
RTVSPost2010Prop41ColorRGB
 90
        0
102
RTVSPost2010PropOp41
 70
     0
102
RTVSPost2010Prop42
 90
       50
102
RTVSPost2010PropOp42
 70
     0
102
RTVSPost2010Prop43
 90
        3
102
RTVSPost2010PropOp43
 70
     0
102
RTVSPost2010Prop44ColorIndex
 90
        5
102
RTVSPost2010Prop44ColorRGB
 90
      255
102
RTVSPost2010PropOp44
 70
     0
102
RTVSPost2010Prop45
280
     0
102
RTVSPost2010PropOp45
 70
     0
102
RTVSPost2010Prop46
 90
       50
102
RTVSPost2010PropOp46
 70
     0
102
RTVSPost2010Prop47
 90
       50
102
RTVSPost2010PropOp47
 70
     0
102
RTVSPost2010Prop48
 90
       50
102
RTVSPost2010PropOp48
 70
     0
102
RTVSPost2010Prop49
280
     0
102
RTVSPost2010PropOp49
 70
     0
102
RTVSPost2010Prop50
 90
       50
102
RTVSPost2010PropOp50
 70
     0
102
RTVSPost2010Prop51ColorIndex
 90
      256
102
RTVSPost2010Prop51ColorRGB
 90
-16777216
102
RTVSPost2010PropOp51
 70
     0
102
RTVSPost2010Prop52
140
1.0
102
RTVSPost2010PropOp52
 70
     0
102
RTVSPost2010Prop53
 90
        2
102
RTVSPost2010PropOp53
 70
     0
102
RTVSPost2010Prop54
  1
strokes_ogs.tif
102
RTVSPost2010PropOp54
 70
     0
102
RTVSPost2010Prop55
280
     0
102
RTVSPost2010PropOp55
 70
     0
102
RTVSPost2010Prop56
140
1.0
102
RTVSPost2010PropOp56
 70
     0
102
RTVSPost2010Prop57
140
1.0
102
RTVSPost2010PropOp57
 70
     0
  0
XRECORD
  5
B4
102
{ACAD_REACTORS
330
B3
102
}
330
B3
100
AcDbXrecord
280
     1
102
RTVSPropertyOp0
 70
     1
102
RTVSPropertyOp1
 70
     1
102
RTVSPropertyOp2
 70
     1
102
RTVSPropertyOp3
 70
     1
102
RTVSPropertyOp4
 70
     1
102
RTVSPropertyOp5
 70
     1
102
RTVSPropertyOp6
 70
     1
102
RTVSPropertyOp7
 70
     1
102
RTVSPropertyOp8
 70
     1
102
RTVSPropertyOp9
 70
     1
102
RTVSPropertyOp10
 70
     1
102
RTVSPropertyOp11
 70
     1
102
RTVSPropertyOp12
 70
     1
102
RTVSPropertyOp13
 70
     1
102
RTVSPropertyOp14
 70
     1
102
RTVSPropertyOp15
 70
     1
102
RTVSPropertyOp16
 70
     1
102
RTVSPropertyOp17
 70
     1
102
RTVSPropertyOp18
 70
     1
102
RTVSPropertyOp19
 70
     1
102
RTVSPropertyOp20
 70
     1
102
RTVSPropertyOp21
 70
     1
102
RTVSPropertyOp22
 70
     1
102
RTVSPropertyOp23
 70
     1
102
RTVSPropertyOp24
 70
     1
102
RTVSPropertyOp25
 70
     1
102
RTVSPropertyOp26
 70
     1
102
RTVSPropertyOp27
 70
     1
102
RTVSPropertyOp28
 70
     1
102
RTVSPropertyOp29
 70
     1
102
RTVSPropertyOp30
 70
     1
102
RTVSPropertyOp31
 70
     1
102
RTVSPropertyOp32
 70
     1
102
RTVSPropertyOp33
 70
     1
102
RTVSPropertyOp34
 70
     1
102
RTVSPropertyOp35
 70
     1
102
RTVSPropertyOp36
 70
     1
102
RTVSPropertyOp37
 70
     1
102
RTVSPropertyOp38
 70
     1
102
RTVSPropertyOp39
 70
     1
102
RTVSPropertyOp40
 70
     1
102
RTVSPropertyOp41
 70
     1
102
RTVSPropertyOp42
 70
     1
102
RTVSPropertyOp43
 70
     1
102
RTVSPropertyOp44
 70
     1
102
RTVSPropertyOp45
 70
     1
102
RTVSPropertyOp46
 70
     1
102
RTVSPropertyOp47
 70
     1
102
RTVSPropertyOp48
 70
     1
102
RTVSPropertyOp49
 70
     1
102
RTVSPropertyOp50
 70
     1
102
RTVSPropertyOp51
 70
     0
102
RTVSPropertyOp52
 70
     0
102
RTVSPropertyOp53
 70
     1
102
RTVSPropertyOp54
 70
     1
102
RTVSPropertyOp55
 70
     1
102
RTVSPropertyOp56
 70
     1
102
RTVSPropertyOp57
 70
     1
102
RTVSPost2010Prop28
280
     0
102
RTVSPost2010PropOp28
 70
     1
102
RTVSPost2010Prop29
280
     1
102
RTVSPost2010PropOp29
 70
     1
102
RTVSPost2010Prop30
280
     1
102
RTVSPost2010PropOp30
 70
     1
102
RTVSPost2010Prop31
280
     0
102
RTVSPost2010PropOp31
 70
     1
102
RTVSPost2010Prop32
280
     0
102
RTVSPost2010PropOp32
 70
     1
102
RTVSPost2010Prop33
280
     0
102
RTVSPost2010PropOp33
 70
     1
102
RTVSPost2010Prop34
280
     0
102
RTVSPost2010PropOp34
 70
     1
102
RTVSPost2010Prop35
280
     0
102
RTVSPost2010PropOp35
 70
     1
102
RTVSPost2010Prop36
280
     0
102
RTVSPost2010PropOp36
 70
     1
102
RTVSPost2010Prop37
 90
       50
102
RTVSPost2010PropOp37
 70
     1
102
RTVSPost2010Prop38
140
0.0
102
RTVSPost2010PropOp38
 70
     1
102
RTVSPost2010Prop39
140
1.0
102
RTVSPost2010PropOp39
 70
     1
102
RTVSPost2010Prop40
 90
        0
102
RTVSPost2010PropOp40
 70
     1
102
RTVSPost2010Prop41ColorIndex
 90
       18
102
RTVSPost2010Prop41ColorRGB
 90
        0
102
RTVSPost2010PropOp41
 70
     1
102
RTVSPost2010Prop42
 90
       50
102
RTVSPost2010PropOp42
 70
     1
102
RTVSPost2010Prop43
 90
        3
102
RTVSPost2010PropOp43
 70
     1
102
RTVSPost2010Prop44ColorIndex
 90
        5
102
RTVSPost2010Prop44ColorRGB
 90
      255
102
RTVSPost2010PropOp44
 70
     1
102
RTVSPost2010Prop45
280
     0
102
RTVSPost2010PropOp45
 70
     1
102
RTVSPost2010Prop46
 90
       50
102
RTVSPost2010PropOp46
 70
     1
102
RTVSPost2010Prop47
 90
       50
102
RTVSPost2010PropOp47
 70
     1
102
RTVSPost2010Prop48
 90
       50
102
RTVSPost2010PropOp48
 70
     1
102
RTVSPost2010Prop49
280
     0
102
RTVSPost2010PropOp49
 70
     1
102
RTVSPost2010Prop50
 90
       50
102
RTVSPost2010PropOp50
 70
     1
102
RTVSPost2010Prop51ColorIndex
 90
      256
102
RTVSPost2010Prop51ColorRGB
 90
-16777216
102
RTVSPost2010PropOp51
 70
     0
102
RTVSPost2010Prop52
140
1.0
102
RTVSPost2010PropOp52
 70
     0
102
RTVSPost2010Prop53
 90
        2
102
RTVSPost2010PropOp53
 70
     1
102
RTVSPost2010Prop54
  1
strokes_ogs.tif
102
RTVSPost2010PropOp54
 70
     1
102
RTVSPost2010Prop55
280
     0
102
RTVSPost2010PropOp55
 70
     1
102
RTVSPost2010Prop56
140
1.0
102
RTVSPost2010PropOp56
 70
     1
102
RTVSPost2010Prop57
140
1.0
102
RTVSPost2010PropOp57
 70
     1
  0
XRECORD
  5
98
102
{ACAD_REACTORS
330
97
102
}
330
97
100
AcDbXrecord
280
     1
102
RTVSPropertyOp0
 70
     1
102
RTVSPropertyOp1
 70
     1
102
RTVSPropertyOp2
 70
     1
102
RTVSPropertyOp3
 70
     1
102
RTVSPropertyOp4
 70
     1
102
RTVSPropertyOp5
 70
     1
102
RTVSPropertyOp6
 70
     1
102
RTVSPropertyOp7
 70
     1
102
RTVSPropertyOp8
 70
     1
102
RTVSPropertyOp9
 70
     1
102
RTVSPropertyOp10
 70
     1
102
RTVSPropertyOp11
 70
     1
102
RTVSPropertyOp12
 70
     1
102
RTVSPropertyOp13
 70
     1
102
RTVSPropertyOp14
 70
     1
102
RTVSPropertyOp15
 70
     1
102
RTVSPropertyOp16
 70
     1
102
RTVSPropertyOp17
 70
     1
102
RTVSPropertyOp18
 70
     1
102
RTVSPropertyOp19
 70
     1
102
RTVSPropertyOp20
 70
     1
102
RTVSPropertyOp21
 70
     1
102
RTVSPropertyOp22
 70
     1
102
RTVSPropertyOp23
 70
     1
102
RTVSPropertyOp24
 70
     1
102
RTVSPropertyOp25
 70
     1
102
RTVSPropertyOp26
 70
     1
102
RTVSPropertyOp27
 70
     1
102
RTVSPropertyOp28
 70
     1
102
RTVSPropertyOp29
 70
     1
102
RTVSPropertyOp30
 70
     1
102
RTVSPropertyOp31
 70
     1
102
RTVSPropertyOp32
 70
     1
102
RTVSPropertyOp33
 70
     1
102
RTVSPropertyOp34
 70
     1
102
RTVSPropertyOp35
 70
     1
102
RTVSPropertyOp36
 70
     1
102
RTVSPropertyOp37
 70
     1
102
RTVSPropertyOp38
 70
     1
102
RTVSPropertyOp39
 70
     1
102
RTVSPropertyOp40
 70
     1
102
RTVSPropertyOp41
 70
     1
102
RTVSPropertyOp42
 70
     1
102
RTVSPropertyOp43
 70
     1
102
RTVSPropertyOp44
 70
     1
102
RTVSPropertyOp45
 70
     1
102
RTVSPropertyOp46
 70
     1
102
RTVSPropertyOp47
 70
     1
102
RTVSPropertyOp48
 70
     1
102
RTVSPropertyOp49
 70
     1
102
RTVSPropertyOp50
 70
     1
102
RTVSPropertyOp51
 70
     0
102
RTVSPropertyOp52
 70
     0
102
RTVSPropertyOp53
 70
     1
102
RTVSPropertyOp54
 70
     1
102
RTVSPropertyOp55
 70
     1
102
RTVSPropertyOp56
 70
     1
102
RTVSPropertyOp57
 70
     1
102
RTVSPost2010Prop28
280
     0
102
RTVSPost2010PropOp28
 70
     1
102
RTVSPost2010Prop29
280
     1
102
RTVSPost2010PropOp29
 70
     1
102
RTVSPost2010Prop30
280
     1
102
RTVSPost2010PropOp30
 70
     1
102
RTVSPost2010Prop31
280
     0
102
RTVSPost2010PropOp31
 70
     1
102
RTVSPost2010Prop32
280
     0
102
RTVSPost2010PropOp32
 70
     1
102
RTVSPost2010Prop33
280
     0
102
RTVSPost2010PropOp33
 70
     1
102
RTVSPost2010Prop34
280
     0
102
RTVSPost2010PropOp34
 70
     1
102
RTVSPost2010Prop35
280
     0
102
RTVSPost2010PropOp35
 70
     1
102
RTVSPost2010Prop36
280
     0
102
RTVSPost2010PropOp36
 70
     1
102
RTVSPost2010Prop37
 90
       50
102
RTVSPost2010PropOp37
 70
     1
102
RTVSPost2010Prop38
140
0.0
102
RTVSPost2010PropOp38
 70
     1
102
RTVSPost2010Prop39
140
1.0
102
RTVSPost2010PropOp39
 70
     1
102
RTVSPost2010Prop40
 90
        0
102
RTVSPost2010PropOp40
 70
     1
102
RTVSPost2010Prop41ColorIndex
 90
       18
102
RTVSPost2010Prop41ColorRGB
 90
        0
102
RTVSPost2010PropOp41
 70
     1
102
RTVSPost2010Prop42
 90
       50
102
RTVSPost2010PropOp42
 70
     1
102
RTVSPost2010Prop43
 90
        3
102
RTVSPost2010PropOp43
 70
     1
102
RTVSPost2010Prop44ColorIndex
 90
        5
102
RTVSPost2010Prop44ColorRGB
 90
      255
102
RTVSPost2010PropOp44
 70
     1
102
RTVSPost2010Prop45
280
     0
102
RTVSPost2010PropOp45
 70
     1
102
RTVSPost2010Prop46
 90
       50
102
RTVSPost2010PropOp46
 70
     1
102
RTVSPost2010Prop47
 90
       50
102
RTVSPost2010PropOp47
 70
     1
102
RTVSPost2010Prop48
 90
       50
102
RTVSPost2010PropOp48
 70
     1
102
RTVSPost2010Prop49
280
     0
102
RTVSPost2010PropOp49
 70
     1
102
RTVSPost2010Prop50
 90
       50
102
RTVSPost2010PropOp50
 70
     1
102
RTVSPost2010Prop51ColorIndex
 90
      256
102
RTVSPost2010Prop51ColorRGB
 90
-16777216
102
RTVSPost2010PropOp51
 70
     0
102
RTVSPost2010Prop52
140
1.0
102
RTVSPost2010PropOp52
 70
     0
102
RTVSPost2010Prop53
 90
        2
102
RTVSPost2010PropOp53
 70
     1
102
RTVSPost2010Prop54
  1
strokes_ogs.tif
102
RTVSPost2010PropOp54
 70
     1
102
RTVSPost2010Prop55
280
     0
102
RTVSPost2010PropOp55
 70
     1
102
RTVSPost2010Prop56
140
1.0
102
RTVSPost2010PropOp56
 70
     1
102
RTVSPost2010Prop57
140
1.0
102
RTVSPost2010PropOp57
 70
     1
  0
XRECORD
  5
9A
102
{ACAD_REACTORS
330
99
102
}
330
99
100
AcDbXrecord
280
     1
102
RTVSPropertyOp0
 70
     1
102
RTVSPropertyOp1
 70
     1
102
RTVSPropertyOp2
 70
     1
102
RTVSPropertyOp3
 70
     1
102
RTVSPropertyOp4
 70
     1
102
RTVSPropertyOp5
 70
     1
102
RTVSPropertyOp6
 70
     1
102
RTVSPropertyOp7
 70
     1
102
RTVSPropertyOp8
 70
     1
102
RTVSPropertyOp9
 70
     1
102
RTVSPropertyOp10
 70
     1
102
RTVSPropertyOp11
 70
     1
102
RTVSPropertyOp12
 70
     1
102
RTVSPropertyOp13
 70
     1
102
RTVSPropertyOp14
 70
     1
102
RTVSPropertyOp15
 70
     1
102
RTVSPropertyOp16
 70
     1
102
RTVSPropertyOp17
 70
     1
102
RTVSPropertyOp18
 70
     1
102
RTVSPropertyOp19
 70
     1
102
RTVSPropertyOp20
 70
     1
102
RTVSPropertyOp21
 70
     1
102
RTVSPropertyOp22
 70
     1
102
RTVSPropertyOp23
 70
     1
102
RTVSPropertyOp24
 70
     1
102
RTVSPropertyOp25
 70
     1
102
RTVSPropertyOp26
 70
     1
102
RTVSPropertyOp27
 70
     1
102
RTVSPropertyOp28
 70
     1
102
RTVSPropertyOp29
 70
     1
102
RTVSPropertyOp30
 70
     1
102
RTVSPropertyOp31
 70
     1
102
RTVSPropertyOp32
 70
     1
102
RTVSPropertyOp33
 70
     1
102
RTVSPropertyOp34
 70
     1
102
RTVSPropertyOp35
 70
     1
102
RTVSPropertyOp36
 70
     1
102
RTVSPropertyOp37
 70
     1
102
RTVSPropertyOp38
 70
     1
102
RTVSPropertyOp39
 70
     1
102
RTVSPropertyOp40
 70
     1
102
RTVSPropertyOp41
 70
     1
102
RTVSPropertyOp42
 70
     1
102
RTVSPropertyOp43
 70
     1
102
RTVSPropertyOp44
 70
     1
102
RTVSPropertyOp45
 70
     1
102
RTVSPropertyOp46
 70
     1
102
RTVSPropertyOp47
 70
     1
102
RTVSPropertyOp48
 70
     1
102
RTVSPropertyOp49
 70
     1
102
RTVSPropertyOp50
 70
     1
102
RTVSPropertyOp51
 70
     0
102
RTVSPropertyOp52
 70
     0
102
RTVSPropertyOp53
 70
     1
102
RTVSPropertyOp54
 70
     1
102
RTVSPropertyOp55
 70
     1
102
RTVSPropertyOp56
 70
     1
102
RTVSPropertyOp57
 70
     1
102
RTVSPost2010Prop28
280
     0
102
RTVSPost2010PropOp28
 70
     1
102
RTVSPost2010Prop29
280
     1
102
RTVSPost2010PropOp29
 70
     1
102
RTVSPost2010Prop30
280
     1
102
RTVSPost2010PropOp30
 70
     1
102
RTVSPost2010Prop31
280
     0
102
RTVSPost2010PropOp31
 70
     1
102
RTVSPost2010Prop32
280
     0
102
RTVSPost2010PropOp32
 70
     1
102
RTVSPost2010Prop33
280
     0
102
RTVSPost2010PropOp33
 70
     1
102
RTVSPost2010Prop34
280
     0
102
RTVSPost2010PropOp34
 70
     1
102
RTVSPost2010Prop35
280
     0
102
RTVSPost2010PropOp35
 70
     1
102
RTVSPost2010Prop36
280
     0
102
RTVSPost2010PropOp36
 70
     1
102
RTVSPost2010Prop37
 90
       50
102
RTVSPost2010PropOp37
 70
     1
102
RTVSPost2010Prop38
140
0.0
102
RTVSPost2010PropOp38
 70
     1
102
RTVSPost2010Prop39
140
1.0
102
RTVSPost2010PropOp39
 70
     1
102
RTVSPost2010Prop40
 90
        0
102
RTVSPost2010PropOp40
 70
     1
102
RTVSPost2010Prop41ColorIndex
 90
       18
102
RTVSPost2010Prop41ColorRGB
 90
        0
102
RTVSPost2010PropOp41
 70
     1
102
RTVSPost2010Prop42
 90
       50
102
RTVSPost2010PropOp42
 70
     1
102
RTVSPost2010Prop43
 90
        3
102
RTVSPost2010PropOp43
 70
     1
102
RTVSPost2010Prop44ColorIndex
 90
        5
102
RTVSPost2010Prop44ColorRGB
 90
      255
102
RTVSPost2010PropOp44
 70
     1
102
RTVSPost2010Prop45
280
     0
102
RTVSPost2010PropOp45
 70
     1
102
RTVSPost2010Prop46
 90
       50
102
RTVSPost2010PropOp46
 70
     1
102
RTVSPost2010Prop47
 90
       50
102
RTVSPost2010PropOp47
 70
     1
102
RTVSPost2010Prop48
 90
       50
102
RTVSPost2010PropOp48
 70
     1
102
RTVSPost2010Prop49
280
     0
102
RTVSPost2010PropOp49
 70
     1
102
RTVSPost2010Prop50
 90
       50
102
RTVSPost2010PropOp50
 70
     1
102
RTVSPost2010Prop51ColorIndex
 90
      256
102
RTVSPost2010Prop51ColorRGB
 90
-16777216
102
RTVSPost2010PropOp51
 70
     0
102
RTVSPost2010Prop52
140
1.0
102
RTVSPost2010PropOp52
 70
     0
102
RTVSPost2010Prop53
 90
        2
102
RTVSPost2010PropOp53
 70
     1
102
RTVSPost2010Prop54
  1
strokes_ogs.tif
102
RTVSPost2010PropOp54
 70
     1
102
RTVSPost2010Prop55
280
     0
102
RTVSPost2010PropOp55
 70
     1
102
RTVSPost2010Prop56
140
1.0
102
RTVSPost2010PropOp56
 70
     1
102
RTVSPost2010Prop57
140
1.0
102
RTVSPost2010PropOp57
 70
     1
  0
XRECORD
  5
9C
102
{ACAD_REACTORS
330
9B
102
}
330
9B
100
AcDbXrecord
280
     1
102
RTVSPropertyOp0
 70
     1
102
RTVSPropertyOp1
 70
     1
102
RTVSPropertyOp2
 70
     1
102
RTVSPropertyOp3
 70
     1
102
RTVSPropertyOp4
 70
     1
102
RTVSPropertyOp5
 70
     1
102
RTVSPropertyOp6
 70
     1
102
RTVSPropertyOp7
 70
     1
102
RTVSPropertyOp8
 70
     1
102
RTVSPropertyOp9
 70
     1
102
RTVSPropertyOp10
 70
     1
102
RTVSPropertyOp11
 70
     1
102
RTVSPropertyOp12
 70
     1
102
RTVSPropertyOp13
 70
     1
102
RTVSPropertyOp14
 70
     1
102
RTVSPropertyOp15
 70
     1
102
RTVSPropertyOp16
 70
     1
102
RTVSPropertyOp17
 70
     1
102
RTVSPropertyOp18
 70
     1
102
RTVSPropertyOp19
 70
     1
102
RTVSPropertyOp20
 70
     1
102
RTVSPropertyOp21
 70
     1
102
RTVSPropertyOp22
 70
     1
102
RTVSPropertyOp23
 70
     1
102
RTVSPropertyOp24
 70
     1
102
RTVSPropertyOp25
 70
     1
102
RTVSPropertyOp26
 70
     1
102
RTVSPropertyOp27
 70
     1
102
RTVSPropertyOp28
 70
     1
102
RTVSPropertyOp29
 70
     1
102
RTVSPropertyOp30
 70
     1
102
RTVSPropertyOp31
 70
     1
102
RTVSPropertyOp32
 70
     1
102
RTVSPropertyOp33
 70
     1
102
RTVSPropertyOp34
 70
     1
102
RTVSPropertyOp35
 70
     1
102
RTVSPropertyOp36
 70
     1
102
RTVSPropertyOp37
 70
     1
102
RTVSPropertyOp38
 70
     1
102
RTVSPropertyOp39
 70
     1
102
RTVSPropertyOp40
 70
     1
102
RTVSPropertyOp41
 70
     1
102
RTVSPropertyOp42
 70
     1
102
RTVSPropertyOp43
 70
     1
102
RTVSPropertyOp44
 70
     1
102
RTVSPropertyOp45
 70
     1
102
RTVSPropertyOp46
 70
     1
102
RTVSPropertyOp47
 70
     1
102
RTVSPropertyOp48
 70
     1
102
RTVSPropertyOp49
 70
     1
102
RTVSPropertyOp50
 70
     1
102
RTVSPropertyOp51
 70
     0
102
RTVSPropertyOp52
 70
     0
102
RTVSPropertyOp53
 70
     1
102
RTVSPropertyOp54
 70
     1
102
RTVSPropertyOp55
 70
     1
102
RTVSPropertyOp56
 70
     1
102
RTVSPropertyOp57
 70
     1
102
RTVSPost2010Prop28
280
     0
102
RTVSPost2010PropOp28
 70
     1
102
RTVSPost2010Prop29
280
     1
102
RTVSPost2010PropOp29
 70
     1
102
RTVSPost2010Prop30
280
     1
102
RTVSPost2010PropOp30
 70
     1
102
RTVSPost2010Prop31
280
     0
102
RTVSPost2010PropOp31
 70
     1
102
RTVSPost2010Prop32
280
     0
102
RTVSPost2010PropOp32
 70
     1
102
RTVSPost2010Prop33
280
     0
102
RTVSPost2010PropOp33
 70
     1
102
RTVSPost2010Prop34
280
     0
102
RTVSPost2010PropOp34
 70
     1
102
RTVSPost2010Prop35
280
     0
102
RTVSPost2010PropOp35
 70
     1
102
RTVSPost2010Prop36
280
     0
102
RTVSPost2010PropOp36
 70
     1
102
RTVSPost2010Prop37
 90
       50
102
RTVSPost2010PropOp37
 70
     1
102
RTVSPost2010Prop38
140
0.0
102
RTVSPost2010PropOp38
 70
     1
102
RTVSPost2010Prop39
140
1.0
102
RTVSPost2010PropOp39
 70
     1
102
RTVSPost2010Prop40
 90
        0
102
RTVSPost2010PropOp40
 70
     1
102
RTVSPost2010Prop41ColorIndex
 90
       18
102
RTVSPost2010Prop41ColorRGB
 90
        0
102
RTVSPost2010PropOp41
 70
     1
102
RTVSPost2010Prop42
 90
       50
102
RTVSPost2010PropOp42
 70
     1
102
RTVSPost2010Prop43
 90
        3
102
RTVSPost2010PropOp43
 70
     1
102
RTVSPost2010Prop44ColorIndex
 90
        5
102
RTVSPost2010Prop44ColorRGB
 90
      255
102
RTVSPost2010PropOp44
 70
     1
102
RTVSPost2010Prop45
280
     0
102
RTVSPost2010PropOp45
 70
     1
102
RTVSPost2010Prop46
 90
       50
102
RTVSPost2010PropOp46
 70
     1
102
RTVSPost2010Prop47
 90
       50
102
RTVSPost2010PropOp47
 70
     1
102
RTVSPost2010Prop48
 90
       50
102
RTVSPost2010PropOp48
 70
     1
102
RTVSPost2010Prop49
280
     0
102
RTVSPost2010PropOp49
 70
     1
102
RTVSPost2010Prop50
 90
       50
102
RTVSPost2010PropOp50
 70
     1
102
RTVSPost2010Prop51ColorIndex
 90
      256
102
RTVSPost2010Prop51ColorRGB
 90
-16777216
102
RTVSPost2010PropOp51
 70
     0
102
RTVSPost2010Prop52
140
1.0
102
RTVSPost2010PropOp52
 70
     0
102
RTVSPost2010Prop53
 90
        2
102
RTVSPost2010PropOp53
 70
     1
102
RTVSPost2010Prop54
  1
strokes_ogs.tif
102
RTVSPost2010PropOp54
 70
     1
102
RTVSPost2010Prop55
280
     0
102
RTVSPost2010PropOp55
 70
     1
102
RTVSPost2010Prop56
140
1.0
102
RTVSPost2010PropOp56
 70
     1
102
RTVSPost2010Prop57
140
1.0
102
RTVSPost2010PropOp57
 70
     1
  0
XRECORD
  5
9E
102
{ACAD_REACTORS
330
9D
102
}
330
9D
100
AcDbXrecord
280
     1
102
RTVSPropertyOp0
 70
     1
102
RTVSPropertyOp1
 70
     1
102
RTVSPropertyOp2
 70
     1
102
RTVSPropertyOp3
 70
     1
102
RTVSPropertyOp4
 70
     1
102
RTVSPropertyOp5
 70
     1
102
RTVSPropertyOp6
 70
     1
102
RTVSPropertyOp7
 70
     1
102
RTVSPropertyOp8
 70
     1
102
RTVSPropertyOp9
 70
     1
102
RTVSPropertyOp10
 70
     1
102
RTVSPropertyOp11
 70
     1
102
RTVSPropertyOp12
 70
     1
102
RTVSPropertyOp13
 70
     1
102
RTVSPropertyOp14
 70
     1
102
RTVSPropertyOp15
 70
     1
102
RTVSPropertyOp16
 70
     1
102
RTVSPropertyOp17
 70
     1
102
RTVSPropertyOp18
 70
     1
102
RTVSPropertyOp19
 70
     1
102
RTVSPropertyOp20
 70
     1
102
RTVSPropertyOp21
 70
     1
102
RTVSPropertyOp22
 70
     1
102
RTVSPropertyOp23
 70
     1
102
RTVSPropertyOp24
 70
     1
102
RTVSPropertyOp25
 70
     1
102
RTVSPropertyOp26
 70
     1
102
RTVSPropertyOp27
 70
     1
102
RTVSPropertyOp28
 70
     1
102
RTVSPropertyOp29
 70
     1
102
RTVSPropertyOp30
 70
     1
102
RTVSPropertyOp31
 70
     1
102
RTVSPropertyOp32
 70
     1
102
RTVSPropertyOp33
 70
     1
102
RTVSPropertyOp34
 70
     1
102
RTVSPropertyOp35
 70
     1
102
RTVSPropertyOp36
 70
     1
102
RTVSPropertyOp37
 70
     1
102
RTVSPropertyOp38
 70
     1
102
RTVSPropertyOp39
 70
     1
102
RTVSPropertyOp40
 70
     1
102
RTVSPropertyOp41
 70
     1
102
RTVSPropertyOp42
 70
     1
102
RTVSPropertyOp43
 70
     1
102
RTVSPropertyOp44
 70
     1
102
RTVSPropertyOp45
 70
     1
102
RTVSPropertyOp46
 70
     1
102
RTVSPropertyOp47
 70
     1
102
RTVSPropertyOp48
 70
     1
102
RTVSPropertyOp49
 70
     1
102
RTVSPropertyOp50
 70
     1
102
RTVSPropertyOp51
 70
     0
102
RTVSPropertyOp52
 70
     0
102
RTVSPropertyOp53
 70
     1
102
RTVSPropertyOp54
 70
     1
102
RTVSPropertyOp55
 70
     1
102
RTVSPropertyOp56
 70
     1
102
RTVSPropertyOp57
 70
     1
102
RTVSPost2010Prop28
280
     0
102
RTVSPost2010PropOp28
 70
     1
102
RTVSPost2010Prop29
280
     1
102
RTVSPost2010PropOp29
 70
     1
102
RTVSPost2010Prop30
280
     1
102
RTVSPost2010PropOp30
 70
     1
102
RTVSPost2010Prop31
280
     0
102
RTVSPost2010PropOp31
 70
     1
102
RTVSPost2010Prop32
280
     0
102
RTVSPost2010PropOp32
 70
     1
102
RTVSPost2010Prop33
280
     0
102
RTVSPost2010PropOp33
 70
     1
102
RTVSPost2010Prop34
280
     0
102
RTVSPost2010PropOp34
 70
     1
102
RTVSPost2010Prop35
280
     0
102
RTVSPost2010PropOp35
 70
     1
102
RTVSPost2010Prop36
280
     0
102
RTVSPost2010PropOp36
 70
     1
102
RTVSPost2010Prop37
 90
       50
102
RTVSPost2010PropOp37
 70
     1
102
RTVSPost2010Prop38
140
0.0
102
RTVSPost2010PropOp38
 70
     1
102
RTVSPost2010Prop39
140
1.0
102
RTVSPost2010PropOp39
 70
     1
102
RTVSPost2010Prop40
 90
        0
102
RTVSPost2010PropOp40
 70
     1
102
RTVSPost2010Prop41ColorIndex
 90
       18
102
RTVSPost2010Prop41ColorRGB
 90
        0
102
RTVSPost2010PropOp41
 70
     1
102
RTVSPost2010Prop42
 90
       50
102
RTVSPost2010PropOp42
 70
     1
102
RTVSPost2010Prop43
 90
        3
102
RTVSPost2010PropOp43
 70
     1
102
RTVSPost2010Prop44ColorIndex
 90
        5
102
RTVSPost2010Prop44ColorRGB
 90
      255
102
RTVSPost2010PropOp44
 70
     1
102
RTVSPost2010Prop45
280
     0
102
RTVSPost2010PropOp45
 70
     1
102
RTVSPost2010Prop46
 90
       50
102
RTVSPost2010PropOp46
 70
     1
102
RTVSPost2010Prop47
 90
       50
102
RTVSPost2010PropOp47
 70
     1
102
RTVSPost2010Prop48
 90
       50
102
RTVSPost2010PropOp48
 70
     1
102
RTVSPost2010Prop49
280
     0
102
RTVSPost2010PropOp49
 70
     1
102
RTVSPost2010Prop50
 90
       50
102
RTVSPost2010PropOp50
 70
     1
102
RTVSPost2010Prop51ColorIndex
 90
      256
102
RTVSPost2010Prop51ColorRGB
 90
-16777216
102
RTVSPost2010PropOp51
 70
     0
102
RTVSPost2010Prop52
140
1.0
102
RTVSPost2010PropOp52
 70
     0
102
RTVSPost2010Prop53
 90
        2
102
RTVSPost2010PropOp53
 70
     1
102
RTVSPost2010Prop54
  1
strokes_ogs.tif
102
RTVSPost2010PropOp54
 70
     1
102
RTVSPost2010Prop55
280
     0
102
RTVSPost2010PropOp55
 70
     1
102
RTVSPost2010Prop56
140
1.0
102
RTVSPost2010PropOp56
 70
     1
102
RTVSPost2010Prop57
140
1.0
102
RTVSPost2010PropOp57
 70
     1
  0
XRECORD
  5
A4
102
{ACAD_REACTORS
330
A3
102
}
330
A3
100
AcDbXrecord
280
     1
102
RTVSPropertyOp0
 70
     1
102
RTVSPropertyOp1
 70
     1
102
RTVSPropertyOp2
 70
     1
102
RTVSPropertyOp3
 70
     1
102
RTVSPropertyOp4
 70
     1
102
RTVSPropertyOp5
 70
     1
102
RTVSPropertyOp6
 70
     1
102
RTVSPropertyOp7
 70
     1
102
RTVSPropertyOp8
 70
     1
102
RTVSPropertyOp9
 70
     1
102
RTVSPropertyOp10
 70
     1
102
RTVSPropertyOp11
 70
     1
102
RTVSPropertyOp12
 70
     1
102
RTVSPropertyOp13
 70
     1
102
RTVSPropertyOp14
 70
     1
102
RTVSPropertyOp15
 70
     1
102
RTVSPropertyOp16
 70
     1
102
RTVSPropertyOp17
 70
     1
102
RTVSPropertyOp18
 70
     1
102
RTVSPropertyOp19
 70
     1
102
RTVSPropertyOp20
 70
     1
102
RTVSPropertyOp21
 70
     1
102
RTVSPropertyOp22
 70
     1
102
RTVSPropertyOp23
 70
     1
102
RTVSPropertyOp24
 70
     1
102
RTVSPropertyOp25
 70
     1
102
RTVSPropertyOp26
 70
     1
102
RTVSPropertyOp27
 70
     1
102
RTVSPropertyOp28
 70
     1
102
RTVSPropertyOp29
 70
     1
102
RTVSPropertyOp30
 70
     1
102
RTVSPropertyOp31
 70
     1
102
RTVSPropertyOp32
 70
     1
102
RTVSPropertyOp33
 70
     1
102
RTVSPropertyOp34
 70
     1
102
RTVSPropertyOp35
 70
     1
102
RTVSPropertyOp36
 70
     1
102
RTVSPropertyOp37
 70
     1
102
RTVSPropertyOp38
 70
     1
102
RTVSPropertyOp39
 70
     1
102
RTVSPropertyOp40
 70
     1
102
RTVSPropertyOp41
 70
     1
102
RTVSPropertyOp42
 70
     1
102
RTVSPropertyOp43
 70
     1
102
RTVSPropertyOp44
 70
     1
102
RTVSPropertyOp45
 70
     1
102
RTVSPropertyOp46
 70
     1
102
RTVSPropertyOp47
 70
     1
102
RTVSPropertyOp48
 70
     1
102
RTVSPropertyOp49
 70
     1
102
RTVSPropertyOp50
 70
     1
102
RTVSPropertyOp51
 70
     0
102
RTVSPropertyOp52
 70
     0
102
RTVSPropertyOp53
 70
     1
102
RTVSPropertyOp54
 70
     1
102
RTVSPropertyOp55
 70
     1
102
RTVSPropertyOp56
 70
     1
102
RTVSPropertyOp57
 70
     1
102
RTVSPost2010Prop28
280
     0
102
RTVSPost2010PropOp28
 70
     1
102
RTVSPost2010Prop29
280
     1
102
RTVSPost2010PropOp29
 70
     1
102
RTVSPost2010Prop30
280
     1
102
RTVSPost2010PropOp30
 70
     1
102
RTVSPost2010Prop31
280
     0
102
RTVSPost2010PropOp31
 70
     1
102
RTVSPost2010Prop32
280
     0
102
RTVSPost2010PropOp32
 70
     1
102
RTVSPost2010Prop33
280
     0
102
RTVSPost2010PropOp33
 70
     1
102
RTVSPost2010Prop34
280
     0
102
RTVSPost2010PropOp34
 70
     1
102
RTVSPost2010Prop35
280
     0
102
RTVSPost2010PropOp35
 70
     1
102
RTVSPost2010Prop36
280
     0
102
RTVSPost2010PropOp36
 70
     1
102
RTVSPost2010Prop37
 90
       50
102
RTVSPost2010PropOp37
 70
     1
102
RTVSPost2010Prop38
140
0.0
102
RTVSPost2010PropOp38
 70
     1
102
RTVSPost2010Prop39
140
1.0
102
RTVSPost2010PropOp39
 70
     1
102
RTVSPost2010Prop40
 90
        0
102
RTVSPost2010PropOp40
 70
     1
102
RTVSPost2010Prop41ColorIndex
 90
       18
102
RTVSPost2010Prop41ColorRGB
 90
        0
102
RTVSPost2010PropOp41
 70
     1
102
RTVSPost2010Prop42
 90
       50
102
RTVSPost2010PropOp42
 70
     1
102
RTVSPost2010Prop43
 90
        3
102
RTVSPost2010PropOp43
 70
     1
102
RTVSPost2010Prop44ColorIndex
 90
        5
102
RTVSPost2010Prop44ColorRGB
 90
      255
102
RTVSPost2010PropOp44
 70
     1
102
RTVSPost2010Prop45
280
     0
102
RTVSPost2010PropOp45
 70
     1
102
RTVSPost2010Prop46
 90
       50
102
RTVSPost2010PropOp46
 70
     1
102
RTVSPost2010Prop47
 90
       50
102
RTVSPost2010PropOp47
 70
     1
102
RTVSPost2010Prop48
 90
       50
102
RTVSPost2010PropOp48
 70
     1
102
RTVSPost2010Prop49
280
     0
102
RTVSPost2010PropOp49
 70
     1
102
RTVSPost2010Prop50
 90
       50
102
RTVSPost2010PropOp50
 70
     1
102
RTVSPost2010Prop51ColorIndex
 90
      256
102
RTVSPost2010Prop51ColorRGB
 90
-16777216
102
RTVSPost2010PropOp51
 70
     0
102
RTVSPost2010Prop52
140
1.0
102
RTVSPost2010PropOp52
 70
     0
102
RTVSPost2010Prop53
 90
        2
102
RTVSPost2010PropOp53
 70
     1
102
RTVSPost2010Prop54
  1
strokes_ogs.tif
102
RTVSPost2010PropOp54
 70
     1
102
RTVSPost2010Prop55
280
     0
102
RTVSPost2010PropOp55
 70
     1
102
RTVSPost2010Prop56
140
1.0
102
RTVSPost2010PropOp56
 70
     1
102
RTVSPost2010Prop57
140
1.0
102
RTVSPost2010PropOp57
 70
     1
  0
XRECORD
  5
B8
102
{ACAD_REACTORS
330
B7
102
}
330
B7
100
AcDbXrecord
280
     1
102
RTVSPropertyOp0
 70
     0
102
RTVSPropertyOp1
 70
     0
102
RTVSPropertyOp2
 70
     0
102
RTVSPropertyOp3
 70
     0
102
RTVSPropertyOp4
 70
     0
102
RTVSPropertyOp5
 70
     0
102
RTVSPropertyOp6
 70
     0
102
RTVSPropertyOp7
 70
     0
102
RTVSPropertyOp8
 70
     0
102
RTVSPropertyOp9
 70
     0
102
RTVSPropertyOp10
 70
     0
102
RTVSPropertyOp11
 70
     0
102
RTVSPropertyOp12
 70
     0
102
RTVSPropertyOp13
 70
     0
102
RTVSPropertyOp14
 70
     2
102
RTVSPropertyOp15
 70
     0
102
RTVSPropertyOp16
 70
     0
102
RTVSPropertyOp17
 70
     0
102
RTVSPropertyOp18
 70
     0
102
RTVSPropertyOp19
 70
     0
102
RTVSPropertyOp20
 70
     0
102
RTVSPropertyOp21
 70
     0
102
RTVSPropertyOp22
 70
     0
102
RTVSPropertyOp23
 70
     0
102
RTVSPropertyOp24
 70
     0
102
RTVSPropertyOp25
 70
     0
102
RTVSPropertyOp26
 70
     0
102
RTVSPropertyOp27
 70
     0
102
RTVSPropertyOp28
 70
     0
102
RTVSPropertyOp29
 70
     0
102
RTVSPropertyOp30
 70
     0
102
RTVSPropertyOp31
 70
     0
102
RTVSPropertyOp32
 70
     0
102
RTVSPropertyOp33
 70
     0
102
RTVSPropertyOp34
 70
     0
102
RTVSPropertyOp35
 70
     0
102
RTVSPropertyOp36
 70
     0
102
RTVSPropertyOp37
 70
     0
102
RTVSPropertyOp38
 70
     0
102
RTVSPropertyOp39
 70
     0
102
RTVSPropertyOp40
 70
     0
102
RTVSPropertyOp41
 70
     0
102
RTVSPropertyOp42
 70
     0
102
RTVSPropertyOp43
 70
     0
102
RTVSPropertyOp44
 70
     0
102
RTVSPropertyOp45
 70
     0
102
RTVSPropertyOp46
 70
     0
102
RTVSPropertyOp47
 70
     0
102
RTVSPropertyOp48
 70
     0
102
RTVSPropertyOp49
 70
     0
102
RTVSPropertyOp50
 70
     0
102
RTVSPropertyOp51
 70
     0
102
RTVSPropertyOp52
 70
     0
102
RTVSPropertyOp53
 70
     0
102
RTVSPropertyOp54
 70
     0
102
RTVSPropertyOp55
 70
     0
102
RTVSPropertyOp56
 70
     0
102
RTVSPropertyOp57
 70
     0
102
RTVSPost2010Prop28
280
     0
102
RTVSPost2010PropOp28
 70
     0
102
RTVSPost2010Prop29
280
     1
102
RTVSPost2010PropOp29
 70
     0
102
RTVSPost2010Prop30
280
     1
102
RTVSPost2010PropOp30
 70
     0
102
RTVSPost2010Prop31
280
     0
102
RTVSPost2010PropOp31
 70
     0
102
RTVSPost2010Prop32
280
     0
102
RTVSPost2010PropOp32
 70
     0
102
RTVSPost2010Prop33
280
     0
102
RTVSPost2010PropOp33
 70
     0
102
RTVSPost2010Prop34
280
     0
102
RTVSPost2010PropOp34
 70
     0
102
RTVSPost2010Prop35
280
     0
102
RTVSPost2010PropOp35
 70
     0
102
RTVSPost2010Prop36
280
     0
102
RTVSPost2010PropOp36
 70
     0
102
RTVSPost2010Prop37
 90
       50
102
RTVSPost2010PropOp37
 70
     0
102
RTVSPost2010Prop38
140
0.0
102
RTVSPost2010PropOp38
 70
     0
102
RTVSPost2010Prop39
140
1.0
102
RTVSPost2010PropOp39
 70
     0
102
RTVSPost2010Prop40
 90
        0
102
RTVSPost2010PropOp40
 70
     0
102
RTVSPost2010Prop41ColorIndex
 90
       18
102
RTVSPost2010Prop41ColorRGB
 90
        0
102
RTVSPost2010PropOp41
 70
     0
102
RTVSPost2010Prop42
 90
       50
102
RTVSPost2010PropOp42
 70
     0
102
RTVSPost2010Prop43
 90
        3
102
RTVSPost2010PropOp43
 70
     0
102
RTVSPost2010Prop44ColorIndex
 90
        5
102
RTVSPost2010Prop44ColorRGB
 90
      255
102
RTVSPost2010PropOp44
 70
     0
102
RTVSPost2010Prop45
280
     0
102
RTVSPost2010PropOp45
 70
     0
102
RTVSPost2010Prop46
 90
       50
102
RTVSPost2010PropOp46
 70
     0
102
RTVSPost2010Prop47
 90
       50
102
RTVSPost2010PropOp47
 70
     0
102
RTVSPost2010Prop48
 90
       50
102
RTVSPost2010PropOp48
 70
     0
102
RTVSPost2010Prop49
280
     0
102
RTVSPost2010PropOp49
 70
     0
102
RTVSPost2010Prop50
 90
       50
102
RTVSPost2010PropOp50
 70
     0
102
RTVSPost2010Prop51ColorIndex
 90
      256
102
RTVSPost2010Prop51ColorRGB
 90
-16777216
102
RTVSPost2010PropOp51
 70
     0
102
RTVSPost2010Prop52
140
1.0
102
RTVSPost2010PropOp52
 70
     0
102
RTVSPost2010Prop53
 90
        2
102
RTVSPost2010PropOp53
 70
     0
102
RTVSPost2010Prop54
  1
strokes_ogs.tif
102
RTVSPost2010PropOp54
 70
     0
102
RTVSPost2010Prop55
280
     0
102
RTVSPost2010PropOp55
 70
     0
102
RTVSPost2010Prop56
140
1.0
102
RTVSPost2010PropOp56
 70
     0
102
RTVSPost2010Prop57
140
1.0
102
RTVSPost2010PropOp57
 70
     0
  0
XRECORD
  5
B2
102
{ACAD_REACTORS
330
B1
102
}
330
B1
100
AcDbXrecord
280
     1
102
RTVSPropertyOp0
 70
     1
102
RTVSPropertyOp1
 70
     1
102
RTVSPropertyOp2
 70
     1
102
RTVSPropertyOp3
 70
     1
102
RTVSPropertyOp4
 70
     1
102
RTVSPropertyOp5
 70
     1
102
RTVSPropertyOp6
 70
     1
102
RTVSPropertyOp7
 70
     1
102
RTVSPropertyOp8
 70
     1
102
RTVSPropertyOp9
 70
     1
102
RTVSPropertyOp10
 70
     1
102
RTVSPropertyOp11
 70
     1
102
RTVSPropertyOp12
 70
     1
102
RTVSPropertyOp13
 70
     1
102
RTVSPropertyOp14
 70
     1
102
RTVSPropertyOp15
 70
     1
102
RTVSPropertyOp16
 70
     1
102
RTVSPropertyOp17
 70
     1
102
RTVSPropertyOp18
 70
     1
102
RTVSPropertyOp19
 70
     1
102
RTVSPropertyOp20
 70
     1
102
RTVSPropertyOp21
 70
     1
102
RTVSPropertyOp22
 70
     1
102
RTVSPropertyOp23
 70
     1
102
RTVSPropertyOp24
 70
     1
102
RTVSPropertyOp25
 70
     1
102
RTVSPropertyOp26
 70
     1
102
RTVSPropertyOp27
 70
     1
102
RTVSPropertyOp28
 70
     1
102
RTVSPropertyOp29
 70
     1
102
RTVSPropertyOp30
 70
     1
102
RTVSPropertyOp31
 70
     1
102
RTVSPropertyOp32
 70
     1
102
RTVSPropertyOp33
 70
     1
102
RTVSPropertyOp34
 70
     1
102
RTVSPropertyOp35
 70
     1
102
RTVSPropertyOp36
 70
     1
102
RTVSPropertyOp37
 70
     1
102
RTVSPropertyOp38
 70
     1
102
RTVSPropertyOp39
 70
     1
102
RTVSPropertyOp40
 70
     1
102
RTVSPropertyOp41
 70
     1
102
RTVSPropertyOp42
 70
     1
102
RTVSPropertyOp43
 70
     1
102
RTVSPropertyOp44
 70
     1
102
RTVSPropertyOp45
 70
     1
102
RTVSPropertyOp46
 70
     1
102
RTVSPropertyOp47
 70
     1
102
RTVSPropertyOp48
 70
     1
102
RTVSPropertyOp49
 70
     1
102
RTVSPropertyOp50
 70
     1
102
RTVSPropertyOp51
 70
     0
102
RTVSPropertyOp52
 70
     0
102
RTVSPropertyOp53
 70
     1
102
RTVSPropertyOp54
 70
     1
102
RTVSPropertyOp55
 70
     1
102
RTVSPropertyOp56
 70
     1
102
RTVSPropertyOp57
 70
     1
102
RTVSPost2010Prop28
280
     0
102
RTVSPost2010PropOp28
 70
     1
102
RTVSPost2010Prop29
280
     1
102
RTVSPost2010PropOp29
 70
     1
102
RTVSPost2010Prop30
280
     1
102
RTVSPost2010PropOp30
 70
     1
102
RTVSPost2010Prop31
280
     0
102
RTVSPost2010PropOp31
 70
     1
102
RTVSPost2010Prop32
280
     0
102
RTVSPost2010PropOp32
 70
     1
102
RTVSPost2010Prop33
280
     0
102
RTVSPost2010PropOp33
 70
     1
102
RTVSPost2010Prop34
280
     0
102
RTVSPost2010PropOp34
 70
     1
102
RTVSPost2010Prop35
280
     0
102
RTVSPost2010PropOp35
 70
     1
102
RTVSPost2010Prop36
280
     0
102
RTVSPost2010PropOp36
 70
     1
102
RTVSPost2010Prop37
 90
       50
102
RTVSPost2010PropOp37
 70
     1
102
RTVSPost2010Prop38
140
0.0
102
RTVSPost2010PropOp38
 70
     1
102
RTVSPost2010Prop39
140
1.0
102
RTVSPost2010PropOp39
 70
     1
102
RTVSPost2010Prop40
 90
        0
102
RTVSPost2010PropOp40
 70
     1
102
RTVSPost2010Prop41ColorIndex
 90
       18
102
RTVSPost2010Prop41ColorRGB
 90
        0
102
RTVSPost2010PropOp41
 70
     1
102
RTVSPost2010Prop42
 90
       50
102
RTVSPost2010PropOp42
 70
     1
102
RTVSPost2010Prop43
 90
        3
102
RTVSPost2010PropOp43
 70
     1
102
RTVSPost2010Prop44ColorIndex
 90
        5
102
RTVSPost2010Prop44ColorRGB
 90
      255
102
RTVSPost2010PropOp44
 70
     1
102
RTVSPost2010Prop45
280
     0
102
RTVSPost2010PropOp45
 70
     1
102
RTVSPost2010Prop46
 90
       50
102
RTVSPost2010PropOp46
 70
     1
102
RTVSPost2010Prop47
 90
       50
102
RTVSPost2010PropOp47
 70
     1
102
RTVSPost2010Prop48
 90
       50
102
RTVSPost2010PropOp48
 70
     1
102
RTVSPost2010Prop49
280
     0
102
RTVSPost2010PropOp49
 70
     1
102
RTVSPost2010Prop50
 90
       50
102
RTVSPost2010PropOp50
 70
     1
102
RTVSPost2010Prop51ColorIndex
 90
      256
102
RTVSPost2010Prop51ColorRGB
 90
-16777216
102
RTVSPost2010PropOp51
 70
     0
102
RTVSPost2010Prop52
140
1.0
102
RTVSPost2010PropOp52
 70
     0
102
RTVSPost2010Prop53
 90
        2
102
RTVSPost2010PropOp53
 70
     1
102
RTVSPost2010Prop54
  1
strokes_ogs.tif
102
RTVSPost2010PropOp54
 70
     1
102
RTVSPost2010Prop55
280
     0
102
RTVSPost2010PropOp55
 70
     1
102
RTVSPost2010Prop56
140
1.0
102
RTVSPost2010PropOp56
 70
     1
102
RTVSPost2010Prop57
140
1.0
102
RTVSPost2010PropOp57
 70
     1
  0
XRECORD
  5
BA
102
{ACAD_REACTORS
330
B9
102
}
330
B9
100
AcDbXrecord
280
     1
102
RTVSPropertyOp0
 70
     0
102
RTVSPropertyOp1
 70
     0
102
RTVSPropertyOp2
 70
     0
102
RTVSPropertyOp3
 70
     0
102
RTVSPropertyOp4
 70
     0
102
RTVSPropertyOp5
 70
     0
102
RTVSPropertyOp6
 70
     0
102
RTVSPropertyOp7
 70
     0
102
RTVSPropertyOp8
 70
     0
102
RTVSPropertyOp9
 70
     0
102
RTVSPropertyOp10
 70
     0
102
RTVSPropertyOp11
 70
     0
102
RTVSPropertyOp12
 70
     0
102
RTVSPropertyOp13
 70
     0
102
RTVSPropertyOp14
 70
     2
102
RTVSPropertyOp15
 70
     0
102
RTVSPropertyOp16
 70
     0
102
RTVSPropertyOp17
 70
     0
102
RTVSPropertyOp18
 70
     0
102
RTVSPropertyOp19
 70
     0
102
RTVSPropertyOp20
 70
     0
102
RTVSPropertyOp21
 70
     0
102
RTVSPropertyOp22
 70
     0
102
RTVSPropertyOp23
 70
     0
102
RTVSPropertyOp24
 70
     0
102
RTVSPropertyOp25
 70
     0
102
RTVSPropertyOp26
 70
     0
102
RTVSPropertyOp27
 70
     0
102
RTVSPropertyOp28
 70
     0
102
RTVSPropertyOp29
 70
     0
102
RTVSPropertyOp30
 70
     0
102
RTVSPropertyOp31
 70
     0
102
RTVSPropertyOp32
 70
     0
102
RTVSPropertyOp33
 70
     0
102
RTVSPropertyOp34
 70
     0
102
RTVSPropertyOp35
 70
     0
102
RTVSPropertyOp36
 70
     0
102
RTVSPropertyOp37
 70
     0
102
RTVSPropertyOp38
 70
     0
102
RTVSPropertyOp39
 70
     0
102
RTVSPropertyOp40
 70
     0
102
RTVSPropertyOp41
 70
     0
102
RTVSPropertyOp42
 70
     0
102
RTVSPropertyOp43
 70
     0
102
RTVSPropertyOp44
 70
     0
102
RTVSPropertyOp45
 70
     0
102
RTVSPropertyOp46
 70
     0
102
RTVSPropertyOp47
 70
     0
102
RTVSPropertyOp48
 70
     0
102
RTVSPropertyOp49
 70
     0
102
RTVSPropertyOp50
 70
     0
102
RTVSPropertyOp51
 70
     0
102
RTVSPropertyOp52
 70
     0
102
RTVSPropertyOp53
 70
     0
102
RTVSPropertyOp54
 70
     0
102
RTVSPropertyOp55
 70
     0
102
RTVSPropertyOp56
 70
     0
102
RTVSPropertyOp57
 70
     0
102
RTVSPost2010Prop28
280
     0
102
RTVSPost2010PropOp28
 70
     0
102
RTVSPost2010Prop29
280
     1
102
RTVSPost2010PropOp29
 70
     0
102
RTVSPost2010Prop30
280
     1
102
RTVSPost2010PropOp30
 70
     0
102
RTVSPost2010Prop31
280
     0
102
RTVSPost2010PropOp31
 70
     0
102
RTVSPost2010Prop32
280
     0
102
RTVSPost2010PropOp32
 70
     0
102
RTVSPost2010Prop33
280
     0
102
RTVSPost2010PropOp33
 70
     0
102
RTVSPost2010Prop34
280
     0
102
RTVSPost2010PropOp34
 70
     0
102
RTVSPost2010Prop35
280
     0
102
RTVSPost2010PropOp35
 70
     0
102
RTVSPost2010Prop36
280
     0
102
RTVSPost2010PropOp36
 70
     0
102
RTVSPost2010Prop37
 90
       50
102
RTVSPost2010PropOp37
 70
     0
102
RTVSPost2010Prop38
140
0.0
102
RTVSPost2010PropOp38
 70
     0
102
RTVSPost2010Prop39
140
1.0
102
RTVSPost2010PropOp39
 70
     0
102
RTVSPost2010Prop40
 90
        0
102
RTVSPost2010PropOp40
 70
     0
102
RTVSPost2010Prop41ColorIndex
 90
       18
102
RTVSPost2010Prop41ColorRGB
 90
        0
102
RTVSPost2010PropOp41
 70
     0
102
RTVSPost2010Prop42
 90
       50
102
RTVSPost2010PropOp42
 70
     0
102
RTVSPost2010Prop43
 90
        3
102
RTVSPost2010PropOp43
 70
     0
102
RTVSPost2010Prop44ColorIndex
 90
        5
102
RTVSPost2010Prop44ColorRGB
 90
      255
102
RTVSPost2010PropOp44
 70
     0
102
RTVSPost2010Prop45
280
     0
102
RTVSPost2010PropOp45
 70
     0
102
RTVSPost2010Prop46
 90
       50
102
RTVSPost2010PropOp46
 70
     0
102
RTVSPost2010Prop47
 90
       50
102
RTVSPost2010PropOp47
 70
     0
102
RTVSPost2010Prop48
 90
       50
102
RTVSPost2010PropOp48
 70
     0
102
RTVSPost2010Prop49
280
     0
102
RTVSPost2010PropOp49
 70
     0
102
RTVSPost2010Prop50
 90
       50
102
RTVSPost2010PropOp50
 70
     0
102
RTVSPost2010Prop51ColorIndex
 90
      256
102
RTVSPost2010Prop51ColorRGB
 90
-16777216
102
RTVSPost2010PropOp51
 70
     0
102
RTVSPost2010Prop52
140
1.0
102
RTVSPost2010PropOp52
 70
     0
102
RTVSPost2010Prop53
 90
        2
102
RTVSPost2010PropOp53
 70
     0
102
RTVSPost2010Prop54
  1
strokes_ogs.tif
102
RTVSPost2010PropOp54
 70
     0
102
RTVSPost2010Prop55
280
     0
102
RTVSPost2010PropOp55
 70
     0
102
RTVSPost2010Prop56
140
1.0
102
RTVSPost2010PropOp56
 70
     0
102
RTVSPost2010Prop57
140
1.0
102
RTVSPost2010PropOp57
 70
     0
  0
XRECORD
  5
A8
102
{ACAD_REACTORS
330
A7
102
}
330
A7
100
AcDbXrecord
280
     1
102
RTVSPropertyOp0
 70
     1
102
RTVSPropertyOp1
 70
     1
102
RTVSPropertyOp2
 70
     1
102
RTVSPropertyOp3
 70
     1
102
RTVSPropertyOp4
 70
     1
102
RTVSPropertyOp5
 70
     1
102
RTVSPropertyOp6
 70
     1
102
RTVSPropertyOp7
 70
     1
102
RTVSPropertyOp8
 70
     1
102
RTVSPropertyOp9
 70
     1
102
RTVSPropertyOp10
 70
     1
102
RTVSPropertyOp11
 70
     1
102
RTVSPropertyOp12
 70
     1
102
RTVSPropertyOp13
 70
     1
102
RTVSPropertyOp14
 70
     1
102
RTVSPropertyOp15
 70
     1
102
RTVSPropertyOp16
 70
     1
102
RTVSPropertyOp17
 70
     1
102
RTVSPropertyOp18
 70
     1
102
RTVSPropertyOp19
 70
     1
102
RTVSPropertyOp20
 70
     1
102
RTVSPropertyOp21
 70
     1
102
RTVSPropertyOp22
 70
     1
102
RTVSPropertyOp23
 70
     1
102
RTVSPropertyOp24
 70
     1
102
RTVSPropertyOp25
 70
     1
102
RTVSPropertyOp26
 70
     1
102
RTVSPropertyOp27
 70
     1
102
RTVSPropertyOp28
 70
     1
102
RTVSPropertyOp29
 70
     1
102
RTVSPropertyOp30
 70
     1
102
RTVSPropertyOp31
 70
     1
102
RTVSPropertyOp32
 70
     1
102
RTVSPropertyOp33
 70
     1
102
RTVSPropertyOp34
 70
     1
102
RTVSPropertyOp35
 70
     1
102
RTVSPropertyOp36
 70
     1
102
RTVSPropertyOp37
 70
     1
102
RTVSPropertyOp38
 70
     1
102
RTVSPropertyOp39
 70
     1
102
RTVSPropertyOp40
 70
     1
102
RTVSPropertyOp41
 70
     1
102
RTVSPropertyOp42
 70
     1
102
RTVSPropertyOp43
 70
     1
102
RTVSPropertyOp44
 70
     1
102
RTVSPropertyOp45
 70
     1
102
RTVSPropertyOp46
 70
     1
102
RTVSPropertyOp47
 70
     1
102
RTVSPropertyOp48
 70
     1
102
RTVSPropertyOp49
 70
     1
102
RTVSPropertyOp50
 70
     1
102
RTVSPropertyOp51
 70
     0
102
RTVSPropertyOp52
 70
     0
102
RTVSPropertyOp53
 70
     1
102
RTVSPropertyOp54
 70
     1
102
RTVSPropertyOp55
 70
     1
102
RTVSPropertyOp56
 70
     1
102
RTVSPropertyOp57
 70
     1
102
RTVSPost2010Prop28
280
     0
102
RTVSPost2010PropOp28
 70
     1
102
RTVSPost2010Prop29
280
     1
102
RTVSPost2010PropOp29
 70
     1
102
RTVSPost2010Prop30
280
     1
102
RTVSPost2010PropOp30
 70
     1
102
RTVSPost2010Prop31
280
     0
102
RTVSPost2010PropOp31
 70
     1
102
RTVSPost2010Prop32
280
     0
102
RTVSPost2010PropOp32
 70
     1
102
RTVSPost2010Prop33
280
     0
102
RTVSPost2010PropOp33
 70
     1
102
RTVSPost2010Prop34
280
     0
102
RTVSPost2010PropOp34
 70
     1
102
RTVSPost2010Prop35
280
     0
102
RTVSPost2010PropOp35
 70
     1
102
RTVSPost2010Prop36
280
     0
102
RTVSPost2010PropOp36
 70
     1
102
RTVSPost2010Prop37
 90
       50
102
RTVSPost2010PropOp37
 70
     1
102
RTVSPost2010Prop38
140
0.0
102
RTVSPost2010PropOp38
 70
     1
102
RTVSPost2010Prop39
140
1.0
102
RTVSPost2010PropOp39
 70
     1
102
RTVSPost2010Prop40
 90
        0
102
RTVSPost2010PropOp40
 70
     1
102
RTVSPost2010Prop41ColorIndex
 90
       18
102
RTVSPost2010Prop41ColorRGB
 90
        0
102
RTVSPost2010PropOp41
 70
     1
102
RTVSPost2010Prop42
 90
       50
102
RTVSPost2010PropOp42
 70
     1
102
RTVSPost2010Prop43
 90
        3
102
RTVSPost2010PropOp43
 70
     1
102
RTVSPost2010Prop44ColorIndex
 90
        5
102
RTVSPost2010Prop44ColorRGB
 90
      255
102
RTVSPost2010PropOp44
 70
     1
102
RTVSPost2010Prop45
280
     0
102
RTVSPost2010PropOp45
 70
     1
102
RTVSPost2010Prop46
 90
       50
102
RTVSPost2010PropOp46
 70
     1
102
RTVSPost2010Prop47
 90
       50
102
RTVSPost2010PropOp47
 70
     1
102
RTVSPost2010Prop48
 90
       50
102
RTVSPost2010PropOp48
 70
     1
102
RTVSPost2010Prop49
280
     0
102
RTVSPost2010PropOp49
 70
     1
102
RTVSPost2010Prop50
 90
       50
102
RTVSPost2010PropOp50
 70
     1
102
RTVSPost2010Prop51ColorIndex
 90
      256
102
RTVSPost2010Prop51ColorRGB
 90
-16777216
102
RTVSPost2010PropOp51
 70
     0
102
RTVSPost2010Prop52
140
1.0
102
RTVSPost2010PropOp52
 70
     0
102
RTVSPost2010Prop53
 90
        2
102
RTVSPost2010PropOp53
 70
     1
102
RTVSPost2010Prop54
  1
strokes_ogs.tif
102
RTVSPost2010PropOp54
 70
     1
102
RTVSPost2010Prop55
280
     0
102
RTVSPost2010PropOp55
 70
     1
102
RTVSPost2010Prop56
140
1.0
102
RTVSPost2010PropOp56
 70
     1
102
RTVSPost2010Prop57
140
1.0
102
RTVSPost2010PropOp57
 70
     1
  0
XRECORD
  5
C6
102
{ACAD_REACTORS
330
C5
102
}
330
C5
100
AcDbXrecord
280
     1
102
RTVSPropertyOp0
 70
     1
102
RTVSPropertyOp1
 70
     1
102
RTVSPropertyOp2
 70
     1
102
RTVSPropertyOp3
 70
     1
102
RTVSPropertyOp4
 70
     1
102
RTVSPropertyOp5
 70
     1
102
RTVSPropertyOp6
 70
     1
102
RTVSPropertyOp7
 70
     1
102
RTVSPropertyOp8
 70
     1
102
RTVSPropertyOp9
 70
     1
102
RTVSPropertyOp10
 70
     1
102
RTVSPropertyOp11
 70
     1
102
RTVSPropertyOp12
 70
     1
102
RTVSPropertyOp13
 70
     1
102
RTVSPropertyOp14
 70
     1
102
RTVSPropertyOp15
 70
     1
102
RTVSPropertyOp16
 70
     1
102
RTVSPropertyOp17
 70
     1
102
RTVSPropertyOp18
 70
     1
102
RTVSPropertyOp19
 70
     1
102
RTVSPropertyOp20
 70
     1
102
RTVSPropertyOp21
 70
     1
102
RTVSPropertyOp22
 70
     1
102
RTVSPropertyOp23
 70
     1
102
RTVSPropertyOp24
 70
     1
102
RTVSPropertyOp25
 70
     1
102
RTVSPropertyOp26
 70
     1
102
RTVSPropertyOp27
 70
     1
102
RTVSPropertyOp28
 70
     1
102
RTVSPropertyOp29
 70
     1
102
RTVSPropertyOp30
 70
     1
102
RTVSPropertyOp31
 70
     1
102
RTVSPropertyOp32
 70
     1
102
RTVSPropertyOp33
 70
     1
102
RTVSPropertyOp34
 70
     1
102
RTVSPropertyOp35
 70
     1
102
RTVSPropertyOp36
 70
     1
102
RTVSPropertyOp37
 70
     1
102
RTVSPropertyOp38
 70
     1
102
RTVSPropertyOp39
 70
     1
102
RTVSPropertyOp40
 70
     1
102
RTVSPropertyOp41
 70
     1
102
RTVSPropertyOp42
 70
     1
102
RTVSPropertyOp43
 70
     1
102
RTVSPropertyOp44
 70
     1
102
RTVSPropertyOp45
 70
     1
102
RTVSPropertyOp46
 70
     1
102
RTVSPropertyOp47
 70
     1
102
RTVSPropertyOp48
 70
     1
102
RTVSPropertyOp49
 70
     1
102
RTVSPropertyOp50
 70
     1
102
RTVSPropertyOp51
 70
     0
102
RTVSPropertyOp52
 70
     0
102
RTVSPropertyOp53
 70
     1
102
RTVSPropertyOp54
 70
     1
102
RTVSPropertyOp55
 70
     1
102
RTVSPropertyOp56
 70
     1
102
RTVSPropertyOp57
 70
     1
102
RTVSPost2010Prop28
280
     0
102
RTVSPost2010PropOp28
 70
     1
102
RTVSPost2010Prop29
280
     1
102
RTVSPost2010PropOp29
 70
     1
102
RTVSPost2010Prop30
280
     1
102
RTVSPost2010PropOp30
 70
     1
102
RTVSPost2010Prop31
280
     0
102
RTVSPost2010PropOp31
 70
     1
102
RTVSPost2010Prop32
280
     0
102
RTVSPost2010PropOp32
 70
     1
102
RTVSPost2010Prop33
280
     0
102
RTVSPost2010PropOp33
 70
     1
102
RTVSPost2010Prop34
280
     0
102
RTVSPost2010PropOp34
 70
     1
102
RTVSPost2010Prop35
280
     0
102
RTVSPost2010PropOp35
 70
     1
102
RTVSPost2010Prop36
280
     0
102
RTVSPost2010PropOp36
 70
     1
102
RTVSPost2010Prop37
 90
       50
102
RTVSPost2010PropOp37
 70
     1
102
RTVSPost2010Prop38
140
0.0
102
RTVSPost2010PropOp38
 70
     1
102
RTVSPost2010Prop39
140
1.0
102
RTVSPost2010PropOp39
 70
     1
102
RTVSPost2010Prop40
 90
        0
102
RTVSPost2010PropOp40
 70
     1
102
RTVSPost2010Prop41ColorIndex
 90
       18
102
RTVSPost2010Prop41ColorRGB
 90
        0
102
RTVSPost2010PropOp41
 70
     1
102
RTVSPost2010Prop42
 90
       50
102
RTVSPost2010PropOp42
 70
     1
102
RTVSPost2010Prop43
 90
        3
102
RTVSPost2010PropOp43
 70
     1
102
RTVSPost2010Prop44ColorIndex
 90
        5
102
RTVSPost2010Prop44ColorRGB
 90
      255
102
RTVSPost2010PropOp44
 70
     1
102
RTVSPost2010Prop45
280
     0
102
RTVSPost2010PropOp45
 70
     1
102
RTVSPost2010Prop46
 90
       50
102
RTVSPost2010PropOp46
 70
     1
102
RTVSPost2010Prop47
 90
       50
102
RTVSPost2010PropOp47
 70
     1
102
RTVSPost2010Prop48
 90
       50
102
RTVSPost2010PropOp48
 70
     1
102
RTVSPost2010Prop49
280
     0
102
RTVSPost2010PropOp49
 70
     1
102
RTVSPost2010Prop50
 90
       50
102
RTVSPost2010PropOp50
 70
     1
102
RTVSPost2010Prop51ColorIndex
 90
      256
102
RTVSPost2010Prop51ColorRGB
 90
-16777216
102
RTVSPost2010PropOp51
 70
     0
102
RTVSPost2010Prop52
140
1.0
102
RTVSPost2010PropOp52
 70
     0
102
RTVSPost2010Prop53
 90
        2
102
RTVSPost2010PropOp53
 70
     1
102
RTVSPost2010Prop54
  1
strokes_ogs.tif
102
RTVSPost2010PropOp54
 70
     1
102
RTVSPost2010Prop55
280
     0
102
RTVSPost2010PropOp55
 70
     1
102
RTVSPost2010Prop56
140
1.0
102
RTVSPost2010PropOp56
 70
     1
102
RTVSPost2010Prop57
140
1.0
102
RTVSPost2010PropOp57
 70
     1
  0
XRECORD
  5
C4
102
{ACAD_REACTORS
330
C3
102
}
330
C3
100
AcDbXrecord
280
     1
102
RTVSPropertyOp0
 70
     1
102
RTVSPropertyOp1
 70
     1
102
RTVSPropertyOp2
 70
     1
102
RTVSPropertyOp3
 70
     1
102
RTVSPropertyOp4
 70
     1
102
RTVSPropertyOp5
 70
     1
102
RTVSPropertyOp6
 70
     1
102
RTVSPropertyOp7
 70
     1
102
RTVSPropertyOp8
 70
     1
102
RTVSPropertyOp9
 70
     1
102
RTVSPropertyOp10
 70
     1
102
RTVSPropertyOp11
 70
     1
102
RTVSPropertyOp12
 70
     1
102
RTVSPropertyOp13
 70
     1
102
RTVSPropertyOp14
 70
     1
102
RTVSPropertyOp15
 70
     1
102
RTVSPropertyOp16
 70
     1
102
RTVSPropertyOp17
 70
     1
102
RTVSPropertyOp18
 70
     1
102
RTVSPropertyOp19
 70
     1
102
RTVSPropertyOp20
 70
     1
102
RTVSPropertyOp21
 70
     1
102
RTVSPropertyOp22
 70
     1
102
RTVSPropertyOp23
 70
     1
102
RTVSPropertyOp24
 70
     1
102
RTVSPropertyOp25
 70
     1
102
RTVSPropertyOp26
 70
     1
102
RTVSPropertyOp27
 70
     1
102
RTVSPropertyOp28
 70
     1
102
RTVSPropertyOp29
 70
     1
102
RTVSPropertyOp30
 70
     1
102
RTVSPropertyOp31
 70
     1
102
RTVSPropertyOp32
 70
     1
102
RTVSPropertyOp33
 70
     1
102
RTVSPropertyOp34
 70
     1
102
RTVSPropertyOp35
 70
     1
102
RTVSPropertyOp36
 70
     1
102
RTVSPropertyOp37
 70
     1
102
RTVSPropertyOp38
 70
     1
102
RTVSPropertyOp39
 70
     1
102
RTVSPropertyOp40
 70
     1
102
RTVSPropertyOp41
 70
     1
102
RTVSPropertyOp42
 70
     1
102
RTVSPropertyOp43
 70
     1
102
RTVSPropertyOp44
 70
     1
102
RTVSPropertyOp45
 70
     1
102
RTVSPropertyOp46
 70
     1
102
RTVSPropertyOp47
 70
     1
102
RTVSPropertyOp48
 70
     1
102
RTVSPropertyOp49
 70
     1
102
RTVSPropertyOp50
 70
     1
102
RTVSPropertyOp51
 70
     0
102
RTVSPropertyOp52
 70
     0
102
RTVSPropertyOp53
 70
     1
102
RTVSPropertyOp54
 70
     1
102
RTVSPropertyOp55
 70
     1
102
RTVSPropertyOp56
 70
     1
102
RTVSPropertyOp57
 70
     1
102
RTVSPost2010Prop28
280
     0
102
RTVSPost2010PropOp28
 70
     1
102
RTVSPost2010Prop29
280
     1
102
RTVSPost2010PropOp29
 70
     1
102
RTVSPost2010Prop30
280
     1
102
RTVSPost2010PropOp30
 70
     1
102
RTVSPost2010Prop31
280
     0
102
RTVSPost2010PropOp31
 70
     1
102
RTVSPost2010Prop32
280
     0
102
RTVSPost2010PropOp32
 70
     1
102
RTVSPost2010Prop33
280
     0
102
RTVSPost2010PropOp33
 70
     1
102
RTVSPost2010Prop34
280
     0
102
RTVSPost2010PropOp34
 70
     1
102
RTVSPost2010Prop35
280
     0
102
RTVSPost2010PropOp35
 70
     1
102
RTVSPost2010Prop36
280
     0
102
RTVSPost2010PropOp36
 70
     1
102
RTVSPost2010Prop37
 90
       50
102
RTVSPost2010PropOp37
 70
     1
102
RTVSPost2010Prop38
140
0.0
102
RTVSPost2010PropOp38
 70
     1
102
RTVSPost2010Prop39
140
1.0
102
RTVSPost2010PropOp39
 70
     1
102
RTVSPost2010Prop40
 90
        0
102
RTVSPost2010PropOp40
 70
     1
102
RTVSPost2010Prop41ColorIndex
 90
       18
102
RTVSPost2010Prop41ColorRGB
 90
        0
102
RTVSPost2010PropOp41
 70
     1
102
RTVSPost2010Prop42
 90
       50
102
RTVSPost2010PropOp42
 70
     1
102
RTVSPost2010Prop43
 90
        3
102
RTVSPost2010PropOp43
 70
     1
102
RTVSPost2010Prop44ColorIndex
 90
        5
102
RTVSPost2010Prop44ColorRGB
 90
      255
102
RTVSPost2010PropOp44
 70
     1
102
RTVSPost2010Prop45
280
     0
102
RTVSPost2010PropOp45
 70
     1
102
RTVSPost2010Prop46
 90
       50
102
RTVSPost2010PropOp46
 70
     1
102
RTVSPost2010Prop47
 90
       50
102
RTVSPost2010PropOp47
 70
     1
102
RTVSPost2010Prop48
 90
       50
102
RTVSPost2010PropOp48
 70
     1
102
RTVSPost2010Prop49
280
     0
102
RTVSPost2010PropOp49
 70
     1
102
RTVSPost2010Prop50
 90
       50
102
RTVSPost2010PropOp50
 70
     1
102
RTVSPost2010Prop51ColorIndex
 90
      256
102
RTVSPost2010Prop51ColorRGB
 90
-16777216
102
RTVSPost2010PropOp51
 70
     0
102
RTVSPost2010Prop52
140
1.0
102
RTVSPost2010PropOp52
 70
     0
102
RTVSPost2010Prop53
 90
        2
102
RTVSPost2010PropOp53
 70
     1
102
RTVSPost2010Prop54
  1
strokes_ogs.tif
102
RTVSPost2010PropOp54
 70
     1
102
RTVSPost2010Prop55
280
     0
102
RTVSPost2010PropOp55
 70
     1
102
RTVSPost2010Prop56
140
1.0
102
RTVSPost2010PropOp56
 70
     1
102
RTVSPost2010Prop57
140
1.0
102
RTVSPost2010PropOp57
 70
     1
  0
XRECORD
  5
BE
102
{ACAD_REACTORS
330
BD
102
}
330
BD
100
AcDbXrecord
280
     1
102
RTVSPropertyOp0
 70
     1
102
RTVSPropertyOp1
 70
     1
102
RTVSPropertyOp2
 70
     1
102
RTVSPropertyOp3
 70
     1
102
RTVSPropertyOp4
 70
     1
102
RTVSPropertyOp5
 70
     1
102
RTVSPropertyOp6
 70
     1
102
RTVSPropertyOp7
 70
     1
102
RTVSPropertyOp8
 70
     1
102
RTVSPropertyOp9
 70
     1
102
RTVSPropertyOp10
 70
     1
102
RTVSPropertyOp11
 70
     1
102
RTVSPropertyOp12
 70
     1
102
RTVSPropertyOp13
 70
     1
102
RTVSPropertyOp14
 70
     1
102
RTVSPropertyOp15
 70
     1
102
RTVSPropertyOp16
 70
     1
102
RTVSPropertyOp17
 70
     1
102
RTVSPropertyOp18
 70
     1
102
RTVSPropertyOp19
 70
     1
102
RTVSPropertyOp20
 70
     1
102
RTVSPropertyOp21
 70
     1
102
RTVSPropertyOp22
 70
     1
102
RTVSPropertyOp23
 70
     1
102
RTVSPropertyOp24
 70
     1
102
RTVSPropertyOp25
 70
     1
102
RTVSPropertyOp26
 70
     1
102
RTVSPropertyOp27
 70
     1
102
RTVSPropertyOp28
 70
     1
102
RTVSPropertyOp29
 70
     1
102
RTVSPropertyOp30
 70
     1
102
RTVSPropertyOp31
 70
     1
102
RTVSPropertyOp32
 70
     1
102
RTVSPropertyOp33
 70
     1
102
RTVSPropertyOp34
 70
     1
102
RTVSPropertyOp35
 70
     1
102
RTVSPropertyOp36
 70
     1
102
RTVSPropertyOp37
 70
     1
102
RTVSPropertyOp38
 70
     1
102
RTVSPropertyOp39
 70
     1
102
RTVSPropertyOp40
 70
     1
102
RTVSPropertyOp41
 70
     1
102
RTVSPropertyOp42
 70
     1
102
RTVSPropertyOp43
 70
     1
102
RTVSPropertyOp44
 70
     1
102
RTVSPropertyOp45
 70
     1
102
RTVSPropertyOp46
 70
     1
102
RTVSPropertyOp47
 70
     1
102
RTVSPropertyOp48
 70
     1
102
RTVSPropertyOp49
 70
     1
102
RTVSPropertyOp50
 70
     1
102
RTVSPropertyOp51
 70
     0
102
RTVSPropertyOp52
 70
     0
102
RTVSPropertyOp53
 70
     1
102
RTVSPropertyOp54
 70
     1
102
RTVSPropertyOp55
 70
     1
102
RTVSPropertyOp56
 70
     1
102
RTVSPropertyOp57
 70
     1
102
RTVSPost2010Prop28
280
     0
102
RTVSPost2010PropOp28
 70
     1
102
RTVSPost2010Prop29
280
     1
102
RTVSPost2010PropOp29
 70
     1
102
RTVSPost2010Prop30
280
     1
102
RTVSPost2010PropOp30
 70
     1
102
RTVSPost2010Prop31
280
     0
102
RTVSPost2010PropOp31
 70
     1
102
RTVSPost2010Prop32
280
     0
102
RTVSPost2010PropOp32
 70
     1
102
RTVSPost2010Prop33
280
     0
102
RTVSPost2010PropOp33
 70
     1
102
RTVSPost2010Prop34
280
     0
102
RTVSPost2010PropOp34
 70
     1
102
RTVSPost2010Prop35
280
     0
102
RTVSPost2010PropOp35
 70
     1
102
RTVSPost2010Prop36
280
     0
102
RTVSPost2010PropOp36
 70
     1
102
RTVSPost2010Prop37
 90
       50
102
RTVSPost2010PropOp37
 70
     1
102
RTVSPost2010Prop38
140
0.0
102
RTVSPost2010PropOp38
 70
     1
102
RTVSPost2010Prop39
140
1.0
102
RTVSPost2010PropOp39
 70
     1
102
RTVSPost2010Prop40
 90
        0
102
RTVSPost2010PropOp40
 70
     1
102
RTVSPost2010Prop41ColorIndex
 90
       18
102
RTVSPost2010Prop41ColorRGB
 90
        0
102
RTVSPost2010PropOp41
 70
     1
102
RTVSPost2010Prop42
 90
       50
102
RTVSPost2010PropOp42
 70
     1
102
RTVSPost2010Prop43
 90
        3
102
RTVSPost2010PropOp43
 70
     1
102
RTVSPost2010Prop44ColorIndex
 90
        5
102
RTVSPost2010Prop44ColorRGB
 90
      255
102
RTVSPost2010PropOp44
 70
     1
102
RTVSPost2010Prop45
280
     0
102
RTVSPost2010PropOp45
 70
     1
102
RTVSPost2010Prop46
 90
       50
102
RTVSPost2010PropOp46
 70
     1
102
RTVSPost2010Prop47
 90
       50
102
RTVSPost2010PropOp47
 70
     1
102
RTVSPost2010Prop48
 90
       50
102
RTVSPost2010PropOp48
 70
     1
102
RTVSPost2010Prop49
280
     0
102
RTVSPost2010PropOp49
 70
     1
102
RTVSPost2010Prop50
 90
       50
102
RTVSPost2010PropOp50
 70
     1
102
RTVSPost2010Prop51ColorIndex
 90
      256
102
RTVSPost2010Prop51ColorRGB
 90
-16777216
102
RTVSPost2010PropOp51
 70
     0
102
RTVSPost2010Prop52
140
1.0
102
RTVSPost2010PropOp52
 70
     0
102
RTVSPost2010Prop53
 90
        2
102
RTVSPost2010PropOp53
 70
     1
102
RTVSPost2010Prop54
  1
strokes_ogs.tif
102
RTVSPost2010PropOp54
 70
     1
102
RTVSPost2010Prop55
280
     0
102
RTVSPost2010PropOp55
 70
     1
102
RTVSPost2010Prop56
140
1.0
102
RTVSPost2010PropOp56
 70
     1
102
RTVSPost2010Prop57
140
1.0
102
RTVSPost2010PropOp57
 70
     1
  0
XRECORD
  5
C0
102
{ACAD_REACTORS
330
BF
102
}
330
BF
100
AcDbXrecord
280
     1
102
RTVSPropertyOp0
 70
     1
102
RTVSPropertyOp1
 70
     1
102
RTVSPropertyOp2
 70
     1
102
RTVSPropertyOp3
 70
     1
102
RTVSPropertyOp4
 70
     1
102
RTVSPropertyOp5
 70
     1
102
RTVSPropertyOp6
 70
     1
102
RTVSPropertyOp7
 70
     1
102
RTVSPropertyOp8
 70
     1
102
RTVSPropertyOp9
 70
     1
102
RTVSPropertyOp10
 70
     1
102
RTVSPropertyOp11
 70
     1
102
RTVSPropertyOp12
 70
     1
102
RTVSPropertyOp13
 70
     1
102
RTVSPropertyOp14
 70
     1
102
RTVSPropertyOp15
 70
     1
102
RTVSPropertyOp16
 70
     1
102
RTVSPropertyOp17
 70
     1
102
RTVSPropertyOp18
 70
     1
102
RTVSPropertyOp19
 70
     1
102
RTVSPropertyOp20
 70
     1
102
RTVSPropertyOp21
 70
     1
102
RTVSPropertyOp22
 70
     1
102
RTVSPropertyOp23
 70
     1
102
RTVSPropertyOp24
 70
     1
102
RTVSPropertyOp25
 70
     1
102
RTVSPropertyOp26
 70
     1
102
RTVSPropertyOp27
 70
     1
102
RTVSPropertyOp28
 70
     1
102
RTVSPropertyOp29
 70
     1
102
RTVSPropertyOp30
 70
     1
102
RTVSPropertyOp31
 70
     1
102
RTVSPropertyOp32
 70
     1
102
RTVSPropertyOp33
 70
     1
102
RTVSPropertyOp34
 70
     1
102
RTVSPropertyOp35
 70
     1
102
RTVSPropertyOp36
 70
     1
102
RTVSPropertyOp37
 70
     1
102
RTVSPropertyOp38
 70
     1
102
RTVSPropertyOp39
 70
     1
102
RTVSPropertyOp40
 70
     1
102
RTVSPropertyOp41
 70
     1
102
RTVSPropertyOp42
 70
     1
102
RTVSPropertyOp43
 70
     1
102
RTVSPropertyOp44
 70
     1
102
RTVSPropertyOp45
 70
     1
102
RTVSPropertyOp46
 70
     1
102
RTVSPropertyOp47
 70
     1
102
RTVSPropertyOp48
 70
     1
102
RTVSPropertyOp49
 70
     1
102
RTVSPropertyOp50
 70
     1
102
RTVSPropertyOp51
 70
     0
102
RTVSPropertyOp52
 70
     0
102
RTVSPropertyOp53
 70
     1
102
RTVSPropertyOp54
 70
     1
102
RTVSPropertyOp55
 70
     1
102
RTVSPropertyOp56
 70
     1
102
RTVSPropertyOp57
 70
     1
102
RTVSPost2010Prop28
280
     0
102
RTVSPost2010PropOp28
 70
     1
102
RTVSPost2010Prop29
280
     1
102
RTVSPost2010PropOp29
 70
     1
102
RTVSPost2010Prop30
280
     1
102
RTVSPost2010PropOp30
 70
     1
102
RTVSPost2010Prop31
280
     0
102
RTVSPost2010PropOp31
 70
     1
102
RTVSPost2010Prop32
280
     0
102
RTVSPost2010PropOp32
 70
     1
102
RTVSPost2010Prop33
280
     0
102
RTVSPost2010PropOp33
 70
     1
102
RTVSPost2010Prop34
280
     0
102
RTVSPost2010PropOp34
 70
     1
102
RTVSPost2010Prop35
280
     0
102
RTVSPost2010PropOp35
 70
     1
102
RTVSPost2010Prop36
280
     0
102
RTVSPost2010PropOp36
 70
     1
102
RTVSPost2010Prop37
 90
       50
102
RTVSPost2010PropOp37
 70
     1
102
RTVSPost2010Prop38
140
0.0
102
RTVSPost2010PropOp38
 70
     1
102
RTVSPost2010Prop39
140
1.0
102
RTVSPost2010PropOp39
 70
     1
102
RTVSPost2010Prop40
 90
        0
102
RTVSPost2010PropOp40
 70
     1
102
RTVSPost2010Prop41ColorIndex
 90
       18
102
RTVSPost2010Prop41ColorRGB
 90
        0
102
RTVSPost2010PropOp41
 70
     1
102
RTVSPost2010Prop42
 90
       50
102
RTVSPost2010PropOp42
 70
     1
102
RTVSPost2010Prop43
 90
        3
102
RTVSPost2010PropOp43
 70
     1
102
RTVSPost2010Prop44ColorIndex
 90
        5
102
RTVSPost2010Prop44ColorRGB
 90
      255
102
RTVSPost2010PropOp44
 70
     1
102
RTVSPost2010Prop45
280
     0
102
RTVSPost2010PropOp45
 70
     1
102
RTVSPost2010Prop46
 90
       50
102
RTVSPost2010PropOp46
 70
     1
102
RTVSPost2010Prop47
 90
       50
102
RTVSPost2010PropOp47
 70
     1
102
RTVSPost2010Prop48
 90
       50
102
RTVSPost2010PropOp48
 70
     1
102
RTVSPost2010Prop49
280
     0
102
RTVSPost2010PropOp49
 70
     1
102
RTVSPost2010Prop50
 90
       50
102
RTVSPost2010PropOp50
 70
     1
102
RTVSPost2010Prop51ColorIndex
 90
      256
102
RTVSPost2010Prop51ColorRGB
 90
-16777216
102
RTVSPost2010PropOp51
 70
     0
102
RTVSPost2010Prop52
140
1.0
102
RTVSPost2010PropOp52
 70
     0
102
RTVSPost2010Prop53
 90
        2
102
RTVSPost2010PropOp53
 70
     1
102
RTVSPost2010Prop54
  1
strokes_ogs.tif
102
RTVSPost2010PropOp54
 70
     1
102
RTVSPost2010Prop55
280
     0
102
RTVSPost2010PropOp55
 70
     1
102
RTVSPost2010Prop56
140
1.0
102
RTVSPost2010PropOp56
 70
     1
102
RTVSPost2010Prop57
140
1.0
102
RTVSPost2010PropOp57
 70
     1
  0
XRECORD
  5
B0
102
{ACAD_REACTORS
330
AF
102
}
330
AF
100
AcDbXrecord
280
     1
102
RTVSPropertyOp0
 70
     1
102
RTVSPropertyOp1
 70
     1
102
RTVSPropertyOp2
 70
     1
102
RTVSPropertyOp3
 70
     1
102
RTVSPropertyOp4
 70
     1
102
RTVSPropertyOp5
 70
     1
102
RTVSPropertyOp6
 70
     1
102
RTVSPropertyOp7
 70
     1
102
RTVSPropertyOp8
 70
     1
102
RTVSPropertyOp9
 70
     1
102
RTVSPropertyOp10
 70
     1
102
RTVSPropertyOp11
 70
     1
102
RTVSPropertyOp12
 70
     1
102
RTVSPropertyOp13
 70
     1
102
RTVSPropertyOp14
 70
     1
102
RTVSPropertyOp15
 70
     1
102
RTVSPropertyOp16
 70
     1
102
RTVSPropertyOp17
 70
     1
102
RTVSPropertyOp18
 70
     1
102
RTVSPropertyOp19
 70
     1
102
RTVSPropertyOp20
 70
     1
102
RTVSPropertyOp21
 70
     1
102
RTVSPropertyOp22
 70
     1
102
RTVSPropertyOp23
 70
     1
102
RTVSPropertyOp24
 70
     1
102
RTVSPropertyOp25
 70
     1
102
RTVSPropertyOp26
 70
     1
102
RTVSPropertyOp27
 70
     1
102
RTVSPropertyOp28
 70
     1
102
RTVSPropertyOp29
 70
     1
102
RTVSPropertyOp30
 70
     1
102
RTVSPropertyOp31
 70
     1
102
RTVSPropertyOp32
 70
     1
102
RTVSPropertyOp33
 70
     1
102
RTVSPropertyOp34
 70
     1
102
RTVSPropertyOp35
 70
     1
102
RTVSPropertyOp36
 70
     1
102
RTVSPropertyOp37
 70
     1
102
RTVSPropertyOp38
 70
     1
102
RTVSPropertyOp39
 70
     1
102
RTVSPropertyOp40
 70
     1
102
RTVSPropertyOp41
 70
     1
102
RTVSPropertyOp42
 70
     1
102
RTVSPropertyOp43
 70
     1
102
RTVSPropertyOp44
 70
     1
102
RTVSPropertyOp45
 70
     1
102
RTVSPropertyOp46
 70
     1
102
RTVSPropertyOp47
 70
     1
102
RTVSPropertyOp48
 70
     1
102
RTVSPropertyOp49
 70
     1
102
RTVSPropertyOp50
 70
     1
102
RTVSPropertyOp51
 70
     0
102
RTVSPropertyOp52
 70
     0
102
RTVSPropertyOp53
 70
     1
102
RTVSPropertyOp54
 70
     1
102
RTVSPropertyOp55
 70
     1
102
RTVSPropertyOp56
 70
     1
102
RTVSPropertyOp57
 70
     1
102
RTVSPost2010Prop28
280
     0
102
RTVSPost2010PropOp28
 70
     1
102
RTVSPost2010Prop29
280
     1
102
RTVSPost2010PropOp29
 70
     1
102
RTVSPost2010Prop30
280
     1
102
RTVSPost2010PropOp30
 70
     1
102
RTVSPost2010Prop31
280
     0
102
RTVSPost2010PropOp31
 70
     1
102
RTVSPost2010Prop32
280
     0
102
RTVSPost2010PropOp32
 70
     1
102
RTVSPost2010Prop33
280
     0
102
RTVSPost2010PropOp33
 70
     1
102
RTVSPost2010Prop34
280
     0
102
RTVSPost2010PropOp34
 70
     1
102
RTVSPost2010Prop35
280
     0
102
RTVSPost2010PropOp35
 70
     1
102
RTVSPost2010Prop36
280
     0
102
RTVSPost2010PropOp36
 70
     1
102
RTVSPost2010Prop37
 90
       50
102
RTVSPost2010PropOp37
 70
     1
102
RTVSPost2010Prop38
140
0.0
102
RTVSPost2010PropOp38
 70
     1
102
RTVSPost2010Prop39
140
1.0
102
RTVSPost2010PropOp39
 70
     1
102
RTVSPost2010Prop40
 90
        0
102
RTVSPost2010PropOp40
 70
     1
102
RTVSPost2010Prop41ColorIndex
 90
       18
102
RTVSPost2010Prop41ColorRGB
 90
        0
102
RTVSPost2010PropOp41
 70
     1
102
RTVSPost2010Prop42
 90
       50
102
RTVSPost2010PropOp42
 70
     1
102
RTVSPost2010Prop43
 90
        3
102
RTVSPost2010PropOp43
 70
     1
102
RTVSPost2010Prop44ColorIndex
 90
        5
102
RTVSPost2010Prop44ColorRGB
 90
      255
102
RTVSPost2010PropOp44
 70
     1
102
RTVSPost2010Prop45
280
     0
102
RTVSPost2010PropOp45
 70
     1
102
RTVSPost2010Prop46
 90
       50
102
RTVSPost2010PropOp46
 70
     1
102
RTVSPost2010Prop47
 90
       50
102
RTVSPost2010PropOp47
 70
     1
102
RTVSPost2010Prop48
 90
       50
102
RTVSPost2010PropOp48
 70
     1
102
RTVSPost2010Prop49
280
     0
102
RTVSPost2010PropOp49
 70
     1
102
RTVSPost2010Prop50
 90
       50
102
RTVSPost2010PropOp50
 70
     1
102
RTVSPost2010Prop51ColorIndex
 90
      256
102
RTVSPost2010Prop51ColorRGB
 90
-16777216
102
RTVSPost2010PropOp51
 70
     0
102
RTVSPost2010Prop52
140
1.0
102
RTVSPost2010PropOp52
 70
     0
102
RTVSPost2010Prop53
 90
        2
102
RTVSPost2010PropOp53
 70
     1
102
RTVSPost2010Prop54
  1
strokes_ogs.tif
102
RTVSPost2010PropOp54
 70
     1
102
RTVSPost2010Prop55
280
     0
102
RTVSPost2010PropOp55
 70
     1
102
RTVSPost2010Prop56
140
1.0
102
RTVSPost2010PropOp56
 70
     1
102
RTVSPost2010Prop57
140
1.0
102
RTVSPost2010PropOp57
 70
     1
  0
XRECORD
  5
A2
102
{ACAD_REACTORS
330
A1
102
}
330
A1
100
AcDbXrecord
280
     1
102
RTVSPropertyOp0
 70
     1
102
RTVSPropertyOp1
 70
     1
102
RTVSPropertyOp2
 70
     1
102
RTVSPropertyOp3
 70
     1
102
RTVSPropertyOp4
 70
     1
102
RTVSPropertyOp5
 70
     1
102
RTVSPropertyOp6
 70
     1
102
RTVSPropertyOp7
 70
     1
102
RTVSPropertyOp8
 70
     1
102
RTVSPropertyOp9
 70
     1
102
RTVSPropertyOp10
 70
     1
102
RTVSPropertyOp11
 70
     1
102
RTVSPropertyOp12
 70
     1
102
RTVSPropertyOp13
 70
     1
102
RTVSPropertyOp14
 70
     1
102
RTVSPropertyOp15
 70
     1
102
RTVSPropertyOp16
 70
     1
102
RTVSPropertyOp17
 70
     1
102
RTVSPropertyOp18
 70
     1
102
RTVSPropertyOp19
 70
     1
102
RTVSPropertyOp20
 70
     1
102
RTVSPropertyOp21
 70
     1
102
RTVSPropertyOp22
 70
     1
102
RTVSPropertyOp23
 70
     1
102
RTVSPropertyOp24
 70
     1
102
RTVSPropertyOp25
 70
     1
102
RTVSPropertyOp26
 70
     1
102
RTVSPropertyOp27
 70
     1
102
RTVSPropertyOp28
 70
     1
102
RTVSPropertyOp29
 70
     1
102
RTVSPropertyOp30
 70
     1
102
RTVSPropertyOp31
 70
     1
102
RTVSPropertyOp32
 70
     1
102
RTVSPropertyOp33
 70
     1
102
RTVSPropertyOp34
 70
     1
102
RTVSPropertyOp35
 70
     1
102
RTVSPropertyOp36
 70
     1
102
RTVSPropertyOp37
 70
     1
102
RTVSPropertyOp38
 70
     1
102
RTVSPropertyOp39
 70
     1
102
RTVSPropertyOp40
 70
     1
102
RTVSPropertyOp41
 70
     1
102
RTVSPropertyOp42
 70
     1
102
RTVSPropertyOp43
 70
     1
102
RTVSPropertyOp44
 70
     1
102
RTVSPropertyOp45
 70
     1
102
RTVSPropertyOp46
 70
     1
102
RTVSPropertyOp47
 70
     1
102
RTVSPropertyOp48
 70
     1
102
RTVSPropertyOp49
 70
     1
102
RTVSPropertyOp50
 70
     1
102
RTVSPropertyOp51
 70
     0
102
RTVSPropertyOp52
 70
     0
102
RTVSPropertyOp53
 70
     1
102
RTVSPropertyOp54
 70
     1
102
RTVSPropertyOp55
 70
     1
102
RTVSPropertyOp56
 70
     1
102
RTVSPropertyOp57
 70
     1
102
RTVSPost2010Prop28
280
     0
102
RTVSPost2010PropOp28
 70
     1
102
RTVSPost2010Prop29
280
     1
102
RTVSPost2010PropOp29
 70
     1
102
RTVSPost2010Prop30
280
     1
102
RTVSPost2010PropOp30
 70
     1
102
RTVSPost2010Prop31
280
     0
102
RTVSPost2010PropOp31
 70
     1
102
RTVSPost2010Prop32
280
     0
102
RTVSPost2010PropOp32
 70
     1
102
RTVSPost2010Prop33
280
     0
102
RTVSPost2010PropOp33
 70
     1
102
RTVSPost2010Prop34
280
     0
102
RTVSPost2010PropOp34
 70
     1
102
RTVSPost2010Prop35
280
     0
102
RTVSPost2010PropOp35
 70
     1
102
RTVSPost2010Prop36
280
     0
102
RTVSPost2010PropOp36
 70
     1
102
RTVSPost2010Prop37
 90
       50
102
RTVSPost2010PropOp37
 70
     1
102
RTVSPost2010Prop38
140
0.0
102
RTVSPost2010PropOp38
 70
     1
102
RTVSPost2010Prop39
140
1.0
102
RTVSPost2010PropOp39
 70
     1
102
RTVSPost2010Prop40
 90
        0
102
RTVSPost2010PropOp40
 70
     1
102
RTVSPost2010Prop41ColorIndex
 90
       18
102
RTVSPost2010Prop41ColorRGB
 90
        0
102
RTVSPost2010PropOp41
 70
     1
102
RTVSPost2010Prop42
 90
       50
102
RTVSPost2010PropOp42
 70
     1
102
RTVSPost2010Prop43
 90
        3
102
RTVSPost2010PropOp43
 70
     1
102
RTVSPost2010Prop44ColorIndex
 90
        5
102
RTVSPost2010Prop44ColorRGB
 90
      255
102
RTVSPost2010PropOp44
 70
     1
102
RTVSPost2010Prop45
280
     0
102
RTVSPost2010PropOp45
 70
     1
102
RTVSPost2010Prop46
 90
       50
102
RTVSPost2010PropOp46
 70
     1
102
RTVSPost2010Prop47
 90
       50
102
RTVSPost2010PropOp47
 70
     1
102
RTVSPost2010Prop48
 90
       50
102
RTVSPost2010PropOp48
 70
     1
102
RTVSPost2010Prop49
280
     0
102
RTVSPost2010PropOp49
 70
     1
102
RTVSPost2010Prop50
 90
       50
102
RTVSPost2010PropOp50
 70
     1
102
RTVSPost2010Prop51ColorIndex
 90
      256
102
RTVSPost2010Prop51ColorRGB
 90
-16777216
102
RTVSPost2010PropOp51
 70
     0
102
RTVSPost2010Prop52
140
1.0
102
RTVSPost2010PropOp52
 70
     0
102
RTVSPost2010Prop53
 90
        2
102
RTVSPost2010PropOp53
 70
     1
102
RTVSPost2010Prop54
  1
strokes_ogs.tif
102
RTVSPost2010PropOp54
 70
     1
102
RTVSPost2010Prop55
280
     0
102
RTVSPost2010PropOp55
 70
     1
102
RTVSPost2010Prop56
140
1.0
102
RTVSPost2010PropOp56
 70
     1
102
RTVSPost2010Prop57
140
1.0
102
RTVSPost2010PropOp57
 70
     1
  0
XRECORD
  5
C2
102
{ACAD_REACTORS
330
C1
102
}
330
C1
100
AcDbXrecord
280
     1
102
RTVSPropertyOp0
 70
     1
102
RTVSPropertyOp1
 70
     1
102
RTVSPropertyOp2
 70
     1
102
RTVSPropertyOp3
 70
     1
102
RTVSPropertyOp4
 70
     1
102
RTVSPropertyOp5
 70
     1
102
RTVSPropertyOp6
 70
     1
102
RTVSPropertyOp7
 70
     1
102
RTVSPropertyOp8
 70
     1
102
RTVSPropertyOp9
 70
     1
102
RTVSPropertyOp10
 70
     1
102
RTVSPropertyOp11
 70
     1
102
RTVSPropertyOp12
 70
     1
102
RTVSPropertyOp13
 70
     1
102
RTVSPropertyOp14
 70
     1
102
RTVSPropertyOp15
 70
     1
102
RTVSPropertyOp16
 70
     1
102
RTVSPropertyOp17
 70
     1
102
RTVSPropertyOp18
 70
     1
102
RTVSPropertyOp19
 70
     1
102
RTVSPropertyOp20
 70
     1
102
RTVSPropertyOp21
 70
     1
102
RTVSPropertyOp22
 70
     1
102
RTVSPropertyOp23
 70
     1
102
RTVSPropertyOp24
 70
     1
102
RTVSPropertyOp25
 70
     1
102
RTVSPropertyOp26
 70
     1
102
RTVSPropertyOp27
 70
     1
102
RTVSPropertyOp28
 70
     1
102
RTVSPropertyOp29
 70
     1
102
RTVSPropertyOp30
 70
     1
102
RTVSPropertyOp31
 70
     1
102
RTVSPropertyOp32
 70
     1
102
RTVSPropertyOp33
 70
     1
102
RTVSPropertyOp34
 70
     1
102
RTVSPropertyOp35
 70
     1
102
RTVSPropertyOp36
 70
     1
102
RTVSPropertyOp37
 70
     1
102
RTVSPropertyOp38
 70
     1
102
RTVSPropertyOp39
 70
     1
102
RTVSPropertyOp40
 70
     1
102
RTVSPropertyOp41
 70
     1
102
RTVSPropertyOp42
 70
     1
102
RTVSPropertyOp43
 70
     1
102
RTVSPropertyOp44
 70
     1
102
RTVSPropertyOp45
 70
     1
102
RTVSPropertyOp46
 70
     1
102
RTVSPropertyOp47
 70
     1
102
RTVSPropertyOp48
 70
     1
102
RTVSPropertyOp49
 70
     1
102
RTVSPropertyOp50
 70
     1
102
RTVSPropertyOp51
 70
     0
102
RTVSPropertyOp52
 70
     0
102
RTVSPropertyOp53
 70
     1
102
RTVSPropertyOp54
 70
     1
102
RTVSPropertyOp55
 70
     1
102
RTVSPropertyOp56
 70
     1
102
RTVSPropertyOp57
 70
     1
102
RTVSPost2010Prop28
280
     0
102
RTVSPost2010PropOp28
 70
     1
102
RTVSPost2010Prop29
280
     1
102
RTVSPost2010PropOp29
 70
     1
102
RTVSPost2010Prop30
280
     1
102
RTVSPost2010PropOp30
 70
     1
102
RTVSPost2010Prop31
280
     0
102
RTVSPost2010PropOp31
 70
     1
102
RTVSPost2010Prop32
280
     0
102
RTVSPost2010PropOp32
 70
     1
102
RTVSPost2010Prop33
280
     0
102
RTVSPost2010PropOp33
 70
     1
102
RTVSPost2010Prop34
280
     0
102
RTVSPost2010PropOp34
 70
     1
102
RTVSPost2010Prop35
280
     0
102
RTVSPost2010PropOp35
 70
     1
102
RTVSPost2010Prop36
280
     0
102
RTVSPost2010PropOp36
 70
     1
102
RTVSPost2010Prop37
 90
       50
102
RTVSPost2010PropOp37
 70
     1
102
RTVSPost2010Prop38
140
0.0
102
RTVSPost2010PropOp38
 70
     1
102
RTVSPost2010Prop39
140
1.0
102
RTVSPost2010PropOp39
 70
     1
102
RTVSPost2010Prop40
 90
        0
102
RTVSPost2010PropOp40
 70
     1
102
RTVSPost2010Prop41ColorIndex
 90
       18
102
RTVSPost2010Prop41ColorRGB
 90
        0
102
RTVSPost2010PropOp41
 70
     1
102
RTVSPost2010Prop42
 90
       50
102
RTVSPost2010PropOp42
 70
     1
102
RTVSPost2010Prop43
 90
        3
102
RTVSPost2010PropOp43
 70
     1
102
RTVSPost2010Prop44ColorIndex
 90
        5
102
RTVSPost2010Prop44ColorRGB
 90
      255
102
RTVSPost2010PropOp44
 70
     1
102
RTVSPost2010Prop45
280
     0
102
RTVSPost2010PropOp45
 70
     1
102
RTVSPost2010Prop46
 90
       50
102
RTVSPost2010PropOp46
 70
     1
102
RTVSPost2010Prop47
 90
       50
102
RTVSPost2010PropOp47
 70
     1
102
RTVSPost2010Prop48
 90
       50
102
RTVSPost2010PropOp48
 70
     1
102
RTVSPost2010Prop49
280
     0
102
RTVSPost2010PropOp49
 70
     1
102
RTVSPost2010Prop50
 90
       50
102
RTVSPost2010PropOp50
 70
     1
102
RTVSPost2010Prop51ColorIndex
 90
      256
102
RTVSPost2010Prop51ColorRGB
 90
-16777216
102
RTVSPost2010PropOp51
 70
     0
102
RTVSPost2010Prop52
140
1.0
102
RTVSPost2010PropOp52
 70
     0
102
RTVSPost2010Prop53
 90
        2
102
RTVSPost2010PropOp53
 70
     1
102
RTVSPost2010Prop54
  1
strokes_ogs.tif
102
RTVSPost2010PropOp54
 70
     1
102
RTVSPost2010Prop55
280
     0
102
RTVSPost2010PropOp55
 70
     1
102
RTVSPost2010Prop56
140
1.0
102
RTVSPost2010PropOp56
 70
     1
102
RTVSPost2010Prop57
140
1.0
102
RTVSPost2010PropOp57
 70
     1
  0
ENDSEC
  0
EOF
