  0
SECTION
  2
HEADER
  9
$ACADVER
  1
AC1021
  9
$ACADMAINTVER
 70
    25
  9
$DWGCODEPAGE
  3
ANSI_1256
  9
$INSBASE
 10
0.0
 20
0.0
 30
0.0
  9
$EXTMIN
 10
-47.22748
 20
-24.47711
 30
0.0
  9
$EXTMAX
 10
-39.72059
 20
-17.23626
 30
0.0
  9
$LIMMIN
 10
0.0
 20
0.0
  9
$LIMMAX
 10
12.0
 20
9.0
  9
$ORTHOMODE
 70
     0
  9
$REGENMODE
 70
     1
  9
$FILLMODE
 70
     1
  9
$QTEXTMODE
 70
     0
  9
$MIRRTEXT
 70
     1
  9
$LTSCALE
 40
1.0
  9
$ATTMODE
 70
     1
  9
$TEXTSIZE
 40
0.2
  9
$TRACEWID
 40
0.05
  9
$TEXTSTYLE
  7
Standard
  9
$CLAYER
  8
0
  9
$CELTYPE
  6
ByLayer
  9
$CECOLOR
 62
   256
  9
$CELTSCALE
 40
1.0
  9
$DISPSILH
 70
     0
  9
$DIMSCALE
 40
1.0
  9
$DIMASZ
 40
0.18
  9
$DIMEXO
 40
0.0625
  9
$DIMDLI
 40
0.38
  9
$DIMRND
 40
0.0
  9
$DIMDLE
 40
0.0
  9
$DIMEXE
 40
0.18
  9
$DIMTP
 40
0.0
  9
$DIMTM
 40
0.0
  9
$DIMTXT
 40
0.18
  9
$DIMCEN
 40
0.09
  9
$DIMTSZ
 40
0.0
  9
$DIMTOL
 70
     0
  9
$DIMLIM
 70
     0
  9
$DIMTIH
 70
     1
  9
$DIMTOH
 70
     1
  9
$DIMSE1
 70
     0
  9
$DIMSE2
 70
     0
  9
$DIMTAD
 70
     0
  9
$DIMZIN
 70
     0
  9
$DIMBLK
  1

  9
$DIMASO
 70
     1
  9
$DIMSHO
 70
     1
  9
$DIMPOST
  1

  9
$DIMAPOST
  1

  9
$DIMALT
 70
     0
  9
$DIMALTD
 70
     2
  9
$DIMALTF
 40
25.4
  9
$DIMLFAC
 40
1.0
  9
$DIMTOFL
 70
     0
  9
$DIMTVP
 40
0.0
  9
$DIMTIX
 70
     0
  9
$DIMSOXD
 70
     0
  9
$DIMSAH
 70
     0
  9
$DIMBLK1
  1

  9
$DIMBLK2
  1

  9
$DIMSTYLE
  2
Standard
  9
$DIMCLRD
 70
     0
  9
$DIMCLRE
 70
     0
  9
$DIMCLRT
 70
     0
  9
$DIMTFAC
 40
1.0
  9
$DIMGAP
 40
0.09
  9
$DIMJUST
 70
     0
  9
$DIMSD1
 70
     0
  9
$DIMSD2
 70
     0
  9
$DIMTOLJ
 70
     1
  9
$DIMTZIN
 70
     0
  9
$DIMALTZ
 70
     0
  9
$DIMALTTZ
 70
     0
  9
$DIMUPT
 70
     0
  9
$DIMDEC
 70
     4
  9
$DIMTDEC
 70
     4
  9
$DIMALTU
 70
     2
  9
$DIMALTTD
 70
     2
  9
$DIMTXSTY
  7
Standard
  9
$DIMAUNIT
 70
     0
  9
$DIMADEC
 70
     0
  9
$DIMALTRND
 40
0.0
  9
$DIMAZIN
 70
     0
  9
$DIMDSEP
 70
    46
  9
$DIMATFIT
 70
     3
  9
$DIMFRAC
 70
     0
  9
$DIMLDRBLK
  1

  9
$DIMLUNIT
 70
     2
  9
$DIMLWD
 70
    -2
  9
$DIMLWE
 70
    -2
  9
$DIMTMOVE
 70
     0
  9
$DIMFXL
 40
1.0
  9
$DIMFXLON
 70
     0
  9
$DIMJOGANG
 40
0.7853981633974483
  9
$DIMTFILL
 70
     0
  9
$DIMTFILLCLR
 70
     0
  9
$DIMARCSYM
 70
     0
  9
$DIMLTYPE
  6

  9
$DIMLTEX1
  6

  9
$DIMLTEX2
  6

  9
$LUNITS
 70
     2
  9
$LUPREC
 70
     4
  9
$SKETCHINC
 40
0.1
  9
$FILLETRAD
 40
0.5
  9
$AUNITS
 70
     0
  9
$AUPREC
 70
     0
  9
$MENU
  1
.
  9
$ELEVATION
 40
0.0
  9
$PELEVATION
 40
0.0
  9
$THICKNESS
 40
0.0
  9
$LIMCHECK
 70
     0
  9
$CHAMFERA
 40
0.0
  9
$CHAMFERB
 40
0.0
  9
$CHAMFERC
 40
0.0
  9
$CHAMFERD
 40
0.0
  9
$SKPOLY
 70
     0
  9
$TDCREATE
 40
2457728.94125897
  9
$TDUCREATE
 40
2457728.899592303
  9
$TDUPDATE
 40
2457728.941259016
  9
$TDUUPDATE
 40
2457728.899592349
  9
$TDINDWG
 40
0.0000000116
  9
$TDUSRTIMER
 40
0.0000000116
  9
$USRTIMER
 70
     1
  9
$ANGBASE
 50
0.0
  9
$ANGDIR
 70
     0
  9
$PDMODE
 70
     0
  9
$PDSIZE
 40
0.0
  9
$PLINEWID
 40
0.0
  9
$SPLFRAME
 70
     0
  9
$SPLINETYPE
 70
     6
  9
$SPLINESEGS
 70
     8
  9
$HANDSEED
  5
F7
  9
$SURFTAB1
 70
     6
  9
$SURFTAB2
 70
     6
  9
$SURFTYPE
 70
     6
  9
$SURFU
 70
     6
  9
$SURFV
 70
     6
  9
$UCSBASE
  2

  9
$UCSNAME
  2

  9
$UCSORG
 10
0.0
 20
0.0
 30
0.0
  9
$UCSXDIR
 10
1.0
 20
0.0
 30
0.0
  9
$UCSYDIR
 10
0.0
 20
1.0
 30
0.0
  9
$UCSORTHOREF
  2

  9
$UCSORTHOVIEW
 70
     0
  9
$UCSORGTOP
 10
0.0
 20
0.0
 30
0.0
  9
$UCSORGBOTTOM
 10
0.0
 20
0.0
 30
0.0
  9
$UCSORGLEFT
 10
0.0
 20
0.0
 30
0.0
  9
$UCSORGRIGHT
 10
0.0
 20
0.0
 30
0.0
  9
$UCSORGFRONT
 10
0.0
 20
0.0
 30
0.0
  9
$UCSORGBACK
 10
0.0
 20
0.0
 30
0.0
  9
$PUCSBASE
  2

  9
$PUCSNAME
  2

  9
$PUCSORG
 10
0.0
 20
0.0
 30
0.0
  9
$PUCSXDIR
 10
1.0
 20
0.0
 30
0.0
  9
$PUCSYDIR
 10
0.0
 20
1.0
 30
0.0
  9
$PUCSORTHOREF
  2

  9
$PUCSORTHOVIEW
 70
     0
  9
$PUCSORGTOP
 10
0.0
 20
0.0
 30
0.0
  9
$PUCSORGBOTTOM
 10
0.0
 20
0.0
 30
0.0
  9
$PUCSORGLEFT
 10
0.0
 20
0.0
 30
0.0
  9
$PUCSORGRIGHT
 10
0.0
 20
0.0
 30
0.0
  9
$PUCSORGFRONT
 10
0.0
 20
0.0
 30
0.0
  9
$PUCSORGBACK
 10
0.0
 20
0.0
 30
0.0
  9
$USERI1
 70
     0
  9
$USERI2
 70
     0
  9
$USERI3
 70
     0
  9
$USERI4
 70
     0
  9
$USERI5
 70
     0
  9
$USERR1
 40
0.0
  9
$USERR2
 40
0.0
  9
$USERR3
 40
0.0
  9
$USERR4
 40
0.0
  9
$USERR5
 40
0.0
  9
$WORLDVIEW
 70
     1
  9
$SHADEDGE
 70
     3
  9
$SHADEDIF
 70
    70
  9
$TILEMODE
 70
     1
  9
$MAXACTVP
 70
    64
  9
$PINSBASE
 10
0.0
 20
0.0
 30
0.0
  9
$PLIMCHECK
 70
     0
  9
$PEXTMIN
 10
1.000000000000000E+20
 20
1.000000000000000E+20
 30
1.000000000000000E+20
  9
$PEXTMAX
 10
-1.000000000000000E+20
 20
-1.000000000000000E+20
 30
-1.000000000000000E+20
  9
$PLIMMIN
 10
0.0
 20
0.0
  9
$PLIMMAX
 10
12.0
 20
9.0
  9
$UNITMODE
 70
     0
  9
$VISRETAIN
 70
     1
  9
$PLINEGEN
 70
     0
  9
$PSLTSCALE
 70
     1
  9
$TREEDEPTH
 70
  3020
  9
$CMLSTYLE
  2
Standard
  9
$CMLJUST
 70
     0
  9
$CMLSCALE
 40
1.0
  9
$PROXYGRAPHICS
 70
     1
  9
$MEASUREMENT
 70
     0
  9
$CELWEIGHT
370
    -1
  9
$ENDCAPS
280
     0
  9
$JOINSTYLE
280
     0
  9
$LWDISPLAY
290
     0
  9
$INSUNITS
 70
     5
  9
$HYPERLINKBASE
  1

  9
$STYLESHEET
  1

  9
$XEDIT
290
     1
  9
$CEPSNTYPE
380
     0
  9
$PSTYLEMODE
290
     1
  9
$FINGERPRINTGUID
  2
{2E890EAA-BB2E-47FA-8DA8-BED6C878B342}
  9
$VERSIONGUID
  2
{FAEB1C32-E019-11D5-929B-00C0DF256EC4}
  9
$EXTNAMES
290
     1
  9
$PSVPSCALE
 40
0.0
  9
$OLESTARTUP
290
     0
  9
$SORTENTS
280
   127
  9
$INDEXCTL
280
     0
  9
$HIDETEXT
280
     1
  9
$XCLIPFRAME
290
     0
  9
$HALOGAP
280
     0
  9
$OBSCOLOR
 70
   257
  9
$OBSLTYPE
280
     0
  9
$INTERSECTIONDISPLAY
280
     0
  9
$INTERSECTIONCOLOR
 70
   257
  9
$DIMASSOC
280
     2
  9
$PROJECTNAME
  1

  9
$CAMERADISPLAY
290
     0
  9
$LENSLENGTH
 40
50.0
  9
$CAMERAHEIGHT
 40
0.0
  9
$STEPSPERSEC
 40
2.0
  9
$STEPSIZE
 40
6.0
  9
$3DDWFPREC
 40
2.0
  9
$PSOLWIDTH
 40
0.25
  9
$PSOLHEIGHT
 40
4.0
  9
$LOFTANG1
 40
1.570796326794897
  9
$LOFTANG2
 40
1.570796326794897
  9
$LOFTMAG1
 40
0.0
  9
$LOFTMAG2
 40
0.0
  9
$LOFTPARAM
 70
     7
  9
$LOFTNORMALS
280
     1
  9
$LATITUDE
 40
37.795
  9
$LONGITUDE
 40
-122.394
  9
$NORTHDIRECTION
 40
0.0
  9
$TIMEZONE
 70
 -8000
  9
$LIGHTGLYPHDISPLAY
280
     1
  9
$TILEMODELIGHTSYNCH
280
     1
  9
$CMATERIAL
347
44
  9
$SOLIDHIST
280
     0
  9
$SHOWHIST
280
     1
  9
$DWFFRAME
280
     2
  9
$DGNFRAME
280
     2
  9
$REALWORLDSCALE
290
     1
  9
$INTERFERECOLOR
 62
   256
  9
$CSHADOW
280
     0
  9
$SHADOWPLANELOCATION
 40
0.0
  0
ENDSEC
  0
SECTION
  2
CLASSES
  0
CLASS
  1
ACDBDICTIONARYWDFLT
  2
AcDbDictionaryWithDefault
  3
ObjectDBX Classes
 90
        0
 91
        4
280
     0
281
     0
  0
CLASS
  1
VISUALSTYLE
  2
AcDbVisualStyle
  3
ObjectDBX Classes
 90
     4095
 91
        4
280
     0
281
     0
  0
CLASS
  1
MATERIAL
  2
AcDbMaterial
  3
ObjectDBX Classes
 90
     1153
 91
        4
280
     0
281
     0
  0
CLASS
  1
SCALE
  2
AcDbScale
  3
ObjectDBX Classes
 90
     1153
 91
        4
280
     0
281
     0
  0
CLASS
  1
TABLESTYLE
  2
AcDbTableStyle
  3
ObjectDBX Classes
 90
     4095
 91
        4
280
     0
281
     0
  0
CLASS
  1
MLEADERSTYLE
  2
AcDbMLeaderStyle
  3
ACDB_MLEADERSTYLE_CLASS
 90
     4095
 91
        4
280
     0
281
     0
  0
CLASS
  1
SUN
  2
AcDbSun
  3
SCENEOE
 90
     1153
 91
        4
280
     0
281
     0
  0
CLASS
  1
DICTIONARYVAR
  2
AcDbDictionaryVar
  3
ObjectDBX Classes
 90
        0
 91
        4
280
     0
281
     0
  0
CLASS
  1
CELLSTYLEMAP
  2
AcDbCellStyleMap
  3
ObjectDBX Classes
 90
     1152
 91
        4
280
     0
281
     0
  0
ENDSEC
  0
SECTION
  2
TABLES
  0
TABLE
  2
VPORT
  5
8
330
0
100
AcDbSymbolTable
 70
     1
  0
VPORT
  5
29
330
8
100
AcDbSymbolTableRecord
100
AcDbViewportTableRecord
  2
*Active
 70
     0
 10
0.0
 20
0.0
 11
1.0
 21
1.0
 12
10.42990654205607
 22
4.5
 13
0.0
 23
0.0
 14
0.5
 24
0.5
 15
0.5
 25
0.5
 16
0.0
 26
0.0
 36
1.0
 17
0.0
 27
0.0
 37
0.0
 40
9.0
 41
1.972972972850329
 42
50.0
 43
0.0
 44
0.0
 50
0.0
 51
0.0
 71
     0
 72
   100
 73
     1
 74
     3
 75
     0
 76
     0
 77
     0
 78
     0
281
     0
 65
     1
110
0.0
120
0.0
130
0.0
111
1.0
121
0.0
131
0.0
112
0.0
122
1.0
132
0.0
 79
     0
146
0.0
 60
     3
 61
     5
292
     1
282
     1
141
0.0
142
0.0
 63
   250
361
6D
  0
ENDTAB
  0
TABLE
  2
LTYPE
  5
5
330
0
100
AcDbSymbolTable
 70
     1
  0
LTYPE
  5
14
330
5
100
AcDbSymbolTableRecord
100
AcDbLinetypeTableRecord
  2
ByBlock
 70
     0
  3

 72
    65
 73
     0
 40
0.0
  0
LTYPE
  5
15
330
5
100
AcDbSymbolTableRecord
100
AcDbLinetypeTableRecord
  2
ByLayer
 70
     0
  3

 72
    65
 73
     0
 40
0.0
  0
LTYPE
  5
16
330
5
100
AcDbSymbolTableRecord
100
AcDbLinetypeTableRecord
  2
Continuous
 70
     0
  3
Solid line
 72
    65
 73
     0
 40
0.0
  0
ENDTAB
  0
TABLE
  2
LAYER
  5
2
330
0
100
AcDbSymbolTable
 70
     2
  0
LAYER
  5
10
330
2
100
AcDbSymbolTableRecord
100
AcDbLayerTableRecord
  2
0
 70
     0
 62
     7
  6
Continuous
370
    -3
390
F
347
46
  0
LAYER
  5
6F
330
2
100
AcDbSymbolTableRecord
100
AcDbLayerTableRecord
  2
Layer 1
 70
     0
 62
     7
  6
Continuous
370
    -3
390
F
347
46
  0
ENDTAB
  0
TABLE
  2
STYLE
  5
3
330
0
100
AcDbSymbolTable
 70
     1
  0
STYLE
  5
11
330
3
100
AcDbSymbolTableRecord
100
AcDbTextStyleTableRecord
  2
Standard
 70
     0
 40
0.0
 41
1.0
 50
0.0
 71
     0
 42
0.2
  3
txt
  4

  0
ENDTAB
  0
TABLE
  2
VIEW
  5
6
330
0
100
AcDbSymbolTable
 70
     0
  0
ENDTAB
  0
TABLE
  2
UCS
  5
7
330
0
100
AcDbSymbolTable
 70
     0
  0
ENDTAB
  0
TABLE
  2
APPID
  5
9
330
0
100
AcDbSymbolTable
 70
     3
  0
APPID
  5
12
330
9
100
AcDbSymbolTableRecord
100
AcDbRegAppTableRecord
  2
ACAD
 70
     0
  0
APPID
  5
6E
330
9
100
AcDbSymbolTableRecord
100
AcDbRegAppTableRecord
  2
ODA
 70
     0
  0
APPID
  5
EF
330
9
100
AcDbSymbolTableRecord
100
AcDbRegAppTableRecord
  2
ACAD_MLEADERVER
 70
     0
  0
ENDTAB
  0
TABLE
  2
DIMSTYLE
  5
A
330
0
100
AcDbSymbolTable
 70
     1
100
AcDbDimStyleTable
  0
DIMSTYLE
105
27
330
A
100
AcDbSymbolTableRecord
100
AcDbDimStyleTableRecord
  2
Standard
 70
     0
178
     0
340
11
  0
ENDTAB
  0
TABLE
  2
BLOCK_RECORD
  5
1
330
0
100
AcDbSymbolTable
 70
     1
  0
BLOCK_RECORD
  5
1F
330
1
100
AcDbSymbolTableRecord
100
AcDbBlockTableRecord
  2
*Model_Space
340
22
 70
     0
280
     1
281
     0
  0
BLOCK_RECORD
  5
1B
330
1
100
AcDbSymbolTableRecord
100
AcDbBlockTableRecord
  2
*Paper_Space
340
1E
 70
     0
280
     1
281
     0
  0
BLOCK_RECORD
  5
23
330
1
100
AcDbSymbolTableRecord
100
AcDbBlockTableRecord
  2
*Paper_Space0
340
26
 70
     0
280
     1
281
     0
  0
ENDTAB
  0
ENDSEC
  0
SECTION
  2
BLOCKS
  0
BLOCK
  5
20
330
1F
100
AcDbEntity
  8
0
100
AcDbBlockBegin
  2
*Model_Space
 70
     0
 10
0.0
 20
0.0
 30
0.0
  3
*Model_Space
  1
*Model_Space
  0
ENDBLK
  5
21
330
1F
100
AcDbEntity
  8
0
100
AcDbBlockEnd
  0
BLOCK
  5
1C
330
1B
100
AcDbEntity
 67
     1
  8
0
100
AcDbBlockBegin
  2
*Paper_Space
 70
     0
 10
0.0
 20
0.0
 30
0.0
  3
*Paper_Space
  1
*Paper_Space
  0
ENDBLK
  5
1D
330
1B
100
AcDbEntity
 67
     1
  8
0
100
AcDbBlockEnd
  0
BLOCK
  5
24
330
23
100
AcDbEntity
  8
0
100
AcDbBlockBegin
  2
*Paper_Space0
 70
     0
 10
0.0
 20
0.0
 30
0.0
  3
*Paper_Space0
  1
*Paper_Space0
  0
ENDBLK
  5
25
330
23
100
AcDbEntity
  8
0
100
AcDbBlockEnd
  0
ENDSEC
  0
SECTION
  2
ENTITIES
  0
SPLINE
  5
70
330
1F
100
AcDbEntity
  8
Layer 1
370
     9
100
AcDbSpline
210
0.0
220
0.0
230
1.0
 70
    11
 71
     3
 72
   508
 73
   504
 74
     0
 42
0.000000001
 43
0.0000000001
 40
0.0
 40
0.0
 40
0.0
 40
0.0
 40
0.0078740157480315
 40
0.0078740157480315
 40
0.0078740157480315
 40
0.0078740157480315
 40
0.015748031496063
 40
0.015748031496063
 40
0.015748031496063
 40
0.015748031496063
 40
0.0236220472440945
 40
0.0236220472440945
 40
0.0236220472440945
 40
0.0236220472440945
 40
0.031496062992126
 40
0.031496062992126
 40
0.031496062992126
 40
0.031496062992126
 40
0.0393700787401575
 40
0.0393700787401575
 40
0.0393700787401575
 40
0.0393700787401575
 40
0.047244094488189
 40
0.047244094488189
 40
0.047244094488189
 40
0.047244094488189
 40
0.0551181102362205
 40
0.0551181102362205
 40
0.0551181102362205
 40
0.0551181102362205
 40
0.062992125984252
 40
0.062992125984252
 40
0.062992125984252
 40
0.062992125984252
 40
0.0708661417322835
 40
0.0708661417322835
 40
0.0708661417322835
 40
0.0708661417322835
 40
0.078740157480315
 40
0.078740157480315
 40
0.078740157480315
 40
0.078740157480315
 40
0.0866141732283465
 40
0.0866141732283465
 40
0.0866141732283465
 40
0.0866141732283465
 40
0.094488188976378
 40
0.094488188976378
 40
0.094488188976378
 40
0.094488188976378
 40
0.1023622047244094
 40
0.1023622047244094
 40
0.1023622047244094
 40
0.1023622047244094
 40
0.1102362204724409
 40
0.1102362204724409
 40
0.1102362204724409
 40
0.1102362204724409
 40
0.1181102362204724
 40
0.1181102362204724
 40
0.1181102362204724
 40
0.1181102362204724
 40
0.1259842519685039
 40
0.1259842519685039
 40
0.1259842519685039
 40
0.1259842519685039
 40
0.1338582677165354
 40
0.1338582677165354
 40
0.1338582677165354
 40
0.1338582677165354
 40
0.1417322834645669
 40
0.1417322834645669
 40
0.1417322834645669
 40
0.1417322834645669
 40
0.1496062992125984
 40
0.1496062992125984
 40
0.1496062992125984
 40
0.1496062992125984
 40
0.1574803149606299
 40
0.1574803149606299
 40
0.1574803149606299
 40
0.1574803149606299
 40
0.1653543307086614
 40
0.1653543307086614
 40
0.1653543307086614
 40
0.1653543307086614
 40
0.1732283464566929
 40
0.1732283464566929
 40
0.1732283464566929
 40
0.1732283464566929
 40
0.1811023622047244
 40
0.1811023622047244
 40
0.1811023622047244
 40
0.1811023622047244
 40
0.1889763779527559
 40
0.1889763779527559
 40
0.1889763779527559
 40
0.1889763779527559
 40
0.1968503937007874
 40
0.1968503937007874
 40
0.1968503937007874
 40
0.1968503937007874
 40
0.2047244094488189
 40
0.2047244094488189
 40
0.2047244094488189
 40
0.2047244094488189
 40
0.2125984251968504
 40
0.2125984251968504
 40
0.2125984251968504
 40
0.2125984251968504
 40
0.2204724409448819
 40
0.2204724409448819
 40
0.2204724409448819
 40
0.2204724409448819
 40
0.2283464566929134
 40
0.2283464566929134
 40
0.2283464566929134
 40
0.2283464566929134
 40
0.2362204724409449
 40
0.2362204724409449
 40
0.2362204724409449
 40
0.2362204724409449
 40
0.2440944881889764
 40
0.2440944881889764
 40
0.2440944881889764
 40
0.2440944881889764
 40
0.2519685039370079
 40
0.2519685039370079
 40
0.2519685039370079
 40
0.2519685039370079
 40
0.2598425196850394
 40
0.2598425196850394
 40
0.2598425196850394
 40
0.2598425196850394
 40
0.2677165354330709
 40
0.2677165354330709
 40
0.2677165354330709
 40
0.2677165354330709
 40
0.2755905511811024
 40
0.2755905511811024
 40
0.2755905511811024
 40
0.2755905511811024
 40
0.2834645669291339
 40
0.2834645669291339
 40
0.2834645669291339
 40
0.2834645669291339
 40
0.2913385826771653
 40
0.2913385826771653
 40
0.2913385826771653
 40
0.2913385826771653
 40
0.2992125984251969
 40
0.2992125984251969
 40
0.2992125984251969
 40
0.2992125984251969
 40
0.3070866141732284
 40
0.3070866141732284
 40
0.3070866141732284
 40
0.3070866141732284
 40
0.3149606299212598
 40
0.3149606299212598
 40
0.3149606299212598
 40
0.3149606299212598
 40
0.3228346456692913
 40
0.3228346456692913
 40
0.3228346456692913
 40
0.3228346456692913
 40
0.3307086614173229
 40
0.3307086614173229
 40
0.3307086614173229
 40
0.3307086614173229
 40
0.3385826771653543
 40
0.3385826771653543
 40
0.3385826771653543
 40
0.3385826771653543
 40
0.3464566929133858
 40
0.3464566929133858
 40
0.3464566929133858
 40
0.3464566929133858
 40
0.3543307086614173
 40
0.3543307086614173
 40
0.3543307086614173
 40
0.3543307086614173
 40
0.3622047244094488
 40
0.3622047244094488
 40
0.3622047244094488
 40
0.3622047244094488
 40
0.3700787401574803
 40
0.3700787401574803
 40
0.3700787401574803
 40
0.3700787401574803
 40
0.3779527559055118
 40
0.3779527559055118
 40
0.3779527559055118
 40
0.3779527559055118
 40
0.3858267716535433
 40
0.3858267716535433
 40
0.3858267716535433
 40
0.3858267716535433
 40
0.3937007874015748
 40
0.3937007874015748
 40
0.3937007874015748
 40
0.3937007874015748
 40
0.4015748031496063
 40
0.4015748031496063
 40
0.4015748031496063
 40
0.4015748031496063
 40
0.4094488188976378
 40
0.4094488188976378
 40
0.4094488188976378
 40
0.4094488188976378
 40
0.4173228346456693
 40
0.4173228346456693
 40
0.4173228346456693
 40
0.4173228346456693
 40
0.4251968503937008
 40
0.4251968503937008
 40
0.4251968503937008
 40
0.4251968503937008
 40
0.4330708661417323
 40
0.4330708661417323
 40
0.4330708661417323
 40
0.4330708661417323
 40
0.4409448818897638
 40
0.4409448818897638
 40
0.4409448818897638
 40
0.4409448818897638
 40
0.4488188976377953
 40
0.4488188976377953
 40
0.4488188976377953
 40
0.4488188976377953
 40
0.4566929133858268
 40
0.4566929133858268
 40
0.4566929133858268
 40
0.4566929133858268
 40
0.4645669291338583
 40
0.4645669291338583
 40
0.4645669291338583
 40
0.4645669291338583
 40
0.4724409448818898
 40
0.4724409448818898
 40
0.4724409448818898
 40
0.4724409448818898
 40
0.4803149606299212
 40
0.4803149606299212
 40
0.4803149606299212
 40
0.4803149606299212
 40
0.4881889763779528
 40
0.4881889763779528
 40
0.4881889763779528
 40
0.4881889763779528
 40
0.4960629921259843
 40
0.4960629921259843
 40
0.4960629921259843
 40
0.4960629921259843
 40
0.5039370078740157
 40
0.5039370078740157
 40
0.5039370078740157
 40
0.5039370078740157
 40
0.5118110236220472
 40
0.5118110236220472
 40
0.5118110236220472
 40
0.5118110236220472
 40
0.5196850393700787
 40
0.5196850393700787
 40
0.5196850393700787
 40
0.5196850393700787
 40
0.5275590551181102
 40
0.5275590551181102
 40
0.5275590551181102
 40
0.5275590551181102
 40
0.5354330708661418
 40
0.5354330708661418
 40
0.5354330708661418
 40
0.5354330708661418
 40
0.5433070866141733
 40
0.5433070866141733
 40
0.5433070866141733
 40
0.5433070866141733
 40
0.5511811023622047
 40
0.5511811023622047
 40
0.5511811023622047
 40
0.5511811023622047
 40
0.5590551181102362
 40
0.5590551181102362
 40
0.5590551181102362
 40
0.5590551181102362
 40
0.5669291338582677
 40
0.5669291338582677
 40
0.5669291338582677
 40
0.5669291338582677
 40
0.5748031496062992
 40
0.5748031496062992
 40
0.5748031496062992
 40
0.5748031496062992
 40
0.5826771653543307
 40
0.5826771653543307
 40
0.5826771653543307
 40
0.5826771653543307
 40
0.5905511811023622
 40
0.5905511811023622
 40
0.5905511811023622
 40
0.5905511811023622
 40
0.5984251968503937
 40
0.5984251968503937
 40
0.5984251968503937
 40
0.5984251968503937
 40
0.6062992125984252
 40
0.6062992125984252
 40
0.6062992125984252
 40
0.6062992125984252
 40
0.6141732283464567
 40
0.6141732283464567
 40
0.6141732283464567
 40
0.6141732283464567
 40
0.6220472440944882
 40
0.6220472440944882
 40
0.6220472440944882
 40
0.6220472440944882
 40
0.6299212598425197
 40
0.6299212598425197
 40
0.6299212598425197
 40
0.6299212598425197
 40
0.6377952755905512
 40
0.6377952755905512
 40
0.6377952755905512
 40
0.6377952755905512
 40
0.6456692913385826
 40
0.6456692913385826
 40
0.6456692913385826
 40
0.6456692913385826
 40
0.6535433070866141
 40
0.6535433070866141
 40
0.6535433070866141
 40
0.6535433070866141
 40
0.6614173228346457
 40
0.6614173228346457
 40
0.6614173228346457
 40
0.6614173228346457
 40
0.6692913385826772
 40
0.6692913385826772
 40
0.6692913385826772
 40
0.6692913385826772
 40
0.6771653543307087
 40
0.6771653543307087
 40
0.6771653543307087
 40
0.6771653543307087
 40
0.6850393700787402
 40
0.6850393700787402
 40
0.6850393700787402
 40
0.6850393700787402
 40
0.6929133858267716
 40
0.6929133858267716
 40
0.6929133858267716
 40
0.6929133858267716
 40
0.7007874015748031
 40
0.7007874015748031
 40
0.7007874015748031
 40
0.7007874015748031
 40
0.7086614173228346
 40
0.7086614173228346
 40
0.7086614173228346
 40
0.7086614173228346
 40
0.7165354330708661
 40
0.7165354330708661
 40
0.7165354330708661
 40
0.7165354330708661
 40
0.7244094488188977
 40
0.7244094488188977
 40
0.7244094488188977
 40
0.7244094488188977
 40
0.7322834645669292
 40
0.7322834645669292
 40
0.7322834645669292
 40
0.7322834645669292
 40
0.7401574803149606
 40
0.7401574803149606
 40
0.7401574803149606
 40
0.7401574803149606
 40
0.7480314960629921
 40
0.7480314960629921
 40
0.7480314960629921
 40
0.7480314960629921
 40
0.7559055118110236
 40
0.7559055118110236
 40
0.7559055118110236
 40
0.7559055118110236
 40
0.7637795275590551
 40
0.7637795275590551
 40
0.7637795275590551
 40
0.7637795275590551
 40
0.7716535433070866
 40
0.7716535433070866
 40
0.7716535433070866
 40
0.7716535433070866
 40
0.7795275590551181
 40
0.7795275590551181
 40
0.7795275590551181
 40
0.7795275590551181
 40
0.7874015748031497
 40
0.7874015748031497
 40
0.7874015748031497
 40
0.7874015748031497
 40
0.7952755905511811
 40
0.7952755905511811
 40
0.7952755905511811
 40
0.7952755905511811
 40
0.8031496062992126
 40
0.8031496062992126
 40
0.8031496062992126
 40
0.8031496062992126
 40
0.8110236220472441
 40
0.8110236220472441
 40
0.8110236220472441
 40
0.8110236220472441
 40
0.8188976377952756
 40
0.8188976377952756
 40
0.8188976377952756
 40
0.8188976377952756
 40
0.8267716535433071
 40
0.8267716535433071
 40
0.8267716535433071
 40
0.8267716535433071
 40
0.8346456692913385
 40
0.8346456692913385
 40
0.8346456692913385
 40
0.8346456692913385
 40
0.84251968503937
 40
0.84251968503937
 40
0.84251968503937
 40
0.84251968503937
 40
0.8503937007874016
 40
0.8503937007874016
 40
0.8503937007874016
 40
0.8503937007874016
 40
0.8582677165354331
 40
0.8582677165354331
 40
0.8582677165354331
 40
0.8582677165354331
 40
0.8661417322834646
 40
0.8661417322834646
 40
0.8661417322834646
 40
0.8661417322834646
 40
0.8740157480314961
 40
0.8740157480314961
 40
0.8740157480314961
 40
0.8740157480314961
 40
0.8818897637795275
 40
0.8818897637795275
 40
0.8818897637795275
 40
0.8818897637795275
 40
0.889763779527559
 40
0.889763779527559
 40
0.889763779527559
 40
0.889763779527559
 40
0.8976377952755905
 40
0.8976377952755905
 40
0.8976377952755905
 40
0.8976377952755905
 40
0.905511811023622
 40
0.905511811023622
 40
0.905511811023622
 40
0.905511811023622
 40
0.9133858267716536
 40
0.9133858267716536
 40
0.9133858267716536
 40
0.9133858267716536
 40
0.9212598425196851
 40
0.9212598425196851
 40
0.9212598425196851
 40
0.9212598425196851
 40
0.9291338582677166
 40
0.9291338582677166
 40
0.9291338582677166
 40
0.9291338582677166
 40
0.937007874015748
 40
0.937007874015748
 40
0.937007874015748
 40
0.937007874015748
 40
0.9448818897637795
 40
0.9448818897637795
 40
0.9448818897637795
 40
0.9448818897637795
 40
0.952755905511811
 40
0.952755905511811
 40
0.952755905511811
 40
0.952755905511811
 40
0.9606299212598425
 40
0.9606299212598425
 40
0.9606299212598425
 40
0.9606299212598425
 40
0.968503937007874
 40
0.968503937007874
 40
0.968503937007874
 40
0.968503937007874
 40
0.9763779527559056
 40
0.9763779527559056
 40
0.9763779527559056
 40
0.9763779527559056
 40
0.984251968503937
 40
0.984251968503937
 40
0.984251968503937
 40
0.984251968503937
 40
1.0
 40
1.0
 40
1.0
 40
1.0
 10
-40.74369
 20
-22.85491
 30
0.0
 10
-40.6978
 20
-22.96126
 30
0.0
 10
-40.69367
 20
-23.09844
 30
0.0
 10
-40.6945
 20
-23.20538
 30
0.0
 10
-40.6945
 20
-23.20538
 30
0.0
 10
-40.6947
 20
-23.22591
 30
0.0
 10
-40.71196
 20
-23.24469
 30
0.0
 10
-40.73311
 20
-23.24396
 30
0.0
 10
-40.73311
 20
-23.24396
 30
0.0
 10
-40.86582
 20
-23.23973
 30
0.0
 10
-41.005
 20
-23.242
 30
0.0
 10
-41.13757
 20
-23.25891
 30
0.0
 10
-41.13757
 20
-23.25891
 30
0.0
 10
-41.12248
 20
-23.36812
 30
0.0
 10
-41.11759
 20
-23.47833
 30
0.0
 10
-41.11673
 20
-23.58864
 30
0.0
 10
-41.11673
 20
-23.58864
 30
0.0
 10
-41.11662
 20
-23.61
 30
0.0
 10
-41.13505
 20
-23.62919
 30
0.0
 10
-41.15672
 20
-23.62857
 30
0.0
 10
-41.15672
 20
-23.62857
 30
0.0
 10
-41.2731
 20
-23.62551
 30
0.0
 10
-41.39275
 20
-23.58768
 30
0.0
 10
-41.49731
 20
-23.53828
 30
0.0
 10
-41.49731
 20
-23.53828
 30
0.0
 10
-41.56073
 20
-23.50837
 30
0.0
 10
-41.65922
 20
-23.463
 30
0.0
 10
-41.68296
 20
-23.39065
 30
0.0
 10
-41.68296
 20
-23.39065
 30
0.0
 10
-41.68313
 20
-23.39196
 30
0.0
 10
-41.6831
 20
-23.39331
 30
0.0
 10
-41.68337
 20
-23.39465
 30
0.0
 10
-41.68337
 20
-23.39465
 30
0.0
 10
-41.60421
 20
-23.56132
 30
0.0
 10
-41.54547
 20
-23.74664
 30
0.0
 10
-41.56235
 20
-23.93147
 30
0.0
 10
-41.56235
 20
-23.93147
 30
0.0
 10
-41.56449
 20
-23.95458
 30
0.0
 10
-41.58533
 20
-23.9768
 30
0.0
 10
-41.61061
 20
-23.96829
 30
0.0
 10
-41.61061
 20
-23.96829
 30
0.0
 10
-41.85794
 20
-23.88437
 30
0.0
 10
-42.05986
 20
-23.69854
 30
0.0
 10
-42.30787
 20
-23.62058
 30
0.0
 10
-42.30787
 20
-23.62058
 30
0.0
 10
-42.30773
 20
-23.62334
 30
0.0
 10
-42.30752
 20
-23.62613
 30
0.0
 10
-42.30745
 20
-23.62895
 30
0.0
 10
-42.30745
 20
-23.62895
 30
0.0
 10
-42.30697
 20
-23.65545
 30
0.0
 10
-42.33285
 20
-23.67257
 30
0.0
 10
-42.35727
 20
-23.66692
 30
0.0
 10
-42.35727
 20
-23.66692
 30
0.0
 10
-42.3901
 20
-23.65937
 30
0.0
 10
-42.42211
 20
-23.64904
 30
0.0
 10
-42.45332
 20
-23.63677
 30
0.0
 10
-42.45332
 20
-23.63677
 30
0.0
 10
-42.40929
 20
-23.9059
 30
0.0
 10
-42.52784
 20
-24.18396
 30
0.0
 10
-42.5729
 20
-24.44578
 30
0.0
 10
-42.5729
 20
-24.44578
 30
0.0
 10
-42.57748
 20
-24.4719
 30
0.0
 10
-42.61865
 20
-24.48358
 30
0.0
 10
-42.63539
 20
-24.46225
 30
0.0
 10
-42.63539
 20
-24.46225
 30
0.0
 10
-42.76982
 20
-24.29144
 30
0.0
 10
-42.99726
 20
-24.11774
 30
0.0
 10
-43.04891
 20
-23.89478
 30
0.0
 10
-43.04891
 20
-23.89478
 30
0.0
 10
-43.06531
 20
-23.92726
 30
0.0
 10
-43.08264
 20
-23.9592
 30
0.0
 10
-43.10117
 20
-23.99069
 30
0.0
 10
-43.10117
 20
-23.99069
 30
0.0
 10
-43.11798
 20
-24.01918
 30
0.0
 10
-43.15998
 20
-24.01225
 30
0.0
 10
-43.16949
 20
-23.9818
 30
0.0
 10
-43.16949
 20
-23.9818
 30
0.0
 10
-43.17107
 20
-23.9766
 30
0.0
 10
-43.17269
 20
-23.97143
 30
0.0
 10
-43.17438
 20
-23.96619
 30
0.0
 10
-43.17438
 20
-23.96619
 30
0.0
 10
-43.25234
 20
-24.11919
 30
0.0
 10
-43.41829
 20
-24.24611
 30
0.0
 10
-43.56822
 20
-24.30705
 30
0.0
 10
-43.56822
 20
-24.30705
 30
0.0
 10
-43.58748
 20
-24.3149
 30
0.0
 10
-43.61332
 20
-24.29496
 30
0.0
 10
-43.61108
 20
-24.27439
 30
0.0
 10
-43.61108
 20
-24.27439
 30
0.0
 10
-43.59916
 20
-24.16473
 30
0.0
 10
-43.58193
 20
-24.05545
 30
0.0
 10
-43.57105
 20
-23.94556
 30
0.0
 10
-43.57105
 20
-23.94556
 30
0.0
 10
-43.63085
 20
-24.01057
 30
0.0
 10
-43.7176
 20
-24.06751
 30
0.0
 10
-43.77345
 20
-24.1052
 30
0.0
 10
-43.77345
 20
-24.1052
 30
0.0
 10
-43.87869
 20
-24.17627
 30
0.0
 10
-44.00954
 20
-24.25665
 30
0.0
 10
-44.142
 20
-24.24645
 30
0.0
 10
-44.142
 20
-24.24645
 30
0.0
 10
-44.16491
 20
-24.24469
 30
0.0
 10
-44.17652
 20
-24.22716
 30
0.0
 10
-44.17339
 20
-24.20525
 30
0.0
 10
-44.17339
 20
-24.20525
 30
0.0
 10
-44.1534
 20
-24.067
 30
0.0
 10
-44.15726
 20
-23.92688
 30
0.0
 10
-44.14782
 20
-23.78798
 30
0.0
 10
-44.14782
 20
-23.78798
 30
0.0
 10
-44.22679
 20
-23.85598
 30
0.0
 10
-44.31157
 20
-23.91603
 30
0.0
 10
-44.40693
 20
-23.9614
 30
0.0
 10
-44.40693
 20
-23.9614
 30
0.0
 10
-44.43001
 20
-23.97239
 30
0.0
 10
-44.45898
 20
-23.95944
 30
0.0
 10
-44.45898
 20
-23.93147
 30
0.0
 10
-44.45898
 20
-23.93147
 30
0.0
 10
-44.45898
 20
-23.87424
 30
0.0
 10
-44.46167
 20
-23.81592
 30
0.0
 10
-44.4645
 20
-23.75718
 30
0.0
 10
-44.4645
 20
-23.75718
 30
0.0
 10
-44.55713
 20
-23.88189
 30
0.0
 10
-44.66553
 20
-23.99761
 30
0.0
 10
-44.76645
 20
-24.11388
 30
0.0
 10
-44.76645
 20
-24.11388
 30
0.0
 10
-44.78137
 20
-24.131
 30
0.0
 10
-44.8106
 20
-24.12132
 30
0.0
 10
-44.81608
 20
-24.10072
 30
0.0
 10
-44.81608
 20
-24.10072
 30
0.0
 10
-44.84962
 20
-23.97529
 30
0.0
 10
-44.85856
 20
-23.84624
 30
0.0
 10
-44.85282
 20
-23.71732
 30
0.0
 10
-44.85282
 20
-23.71732
 30
0.0
 10
-45.01286
 20
-23.84062
 30
0.0
 10
-45.19902
 20
-23.92451
 30
0.0
 10
-45.3757
 20
-24.02087
 30
0.0
 10
-45.3757
 20
-24.02087
 30
0.0
 10
-45.39775
 20
-24.03292
 30
0.0
 10
-45.42595
 20
-24.01797
 30
0.0
 10
-45.42601
 20
-23.992
 30
0.0
 10
-45.42601
 20
-23.992
 30
0.0
 10
-45.42605
 20
-23.83576
 30
0.0
 10
-45.43245
 20
-23.67797
 30
0.0
 10
-45.41661
 20
-23.52226
 30
0.0
 10
-45.41661
 20
-23.52226
 30
0.0
 10
-45.41537
 20
-23.51003
 30
0.0
 10
-45.41334
 20
-23.47471
 30
0.0
 10
-45.40698
 20
-23.43803
 30
0.0
 10
-45.40698
 20
-23.43803
 30
0.0
 10
-45.59369
 20
-23.50672
 30
0.0
 10
-45.79521
 20
-23.51058
 30
0.0
 10
-45.97621
 20
-23.41928
 30
0.0
 10
-45.97621
 20
-23.41928
 30
0.0
 10
-45.99132
 20
-23.41157
 30
0.0
 10
-45.99728
 20
-23.39255
 30
0.0
 10
-45.9934
 20
-23.37691
 30
0.0
 10
-45.9934
 20
-23.37691
 30
0.0
 10
-45.95234
 20
-23.21089
 30
0.0
 10
-45.87582
 20
-23.0509
 30
0.0
 10
-45.79488
 20
-22.89801
 30
0.0
 10
-45.79488
 20
-22.89801
 30
0.0
 10
-45.867
 20
-22.92612
 30
0.0
 10
-45.94424
 20
-22.94324
 30
0.0
 10
-46.01356
 20
-22.95419
 30
0.0
 10
-46.01356
 20
-22.95419
 30
0.0
 10
-46.18214
 20
-22.98076
 30
0.0
 10
-46.3518
 20
-22.98424
 30
0.0
 10
-46.52209
 20
-22.98355
 30
0.0
 10
-46.52209
 20
-22.98355
 30
0.0
 10
-46.55187
 20
-22.98348
 30
0.0
 10
-46.57364
 20
-22.9491
 30
0.0
 10
-46.55704
 20
-22.92271
 30
0.0
 10
-46.55704
 20
-22.92271
 30
0.0
 10
-46.48118
 20
-22.80299
 30
0.0
 10
-46.40194
 20
-22.68548
 30
0.0
 10
-46.32398
 20
-22.56714
 30
0.0
 10
-46.32398
 20
-22.56714
 30
0.0
 10
-46.28873
 20
-22.51357
 30
0.0
 10
-46.25713
 20
-22.45941
 30
0.0
 10
-46.21604
 20
-22.41273
 30
0.0
 10
-46.21604
 20
-22.41273
 30
0.0
 10
-46.34878
 20
-22.38975
 30
0.0
 10
-46.4793
 20
-22.35447
 30
0.0
 10
-46.61187
 20
-22.3305
 30
0.0
 10
-46.61187
 20
-22.3305
 30
0.0
 10
-46.63218
 20
-22.32681
 30
0.0
 10
-46.64471
 20
-22.29742
 30
0.0
 10
-46.63221
 20
-22.28051
 30
0.0
 10
-46.63221
 20
-22.28051
 30
0.0
 10
-46.61326
 20
-22.25488
 30
0.0
 10
-46.59283
 20
-22.23041
 30
0.0
 10
-46.57161
 20
-22.20671
 30
0.0
 10
-46.57161
 20
-22.20671
 30
0.0
 10
-46.65369
 20
-22.23028
 30
0.0
 10
-46.74552
 20
-22.23634
 30
0.0
 10
-46.81964
 20
-22.23128
 30
0.0
 10
-46.81964
 20
-22.23128
 30
0.0
 10
-46.95391
 20
-22.22211
 30
0.0
 10
-47.0795
 20
-22.18188
 30
0.0
 10
-47.17321
 20
-22.08141
 30
0.0
 10
-47.17321
 20
-22.08141
 30
0.0
 10
-47.18648
 20
-22.06725
 30
0.0
 10
-47.18802
 20
-22.04387
 30
0.0
 10
-47.17321
 20
-22.02984
 30
0.0
 10
-47.17321
 20
-22.02984
 30
0.0
 10
-47.06669
 20
-21.92904
 30
0.0
 10
-46.94962
 20
-21.84549
 30
0.0
 10
-46.8584
 20
-21.73177
 30
0.0
 10
-46.8584
 20
-21.73177
 30
0.0
 10
-46.98525
 20
-21.70173
 30
0.0
 10
-47.1152
 20
-21.65874
 30
0.0
 10
-47.21317
 20
-21.57678
 30
0.0
 10
-47.21317
 20
-21.57678
 30
0.0
 10
-47.22875
 20
-21.56382
 30
0.0
 10
-47.22549
 20
-21.53943
 30
0.0
 10
-47.21317
 20
-21.52593
 30
0.0
 10
-47.21317
 20
-21.52593
 30
0.0
 10
-47.08205
 20
-21.38234
 30
0.0
 10
-46.92344
 20
-21.26124
 30
0.0
 10
-46.75973
 20
-21.15558
 30
0.0
 10
-46.75973
 20
-21.15558
 30
0.0
 10
-46.81726
 20
-21.13391
 30
0.0
 10
-46.87556
 20
-21.11524
 30
0.0
 10
-46.93524
 20
-21.10259
 30
0.0
 10
-46.93524
 20
-21.10259
 30
0.0
 10
-46.96383
 20
-21.09643
 30
0.0
 10
-46.96835
 20
-21.06074
 30
0.0
 10
-46.95135
 20
-21.04148
 30
0.0
 10
-46.95135
 20
-21.04148
 30
0.0
 10
-46.84234
 20
-20.91735
 30
0.0
 10
-46.70067
 20
-20.82974
 30
0.0
 10
-46.55085
 20
-20.7627
 30
0.0
 10
-46.55085
 20
-20.7627
 30
0.0
 10
-46.61299
 20
-20.72787
 30
0.0
 10
-46.70254
 20
-20.64881
 30
0.0
 10
-46.71067
 20
-20.64068
 30
0.0
 10
-46.71067
 20
-20.64068
 30
0.0
 10
-46.89752
 20
-20.45237
 30
0.0
 10
-47.03809
 20
-20.25296
 30
0.0
 10
-47.15817
 20
-20.01636
 30
0.0
 10
-47.15817
 20
-20.01636
 30
0.0
 10
-47.17042
 20
-19.99217
 30
0.0
 10
-47.15548
 20
-19.96285
 30
0.0
 10
-47.12722
 20
-19.96241
 30
0.0
 10
-47.12722
 20
-19.96241
 30
0.0
 10
-46.94199
 20
-19.9593
 30
0.0
 10
-46.75944
 20
-19.91779
 30
0.0
 10
-46.57495
 20
-19.90363
 30
0.0
 10
-46.57495
 20
-19.90363
 30
0.0
 10
-46.46083
 20
-19.89492
 30
0.0
 10
-46.32255
 20
-19.88489
 30
0.0
 10
-46.20698
 20
-19.92337
 30
0.0
 10
-46.20698
 20
-19.92337
 30
0.0
 10
-46.25656
 20
-19.79497
 30
0.0
 10
-46.29099
 20
-19.65989
 30
0.0
 10
-46.31533
 20
-19.52385
 30
0.0
 10
-46.31533
 20
-19.52385
 30
0.0
 10
-46.31912
 20
-19.50283
 30
0.0
 10
-46.30565
 20
-19.47479
 30
0.0
 10
-46.28009
 20
-19.47758
 30
0.0
 10
-46.28009
 20
-19.47758
 30
0.0
 10
-46.12978
 20
-19.4938
 30
0.0
 10
-45.96981
 20
-19.49194
 30
0.0
 10
-45.81535
 20
-19.50752
 30
0.0
 10
-45.81535
 20
-19.50752
 30
0.0
 10
-45.92688
 20
-19.40785
 30
0.0
 10
-46.01232
 20
-19.25272
 30
0.0
 10
-46.06784
 20
-19.11963
 30
0.0
 10
-46.06784
 20
-19.11963
 30
0.0
 10
-46.13092
 20
-18.96832
 30
0.0
 10
-46.17699
 20
-18.79996
 30
0.0
 10
-46.13395
 20
-18.63704
 30
0.0
 10
-46.13395
 20
-18.63704
 30
0.0
 10
-46.12978
 20
-18.62134
 30
0.0
 10
-46.11474
 20
-18.60997
 30
0.0
 10
-46.09853
 20
-18.61003
 30
0.0
 10
-46.09853
 20
-18.61003
 30
0.0
 10
-45.90493
 20
-18.61114
 30
0.0
 10
-45.68142
 20
-18.65155
 30
0.0
 10
-45.48556
 20
-18.7374
 30
0.0
 10
-45.48556
 20
-18.7374
 30
0.0
 10
-45.48691
 20
-18.58616
 30
0.0
 10
-45.51736
 20
-18.43382
 30
0.0
 10
-45.51397
 20
-18.28237
 30
0.0
 10
-45.51397
 20
-18.28237
 30
0.0
 10
-45.51137
 20
-18.16617
 30
0.0
 10
-45.49977
 20
-17.98695
 30
0.0
 10
-45.35117
 20
-17.96969
 30
0.0
 10
-45.35117
 20
-17.96969
 30
0.0
 10
-45.20243
 20
-17.95243
 30
0.0
 10
-45.08335
 20
-18.11056
 30
0.0
 10
-45.01003
 20
-18.21819
 30
0.0
 10
-45.01003
 20
-18.21819
 30
0.0
 10
-44.92529
 20
-18.34259
 30
0.0
 10
-44.8316
 20
-18.48987
 30
0.0
 10
-44.79108
 20
-18.6367
 30
0.0
 10
-44.79108
 20
-18.6367
 30
0.0
 10
-44.79019
 20
-18.63997
 30
0.0
 10
-44.78989
 20
-18.64307
 30
0.0
 10
-44.78986
 20
-18.64617
 30
0.0
 10
-44.78986
 20
-18.64617
 30
0.0
 10
-44.75856
 20
-18.67153
 30
0.0
 10
-44.72779
 20
-18.69747
 30
0.0
 10
-44.69737
 20
-18.72403
 30
0.0
 10
-44.69737
 20
-18.72403
 30
0.0
 10
-44.67557
 20
-18.54172
 30
0.0
 10
-44.66707
 20
-18.36657
 30
0.0
 10
-44.5979
 20
-18.19287
 30
0.0
 10
-44.5979
 20
-18.19287
 30
0.0
 10
-44.52802
 20
-18.01758
 30
0.0
 10
-44.43146
 20
-17.85649
 30
0.0
 10
-44.31116
 20
-17.71114
 30
0.0
 10
-44.31116
 20
-17.71114
 30
0.0
 10
-44.29031
 20
-17.68589
 30
0.0
 10
-44.25459
 20
-17.70373
 30
0.0
 10
-44.24505
 20
-17.72857
 30
0.0
 10
-44.24505
 20
-17.72857
 30
0.0
 10
-44.19871
 20
-17.84822
 30
0.0
 10
-44.13852
 20
-17.96135
 30
0.0
 10
-44.0793
 20
-18.0738
 30
0.0
 10
-44.0793
 20
-18.0738
 30
0.0
 10
-43.93671
 20
-17.86152
 30
0.0
 10
-43.92351
 20
-17.58481
 30
0.0
 10
-43.74447
 20
-17.3903
 30
0.0
 10
-43.74447
 20
-17.3903
 30
0.0
 10
-43.72732
 20
-17.37162
 30
0.0
 10
-43.69948
 20
-17.37903
 30
0.0
 10
-43.68652
 20
-17.39777
 30
0.0
 10
-43.68652
 20
-17.39777
 30
0.0
 10
-43.6209
 20
-17.49217
 30
0.0
 10
-43.56357
 20
-17.59859
 30
0.0
 10
-43.52016
 20
-17.71073
 30
0.0
 10
-43.52016
 20
-17.71073
 30
0.0
 10
-43.4123
 20
-17.50816
 30
0.0
 10
-43.22791
 20
-17.35716
 30
0.0
 10
-43.03034
 20
-17.24461
 30
0.0
 10
-43.03034
 20
-17.24461
 30
0.0
 10
-43.01515
 20
-17.23596
 30
0.0
 10
-42.98955
 20
-17.2394
 30
0.0
 10
-42.98183
 20
-17.25732
 30
0.0
 10
-42.98183
 20
-17.25732
 30
0.0
 10
-42.87255
 20
-17.51115
 30
0.0
 10
-42.82212
 20
-17.77139
 30
0.0
 10
-42.81426
 20
-18.045
 30
0.0
 10
-42.81426
 20
-18.045
 30
0.0
 10
-42.68586
 20
-17.91984
 30
0.0
 10
-42.5358
 20
-17.83082
 30
0.0
 10
-42.35693
 20
-17.78287
 30
0.0
 10
-42.35693
 20
-17.78287
 30
0.0
 10
-42.33301
 20
-17.77643
 30
0.0
 10
-42.30845
 20
-17.79475
 30
0.0
 10
-42.30852
 20
-17.8198
 30
0.0
 10
-42.30852
 20
-17.8198
 30
0.0
 10
-42.30876
 20
-17.9001
 30
0.0
 10
-42.31352
 20
-17.97934
 30
0.0
 10
-42.32189
 20
-18.05751
 30
0.0
 10
-42.32189
 20
-18.05751
 30
0.0
 10
-42.1549
 20
-17.89797
 30
0.0
 10
-41.96215
 20
-17.75489
 30
0.0
 10
-41.75934
 20
-17.64841
 30
0.0
 10
-41.75934
 20
-17.64841
 30
0.0
 10
-41.73622
 20
-17.63624
 30
0.0
 10
-41.70659
 20
-17.65113
 30
0.0
 10
-41.7067
 20
-17.67862
 30
0.0
 10
-41.7067
 20
-17.67862
 30
0.0
 10
-41.70718
 20
-17.80281
 30
0.0
 10
-41.71679
 20
-17.92504
 30
0.0
 10
-41.7374
 20
-18.04517
 30
0.0
 10
-41.7374
 20
-18.04517
 30
0.0
 10
-41.62236
 20
-17.98785
 30
0.0
 10
-41.4942
 20
-17.96174
 30
0.0
 10
-41.37683
 20
-17.90933
 30
0.0
 10
-41.37683
 20
-17.90933
 30
0.0
 10
-41.35223
 20
-17.89831
 30
0.0
 10
-41.32223
 20
-17.91099
 30
0.0
 10
-41.32192
 20
-17.94082
 30
0.0
 10
-41.32192
 20
-17.94082
 30
0.0
 10
-41.32071
 20
-18.07105
 30
0.0
 10
-41.32267
 20
-18.21123
 30
0.0
 10
-41.37993
 20
-18.32785
 30
0.0
 10
-41.37993
 20
-18.32785
 30
0.0
 10
-41.31871
 20
-18.2956
 30
0.0
 10
-41.25494
 20
-18.26797
 30
0.0
 10
-41.18649
 20
-18.24892
 30
0.0
 10
-41.18649
 20
-18.24892
 30
0.0
 10
-41.16882
 20
-18.24403
 30
0.0
 10
-41.14556
 20
-18.25474
 30
0.0
 10
-41.14211
 20
-18.27414
 30
0.0
 10
-41.14211
 20
-18.27414
 30
0.0
 10
-41.10277
 20
-18.49194
 30
0.0
 10
-41.13151
 20
-18.72379
 30
0.0
 10
-41.24451
 20
-18.91568
 30
0.0
 10
-41.24451
 20
-18.91568
 30
0.0
 10
-41.09533
 20
-18.85188
 30
0.0
 10
-40.93889
 20
-18.80261
 30
0.0
 10
-40.78379
 20
-18.75053
 30
0.0
 10
-40.78379
 20
-18.75053
 30
0.0
 10
-40.75733
 20
-18.7416
 30
0.0
 10
-40.7254
 20
-18.77092
 30
0.0
 10
-40.73604
 20
-18.79827
 30
0.0
 10
-40.73604
 20
-18.79827
 30
0.0
 10
-40.7758
 20
-18.90138
 30
0.0
 10
-40.8281
 20
-18.99606
 30
0.0
 10
-40.88811
 20
-19.08598
 30
0.0
 10
-40.88811
 20
-19.08598
 30
0.0
 10
-40.70859
 20
-19.10279
 30
0.0
 10
-40.53078
 20
-19.07757
 30
0.0
 10
-40.34992
 20
-19.07195
 30
0.0
 10
-40.34992
 20
-19.07195
 30
0.0
 10
-40.31505
 20
-19.07088
 30
0.0
 10
-40.3
 20
-19.11439
 30
0.0
 10
-40.32246
 20
-19.13817
 30
0.0
 10
-40.32246
 20
-19.13817
 30
0.0
 10
-40.40824
 20
-19.22871
 30
0.0
 10
-40.48166
 20
-19.39982
 30
0.0
 10
-40.5888
 20
-19.49146
 30
0.0
 10
-40.5888
 20
-19.49146
 30
0.0
 10
-40.47005
 20
-19.47031
 30
0.0
 10
-40.34926
 20
-19.45942
 30
0.0
 10
-40.22885
 20
-19.45715
 30
0.0
 10
-40.22885
 20
-19.45715
 30
0.0
 10
-40.20415
 20
-19.4567
 30
0.0
 10
-40.18803
 20
-19.48092
 30
0.0
 10
-40.19341
 20
-19.50379
 30
0.0
 10
-40.19341
 20
-19.50379
 30
0.0
 10
-40.25924
 20
-19.78257
 30
0.0
 10
-40.49399
 20
-19.94587
 30
0.0
 10
-40.7143
 20
-20.10352
 30
0.0
 10
-40.7143
 20
-20.10352
 30
0.0
 10
-40.71382
 20
-20.10352
 30
0.0
 10
-40.71348
 20
-20.10334
 30
0.0
 10
-40.713
 20
-20.10341
 30
0.0
 10
-40.713
 20
-20.10341
 30
0.0
 10
-40.55363
 20
-20.12085
 30
0.0
 10
-40.3936
 20
-20.06976
 30
0.0
 10
-40.23499
 20
-20.09721
 30
0.0
 10
-40.23499
 20
-20.09721
 30
0.0
 10
-40.06997
 20
-20.1257
 30
0.0
 10
-39.90781
 20
-20.19695
 30
0.0
 10
-39.75402
 20
-20.2612
 30
0.0
 10
-39.75402
 20
-20.2612
 30
0.0
 10
-39.7246
 20
-20.27343
 30
0.0
 10
-39.71433
 20
-20.30443
 30
0.0
 10
-39.7359
 20
-20.32982
 30
0.0
 10
-39.7359
 20
-20.32982
 30
0.0
 10
-39.9077
 20
-20.5326
 30
0.0
 10
-40.16846
 20
-20.62862
 30
0.0
 10
-40.4224
 20
-20.69414
 30
0.0
 10
-40.4224
 20
-20.69414
 30
0.0
 10
-40.38358
 20
-20.7225
 30
0.0
 10
-40.34795
 20
-20.75223
 30
0.0
 10
-40.31729
 20
-20.77982
 30
0.0
 10
-40.31729
 20
-20.77982
 30
0.0
 10
-40.15548
 20
-20.92603
 30
0.0
 10
-40.02391
 20
-21.0998
 30
0.0
 10
-39.87756
 20
-21.26062
 30
0.0
 10
-39.87756
 20
-21.26062
 30
0.0
 10
-39.86188
 20
-21.27778
 30
0.0
 10
-39.86054
 20
-21.3133
 30
0.0
 10
-39.88572
 20
-21.32401
 30
0.0
 10
-39.88572
 20
-21.32401
 30
0.0
 10
-40.02243
 20
-21.38206
 30
0.0
 10
-40.18173
 20
-21.43239
 30
0.0
 10
-40.34654
 20
-21.46185
 30
0.0
 10
-40.34654
 20
-21.46185
 30
0.0
 10
-40.2138
 20
-21.57078
 30
0.0
 10
-40.1132
 20
-21.71992
 30
0.0
 10
-39.99852
 20
-21.84543
 30
0.0
 10
-39.99852
 20
-21.84543
 30
0.0
 10
-39.98202
 20
-21.86351
 30
0.0
 10
-39.98226
 20
-21.8971
 30
0.0
 10
-40.00672
 20
-21.90909
 30
0.0
 10
-40.00672
 20
-21.90909
 30
0.0
 10
-40.14455
 20
-21.97665
 30
0.0
 10
-40.2869
 20
-22.01802
 30
0.0
 10
-40.43739
 20
-22.02016
 30
0.0
 10
-40.43739
 20
-22.02016
 30
0.0
 10
-40.43125
 20
-22.03529
 30
0.0
 10
-40.4346
 20
-22.05044
 30
0.0
 10
-40.44476
 20
-22.06088
 30
0.0
 10
-40.44476
 20
-22.06088
 30
0.0
 10
-40.36549
 20
-22.14608
 30
0.0
 10
-40.28635
 20
-22.23021
 30
0.0
 10
-40.20119
 20
-22.31024
 30
0.0
 10
-40.20119
 20
-22.31024
 30
0.0
 10
-40.18111
 20
-22.32918
 30
0.0
 10
-40.18972
 20
-22.35733
 30
0.0
 10
-40.20908
 20
-22.37184
 30
0.0
 10
-40.20908
 20
-22.37184
 30
0.0
 10
-40.29958
 20
-22.43988
 30
0.0
 10
-40.42974
 20
-22.48325
 30
0.0
 10
-40.5477
 20
-22.47926
 30
0.0
 10
-40.5477
 20
-22.47926
 30
0.0
 10
-40.50405
 20
-22.60996
 30
0.0
 10
-40.44049
 20
-22.76692
 30
0.0
 10
-40.30954
 20
-22.78046
 30
0.0
 10
-40.30954
 20
-22.78046
 30
0.0
 10
-40.25721
 20
-22.78583
 30
0.0
 10
-40.25473
 20
-22.86342
 30
0.0
 10
-40.30954
 20
-22.86379
 30
0.0
 10
-40.30954
 20
-22.86379
 30
0.0
 10
-40.45413
 20
-22.86483
 30
0.0
 10
-40.59941
 20
-22.86624
 30
0.0
 10
-40.74369
 20
-22.85491
 30
0.0
  0
SPLINE
  5
71
330
1F
100
AcDbEntity
  8
Layer 1
370
     9
100
AcDbSpline
210
0.0
220
0.0
230
1.0
 70
    11
 71
     3
 72
    52
 73
    48
 74
     0
 42
0.000000001
 43
0.0000000001
 40
0.0
 40
0.0
 40
0.0
 40
0.0
 40
0.0769230769230769
 40
0.0769230769230769
 40
0.0769230769230769
 40
0.0769230769230769
 40
0.1538461538461539
 40
0.1538461538461539
 40
0.1538461538461539
 40
0.1538461538461539
 40
0.2307692307692308
 40
0.2307692307692308
 40
0.2307692307692308
 40
0.2307692307692308
 40
0.3076923076923077
 40
0.3076923076923077
 40
0.3076923076923077
 40
0.3076923076923077
 40
0.3846153846153846
 40
0.3846153846153846
 40
0.3846153846153846
 40
0.3846153846153846
 40
0.4615384615384616
 40
0.4615384615384616
 40
0.4615384615384616
 40
0.4615384615384616
 40
0.5384615384615384
 40
0.5384615384615384
 40
0.5384615384615384
 40
0.5384615384615384
 40
0.6153846153846154
 40
0.6153846153846154
 40
0.6153846153846154
 40
0.6153846153846154
 40
0.6923076923076923
 40
0.6923076923076923
 40
0.6923076923076923
 40
0.6923076923076923
 40
0.7692307692307693
 40
0.7692307692307693
 40
0.7692307692307693
 40
0.7692307692307693
 40
0.8461538461538461
 40
0.8461538461538461
 40
0.8461538461538461
 40
0.8461538461538461
 40
1.0
 40
1.0
 40
1.0
 40
1.0
 10
-40.59886
 20
-22.54464
 30
0.0
 10
-40.59886
 20
-22.54464
 30
0.0
 10
-40.59886
 20
-22.54464
 30
0.0
 10
-40.59886
 20
-22.54464
 30
0.0
 10
-40.59886
 20
-22.54464
 30
0.0
 10
-40.62769
 20
-22.46031
 30
0.0
 10
-40.65091
 20
-22.37404
 30
0.0
 10
-40.68292
 20
-22.2907
 30
0.0
 10
-40.68292
 20
-22.2907
 30
0.0
 10
-40.69966
 20
-22.24716
 30
0.0
 10
-40.74352
 20
-22.20702
 30
0.0
 10
-40.75764
 20
-22.16547
 30
0.0
 10
-40.75764
 20
-22.16547
 30
0.0
 10
-40.85889
 20
-22.19045
 30
0.0
 10
-40.9619
 20
-22.20585
 30
0.0
 10
-41.06863
 20
-22.20309
 30
0.0
 10
-41.06863
 20
-22.20309
 30
0.0
 10
-41.0089
 20
-22.34551
 30
0.0
 10
-40.98599
 20
-22.51632
 30
0.0
 10
-40.95749
 20
-22.65034
 30
0.0
 10
-40.95749
 20
-22.65034
 30
0.0
 10
-40.95184
 20
-22.67707
 30
0.0
 10
-40.96914
 20
-22.69743
 30
0.0
 10
-40.99539
 20
-22.70005
 30
0.0
 10
-40.99539
 20
-22.70005
 30
0.0
 10
-41.04359
 20
-22.70484
 30
0.0
 10
-41.09306
 20
-22.70357
 30
0.0
 10
-41.14232
 20
-22.6984
 30
0.0
 10
-41.14232
 20
-22.6984
 30
0.0
 10
-41.14132
 20
-22.70067
 30
0.0
 10
-41.14046
 20
-22.70305
 30
0.0
 10
-41.13953
 20
-22.70539
 30
0.0
 10
-41.13953
 20
-22.70539
 30
0.0
 10
-41.13536
 20
-22.7046
 30
0.0
 10
-41.13095
 20
-22.70439
 30
0.0
 10
-41.12648
 20
-22.70498
 30
0.0
 10
-41.12648
 20
-22.70498
 30
0.0
 10
-40.98399
 20
-22.72468
 30
0.0
 10
-40.84832
 20
-22.76324
 30
0.0
 10
-40.70276
 20
-22.77112
 30
0.0
 10
-40.70276
 20
-22.77112
 30
0.0
 10
-40.62625
 20
-22.77526
 30
0.0
 10
-40.54959
 20
-22.77733
 30
0.0
 10
-40.47304
 20
-22.77856
 30
0.0
 10
-40.47304
 20
-22.77856
 30
0.0
 10
-40.53251
 20
-22.71583
 30
0.0
 10
-40.5704
 20
-22.62798
 30
0.0
 10
-40.59886
 20
-22.54464
 30
0.0
  0
SPLINE
  5
72
330
1F
100
AcDbEntity
  8
Layer 1
370
     9
100
AcDbSpline
210
0.0
220
0.0
230
1.0
 70
    11
 71
     3
 72
    60
 73
    56
 74
     0
 42
0.000000001
 43
0.0000000001
 40
0.0
 40
0.0
 40
0.0
 40
0.0
 40
0.0666666666666667
 40
0.0666666666666667
 40
0.0666666666666667
 40
0.0666666666666667
 40
0.1333333333333333
 40
0.1333333333333333
 40
0.1333333333333333
 40
0.1333333333333333
 40
0.2
 40
0.2
 40
0.2
 40
0.2
 40
0.2666666666666667
 40
0.2666666666666667
 40
0.2666666666666667
 40
0.2666666666666667
 40
0.3333333333333333
 40
0.3333333333333333
 40
0.3333333333333333
 40
0.3333333333333333
 40
0.4
 40
0.4
 40
0.4
 40
0.4
 40
0.4666666666666667
 40
0.4666666666666667
 40
0.4666666666666667
 40
0.4666666666666667
 40
0.5333333333333333
 40
0.5333333333333333
 40
0.5333333333333333
 40
0.5333333333333333
 40
0.6
 40
0.6
 40
0.6
 40
0.6
 40
0.6666666666666666
 40
0.6666666666666666
 40
0.6666666666666666
 40
0.6666666666666666
 40
0.7333333333333333
 40
0.7333333333333333
 40
0.7333333333333333
 40
0.7333333333333333
 40
0.8
 40
0.8
 40
0.8
 40
0.8
 40
0.8666666666666667
 40
0.8666666666666667
 40
0.8666666666666667
 40
0.8666666666666667
 40
1.0
 40
1.0
 40
1.0
 40
1.0
 10
-42.73782
 20
-22.28533
 30
0.0
 10
-42.73782
 20
-22.28533
 30
0.0
 10
-42.73782
 20
-22.28533
 30
0.0
 10
-42.73782
 20
-22.28533
 30
0.0
 10
-42.73782
 20
-22.28533
 30
0.0
 10
-42.58985
 20
-22.45352
 30
0.0
 10
-42.37429
 20
-22.5555
 30
0.0
 10
-42.15149
 20
-22.56363
 30
0.0
 10
-42.15149
 20
-22.56363
 30
0.0
 10
-42.32899
 20
-22.33749
 30
0.0
 10
-42.27338
 20
-21.98495
 30
0.0
 10
-42.39338
 20
-21.72974
 30
0.0
 10
-42.39338
 20
-21.72974
 30
0.0
 10
-42.48798
 20
-21.74314
 30
0.0
 10
-42.58296
 20
-21.7409
 30
0.0
 10
-42.67236
 20
-21.7182
 30
0.0
 10
-42.67236
 20
-21.7182
 30
0.0
 10
-42.67177
 20
-21.99429
 30
0.0
 10
-42.75222
 20
-22.26218
 30
0.0
 10
-42.86318
 20
-22.51378
 30
0.0
 10
-42.86318
 20
-22.51378
 30
0.0
 10
-42.8595
 20
-22.51794
 30
0.0
 10
-42.8565
 20
-22.52301
 30
0.0
 10
-42.85471
 20
-22.52966
 30
0.0
 10
-42.85471
 20
-22.52966
 30
0.0
 10
-42.82253
 20
-22.64638
 30
0.0
 10
-42.81192
 20
-22.76882
 30
0.0
 10
-42.81657
 20
-22.89115
 30
0.0
 10
-42.81657
 20
-22.89115
 30
0.0
 10
-42.69609
 20
-22.90462
 30
0.0
 10
-42.57944
 20
-22.93731
 30
0.0
 10
-42.46183
 20
-22.96418
 30
0.0
 10
-42.46183
 20
-22.96418
 30
0.0
 10
-42.44288
 20
-22.93363
 30
0.0
 10
-42.38786
 20
-22.93838
 30
0.0
 10
-42.387
 20
-22.9801
 30
0.0
 10
-42.387
 20
-22.9801
 30
0.0
 10
-42.32599
 20
-22.99216
 30
0.0
 10
-42.26436
 20
-23.00122
 30
0.0
 10
-42.20159
 20
-23.00384
 30
0.0
 10
-42.20159
 20
-23.00384
 30
0.0
 10
-42.19793
 20
-22.93504
 30
0.0
 10
-42.20245
 20
-22.86586
 30
0.0
 10
-42.22346
 20
-22.79961
 30
0.0
 10
-42.22346
 20
-22.79961
 30
0.0
 10
-42.24379
 20
-22.7353
 30
0.0
 10
-42.28534
 20
-22.67811
 30
0.0
 10
-42.3057
 20
-22.61513
 30
0.0
 10
-42.3057
 20
-22.61513
 30
0.0
 10
-42.49163
 20
-22.57089
 30
0.0
 10
-42.66698
 20
-22.46658
 30
0.0
 10
-42.76531
 20
-22.30652
 30
0.0
 10
-42.76531
 20
-22.30652
 30
0.0
 10
-42.77557
 20
-22.28974
 30
0.0
 10
-42.75108
 20
-22.27021
 30
0.0
 10
-42.73782
 20
-22.28533
 30
0.0
  0
SPLINE
  5
73
330
1F
100
AcDbEntity
  8
Layer 1
370
     9
100
AcDbSpline
210
0.0
220
0.0
230
1.0
 70
    11
 71
     3
 72
    76
 73
    72
 74
     0
 42
0.000000001
 43
0.0000000001
 40
0.0
 40
0.0
 40
0.0
 40
0.0
 40
0.0526315789473684
 40
0.0526315789473684
 40
0.0526315789473684
 40
0.0526315789473684
 40
0.1052631578947368
 40
0.1052631578947368
 40
0.1052631578947368
 40
0.1052631578947368
 40
0.1578947368421053
 40
0.1578947368421053
 40
0.1578947368421053
 40
0.1578947368421053
 40
0.2105263157894737
 40
0.2105263157894737
 40
0.2105263157894737
 40
0.2105263157894737
 40
0.2631578947368421
 40
0.2631578947368421
 40
0.2631578947368421
 40
0.2631578947368421
 40
0.3157894736842105
 40
0.3157894736842105
 40
0.3157894736842105
 40
0.3157894736842105
 40
0.3684210526315789
 40
0.3684210526315789
 40
0.3684210526315789
 40
0.3684210526315789
 40
0.4210526315789473
 40
0.4210526315789473
 40
0.4210526315789473
 40
0.4210526315789473
 40
0.4736842105263158
 40
0.4736842105263158
 40
0.4736842105263158
 40
0.4736842105263158
 40
0.5263157894736842
 40
0.5263157894736842
 40
0.5263157894736842
 40
0.5263157894736842
 40
0.5789473684210527
 40
0.5789473684210527
 40
0.5789473684210527
 40
0.5789473684210527
 40
0.631578947368421
 40
0.631578947368421
 40
0.631578947368421
 40
0.631578947368421
 40
0.6842105263157895
 40
0.6842105263157895
 40
0.6842105263157895
 40
0.6842105263157895
 40
0.7368421052631579
 40
0.7368421052631579
 40
0.7368421052631579
 40
0.7368421052631579
 40
0.7894736842105263
 40
0.7894736842105263
 40
0.7894736842105263
 40
0.7894736842105263
 40
0.8421052631578947
 40
0.8421052631578947
 40
0.8421052631578947
 40
0.8421052631578947
 40
0.8947368421052632
 40
0.8947368421052632
 40
0.8947368421052632
 40
0.8947368421052632
 40
1.0
 40
1.0
 40
1.0
 40
1.0
 10
-46.22813
 20
-21.74149
 30
0.0
 10
-46.22813
 20
-21.74149
 30
0.0
 10
-46.22813
 20
-21.74149
 30
0.0
 10
-46.22813
 20
-21.74149
 30
0.0
 10
-46.22813
 20
-21.74149
 30
0.0
 10
-46.14881
 20
-21.7859
 30
0.0
 10
-46.06224
 20
-21.8139
 30
0.0
 10
-45.97275
 20
-21.82841
 30
0.0
 10
-45.97275
 20
-21.82841
 30
0.0
 10
-45.962
 20
-21.82603
 30
0.0
 10
-45.95122
 20
-21.82383
 30
0.0
 10
-45.94035
 20
-21.82214
 30
0.0
 10
-45.94035
 20
-21.82214
 30
0.0
 10
-45.93149
 20
-21.82073
 30
0.0
 10
-45.925
 20
-21.82779
 30
0.0
 10
-45.92533
 20
-21.83485
 30
0.0
 10
-45.92533
 20
-21.83485
 30
0.0
 10
-45.81216
 20
-21.84725
 30
0.0
 10
-45.69563
 20
-21.8395
 30
0.0
 10
-45.58421
 20
-21.81721
 30
0.0
 10
-45.58421
 20
-21.81721
 30
0.0
 10
-45.5664
 20
-21.81366
 30
0.0
 10
-45.55248
 20
-21.82141
 30
0.0
 10
-45.54435
 20
-21.83306
 30
0.0
 10
-45.54435
 20
-21.83306
 30
0.0
 10
-45.47109
 20
-21.75334
 30
0.0
 10
-45.38874
 20
-21.68106
 30
0.0
 10
-45.30397
 20
-21.61829
 30
0.0
 10
-45.30397
 20
-21.61829
 30
0.0
 10
-45.19006
 20
-21.53399
 30
0.0
 10
-45.01636
 20
-21.41613
 30
0.0
 10
-44.86598
 20
-21.46712
 30
0.0
 10
-44.86598
 20
-21.46712
 30
0.0
 10
-44.8691
 20
-21.46399
 30
0.0
 10
-44.87218
 20
-21.46089
 30
0.0
 10
-44.8753
 20
-21.45765
 30
0.0
 10
-44.8753
 20
-21.45765
 30
0.0
 10
-44.88977
 20
-21.44242
 30
0.0
 10
-44.89058
 20
-21.41813
 30
0.0
 10
-44.8753
 20
-21.40297
 30
0.0
 10
-44.8753
 20
-21.40297
 30
0.0
 10
-44.83575
 20
-21.36366
 30
0.0
 10
-44.79532
 20
-21.32539
 30
0.0
 10
-44.75425
 20
-21.28822
 30
0.0
 10
-44.75425
 20
-21.28822
 30
0.0
 10
-44.91161
 20
-21.36046
 30
0.0
 10
-45.12124
 20
-21.38819
 30
0.0
 10
-45.28411
 20
-21.37341
 30
0.0
 10
-45.28411
 20
-21.37341
 30
0.0
 10
-45.43449
 20
-21.35987
 30
0.0
 10
-45.57119
 20
-21.31292
 30
0.0
 10
-45.69916
 20
-21.24202
 30
0.0
 10
-45.69916
 20
-21.24202
 30
0.0
 10
-45.80241
 20
-21.3062
 30
0.0
 10
-45.91125
 20
-21.35881
 30
0.0
 10
-46.00991
 20
-21.43181
 30
0.0
 10
-46.00991
 20
-21.43181
 30
0.0
 10
-46.11572
 20
-21.51022
 30
0.0
 10
-46.2131
 20
-21.59783
 30
0.0
 10
-46.30691
 20
-21.68988
 30
0.0
 10
-46.30691
 20
-21.68988
 30
0.0
 10
-46.30312
 20
-21.69277
 30
0.0
 10
-46.29912
 20
-21.69532
 30
0.0
 10
-46.29528
 20
-21.69811
 30
0.0
 10
-46.29528
 20
-21.69811
 30
0.0
 10
-46.28331
 20
-21.6977
 30
0.0
 10
-46.27141
 20
-21.6977
 30
0.0
 10
-46.2599
 20
-21.69887
 30
0.0
 10
-46.2599
 20
-21.69887
 30
0.0
 10
-46.23515
 20
-21.70132
 30
0.0
 10
-46.2229
 20
-21.7223
 30
0.0
 10
-46.22813
 20
-21.74149
 30
0.0
  0
SPLINE
  5
74
330
1F
100
AcDbEntity
  8
Layer 1
370
     9
100
AcDbSpline
210
0.0
220
0.0
230
1.0
 70
    11
 71
     3
 72
   116
 73
   112
 74
     0
 42
0.000000001
 43
0.0000000001
 40
0.0
 40
0.0
 40
0.0
 40
0.0
 40
0.0344827586206897
 40
0.0344827586206897
 40
0.0344827586206897
 40
0.0344827586206897
 40
0.0689655172413793
 40
0.0689655172413793
 40
0.0689655172413793
 40
0.0689655172413793
 40
0.103448275862069
 40
0.103448275862069
 40
0.103448275862069
 40
0.103448275862069
 40
0.1379310344827586
 40
0.1379310344827586
 40
0.1379310344827586
 40
0.1379310344827586
 40
0.1724137931034483
 40
0.1724137931034483
 40
0.1724137931034483
 40
0.1724137931034483
 40
0.2068965517241379
 40
0.2068965517241379
 40
0.2068965517241379
 40
0.2068965517241379
 40
0.2413793103448276
 40
0.2413793103448276
 40
0.2413793103448276
 40
0.2413793103448276
 40
0.2758620689655172
 40
0.2758620689655172
 40
0.2758620689655172
 40
0.2758620689655172
 40
0.3103448275862069
 40
0.3103448275862069
 40
0.3103448275862069
 40
0.3103448275862069
 40
0.3448275862068966
 40
0.3448275862068966
 40
0.3448275862068966
 40
0.3448275862068966
 40
0.3793103448275862
 40
0.3793103448275862
 40
0.3793103448275862
 40
0.3793103448275862
 40
0.4137931034482759
 40
0.4137931034482759
 40
0.4137931034482759
 40
0.4137931034482759
 40
0.4482758620689655
 40
0.4482758620689655
 40
0.4482758620689655
 40
0.4482758620689655
 40
0.4827586206896552
 40
0.4827586206896552
 40
0.4827586206896552
 40
0.4827586206896552
 40
0.5172413793103449
 40
0.5172413793103449
 40
0.5172413793103449
 40
0.5172413793103449
 40
0.5517241379310345
 40
0.5517241379310345
 40
0.5517241379310345
 40
0.5517241379310345
 40
0.5862068965517241
 40
0.5862068965517241
 40
0.5862068965517241
 40
0.5862068965517241
 40
0.6206896551724138
 40
0.6206896551724138
 40
0.6206896551724138
 40
0.6206896551724138
 40
0.6551724137931034
 40
0.6551724137931034
 40
0.6551724137931034
 40
0.6551724137931034
 40
0.6896551724137931
 40
0.6896551724137931
 40
0.6896551724137931
 40
0.6896551724137931
 40
0.7241379310344828
 40
0.7241379310344828
 40
0.7241379310344828
 40
0.7241379310344828
 40
0.7586206896551724
 40
0.7586206896551724
 40
0.7586206896551724
 40
0.7586206896551724
 40
0.7931034482758621
 40
0.7931034482758621
 40
0.7931034482758621
 40
0.7931034482758621
 40
0.8275862068965517
 40
0.8275862068965517
 40
0.8275862068965517
 40
0.8275862068965517
 40
0.8620689655172413
 40
0.8620689655172413
 40
0.8620689655172413
 40
0.8620689655172413
 40
0.896551724137931
 40
0.896551724137931
 40
0.896551724137931
 40
0.896551724137931
 40
0.9310344827586207
 40
0.9310344827586207
 40
0.9310344827586207
 40
0.9310344827586207
 40
1.0
 40
1.0
 40
1.0
 40
1.0
 10
-45.14517
 20
-20.74375
 30
0.0
 10
-45.14517
 20
-20.74375
 30
0.0
 10
-45.14517
 20
-20.74375
 30
0.0
 10
-45.14517
 20
-20.74375
 30
0.0
 10
-45.14517
 20
-20.74375
 30
0.0
 10
-45.39895
 20
-20.78024
 30
0.0
 10
-45.62383
 20
-20.90354
 30
0.0
 10
-45.76932
 20
-21.11868
 30
0.0
 10
-45.76932
 20
-21.11868
 30
0.0
 10
-45.61584
 20
-21.22121
 30
0.0
 10
-45.44345
 20
-21.29838
 30
0.0
 10
-45.25581
 20
-21.30214
 30
0.0
 10
-45.25581
 20
-21.30214
 30
0.0
 10
-45.16029
 20
-21.30399
 30
0.0
 10
-45.06514
 20
-21.29476
 30
0.0
 10
-44.97209
 20
-21.2723
 30
0.0
 10
-44.97209
 20
-21.2723
 30
0.0
 10
-44.88579
 20
-21.25146
 30
0.0
 10
-44.80185
 20
-21.21422
 30
0.0
 10
-44.71495
 20
-21.19902
 30
0.0
 10
-44.71495
 20
-21.19902
 30
0.0
 10
-44.69684
 20
-21.19582
 30
0.0
 10
-44.68218
 20
-21.20722
 30
0.0
 10
-44.6776
 20
-21.22124
 30
0.0
 10
-44.6776
 20
-21.22124
 30
0.0
 10
-44.39091
 20
-20.97909
 30
0.0
 10
-44.06614
 20
-20.8017
 30
0.0
 10
-43.68584
 20
-20.78413
 30
0.0
 10
-43.68584
 20
-20.78413
 30
0.0
 10
-43.87428
 20
-20.69352
 30
0.0
 10
-44.04544
 20
-20.55741
 30
0.0
 10
-44.16898
 20
-20.39167
 30
0.0
 10
-44.16898
 20
-20.39167
 30
0.0
 10
-44.17187
 20
-20.40669
 30
0.0
 10
-44.18293
 20
-20.41912
 30
0.0
 10
-44.20246
 20
-20.41716
 30
0.0
 10
-44.20246
 20
-20.41716
 30
0.0
 10
-44.38571
 20
-20.39848
 30
0.0
 10
-44.55186
 20
-20.38863
 30
0.0
 10
-44.73467
 20
-20.42567
 30
0.0
 10
-44.73467
 20
-20.42567
 30
0.0
 10
-44.88705
 20
-20.4565
 30
0.0
 10
-45.03589
 20
-20.50025
 30
0.0
 10
-45.18487
 20
-20.54411
 30
0.0
 10
-45.18487
 20
-20.54411
 30
0.0
 10
-45.09348
 20
-20.65415
 30
0.0
 10
-44.97209
 20
-20.7504
 30
0.0
 10
-44.85826
 20
-20.83112
 30
0.0
 10
-44.85826
 20
-20.83112
 30
0.0
 10
-44.7612
 20
-20.89999
 30
0.0
 10
-44.56225
 20
-21.05994
 30
0.0
 10
-44.43463
 20
-20.98921
 30
0.0
 10
-44.43463
 20
-20.98921
 30
0.0
 10
-44.41502
 20
-20.97836
 30
0.0
 10
-44.39188
 20
-21.00575
 30
0.0
 10
-44.41003
 20
-21.02112
 30
0.0
 10
-44.41003
 20
-21.02112
 30
0.0
 10
-44.53802
 20
-21.12967
 30
0.0
 10
-44.74867
 20
-20.99834
 30
0.0
 10
-44.85911
 20
-20.92279
 30
0.0
 10
-44.85911
 20
-20.92279
 30
0.0
 10
-45.01305
 20
-20.81755
 30
0.0
 10
-45.17319
 20
-20.69342
 30
0.0
 10
-45.28526
 20
-20.54249
 30
0.0
 10
-45.28526
 20
-20.54249
 30
0.0
 10
-45.30094
 20
-20.52137
 30
0.0
 10
-45.28404
 20
-20.49143
 30
0.0
 10
-45.2618
 20
-20.48482
 30
0.0
 10
-45.2618
 20
-20.48482
 30
0.0
 10
-45.2093
 20
-20.46911
 30
0.0
 10
-45.15433
 20
-20.45192
 30
0.0
 10
-45.09795
 20
-20.43459
 30
0.0
 10
-45.09795
 20
-20.43459
 30
0.0
 10
-45.2529
 20
-20.31091
 30
0.0
 10
-45.47443
 20
-20.32366
 30
0.0
 10
-45.66279
 20
-20.35456
 30
0.0
 10
-45.66279
 20
-20.35456
 30
0.0
 10
-45.83965
 20
-20.38364
 30
0.0
 10
-46.01094
 20
-20.43307
 30
0.0
 10
-46.18337
 20
-20.47989
 30
0.0
 10
-46.18337
 20
-20.47989
 30
0.0
 10
-46.14265
 20
-20.516
 30
0.0
 10
-46.10232
 20
-20.55262
 30
0.0
 10
-46.06126
 20
-20.58828
 30
0.0
 10
-46.06126
 20
-20.58828
 30
0.0
 10
-46.05054
 20
-20.5869
 30
0.0
 10
-46.043
 20
-20.59513
 30
0.0
 10
-46.04296
 20
-20.60385
 30
0.0
 10
-46.04296
 20
-20.60385
 30
0.0
 10
-46.01044
 20
-20.63165
 30
0.0
 10
-45.97756
 20
-20.65887
 30
0.0
 10
-45.94323
 20
-20.68443
 30
0.0
 10
-45.94323
 20
-20.68443
 30
0.0
 10
-45.85451
 20
-20.7504
 30
0.0
 10
-45.69785
 20
-20.87508
 30
0.0
 10
-45.58006
 20
-20.81507
 30
0.0
 10
-45.58006
 20
-20.81507
 30
0.0
 10
-45.57109
 20
-20.81045
 30
0.0
 10
-45.56249
 20
-20.81741
 30
0.0
 10
-45.56249
 20
-20.8254
 30
0.0
 10
-45.56249
 20
-20.8254
 30
0.0
 10
-45.54813
 20
-20.8161
 30
0.0
 10
-45.53358
 20
-20.80708
 30
0.0
 10
-45.51884
 20
-20.79874
 30
0.0
 10
-45.51884
 20
-20.79874
 30
0.0
 10
-45.41134
 20
-20.73783
 30
0.0
 10
-45.27129
 20
-20.6742
 30
0.0
 10
-45.14517
 20
-20.705
 30
0.0
 10
-45.14517
 20
-20.705
 30
0.0
 10
-45.12696
 20
-20.70944
 30
0.0
 10
-45.12491
 20
-20.74086
 30
0.0
 10
-45.14517
 20
-20.74375
 30
0.0
  0
SPLINE
  5
75
330
1F
100
AcDbEntity
  8
Layer 1
370
     9
100
AcDbSpline
210
0.0
220
0.0
230
1.0
 70
    11
 71
     3
 72
    44
 73
    40
 74
     0
 42
0.000000001
 43
0.0000000001
 40
0.0
 40
0.0
 40
0.0
 40
0.0
 40
0.0909090909090909
 40
0.0909090909090909
 40
0.0909090909090909
 40
0.0909090909090909
 40
0.1818181818181818
 40
0.1818181818181818
 40
0.1818181818181818
 40
0.1818181818181818
 40
0.2727272727272727
 40
0.2727272727272727
 40
0.2727272727272727
 40
0.2727272727272727
 40
0.3636363636363636
 40
0.3636363636363636
 40
0.3636363636363636
 40
0.3636363636363636
 40
0.4545454545454545
 40
0.4545454545454545
 40
0.4545454545454545
 40
0.4545454545454545
 40
0.5454545454545454
 40
0.5454545454545454
 40
0.5454545454545454
 40
0.5454545454545454
 40
0.6363636363636364
 40
0.6363636363636364
 40
0.6363636363636364
 40
0.6363636363636364
 40
0.7272727272727273
 40
0.7272727272727273
 40
0.7272727272727273
 40
0.7272727272727273
 40
0.8181818181818182
 40
0.8181818181818182
 40
0.8181818181818182
 40
0.8181818181818182
 40
1.0
 40
1.0
 40
1.0
 40
1.0
 10
-45.27389
 20
-19.77096
 30
0.0
 10
-45.27389
 20
-19.77096
 30
0.0
 10
-45.27389
 20
-19.77096
 30
0.0
 10
-45.27389
 20
-19.77096
 30
0.0
 10
-45.27389
 20
-19.77096
 30
0.0
 10
-45.26296
 20
-19.88282
 30
0.0
 10
-45.22325
 20
-19.99159
 30
0.0
 10
-45.15997
 20
-20.09501
 30
0.0
 10
-45.15997
 20
-20.09501
 30
0.0
 10
-45.14045
 20
-20.12687
 30
0.0
 10
-44.97257
 20
-20.41257
 30
0.0
 10
-44.93497
 20
-20.37516
 30
0.0
 10
-44.93497
 20
-20.37516
 30
0.0
 10
-44.92839
 20
-20.36848
 30
0.0
 10
-44.91981
 20
-20.37479
 30
0.0
 10
-44.92007
 20
-20.38236
 30
0.0
 10
-44.92007
 20
-20.38236
 30
0.0
 10
-44.68072
 20
-20.31694
 30
0.0
 10
-44.42663
 20
-20.27291
 30
0.0
 10
-44.20257
 20
-20.34412
 30
0.0
 10
-44.20257
 20
-20.34412
 30
0.0
 10
-44.28049
 20
-20.22744
 30
0.0
 10
-44.33493
 20
-20.09759
 30
0.0
 10
-44.35635
 20
-19.95982
 30
0.0
 10
-44.35635
 20
-19.95982
 30
0.0
 10
-44.48965
 20
-19.85165
 30
0.0
 10
-44.62558
 20
-19.74171
 30
0.0
 10
-44.77849
 20
-19.66223
 30
0.0
 10
-44.77849
 20
-19.66223
 30
0.0
 10
-44.92668
 20
-19.5853
 30
0.0
 10
-45.08371
 20
-19.54086
 30
0.0
 10
-45.24726
 20
-19.51347
 30
0.0
 10
-45.24726
 20
-19.51347
 30
0.0
 10
-45.27023
 20
-19.58775
 30
0.0
 10
-45.27939
 20
-19.66134
 30
0.0
 10
-45.27648
 20
-19.73379
 30
0.0
 10
-45.27648
 20
-19.73379
 30
0.0
 10
-45.26852
 20
-19.74605
 30
0.0
 10
-45.26881
 20
-19.75952
 30
0.0
 10
-45.27389
 20
-19.77096
 30
0.0
  0
SPLINE
  5
76
330
1F
100
AcDbEntity
  8
Layer 1
370
     9
100
AcDbSpline
210
0.0
220
0.0
230
1.0
 70
    11
 71
     3
 72
    28
 73
    24
 74
     0
 42
0.000000001
 43
0.0000000001
 40
0.0
 40
0.0
 40
0.0
 40
0.0
 40
0.1428571428571428
 40
0.1428571428571428
 40
0.1428571428571428
 40
0.1428571428571428
 40
0.2857142857142857
 40
0.2857142857142857
 40
0.2857142857142857
 40
0.2857142857142857
 40
0.4285714285714285
 40
0.4285714285714285
 40
0.4285714285714285
 40
0.4285714285714285
 40
0.5714285714285714
 40
0.5714285714285714
 40
0.5714285714285714
 40
0.5714285714285714
 40
0.7142857142857143
 40
0.7142857142857143
 40
0.7142857142857143
 40
0.7142857142857143
 40
1.0
 40
1.0
 40
1.0
 40
1.0
 10
-43.05728
 20
-20.10586
 30
0.0
 10
-43.05728
 20
-20.10586
 30
0.0
 10
-43.05728
 20
-20.10586
 30
0.0
 10
-43.05728
 20
-20.10586
 30
0.0
 10
-43.05728
 20
-20.10586
 30
0.0
 10
-42.97542
 20
-20.03489
 30
0.0
 10
-42.88389
 20
-19.97436
 30
0.0
 10
-42.78736
 20
-19.91996
 30
0.0
 10
-42.78736
 20
-19.91996
 30
0.0
 10
-42.58479
 20
-19.68039
 30
0.0
 10
-42.49886
 20
-19.35266
 30
0.0
 10
-42.48657
 20
-19.04243
 30
0.0
 10
-42.48657
 20
-19.04243
 30
0.0
 10
-42.73433
 20
-19.13286
 30
0.0
 10
-42.95224
 20
-19.30422
 30
0.0
 10
-43.05538
 20
-19.55234
 30
0.0
 10
-43.05538
 20
-19.55234
 30
0.0
 10
-43.02445
 20
-19.62926
 30
0.0
 10
-43.00236
 20
-19.70888
 30
0.0
 10
-42.99558
 20
-19.79222
 30
0.0
 10
-42.99558
 20
-19.79222
 30
0.0
 10
-42.986
 20
-19.90925
 30
0.0
 10
-43.01504
 20
-20.00981
 30
0.0
 10
-43.05728
 20
-20.10586
 30
0.0
  0
SPLINE
  5
77
330
1F
100
AcDbEntity
  8
Layer 1
370
     9
100
AcDbSpline
210
0.0
220
0.0
230
1.0
 70
    11
 71
     3
 72
    48
 73
    44
 74
     0
 42
0.000000001
 43
0.0000000001
 40
0.0
 40
0.0
 40
0.0
 40
0.0
 40
0.0833333333333333
 40
0.0833333333333333
 40
0.0833333333333333
 40
0.0833333333333333
 40
0.1666666666666667
 40
0.1666666666666667
 40
0.1666666666666667
 40
0.1666666666666667
 40
0.25
 40
0.25
 40
0.25
 40
0.25
 40
0.3333333333333333
 40
0.3333333333333333
 40
0.3333333333333333
 40
0.3333333333333333
 40
0.4166666666666667
 40
0.4166666666666667
 40
0.4166666666666667
 40
0.4166666666666667
 40
0.5
 40
0.5
 40
0.5
 40
0.5
 40
0.5833333333333334
 40
0.5833333333333334
 40
0.5833333333333334
 40
0.5833333333333334
 40
0.6666666666666666
 40
0.6666666666666666
 40
0.6666666666666666
 40
0.6666666666666666
 40
0.75
 40
0.75
 40
0.75
 40
0.75
 40
0.8333333333333334
 40
0.8333333333333334
 40
0.8333333333333334
 40
0.8333333333333334
 40
1.0
 40
1.0
 40
1.0
 40
1.0
 10
-40.88174
 20
-21.46602
 30
0.0
 10
-40.88174
 20
-21.46602
 30
0.0
 10
-40.88174
 20
-21.46602
 30
0.0
 10
-40.88174
 20
-21.46602
 30
0.0
 10
-40.88174
 20
-21.46602
 30
0.0
 10
-40.96363
 20
-21.44921
 30
0.0
 10
-41.04214
 20
-21.42299
 30
0.0
 10
-41.11473
 20
-21.38492
 30
0.0
 10
-41.11473
 20
-21.38492
 30
0.0
 10
-40.98681
 20
-21.56668
 30
0.0
 10
-40.92432
 20
-21.78224
 30
0.0
 10
-40.93379
 20
-22.01534
 30
0.0
 10
-40.93379
 20
-22.01534
 30
0.0
 10
-40.93483
 20
-22.03956
 30
0.0
 10
-40.95198
 20
-22.05441
 30
0.0
 10
-40.97513
 20
-22.05665
 30
0.0
 10
-40.97513
 20
-22.05665
 30
0.0
 10
-41.03229
 20
-22.06236
 30
0.0
 10
-41.09137
 20
-22.06405
 30
0.0
 10
-41.15066
 20
-22.06164
 30
0.0
 10
-41.15066
 20
-22.06164
 30
0.0
 10
-41.12854
 20
-22.08861
 30
0.0
 10
-41.10963
 20
-22.11872
 30
0.0
 10
-41.09296
 20
-22.15076
 30
0.0
 10
-41.09296
 20
-22.15076
 30
0.0
 10
-40.89366
 20
-22.13412
 30
0.0
 10
-40.71448
 20
-22.083
 30
0.0
 10
-40.52889
 20
-22.01679
 30
0.0
 10
-40.52889
 20
-22.01679
 30
0.0
 10
-40.52968
 20
-22.01668
 30
0.0
 10
-40.53058
 20
-22.01668
 30
0.0
 10
-40.53147
 20
-22.01658
 30
0.0
 10
-40.53147
 20
-22.01658
 30
0.0
 10
-40.57002
 20
-22.01293
 30
0.0
 10
-40.58077
 20
-21.9678
 30
0.0
 10
-40.56279
 20
-21.94554
 30
0.0
 10
-40.56279
 20
-21.94554
 30
0.0
 10
-40.65229
 20
-21.79096
 30
0.0
 10
-40.75727
 20
-21.64978
 30
0.0
 10
-40.88143
 20
-21.51807
 30
0.0
 10
-40.88143
 20
-21.51807
 30
0.0
 10
-40.89772
 20
-21.50078
 30
0.0
 10
-40.89393
 20
-21.47959
 30
0.0
 10
-40.88174
 20
-21.46602
 30
0.0
  0
SPLINE
  5
78
330
1F
100
AcDbEntity
  8
Layer 1
370
     9
100
AcDbSpline
210
0.0
220
0.0
230
1.0
 70
    11
 71
     3
 72
    56
 73
    52
 74
     0
 42
0.000000001
 43
0.0000000001
 40
0.0
 40
0.0
 40
0.0
 40
0.0
 40
0.0714285714285714
 40
0.0714285714285714
 40
0.0714285714285714
 40
0.0714285714285714
 40
0.1428571428571428
 40
0.1428571428571428
 40
0.1428571428571428
 40
0.1428571428571428
 40
0.2142857142857143
 40
0.2142857142857143
 40
0.2142857142857143
 40
0.2142857142857143
 40
0.2857142857142857
 40
0.2857142857142857
 40
0.2857142857142857
 40
0.2857142857142857
 40
0.3571428571428572
 40
0.3571428571428572
 40
0.3571428571428572
 40
0.3571428571428572
 40
0.4285714285714285
 40
0.4285714285714285
 40
0.4285714285714285
 40
0.4285714285714285
 40
0.5
 40
0.5
 40
0.5
 40
0.5
 40
0.5714285714285714
 40
0.5714285714285714
 40
0.5714285714285714
 40
0.5714285714285714
 40
0.6428571428571429
 40
0.6428571428571429
 40
0.6428571428571429
 40
0.6428571428571429
 40
0.7142857142857143
 40
0.7142857142857143
 40
0.7142857142857143
 40
0.7142857142857143
 40
0.7857142857142857
 40
0.7857142857142857
 40
0.7857142857142857
 40
0.7857142857142857
 40
0.8571428571428571
 40
0.8571428571428571
 40
0.8571428571428571
 40
0.8571428571428571
 40
1.0
 40
1.0
 40
1.0
 40
1.0
 10
-41.28419
 20
-21.25831
 30
0.0
 10
-41.28419
 20
-21.25831
 30
0.0
 10
-41.28419
 20
-21.25831
 30
0.0
 10
-41.28419
 20
-21.25831
 30
0.0
 10
-41.28419
 20
-21.25831
 30
0.0
 10
-41.44956
 20
-21.32015
 30
0.0
 10
-41.63428
 20
-21.34472
 30
0.0
 10
-41.80636
 20
-21.35023
 30
0.0
 10
-41.80636
 20
-21.35023
 30
0.0
 10
-41.80464
 20
-21.3514
 30
0.0
 10
-41.80296
 20
-21.35267
 30
0.0
 10
-41.80127
 20
-21.35385
 30
0.0
 10
-41.80127
 20
-21.35385
 30
0.0
 10
-41.7786
 20
-21.36921
 30
0.0
 10
-41.77322
 20
-21.39904
 30
0.0
 10
-41.79272
 20
-21.41968
 30
0.0
 10
-41.79272
 20
-21.41968
 30
0.0
 10
-41.83906
 20
-21.4685
 30
0.0
 10
-41.8938
 20
-21.51442
 30
0.0
 10
-41.95409
 20
-21.55535
 30
0.0
 10
-41.95409
 20
-21.55535
 30
0.0
 10
-41.85287
 20
-21.58098
 30
0.0
 10
-41.74583
 20
-21.70621
 30
0.0
 10
-41.70246
 20
-21.77043
 30
0.0
 10
-41.70246
 20
-21.77043
 30
0.0
 10
-41.69054
 20
-21.78807
 30
0.0
 10
-41.67893
 20
-21.80619
 30
0.0
 10
-41.66736
 20
-21.82448
 30
0.0
 10
-41.66736
 20
-21.82448
 30
0.0
 10
-41.66191
 20
-21.81194
 30
0.0
 10
-41.64782
 20
-21.8006
 30
0.0
 10
-41.63328
 20
-21.80639
 30
0.0
 10
-41.63328
 20
-21.80639
 30
0.0
 10
-41.58987
 20
-21.82348
 30
0.0
 10
-41.56738
 20
-21.86982
 30
0.0
 10
-41.52428
 20
-21.89169
 30
0.0
 10
-41.52428
 20
-21.89169
 30
0.0
 10
-41.46709
 20
-21.92077
 30
0.0
 10
-41.40508
 20
-21.93965
 30
0.0
 10
-41.34221
 20
-21.95195
 30
0.0
 10
-41.34221
 20
-21.95195
 30
0.0
 10
-41.23503
 20
-21.97279
 30
0.0
 10
-41.12451
 20
-21.98309
 30
0.0
 10
-41.01516
 20
-21.97689
 30
0.0
 10
-41.01516
 20
-21.97689
 30
0.0
 10
-41.01169
 20
-21.83261
 30
0.0
 10
-41.03094
 20
-21.68692
 30
0.0
 10
-41.09461
 20
-21.55566
 30
0.0
 10
-41.09461
 20
-21.55566
 30
0.0
 10
-41.14673
 20
-21.4481
 30
0.0
 10
-41.21512
 20
-21.35429
 30
0.0
 10
-41.28419
 20
-21.25831
 30
0.0
  0
SPLINE
  5
79
330
1F
100
AcDbEntity
  8
Layer 1
370
     9
100
AcDbSpline
210
0.0
220
0.0
230
1.0
 70
    11
 71
     3
 72
    32
 73
    28
 74
     0
 42
0.000000001
 43
0.0000000001
 40
0.0
 40
0.0
 40
0.0
 40
0.0
 40
0.125
 40
0.125
 40
0.125
 40
0.125
 40
0.25
 40
0.25
 40
0.25
 40
0.25
 40
0.375
 40
0.375
 40
0.375
 40
0.375
 40
0.5
 40
0.5
 40
0.5
 40
0.5
 40
0.625
 40
0.625
 40
0.625
 40
0.625
 40
0.75
 40
0.75
 40
0.75
 40
0.75
 40
1.0
 40
1.0
 40
1.0
 40
1.0
 10
-43.25355
 20
-21.65505
 30
0.0
 10
-43.25355
 20
-21.65505
 30
0.0
 10
-43.25355
 20
-21.65505
 30
0.0
 10
-43.25355
 20
-21.65505
 30
0.0
 10
-43.25355
 20
-21.65505
 30
0.0
 10
-43.13686
 20
-21.43139
 30
0.0
 10
-43.10751
 20
-21.18824
 30
0.0
 10
-43.26664
 20
-20.95625
 30
0.0
 10
-43.26664
 20
-20.95625
 30
0.0
 10
-43.35421
 20
-21.14487
 30
0.0
 10
-43.53033
 20
-21.29762
 30
0.0
 10
-43.71757
 20
-21.40893
 30
0.0
 10
-43.71757
 20
-21.40893
 30
0.0
 10
-43.84731
 20
-21.67279
 30
0.0
 10
-43.91611
 20
-21.99915
 30
0.0
 10
-43.82271
 20
-22.28182
 30
0.0
 10
-43.82271
 20
-22.28182
 30
0.0
 10
-43.62693
 20
-22.13185
 30
0.0
 10
-43.40516
 20
-21.92322
 30
0.0
 10
-43.27325
 20
-21.69133
 30
0.0
 10
-43.27325
 20
-21.69133
 30
0.0
 10
-43.27304
 20
-21.68506
 30
0.0
 10
-43.27308
 20
-21.67868
 30
0.0
 10
-43.2727
 20
-21.67241
 30
0.0
 10
-43.2727
 20
-21.67241
 30
0.0
 10
-43.27194
 20
-21.66005
 30
0.0
 10
-43.26257
 20
-21.65439
 30
0.0
 10
-43.25355
 20
-21.65505
 30
0.0
  0
SPLINE
  5
7A
330
1F
100
AcDbEntity
  8
Layer 1
370
     9
100
AcDbSpline
210
0.0
220
0.0
230
1.0
 70
    11
 71
     3
 72
    32
 73
    28
 74
     0
 42
0.000000001
 43
0.0000000001
 40
0.0
 40
0.0
 40
0.0
 40
0.0
 40
0.125
 40
0.125
 40
0.125
 40
0.125
 40
0.25
 40
0.25
 40
0.25
 40
0.25
 40
0.375
 40
0.375
 40
0.375
 40
0.375
 40
0.5
 40
0.5
 40
0.5
 40
0.5
 40
0.625
 40
0.625
 40
0.625
 40
0.625
 40
0.75
 40
0.75
 40
0.75
 40
0.75
 40
1.0
 40
1.0
 40
1.0
 40
1.0
 10
-43.27153
 20
-21.81562
 30
0.0
 10
-43.27153
 20
-21.81562
 30
0.0
 10
-43.27153
 20
-21.81562
 30
0.0
 10
-43.27153
 20
-21.81562
 30
0.0
 10
-43.27153
 20
-21.81562
 30
0.0
 10
-43.37071
 20
-21.95942
 30
0.0
 10
-43.49646
 20
-22.0923
 30
0.0
 10
-43.62183
 20
-22.20465
 30
0.0
 10
-43.62183
 20
-22.20465
 30
0.0
 10
-43.65545
 20
-22.41934
 30
0.0
 10
-43.68501
 20
-22.63838
 30
0.0
 10
-43.72683
 20
-22.85243
 30
0.0
 10
-43.72683
 20
-22.85243
 30
0.0
 10
-43.71571
 20
-22.85777
 30
0.0
 10
-43.70775
 20
-22.87041
 30
0.0
 10
-43.70757
 20
-22.88343
 30
0.0
 10
-43.70757
 20
-22.88343
 30
0.0
 10
-43.45102
 20
-22.80013
 30
0.0
 10
-43.20845
 20
-22.61079
 30
0.0
 10
-43.1278
 20
-22.34862
 30
0.0
 10
-43.1278
 20
-22.34862
 30
0.0
 10
-43.1248
 20
-22.33901
 30
0.0
 10
-43.11909
 20
-22.33253
 30
0.0
 10
-43.11226
 20
-22.32853
 30
0.0
 10
-43.11226
 20
-22.32853
 30
0.0
 10
-43.2029
 20
-22.17216
 30
0.0
 10
-43.25895
 20
-21.99615
 30
0.0
 10
-43.27153
 20
-21.81562
 30
0.0
  0
SPLINE
  5
7B
330
1F
100
AcDbEntity
  8
Layer 1
370
     9
100
AcDbSpline
210
0.0
220
0.0
230
1.0
 70
    11
 71
     3
 72
    56
 73
    52
 74
     0
 42
0.000000001
 43
0.0000000001
 40
0.0
 40
0.0
 40
0.0
 40
0.0
 40
0.0714285714285714
 40
0.0714285714285714
 40
0.0714285714285714
 40
0.0714285714285714
 40
0.1428571428571428
 40
0.1428571428571428
 40
0.1428571428571428
 40
0.1428571428571428
 40
0.2142857142857143
 40
0.2142857142857143
 40
0.2142857142857143
 40
0.2142857142857143
 40
0.2857142857142857
 40
0.2857142857142857
 40
0.2857142857142857
 40
0.2857142857142857
 40
0.3571428571428572
 40
0.3571428571428572
 40
0.3571428571428572
 40
0.3571428571428572
 40
0.4285714285714285
 40
0.4285714285714285
 40
0.4285714285714285
 40
0.4285714285714285
 40
0.5
 40
0.5
 40
0.5
 40
0.5
 40
0.5714285714285714
 40
0.5714285714285714
 40
0.5714285714285714
 40
0.5714285714285714
 40
0.6428571428571429
 40
0.6428571428571429
 40
0.6428571428571429
 40
0.6428571428571429
 40
0.7142857142857143
 40
0.7142857142857143
 40
0.7142857142857143
 40
0.7142857142857143
 40
0.7857142857142857
 40
0.7857142857142857
 40
0.7857142857142857
 40
0.7857142857142857
 40
0.8571428571428571
 40
0.8571428571428571
 40
0.8571428571428571
 40
0.8571428571428571
 40
1.0
 40
1.0
 40
1.0
 40
1.0
 10
-44.72322
 20
-22.0594
 30
0.0
 10
-44.72322
 20
-22.0594
 30
0.0
 10
-44.72322
 20
-22.0594
 30
0.0
 10
-44.72322
 20
-22.0594
 30
0.0
 10
-44.72322
 20
-22.0594
 30
0.0
 10
-44.73909
 20
-22.07494
 30
0.0
 10
-44.7567
 20
-22.08889
 30
0.0
 10
-44.77536
 20
-22.10147
 30
0.0
 10
-44.77536
 20
-22.10147
 30
0.0
 10
-44.81542
 20
-22.17712
 30
0.0
 10
-44.85063
 20
-22.25553
 30
0.0
 10
-44.87873
 20
-22.33821
 30
0.0
 10
-44.87873
 20
-22.33821
 30
0.0
 10
-44.76926
 20
-22.32536
 30
0.0
 10
-44.65576
 20
-22.29797
 30
0.0
 10
-44.54539
 20
-22.2577
 30
0.0
 10
-44.54539
 20
-22.2577
 30
0.0
 10
-44.54487
 20
-22.25591
 30
0.0
 10
-44.54425
 20
-22.25415
 30
0.0
 10
-44.54367
 20
-22.25226
 30
0.0
 10
-44.54367
 20
-22.25226
 30
0.0
 10
-44.53919
 20
-22.23744
 30
0.0
 10
-44.51931
 20
-22.23524
 30
0.0
 10
-44.51038
 20
-22.24423
 30
0.0
 10
-44.51038
 20
-22.24423
 30
0.0
 10
-44.288
 20
-22.15697
 30
0.0
 10
-44.08158
 20
-22.0171
 30
0.0
 10
-43.95156
 20
-21.83561
 30
0.0
 10
-43.95156
 20
-21.83561
 30
0.0
 10
-43.94446
 20
-21.82572
 30
0.0
 10
-43.93499
 20
-21.82086
 30
0.0
 10
-43.92534
 20
-21.81966
 30
0.0
 10
-43.92534
 20
-21.81966
 30
0.0
 10
-43.90804
 20
-21.69281
 30
0.0
 10
-43.87125
 20
-21.56872
 30
0.0
 10
-43.81461
 20
-21.46278
 30
0.0
 10
-43.81461
 20
-21.46278
 30
0.0
 10
-43.86495
 20
-21.48858
 30
0.0
 10
-43.91511
 20
-21.51146
 30
0.0
 10
-43.96368
 20
-21.53123
 30
0.0
 10
-43.96368
 20
-21.53123
 30
0.0
 10
-44.11709
 20
-21.59355
 30
0.0
 10
-44.29686
 20
-21.63986
 30
0.0
 10
-44.46739
 20
-21.63224
 30
0.0
 10
-44.46739
 20
-21.63224
 30
0.0
 10
-44.55744
 20
-21.75699
 30
0.0
 10
-44.64723
 20
-21.88067
 30
0.0
 10
-44.72464
 20
-22.01127
 30
0.0
 10
-44.72464
 20
-22.01127
 30
0.0
 10
-44.71214
 20
-22.02337
 30
0.0
 10
-44.70783
 20
-22.04428
 30
0.0
 10
-44.72322
 20
-22.0594
 30
0.0
  0
SPLINE
  5
7C
330
1F
100
AcDbEntity
  8
Layer 1
370
     9
100
AcDbSpline
210
0.0
220
0.0
230
1.0
 70
    11
 71
     3
 72
    44
 73
    40
 74
     0
 42
0.000000001
 43
0.0000000001
 40
0.0
 40
0.0
 40
0.0
 40
0.0
 40
0.0909090909090909
 40
0.0909090909090909
 40
0.0909090909090909
 40
0.0909090909090909
 40
0.1818181818181818
 40
0.1818181818181818
 40
0.1818181818181818
 40
0.1818181818181818
 40
0.2727272727272727
 40
0.2727272727272727
 40
0.2727272727272727
 40
0.2727272727272727
 40
0.3636363636363636
 40
0.3636363636363636
 40
0.3636363636363636
 40
0.3636363636363636
 40
0.4545454545454545
 40
0.4545454545454545
 40
0.4545454545454545
 40
0.4545454545454545
 40
0.5454545454545454
 40
0.5454545454545454
 40
0.5454545454545454
 40
0.5454545454545454
 40
0.6363636363636364
 40
0.6363636363636364
 40
0.6363636363636364
 40
0.6363636363636364
 40
0.7272727272727273
 40
0.7272727272727273
 40
0.7272727272727273
 40
0.7272727272727273
 40
0.8181818181818182
 40
0.8181818181818182
 40
0.8181818181818182
 40
0.8181818181818182
 40
1.0
 40
1.0
 40
1.0
 40
1.0
 10
-43.60222
 20
-20.84056
 30
0.0
 10
-43.60222
 20
-20.84056
 30
0.0
 10
-43.60222
 20
-20.84056
 30
0.0
 10
-43.60222
 20
-20.84056
 30
0.0
 10
-43.60222
 20
-20.84056
 30
0.0
 10
-43.59754
 20
-20.83705
 30
0.0
 10
-43.59327
 20
-20.83309
 30
0.0
 10
-43.58889
 20
-20.82933
 30
0.0
 10
-43.58889
 20
-20.82933
 30
0.0
 10
-43.81937
 20
-20.85165
 30
0.0
 10
-44.04884
 20
-20.9013
 30
0.0
 10
-44.25379
 20
-21.01282
 30
0.0
 10
-44.25379
 20
-21.01282
 30
0.0
 10
-44.45547
 20
-21.12251
 30
0.0
 10
-44.6292
 20
-21.27023
 30
0.0
 10
-44.79234
 20
-21.43008
 30
0.0
 10
-44.79234
 20
-21.43008
 30
0.0
 10
-44.56418
 20
-21.63376
 30
0.0
 10
-44.2035
 20
-21.55738
 30
0.0
 10
-43.94946
 20
-21.43945
 30
0.0
 10
-43.94946
 20
-21.43945
 30
0.0
 10
-43.71157
 20
-21.32894
 30
0.0
 10
-43.44051
 20
-21.15221
 30
0.0
 10
-43.33168
 20
-20.9003
 30
0.0
 10
-43.33168
 20
-20.9003
 30
0.0
 10
-43.33168
 20
-20.9003
 30
0.0
 10
-43.33116
 20
-20.89523
 30
0.0
 10
-43.33116
 20
-20.89523
 30
0.0
 10
-43.33116
 20
-20.89523
 30
0.0
 10
-43.40875
 20
-20.88366
 30
0.0
 10
-43.4863
 20
-20.8634
 30
0.0
 10
-43.56233
 20
-20.83588
 30
0.0
 10
-43.56233
 20
-20.83588
 30
0.0
 10
-43.57304
 20
-20.84056
 30
0.0
 10
-43.58362
 20
-20.84566
 30
0.0
 10
-43.59389
 20
-20.85131
 30
0.0
 10
-43.59389
 20
-20.85131
 30
0.0
 10
-43.6004
 20
-20.85561
 30
0.0
 10
-43.60825
 20
-20.84552
 30
0.0
 10
-43.60222
 20
-20.84056
 30
0.0
  0
SPLINE
  5
7D
330
1F
100
AcDbEntity
  8
Layer 1
370
     9
100
AcDbSpline
210
0.0
220
0.0
230
1.0
 70
    11
 71
     3
 72
    40
 73
    36
 74
     0
 42
0.000000001
 43
0.0000000001
 40
0.0
 40
0.0
 40
0.0
 40
0.0
 40
0.1
 40
0.1
 40
0.1
 40
0.1
 40
0.2
 40
0.2
 40
0.2
 40
0.2
 40
0.3
 40
0.3
 40
0.3
 40
0.3
 40
0.4
 40
0.4
 40
0.4
 40
0.4
 40
0.5
 40
0.5
 40
0.5
 40
0.5
 40
0.6
 40
0.6
 40
0.6
 40
0.6
 40
0.7
 40
0.7
 40
0.7
 40
0.7
 40
0.8
 40
0.8
 40
0.8
 40
0.8
 40
1.0
 40
1.0
 40
1.0
 40
1.0
 10
-43.0794
 20
-21.22458
 30
0.0
 10
-43.0794
 20
-21.22458
 30
0.0
 10
-43.0794
 20
-21.22458
 30
0.0
 10
-43.0794
 20
-21.22458
 30
0.0
 10
-43.0794
 20
-21.22458
 30
0.0
 10
-43.00598
 20
-21.39812
 30
0.0
 10
-42.90818
 20
-21.559
 30
0.0
 10
-42.72645
 20
-21.62046
 30
0.0
 10
-42.72645
 20
-21.62046
 30
0.0
 10
-42.71067
 20
-21.61405
 30
0.0
 10
-42.68965
 20
-21.61867
 30
0.0
 10
-42.67966
 20
-21.63421
 30
0.0
 10
-42.67966
 20
-21.63421
 30
0.0
 10
-42.40505
 20
-21.70183
 30
0.0
 10
-42.09041
 20
-21.58791
 30
0.0
 10
-41.88733
 20
-21.3957
 30
0.0
 10
-41.88733
 20
-21.3957
 30
0.0
 10
-42.21392
 20
-21.16319
 30
0.0
 10
-42.49573
 20
-20.83956
 30
0.0
 10
-42.93174
 20
-20.86802
 30
0.0
 10
-42.93174
 20
-20.86802
 30
0.0
 10
-42.94101
 20
-20.8686
 30
0.0
 10
-42.94848
 20
-20.86657
 30
0.0
 10
-42.95465
 20
-20.86295
 30
0.0
 10
-42.95465
 20
-20.86295
 30
0.0
 10
-43.03196
 20
-20.887
 30
0.0
 10
-43.11364
 20
-20.90398
 30
0.0
 10
-43.19874
 20
-20.91804
 30
0.0
 10
-43.19874
 20
-20.91804
 30
0.0
 10
-43.19729
 20
-20.92145
 30
0.0
 10
-43.19581
 20
-20.925
 30
0.0
 10
-43.19439
 20
-20.92848
 30
0.0
 10
-43.19439
 20
-20.92848
 30
0.0
 10
-43.12529
 20
-21.02456
 30
0.0
 10
-43.08939
 20
-21.12409
 30
0.0
 10
-43.0794
 20
-21.22458
 30
0.0
  0
SPLINE
  5
7E
330
1F
100
AcDbEntity
  8
Layer 1
370
     9
100
AcDbSpline
210
0.0
220
0.0
230
1.0
 70
    11
 71
     3
 72
    40
 73
    36
 74
     0
 42
0.000000001
 43
0.0000000001
 40
0.0
 40
0.0
 40
0.0
 40
0.0
 40
0.1
 40
0.1
 40
0.1
 40
0.1
 40
0.2
 40
0.2
 40
0.2
 40
0.2
 40
0.3
 40
0.3
 40
0.3
 40
0.3
 40
0.4
 40
0.4
 40
0.4
 40
0.4
 40
0.5
 40
0.5
 40
0.5
 40
0.5
 40
0.6
 40
0.6
 40
0.6
 40
0.6
 40
0.7
 40
0.7
 40
0.7
 40
0.7
 40
0.8
 40
0.8
 40
0.8
 40
0.8
 40
1.0
 40
1.0
 40
1.0
 40
1.0
 10
-42.31286
 20
-21.71461
 30
0.0
 10
-42.31286
 20
-21.71461
 30
0.0
 10
-42.31286
 20
-21.71461
 30
0.0
 10
-42.31286
 20
-21.71461
 30
0.0
 10
-42.31286
 20
-21.71461
 30
0.0
 10
-42.25674
 20
-21.84498
 30
0.0
 10
-42.23828
 20
-21.98705
 30
0.0
 10
-42.21461
 20
-22.12641
 30
0.0
 10
-42.21461
 20
-22.12641
 30
0.0
 10
-42.20875
 20
-22.161
 30
0.0
 10
-42.2029
 20
-22.19662
 30
0.0
 10
-42.19607
 20
-22.23245
 30
0.0
 10
-42.19607
 20
-22.23245
 30
0.0
 10
-42.18571
 20
-22.21722
 30
0.0
 10
-42.16638
 20
-22.20909
 30
0.0
 10
-42.14464
 20
-22.22201
 30
0.0
 10
-42.14464
 20
-22.22201
 30
0.0
 10
-41.97304
 20
-22.32378
 30
0.0
 10
-41.72878
 20
-22.35651
 30
0.0
 10
-41.52821
 20
-22.32667
 30
0.0
 10
-41.52821
 20
-22.32667
 30
0.0
 10
-41.56769
 20
-22.17726
 30
0.0
 10
-41.63456
 20
-22.03067
 30
0.0
 10
-41.70859
 20
-21.89683
 30
0.0
 10
-41.70859
 20
-21.89683
 30
0.0
 10
-41.75407
 20
-21.81456
 30
0.0
 10
-41.80485
 20
-21.72857
 30
0.0
 10
-41.87502
 20
-21.66463
 30
0.0
 10
-41.87502
 20
-21.66463
 30
0.0
 10
-41.93156
 20
-21.61316
 30
0.0
 10
-41.97841
 20
-21.59851
 30
0.0
 10
-42.04191
 20
-21.60916
 30
0.0
 10
-42.04191
 20
-21.60916
 30
0.0
 10
-42.12659
 20
-21.65577
 30
0.0
 10
-42.21878
 20
-21.69253
 30
0.0
 10
-42.31286
 20
-21.71461
 30
0.0
  0
SPLINE
  5
7F
330
1F
100
AcDbEntity
  8
Layer 1
370
     9
100
AcDbSpline
210
0.0
220
0.0
230
1.0
 70
    11
 71
     3
 72
    32
 73
    28
 74
     0
 42
0.000000001
 43
0.0000000001
 40
0.0
 40
0.0
 40
0.0
 40
0.0
 40
0.125
 40
0.125
 40
0.125
 40
0.125
 40
0.25
 40
0.25
 40
0.25
 40
0.25
 40
0.375
 40
0.375
 40
0.375
 40
0.375
 40
0.5
 40
0.5
 40
0.5
 40
0.5
 40
0.625
 40
0.625
 40
0.625
 40
0.625
 40
0.75
 40
0.75
 40
0.75
 40
0.75
 40
1.0
 40
1.0
 40
1.0
 40
1.0
 10
-41.04948
 20
-21.02105
 30
0.0
 10
-41.04948
 20
-21.02105
 30
0.0
 10
-41.04948
 20
-21.02105
 30
0.0
 10
-41.04948
 20
-21.02105
 30
0.0
 10
-41.04948
 20
-21.02105
 30
0.0
 10
-41.13819
 20
-20.89461
 30
0.0
 10
-41.25925
 20
-20.77844
 30
0.0
 10
-41.40525
 20
-20.72394
 30
0.0
 10
-41.40525
 20
-20.72394
 30
0.0
 10
-41.53689
 20
-20.67489
 30
0.0
 10
-41.65275
 20
-20.67906
 30
0.0
 10
-41.78104
 20
-20.69969
 30
0.0
 10
-41.78104
 20
-20.69969
 30
0.0
 10
-41.91744
 20
-20.83067
 30
0.0
 10
-42.07326
 20
-20.94099
 30
0.0
 10
-42.24451
 20
-21.01843
 30
0.0
 10
-42.24451
 20
-21.01843
 30
0.0
 10
-42.13427
 20
-21.09743
 30
0.0
 10
-42.02792
 20
-21.18645
 30
0.0
 10
-41.91768
 20
-21.26985
 30
0.0
 10
-41.91768
 20
-21.26985
 30
0.0
 10
-41.91323
 20
-21.2682
 30
0.0
 10
-41.90851
 20
-21.26713
 30
0.0
 10
-41.903
 20
-21.267
 30
0.0
 10
-41.903
 20
-21.267
 30
0.0
 10
-41.61737
 20
-21.26193
 30
0.0
 10
-41.26883
 20
-21.22524
 30
0.0
 10
-41.04948
 20
-21.02105
 30
0.0
  0
SPLINE
  5
80
330
1F
100
AcDbEntity
  8
Layer 1
370
     9
100
AcDbSpline
210
0.0
220
0.0
230
1.0
 70
    11
 71
     3
 72
    36
 73
    32
 74
     0
 42
0.000000001
 43
0.0000000001
 40
0.0
 40
0.0
 40
0.0
 40
0.0
 40
0.1111111111111111
 40
0.1111111111111111
 40
0.1111111111111111
 40
0.1111111111111111
 40
0.2222222222222222
 40
0.2222222222222222
 40
0.2222222222222222
 40
0.2222222222222222
 40
0.3333333333333333
 40
0.3333333333333333
 40
0.3333333333333333
 40
0.3333333333333333
 40
0.4444444444444444
 40
0.4444444444444444
 40
0.4444444444444444
 40
0.4444444444444444
 40
0.5555555555555556
 40
0.5555555555555556
 40
0.5555555555555556
 40
0.5555555555555556
 40
0.6666666666666666
 40
0.6666666666666666
 40
0.6666666666666666
 40
0.6666666666666666
 40
0.7777777777777778
 40
0.7777777777777778
 40
0.7777777777777778
 40
0.7777777777777778
 40
1.0
 40
1.0
 40
1.0
 40
1.0
 10
-41.56493
 20
-20.30323
 30
0.0
 10
-41.56493
 20
-20.30323
 30
0.0
 10
-41.56493
 20
-20.30323
 30
0.0
 10
-41.56493
 20
-20.30323
 30
0.0
 10
-41.56493
 20
-20.30323
 30
0.0
 10
-41.69963
 20
-20.25731
 30
0.0
 10
-41.83847
 20
-20.21593
 30
0.0
 10
-41.97979
 20
-20.20112
 30
0.0
 10
-41.97979
 20
-20.20112
 30
0.0
 10
-42.05851
 20
-20.19295
 30
0.0
 10
-42.1415
 20
-20.18747
 30
0.0
 10
-42.21981
 20
-20.20266
 30
0.0
 10
-42.21981
 20
-20.20266
 30
0.0
 10
-42.27008
 20
-20.21245
 30
0.0
 10
-42.32451
 20
-20.24614
 30
0.0
 10
-42.37508
 20
-20.24621
 30
0.0
 10
-42.37508
 20
-20.24621
 30
0.0
 10
-42.40881
 20
-20.3599
 30
0.0
 10
-42.45552
 20
-20.46942
 30
0.0
 10
-42.53073
 20
-20.57177
 30
0.0
 10
-42.53073
 20
-20.57177
 30
0.0
 10
-42.60149
 20
-20.66793
 30
0.0
 10
-42.68318
 20
-20.73621
 30
0.0
 10
-42.77351
 20
-20.78661
 30
0.0
 10
-42.77351
 20
-20.78661
 30
0.0
 10
-42.60759
 20
-20.80621
 30
0.0
 10
-42.46372
 20
-20.87363
 30
0.0
 10
-42.32837
 20
-20.96117
 30
0.0
 10
-42.32837
 20
-20.96117
 30
0.0
 10
-42.01531
 20
-20.83481
 30
0.0
 10
-41.74911
 20
-20.58438
 30
0.0
 10
-41.56493
 20
-20.30323
 30
0.0
  0
SPLINE
  5
81
330
1F
100
AcDbEntity
  8
Layer 1
370
     9
100
AcDbSpline
210
0.0
220
0.0
230
1.0
 70
    11
 71
     3
 72
    40
 73
    36
 74
     0
 42
0.000000001
 43
0.0000000001
 40
0.0
 40
0.0
 40
0.0
 40
0.0
 40
0.1
 40
0.1
 40
0.1
 40
0.1
 40
0.2
 40
0.2
 40
0.2
 40
0.2
 40
0.3
 40
0.3
 40
0.3
 40
0.3
 40
0.4
 40
0.4
 40
0.4
 40
0.4
 40
0.5
 40
0.5
 40
0.5
 40
0.5
 40
0.6
 40
0.6
 40
0.6
 40
0.6
 40
0.7
 40
0.7
 40
0.7
 40
0.7
 40
0.8
 40
0.8
 40
0.8
 40
0.8
 40
1.0
 40
1.0
 40
1.0
 40
1.0
 10
-41.08816
 20
-19.57466
 30
0.0
 10
-41.08816
 20
-19.57466
 30
0.0
 10
-41.08816
 20
-19.57466
 30
0.0
 10
-41.08816
 20
-19.57466
 30
0.0
 10
-41.08816
 20
-19.57466
 30
0.0
 10
-41.28374
 20
-19.47451
 30
0.0
 10
-41.5014
 20
-19.48209
 30
0.0
 10
-41.71455
 20
-19.51926
 30
0.0
 10
-41.71455
 20
-19.51926
 30
0.0
 10
-41.72272
 20
-19.52067
 30
0.0
 10
-41.72971
 20
-19.51899
 30
0.0
 10
-41.73505
 20
-19.51544
 30
0.0
 10
-41.73505
 20
-19.51544
 30
0.0
 10
-41.87106
 20
-19.72053
 30
0.0
 10
-42.07377
 20
-19.88213
 30
0.0
 10
-42.30897
 20
-19.95386
 30
0.0
 10
-42.30897
 20
-19.95386
 30
0.0
 10
-42.32399
 20
-20.03324
 30
0.0
 10
-42.33922
 20
-20.11185
 30
0.0
 10
-42.35906
 20
-20.18875
 30
0.0
 10
-42.35906
 20
-20.18875
 30
0.0
 10
-42.2781
 20
-20.12081
 30
0.0
 10
-42.08559
 20
-20.12391
 30
0.0
 10
-42.00863
 20
-20.1296
 30
0.0
 10
-42.00863
 20
-20.1296
 30
0.0
 10
-41.90365
 20
-20.13728
 30
0.0
 10
-41.80051
 20
-20.15592
 30
0.0
 10
-41.69871
 20
-20.18055
 30
0.0
 10
-41.69871
 20
-20.18055
 30
0.0
 10
-41.69678
 20
-20.17979
 30
0.0
 10
-41.69488
 20
-20.17897
 30
0.0
 10
-41.69268
 20
-20.17841
 30
0.0
 10
-41.69268
 20
-20.17841
 30
0.0
 10
-41.41607
 20
-20.10931
 30
0.0
 10
-41.18652
 20
-19.83745
 30
0.0
 10
-41.08816
 20
-19.57466
 30
0.0
  0
SPLINE
  5
82
330
1F
100
AcDbEntity
  8
Layer 1
370
     9
100
AcDbSpline
210
0.0
220
0.0
230
1.0
 70
    11
 71
     3
 72
    44
 73
    40
 74
     0
 42
0.000000001
 43
0.0000000001
 40
0.0
 40
0.0
 40
0.0
 40
0.0
 40
0.0909090909090909
 40
0.0909090909090909
 40
0.0909090909090909
 40
0.0909090909090909
 40
0.1818181818181818
 40
0.1818181818181818
 40
0.1818181818181818
 40
0.1818181818181818
 40
0.2727272727272727
 40
0.2727272727272727
 40
0.2727272727272727
 40
0.2727272727272727
 40
0.3636363636363636
 40
0.3636363636363636
 40
0.3636363636363636
 40
0.3636363636363636
 40
0.4545454545454545
 40
0.4545454545454545
 40
0.4545454545454545
 40
0.4545454545454545
 40
0.5454545454545454
 40
0.5454545454545454
 40
0.5454545454545454
 40
0.5454545454545454
 40
0.6363636363636364
 40
0.6363636363636364
 40
0.6363636363636364
 40
0.6363636363636364
 40
0.7272727272727273
 40
0.7272727272727273
 40
0.7272727272727273
 40
0.7272727272727273
 40
0.8181818181818182
 40
0.8181818181818182
 40
0.8181818181818182
 40
0.8181818181818182
 40
1.0
 40
1.0
 40
1.0
 40
1.0
 10
-41.64469
 20
-19.0817
 30
0.0
 10
-41.64469
 20
-19.0817
 30
0.0
 10
-41.64469
 20
-19.0817
 30
0.0
 10
-41.64469
 20
-19.0817
 30
0.0
 10
-41.64469
 20
-19.0817
 30
0.0
 10
-41.7448
 20
-19.06282
 30
0.0
 10
-41.84909
 20
-19.05379
 30
0.0
 10
-41.95175
 20
-19.05931
 30
0.0
 10
-41.95175
 20
-19.05931
 30
0.0
 10
-41.96732
 20
-19.07722
 30
0.0
 10
-41.99119
 20
-19.07567
 30
0.0
 10
-42.00801
 20
-19.06399
 30
0.0
 10
-42.00801
 20
-19.06399
 30
0.0
 10
-42.1549
 20
-19.08001
 30
0.0
 10
-42.29609
 20
-19.12845
 30
0.0
 10
-42.41394
 20
-19.22509
 30
0.0
 10
-42.41394
 20
-19.22509
 30
0.0
 10
-42.4179
 20
-19.22836
 30
0.0
 10
-42.42211
 20
-19.22957
 30
0.0
 10
-42.42614
 20
-19.22974
 30
0.0
 10
-42.42614
 20
-19.22974
 30
0.0
 10
-42.45394
 20
-19.44519
 30
0.0
 10
-42.51964
 20
-19.65931
 30
0.0
 10
-42.63556
 20
-19.84079
 30
0.0
 10
-42.63556
 20
-19.84079
 30
0.0
 10
-42.53369
 20
-19.79118
 30
0.0
 10
-42.42924
 20
-19.74605
 30
0.0
 10
-42.32675
 20
-19.7013
 30
0.0
 10
-42.32675
 20
-19.7013
 30
0.0
 10
-42.29478
 20
-19.68728
 30
0.0
 10
-42.25939
 20
-19.70981
 30
0.0
 10
-42.26763
 20
-19.74671
 30
0.0
 10
-42.26763
 20
-19.74671
 30
0.0
 10
-42.27648
 20
-19.78578
 30
0.0
 10
-42.28434
 20
-19.82488
 30
0.0
 10
-42.29192
 20
-19.86384
 30
0.0
 10
-42.29192
 20
-19.86384
 30
0.0
 10
-41.96288
 20
-19.74499
 30
0.0
 10
-41.7015
 20
-19.42642
 30
0.0
 10
-41.64469
 20
-19.0817
 30
0.0
  0
SPLINE
  5
83
330
1F
100
AcDbEntity
  8
Layer 1
370
     9
100
AcDbSpline
210
0.0
220
0.0
230
1.0
 70
    11
 71
     3
 72
    36
 73
    32
 74
     0
 42
0.000000001
 43
0.0000000001
 40
0.0
 40
0.0
 40
0.0
 40
0.0
 40
0.1111111111111111
 40
0.1111111111111111
 40
0.1111111111111111
 40
0.1111111111111111
 40
0.2222222222222222
 40
0.2222222222222222
 40
0.2222222222222222
 40
0.2222222222222222
 40
0.3333333333333333
 40
0.3333333333333333
 40
0.3333333333333333
 40
0.3333333333333333
 40
0.4444444444444444
 40
0.4444444444444444
 40
0.4444444444444444
 40
0.4444444444444444
 40
0.5555555555555556
 40
0.5555555555555556
 40
0.5555555555555556
 40
0.5555555555555556
 40
0.6666666666666666
 40
0.6666666666666666
 40
0.6666666666666666
 40
0.6666666666666666
 40
0.7777777777777778
 40
0.7777777777777778
 40
0.7777777777777778
 40
0.7777777777777778
 40
1.0
 40
1.0
 40
1.0
 40
1.0
 10
-41.90489
 20
-18.46437
 30
0.0
 10
-41.90489
 20
-18.46437
 30
0.0
 10
-41.90489
 20
-18.46437
 30
0.0
 10
-41.90489
 20
-18.46437
 30
0.0
 10
-41.90489
 20
-18.46437
 30
0.0
 10
-42.10282
 20
-18.45683
 30
0.0
 10
-42.28613
 20
-18.48095
 30
0.0
 10
-42.44819
 20
-18.59946
 30
0.0
 10
-42.44819
 20
-18.59946
 30
0.0
 10
-42.50458
 20
-18.75318
 30
0.0
 10
-42.57738
 20
-18.90149
 30
0.0
 10
-42.66567
 20
-19.04377
 30
0.0
 10
-42.66567
 20
-19.04377
 30
0.0
 10
-42.59846
 20
-19.00688
 30
0.0
 10
-42.52801
 20
-18.97662
 30
0.0
 10
-42.45756
 20
-18.95358
 30
0.0
 10
-42.45756
 20
-18.95358
 30
0.0
 10
-42.43437
 20
-18.946
 30
0.0
 10
-42.41012
 20
-18.96622
 30
0.0
 10
-42.41022
 20
-18.98965
 30
0.0
 10
-42.41022
 20
-18.98965
 30
0.0
 10
-42.41053
 20
-19.05125
 30
0.0
 10
-42.4138
 20
-19.11374
 30
0.0
 10
-42.42007
 20
-19.17627
 30
0.0
 10
-42.42007
 20
-19.17627
 30
0.0
 10
-42.3089
 20
-19.0663
 30
0.0
 10
-42.16458
 20
-19.01166
 30
0.0
 10
-42.01231
 20
-18.99213
 30
0.0
 10
-42.01231
 20
-18.99213
 30
0.0
 10
-41.92088
 20
-18.82384
 30
0.0
 10
-41.90862
 20
-18.65127
 30
0.0
 10
-41.90489
 20
-18.46437
 30
0.0
  0
SPLINE
  5
84
330
1F
100
AcDbEntity
  8
Layer 1
370
     9
100
AcDbSpline
210
0.0
220
0.0
230
1.0
 70
    11
 71
     3
 72
    52
 73
    48
 74
     0
 42
0.000000001
 43
0.0000000001
 40
0.0
 40
0.0
 40
0.0
 40
0.0
 40
0.0769230769230769
 40
0.0769230769230769
 40
0.0769230769230769
 40
0.0769230769230769
 40
0.1538461538461539
 40
0.1538461538461539
 40
0.1538461538461539
 40
0.1538461538461539
 40
0.2307692307692308
 40
0.2307692307692308
 40
0.2307692307692308
 40
0.2307692307692308
 40
0.3076923076923077
 40
0.3076923076923077
 40
0.3076923076923077
 40
0.3076923076923077
 40
0.3846153846153846
 40
0.3846153846153846
 40
0.3846153846153846
 40
0.3846153846153846
 40
0.4615384615384616
 40
0.4615384615384616
 40
0.4615384615384616
 40
0.4615384615384616
 40
0.5384615384615384
 40
0.5384615384615384
 40
0.5384615384615384
 40
0.5384615384615384
 40
0.6153846153846154
 40
0.6153846153846154
 40
0.6153846153846154
 40
0.6153846153846154
 40
0.6923076923076923
 40
0.6923076923076923
 40
0.6923076923076923
 40
0.6923076923076923
 40
0.7692307692307693
 40
0.7692307692307693
 40
0.7692307692307693
 40
0.7692307692307693
 40
0.8461538461538461
 40
0.8461538461538461
 40
0.8461538461538461
 40
0.8461538461538461
 40
1.0
 40
1.0
 40
1.0
 40
1.0
 10
-43.13097
 20
-20.2551
 30
0.0
 10
-43.13097
 20
-20.2551
 30
0.0
 10
-43.13097
 20
-20.2551
 30
0.0
 10
-43.13097
 20
-20.2551
 30
0.0
 10
-43.13097
 20
-20.2551
 30
0.0
 10
-43.17052
 20
-20.33107
 30
0.0
 10
-43.21003
 20
-20.40824
 30
0.0
 10
-43.23656
 20
-20.49285
 30
0.0
 10
-43.23656
 20
-20.49285
 30
0.0
 10
-43.24228
 20
-20.51093
 30
0.0
 10
-43.25634
 20
-20.51941
 30
0.0
 10
-43.27095
 20
-20.52041
 30
0.0
 10
-43.27095
 20
-20.52041
 30
0.0
 10
-43.24528
 20
-20.62228
 30
0.0
 10
-43.2368
 20
-20.72887
 30
0.0
 10
-43.24514
 20
-20.8376
 30
0.0
 10
-43.24514
 20
-20.8376
 30
0.0
 10
-43.24352
 20
-20.83901
 30
0.0
 10
-43.24204
 20
-20.8406
 30
0.0
 10
-43.24073
 20
-20.84232
 30
0.0
 10
-43.24073
 20
-20.84232
 30
0.0
 10
-42.96667
 20
-20.79843
 30
0.0
 10
-42.72645
 20
-20.72935
 30
0.0
 10
-42.5657
 20
-20.47807
 30
0.0
 10
-42.5657
 20
-20.47807
 30
0.0
 10
-42.43423
 20
-20.27267
 30
0.0
 10
-42.40922
 20
-20.03537
 30
0.0
 10
-42.36185
 20
-19.80221
 30
0.0
 10
-42.36185
 20
-19.80221
 30
0.0
 10
-42.48467
 20
-19.85289
 30
0.0
 10
-42.60828
 20
-19.90353
 30
0.0
 10
-42.72676
 20
-19.96392
 30
0.0
 10
-42.72676
 20
-19.96392
 30
0.0
 10
-42.73254
 20
-19.97067
 30
0.0
 10
-42.73799
 20
-19.9777
 30
0.0
 10
-42.74395
 20
-19.98432
 30
0.0
 10
-42.74395
 20
-19.98432
 30
0.0
 10
-42.75576
 20
-19.99748
 30
0.0
 10
-42.77023
 20
-19.99872
 30
0.0
 10
-42.78229
 20
-19.99327
 30
0.0
 10
-42.78229
 20
-19.99327
 30
0.0
 10
-42.81516
 20
-20.01129
 30
0.0
 10
-42.84768
 20
-20.0299
 30
0.0
 10
-42.87944
 20
-20.05001
 30
0.0
 10
-42.87944
 20
-20.05001
 30
0.0
 10
-42.97346
 20
-20.10934
 30
0.0
 10
-43.05642
 20
-20.178
 30
0.0
 10
-43.13097
 20
-20.2551
 30
0.0
  0
SPLINE
  5
85
330
1F
100
AcDbEntity
  8
Layer 1
370
     9
100
AcDbSpline
210
0.0
220
0.0
230
1.0
 70
    11
 71
     3
 72
    52
 73
    48
 74
     0
 42
0.000000001
 43
0.0000000001
 40
0.0
 40
0.0
 40
0.0
 40
0.0
 40
0.0769230769230769
 40
0.0769230769230769
 40
0.0769230769230769
 40
0.0769230769230769
 40
0.1538461538461539
 40
0.1538461538461539
 40
0.1538461538461539
 40
0.1538461538461539
 40
0.2307692307692308
 40
0.2307692307692308
 40
0.2307692307692308
 40
0.2307692307692308
 40
0.3076923076923077
 40
0.3076923076923077
 40
0.3076923076923077
 40
0.3076923076923077
 40
0.3846153846153846
 40
0.3846153846153846
 40
0.3846153846153846
 40
0.3846153846153846
 40
0.4615384615384616
 40
0.4615384615384616
 40
0.4615384615384616
 40
0.4615384615384616
 40
0.5384615384615384
 40
0.5384615384615384
 40
0.5384615384615384
 40
0.5384615384615384
 40
0.6153846153846154
 40
0.6153846153846154
 40
0.6153846153846154
 40
0.6153846153846154
 40
0.6923076923076923
 40
0.6923076923076923
 40
0.6923076923076923
 40
0.6923076923076923
 40
0.7692307692307693
 40
0.7692307692307693
 40
0.7692307692307693
 40
0.7692307692307693
 40
0.8461538461538461
 40
0.8461538461538461
 40
0.8461538461538461
 40
0.8461538461538461
 40
1.0
 40
1.0
 40
1.0
 40
1.0
 10
-43.07402
 20
-19.82453
 30
0.0
 10
-43.07402
 20
-19.82453
 30
0.0
 10
-43.07402
 20
-19.82453
 30
0.0
 10
-43.07402
 20
-19.82453
 30
0.0
 10
-43.07402
 20
-19.82453
 30
0.0
 10
-43.09345
 20
-19.57466
 30
0.0
 10
-43.24218
 20
-19.36623
 30
0.0
 10
-43.36403
 20
-19.15463
 30
0.0
 10
-43.36403
 20
-19.15463
 30
0.0
 10
-43.49012
 20
-19.29027
 30
0.0
 10
-43.56533
 20
-19.47909
 30
0.0
 10
-43.61442
 20
-19.65365
 30
0.0
 10
-43.61442
 20
-19.65365
 30
0.0
 10
-43.63419
 20
-19.72387
 30
0.0
 10
-43.64611
 20
-19.79222
 30
0.0
 10
-43.65425
 20
-19.86446
 30
0.0
 10
-43.65425
 20
-19.86446
 30
0.0
 10
-43.65762
 20
-19.89502
 30
0.0
 10
-43.6621
 20
-19.92554
 30
0.0
 10
-43.66369
 20
-19.95627
 30
0.0
 10
-43.66369
 20
-19.95627
 30
0.0
 10
-43.66403
 20
-19.9634
 30
0.0
 10
-43.66492
 20
-19.97071
 30
0.0
 10
-43.66541
 20
-19.97746
 30
0.0
 10
-43.66541
 20
-19.97746
 30
0.0
 10
-43.65628
 20
-19.9828
 30
0.0
 10
-43.64729
 20
-19.98855
 30
0.0
 10
-43.63836
 20
-19.99421
 30
0.0
 10
-43.63836
 20
-19.99421
 30
0.0
 10
-43.63637
 20
-19.99386
 30
0.0
 10
-43.63471
 20
-19.995
 30
0.0
 10
-43.63406
 20
-19.99689
 30
0.0
 10
-43.63406
 20
-19.99689
 30
0.0
 10
-43.58193
 20
-20.03017
 30
0.0
 10
-43.53332
 20
-20.06872
 30
0.0
 10
-43.49029
 20
-20.11589
 30
0.0
 10
-43.49029
 20
-20.11589
 30
0.0
 10
-43.40706
 20
-20.20691
 30
0.0
 10
-43.34539
 20
-20.30833
 30
0.0
 10
-43.30405
 20
-20.4164
 30
0.0
 10
-43.30405
 20
-20.4164
 30
0.0
 10
-43.29031
 20
-20.38925
 30
0.0
 10
-43.27539
 20
-20.36324
 30
0.0
 10
-43.25954
 20
-20.3382
 30
0.0
 10
-43.25954
 20
-20.3382
 30
0.0
 10
-43.17831
 20
-20.1718
 30
0.0
 10
-43.05928
 20
-20.01436
 30
0.0
 10
-43.07402
 20
-19.82453
 30
0.0
  0
SPLINE
  5
86
330
1F
100
AcDbEntity
  8
Layer 1
370
     9
100
AcDbSpline
210
0.0
220
0.0
230
1.0
 70
    11
 71
     3
 72
    48
 73
    44
 74
     0
 42
0.000000001
 43
0.0000000001
 40
0.0
 40
0.0
 40
0.0
 40
0.0
 40
0.0833333333333333
 40
0.0833333333333333
 40
0.0833333333333333
 40
0.0833333333333333
 40
0.1666666666666667
 40
0.1666666666666667
 40
0.1666666666666667
 40
0.1666666666666667
 40
0.25
 40
0.25
 40
0.25
 40
0.25
 40
0.3333333333333333
 40
0.3333333333333333
 40
0.3333333333333333
 40
0.3333333333333333
 40
0.4166666666666667
 40
0.4166666666666667
 40
0.4166666666666667
 40
0.4166666666666667
 40
0.5
 40
0.5
 40
0.5
 40
0.5
 40
0.5833333333333334
 40
0.5833333333333334
 40
0.5833333333333334
 40
0.5833333333333334
 40
0.6666666666666666
 40
0.6666666666666666
 40
0.6666666666666666
 40
0.6666666666666666
 40
0.75
 40
0.75
 40
0.75
 40
0.75
 40
0.8333333333333334
 40
0.8333333333333334
 40
0.8333333333333334
 40
0.8333333333333334
 40
1.0
 40
1.0
 40
1.0
 40
1.0
 10
-43.1997
 20
-19.27594
 30
0.0
 10
-43.1997
 20
-19.27594
 30
0.0
 10
-43.1997
 20
-19.27594
 30
0.0
 10
-43.1997
 20
-19.27594
 30
0.0
 10
-43.1997
 20
-19.27594
 30
0.0
 10
-43.11292
 20
-19.08294
 30
0.0
 10
-43.06138
 20
-18.87045
 30
0.0
 10
-43.12504
 20
-18.66202
 30
0.0
 10
-43.12504
 20
-18.66202
 30
0.0
 10
-43.18137
 20
-18.4776
 30
0.0
 10
-43.29058
 20
-18.31627
 30
0.0
 10
-43.40031
 20
-18.15935
 30
0.0
 10
-43.40031
 20
-18.15935
 30
0.0
 10
-43.41285
 20
-18.1723
 30
0.0
 10
-43.42511
 20
-18.18536
 30
0.0
 10
-43.43717
 20
-18.19841
 30
0.0
 10
-43.43717
 20
-18.19841
 30
0.0
 10
-43.43724
 20
-18.19996
 30
0.0
 10
-43.43724
 20
-18.20148
 30
0.0
 10
-43.43734
 20
-18.20306
 30
0.0
 10
-43.43734
 20
-18.20306
 30
0.0
 10
-43.43899
 20
-18.22618
 30
0.0
 10
-43.45653
 20
-18.23865
 30
0.0
 10
-43.47465
 20
-18.24031
 30
0.0
 10
-43.47465
 20
-18.24031
 30
0.0
 10
-43.64539
 20
-18.43723
 30
0.0
 10
-43.75973
 20
-18.65372
 30
0.0
 10
-43.80087
 20
-18.92071
 30
0.0
 10
-43.80087
 20
-18.92071
 30
0.0
 10
-43.691
 20
-19.0519
 30
0.0
 10
-43.59506
 20
-19.19763
 30
0.0
 10
-43.58172
 20
-19.35731
 30
0.0
 10
-43.58172
 20
-19.35731
 30
0.0
 10
-43.53191
 20
-19.24899
 30
0.0
 10
-43.471
 20
-19.14471
 30
0.0
 10
-43.38298
 20
-19.06296
 30
0.0
 10
-43.38298
 20
-19.06296
 30
0.0
 10
-43.36489
 20
-19.04618
 30
0.0
 10
-43.3343
 20
-19.04815
 30
0.0
 10
-43.32159
 20
-19.07085
 30
0.0
 10
-43.32159
 20
-19.07085
 30
0.0
 10
-43.28379
 20
-19.13868
 30
0.0
 10
-43.24128
 20
-19.20672
 30
0.0
 10
-43.1997
 20
-19.27594
 30
0.0
  0
SPLINE
  5
87
330
1F
100
AcDbEntity
  8
Layer 1
370
     9
100
AcDbSpline
210
0.0
220
0.0
230
1.0
 70
    11
 71
     3
 72
    36
 73
    32
 74
     0
 42
0.000000001
 43
0.0000000001
 40
0.0
 40
0.0
 40
0.0
 40
0.0
 40
0.1111111111111111
 40
0.1111111111111111
 40
0.1111111111111111
 40
0.1111111111111111
 40
0.2222222222222222
 40
0.2222222222222222
 40
0.2222222222222222
 40
0.2222222222222222
 40
0.3333333333333333
 40
0.3333333333333333
 40
0.3333333333333333
 40
0.3333333333333333
 40
0.4444444444444444
 40
0.4444444444444444
 40
0.4444444444444444
 40
0.4444444444444444
 40
0.5555555555555556
 40
0.5555555555555556
 40
0.5555555555555556
 40
0.5555555555555556
 40
0.6666666666666666
 40
0.6666666666666666
 40
0.6666666666666666
 40
0.6666666666666666
 40
0.7777777777777778
 40
0.7777777777777778
 40
0.7777777777777778
 40
0.7777777777777778
 40
1.0
 40
1.0
 40
1.0
 40
1.0
 10
-44.03083
 20
-18.77271
 30
0.0
 10
-44.03083
 20
-18.77271
 30
0.0
 10
-44.03083
 20
-18.77271
 30
0.0
 10
-44.03083
 20
-18.77271
 30
0.0
 10
-44.03083
 20
-18.77271
 30
0.0
 10
-44.09825
 20
-18.90624
 30
0.0
 10
-44.21432
 20
-19.01514
 30
0.0
 10
-44.25445
 20
-19.16073
 30
0.0
 10
-44.25445
 20
-19.16073
 30
0.0
 10
-44.3094
 20
-19.35993
 30
0.0
 10
-44.22613
 20
-19.56557
 30
0.0
 10
-44.20164
 20
-19.7659
 30
0.0
 10
-44.20164
 20
-19.7659
 30
0.0
 10
-44.04127
 20
-19.82898
 30
0.0
 10
-43.86643
 20
-19.87311
 30
0.0
 10
-43.71309
 20
-19.95148
 30
0.0
 10
-43.71309
 20
-19.95148
 30
0.0
 10
-43.71898
 20
-19.89364
 30
0.0
 10
-43.71136
 20
-19.83394
 30
0.0
 10
-43.71068
 20
-19.77637
 30
0.0
 10
-43.71068
 20
-19.77637
 30
0.0
 10
-43.70937
 20
-19.67216
 30
0.0
 10
-43.66455
 20
-19.55075
 30
0.0
 10
-43.62169
 20
-19.44891
 30
0.0
 10
-43.62169
 20
-19.44891
 30
0.0
 10
-43.63926
 20
-19.44785
 30
0.0
 10
-43.65562
 20
-19.43606
 30
0.0
 10
-43.65466
 20
-19.41326
 30
0.0
 10
-43.65466
 20
-19.41326
 30
0.0
 10
-43.64401
 20
-19.16652
 30
0.0
 10
-43.86956
 20
-18.94917
 30
0.0
 10
-44.03083
 20
-18.77271
 30
0.0
  0
SPLINE
  5
88
330
1F
100
AcDbEntity
  8
Layer 1
370
     9
100
AcDbSpline
210
0.0
220
0.0
230
1.0
 70
    11
 71
     3
 72
    28
 73
    24
 74
     0
 42
0.000000001
 43
0.0000000001
 40
0.0
 40
0.0
 40
0.0
 40
0.0
 40
0.1428571428571428
 40
0.1428571428571428
 40
0.1428571428571428
 40
0.1428571428571428
 40
0.2857142857142857
 40
0.2857142857142857
 40
0.2857142857142857
 40
0.2857142857142857
 40
0.4285714285714285
 40
0.4285714285714285
 40
0.4285714285714285
 40
0.4285714285714285
 40
0.5714285714285714
 40
0.5714285714285714
 40
0.5714285714285714
 40
0.5714285714285714
 40
0.7142857142857143
 40
0.7142857142857143
 40
0.7142857142857143
 40
0.7142857142857143
 40
1.0
 40
1.0
 40
1.0
 40
1.0
 10
-44.24236
 20
-19.83476
 30
0.0
 10
-44.24236
 20
-19.83476
 30
0.0
 10
-44.24236
 20
-19.83476
 30
0.0
 10
-44.24236
 20
-19.83476
 30
0.0
 10
-44.24236
 20
-19.83476
 30
0.0
 10
-44.25721
 20
-19.82884
 30
0.0
 10
-44.27205
 20
-19.82274
 30
0.0
 10
-44.28669
 20
-19.81647
 30
0.0
 10
-44.28669
 20
-19.81647
 30
0.0
 10
-44.29527
 20
-20.33858
 30
0.0
 10
-43.79846
 20
-20.72257
 30
0.0
 10
-43.3281
 20
-20.85462
 30
0.0
 10
-43.3281
 20
-20.85462
 30
0.0
 10
-43.31153
 20
-20.57646
 30
0.0
 10
-43.38384
 20
-20.29248
 30
0.0
 10
-43.61542
 20
-20.11109
 30
0.0
 10
-43.61542
 20
-20.11109
 30
0.0
 10
-43.79177
 20
-19.97291
 30
0.0
 10
-44.01581
 20
-19.92237
 30
0.0
 10
-44.22327
 20
-19.8421
 30
0.0
 10
-44.22327
 20
-19.8421
 30
0.0
 10
-44.23051
 20
-19.84234
 30
0.0
 10
-44.23764
 20
-19.83997
 30
0.0
 10
-44.24236
 20
-19.83476
 30
0.0
  0
SPLINE
  5
89
330
1F
100
AcDbEntity
  8
Layer 1
370
     9
100
AcDbSpline
210
0.0
220
0.0
230
1.0
 70
    11
 71
     3
 72
    32
 73
    28
 74
     0
 42
0.000000001
 43
0.0000000001
 40
0.0
 40
0.0
 40
0.0
 40
0.0
 40
0.125
 40
0.125
 40
0.125
 40
0.125
 40
0.25
 40
0.25
 40
0.25
 40
0.25
 40
0.375
 40
0.375
 40
0.375
 40
0.375
 40
0.5
 40
0.5
 40
0.5
 40
0.5
 40
0.625
 40
0.625
 40
0.625
 40
0.625
 40
0.75
 40
0.75
 40
0.75
 40
0.75
 40
1.0
 40
1.0
 40
1.0
 40
1.0
 10
-45.60325
 20
-22.02337
 30
0.0
 10
-45.60325
 20
-22.02337
 30
0.0
 10
-45.60325
 20
-22.02337
 30
0.0
 10
-45.60325
 20
-22.02337
 30
0.0
 10
-45.60325
 20
-22.02337
 30
0.0
 10
-45.3623
 20
-22.16
 30
0.0
 10
-45.06667
 20
-22.1589
 30
0.0
 10
-44.82288
 20
-22.03801
 30
0.0
 10
-44.82288
 20
-22.03801
 30
0.0
 10
-44.74268
 20
-21.89014
 30
0.0
 10
-44.64334
 20
-21.75186
 30
0.0
 10
-44.53295
 20
-21.62645
 30
0.0
 10
-44.53295
 20
-21.62645
 30
0.0
 10
-44.64773
 20
-21.61126
 30
0.0
 10
-44.75613
 20
-21.56827
 30
0.0
 10
-44.84662
 20
-21.48565
 30
0.0
 10
-44.84662
 20
-21.48565
 30
0.0
 10
-44.84312
 20
-21.49933
 30
0.0
 10
-44.85013
 20
-21.51528
 30
0.0
 10
-44.86812
 20
-21.51428
 30
0.0
 10
-44.86812
 20
-21.51428
 30
0.0
 10
-45.03065
 20
-21.50526
 30
0.0
 10
-45.18189
 20
-21.60685
 30
0.0
 10
-45.30225
 20
-21.70628
 30
0.0
 10
-45.30225
 20
-21.70628
 30
0.0
 10
-45.4137
 20
-21.79833
 30
0.0
 10
-45.52211
 20
-21.90255
 30
0.0
 10
-45.60325
 20
-22.02337
 30
0.0
  0
SPLINE
  5
8A
330
1F
100
AcDbEntity
  8
Layer 1
370
     9
100
AcDbSpline
210
0.0
220
0.0
230
1.0
 70
    11
 71
     3
 72
    40
 73
    36
 74
     0
 42
0.000000001
 43
0.0000000001
 40
0.0
 40
0.0
 40
0.0
 40
0.0
 40
0.1
 40
0.1
 40
0.1
 40
0.1
 40
0.2
 40
0.2
 40
0.2
 40
0.2
 40
0.3
 40
0.3
 40
0.3
 40
0.3
 40
0.4
 40
0.4
 40
0.4
 40
0.4
 40
0.5
 40
0.5
 40
0.5
 40
0.5
 40
0.6
 40
0.6
 40
0.6
 40
0.6
 40
0.7
 40
0.7
 40
0.7
 40
0.7
 40
0.8
 40
0.8
 40
0.8
 40
0.8
 40
1.0
 40
1.0
 40
1.0
 40
1.0
 10
-45.76851
 20
-22.65117
 30
0.0
 10
-45.76851
 20
-22.65117
 30
0.0
 10
-45.76851
 20
-22.65117
 30
0.0
 10
-45.76851
 20
-22.65117
 30
0.0
 10
-45.76851
 20
-22.65117
 30
0.0
 10
-45.5643
 20
-22.67593
 30
0.0
 10
-45.37821
 20
-22.71442
 30
0.0
 10
-45.17859
 20
-22.63208
 30
0.0
 10
-45.17859
 20
-22.63208
 30
0.0
 10
-45.16897
 20
-22.62808
 30
0.0
 10
-45.16053
 20
-22.63001
 30
0.0
 10
-45.15407
 20
-22.63522
 30
0.0
 10
-45.15407
 20
-22.63522
 30
0.0
 10
-45.09923
 20
-22.54392
 30
0.0
 10
-45.0371
 20
-22.45783
 30
0.0
 10
-44.96327
 20
-22.38376
 30
0.0
 10
-44.96327
 20
-22.38376
 30
0.0
 10
-44.96416
 20
-22.37883
 30
0.0
 10
-44.96408
 20
-22.3738
 30
0.0
 10
-44.96261
 20
-22.36901
 30
0.0
 10
-44.96261
 20
-22.36901
 30
0.0
 10
-44.94051
 20
-22.29594
 30
0.0
 10
-44.91302
 20
-22.22456
 30
0.0
 10
-44.88126
 20
-22.15486
 30
0.0
 10
-44.88126
 20
-22.15486
 30
0.0
 10
-44.98165
 20
-22.1918
 30
0.0
 10
-45.09609
 20
-22.20341
 30
0.0
 10
-45.19337
 20
-22.20061
 30
0.0
 10
-45.19337
 20
-22.20061
 30
0.0
 10
-45.26942
 20
-22.19834
 30
0.0
 10
-45.34547
 20
-22.18939
 30
0.0
 10
-45.41914
 20
-22.17195
 30
0.0
 10
-45.41914
 20
-22.17195
 30
0.0
 10
-45.56299
 20
-22.31017
 30
0.0
 10
-45.69762
 20
-22.46275
 30
0.0
 10
-45.76851
 20
-22.65117
 30
0.0
  0
SPLINE
  5
8B
330
1F
100
AcDbEntity
  8
Layer 1
370
     9
100
AcDbSpline
210
0.0
220
0.0
230
1.0
 70
    11
 71
     3
 72
    24
 73
    20
 74
     0
 42
0.000000001
 43
0.0000000001
 40
0.0
 40
0.0
 40
0.0
 40
0.0
 40
0.1666666666666667
 40
0.1666666666666667
 40
0.1666666666666667
 40
0.1666666666666667
 40
0.3333333333333333
 40
0.3333333333333333
 40
0.3333333333333333
 40
0.3333333333333333
 40
0.5
 40
0.5
 40
0.5
 40
0.5
 40
0.6666666666666666
 40
0.6666666666666666
 40
0.6666666666666666
 40
0.6666666666666666
 40
1.0
 40
1.0
 40
1.0
 40
1.0
 10
-45.26108
 20
-22.99712
 30
0.0
 10
-45.26108
 20
-22.99712
 30
0.0
 10
-45.26108
 20
-22.99712
 30
0.0
 10
-45.26108
 20
-22.99712
 30
0.0
 10
-45.26108
 20
-22.99712
 30
0.0
 10
-45.06903
 20
-23.01958
 30
0.0
 10
-44.89583
 20
-22.9051
 30
0.0
 10
-44.7186
 20
-22.84037
 30
0.0
 10
-44.7186
 20
-22.84037
 30
0.0
 10
-44.70502
 20
-22.6656
 30
0.0
 10
-44.63008
 20
-22.50213
 30
0.0
 10
-44.57151
 20
-22.33646
 30
0.0
 10
-44.57151
 20
-22.33646
 30
0.0
 10
-44.68676
 20
-22.37642
 30
0.0
 10
-44.80578
 20
-22.40443
 30
0.0
 10
-44.92789
 20
-22.41352
 30
0.0
 10
-44.92789
 20
-22.41352
 30
0.0
 10
-45.0572
 20
-22.59997
 30
0.0
 10
-45.16556
 20
-22.79162
 30
0.0
 10
-45.26108
 20
-22.99712
 30
0.0
  0
SPLINE
  5
8C
330
1F
100
AcDbEntity
  8
Layer 1
370
     9
100
AcDbSpline
210
0.0
220
0.0
230
1.0
 70
    11
 71
     3
 72
    32
 73
    28
 74
     0
 42
0.000000001
 43
0.0000000001
 40
0.0
 40
0.0
 40
0.0
 40
0.0
 40
0.125
 40
0.125
 40
0.125
 40
0.125
 40
0.25
 40
0.25
 40
0.25
 40
0.25
 40
0.375
 40
0.375
 40
0.375
 40
0.375
 40
0.5
 40
0.5
 40
0.5
 40
0.5
 40
0.625
 40
0.625
 40
0.625
 40
0.625
 40
0.75
 40
0.75
 40
0.75
 40
0.75
 40
1.0
 40
1.0
 40
1.0
 40
1.0
 10
-44.65092
 20
-22.82724
 30
0.0
 10
-44.65092
 20
-22.82724
 30
0.0
 10
-44.65092
 20
-22.82724
 30
0.0
 10
-44.65092
 20
-22.82724
 30
0.0
 10
-44.65092
 20
-22.82724
 30
0.0
 10
-44.63638
 20
-22.83407
 30
0.0
 10
-44.62861
 20
-22.85132
 30
0.0
 10
-44.63054
 20
-22.86765
 30
0.0
 10
-44.63054
 20
-22.86765
 30
0.0
 10
-44.32535
 20
-22.75696
 30
0.0
 10
-44.04812
 20
-22.58088
 30
0.0
 10
-43.89461
 20
-22.28533
 30
0.0
 10
-43.89461
 20
-22.28533
 30
0.0
 10
-43.92679
 20
-22.17998
 30
0.0
 10
-43.94043
 20
-22.05985
 30
0.0
 10
-43.93567
 20
-21.93775
 30
0.0
 10
-43.93567
 20
-21.93775
 30
0.0
 10
-44.04688
 20
-22.0759
 30
0.0
 10
-44.21001
 20
-22.1785
 30
0.0
 10
-44.36642
 20
-22.25216
 30
0.0
 10
-44.36642
 20
-22.25216
 30
0.0
 10
-44.41502
 20
-22.2751
 30
0.0
 10
-44.4647
 20
-22.29628
 30
0.0
 10
-44.51493
 20
-22.31554
 30
0.0
 10
-44.51493
 20
-22.31554
 30
0.0
 10
-44.54761
 20
-22.49062
 30
0.0
 10
-44.634
 20
-22.64986
 30
0.0
 10
-44.65092
 20
-22.82724
 30
0.0
  0
SPLINE
  5
8D
330
1F
100
AcDbEntity
  8
Layer 1
370
     9
100
AcDbSpline
210
0.0
220
0.0
230
1.0
 70
    11
 71
     3
 72
    32
 73
    28
 74
     0
 42
0.000000001
 43
0.0000000001
 40
0.0
 40
0.0
 40
0.0
 40
0.0
 40
0.125
 40
0.125
 40
0.125
 40
0.125
 40
0.25
 40
0.25
 40
0.25
 40
0.25
 40
0.375
 40
0.375
 40
0.375
 40
0.375
 40
0.5
 40
0.5
 40
0.5
 40
0.5
 40
0.625
 40
0.625
 40
0.625
 40
0.625
 40
0.75
 40
0.75
 40
0.75
 40
0.75
 40
1.0
 40
1.0
 40
1.0
 40
1.0
 10
-44.26365
 20
-23.12207
 30
0.0
 10
-44.26365
 20
-23.12207
 30
0.0
 10
-44.26365
 20
-23.12207
 30
0.0
 10
-44.26365
 20
-23.12207
 30
0.0
 10
-44.26365
 20
-23.12207
 30
0.0
 10
-44.08995
 20
-23.07419
 30
0.0
 10
-43.95187
 20
-22.98737
 30
0.0
 10
-43.80435
 20
-22.88857
 30
0.0
 10
-43.80435
 20
-22.88857
 30
0.0
 10
-43.77469
 20
-22.67721
 30
0.0
 10
-43.74275
 20
-22.4539
 30
0.0
 10
-43.67491
 20
-22.25112
 30
0.0
 10
-43.67491
 20
-22.25112
 30
0.0
 10
-43.72515
 20
-22.29391
 30
0.0
 10
-43.77472
 20
-22.33325
 30
0.0
 10
-43.82181
 20
-22.36825
 30
0.0
 10
-43.82181
 20
-22.36825
 30
0.0
 10
-43.83212
 20
-22.37597
 30
0.0
 10
-43.84359
 20
-22.37494
 30
0.0
 10
-43.85323
 20
-22.36963
 30
0.0
 10
-43.85323
 20
-22.36963
 30
0.0
 10
-43.93822
 20
-22.53307
 30
0.0
 10
-44.07699
 20
-22.6604
 30
0.0
 10
-44.23605
 20
-22.759
 30
0.0
 10
-44.23605
 20
-22.759
 30
0.0
 10
-44.20873
 20
-22.88192
 30
0.0
 10
-44.2407
 20
-23.00043
 30
0.0
 10
-44.26365
 20
-23.12207
 30
0.0
  0
SPLINE
  5
8E
330
1F
100
AcDbEntity
  8
Layer 1
370
     9
100
AcDbSpline
210
0.0
220
0.0
230
1.0
 70
    11
 71
     3
 72
    28
 73
    24
 74
     0
 42
0.000000001
 43
0.0000000001
 40
0.0
 40
0.0
 40
0.0
 40
0.0
 40
0.1428571428571428
 40
0.1428571428571428
 40
0.1428571428571428
 40
0.1428571428571428
 40
0.2857142857142857
 40
0.2857142857142857
 40
0.2857142857142857
 40
0.2857142857142857
 40
0.4285714285714285
 40
0.4285714285714285
 40
0.4285714285714285
 40
0.4285714285714285
 40
0.5714285714285714
 40
0.5714285714285714
 40
0.5714285714285714
 40
0.5714285714285714
 40
0.7142857142857143
 40
0.7142857142857143
 40
0.7142857142857143
 40
0.7142857142857143
 40
1.0
 40
1.0
 40
1.0
 40
1.0
 10
-43.73024
 20
-22.93463
 30
0.0
 10
-43.73024
 20
-22.93463
 30
0.0
 10
-43.73024
 20
-22.93463
 30
0.0
 10
-43.73024
 20
-22.93463
 30
0.0
 10
-43.73024
 20
-22.93463
 30
0.0
 10
-43.6735
 20
-23.15849
 30
0.0
 10
-43.72604
 20
-23.39386
 30
0.0
 10
-43.6591
 20
-23.61551
 30
0.0
 10
-43.6591
 20
-23.61551
 30
0.0
 10
-43.55761
 20
-23.54992
 30
0.0
 10
-43.46146
 20
-23.4742
 30
0.0
 10
-43.37819
 20
-23.38673
 30
0.0
 10
-43.37819
 20
-23.38673
 30
0.0
 10
-43.28104
 20
-23.28455
 30
0.0
 10
-43.21999
 20
-23.17947
 30
0.0
 10
-43.16046
 20
-23.05407
 30
0.0
 10
-43.16046
 20
-23.05407
 30
0.0
 10
-43.23846
 20
-22.96884
 30
0.0
 10
-43.31056
 20
-22.87923
 30
0.0
 10
-43.36127
 20
-22.77577
 30
0.0
 10
-43.36127
 20
-22.77577
 30
0.0
 10
-43.47128
 20
-22.85711
 30
0.0
 10
-43.59905
 20
-22.91372
 30
0.0
 10
-43.73024
 20
-22.93463
 30
0.0
  0
SPLINE
  5
8F
330
1F
100
AcDbEntity
  8
Layer 1
370
     9
100
AcDbSpline
210
0.0
220
0.0
230
1.0
 70
    11
 71
     3
 72
    28
 73
    24
 74
     0
 42
0.000000001
 43
0.0000000001
 40
0.0
 40
0.0
 40
0.0
 40
0.0
 40
0.1428571428571428
 40
0.1428571428571428
 40
0.1428571428571428
 40
0.1428571428571428
 40
0.2857142857142857
 40
0.2857142857142857
 40
0.2857142857142857
 40
0.2857142857142857
 40
0.4285714285714285
 40
0.4285714285714285
 40
0.4285714285714285
 40
0.4285714285714285
 40
0.5714285714285714
 40
0.5714285714285714
 40
0.5714285714285714
 40
0.5714285714285714
 40
0.7142857142857143
 40
0.7142857142857143
 40
0.7142857142857143
 40
0.7142857142857143
 40
1.0
 40
1.0
 40
1.0
 40
1.0
 10
-42.93109
 20
-23.1928
 30
0.0
 10
-42.93109
 20
-23.1928
 30
0.0
 10
-42.93109
 20
-23.1928
 30
0.0
 10
-42.93109
 20
-23.1928
 30
0.0
 10
-42.93109
 20
-23.1928
 30
0.0
 10
-42.88685
 20
-22.98737
 30
0.0
 10
-42.87944
 20
-22.77733
 30
0.0
 10
-42.92354
 20
-22.57096
 30
0.0
 10
-42.92354
 20
-22.57096
 30
0.0
 10
-42.92805
 20
-22.56935
 30
0.0
 10
-42.93226
 20
-22.56697
 30
0.0
 10
-42.93539
 20
-22.56363
 30
0.0
 10
-42.93539
 20
-22.56363
 30
0.0
 10
-42.98473
 20
-22.51247
 30
0.0
 10
-43.02941
 20
-22.457
 30
0.0
 10
-43.06899
 20
-22.39816
 30
0.0
 10
-43.06899
 20
-22.39816
 30
0.0
 10
-43.11898
 20
-22.533
 30
0.0
 10
-43.21083
 20
-22.65416
 30
0.0
 10
-43.32545
 20
-22.74801
 30
0.0
 10
-43.32545
 20
-22.74801
 30
0.0
 10
-43.20797
 20
-22.9121
 30
0.0
 10
-43.06806
 20
-23.04718
 30
0.0
 10
-42.93109
 20
-23.1928
 30
0.0
  0
SPLINE
  5
90
330
1F
100
AcDbEntity
  8
Layer 1
370
     9
100
AcDbSpline
210
0.0
220
0.0
230
1.0
 70
    11
 71
     3
 72
    24
 73
    20
 74
     0
 42
0.000000001
 43
0.0000000001
 40
0.0
 40
0.0
 40
0.0
 40
0.0
 40
0.1666666666666667
 40
0.1666666666666667
 40
0.1666666666666667
 40
0.1666666666666667
 40
0.3333333333333333
 40
0.3333333333333333
 40
0.3333333333333333
 40
0.3333333333333333
 40
0.5
 40
0.5
 40
0.5
 40
0.5
 40
0.6666666666666666
 40
0.6666666666666666
 40
0.6666666666666666
 40
0.6666666666666666
 40
1.0
 40
1.0
 40
1.0
 40
1.0
 10
-42.74443
 20
-21.69481
 30
0.0
 10
-42.74443
 20
-21.69481
 30
0.0
 10
-42.74443
 20
-21.69481
 30
0.0
 10
-42.74443
 20
-21.69481
 30
0.0
 10
-42.74443
 20
-21.69481
 30
0.0
 10
-42.91052
 20
-21.62925
 30
0.0
 10
-43.01153
 20
-21.51043
 30
0.0
 10
-43.08202
 20
-21.36918
 30
0.0
 10
-43.08202
 20
-21.36918
 30
0.0
 10
-43.09893
 20
-21.49844
 30
0.0
 10
-43.15295
 20
-21.62697
 30
0.0
 10
-43.22809
 20
-21.74907
 30
0.0
 10
-43.22809
 20
-21.74907
 30
0.0
 10
-43.19457
 20
-22.01909
 30
0.0
 10
-43.10461
 20
-22.27389
 30
0.0
 10
-42.92161
 20
-22.47926
 30
0.0
 10
-42.92161
 20
-22.47926
 30
0.0
 10
-42.81412
 20
-22.23117
 30
0.0
 10
-42.73864
 20
-21.96645
 30
0.0
 10
-42.74443
 20
-21.69481
 30
0.0
  0
SPLINE
  5
91
330
1F
100
AcDbEntity
  8
Layer 1
370
     9
100
AcDbSpline
210
0.0
220
0.0
230
1.0
 70
    11
 71
     3
 72
    60
 73
    56
 74
     0
 42
0.000000001
 43
0.0000000001
 40
0.0
 40
0.0
 40
0.0
 40
0.0
 40
0.0666666666666667
 40
0.0666666666666667
 40
0.0666666666666667
 40
0.0666666666666667
 40
0.1333333333333333
 40
0.1333333333333333
 40
0.1333333333333333
 40
0.1333333333333333
 40
0.2
 40
0.2
 40
0.2
 40
0.2
 40
0.2666666666666667
 40
0.2666666666666667
 40
0.2666666666666667
 40
0.2666666666666667
 40
0.3333333333333333
 40
0.3333333333333333
 40
0.3333333333333333
 40
0.3333333333333333
 40
0.4
 40
0.4
 40
0.4
 40
0.4
 40
0.4666666666666667
 40
0.4666666666666667
 40
0.4666666666666667
 40
0.4666666666666667
 40
0.5333333333333333
 40
0.5333333333333333
 40
0.5333333333333333
 40
0.5333333333333333
 40
0.6
 40
0.6
 40
0.6
 40
0.6
 40
0.6666666666666666
 40
0.6666666666666666
 40
0.6666666666666666
 40
0.6666666666666666
 40
0.7333333333333333
 40
0.7333333333333333
 40
0.7333333333333333
 40
0.7333333333333333
 40
0.8
 40
0.8
 40
0.8
 40
0.8
 40
0.8666666666666667
 40
0.8666666666666667
 40
0.8666666666666667
 40
0.8666666666666667
 40
1.0
 40
1.0
 40
1.0
 40
1.0
 10
-42.19852
 20
-22.63366
 30
0.0
 10
-42.19852
 20
-22.63366
 30
0.0
 10
-42.19852
 20
-22.63366
 30
0.0
 10
-42.19852
 20
-22.63366
 30
0.0
 10
-42.19852
 20
-22.63366
 30
0.0
 10
-42.17024
 20
-22.67838
 30
0.0
 10
-42.15115
 20
-22.73233
 30
0.0
 10
-42.13909
 20
-22.78866
 30
0.0
 10
-42.13909
 20
-22.78866
 30
0.0
 10
-42.10567
 20
-22.80692
 30
0.0
 10
-42.07426
 20
-22.82928
 30
0.0
 10
-42.03984
 20
-22.84616
 30
0.0
 10
-42.03984
 20
-22.84616
 30
0.0
 10
-41.96997
 20
-22.88033
 30
0.0
 10
-41.89787
 20
-22.90955
 30
0.0
 10
-41.82445
 20
-22.93528
 30
0.0
 10
-41.82445
 20
-22.93528
 30
0.0
 10
-41.71824
 20
-22.97245
 30
0.0
 10
-41.61044
 20
-23.00498
 30
0.0
 10
-41.50096
 20
-23.03123
 30
0.0
 10
-41.50096
 20
-23.03123
 30
0.0
 10
-41.53258
 20
-22.93463
 30
0.0
 10
-41.54085
 20
-22.82948
 30
0.0
 10
-41.55787
 20
-22.73037
 30
0.0
 10
-41.55787
 20
-22.73037
 30
0.0
 10
-41.5679
 20
-22.67197
 30
0.0
 10
-41.57789
 20
-22.59773
 30
0.0
 10
-41.60021
 20
-22.53021
 30
0.0
 10
-41.60021
 20
-22.53021
 30
0.0
 10
-41.60393
 20
-22.526
 30
0.0
 10
-41.60741
 20
-22.52163
 30
0.0
 10
-41.61072
 20
-22.51718
 30
0.0
 10
-41.61072
 20
-22.51718
 30
0.0
 10
-41.61633
 20
-22.50947
 30
0.0
 10
-41.61716
 20
-22.50034
 30
0.0
 10
-41.61475
 20
-22.49183
 30
0.0
 10
-41.61475
 20
-22.49183
 30
0.0
 10
-41.62653
 20
-22.46447
 30
0.0
 10
-41.64086
 20
-22.43915
 30
0.0
 10
-41.65895
 20
-22.41766
 30
0.0
 10
-41.65895
 20
-22.41766
 30
0.0
 10
-41.84323
 20
-22.42393
 30
0.0
 10
-42.05014
 20
-22.39123
 30
0.0
 10
-42.18292
 20
-22.29463
 30
0.0
 10
-42.18292
 20
-22.29463
 30
0.0
 10
-42.15814
 20
-22.39981
 30
0.0
 10
-42.11914
 20
-22.50106
 30
0.0
 10
-42.0375
 20
-22.57334
 30
0.0
 10
-42.0375
 20
-22.57334
 30
0.0
 10
-42.01111
 20
-22.5967
 30
0.0
 10
-42.0334
 20
-22.63683
 30
0.0
 10
-42.06444
 20
-22.63838
 30
0.0
 10
-42.06444
 20
-22.63838
 30
0.0
 10
-42.10836
 20
-22.64052
 30
0.0
 10
-42.15342
 20
-22.63873
 30
0.0
 10
-42.19852
 20
-22.63366
 30
0.0
  0
SPLINE
  5
92
330
1F
100
AcDbEntity
  8
Layer 1
370
     9
100
AcDbSpline
210
0.0
220
0.0
230
1.0
 70
    11
 71
     3
 72
    32
 73
    28
 74
     0
 42
0.000000001
 43
0.0000000001
 40
0.0
 40
0.0
 40
0.0
 40
0.0
 40
0.125
 40
0.125
 40
0.125
 40
0.125
 40
0.25
 40
0.25
 40
0.25
 40
0.25
 40
0.375
 40
0.375
 40
0.375
 40
0.375
 40
0.5
 40
0.5
 40
0.5
 40
0.5
 40
0.625
 40
0.625
 40
0.625
 40
0.625
 40
0.75
 40
0.75
 40
0.75
 40
0.75
 40
1.0
 40
1.0
 40
1.0
 40
1.0
 10
-41.46013
 20
-22.88095
 30
0.0
 10
-41.46013
 20
-22.88095
 30
0.0
 10
-41.46013
 20
-22.88095
 30
0.0
 10
-41.46013
 20
-22.88095
 30
0.0
 10
-41.46013
 20
-22.88095
 30
0.0
 10
-41.36491
 20
-22.93077
 30
0.0
 10
-41.25477
 20
-22.94972
 30
0.0
 10
-41.1477
 20
-22.9605
 30
0.0
 10
-41.1477
 20
-22.9605
 30
0.0
 10
-41.1601
 20
-22.91392
 30
0.0
 10
-41.17243
 20
-22.86741
 30
0.0
 10
-41.18714
 20
-22.82135
 30
0.0
 10
-41.18714
 20
-22.82135
 30
0.0
 10
-41.20168
 20
-22.77612
 30
0.0
 10
-41.22163
 20
-22.73271
 30
0.0
 10
-41.2239
 20
-22.68607
 30
0.0
 10
-41.2239
 20
-22.68607
 30
0.0
 10
-41.26394
 20
-22.67824
 30
0.0
 10
-41.30338
 20
-22.66825
 30
0.0
 10
-41.34135
 20
-22.65668
 30
0.0
 10
-41.34135
 20
-22.65668
 30
0.0
 10
-41.39374
 20
-22.64052
 30
0.0
 10
-41.45776
 20
-22.62233
 30
0.0
 10
-41.51333
 20
-22.59415
 30
0.0
 10
-41.51333
 20
-22.59415
 30
0.0
 10
-41.48849
 20
-22.68517
 30
0.0
 10
-41.47657
 20
-22.78828
 30
0.0
 10
-41.46013
 20
-22.88095
 30
0.0
  0
SPLINE
  5
93
330
1F
100
AcDbEntity
  8
Layer 1
370
     9
100
AcDbSpline
210
0.0
220
0.0
230
1.0
 70
    11
 71
     3
 72
    48
 73
    44
 74
     0
 42
0.000000001
 43
0.0000000001
 40
0.0
 40
0.0
 40
0.0
 40
0.0
 40
0.0833333333333333
 40
0.0833333333333333
 40
0.0833333333333333
 40
0.0833333333333333
 40
0.1666666666666667
 40
0.1666666666666667
 40
0.1666666666666667
 40
0.1666666666666667
 40
0.25
 40
0.25
 40
0.25
 40
0.25
 40
0.3333333333333333
 40
0.3333333333333333
 40
0.3333333333333333
 40
0.3333333333333333
 40
0.4166666666666667
 40
0.4166666666666667
 40
0.4166666666666667
 40
0.4166666666666667
 40
0.5
 40
0.5
 40
0.5
 40
0.5
 40
0.5833333333333334
 40
0.5833333333333334
 40
0.5833333333333334
 40
0.5833333333333334
 40
0.6666666666666666
 40
0.6666666666666666
 40
0.6666666666666666
 40
0.6666666666666666
 40
0.75
 40
0.75
 40
0.75
 40
0.75
 40
0.8333333333333334
 40
0.8333333333333334
 40
0.8333333333333334
 40
0.8333333333333334
 40
1.0
 40
1.0
 40
1.0
 40
1.0
 10
-41.04159
 20
-22.62364
 30
0.0
 10
-41.04159
 20
-22.62364
 30
0.0
 10
-41.04159
 20
-22.62364
 30
0.0
 10
-41.04159
 20
-22.62364
 30
0.0
 10
-41.04159
 20
-22.62364
 30
0.0
 10
-41.05816
 20
-22.52924
 30
0.0
 10
-41.07363
 20
-22.43447
 30
0.0
 10
-41.09743
 20
-22.34169
 30
0.0
 10
-41.09743
 20
-22.34169
 30
0.0
 10
-41.12313
 20
-22.24137
 30
0.0
 10
-41.16324
 20
-22.15183
 30
0.0
 10
-41.20488
 20
-22.05833
 30
0.0
 10
-41.20488
 20
-22.05833
 30
0.0
 10
-41.28361
 20
-22.05179
 30
0.0
 10
-41.36174
 20
-22.03801
 30
0.0
 10
-41.43491
 20
-22.01661
 30
0.0
 10
-41.43491
 20
-22.01661
 30
0.0
 10
-41.46902
 20
-22.00666
 30
0.0
 10
-41.53913
 20
-21.98426
 30
0.0
 10
-41.59442
 20
-21.95092
 30
0.0
 10
-41.59442
 20
-21.95092
 30
0.0
 10
-41.52769
 20
-22.07728
 30
0.0
 10
-41.47364
 20
-22.21302
 30
0.0
 10
-41.44146
 20
-22.34772
 30
0.0
 10
-41.44146
 20
-22.34772
 30
0.0
 10
-41.43667
 20
-22.3675
 30
0.0
 10
-41.44742
 20
-22.39182
 30
0.0
 10
-41.46899
 20
-22.39626
 30
0.0
 10
-41.46899
 20
-22.39626
 30
0.0
 10
-41.51005
 20
-22.40467
 30
0.0
 10
-41.55536
 20
-22.41091
 30
0.0
 10
-41.60293
 20
-22.41473
 30
0.0
 10
-41.60293
 20
-22.41473
 30
0.0
 10
-41.58781
 20
-22.43044
 30
0.0
 10
-41.57499
 20
-22.44887
 30
0.0
 10
-41.56345
 20
-22.46868
 30
0.0
 10
-41.56345
 20
-22.46868
 30
0.0
 10
-41.47161
 20
-22.50661
 30
0.0
 10
-41.3913
 20
-22.56035
 30
0.0
 10
-41.29225
 20
-22.58654
 30
0.0
 10
-41.29225
 20
-22.58654
 30
0.0
 10
-41.21016
 20
-22.60824
 30
0.0
 10
-41.12637
 20
-22.62464
 30
0.0
 10
-41.04159
 20
-22.62364
 30
0.0
  0
SPLINE
  5
94
330
1F
100
AcDbEntity
  8
Layer 1
370
     9
100
AcDbSpline
210
0.0
220
0.0
230
1.0
 70
    11
 71
     3
 72
    28
 73
    24
 74
     0
 42
0.000000001
 43
0.0000000001
 40
0.0
 40
0.0
 40
0.0
 40
0.0
 40
0.1428571428571428
 40
0.1428571428571428
 40
0.1428571428571428
 40
0.1428571428571428
 40
0.2857142857142857
 40
0.2857142857142857
 40
0.2857142857142857
 40
0.2857142857142857
 40
0.4285714285714285
 40
0.4285714285714285
 40
0.4285714285714285
 40
0.4285714285714285
 40
0.5714285714285714
 40
0.5714285714285714
 40
0.5714285714285714
 40
0.5714285714285714
 40
0.7142857142857143
 40
0.7142857142857143
 40
0.7142857142857143
 40
0.7142857142857143
 40
1.0
 40
1.0
 40
1.0
 40
1.0
 10
-40.49375
 20
-22.083
 30
0.0
 10
-40.49375
 20
-22.083
 30
0.0
 10
-40.49375
 20
-22.083
 30
0.0
 10
-40.49375
 20
-22.083
 30
0.0
 10
-40.49375
 20
-22.083
 30
0.0
 10
-40.56334
 20
-22.10774
 30
0.0
 10
-40.63304
 20
-22.13137
 30
0.0
 10
-40.70338
 20
-22.15104
 30
0.0
 10
-40.70338
 20
-22.15104
 30
0.0
 10
-40.64465
 20
-22.19204
 30
0.0
 10
-40.5931
 20
-22.3449
 30
0.0
 10
-40.58229
 20
-22.37511
 30
0.0
 10
-40.58229
 20
-22.37511
 30
0.0
 10
-40.5796
 20
-22.38252
 30
0.0
 10
-40.57684
 20
-22.39058
 30
0.0
 10
-40.57402
 20
-22.39888
 30
0.0
 10
-40.57402
 20
-22.39888
 30
0.0
 10
-40.47273
 20
-22.382
 30
0.0
 10
-40.38009
 20
-22.38
 30
0.0
 10
-40.28994
 20
-22.3305
 30
0.0
 10
-40.28994
 20
-22.3305
 30
0.0
 10
-40.36321
 20
-22.25312
 30
0.0
 10
-40.43787
 20
-22.17378
 30
0.0
 10
-40.49375
 20
-22.083
 30
0.0
  0
SPLINE
  5
95
330
1F
100
AcDbEntity
  8
Layer 1
370
     9
100
AcDbSpline
210
0.0
220
0.0
230
1.0
 70
    11
 71
     3
 72
    24
 73
    20
 74
     0
 42
0.000000001
 43
0.0000000001
 40
0.0
 40
0.0
 40
0.0
 40
0.0
 40
0.1666666666666667
 40
0.1666666666666667
 40
0.1666666666666667
 40
0.1666666666666667
 40
0.3333333333333333
 40
0.3333333333333333
 40
0.3333333333333333
 40
0.3333333333333333
 40
0.5
 40
0.5
 40
0.5
 40
0.5
 40
0.6666666666666666
 40
0.6666666666666666
 40
0.6666666666666666
 40
0.6666666666666666
 40
1.0
 40
1.0
 40
1.0
 40
1.0
 10
-40.41279
 20
-21.47243
 30
0.0
 10
-40.41279
 20
-21.47243
 30
0.0
 10
-40.41279
 20
-21.47243
 30
0.0
 10
-40.41279
 20
-21.47243
 30
0.0
 10
-40.41279
 20
-21.47243
 30
0.0
 10
-40.54705
 20
-21.49148
 30
0.0
 10
-40.68344
 20
-21.49578
 30
0.0
 10
-40.81321
 20
-21.4778
 30
0.0
 10
-40.81321
 20
-21.4778
 30
0.0
 10
-40.67916
 20
-21.61233
 30
0.0
 10
-40.57133
 20
-21.7697
 30
0.0
 10
-40.48097
 20
-21.9361
 30
0.0
 10
-40.48097
 20
-21.9361
 30
0.0
 10
-40.34389
 20
-21.94017
 30
0.0
 10
-40.21666
 20
-21.9125
 30
0.0
 10
-40.09047
 20
-21.85838
 30
0.0
 10
-40.09047
 20
-21.85838
 30
0.0
 10
-40.1933
 20
-21.7265
 30
0.0
 10
-40.29566
 20
-21.59183
 30
0.0
 10
-40.41279
 20
-21.47243
 30
0.0
  0
SPLINE
  5
96
330
1F
100
AcDbEntity
  8
Layer 1
370
     9
100
AcDbSpline
210
0.0
220
0.0
230
1.0
 70
    11
 71
     3
 72
    72
 73
    68
 74
     0
 42
0.000000001
 43
0.0000000001
 40
0.0
 40
0.0
 40
0.0
 40
0.0
 40
0.0555555555555556
 40
0.0555555555555556
 40
0.0555555555555556
 40
0.0555555555555556
 40
0.1111111111111111
 40
0.1111111111111111
 40
0.1111111111111111
 40
0.1111111111111111
 40
0.1666666666666667
 40
0.1666666666666667
 40
0.1666666666666667
 40
0.1666666666666667
 40
0.2222222222222222
 40
0.2222222222222222
 40
0.2222222222222222
 40
0.2222222222222222
 40
0.2777777777777778
 40
0.2777777777777778
 40
0.2777777777777778
 40
0.2777777777777778
 40
0.3333333333333333
 40
0.3333333333333333
 40
0.3333333333333333
 40
0.3333333333333333
 40
0.3888888888888889
 40
0.3888888888888889
 40
0.3888888888888889
 40
0.3888888888888889
 40
0.4444444444444444
 40
0.4444444444444444
 40
0.4444444444444444
 40
0.4444444444444444
 40
0.5
 40
0.5
 40
0.5
 40
0.5
 40
0.5555555555555556
 40
0.5555555555555556
 40
0.5555555555555556
 40
0.5555555555555556
 40
0.6111111111111112
 40
0.6111111111111112
 40
0.6111111111111112
 40
0.6111111111111112
 40
0.6666666666666666
 40
0.6666666666666666
 40
0.6666666666666666
 40
0.6666666666666666
 40
0.7222222222222222
 40
0.7222222222222222
 40
0.7222222222222222
 40
0.7222222222222222
 40
0.7777777777777778
 40
0.7777777777777778
 40
0.7777777777777778
 40
0.7777777777777778
 40
0.8333333333333334
 40
0.8333333333333334
 40
0.8333333333333334
 40
0.8333333333333334
 40
0.8888888888888888
 40
0.8888888888888888
 40
0.8888888888888888
 40
0.8888888888888888
 40
1.0
 40
1.0
 40
1.0
 40
1.0
 10
-40.53575
 20
-20.72184
 30
0.0
 10
-40.53575
 20
-20.72184
 30
0.0
 10
-40.53575
 20
-20.72184
 30
0.0
 10
-40.53575
 20
-20.72184
 30
0.0
 10
-40.53575
 20
-20.72184
 30
0.0
 10
-40.53743
 20
-20.72215
 30
0.0
 10
-40.53915
 20
-20.7226
 30
0.0
 10
-40.54084
 20
-20.72301
 30
0.0
 10
-40.54084
 20
-20.72301
 30
0.0
 10
-40.56468
 20
-20.72853
 30
0.0
 10
-40.58191
 20
-20.71423
 30
0.0
 10
-40.58842
 20
-20.69631
 30
0.0
 10
-40.58842
 20
-20.69631
 30
0.0
 10
-40.6588
 20
-20.66751
 30
0.0
 10
-40.72736
 20
-20.6588
 30
0.0
 10
-40.80319
 20
-20.63795
 30
0.0
 10
-40.80319
 20
-20.63795
 30
0.0
 10
-40.80691
 20
-20.63696
 30
0.0
 10
-40.80997
 20
-20.63527
 30
0.0
 10
-40.81287
 20
-20.6333
 30
0.0
 10
-40.81287
 20
-20.6333
 30
0.0
 10
-40.91632
 20
-20.70638
 30
0.0
 10
-41.0276
 20
-20.76553
 30
0.0
 10
-41.15242
 20
-20.79505
 30
0.0
 10
-41.15242
 20
-20.79505
 30
0.0
 10
-41.07538
 20
-20.85882
 30
0.0
 10
-41.00879
 20
-20.93258
 30
0.0
 10
-40.95953
 20
-21.00603
 30
0.0
 10
-40.95953
 20
-21.00603
 30
0.0
 10
-40.94898
 20
-21.02167
 30
0.0
 10
-40.95377
 20
-21.04334
 30
0.0
 10
-40.96604
 20
-21.05622
 30
0.0
 10
-40.96604
 20
-21.05622
 30
0.0
 10
-41.04207
 20
-21.13653
 30
0.0
 10
-41.13547
 20
-21.19603
 30
0.0
 10
-41.23778
 20
-21.23985
 30
0.0
 10
-41.23778
 20
-21.23985
 30
0.0
 10
-41.21501
 20
-21.26217
 30
0.0
 10
-41.19369
 20
-21.28539
 30
0.0
 10
-41.17343
 20
-21.30923
 30
0.0
 10
-41.17343
 20
-21.30923
 30
0.0
 10
-41.16585
 20
-21.30275
 30
0.0
 10
-41.15479
 20
-21.30024
 30
0.0
 10
-41.14301
 20
-21.30603
 30
0.0
 10
-41.14301
 20
-21.30603
 30
0.0
 10
-40.93985
 20
-21.40566
 30
0.0
 10
-40.69956
 20
-21.42667
 30
0.0
 10
-40.46398
 20
-21.39922
 30
0.0
 10
-40.46398
 20
-21.39922
 30
0.0
 10
-40.45885
 20
-21.39315
 30
0.0
 10
-40.45013
 20
-21.38995
 30
0.0
 10
-40.4418
 20
-21.39488
 30
0.0
 10
-40.4418
 20
-21.39488
 30
0.0
 10
-40.44104
 20
-21.39529
 30
0.0
 10
-40.44035
 20
-21.39577
 30
0.0
 10
-40.43959
 20
-21.39622
 30
0.0
 10
-40.43959
 20
-21.39622
 30
0.0
 10
-40.27688
 20
-21.3749
 30
0.0
 10
-40.11703
 20
-21.33087
 30
0.0
 10
-39.97409
 20
-21.27385
 30
0.0
 10
-39.97409
 20
-21.27385
 30
0.0
 10
-40.08616
 20
-21.14755
 30
0.0
 10
-40.19103
 20
-21.01426
 30
0.0
 10
-40.31298
 20
-20.8972
 30
0.0
 10
-40.31298
 20
-20.8972
 30
0.0
 10
-40.38096
 20
-20.83198
 30
0.0
 10
-40.45303
 20
-20.76808
 30
0.0
 10
-40.53575
 20
-20.72184
 30
0.0
  0
SPLINE
  5
97
330
1F
100
AcDbEntity
  8
Layer 1
370
     9
100
AcDbSpline
210
0.0
220
0.0
230
1.0
 70
    11
 71
     3
 72
    36
 73
    32
 74
     0
 42
0.000000001
 43
0.0000000001
 40
0.0
 40
0.0
 40
0.0
 40
0.0
 40
0.1111111111111111
 40
0.1111111111111111
 40
0.1111111111111111
 40
0.1111111111111111
 40
0.2222222222222222
 40
0.2222222222222222
 40
0.2222222222222222
 40
0.2222222222222222
 40
0.3333333333333333
 40
0.3333333333333333
 40
0.3333333333333333
 40
0.3333333333333333
 40
0.4444444444444444
 40
0.4444444444444444
 40
0.4444444444444444
 40
0.4444444444444444
 40
0.5555555555555556
 40
0.5555555555555556
 40
0.5555555555555556
 40
0.5555555555555556
 40
0.6666666666666666
 40
0.6666666666666666
 40
0.6666666666666666
 40
0.6666666666666666
 40
0.7777777777777778
 40
0.7777777777777778
 40
0.7777777777777778
 40
0.7777777777777778
 40
1.0
 40
1.0
 40
1.0
 40
1.0
 10
-40.64127
 20
-20.15216
 30
0.0
 10
-40.64127
 20
-20.15216
 30
0.0
 10
-40.64127
 20
-20.15216
 30
0.0
 10
-40.64127
 20
-20.15216
 30
0.0
 10
-40.64127
 20
-20.15216
 30
0.0
 10
-40.57764
 20
-20.19219
 30
0.0
 10
-40.52234
 20
-20.23926
 30
0.0
 10
-40.48118
 20
-20.29086
 30
0.0
 10
-40.48118
 20
-20.29086
 30
0.0
 10
-40.46719
 20
-20.30833
 30
0.0
 10
-40.46274
 20
-20.3341
 30
0.0
 10
-40.48118
 20
-20.35101
 30
0.0
 10
-40.48118
 20
-20.35101
 30
0.0
 10
-40.55893
 20
-20.42253
 30
0.0
 10
-40.63789
 20
-20.49647
 30
0.0
 10
-40.7213
 20
-20.56396
 30
0.0
 10
-40.7213
 20
-20.56396
 30
0.0
 10
-40.65191
 20
-20.56912
 30
0.0
 10
-40.58136
 20
-20.59678
 30
0.0
 10
-40.51549
 20
-20.63382
 30
0.0
 10
-40.51549
 20
-20.63382
 30
0.0
 10
-40.27161
 20
-20.57446
 30
0.0
 10
-40.01526
 20
-20.49391
 30
0.0
 10
-39.83446
 20
-20.31487
 30
0.0
 10
-39.83446
 20
-20.31487
 30
0.0
 10
-39.98436
 20
-20.24838
 30
0.0
 10
-40.15558
 20
-20.1678
 30
0.0
 10
-40.31536
 20
-20.16139
 30
0.0
 10
-40.31536
 20
-20.16139
 30
0.0
 10
-40.42506
 20
-20.15698
 30
0.0
 10
-40.53402
 20
-20.16925
 30
0.0
 10
-40.64127
 20
-20.15216
 30
0.0
  0
SPLINE
  5
98
330
1F
100
AcDbEntity
  8
Layer 1
370
     9
100
AcDbSpline
210
0.0
220
0.0
230
1.0
 70
    11
 71
     3
 72
    56
 73
    52
 74
     0
 42
0.000000001
 43
0.0000000001
 40
0.0
 40
0.0
 40
0.0
 40
0.0
 40
0.0714285714285714
 40
0.0714285714285714
 40
0.0714285714285714
 40
0.0714285714285714
 40
0.1428571428571428
 40
0.1428571428571428
 40
0.1428571428571428
 40
0.1428571428571428
 40
0.2142857142857143
 40
0.2142857142857143
 40
0.2142857142857143
 40
0.2142857142857143
 40
0.2857142857142857
 40
0.2857142857142857
 40
0.2857142857142857
 40
0.2857142857142857
 40
0.3571428571428572
 40
0.3571428571428572
 40
0.3571428571428572
 40
0.3571428571428572
 40
0.4285714285714285
 40
0.4285714285714285
 40
0.4285714285714285
 40
0.4285714285714285
 40
0.5
 40
0.5
 40
0.5
 40
0.5
 40
0.5714285714285714
 40
0.5714285714285714
 40
0.5714285714285714
 40
0.5714285714285714
 40
0.6428571428571429
 40
0.6428571428571429
 40
0.6428571428571429
 40
0.6428571428571429
 40
0.7142857142857143
 40
0.7142857142857143
 40
0.7142857142857143
 40
0.7142857142857143
 40
0.7857142857142857
 40
0.7857142857142857
 40
0.7857142857142857
 40
0.7857142857142857
 40
0.8571428571428571
 40
0.8571428571428571
 40
0.8571428571428571
 40
0.8571428571428571
 40
1.0
 40
1.0
 40
1.0
 40
1.0
 10
-40.97751
 20
-20.10551
 30
0.0
 10
-40.97751
 20
-20.10551
 30
0.0
 10
-40.97751
 20
-20.10551
 30
0.0
 10
-40.97751
 20
-20.10551
 30
0.0
 10
-40.97751
 20
-20.10551
 30
0.0
 10
-41.05647
 20
-20.08846
 30
0.0
 10
-41.13561
 20
-20.08023
 30
0.0
 10
-41.21643
 20
-20.08226
 30
0.0
 10
-41.21643
 20
-20.08226
 30
0.0
 10
-41.24599
 20
-20.08302
 30
0.0
 10
-41.29622
 20
-20.10221
 30
0.0
 10
-41.31954
 20
-20.08037
 30
0.0
 10
-41.31954
 20
-20.08037
 30
0.0
 10
-41.32119
 20
-20.07892
 30
0.0
 10
-41.31988
 20
-20.07299
 30
0.0
 10
-41.31988
 20
-20.07306
 30
0.0
 10
-41.31988
 20
-20.07306
 30
0.0
 10
-41.31978
 20
-20.07141
 30
0.0
 10
-41.3194
 20
-20.06972
 30
0.0
 10
-41.31892
 20
-20.06803
 30
0.0
 10
-41.31892
 20
-20.06803
 30
0.0
 10
-41.38878
 20
-20.13118
 30
0.0
 10
-41.46626
 20
-20.18393
 30
0.0
 10
-41.54926
 20
-20.22082
 30
0.0
 10
-41.54926
 20
-20.22082
 30
0.0
 10
-41.52893
 20
-20.22685
 30
0.0
 10
-41.50857
 20
-20.23305
 30
0.0
 10
-41.48825
 20
-20.23936
 30
0.0
 10
-41.48825
 20
-20.23936
 30
0.0
 10
-41.46241
 20
-20.24742
 30
0.0
 10
-41.4479
 20
-20.27791
 30
0.0
 10
-41.46268
 20
-20.30223
 30
0.0
 10
-41.46268
 20
-20.30223
 30
0.0
 10
-41.531
 20
-20.41413
 30
0.0
 10
-41.6111
 20
-20.52092
 30
0.0
 10
-41.70129
 20
-20.61856
 30
0.0
 10
-41.70129
 20
-20.61856
 30
0.0
 10
-41.54657
 20
-20.58359
 30
0.0
 10
-41.38314
 20
-20.63668
 30
0.0
 10
-41.24237
 20
-20.7287
 30
0.0
 10
-41.24237
 20
-20.7287
 30
0.0
 10
-41.23844
 20
-20.72646
 30
0.0
 10
-41.23396
 20
-20.7246
 30
0.0
 10
-41.22849
 20
-20.7237
 30
0.0
 10
-41.22849
 20
-20.7237
 30
0.0
 10
-40.96139
 20
-20.6775
 30
0.0
 10
-40.76447
 20
-20.4905
 30
0.0
 10
-40.56957
 20
-20.31601
 30
0.0
 10
-40.56957
 20
-20.31601
 30
0.0
 10
-40.67066
 20
-20.20105
 30
0.0
 10
-40.83192
 20
-20.1369
 30
0.0
 10
-40.97751
 20
-20.10551
 30
0.0
  0
SPLINE
  5
99
330
1F
100
AcDbEntity
  8
Layer 1
370
     9
100
AcDbSpline
210
0.0
220
0.0
230
1.0
 70
    11
 71
     3
 72
    28
 73
    24
 74
     0
 42
0.000000001
 43
0.0000000001
 40
0.0
 40
0.0
 40
0.0
 40
0.0
 40
0.1428571428571428
 40
0.1428571428571428
 40
0.1428571428571428
 40
0.1428571428571428
 40
0.2857142857142857
 40
0.2857142857142857
 40
0.2857142857142857
 40
0.2857142857142857
 40
0.4285714285714285
 40
0.4285714285714285
 40
0.4285714285714285
 40
0.4285714285714285
 40
0.5714285714285714
 40
0.5714285714285714
 40
0.5714285714285714
 40
0.5714285714285714
 40
0.7142857142857143
 40
0.7142857142857143
 40
0.7142857142857143
 40
0.7142857142857143
 40
1.0
 40
1.0
 40
1.0
 40
1.0
 10
-41.03504
 20
-19.67198
 30
0.0
 10
-41.03504
 20
-19.67198
 30
0.0
 10
-41.03504
 20
-19.67198
 30
0.0
 10
-41.03504
 20
-19.67198
 30
0.0
 10
-41.03504
 20
-19.67198
 30
0.0
 10
-41.09681
 20
-19.81182
 30
0.0
 10
-41.19107
 20
-19.9488
 30
0.0
 10
-41.30738
 20
-20.05711
 30
0.0
 10
-41.30738
 20
-20.05711
 30
0.0
 10
-41.16303
 20
-19.99317
 30
0.0
 10
-40.97072
 20
-20.00923
 30
0.0
 10
-40.8006
 20
-20.07354
 30
0.0
 10
-40.8006
 20
-20.07354
 30
0.0
 10
-40.7984
 20
-20.07079
 30
0.0
 10
-40.79599
 20
-20.06831
 30
0.0
 10
-40.79278
 20
-20.066
 30
0.0
 10
-40.79278
 20
-20.066
 30
0.0
 10
-40.59128
 20
-19.9201
 30
0.0
 10
-40.36139
 20
-19.77568
 30
0.0
 10
-40.27836
 20
-19.53139
 30
0.0
 10
-40.27836
 20
-19.53139
 30
0.0
 10
-40.54284
 20
-19.53776
 30
0.0
 10
-40.78203
 20
-19.6035
 30
0.0
 10
-41.03504
 20
-19.67198
 30
0.0
  0
SPLINE
  5
9A
330
1F
100
AcDbEntity
  8
Layer 1
370
     9
100
AcDbSpline
210
0.0
220
0.0
230
1.0
 70
    11
 71
     3
 72
    48
 73
    44
 74
     0
 42
0.000000001
 43
0.0000000001
 40
0.0
 40
0.0
 40
0.0
 40
0.0
 40
0.0833333333333333
 40
0.0833333333333333
 40
0.0833333333333333
 40
0.0833333333333333
 40
0.1666666666666667
 40
0.1666666666666667
 40
0.1666666666666667
 40
0.1666666666666667
 40
0.25
 40
0.25
 40
0.25
 40
0.25
 40
0.3333333333333333
 40
0.3333333333333333
 40
0.3333333333333333
 40
0.3333333333333333
 40
0.4166666666666667
 40
0.4166666666666667
 40
0.4166666666666667
 40
0.4166666666666667
 40
0.5
 40
0.5
 40
0.5
 40
0.5
 40
0.5833333333333334
 40
0.5833333333333334
 40
0.5833333333333334
 40
0.5833333333333334
 40
0.6666666666666666
 40
0.6666666666666666
 40
0.6666666666666666
 40
0.6666666666666666
 40
0.75
 40
0.75
 40
0.75
 40
0.75
 40
0.8333333333333334
 40
0.8333333333333334
 40
0.8333333333333334
 40
0.8333333333333334
 40
1.0
 40
1.0
 40
1.0
 40
1.0
 10
-40.91574
 20
-19.126
 30
0.0
 10
-40.91574
 20
-19.126
 30
0.0
 10
-40.91574
 20
-19.126
 30
0.0
 10
-40.91574
 20
-19.126
 30
0.0
 10
-40.91574
 20
-19.126
 30
0.0
 10
-40.96414
 20
-19.19477
 30
0.0
 10
-41.01668
 20
-19.26105
 30
0.0
 10
-41.07177
 20
-19.3262
 30
0.0
 10
-41.07177
 20
-19.3262
 30
0.0
 10
-41.09912
 20
-19.35855
 30
0.0
 10
-41.13709
 20
-19.41595
 30
0.0
 10
-41.17898
 20
-19.44964
 30
0.0
 10
-41.17898
 20
-19.44964
 30
0.0
 10
-41.12207
 20
-19.46604
 30
0.0
 10
-41.06674
 20
-19.48857
 30
0.0
 10
-41.01413
 20
-19.51764
 30
0.0
 10
-41.01413
 20
-19.51764
 30
0.0
 10
-40.99797
 20
-19.52657
 30
0.0
 10
-40.98891
 20
-19.54806
 30
0.0
 10
-40.99453
 20
-19.56581
 30
0.0
 10
-40.99453
 20
-19.56581
 30
0.0
 10
-41.00042
 20
-19.58424
 30
0.0
 10
-41.0071
 20
-19.60277
 30
0.0
 10
-41.0142
 20
-19.62131
 30
0.0
 10
-41.0142
 20
-19.62131
 30
0.0
 10
-40.92053
 20
-19.57866
 30
0.0
 10
-40.8231
 20
-19.54551
 30
0.0
 10
-40.72357
 20
-19.52036
 30
0.0
 10
-40.72357
 20
-19.52036
 30
0.0
 10
-40.72543
 20
-19.51062
 30
0.0
 10
-40.7233
 20
-19.49983
 30
0.0
 10
-40.71568
 20
-19.49125
 30
0.0
 10
-40.71568
 20
-19.49125
 30
0.0
 10
-40.64943
 20
-19.41674
 30
0.0
 10
-40.58043
 20
-19.35559
 30
0.0
 10
-40.52269
 20
-19.27163
 30
0.0
 10
-40.52269
 20
-19.27163
 30
0.0
 10
-40.49423
 20
-19.23032
 30
0.0
 10
-40.4655
 20
-19.18946
 30
0.0
 10
-40.4346
 20
-19.15026
 30
0.0
 10
-40.4346
 20
-19.15026
 30
0.0
 10
-40.59589
 20
-19.15402
 30
0.0
 10
-40.75985
 20
-19.16731
 30
0.0
 10
-40.91574
 20
-19.126
 30
0.0
  0
SPLINE
  5
9B
330
1F
100
AcDbEntity
  8
Layer 1
370
     9
100
AcDbSpline
210
0.0
220
0.0
230
1.0
 70
    11
 71
     3
 72
    48
 73
    44
 74
     0
 42
0.000000001
 43
0.0000000001
 40
0.0
 40
0.0
 40
0.0
 40
0.0
 40
0.0833333333333333
 40
0.0833333333333333
 40
0.0833333333333333
 40
0.0833333333333333
 40
0.1666666666666667
 40
0.1666666666666667
 40
0.1666666666666667
 40
0.1666666666666667
 40
0.25
 40
0.25
 40
0.25
 40
0.25
 40
0.3333333333333333
 40
0.3333333333333333
 40
0.3333333333333333
 40
0.3333333333333333
 40
0.4166666666666667
 40
0.4166666666666667
 40
0.4166666666666667
 40
0.4166666666666667
 40
0.5
 40
0.5
 40
0.5
 40
0.5
 40
0.5833333333333334
 40
0.5833333333333334
 40
0.5833333333333334
 40
0.5833333333333334
 40
0.6666666666666666
 40
0.6666666666666666
 40
0.6666666666666666
 40
0.6666666666666666
 40
0.75
 40
0.75
 40
0.75
 40
0.75
 40
0.8333333333333334
 40
0.8333333333333334
 40
0.8333333333333334
 40
0.8333333333333334
 40
1.0
 40
1.0
 40
1.0
 40
1.0
 10
-41.57654
 20
-19.14168
 30
0.0
 10
-41.57654
 20
-19.14168
 30
0.0
 10
-41.57654
 20
-19.14168
 30
0.0
 10
-41.57654
 20
-19.14168
 30
0.0
 10
-41.57654
 20
-19.14168
 30
0.0
 10
-41.60045
 20
-19.2531
 30
0.0
 10
-41.64279
 20
-19.36075
 30
0.0
 10
-41.70057
 20
-19.45977
 30
0.0
 10
-41.70057
 20
-19.45977
 30
0.0
 10
-41.56555
 20
-19.41767
 30
0.0
 10
-41.42162
 20
-19.40557
 30
0.0
 10
-41.28299
 20
-19.42707
 30
0.0
 10
-41.28299
 20
-19.42707
 30
0.0
 10
-41.27913
 20
-19.41663
 30
0.0
 10
-41.26941
 20
-19.40871
 30
0.0
 10
-41.25915
 20
-19.40664
 30
0.0
 10
-41.25915
 20
-19.40664
 30
0.0
 10
-41.25294
 20
-19.40127
 30
0.0
 10
-41.24681
 20
-19.39596
 30
0.0
 10
-41.24065
 20
-19.39066
 30
0.0
 10
-41.24065
 20
-19.39066
 30
0.0
 10
-41.22225
 20
-19.37343
 30
0.0
 10
-41.20457
 20
-19.35559
 30
0.0
 10
-41.18773
 20
-19.33691
 30
0.0
 10
-41.18773
 20
-19.33691
 30
0.0
 10
-41.14866
 20
-19.2934
 30
0.0
 10
-41.1109
 20
-19.24872
 30
0.0
 10
-41.07487
 20
-19.20266
 30
0.0
 10
-41.07487
 20
-19.20266
 30
0.0
 10
-41.04582
 20
-19.16563
 30
0.0
 10
-41.01768
 20
-19.1288
 30
0.0
 10
-40.99067
 20
-19.09156
 30
0.0
 10
-40.99067
 20
-19.09156
 30
0.0
 10
-40.99098
 20
-19.08449
 30
0.0
 10
-40.98654
 20
-19.0775
 30
0.0
 10
-40.97889
 20
-19.07543
 30
0.0
 10
-40.97889
 20
-19.07543
 30
0.0
 10
-40.92797
 20
-19.00419
 30
0.0
 10
-40.88174
 20
-18.93108
 30
0.0
 10
-40.8435
 20
-18.85136
 30
0.0
 10
-40.8435
 20
-18.85136
 30
0.0
 10
-41.09657
 20
-18.93266
 30
0.0
 10
-41.34265
 20
-19.01053
 30
0.0
 10
-41.57654
 20
-19.14168
 30
0.0
  0
SPLINE
  5
9C
330
1F
100
AcDbEntity
  8
Layer 1
370
     9
100
AcDbSpline
210
0.0
220
0.0
230
1.0
 70
    11
 71
     3
 72
    40
 73
    36
 74
     0
 42
0.000000001
 43
0.0000000001
 40
0.0
 40
0.0
 40
0.0
 40
0.0
 40
0.1
 40
0.1
 40
0.1
 40
0.1
 40
0.2
 40
0.2
 40
0.2
 40
0.2
 40
0.3
 40
0.3
 40
0.3
 40
0.3
 40
0.4
 40
0.4
 40
0.4
 40
0.4
 40
0.5
 40
0.5
 40
0.5
 40
0.5
 40
0.6
 40
0.6
 40
0.6
 40
0.6
 40
0.7
 40
0.7
 40
0.7
 40
0.7
 40
0.8
 40
0.8
 40
0.8
 40
0.8
 40
1.0
 40
1.0
 40
1.0
 40
1.0
 10
-41.82724
 20
-18.6479
 30
0.0
 10
-41.82724
 20
-18.6479
 30
0.0
 10
-41.82724
 20
-18.6479
 30
0.0
 10
-41.82724
 20
-18.6479
 30
0.0
 10
-41.82724
 20
-18.6479
 30
0.0
 10
-41.83716
 20
-18.76379
 30
0.0
 10
-41.86062
 20
-18.87527
 30
0.0
 10
-41.9112
 20
-18.98407
 30
0.0
 10
-41.9112
 20
-18.98407
 30
0.0
 10
-41.8024
 20
-18.98052
 30
0.0
 10
-41.69243
 20
-18.99213
 30
0.0
 10
-41.58995
 20
-19.01211
 30
0.0
 10
-41.58995
 20
-19.01211
 30
0.0
 10
-41.57434
 20
-19.01514
 30
0.0
 10
-41.55904
 20
-19.03395
 30
0.0
 10
-41.56097
 20
-19.05018
 30
0.0
 10
-41.56097
 20
-19.05018
 30
0.0
 10
-41.56266
 20
-19.06465
 30
0.0
 10
-41.56493
 20
-19.07898
 30
0.0
 10
-41.56731
 20
-19.09328
 30
0.0
 10
-41.56731
 20
-19.09328
 30
0.0
 10
-41.49121
 20
-19.03847
 30
0.0
 10
-41.41056
 20
-18.99289
 30
0.0
 10
-41.32708
 20
-18.95296
 30
0.0
 10
-41.32708
 20
-18.95296
 30
0.0
 10
-41.33725
 20
-18.94235
 30
0.0
 10
-41.34124
 20
-18.92653
 30
0.0
 10
-41.33101
 20
-18.90986
 30
0.0
 10
-41.33101
 20
-18.90986
 30
0.0
 10
-41.22173
 20
-18.7322
 30
0.0
 10
-41.1839
 20
-18.53397
 30
0.0
 10
-41.20709
 20
-18.32915
 30
0.0
 10
-41.20709
 20
-18.32915
 30
0.0
 10
-41.43278
 20
-18.39527
 30
0.0
 10
-41.60968
 20
-18.56204
 30
0.0
 10
-41.82724
 20
-18.6479
 30
0.0
  0
SPLINE
  5
9D
330
1F
100
AcDbEntity
  8
Layer 1
370
     9
100
AcDbSpline
210
0.0
220
0.0
230
1.0
 70
    11
 71
     3
 72
    36
 73
    32
 74
     0
 42
0.000000001
 43
0.0000000001
 40
0.0
 40
0.0
 40
0.0
 40
0.0
 40
0.1111111111111111
 40
0.1111111111111111
 40
0.1111111111111111
 40
0.1111111111111111
 40
0.2222222222222222
 40
0.2222222222222222
 40
0.2222222222222222
 40
0.2222222222222222
 40
0.3333333333333333
 40
0.3333333333333333
 40
0.3333333333333333
 40
0.3333333333333333
 40
0.4444444444444444
 40
0.4444444444444444
 40
0.4444444444444444
 40
0.4444444444444444
 40
0.5555555555555556
 40
0.5555555555555556
 40
0.5555555555555556
 40
0.5555555555555556
 40
0.6666666666666666
 40
0.6666666666666666
 40
0.6666666666666666
 40
0.6666666666666666
 40
0.7777777777777778
 40
0.7777777777777778
 40
0.7777777777777778
 40
0.7777777777777778
 40
1.0
 40
1.0
 40
1.0
 40
1.0
 10
-41.83251
 20
-18.39678
 30
0.0
 10
-41.83251
 20
-18.39678
 30
0.0
 10
-41.83251
 20
-18.39678
 30
0.0
 10
-41.83251
 20
-18.39678
 30
0.0
 10
-41.83251
 20
-18.39678
 30
0.0
 10
-41.82569
 20
-18.4045
 30
0.0
 10
-41.82135
 20
-18.41459
 30
0.0
 10
-41.82118
 20
-18.42493
 30
0.0
 10
-41.82118
 20
-18.42493
 30
0.0
 10
-41.82028
 20
-18.48797
 30
0.0
 10
-41.82076
 20
-18.54954
 30
0.0
 10
-41.82445
 20
-18.60986
 30
0.0
 10
-41.82445
 20
-18.60986
 30
0.0
 10
-41.71776
 20
-18.54823
 30
0.0
 10
-41.61826
 20
-18.47457
 30
0.0
 10
-41.51518
 20
-18.40791
 30
0.0
 10
-41.51518
 20
-18.40791
 30
0.0
 10
-41.51643
 20
-18.3982
 30
0.0
 10
-41.51391
 20
-18.38776
 30
0.0
 10
-41.50585
 20
-18.37835
 30
0.0
 10
-41.50585
 20
-18.37835
 30
0.0
 10
-41.41083
 20
-18.26659
 30
0.0
 10
-41.39846
 20
-18.13141
 30
0.0
 10
-41.39567
 20
-17.99236
 30
0.0
 10
-41.39567
 20
-17.99236
 30
0.0
 10
-41.51208
 20
-18.03108
 30
0.0
 10
-41.63211
 20
-18.05744
 30
0.0
 10
-41.74756
 20
-18.09947
 30
0.0
 10
-41.74756
 20
-18.09947
 30
0.0
 10
-41.76757
 20
-18.20007
 30
0.0
 10
-41.79558
 20
-18.29922
 30
0.0
 10
-41.83251
 20
-18.39678
 30
0.0
  0
SPLINE
  5
9E
330
1F
100
AcDbEntity
  8
Layer 1
370
     9
100
AcDbSpline
210
0.0
220
0.0
230
1.0
 70
    11
 71
     3
 72
    24
 73
    20
 74
     0
 42
0.000000001
 43
0.0000000001
 40
0.0
 40
0.0
 40
0.0
 40
0.0
 40
0.1666666666666667
 40
0.1666666666666667
 40
0.1666666666666667
 40
0.1666666666666667
 40
0.3333333333333333
 40
0.3333333333333333
 40
0.3333333333333333
 40
0.3333333333333333
 40
0.5
 40
0.5
 40
0.5
 40
0.5
 40
0.6666666666666666
 40
0.6666666666666666
 40
0.6666666666666666
 40
0.6666666666666666
 40
1.0
 40
1.0
 40
1.0
 40
1.0
 10
-42.41642
 20
-18.50644
 30
0.0
 10
-42.41642
 20
-18.50644
 30
0.0
 10
-42.41642
 20
-18.50644
 30
0.0
 10
-42.41642
 20
-18.50644
 30
0.0
 10
-42.41642
 20
-18.50644
 30
0.0
 10
-42.27583
 20
-18.39912
 30
0.0
 10
-42.08535
 20
-18.39468
 30
0.0
 10
-41.90696
 20
-18.38576
 30
0.0
 10
-41.90696
 20
-18.38576
 30
0.0
 10
-41.82642
 20
-18.17678
 30
0.0
 10
-41.78621
 20
-17.9607
 30
0.0
 10
-41.77812
 20
-17.73753
 30
0.0
 10
-41.77812
 20
-17.73753
 30
0.0
 10
-41.97479
 20
-17.84653
 30
0.0
 10
-42.1414
 20
-17.99312
 30
0.0
 10
-42.32895
 20
-18.11556
 30
0.0
 10
-42.32895
 20
-18.11556
 30
0.0
 10
-42.34676
 20
-18.24909
 30
0.0
 10
-42.37587
 20
-18.37949
 30
0.0
 10
-42.41642
 20
-18.50644
 30
0.0
  0
SPLINE
  5
9F
330
1F
100
AcDbEntity
  8
Layer 1
370
     9
100
AcDbSpline
210
0.0
220
0.0
230
1.0
 70
    11
 71
     3
 72
    48
 73
    44
 74
     0
 42
0.000000001
 43
0.0000000001
 40
0.0
 40
0.0
 40
0.0
 40
0.0
 40
0.0833333333333333
 40
0.0833333333333333
 40
0.0833333333333333
 40
0.0833333333333333
 40
0.1666666666666667
 40
0.1666666666666667
 40
0.1666666666666667
 40
0.1666666666666667
 40
0.25
 40
0.25
 40
0.25
 40
0.25
 40
0.3333333333333333
 40
0.3333333333333333
 40
0.3333333333333333
 40
0.3333333333333333
 40
0.4166666666666667
 40
0.4166666666666667
 40
0.4166666666666667
 40
0.4166666666666667
 40
0.5
 40
0.5
 40
0.5
 40
0.5
 40
0.5833333333333334
 40
0.5833333333333334
 40
0.5833333333333334
 40
0.5833333333333334
 40
0.6666666666666666
 40
0.6666666666666666
 40
0.6666666666666666
 40
0.6666666666666666
 40
0.75
 40
0.75
 40
0.75
 40
0.75
 40
0.8333333333333334
 40
0.8333333333333334
 40
0.8333333333333334
 40
0.8333333333333334
 40
1.0
 40
1.0
 40
1.0
 40
1.0
 10
-42.94896
 20
-18.32461
 30
0.0
 10
-42.94896
 20
-18.32461
 30
0.0
 10
-42.94896
 20
-18.32461
 30
0.0
 10
-42.94896
 20
-18.32461
 30
0.0
 10
-42.94896
 20
-18.32461
 30
0.0
 10
-42.97921
 20
-18.37436
 30
0.0
 10
-43.02531
 20
-18.47826
 30
0.0
 10
-43.08219
 20
-18.50275
 30
0.0
 10
-43.08219
 20
-18.50275
 30
0.0
 10
-43.08742
 20
-18.50499
 30
0.0
 10
-43.09263
 20
-18.50682
 30
0.0
 10
-43.09759
 20
-18.50799
 30
0.0
 10
-43.09759
 20
-18.50799
 30
0.0
 10
-43.07109
 20
-18.56742
 30
0.0
 10
-43.04984
 20
-18.62874
 30
0.0
 10
-43.03668
 20
-18.69217
 30
0.0
 10
-43.03668
 20
-18.69217
 30
0.0
 10
-42.99031
 20
-18.91716
 30
0.0
 10
-43.04408
 20
-19.12731
 30
0.0
 10
-43.14034
 20
-19.33199
 30
0.0
 10
-43.14034
 20
-19.33199
 30
0.0
 10
-43.1444
 20
-19.34071
 30
0.0
 10
-43.15019
 20
-19.34622
 30
0.0
 10
-43.15671
 20
-19.34925
 30
0.0
 10
-43.15671
 20
-19.34925
 30
0.0
 10
-43.12749
 20
-19.4002
 30
0.0
 10
-43.09969
 20
-19.45198
 30
0.0
 10
-43.07568
 20
-19.50504
 30
0.0
 10
-43.07568
 20
-19.50504
 30
0.0
 10
-43.03058
 20
-19.35665
 30
0.0
 10
-42.93277
 20
-19.23446
 30
0.0
 10
-42.81109
 20
-19.1393
 30
0.0
 10
-42.81109
 20
-19.1393
 30
0.0
 10
-42.8134
 20
-19.13055
 30
0.0
 10
-42.81202
 20
-19.12063
 30
0.0
 10
-42.80506
 20
-19.11061
 30
0.0
 10
-42.80506
 20
-19.11061
 30
0.0
 10
-42.54803
 20
-18.73847
 30
0.0
 10
-42.40151
 20
-18.32199
 30
0.0
 10
-42.38659
 20
-17.87106
 30
0.0
 10
-42.38659
 20
-17.87106
 30
0.0
 10
-42.62864
 20
-17.9473
 30
0.0
 10
-42.81619
 20
-18.1065
 30
0.0
 10
-42.94896
 20
-18.32461
 30
0.0
  0
SPLINE
  5
A0
330
1F
100
AcDbEntity
  8
Layer 1
370
     9
100
AcDbSpline
210
0.0
220
0.0
230
1.0
 70
    11
 71
     3
 72
    52
 73
    48
 74
     0
 42
0.000000001
 43
0.0000000001
 40
0.0
 40
0.0
 40
0.0
 40
0.0
 40
0.0769230769230769
 40
0.0769230769230769
 40
0.0769230769230769
 40
0.0769230769230769
 40
0.1538461538461539
 40
0.1538461538461539
 40
0.1538461538461539
 40
0.1538461538461539
 40
0.2307692307692308
 40
0.2307692307692308
 40
0.2307692307692308
 40
0.2307692307692308
 40
0.3076923076923077
 40
0.3076923076923077
 40
0.3076923076923077
 40
0.3076923076923077
 40
0.3846153846153846
 40
0.3846153846153846
 40
0.3846153846153846
 40
0.3846153846153846
 40
0.4615384615384616
 40
0.4615384615384616
 40
0.4615384615384616
 40
0.4615384615384616
 40
0.5384615384615384
 40
0.5384615384615384
 40
0.5384615384615384
 40
0.5384615384615384
 40
0.6153846153846154
 40
0.6153846153846154
 40
0.6153846153846154
 40
0.6153846153846154
 40
0.6923076923076923
 40
0.6923076923076923
 40
0.6923076923076923
 40
0.6923076923076923
 40
0.7692307692307693
 40
0.7692307692307693
 40
0.7692307692307693
 40
0.7692307692307693
 40
0.8461538461538461
 40
0.8461538461538461
 40
0.8461538461538461
 40
0.8461538461538461
 40
1.0
 40
1.0
 40
1.0
 40
1.0
 10
-43.5028
 20
-17.75823
 30
0.0
 10
-43.5028
 20
-17.75823
 30
0.0
 10
-43.5028
 20
-17.75823
 30
0.0
 10
-43.5028
 20
-17.75823
 30
0.0
 10
-43.5028
 20
-17.75823
 30
0.0
 10
-43.46532
 20
-17.86651
 30
0.0
 10
-43.44127
 20
-17.97934
 30
0.0
 10
-43.4361
 20
-18.09137
 30
0.0
 10
-43.4361
 20
-18.09137
 30
0.0
 10
-43.43131
 20
-18.08624
 30
0.0
 10
-43.42649
 20
-18.08118
 30
0.0
 10
-43.4216
 20
-18.07622
 30
0.0
 10
-43.4216
 20
-18.07622
 30
0.0
 10
-43.40392
 20
-18.05789
 30
0.0
 10
-43.37747
 20
-18.06498
 30
0.0
 10
-43.36393
 20
-18.08362
 30
0.0
 10
-43.36393
 20
-18.08362
 30
0.0
 10
-43.27528
 20
-18.20627
 30
0.0
 10
-43.17972
 20
-18.33611
 30
0.0
 10
-43.11212
 20
-18.47643
 30
0.0
 10
-43.11212
 20
-18.47643
 30
0.0
 10
-43.10875
 20
-18.47671
 30
0.0
 10
-43.10555
 20
-18.4786
 30
0.0
 10
-43.10441
 20
-18.48298
 30
0.0
 10
-43.10441
 20
-18.48298
 30
0.0
 10
-43.11309
 20
-18.44949
 30
0.0
 10
-43.02834
 20
-18.34256
 30
0.0
 10
-43.01098
 20
-18.31186
 30
0.0
 10
-43.01098
 20
-18.31186
 30
0.0
 10
-42.97494
 20
-18.2483
 30
0.0
 10
-42.942
 20
-18.18687
 30
0.0
 10
-42.8945
 20
-18.13092
 30
0.0
 10
-42.8945
 20
-18.13092
 30
0.0
 10
-42.89123
 20
-18.1271
 30
0.0
 10
-42.88795
 20
-18.12352
 30
0.0
 10
-42.88468
 20
-18.11969
 30
0.0
 10
-42.88468
 20
-18.11969
 30
0.0
 10
-42.88723
 20
-18.1148
 30
0.0
 10
-42.88888
 20
-18.10905
 30
0.0
 10
-42.88888
 20
-18.10216
 30
0.0
 10
-42.88888
 20
-18.10216
 30
0.0
 10
-42.88985
 20
-17.83151
 30
0.0
 10
-42.93363
 20
-17.57712
 30
0.0
 10
-43.03027
 20
-17.32601
 30
0.0
 10
-43.03027
 20
-17.32601
 30
0.0
 10
-43.22182
 20
-17.43715
 30
0.0
 10
-43.37168
 20
-17.58022
 30
0.0
 10
-43.5028
 20
-17.75823
 30
0.0
  0
SPLINE
  5
A1
330
1F
100
AcDbEntity
  8
Layer 1
370
     9
100
AcDbSpline
210
0.0
220
0.0
230
1.0
 70
    11
 71
     3
 72
    32
 73
    28
 74
     0
 42
0.000000001
 43
0.0000000001
 40
0.0
 40
0.0
 40
0.0
 40
0.0
 40
0.125
 40
0.125
 40
0.125
 40
0.125
 40
0.25
 40
0.25
 40
0.25
 40
0.25
 40
0.375
 40
0.375
 40
0.375
 40
0.375
 40
0.5
 40
0.5
 40
0.5
 40
0.5
 40
0.625
 40
0.625
 40
0.625
 40
0.625
 40
0.75
 40
0.75
 40
0.75
 40
0.75
 40
1.0
 40
1.0
 40
1.0
 40
1.0
 10
-44.06483
 20
-18.10129
 30
0.0
 10
-44.06483
 20
-18.10129
 30
0.0
 10
-44.06483
 20
-18.10129
 30
0.0
 10
-44.06483
 20
-18.10129
 30
0.0
 10
-44.06483
 20
-18.10129
 30
0.0
 10
-43.94591
 20
-18.32809
 30
0.0
 10
-43.83604
 20
-18.55419
 30
0.0
 10
-43.85813
 20
-18.82831
 30
0.0
 10
-43.85813
 20
-18.82831
 30
0.0
 10
-43.85875
 20
-18.83596
 30
0.0
 10
-43.86109
 20
-18.84237
 30
0.0
 10
-43.86443
 20
-18.84788
 30
0.0
 10
-43.86443
 20
-18.84788
 30
0.0
 10
-43.85499
 20
-18.85843
 30
0.0
 10
-43.84555
 20
-18.86876
 30
0.0
 10
-43.83614
 20
-18.87947
 30
0.0
 10
-43.83614
 20
-18.87947
 30
0.0
 10
-43.83449
 20
-18.61703
 30
0.0
 10
-43.68608
 20
-18.37539
 30
0.0
 10
-43.51493
 20
-18.17781
 30
0.0
 10
-43.51493
 20
-18.17781
 30
0.0
 10
-43.51065
 20
-17.93046
 30
0.0
 10
-43.59306
 20
-17.68633
 30
0.0
 10
-43.72318
 20
-17.47704
 30
0.0
 10
-43.72318
 20
-17.47704
 30
0.0
 10
-43.87632
 20
-17.66315
 30
0.0
 10
-43.89847
 20
-17.9268
 30
0.0
 10
-44.06483
 20
-18.10129
 30
0.0
  0
SPLINE
  5
A2
330
1F
100
AcDbEntity
  8
Layer 1
370
     9
100
AcDbSpline
210
0.0
220
0.0
230
1.0
 70
    11
 71
     3
 72
    40
 73
    36
 74
     0
 42
0.000000001
 43
0.0000000001
 40
0.0
 40
0.0
 40
0.0
 40
0.0
 40
0.1
 40
0.1
 40
0.1
 40
0.1
 40
0.2
 40
0.2
 40
0.2
 40
0.2
 40
0.3
 40
0.3
 40
0.3
 40
0.3
 40
0.4
 40
0.4
 40
0.4
 40
0.4
 40
0.5
 40
0.5
 40
0.5
 40
0.5
 40
0.6
 40
0.6
 40
0.6
 40
0.6
 40
0.7
 40
0.7
 40
0.7
 40
0.7
 40
0.8
 40
0.8
 40
0.8
 40
0.8
 40
1.0
 40
1.0
 40
1.0
 40
1.0
 10
-44.66203
 20
-18.75538
 30
0.0
 10
-44.66203
 20
-18.75538
 30
0.0
 10
-44.66203
 20
-18.75538
 30
0.0
 10
-44.66203
 20
-18.75538
 30
0.0
 10
-44.66203
 20
-18.75538
 30
0.0
 10
-44.53939
 20
-18.86538
 30
0.0
 10
-44.42281
 20
-18.9829
 30
0.0
 10
-44.30458
 20
-19.09755
 30
0.0
 10
-44.30458
 20
-19.09755
 30
0.0
 10
-44.24246
 20
-18.95585
 30
0.0
 10
-44.1296
 20
-18.84468
 30
0.0
 10
-44.07596
 20
-18.69768
 30
0.0
 10
-44.07596
 20
-18.69768
 30
0.0
 10
-44.06735
 20
-18.67401
 30
0.0
 10
-44.035
 20
-18.65978
 30
0.0
 10
-44.0156
 20
-18.68173
 30
0.0
 10
-44.0156
 20
-18.68173
 30
0.0
 10
-43.9919
 20
-18.70856
 30
0.0
 10
-43.96623
 20
-18.73637
 30
0.0
 10
-43.94002
 20
-18.76489
 30
0.0
 10
-43.94002
 20
-18.76489
 30
0.0
 10
-43.94205
 20
-18.40953
 30
0.0
 10
-44.16057
 20
-18.13395
 30
0.0
 10
-44.2949
 20
-17.81594
 30
0.0
 10
-44.2949
 20
-17.81594
 30
0.0
 10
-44.40331
 20
-17.9536
 30
0.0
 10
-44.4924
 20
-18.10812
 30
0.0
 10
-44.55192
 20
-18.2729
 30
0.0
 10
-44.55192
 20
-18.2729
 30
0.0
 10
-44.58789
 20
-18.37263
 30
0.0
 10
-44.60574
 20
-18.46131
 30
0.0
 10
-44.618
 20
-18.56707
 30
0.0
 10
-44.618
 20
-18.56707
 30
0.0
 10
-44.62558
 20
-18.63212
 30
0.0
 10
-44.63438
 20
-18.69633
 30
0.0
 10
-44.66203
 20
-18.75538
 30
0.0
  0
SPLINE
  5
A3
330
1F
100
AcDbEntity
  8
Layer 1
370
     9
100
AcDbSpline
210
0.0
220
0.0
230
1.0
 70
    11
 71
     3
 72
    44
 73
    40
 74
     0
 42
0.000000001
 43
0.0000000001
 40
0.0
 40
0.0
 40
0.0
 40
0.0
 40
0.0909090909090909
 40
0.0909090909090909
 40
0.0909090909090909
 40
0.0909090909090909
 40
0.1818181818181818
 40
0.1818181818181818
 40
0.1818181818181818
 40
0.1818181818181818
 40
0.2727272727272727
 40
0.2727272727272727
 40
0.2727272727272727
 40
0.2727272727272727
 40
0.3636363636363636
 40
0.3636363636363636
 40
0.3636363636363636
 40
0.3636363636363636
 40
0.4545454545454545
 40
0.4545454545454545
 40
0.4545454545454545
 40
0.4545454545454545
 40
0.5454545454545454
 40
0.5454545454545454
 40
0.5454545454545454
 40
0.5454545454545454
 40
0.6363636363636364
 40
0.6363636363636364
 40
0.6363636363636364
 40
0.6363636363636364
 40
0.7272727272727273
 40
0.7272727272727273
 40
0.7272727272727273
 40
0.7272727272727273
 40
0.8181818181818182
 40
0.8181818181818182
 40
0.8181818181818182
 40
0.8181818181818182
 40
1.0
 40
1.0
 40
1.0
 40
1.0
 10
-45.03956
 20
-18.55557
 30
0.0
 10
-45.03956
 20
-18.55557
 30
0.0
 10
-45.03956
 20
-18.55557
 30
0.0
 10
-45.03956
 20
-18.55557
 30
0.0
 10
-45.03956
 20
-18.55557
 30
0.0
 10
-45.1539
 20
-18.73506
 30
0.0
 10
-45.13942
 20
-18.96388
 30
0.0
 10
-45.09682
 20
-19.16559
 30
0.0
 10
-45.09682
 20
-19.16559
 30
0.0
 10
-45.08988
 20
-19.19845
 30
0.0
 10
-45.03629
 20
-19.41009
 30
0.0
 10
-44.99112
 20
-19.49749
 30
0.0
 10
-44.99112
 20
-19.49749
 30
0.0
 10
-44.90491
 20
-19.52281
 30
0.0
 10
-44.82088
 20
-19.55533
 30
0.0
 10
-44.74094
 20
-19.59798
 30
0.0
 10
-44.74094
 20
-19.59798
 30
0.0
 10
-44.60639
 20
-19.66961
 30
0.0
 10
-44.48475
 20
-19.76052
 30
0.0
 10
-44.36597
 20
-19.85513
 30
0.0
 10
-44.36597
 20
-19.85513
 30
0.0
 10
-44.36693
 20
-19.8225
 30
0.0
 10
-44.36624
 20
-19.7895
 30
0.0
 10
-44.36339
 20
-19.75618
 30
0.0
 10
-44.36339
 20
-19.75618
 30
0.0
 10
-44.36063
 20
-19.72504
 30
0.0
 10
-44.33193
 20
-19.70799
 30
0.0
 10
-44.30347
 20
-19.7218
 30
0.0
 10
-44.30347
 20
-19.7218
 30
0.0
 10
-44.29069
 20
-19.7279
 30
0.0
 10
-44.27784
 20
-19.73379
 30
0.0
 10
-44.26489
 20
-19.73961
 30
0.0
 10
-44.26489
 20
-19.73961
 30
0.0
 10
-44.30695
 20
-19.55761
 30
0.0
 10
-44.37844
 20
-19.35318
 30
0.0
 10
-44.33203
 20
-19.17568
 30
0.0
 10
-44.33203
 20
-19.17568
 30
0.0
 10
-44.56832
 20
-18.96567
 30
0.0
 10
-44.77214
 20
-18.72792
 30
0.0
 10
-45.03956
 20
-18.55557
 30
0.0
  0
SPLINE
  5
A4
330
1F
100
AcDbEntity
  8
Layer 1
370
     9
100
AcDbSpline
210
0.0
220
0.0
230
1.0
 70
    11
 71
     3
 72
    40
 73
    36
 74
     0
 42
0.000000001
 43
0.0000000001
 40
0.0
 40
0.0
 40
0.0
 40
0.0
 40
0.1
 40
0.1
 40
0.1
 40
0.1
 40
0.2
 40
0.2
 40
0.2
 40
0.2
 40
0.3
 40
0.3
 40
0.3
 40
0.3
 40
0.4
 40
0.4
 40
0.4
 40
0.4
 40
0.5
 40
0.5
 40
0.5
 40
0.5
 40
0.6
 40
0.6
 40
0.6
 40
0.6
 40
0.7
 40
0.7
 40
0.7
 40
0.7
 40
0.8
 40
0.8
 40
0.8
 40
0.8
 40
1.0
 40
1.0
 40
1.0
 40
1.0
 10
-45.4425
 20
-18.44288
 30
0.0
 10
-45.4425
 20
-18.44288
 30
0.0
 10
-45.4425
 20
-18.44288
 30
0.0
 10
-45.4425
 20
-18.44288
 30
0.0
 10
-45.4425
 20
-18.44288
 30
0.0
 10
-45.43862
 20
-18.54189
 30
0.0
 10
-45.42322
 20
-18.65541
 30
0.0
 10
-45.44396
 20
-18.75631
 30
0.0
 10
-45.44396
 20
-18.75631
 30
0.0
 10
-45.35318
 20
-18.80007
 30
0.0
 10
-45.26942
 20
-18.85419
 30
0.0
 10
-45.19917
 20
-18.91954
 30
0.0
 10
-45.19917
 20
-18.91954
 30
0.0
 10
-45.20422
 20
-18.7653
 30
0.0
 10
-45.17478
 20
-18.61265
 30
0.0
 10
-45.0813
 20
-18.48704
 30
0.0
 10
-45.0813
 20
-18.48704
 30
0.0
 10
-45.06957
 20
-18.47133
 30
0.0
 10
-45.0496
 20
-18.46265
 30
0.0
 10
-45.03114
 20
-18.47395
 30
0.0
 10
-45.03114
 20
-18.47395
 30
0.0
 10
-44.99164
 20
-18.4981
 30
0.0
 10
-44.95331
 20
-18.52374
 30
0.0
 10
-44.91573
 20
-18.5504
 30
0.0
 10
-44.91573
 20
-18.5504
 30
0.0
 10
-44.95321
 20
-18.47013
 30
0.0
 10
-44.99088
 20
-18.39027
 30
0.0
 10
-45.03894
 20
-18.31431
 30
0.0
 10
-45.03894
 20
-18.31431
 30
0.0
 10
-45.09079
 20
-18.23238
 30
0.0
 10
-45.22718
 20
-18.0016
 30
0.0
 10
-45.35518
 20
-18.04607
 30
0.0
 10
-45.35518
 20
-18.04607
 30
0.0
 10
-45.4795
 20
-18.08917
 30
0.0
 10
-45.44646
 20
-18.34266
 30
0.0
 10
-45.4425
 20
-18.44288
 30
0.0
  0
SPLINE
  5
A5
330
1F
100
AcDbEntity
  8
Layer 1
370
     9
100
AcDbSpline
210
0.0
220
0.0
230
1.0
 70
    11
 71
     3
 72
    48
 73
    44
 74
     0
 42
0.000000001
 43
0.0000000001
 40
0.0
 40
0.0
 40
0.0
 40
0.0
 40
0.0833333333333333
 40
0.0833333333333333
 40
0.0833333333333333
 40
0.0833333333333333
 40
0.1666666666666667
 40
0.1666666666666667
 40
0.1666666666666667
 40
0.1666666666666667
 40
0.25
 40
0.25
 40
0.25
 40
0.25
 40
0.3333333333333333
 40
0.3333333333333333
 40
0.3333333333333333
 40
0.3333333333333333
 40
0.4166666666666667
 40
0.4166666666666667
 40
0.4166666666666667
 40
0.4166666666666667
 40
0.5
 40
0.5
 40
0.5
 40
0.5
 40
0.5833333333333334
 40
0.5833333333333334
 40
0.5833333333333334
 40
0.5833333333333334
 40
0.6666666666666666
 40
0.6666666666666666
 40
0.6666666666666666
 40
0.6666666666666666
 40
0.75
 40
0.75
 40
0.75
 40
0.75
 40
0.8333333333333334
 40
0.8333333333333334
 40
0.8333333333333334
 40
0.8333333333333334
 40
1.0
 40
1.0
 40
1.0
 40
1.0
 10
-45.75805
 20
-19.50379
 30
0.0
 10
-45.75805
 20
-19.50379
 30
0.0
 10
-45.75805
 20
-19.50379
 30
0.0
 10
-45.75805
 20
-19.50379
 30
0.0
 10
-45.75805
 20
-19.50379
 30
0.0
 10
-45.75518
 20
-19.50758
 30
0.0
 10
-45.75436
 20
-19.51131
 30
0.0
 10
-45.75436
 20
-19.51472
 30
0.0
 10
-45.75436
 20
-19.51472
 30
0.0
 10
-45.60669
 20
-19.5349
 30
0.0
 10
-45.46594
 20
-19.57583
 30
0.0
 10
-45.34586
 20
-19.66988
 30
0.0
 10
-45.34586
 20
-19.66988
 30
0.0
 10
-45.34293
 20
-19.60239
 30
0.0
 10
-45.33019
 20
-19.5338
 30
0.0
 10
-45.30561
 20
-19.46442
 30
0.0
 10
-45.30561
 20
-19.46442
 30
0.0
 10
-45.29858
 20
-19.4445
 30
0.0
 10
-45.28232
 20
-19.43672
 30
0.0
 10
-45.26215
 20
-19.43968
 30
0.0
 10
-45.26215
 20
-19.43968
 30
0.0
 10
-45.19443
 20
-19.44964
 30
0.0
 10
-45.12712
 20
-19.46231
 30
0.0
 10
-45.06085
 20
-19.47861
 30
0.0
 10
-45.06085
 20
-19.47861
 30
0.0
 10
-45.10248
 20
-19.39917
 30
0.0
 10
-45.13423
 20
-19.2851
 30
0.0
 10
-45.14126
 20
-19.2605
 30
0.0
 10
-45.14126
 20
-19.2605
 30
0.0
 10
-45.16029
 20
-19.1937
 30
0.0
 10
-45.17654
 20
-19.12297
 30
0.0
 10
-45.18708
 20
-19.05097
 30
0.0
 10
-45.18708
 20
-19.05097
 30
0.0
 10
-45.1919
 20
-19.04863
 30
0.0
 10
-45.19662
 20
-19.04518
 30
0.0
 10
-45.20098
 20
-19.04015
 30
0.0
 10
-45.20098
 20
-19.04015
 30
0.0
 10
-45.39876
 20
-18.80916
 30
0.0
 10
-45.7703
 20
-18.69674
 30
0.0
 10
-46.07006
 20
-18.68469
 30
0.0
 10
-46.07006
 20
-18.68469
 30
0.0
 10
-46.13395
 20
-18.97883
 30
0.0
 10
-45.92262
 20
-19.28186
 30
0.0
 10
-45.75805
 20
-19.50379
 30
0.0
  0
SPLINE
  5
A6
330
1F
100
AcDbEntity
  8
Layer 1
370
     9
100
AcDbSpline
210
0.0
220
0.0
230
1.0
 70
    11
 71
     3
 72
    52
 73
    48
 74
     0
 42
0.000000001
 43
0.0000000001
 40
0.0
 40
0.0
 40
0.0
 40
0.0
 40
0.0769230769230769
 40
0.0769230769230769
 40
0.0769230769230769
 40
0.0769230769230769
 40
0.1538461538461539
 40
0.1538461538461539
 40
0.1538461538461539
 40
0.1538461538461539
 40
0.2307692307692308
 40
0.2307692307692308
 40
0.2307692307692308
 40
0.2307692307692308
 40
0.3076923076923077
 40
0.3076923076923077
 40
0.3076923076923077
 40
0.3076923076923077
 40
0.3846153846153846
 40
0.3846153846153846
 40
0.3846153846153846
 40
0.3846153846153846
 40
0.4615384615384616
 40
0.4615384615384616
 40
0.4615384615384616
 40
0.4615384615384616
 40
0.5384615384615384
 40
0.5384615384615384
 40
0.5384615384615384
 40
0.5384615384615384
 40
0.6153846153846154
 40
0.6153846153846154
 40
0.6153846153846154
 40
0.6153846153846154
 40
0.6923076923076923
 40
0.6923076923076923
 40
0.6923076923076923
 40
0.6923076923076923
 40
0.7692307692307693
 40
0.7692307692307693
 40
0.7692307692307693
 40
0.7692307692307693
 40
0.8461538461538461
 40
0.8461538461538461
 40
0.8461538461538461
 40
0.8461538461538461
 40
1.0
 40
1.0
 40
1.0
 40
1.0
 10
-46.12054
 20
-19.96509
 30
0.0
 10
-46.12054
 20
-19.96509
 30
0.0
 10
-46.12054
 20
-19.96509
 30
0.0
 10
-46.12054
 20
-19.96509
 30
0.0
 10
-46.12054
 20
-19.96509
 30
0.0
 10
-46.1203
 20
-19.96523
 30
0.0
 10
-46.12006
 20
-19.96537
 30
0.0
 10
-46.11977
 20
-19.96554
 30
0.0
 10
-46.11977
 20
-19.96554
 30
0.0
 10
-46.10479
 20
-19.97584
 30
0.0
 10
-46.10022
 20
-19.99045
 30
0.0
 10
-46.10258
 20
-20.00368
 30
0.0
 10
-46.10258
 20
-20.00368
 30
0.0
 10
-46.04794
 20
-20.1164
 30
0.0
 10
-45.97752
 20
-20.21865
 30
0.0
 10
-45.91703
 20
-20.32793
 30
0.0
 10
-45.91703
 20
-20.32793
 30
0.0
 10
-45.80316
 20
-20.29858
 30
0.0
 10
-45.68825
 20
-20.27388
 30
0.0
 10
-45.57083
 20
-20.26172
 30
0.0
 10
-45.57083
 20
-20.26172
 30
0.0
 10
-45.37642
 20
-20.24146
 30
0.0
 10
-45.14224
 20
-20.24683
 30
0.0
 10
-45.0069
 20
-20.40713
 30
0.0
 10
-45.0069
 20
-20.40713
 30
0.0
 10
-45.00468
 20
-20.40648
 30
0.0
 10
-45.00254
 20
-20.40582
 30
0.0
 10
-45.00035
 20
-20.40517
 30
0.0
 10
-45.00035
 20
-20.40517
 30
0.0
 10
-45.06455
 20
-20.36324
 30
0.0
 10
-45.14002
 20
-20.24139
 30
0.0
 10
-45.15833
 20
-20.21631
 30
0.0
 10
-45.15833
 20
-20.21631
 30
0.0
 10
-45.25524
 20
-20.08326
 30
0.0
 10
-45.32214
 20
-19.93833
 30
0.0
 10
-45.34097
 20
-19.78619
 30
0.0
 10
-45.34097
 20
-19.78619
 30
0.0
 10
-45.34114
 20
-19.78605
 30
0.0
 10
-45.3413
 20
-19.78588
 30
0.0
 10
-45.34147
 20
-19.78574
 30
0.0
 10
-45.34147
 20
-19.78574
 30
0.0
 10
-45.57282
 20
-19.54651
 30
0.0
 10
-45.92913
 20
-19.58537
 30
0.0
 10
-46.23609
 20
-19.55547
 30
0.0
 10
-46.23609
 20
-19.55547
 30
0.0
 10
-46.21131
 20
-19.69565
 30
0.0
 10
-46.17806
 20
-19.83435
 30
0.0
 10
-46.12054
 20
-19.96509
 30
0.0
  0
SPLINE
  5
A7
330
1F
100
AcDbEntity
  8
Layer 1
370
     9
100
AcDbSpline
210
0.0
220
0.0
230
1.0
 70
    11
 71
     3
 72
    56
 73
    52
 74
     0
 42
0.000000001
 43
0.0000000001
 40
0.0
 40
0.0
 40
0.0
 40
0.0
 40
0.0714285714285714
 40
0.0714285714285714
 40
0.0714285714285714
 40
0.0714285714285714
 40
0.1428571428571428
 40
0.1428571428571428
 40
0.1428571428571428
 40
0.1428571428571428
 40
0.2142857142857143
 40
0.2142857142857143
 40
0.2142857142857143
 40
0.2142857142857143
 40
0.2857142857142857
 40
0.2857142857142857
 40
0.2857142857142857
 40
0.2857142857142857
 40
0.3571428571428572
 40
0.3571428571428572
 40
0.3571428571428572
 40
0.3571428571428572
 40
0.4285714285714285
 40
0.4285714285714285
 40
0.4285714285714285
 40
0.4285714285714285
 40
0.5
 40
0.5
 40
0.5
 40
0.5
 40
0.5714285714285714
 40
0.5714285714285714
 40
0.5714285714285714
 40
0.5714285714285714
 40
0.6428571428571429
 40
0.6428571428571429
 40
0.6428571428571429
 40
0.6428571428571429
 40
0.7142857142857143
 40
0.7142857142857143
 40
0.7142857142857143
 40
0.7142857142857143
 40
0.7857142857142857
 40
0.7857142857142857
 40
0.7857142857142857
 40
0.7857142857142857
 40
0.8571428571428571
 40
0.8571428571428571
 40
0.8571428571428571
 40
0.8571428571428571
 40
1.0
 40
1.0
 40
1.0
 40
1.0
 10
-46.5502
 20
-20.71916
 30
0.0
 10
-46.5502
 20
-20.71916
 30
0.0
 10
-46.5502
 20
-20.71916
 30
0.0
 10
-46.5502
 20
-20.71916
 30
0.0
 10
-46.5502
 20
-20.71916
 30
0.0
 10
-46.54228
 20
-20.72656
 30
0.0
 10
-46.52779
 20
-20.74282
 30
0.0
 10
-46.51839
 20
-20.74823
 30
0.0
 10
-46.51839
 20
-20.74823
 30
0.0
 10
-46.5154
 20
-20.74696
 30
0.0
 10
-46.51242
 20
-20.74568
 30
0.0
 10
-46.50945
 20
-20.74437
 30
0.0
 10
-46.50945
 20
-20.74437
 30
0.0
 10
-46.50908
 20
-20.73772
 30
0.0
 10
-46.50152
 20
-20.73552
 30
0.0
 10
-46.4972
 20
-20.73907
 30
0.0
 10
-46.4972
 20
-20.73907
 30
0.0
 10
-46.38487
 20
-20.69042
 30
0.0
 10
-46.26541
 20
-20.64023
 30
0.0
 10
-46.14604
 20
-20.60802
 30
0.0
 10
-46.14604
 20
-20.60802
 30
0.0
 10
-46.19267
 20
-20.56819
 30
0.0
 10
-46.23882
 20
-20.52785
 30
0.0
 10
-46.28605
 20
-20.4883
 30
0.0
 10
-46.28605
 20
-20.4883
 30
0.0
 10
-46.30793
 20
-20.47001
 30
0.0
 10
-46.29476
 20
-20.43339
 30
0.0
 10
-46.2697
 20
-20.42646
 30
0.0
 10
-46.2697
 20
-20.42646
 30
0.0
 10
-46.16622
 20
-20.39797
 30
0.0
 10
-46.06311
 20
-20.36693
 30
0.0
 10
-45.95921
 20
-20.33906
 30
0.0
 10
-45.95921
 20
-20.33906
 30
0.0
 10
-46.0431
 20
-20.24539
 30
0.0
 10
-46.10911
 20
-20.14055
 30
0.0
 10
-46.16171
 20
-20.02917
 30
0.0
 10
-46.16171
 20
-20.02917
 30
0.0
 10
-46.43577
 20
-19.89588
 30
0.0
 10
-46.77484
 20
-20.01446
 30
0.0
 10
-47.06982
 20
-20.032
 30
0.0
 10
-47.06982
 20
-20.032
 30
0.0
 10
-46.97484
 20
-20.21648
 30
0.0
 10
-46.86746
 20
-20.39029
 30
0.0
 10
-46.72216
 20
-20.54115
 30
0.0
 10
-46.72216
 20
-20.54115
 30
0.0
 10
-46.68637
 20
-20.57832
 30
0.0
 10
-46.65197
 20
-20.61687
 30
0.0
 10
-46.61591
 20
-20.65373
 30
0.0
 10
-46.61591
 20
-20.65373
 30
0.0
 10
-46.59431
 20
-20.67578
 30
0.0
 10
-46.57266
 20
-20.69807
 30
0.0
 10
-46.5502
 20
-20.71916
 30
0.0
  0
SPLINE
  5
A8
330
1F
100
AcDbEntity
  8
Layer 1
370
     9
100
AcDbSpline
210
0.0
220
0.0
230
1.0
 70
    11
 71
     3
 72
    48
 73
    44
 74
     0
 42
0.000000001
 43
0.0000000001
 40
0.0
 40
0.0
 40
0.0
 40
0.0
 40
0.0833333333333333
 40
0.0833333333333333
 40
0.0833333333333333
 40
0.0833333333333333
 40
0.1666666666666667
 40
0.1666666666666667
 40
0.1666666666666667
 40
0.1666666666666667
 40
0.25
 40
0.25
 40
0.25
 40
0.25
 40
0.3333333333333333
 40
0.3333333333333333
 40
0.3333333333333333
 40
0.3333333333333333
 40
0.4166666666666667
 40
0.4166666666666667
 40
0.4166666666666667
 40
0.4166666666666667
 40
0.5
 40
0.5
 40
0.5
 40
0.5
 40
0.5833333333333334
 40
0.5833333333333334
 40
0.5833333333333334
 40
0.5833333333333334
 40
0.6666666666666666
 40
0.6666666666666666
 40
0.6666666666666666
 40
0.6666666666666666
 40
0.75
 40
0.75
 40
0.75
 40
0.75
 40
0.8333333333333334
 40
0.8333333333333334
 40
0.8333333333333334
 40
0.8333333333333334
 40
1.0
 40
1.0
 40
1.0
 40
1.0
 10
-45.94791
 20
-21.27037
 30
0.0
 10
-45.94791
 20
-21.27037
 30
0.0
 10
-45.94791
 20
-21.27037
 30
0.0
 10
-45.94791
 20
-21.27037
 30
0.0
 10
-45.94791
 20
-21.27037
 30
0.0
 10
-45.93219
 20
-21.26665
 30
0.0
 10
-45.91925
 20
-21.27151
 30
0.0
 10
-45.91046
 20
-21.2804
 30
0.0
 10
-45.91046
 20
-21.2804
 30
0.0
 10
-45.8586
 20
-21.25194
 30
0.0
 10
-45.80542
 20
-21.22817
 30
0.0
 10
-45.75102
 20
-21.2116
 30
0.0
 10
-45.75102
 20
-21.2116
 30
0.0
 10
-45.77879
 20
-21.19451
 30
0.0
 10
-45.80628
 20
-21.17642
 30
0.0
 10
-45.83333
 20
-21.15717
 30
0.0
 10
-45.83333
 20
-21.15717
 30
0.0
 10
-45.84797
 20
-21.14676
 30
0.0
 10
-45.8561
 20
-21.1273
 30
0.0
 10
-45.84552
 20
-21.11062
 30
0.0
 10
-45.84552
 20
-21.11062
 30
0.0
 10
-45.7894
 20
-21.02236
 30
0.0
 10
-45.71602
 20
-20.94188
 30
0.0
 10
-45.6325
 20
-20.87587
 30
0.0
 10
-45.6325
 20
-20.87587
 30
0.0
 10
-45.72651
 20
-20.90261
 30
0.0
 10
-45.84621
 20
-20.83208
 30
0.0
 10
-45.92047
 20
-20.78296
 30
0.0
 10
-45.92047
 20
-20.78296
 30
0.0
 10
-45.98378
 20
-20.74096
 30
0.0
 10
-46.04296
 20
-20.69438
 30
0.0
 10
-46.10079
 20
-20.64619
 30
0.0
 10
-46.10079
 20
-20.64619
 30
0.0
 10
-46.22605
 20
-20.7135
 30
0.0
 10
-46.37086
 20
-20.75309
 30
0.0
 10
-46.49866
 20
-20.81266
 30
0.0
 10
-46.49866
 20
-20.81266
 30
0.0
 10
-46.62968
 20
-20.8737
 30
0.0
 10
-46.75388
 20
-20.94474
 30
0.0
 10
-46.85593
 20
-21.04616
 30
0.0
 10
-46.85593
 20
-21.04616
 30
0.0
 10
-46.54996
 20
-21.12836
 30
0.0
 10
-46.27966
 20
-21.34833
 30
0.0
 10
-45.94791
 20
-21.27037
 30
0.0
  0
SPLINE
  5
A9
330
1F
100
AcDbEntity
  8
Layer 1
370
     9
100
AcDbSpline
210
0.0
220
0.0
230
1.0
 70
    11
 71
     3
 72
    36
 73
    32
 74
     0
 42
0.000000001
 43
0.0000000001
 40
0.0
 40
0.0
 40
0.0
 40
0.0
 40
0.1111111111111111
 40
0.1111111111111111
 40
0.1111111111111111
 40
0.1111111111111111
 40
0.2222222222222222
 40
0.2222222222222222
 40
0.2222222222222222
 40
0.2222222222222222
 40
0.3333333333333333
 40
0.3333333333333333
 40
0.3333333333333333
 40
0.3333333333333333
 40
0.4444444444444444
 40
0.4444444444444444
 40
0.4444444444444444
 40
0.4444444444444444
 40
0.5555555555555556
 40
0.5555555555555556
 40
0.5555555555555556
 40
0.5555555555555556
 40
0.6666666666666666
 40
0.6666666666666666
 40
0.6666666666666666
 40
0.6666666666666666
 40
0.7777777777777778
 40
0.7777777777777778
 40
0.7777777777777778
 40
0.7777777777777778
 40
1.0
 40
1.0
 40
1.0
 40
1.0
 10
-46.70313
 20
-21.68461
 30
0.0
 10
-46.70313
 20
-21.68461
 30
0.0
 10
-46.70313
 20
-21.68461
 30
0.0
 10
-46.70313
 20
-21.68461
 30
0.0
 10
-46.70313
 20
-21.68461
 30
0.0
 10
-46.61779
 20
-21.69863
 30
0.0
 10
-46.53125
 20
-21.70993
 30
0.0
 10
-46.44466
 20
-21.71086
 30
0.0
 10
-46.44466
 20
-21.71086
 30
0.0
 10
-46.42781
 20
-21.71107
 30
0.0
 10
-46.41052
 20
-21.70972
 30
0.0
 10
-46.39317
 20
-21.7079
 30
0.0
 10
-46.39317
 20
-21.7079
 30
0.0
 10
-46.39922
 20
-21.6947
 30
0.0
 10
-46.39615
 20
-21.67737
 30
0.0
 10
-46.38599
 20
-21.66735
 30
0.0
 10
-46.38599
 20
-21.66735
 30
0.0
 10
-46.28735
 20
-21.57023
 30
0.0
 10
-46.17275
 20
-21.45892
 30
0.0
 10
-46.04716
 20
-21.36773
 30
0.0
 10
-46.04716
 20
-21.36773
 30
0.0
 10
-46.27966
 20
-21.38241
 30
0.0
 10
-46.48702
 20
-21.2661
 30
0.0
 10
-46.70237
 20
-21.17811
 30
0.0
 10
-46.70237
 20
-21.17811
 30
0.0
 10
-46.84631
 20
-21.30255
 30
0.0
 10
-47.00289
 20
-21.40824
 30
0.0
 10
-47.13404
 20
-21.5468
 30
0.0
 10
-47.13404
 20
-21.5468
 30
0.0
 10
-47.01277
 20
-21.62983
 30
0.0
 10
-46.84264
 20
-21.6618
 30
0.0
 10
-46.70313
 20
-21.68461
 30
0.0
  0
SPLINE
  5
AA
330
1F
100
AcDbEntity
  8
Layer 1
370
     9
100
AcDbSpline
210
0.0
220
0.0
230
1.0
 70
    11
 71
     3
 72
    48
 73
    44
 74
     0
 42
0.000000001
 43
0.0000000001
 40
0.0
 40
0.0
 40
0.0
 40
0.0
 40
0.0833333333333333
 40
0.0833333333333333
 40
0.0833333333333333
 40
0.0833333333333333
 40
0.1666666666666667
 40
0.1666666666666667
 40
0.1666666666666667
 40
0.1666666666666667
 40
0.25
 40
0.25
 40
0.25
 40
0.25
 40
0.3333333333333333
 40
0.3333333333333333
 40
0.3333333333333333
 40
0.3333333333333333
 40
0.4166666666666667
 40
0.4166666666666667
 40
0.4166666666666667
 40
0.4166666666666667
 40
0.5
 40
0.5
 40
0.5
 40
0.5
 40
0.5833333333333334
 40
0.5833333333333334
 40
0.5833333333333334
 40
0.5833333333333334
 40
0.6666666666666666
 40
0.6666666666666666
 40
0.6666666666666666
 40
0.6666666666666666
 40
0.75
 40
0.75
 40
0.75
 40
0.75
 40
0.8333333333333334
 40
0.8333333333333334
 40
0.8333333333333334
 40
0.8333333333333334
 40
1.0
 40
1.0
 40
1.0
 40
1.0
 10
-46.47105
 20
-22.08193
 30
0.0
 10
-46.47105
 20
-22.08193
 30
0.0
 10
-46.47105
 20
-22.08193
 30
0.0
 10
-46.47105
 20
-22.08193
 30
0.0
 10
-46.47105
 20
-22.08193
 30
0.0
 10
-46.46211
 20
-22.07997
 30
0.0
 10
-46.45308
 20
-22.08214
 30
0.0
 10
-46.44536
 20
-22.08658
 30
0.0
 10
-46.44536
 20
-22.08658
 30
0.0
 10
-46.40416
 20
-22.05296
 30
0.0
 10
-46.36077
 20
-22.02192
 30
0.0
 10
-46.3159
 20
-21.99357
 30
0.0
 10
-46.3159
 20
-21.99357
 30
0.0
 10
-46.25001
 20
-21.95188
 30
0.0
 10
-46.17822
 20
-21.9073
 30
0.0
 10
-46.10315
 20
-21.87333
 30
0.0
 10
-46.10315
 20
-21.87333
 30
0.0
 10
-46.17062
 20
-21.8519
 30
0.0
 10
-46.23532
 20
-21.82245
 30
0.0
 10
-46.29542
 20
-21.78452
 30
0.0
 10
-46.29542
 20
-21.78452
 30
0.0
 10
-46.35082
 20
-21.79754
 30
0.0
 10
-46.42025
 20
-21.79178
 30
0.0
 10
-46.46729
 20
-21.78969
 30
0.0
 10
-46.46729
 20
-21.78969
 30
0.0
 10
-46.56188
 20
-21.78528
 30
0.0
 10
-46.6564
 20
-21.77415
 30
0.0
 10
-46.74931
 20
-21.75537
 30
0.0
 10
-46.74931
 20
-21.75537
 30
0.0
 10
-46.7671
 20
-21.75175
 30
0.0
 10
-46.78524
 20
-21.74807
 30
0.0
 10
-46.8035
 20
-21.74417
 30
0.0
 10
-46.8035
 20
-21.74417
 30
0.0
 10
-46.86331
 20
-21.87082
 30
0.0
 10
-46.99207
 20
-21.96049
 30
0.0
 10
-47.09404
 20
-22.05506
 30
0.0
 10
-47.09404
 20
-22.05506
 30
0.0
 10
-47.01038
 20
-22.12527
 30
0.0
 10
-46.90274
 20
-22.15555
 30
0.0
 10
-46.79256
 20
-22.15269
 30
0.0
 10
-46.79256
 20
-22.15269
 30
0.0
 10
-46.67502
 20
-22.14956
 30
0.0
 10
-46.58229
 20
-22.10574
 30
0.0
 10
-46.47105
 20
-22.08193
 30
0.0
  0
SPLINE
  5
AB
330
1F
100
AcDbEntity
  8
Layer 1
370
     9
100
AcDbSpline
210
0.0
220
0.0
230
1.0
 70
    11
 71
     3
 72
    80
 73
    76
 74
     0
 42
0.000000001
 43
0.0000000001
 40
0.0
 40
0.0
 40
0.0
 40
0.0
 40
0.05
 40
0.05
 40
0.05
 40
0.05
 40
0.1
 40
0.1
 40
0.1
 40
0.1
 40
0.15
 40
0.15
 40
0.15
 40
0.15
 40
0.2
 40
0.2
 40
0.2
 40
0.2
 40
0.25
 40
0.25
 40
0.25
 40
0.25
 40
0.3
 40
0.3
 40
0.3
 40
0.3
 40
0.35
 40
0.35
 40
0.35
 40
0.35
 40
0.4
 40
0.4
 40
0.4
 40
0.4
 40
0.45
 40
0.45
 40
0.45
 40
0.45
 40
0.5
 40
0.5
 40
0.5
 40
0.5
 40
0.55
 40
0.55
 40
0.55
 40
0.55
 40
0.6
 40
0.6
 40
0.6
 40
0.6
 40
0.65
 40
0.65
 40
0.65
 40
0.65
 40
0.7
 40
0.7
 40
0.7
 40
0.7
 40
0.75
 40
0.75
 40
0.75
 40
0.75
 40
0.8
 40
0.8
 40
0.8
 40
0.8
 40
0.85
 40
0.85
 40
0.85
 40
0.85
 40
0.9
 40
0.9
 40
0.9
 40
0.9
 40
1.0
 40
1.0
 40
1.0
 40
1.0
 10
-45.69511
 20
-22.7353
 30
0.0
 10
-45.69511
 20
-22.7353
 30
0.0
 10
-45.69511
 20
-22.7353
 30
0.0
 10
-45.69511
 20
-22.7353
 30
0.0
 10
-45.69511
 20
-22.7353
 30
0.0
 10
-45.73861
 20
-22.72754
 30
0.0
 10
-45.77969
 20
-22.72034
 30
0.0
 10
-45.8161
 20
-22.71621
 30
0.0
 10
-45.8161
 20
-22.71621
 30
0.0
 10
-45.83751
 20
-22.71373
 30
0.0
 10
-45.85803
 20
-22.69536
 30
0.0
 10
-45.8501
 20
-22.67152
 30
0.0
 10
-45.8501
 20
-22.67152
 30
0.0
 10
-45.78508
 20
-22.47485
 30
0.0
 10
-45.64833
 20
-22.28147
 30
0.0
 10
-45.47848
 20
-22.15583
 30
0.0
 10
-45.47848
 20
-22.15583
 30
0.0
 10
-45.54656
 20
-22.13485
 30
0.0
 10
-45.61215
 20
-22.10574
 30
0.0
 10
-45.67309
 20
-22.06681
 30
0.0
 10
-45.67309
 20
-22.06681
 30
0.0
 10
-45.68942
 20
-22.05644
 30
0.0
 10
-45.6969
 20
-22.03442
 30
0.0
 10
-45.68615
 20
-22.0171
 30
0.0
 10
-45.68615
 20
-22.0171
 30
0.0
 10
-45.66061
 20
-21.97599
 30
0.0
 10
-45.63184
 20
-21.93641
 30
0.0
 10
-45.60083
 20
-21.89824
 30
0.0
 10
-45.60083
 20
-21.89824
 30
0.0
 10
-45.73723
 20
-21.9247
 30
0.0
 10
-45.8808
 20
-21.92542
 30
0.0
 10
-46.01699
 20
-21.89634
 30
0.0
 10
-46.01699
 20
-21.89634
 30
0.0
 10
-46.20583
 20
-22.00707
 30
0.0
 10
-46.39965
 20
-22.10081
 30
0.0
 10
-46.54204
 20
-22.2742
 30
0.0
 10
-46.54204
 20
-22.2742
 30
0.0
 10
-46.41812
 20
-22.29766
 30
0.0
 10
-46.29564
 20
-22.32884
 30
0.0
 10
-46.17071
 20
-22.34634
 30
0.0
 10
-46.17071
 20
-22.34634
 30
0.0
 10
-46.09049
 20
-22.35761
 30
0.0
 10
-46.00782
 20
-22.36643
 30
0.0
 10
-45.92679
 20
-22.35981
 30
0.0
 10
-45.92679
 20
-22.35981
 30
0.0
 10
-45.8524
 20
-22.35378
 30
0.0
 10
-45.79398
 20
-22.32257
 30
0.0
 10
-45.7235
 20
-22.30838
 30
0.0
 10
-45.7235
 20
-22.30838
 30
0.0
 10
-45.6927
 20
-22.30218
 30
0.0
 10
-45.67309
 20
-22.33604
 30
0.0
 10
-45.69356
 20
-22.35971
 30
0.0
 10
-45.69356
 20
-22.35971
 30
0.0
 10
-45.7846
 20
-22.4652
 30
0.0
 10
-46.00162
 20
-22.44102
 30
0.0
 10
-46.12259
 20
-22.42668
 30
0.0
 10
-46.12259
 20
-22.42668
 30
0.0
 10
-46.12876
 20
-22.42599
 30
0.0
 10
-46.13493
 20
-22.42489
 30
0.0
 10
-46.14104
 20
-22.42417
 30
0.0
 10
-46.14104
 20
-22.42417
 30
0.0
 10
-46.15706
 20
-22.4437
 30
0.0
 10
-46.17544
 20
-22.46234
 30
0.0
 10
-46.18857
 20
-22.48439
 30
0.0
 10
-46.18857
 20
-22.48439
 30
0.0
 10
-46.21844
 20
-22.53468
 30
0.0
 10
-46.24899
 20
-22.58454
 30
0.0
 10
-46.28015
 20
-22.63408
 30
0.0
 10
-46.28015
 20
-22.63408
 30
0.0
 10
-46.33648
 20
-22.72344
 30
0.0
 10
-46.39288
 20
-22.81284
 30
0.0
 10
-46.44888
 20
-22.90238
 30
0.0
 10
-46.44888
 20
-22.90238
 30
0.0
 10
-46.18709
 20
-22.90073
 30
0.0
 10
-45.91043
 20
-22.88957
 30
0.0
 10
-45.69511
 20
-22.7353
 30
0.0
  0
SPLINE
  5
AC
330
1F
100
AcDbEntity
  8
Layer 1
370
     9
100
AcDbSpline
210
0.0
220
0.0
230
1.0
 70
    11
 71
     3
 72
    44
 73
    40
 74
     0
 42
0.000000001
 43
0.0000000001
 40
0.0
 40
0.0
 40
0.0
 40
0.0
 40
0.0909090909090909
 40
0.0909090909090909
 40
0.0909090909090909
 40
0.0909090909090909
 40
0.1818181818181818
 40
0.1818181818181818
 40
0.1818181818181818
 40
0.1818181818181818
 40
0.2727272727272727
 40
0.2727272727272727
 40
0.2727272727272727
 40
0.2727272727272727
 40
0.3636363636363636
 40
0.3636363636363636
 40
0.3636363636363636
 40
0.3636363636363636
 40
0.4545454545454545
 40
0.4545454545454545
 40
0.4545454545454545
 40
0.4545454545454545
 40
0.5454545454545454
 40
0.5454545454545454
 40
0.5454545454545454
 40
0.5454545454545454
 40
0.6363636363636364
 40
0.6363636363636364
 40
0.6363636363636364
 40
0.6363636363636364
 40
0.7272727272727273
 40
0.7272727272727273
 40
0.7272727272727273
 40
0.7272727272727273
 40
0.8181818181818182
 40
0.8181818181818182
 40
0.8181818181818182
 40
0.8181818181818182
 40
1.0
 40
1.0
 40
1.0
 40
1.0
 10
-45.15804
 20
-23.18195
 30
0.0
 10
-45.15804
 20
-23.18195
 30
0.0
 10
-45.15804
 20
-23.18195
 30
0.0
 10
-45.15804
 20
-23.18195
 30
0.0
 10
-45.15804
 20
-23.18195
 30
0.0
 10
-45.11902
 20
-23.14061
 30
0.0
 10
-45.09098
 20
-23.09579
 30
0.0
 10
-45.06238
 20
-23.04993
 30
0.0
 10
-45.06238
 20
-23.04993
 30
0.0
 10
-45.14706
 20
-23.07091
 30
0.0
 10
-45.23448
 20
-23.07839
 30
0.0
 10
-45.32447
 20
-23.05755
 30
0.0
 10
-45.32447
 20
-23.05755
 30
0.0
 10
-45.34824
 20
-23.0521
 30
0.0
 10
-45.35114
 20
-23.02568
 30
0.0
 10
-45.34213
 20
-23.00618
 30
0.0
 10
-45.34213
 20
-23.00618
 30
0.0
 10
-45.29927
 20
-22.91354
 30
0.0
 10
-45.25479
 20
-22.81749
 30
0.0
 10
-45.20468
 20
-22.72427
 30
0.0
 10
-45.20468
 20
-22.72427
 30
0.0
 10
-45.30927
 20
-22.78501
 30
0.0
 10
-45.45385
 20
-22.77464
 30
0.0
 10
-45.58962
 20
-22.75338
 30
0.0
 10
-45.58962
 20
-22.75338
 30
0.0
 10
-45.62111
 20
-22.79634
 30
0.0
 10
-45.66312
 20
-22.83048
 30
0.0
 10
-45.71042
 20
-22.85784
 30
0.0
 10
-45.71042
 20
-22.85784
 30
0.0
 10
-45.77755
 20
-23.02768
 30
0.0
 10
-45.8659
 20
-23.18874
 30
0.0
 10
-45.91336
 20
-23.36592
 30
0.0
 10
-45.91336
 20
-23.36592
 30
0.0
 10
-45.74436
 20
-23.43875
 30
0.0
 10
-45.54607
 20
-23.42294
 30
0.0
 10
-45.38205
 20
-23.34105
 30
0.0
 10
-45.38205
 20
-23.34105
 30
0.0
 10
-45.29987
 20
-23.30002
 30
0.0
 10
-45.22143
 20
-23.24917
 30
0.0
 10
-45.15804
 20
-23.18195
 30
0.0
  0
SPLINE
  5
AD
330
1F
100
AcDbEntity
  8
Layer 1
370
     9
100
AcDbSpline
210
0.0
220
0.0
230
1.0
 70
    11
 71
     3
 72
    48
 73
    44
 74
     0
 42
0.000000001
 43
0.0000000001
 40
0.0
 40
0.0
 40
0.0
 40
0.0
 40
0.0833333333333333
 40
0.0833333333333333
 40
0.0833333333333333
 40
0.0833333333333333
 40
0.1666666666666667
 40
0.1666666666666667
 40
0.1666666666666667
 40
0.1666666666666667
 40
0.25
 40
0.25
 40
0.25
 40
0.25
 40
0.3333333333333333
 40
0.3333333333333333
 40
0.3333333333333333
 40
0.3333333333333333
 40
0.4166666666666667
 40
0.4166666666666667
 40
0.4166666666666667
 40
0.4166666666666667
 40
0.5
 40
0.5
 40
0.5
 40
0.5
 40
0.5833333333333334
 40
0.5833333333333334
 40
0.5833333333333334
 40
0.5833333333333334
 40
0.6666666666666666
 40
0.6666666666666666
 40
0.6666666666666666
 40
0.6666666666666666
 40
0.75
 40
0.75
 40
0.75
 40
0.75
 40
0.8333333333333334
 40
0.8333333333333334
 40
0.8333333333333334
 40
0.8333333333333334
 40
1.0
 40
1.0
 40
1.0
 40
1.0
 10
-44.84074
 20
-23.57304
 30
0.0
 10
-44.84074
 20
-23.57304
 30
0.0
 10
-44.84074
 20
-23.57304
 30
0.0
 10
-44.84074
 20
-23.57304
 30
0.0
 10
-44.84074
 20
-23.57304
 30
0.0
 10
-44.88048
 20
-23.60022
 30
0.0
 10
-44.92348
 20
-23.62819
 30
0.0
 10
-44.96897
 20
-23.62737
 30
0.0
 10
-44.96897
 20
-23.62737
 30
0.0
 10
-44.9899
 20
-23.62709
 30
0.0
 10
-45.00807
 20
-23.61007
 30
0.0
 10
-45.00778
 20
-23.58864
 30
0.0
 10
-45.00778
 20
-23.58864
 30
0.0
 10
-45.00599
 20
-23.43289
 30
0.0
 10
-45.01817
 20
-23.27249
 30
0.0
 10
-44.99574
 20
-23.11749
 30
0.0
 10
-44.99574
 20
-23.11749
 30
0.0
 10
-45.071
 20
-23.24903
 30
0.0
 10
-45.22017
 20
-23.35634
 30
0.0
 10
-45.34988
 20
-23.41487
 30
0.0
 10
-45.34988
 20
-23.41487
 30
0.0
 10
-45.35372
 20
-23.44536
 30
0.0
 10
-45.35543
 20
-23.47682
 30
0.0
 10
-45.35601
 20
-23.48409
 30
0.0
 10
-45.35601
 20
-23.48409
 30
0.0
 10
-45.36073
 20
-23.54634
 30
0.0
 10
-45.36266
 20
-23.60894
 30
0.0
 10
-45.36314
 20
-23.67139
 30
0.0
 10
-45.36314
 20
-23.67139
 30
0.0
 10
-45.3638
 20
-23.7597
 30
0.0
 10
-45.36123
 20
-23.84799
 30
0.0
 10
-45.35983
 20
-23.93636
 30
0.0
 10
-45.35983
 20
-23.93636
 30
0.0
 10
-45.19321
 20
-23.8471
 30
0.0
 10
-45.01882
 20
-23.76545
 30
0.0
 10
-44.873
 20
-23.64421
 30
0.0
 10
-44.873
 20
-23.64421
 30
0.0
 10
-44.86488
 20
-23.63746
 30
0.0
 10
-44.8559
 20
-23.63512
 30
0.0
 10
-44.84736
 20
-23.63574
 30
0.0
 10
-44.84736
 20
-23.63574
 30
0.0
 10
-44.84548
 20
-23.61476
 30
0.0
 10
-44.84328
 20
-23.59388
 30
0.0
 10
-44.84074
 20
-23.57304
 30
0.0
  0
SPLINE
  5
AE
330
1F
100
AcDbEntity
  8
Layer 1
370
     9
100
AcDbSpline
210
0.0
220
0.0
230
1.0
 70
    11
 71
     3
 72
    28
 73
    24
 74
     0
 42
0.000000001
 43
0.0000000001
 40
0.0
 40
0.0
 40
0.0
 40
0.0
 40
0.1428571428571428
 40
0.1428571428571428
 40
0.1428571428571428
 40
0.1428571428571428
 40
0.2857142857142857
 40
0.2857142857142857
 40
0.2857142857142857
 40
0.2857142857142857
 40
0.4285714285714285
 40
0.4285714285714285
 40
0.4285714285714285
 40
0.4285714285714285
 40
0.5714285714285714
 40
0.5714285714285714
 40
0.5714285714285714
 40
0.5714285714285714
 40
0.7142857142857143
 40
0.7142857142857143
 40
0.7142857142857143
 40
0.7142857142857143
 40
1.0
 40
1.0
 40
1.0
 40
1.0
 10
-44.43904
 20
-23.26863
 30
0.0
 10
-44.43904
 20
-23.26863
 30
0.0
 10
-44.43904
 20
-23.26863
 30
0.0
 10
-44.43904
 20
-23.26863
 30
0.0
 10
-44.43904
 20
-23.26863
 30
0.0
 10
-44.48731
 20
-23.31676
 30
0.0
 10
-44.53926
 20
-23.36047
 30
0.0
 10
-44.58848
 20
-23.39951
 30
0.0
 10
-44.58848
 20
-23.39951
 30
0.0
 10
-44.65335
 20
-23.45087
 30
0.0
 10
-44.72228
 20
-23.49756
 30
0.0
 10
-44.79255
 20
-23.54121
 30
0.0
 10
-44.79255
 20
-23.54121
 30
0.0
 10
-44.79925
 20
-23.7054
 30
0.0
 10
-44.80798
 20
-23.86729
 30
0.0
 10
-44.77279
 20
-24.02858
 30
0.0
 10
-44.77279
 20
-24.02858
 30
0.0
 10
-44.67092
 20
-23.90525
 30
0.0
 10
-44.5734
 20
-23.77764
 30
0.0
 10
-44.46905
 20
-23.65696
 30
0.0
 10
-44.46905
 20
-23.65696
 30
0.0
 10
-44.47414
 20
-23.52543
 30
0.0
 10
-44.47325
 20
-23.39362
 30
0.0
 10
-44.43904
 20
-23.26863
 30
0.0
  0
SPLINE
  5
AF
330
1F
100
AcDbEntity
  8
Layer 1
370
     9
100
AcDbSpline
210
0.0
220
0.0
230
1.0
 70
    11
 71
     3
 72
    56
 73
    52
 74
     0
 42
0.000000001
 43
0.0000000001
 40
0.0
 40
0.0
 40
0.0
 40
0.0
 40
0.0714285714285714
 40
0.0714285714285714
 40
0.0714285714285714
 40
0.0714285714285714
 40
0.1428571428571428
 40
0.1428571428571428
 40
0.1428571428571428
 40
0.1428571428571428
 40
0.2142857142857143
 40
0.2142857142857143
 40
0.2142857142857143
 40
0.2142857142857143
 40
0.2857142857142857
 40
0.2857142857142857
 40
0.2857142857142857
 40
0.2857142857142857
 40
0.3571428571428572
 40
0.3571428571428572
 40
0.3571428571428572
 40
0.3571428571428572
 40
0.4285714285714285
 40
0.4285714285714285
 40
0.4285714285714285
 40
0.4285714285714285
 40
0.5
 40
0.5
 40
0.5
 40
0.5
 40
0.5714285714285714
 40
0.5714285714285714
 40
0.5714285714285714
 40
0.5714285714285714
 40
0.6428571428571429
 40
0.6428571428571429
 40
0.6428571428571429
 40
0.6428571428571429
 40
0.7142857142857143
 40
0.7142857142857143
 40
0.7142857142857143
 40
0.7142857142857143
 40
0.7857142857142857
 40
0.7857142857142857
 40
0.7857142857142857
 40
0.7857142857142857
 40
0.8571428571428571
 40
0.8571428571428571
 40
0.8571428571428571
 40
0.8571428571428571
 40
1.0
 40
1.0
 40
1.0
 40
1.0
 10
-44.3351
 20
-22.98496
 30
0.0
 10
-44.3351
 20
-22.98496
 30
0.0
 10
-44.3351
 20
-22.98496
 30
0.0
 10
-44.3351
 20
-22.98496
 30
0.0
 10
-44.3351
 20
-22.98496
 30
0.0
 10
-44.32556
 20
-22.9708
 30
0.0
 10
-44.30933
 20
-22.96632
 30
0.0
 10
-44.29496
 20
-22.96894
 30
0.0
 10
-44.29496
 20
-22.96894
 30
0.0
 10
-44.28328
 20
-22.90827
 30
0.0
 10
-44.27498
 20
-22.8473
 30
0.0
 10
-44.28022
 20
-22.78508
 30
0.0
 10
-44.28022
 20
-22.78508
 30
0.0
 10
-44.40765
 20
-22.85828
 30
0.0
 10
-44.54639
 20
-22.9142
 30
0.0
 10
-44.67908
 20
-22.95547
 30
0.0
 10
-44.67908
 20
-22.95547
 30
0.0
 10
-44.70075
 20
-22.96219
 30
0.0
 10
-44.72315
 20
-22.9442
 30
0.0
 10
-44.72315
 20
-22.92302
 30
0.0
 10
-44.72315
 20
-22.92302
 30
0.0
 10
-44.72315
 20
-22.92302
 30
0.0
 10
-44.72315
 20
-22.92188
 30
0.0
 10
-44.72315
 20
-22.92188
 30
0.0
 10
-44.72315
 20
-22.92188
 30
0.0
 10
-44.82898
 20
-22.94827
 30
0.0
 10
-44.85585
 20
-22.97886
 30
0.0
 10
-44.92465
 20
-23.00556
 30
0.0
 10
-44.92465
 20
-23.00556
 30
0.0
 10
-44.94498
 20
-23.18385
 30
0.0
 10
-44.93688
 20
-23.36062
 30
0.0
 10
-44.93152
 20
-23.539
 30
0.0
 10
-44.93152
 20
-23.539
 30
0.0
 10
-44.8954
 20
-23.5216
 30
0.0
 10
-44.85397
 20
-23.4877
 30
0.0
 10
-44.82546
 20
-23.46758
 30
0.0
 10
-44.82546
 20
-23.46758
 30
0.0
 10
-44.82522
 20
-23.46607
 30
0.0
 10
-44.82498
 20
-23.46441
 30
0.0
 10
-44.82474
 20
-23.46286
 30
0.0
 10
-44.82474
 20
-23.46286
 30
0.0
 10
-44.82274
 20
-23.45115
 30
0.0
 10
-44.81093
 20
-23.44826
 30
0.0
 10
-44.80152
 20
-23.45167
 30
0.0
 10
-44.80152
 20
-23.45167
 30
0.0
 10
-44.73971
 20
-23.41143
 30
0.0
 10
-44.67825
 20
-23.36974
 30
0.0
 10
-44.62146
 20
-23.32261
 30
0.0
 10
-44.62146
 20
-23.32261
 30
0.0
 10
-44.50129
 20
-23.22295
 30
0.0
 10
-44.42164
 20
-23.11264
 30
0.0
 10
-44.3351
 20
-22.98496
 30
0.0
  0
SPLINE
  5
B0
330
1F
100
AcDbEntity
  8
Layer 1
370
     9
100
AcDbSpline
210
0.0
220
0.0
230
1.0
 70
    11
 71
     3
 72
    64
 73
    60
 74
     0
 42
0.000000001
 43
0.0000000001
 40
0.0
 40
0.0
 40
0.0
 40
0.0
 40
0.0625
 40
0.0625
 40
0.0625
 40
0.0625
 40
0.125
 40
0.125
 40
0.125
 40
0.125
 40
0.1875
 40
0.1875
 40
0.1875
 40
0.1875
 40
0.25
 40
0.25
 40
0.25
 40
0.25
 40
0.3125
 40
0.3125
 40
0.3125
 40
0.3125
 40
0.375
 40
0.375
 40
0.375
 40
0.375
 40
0.4375
 40
0.4375
 40
0.4375
 40
0.4375
 40
0.5
 40
0.5
 40
0.5
 40
0.5
 40
0.5625
 40
0.5625
 40
0.5625
 40
0.5625
 40
0.625
 40
0.625
 40
0.625
 40
0.625
 40
0.6875
 40
0.6875
 40
0.6875
 40
0.6875
 40
0.75
 40
0.75
 40
0.75
 40
0.75
 40
0.8125
 40
0.8125
 40
0.8125
 40
0.8125
 40
0.875
 40
0.875
 40
0.875
 40
0.875
 40
1.0
 40
1.0
 40
1.0
 40
1.0
 10
-44.07599
 20
-23.61872
 30
0.0
 10
-44.07599
 20
-23.61872
 30
0.0
 10
-44.07599
 20
-23.61872
 30
0.0
 10
-44.07599
 20
-23.61872
 30
0.0
 10
-44.07599
 20
-23.61872
 30
0.0
 10
-43.97592
 20
-23.5133
 30
0.0
 10
-43.89127
 20
-23.37743
 30
0.0
 10
-43.77999
 20
-23.28503
 30
0.0
 10
-43.77999
 20
-23.28503
 30
0.0
 10
-43.77575
 20
-23.28144
 30
0.0
 10
-43.77117
 20
-23.27938
 30
0.0
 10
-43.76656
 20
-23.27821
 30
0.0
 10
-43.76656
 20
-23.27821
 30
0.0
 10
-43.7668
 20
-23.17744
 30
0.0
 10
-43.76456
 20
-23.07619
 30
0.0
 10
-43.77624
 20
-22.9759
 30
0.0
 10
-43.77624
 20
-22.9759
 30
0.0
 10
-43.78075
 20
-22.97563
 30
0.0
 10
-43.7854
 20
-22.97452
 30
0.0
 10
-43.78967
 20
-22.9727
 30
0.0
 10
-43.78967
 20
-22.9727
 30
0.0
 10
-43.93223
 20
-23.08745
 30
0.0
 10
-44.12285
 20
-23.16014
 30
0.0
 10
-44.29527
 20
-23.19577
 30
0.0
 10
-44.29527
 20
-23.19577
 30
0.0
 10
-44.32042
 20
-23.201
 30
0.0
 10
-44.33923
 20
-23.18109
 30
0.0
 10
-44.33486
 20
-23.15656
 30
0.0
 10
-44.33486
 20
-23.15656
 30
0.0
 10
-44.3341
 20
-23.15188
 30
0.0
 10
-44.33321
 20
-23.14716
 30
0.0
 10
-44.33231
 20
-23.1425
 30
0.0
 10
-44.33231
 20
-23.1425
 30
0.0
 10
-44.34909
 20
-23.16728
 30
0.0
 10
-44.36779
 20
-23.19115
 30
0.0
 10
-44.38774
 20
-23.2142
 30
0.0
 10
-44.38774
 20
-23.2142
 30
0.0
 10
-44.38464
 20
-23.21844
 30
0.0
 10
-44.38302
 20
-23.22412
 30
0.0
 10
-44.3844
 20
-23.23104
 30
0.0
 10
-44.3844
 20
-23.23104
 30
0.0
 10
-44.41027
 20
-23.36282
 30
0.0
 10
-44.40958
 20
-23.49625
 30
0.0
 10
-44.40352
 20
-23.62985
 30
0.0
 10
-44.40352
 20
-23.62985
 30
0.0
 10
-44.39508
 20
-23.63849
 30
0.0
 10
-44.39143
 20
-23.65166
 30
0.0
 10
-44.39925
 20
-23.66375
 30
0.0
 10
-44.39925
 20
-23.66375
 30
0.0
 10
-44.40004
 20
-23.66502
 30
0.0
 10
-44.40093
 20
-23.66623
 30
0.0
 10
-44.40169
 20
-23.66737
 30
0.0
 10
-44.40169
 20
-23.66737
 30
0.0
 10
-44.39818
 20
-23.73658
 30
0.0
 10
-44.3937
 20
-23.80575
 30
0.0
 10
-44.39129
 20
-23.87476
 30
0.0
 10
-44.39129
 20
-23.87476
 30
0.0
 10
-44.27309
 20
-23.80755
 30
0.0
 10
-44.16963
 20
-23.71739
 30
0.0
 10
-44.07599
 20
-23.61872
 30
0.0
  0
SPLINE
  5
B1
330
1F
100
AcDbEntity
  8
Layer 1
370
     9
100
AcDbSpline
210
0.0
220
0.0
230
1.0
 70
    11
 71
     3
 72
    52
 73
    48
 74
     0
 42
0.000000001
 43
0.0000000001
 40
0.0
 40
0.0
 40
0.0
 40
0.0
 40
0.0769230769230769
 40
0.0769230769230769
 40
0.0769230769230769
 40
0.0769230769230769
 40
0.1538461538461539
 40
0.1538461538461539
 40
0.1538461538461539
 40
0.1538461538461539
 40
0.2307692307692308
 40
0.2307692307692308
 40
0.2307692307692308
 40
0.2307692307692308
 40
0.3076923076923077
 40
0.3076923076923077
 40
0.3076923076923077
 40
0.3076923076923077
 40
0.3846153846153846
 40
0.3846153846153846
 40
0.3846153846153846
 40
0.3846153846153846
 40
0.4615384615384616
 40
0.4615384615384616
 40
0.4615384615384616
 40
0.4615384615384616
 40
0.5384615384615384
 40
0.5384615384615384
 40
0.5384615384615384
 40
0.5384615384615384
 40
0.6153846153846154
 40
0.6153846153846154
 40
0.6153846153846154
 40
0.6153846153846154
 40
0.6923076923076923
 40
0.6923076923076923
 40
0.6923076923076923
 40
0.6923076923076923
 40
0.7692307692307693
 40
0.7692307692307693
 40
0.7692307692307693
 40
0.7692307692307693
 40
0.8461538461538461
 40
0.8461538461538461
 40
0.8461538461538461
 40
0.8461538461538461
 40
1.0
 40
1.0
 40
1.0
 40
1.0
 10
-43.56219
 20
-23.70064
 30
0.0
 10
-43.56219
 20
-23.70064
 30
0.0
 10
-43.56219
 20
-23.70064
 30
0.0
 10
-43.56219
 20
-23.70064
 30
0.0
 10
-43.56219
 20
-23.70064
 30
0.0
 10
-43.56429
 20
-23.67822
 30
0.0
 10
-43.56791
 20
-23.6591
 30
0.0
 10
-43.56822
 20
-23.63915
 30
0.0
 10
-43.56822
 20
-23.63915
 30
0.0
 10
-43.59833
 20
-23.66023
 30
0.0
 10
-43.62882
 20
-23.6806
 30
0.0
 10
-43.66027
 20
-23.69982
 30
0.0
 10
-43.66027
 20
-23.69982
 30
0.0
 10
-43.68119
 20
-23.71256
 30
0.0
 10
-43.70437
 20
-23.69941
 30
0.0
 10
-43.71222
 20
-23.67867
 30
0.0
 10
-43.71222
 20
-23.67867
 30
0.0
 10
-43.74971
 20
-23.57962
 30
0.0
 10
-43.76139
 20
-23.47806
 30
0.0
 10
-43.765
 20
-23.37543
 30
0.0
 10
-43.765
 20
-23.37543
 30
0.0
 10
-43.84059
 20
-23.49146
 30
0.0
 10
-43.95221
 20
-23.60091
 30
0.0
 10
-44.04671
 20
-23.69444
 30
0.0
 10
-44.04671
 20
-23.69444
 30
0.0
 10
-44.06397
 20
-23.71157
 30
0.0
 10
-44.08151
 20
-23.72824
 30
0.0
 10
-44.09932
 20
-23.74467
 30
0.0
 10
-44.09932
 20
-23.74467
 30
0.0
 10
-44.08626
 20
-23.88747
 30
0.0
 10
-44.09108
 20
-24.03847
 30
0.0
 10
-44.10593
 20
-24.18058
 30
0.0
 10
-44.10593
 20
-24.18058
 30
0.0
 10
-43.99838
 20
-24.17214
 30
0.0
 10
-43.89272
 20
-24.10603
 30
0.0
 10
-43.80828
 20
-24.0456
 30
0.0
 10
-43.80828
 20
-24.0456
 30
0.0
 10
-43.75043
 20
-24.00416
 30
0.0
 10
-43.6939
 20
-23.95944
 30
0.0
 10
-43.64453
 20
-23.90797
 30
0.0
 10
-43.64453
 20
-23.90797
 30
0.0
 10
-43.61556
 20
-23.87776
 30
0.0
 10
-43.59247
 20
-23.83903
 30
0.0
 10
-43.56106
 20
-23.81182
 30
0.0
 10
-43.56106
 20
-23.81182
 30
0.0
 10
-43.55933
 20
-23.77468
 30
0.0
 10
-43.55875
 20
-23.73737
 30
0.0
 10
-43.56219
 20
-23.70064
 30
0.0
  0
SPLINE
  5
B2
330
1F
100
AcDbEntity
  8
Layer 1
370
     9
100
AcDbSpline
210
0.0
220
0.0
230
1.0
 70
    11
 71
     3
 72
    28
 73
    24
 74
     0
 42
0.000000001
 43
0.0000000001
 40
0.0
 40
0.0
 40
0.0
 40
0.0
 40
0.1428571428571428
 40
0.1428571428571428
 40
0.1428571428571428
 40
0.1428571428571428
 40
0.2857142857142857
 40
0.2857142857142857
 40
0.2857142857142857
 40
0.2857142857142857
 40
0.4285714285714285
 40
0.4285714285714285
 40
0.4285714285714285
 40
0.4285714285714285
 40
0.5714285714285714
 40
0.5714285714285714
 40
0.5714285714285714
 40
0.5714285714285714
 40
0.7142857142857143
 40
0.7142857142857143
 40
0.7142857142857143
 40
0.7142857142857143
 40
1.0
 40
1.0
 40
1.0
 40
1.0
 10
-43.20146
 20
-23.88096
 30
0.0
 10
-43.20146
 20
-23.88096
 30
0.0
 10
-43.20146
 20
-23.88096
 30
0.0
 10
-43.20146
 20
-23.88096
 30
0.0
 10
-43.20146
 20
-23.88096
 30
0.0
 10
-43.2469
 20
-23.74037
 30
0.0
 10
-43.29602
 20
-23.60253
 30
0.0
 10
-43.35945
 20
-23.46827
 30
0.0
 10
-43.35945
 20
-23.46827
 30
0.0
 10
-43.41488
 20
-23.52136
 30
0.0
 10
-43.474
 20
-23.57011
 30
0.0
 10
-43.53584
 20
-23.61555
 30
0.0
 10
-43.53584
 20
-23.61555
 30
0.0
 10
-43.48537
 20
-23.66988
 30
0.0
 10
-43.49953
 20
-23.79101
 30
0.0
 10
-43.50256
 20
-23.85399
 30
0.0
 10
-43.50256
 20
-23.85399
 30
0.0
 10
-43.50859
 20
-23.97611
 30
0.0
 10
-43.52419
 20
-24.09714
 30
0.0
 10
-43.53742
 20
-24.21848
 30
0.0
 10
-43.53742
 20
-24.21848
 30
0.0
 10
-43.38959
 20
-24.1401
 30
0.0
 10
-43.30364
 20
-24.01211
 30
0.0
 10
-43.20146
 20
-23.88096
 30
0.0
  0
SPLINE
  5
B3
330
1F
100
AcDbEntity
  8
Layer 1
370
     9
100
AcDbSpline
210
0.0
220
0.0
230
1.0
 70
    11
 71
     3
 72
    36
 73
    32
 74
     0
 42
0.000000001
 43
0.0000000001
 40
0.0
 40
0.0
 40
0.0
 40
0.0
 40
0.1111111111111111
 40
0.1111111111111111
 40
0.1111111111111111
 40
0.1111111111111111
 40
0.2222222222222222
 40
0.2222222222222222
 40
0.2222222222222222
 40
0.2222222222222222
 40
0.3333333333333333
 40
0.3333333333333333
 40
0.3333333333333333
 40
0.3333333333333333
 40
0.4444444444444444
 40
0.4444444444444444
 40
0.4444444444444444
 40
0.4444444444444444
 40
0.5555555555555556
 40
0.5555555555555556
 40
0.5555555555555556
 40
0.5555555555555556
 40
0.6666666666666666
 40
0.6666666666666666
 40
0.6666666666666666
 40
0.6666666666666666
 40
0.7777777777777778
 40
0.7777777777777778
 40
0.7777777777777778
 40
0.7777777777777778
 40
1.0
 40
1.0
 40
1.0
 40
1.0
 10
-43.01205
 20
-23.5943
 30
0.0
 10
-43.01205
 20
-23.5943
 30
0.0
 10
-43.01205
 20
-23.5943
 30
0.0
 10
-43.01205
 20
-23.5943
 30
0.0
 10
-43.01205
 20
-23.5943
 30
0.0
 10
-42.99213
 20
-23.51892
 30
0.0
 10
-42.97477
 20
-23.44175
 30
0.0
 10
-42.97043
 20
-23.36361
 30
0.0
 10
-42.97043
 20
-23.36361
 30
0.0
 10
-42.96843
 20
-23.32802
 30
0.0
 10
-42.9696
 20
-23.29357
 30
0.0
 10
-42.96598
 20
-23.25895
 30
0.0
 10
-42.96598
 20
-23.25895
 30
0.0
 10
-43.01342
 20
-23.20755
 30
0.0
 10
-43.06317
 20
-23.15711
 30
0.0
 10
-43.11206
 20
-23.10592
 30
0.0
 10
-43.11206
 20
-23.10592
 30
0.0
 10
-43.13962
 20
-23.22295
 30
0.0
 10
-43.22506
 20
-23.33054
 30
0.0
 10
-43.30553
 20
-23.41467
 30
0.0
 10
-43.30553
 20
-23.41467
 30
0.0
 10
-43.3118
 20
-23.42121
 30
0.0
 10
-43.31831
 20
-23.42755
 30
0.0
 10
-43.32479
 20
-23.4341
 30
0.0
 10
-43.32479
 20
-23.4341
 30
0.0
 10
-43.23253
 20
-23.56815
 30
0.0
 10
-43.17834
 20
-23.72597
 30
0.0
 10
-43.12566
 20
-23.88017
 30
0.0
 10
-43.12566
 20
-23.88017
 30
0.0
 10
-43.07795
 20
-23.78911
 30
0.0
 10
-43.03826
 20
-23.69375
 30
0.0
 10
-43.01205
 20
-23.5943
 30
0.0
  0
SPLINE
  5
B4
330
1F
100
AcDbEntity
  8
Layer 1
370
     9
100
AcDbSpline
210
0.0
220
0.0
230
1.0
 70
    11
 71
     3
 72
    28
 73
    24
 74
     0
 42
0.000000001
 43
0.0000000001
 40
0.0
 40
0.0
 40
0.0
 40
0.0
 40
0.1428571428571428
 40
0.1428571428571428
 40
0.1428571428571428
 40
0.1428571428571428
 40
0.2857142857142857
 40
0.2857142857142857
 40
0.2857142857142857
 40
0.2857142857142857
 40
0.4285714285714285
 40
0.4285714285714285
 40
0.4285714285714285
 40
0.4285714285714285
 40
0.5714285714285714
 40
0.5714285714285714
 40
0.5714285714285714
 40
0.5714285714285714
 40
0.7142857142857143
 40
0.7142857142857143
 40
0.7142857142857143
 40
0.7142857142857143
 40
1.0
 40
1.0
 40
1.0
 40
1.0
 10
-42.5412
 20
-23.59595
 30
0.0
 10
-42.5412
 20
-23.59595
 30
0.0
 10
-42.5412
 20
-23.59595
 30
0.0
 10
-42.5412
 20
-23.59595
 30
0.0
 10
-42.5412
 20
-23.59595
 30
0.0
 10
-42.67281
 20
-23.52464
 30
0.0
 10
-42.78818
 20
-23.4177
 30
0.0
 10
-42.88768
 20
-23.30652
 30
0.0
 10
-42.88768
 20
-23.30652
 30
0.0
 10
-42.88144
 20
-23.40902
 30
0.0
 10
-42.91169
 20
-23.52774
 30
0.0
 10
-42.93759
 20
-23.61479
 30
0.0
 10
-42.93759
 20
-23.61479
 30
0.0
 10
-42.96147
 20
-23.695
 30
0.0
 10
-42.99096
 20
-23.77254
 30
0.0
 10
-43.026
 20
-23.84772
 30
0.0
 10
-43.026
 20
-23.84772
 30
0.0
 10
-42.94704
 20
-24.0476
 30
0.0
 10
-42.7733
 20
-24.19305
 30
0.0
 10
-42.63164
 20
-24.35197
 30
0.0
 10
-42.63164
 20
-24.35197
 30
0.0
 10
-42.58099
 20
-24.10293
 30
0.0
 10
-42.48315
 20
-23.84895
 30
0.0
 10
-42.5412
 20
-23.59595
 30
0.0
  0
SPLINE
  5
B5
330
1F
100
AcDbEntity
  8
Layer 1
370
     9
100
AcDbSpline
210
0.0
220
0.0
230
1.0
 70
    11
 71
     3
 72
    32
 73
    28
 74
     0
 42
0.000000001
 43
0.0000000001
 40
0.0
 40
0.0
 40
0.0
 40
0.0
 40
0.125
 40
0.125
 40
0.125
 40
0.125
 40
0.25
 40
0.25
 40
0.25
 40
0.25
 40
0.375
 40
0.375
 40
0.375
 40
0.375
 40
0.5
 40
0.5
 40
0.5
 40
0.5
 40
0.625
 40
0.625
 40
0.625
 40
0.625
 40
0.75
 40
0.75
 40
0.75
 40
0.75
 40
1.0
 40
1.0
 40
1.0
 40
1.0
 10
-42.38928
 20
-23.57772
 30
0.0
 10
-42.38928
 20
-23.57772
 30
0.0
 10
-42.38928
 20
-23.57772
 30
0.0
 10
-42.38928
 20
-23.57772
 30
0.0
 10
-42.38928
 20
-23.57772
 30
0.0
 10
-42.40509
 20
-23.39434
 30
0.0
 10
-42.4713
 20
-23.21757
 30
0.0
 10
-42.47
 20
-23.03305
 30
0.0
 10
-42.47
 20
-23.03305
 30
0.0
 10
-42.58716
 20
-23.00219
 30
0.0
 10
-42.70254
 20
-22.96246
 30
0.0
 10
-42.81853
 20
-22.92808
 30
0.0
 10
-42.81853
 20
-22.92808
 30
0.0
 10
-42.82546
 20
-23.03788
 30
0.0
 10
-42.84437
 20
-23.14705
 30
0.0
 10
-42.87114
 20
-23.25158
 30
0.0
 10
-42.87114
 20
-23.25158
 30
0.0
 10
-42.7549
 20
-23.35252
 30
0.0
 10
-42.64059
 20
-23.46173
 30
0.0
 10
-42.50479
 20
-23.53108
 30
0.0
 10
-42.50479
 20
-23.53108
 30
0.0
 10
-42.4949
 20
-23.53145
 30
0.0
 10
-42.48526
 20
-23.53549
 30
0.0
 10
-42.4784
 20
-23.54386
 30
0.0
 10
-42.4784
 20
-23.54386
 30
0.0
 10
-42.44977
 20
-23.55705
 30
0.0
 10
-42.42018
 20
-23.5686
 30
0.0
 10
-42.38928
 20
-23.57772
 30
0.0
  0
SPLINE
  5
B6
330
1F
100
AcDbEntity
  8
Layer 1
370
     9
100
AcDbSpline
210
0.0
220
0.0
230
1.0
 70
    11
 71
     3
 72
    48
 73
    44
 74
     0
 42
0.000000001
 43
0.0000000001
 40
0.0
 40
0.0
 40
0.0
 40
0.0
 40
0.0833333333333333
 40
0.0833333333333333
 40
0.0833333333333333
 40
0.0833333333333333
 40
0.1666666666666667
 40
0.1666666666666667
 40
0.1666666666666667
 40
0.1666666666666667
 40
0.25
 40
0.25
 40
0.25
 40
0.25
 40
0.3333333333333333
 40
0.3333333333333333
 40
0.3333333333333333
 40
0.3333333333333333
 40
0.4166666666666667
 40
0.4166666666666667
 40
0.4166666666666667
 40
0.4166666666666667
 40
0.5
 40
0.5
 40
0.5
 40
0.5
 40
0.5833333333333334
 40
0.5833333333333334
 40
0.5833333333333334
 40
0.5833333333333334
 40
0.6666666666666666
 40
0.6666666666666666
 40
0.6666666666666666
 40
0.6666666666666666
 40
0.75
 40
0.75
 40
0.75
 40
0.75
 40
0.8333333333333334
 40
0.8333333333333334
 40
0.8333333333333334
 40
0.8333333333333334
 40
1.0
 40
1.0
 40
1.0
 40
1.0
 10
-42.34421
 20
-23.34938
 30
0.0
 10
-42.34421
 20
-23.34938
 30
0.0
 10
-42.34421
 20
-23.34938
 30
0.0
 10
-42.34421
 20
-23.34938
 30
0.0
 10
-42.34421
 20
-23.34938
 30
0.0
 10
-42.15225
 20
-23.35331
 30
0.0
 10
-41.96949
 20
-23.39658
 30
0.0
 10
-41.77953
 20
-23.35992
 30
0.0
 10
-41.77953
 20
-23.35992
 30
0.0
 10
-41.77853
 20
-23.35548
 30
0.0
 10
-41.7768
 20
-23.35128
 30
0.0
 10
-41.77453
 20
-23.34749
 30
0.0
 10
-41.77453
 20
-23.34749
 30
0.0
 10
-41.79372
 20
-23.28434
 30
0.0
 10
-41.81098
 20
-23.2206
 30
0.0
 10
-41.82927
 20
-23.15711
 30
0.0
 10
-41.82927
 20
-23.15711
 30
0.0
 10
-41.84402
 20
-23.10602
 30
0.0
 10
-41.86628
 20
-23.05438
 30
0.0
 10
-41.87396
 20
-23.00153
 30
0.0
 10
-41.87396
 20
-23.00153
 30
0.0
 10
-41.8823
 20
-22.99843
 30
0.0
 10
-41.8906
 20
-22.9955
 30
0.0
 10
-41.89894
 20
-22.99237
 30
0.0
 10
-41.89894
 20
-22.99237
 30
0.0
 10
-41.96467
 20
-22.96739
 30
0.0
 10
-42.05341
 20
-22.94035
 30
0.0
 10
-42.12397
 20
-22.89814
 30
0.0
 10
-42.12397
 20
-22.89814
 30
0.0
 10
-42.12035
 20
-22.95075
 30
0.0
 10
-42.12152
 20
-23.00129
 30
0.0
 10
-42.12604
 20
-23.04398
 30
0.0
 10
-42.12604
 20
-23.04398
 30
0.0
 10
-42.12824
 20
-23.06457
 30
0.0
 10
-42.14226
 20
-23.08411
 30
0.0
 10
-42.16524
 20
-23.08322
 30
0.0
 10
-42.16524
 20
-23.08322
 30
0.0
 10
-42.24045
 20
-23.08018
 30
0.0
 10
-42.31414
 20
-23.06892
 30
0.0
 10
-42.38704
 20
-23.05307
 30
0.0
 10
-42.38704
 20
-23.05307
 30
0.0
 10
-42.38349
 20
-23.15319
 30
0.0
 10
-42.3634
 20
-23.25123
 30
0.0
 10
-42.34421
 20
-23.34938
 30
0.0
  0
SPLINE
  5
B7
330
1F
100
AcDbEntity
  8
Layer 1
370
     9
100
AcDbSpline
210
0.0
220
0.0
230
1.0
 70
    11
 71
     3
 72
    24
 73
    20
 74
     0
 42
0.000000001
 43
0.0000000001
 40
0.0
 40
0.0
 40
0.0
 40
0.0
 40
0.1666666666666667
 40
0.1666666666666667
 40
0.1666666666666667
 40
0.1666666666666667
 40
0.3333333333333333
 40
0.3333333333333333
 40
0.3333333333333333
 40
0.3333333333333333
 40
0.5
 40
0.5
 40
0.5
 40
0.5
 40
0.6666666666666666
 40
0.6666666666666666
 40
0.6666666666666666
 40
0.6666666666666666
 40
1.0
 40
1.0
 40
1.0
 40
1.0
 10
-41.75517
 20
-23.43299
 30
0.0
 10
-41.75517
 20
-23.43299
 30
0.0
 10
-41.75517
 20
-23.43299
 30
0.0
 10
-41.75517
 20
-23.43299
 30
0.0
 10
-41.75517
 20
-23.43299
 30
0.0
 10
-41.94868
 20
-23.46538
 30
0.0
 10
-42.14491
 20
-23.42907
 30
0.0
 10
-42.33629
 20
-23.39086
 30
0.0
 10
-42.33629
 20
-23.39086
 30
0.0
 10
-42.32475
 20
-23.45184
 30
0.0
 10
-42.31476
 20
-23.51303
 30
0.0
 10
-42.31014
 20
-23.57497
 30
0.0
 10
-42.31014
 20
-23.57497
 30
0.0
 10
-42.06647
 20
-23.6201
 30
0.0
 10
-41.86703
 20
-23.79139
 30
0.0
 10
-41.63728
 20
-23.87831
 30
0.0
 10
-41.63728
 20
-23.87831
 30
0.0
 10
-41.63873
 20
-23.7228
 30
0.0
 10
-41.69123
 20
-23.57428
 30
0.0
 10
-41.75517
 20
-23.43299
 30
0.0
  0
SPLINE
  5
B8
330
1F
100
AcDbEntity
  8
Layer 1
370
     9
100
AcDbSpline
210
0.0
220
0.0
230
1.0
 70
    11
 71
     3
 72
    56
 73
    52
 74
     0
 42
0.000000001
 43
0.0000000001
 40
0.0
 40
0.0
 40
0.0
 40
0.0
 40
0.0714285714285714
 40
0.0714285714285714
 40
0.0714285714285714
 40
0.0714285714285714
 40
0.1428571428571428
 40
0.1428571428571428
 40
0.1428571428571428
 40
0.1428571428571428
 40
0.2142857142857143
 40
0.2142857142857143
 40
0.2142857142857143
 40
0.2142857142857143
 40
0.2857142857142857
 40
0.2857142857142857
 40
0.2857142857142857
 40
0.2857142857142857
 40
0.3571428571428572
 40
0.3571428571428572
 40
0.3571428571428572
 40
0.3571428571428572
 40
0.4285714285714285
 40
0.4285714285714285
 40
0.4285714285714285
 40
0.4285714285714285
 40
0.5
 40
0.5
 40
0.5
 40
0.5
 40
0.5714285714285714
 40
0.5714285714285714
 40
0.5714285714285714
 40
0.5714285714285714
 40
0.6428571428571429
 40
0.6428571428571429
 40
0.6428571428571429
 40
0.6428571428571429
 40
0.7142857142857143
 40
0.7142857142857143
 40
0.7142857142857143
 40
0.7142857142857143
 40
0.7857142857142857
 40
0.7857142857142857
 40
0.7857142857142857
 40
0.7857142857142857
 40
0.8571428571428571
 40
0.8571428571428571
 40
0.8571428571428571
 40
0.8571428571428571
 40
1.0
 40
1.0
 40
1.0
 40
1.0
 10
-41.19658
 20
-23.54593
 30
0.0
 10
-41.19658
 20
-23.54593
 30
0.0
 10
-41.19658
 20
-23.54593
 30
0.0
 10
-41.19658
 20
-23.54593
 30
0.0
 10
-41.19658
 20
-23.54593
 30
0.0
 10
-41.19624
 20
-23.46183
 30
0.0
 10
-41.19703
 20
-23.37777
 30
0.0
 10
-41.20499
 20
-23.29402
 30
0.0
 10
-41.20499
 20
-23.29402
 30
0.0
 10
-41.21322
 20
-23.20775
 30
0.0
 10
-41.22108
 20
-23.04962
 30
0.0
 10
-41.30796
 20
-23.0006
 30
0.0
 10
-41.30796
 20
-23.0006
 30
0.0
 10
-41.309
 20
-23.00008
 30
0.0
 10
-41.30962
 20
-22.99919
 30
0.0
 10
-41.31058
 20
-22.99843
 30
0.0
 10
-41.31058
 20
-22.99843
 30
0.0
 10
-41.35826
 20
-22.98568
 30
0.0
 10
-41.40456
 20
-22.96932
 30
0.0
 10
-41.44732
 20
-22.945
 30
0.0
 10
-41.44732
 20
-22.945
 30
0.0
 10
-41.43698
 20
-22.99054
 30
0.0
 10
-41.42427
 20
-23.03178
 30
0.0
 10
-41.40649
 20
-23.06527
 30
0.0
 10
-41.40649
 20
-23.06527
 30
0.0
 10
-41.39023
 20
-23.09572
 30
0.0
 10
-41.41652
 20
-23.12738
 30
0.0
 10
-41.44921
 20
-23.1208
 30
0.0
 10
-41.44921
 20
-23.1208
 30
0.0
 10
-41.56004
 20
-23.09848
 30
0.0
 10
-41.67063
 20
-23.06981
 30
0.0
 10
-41.77873
 20
-23.03464
 30
0.0
 10
-41.77873
 20
-23.03464
 30
0.0
 10
-41.76334
 20
-23.07798
 30
0.0
 10
-41.75469
 20
-23.12573
 30
0.0
 10
-41.74349
 20
-23.167
 30
0.0
 10
-41.74349
 20
-23.167
 30
0.0
 10
-41.72585
 20
-23.23221
 30
0.0
 10
-41.70835
 20
-23.29757
 30
0.0
 10
-41.68823
 20
-23.36216
 30
0.0
 10
-41.68823
 20
-23.36216
 30
0.0
 10
-41.68844
 20
-23.35696
 30
0.0
 10
-41.68847
 20
-23.35186
 30
0.0
 10
-41.68792
 20
-23.34656
 30
0.0
 10
-41.68792
 20
-23.34656
 30
0.0
 10
-41.6851
 20
-23.31958
 30
0.0
 10
-41.65371
 20
-23.31021
 30
0.0
 10
-41.63773
 20
-23.33302
 30
0.0
 10
-41.63773
 20
-23.33302
 30
0.0
 10
-41.54998
 20
-23.45752
 30
0.0
 10
-41.35202
 20
-23.53098
 30
0.0
 10
-41.19658
 20
-23.54593
 30
0.0
  0
SPLINE
  5
B9
330
1F
100
AcDbEntity
  8
Layer 1
370
     9
100
AcDbSpline
210
0.0
220
0.0
230
1.0
 70
    11
 71
     3
 72
    44
 73
    40
 74
     0
 42
0.000000001
 43
0.0000000001
 40
0.0
 40
0.0
 40
0.0
 40
0.0
 40
0.0909090909090909
 40
0.0909090909090909
 40
0.0909090909090909
 40
0.0909090909090909
 40
0.1818181818181818
 40
0.1818181818181818
 40
0.1818181818181818
 40
0.1818181818181818
 40
0.2727272727272727
 40
0.2727272727272727
 40
0.2727272727272727
 40
0.2727272727272727
 40
0.3636363636363636
 40
0.3636363636363636
 40
0.3636363636363636
 40
0.3636363636363636
 40
0.4545454545454545
 40
0.4545454545454545
 40
0.4545454545454545
 40
0.4545454545454545
 40
0.5454545454545454
 40
0.5454545454545454
 40
0.5454545454545454
 40
0.5454545454545454
 40
0.6363636363636364
 40
0.6363636363636364
 40
0.6363636363636364
 40
0.6363636363636364
 40
0.7272727272727273
 40
0.7272727272727273
 40
0.7272727272727273
 40
0.7272727272727273
 40
0.8181818181818182
 40
0.8181818181818182
 40
0.8181818181818182
 40
0.8181818181818182
 40
1.0
 40
1.0
 40
1.0
 40
1.0
 10
-40.77277
 20
-23.17544
 30
0.0
 10
-40.77277
 20
-23.17544
 30
0.0
 10
-40.77277
 20
-23.17544
 30
0.0
 10
-40.77277
 20
-23.17544
 30
0.0
 10
-40.77277
 20
-23.17544
 30
0.0
 10
-40.77504
 20
-23.11367
 30
0.0
 10
-40.77917
 20
-23.05169
 30
0.0
 10
-40.79306
 20
-22.99126
 30
0.0
 10
-40.79306
 20
-22.99126
 30
0.0
 10
-40.8045
 20
-22.9419
 30
0.0
 10
-40.82341
 20
-22.89494
 30
0.0
 10
-40.83753
 20
-22.84678
 30
0.0
 10
-40.83753
 20
-22.84678
 30
0.0
 10
-40.92921
 20
-22.83834
 30
0.0
 10
-41.02591
 20
-22.82704
 30
0.0
 10
-41.11066
 20
-22.79424
 30
0.0
 10
-41.11066
 20
-22.79424
 30
0.0
 10
-41.11011
 20
-22.7961
 30
0.0
 10
-41.10956
 20
-22.79796
 30
0.0
 10
-41.10897
 20
-22.79979
 30
0.0
 10
-41.10897
 20
-22.79979
 30
0.0
 10
-41.08954
 20
-22.86342
 30
0.0
 10
-41.06911
 20
-22.9276
 30
0.0
 10
-41.05916
 20
-22.9934
 30
0.0
 10
-41.05916
 20
-22.9934
 30
0.0
 10
-41.05468
 20
-23.02303
 30
0.0
 10
-41.07559
 20
-23.04694
 30
0.0
 10
-41.10646
 20
-23.04074
 30
0.0
 10
-41.10646
 20
-23.04074
 30
0.0
 10
-41.1407
 20
-23.03381
 30
0.0
 10
-41.1755
 20
-23.02768
 30
0.0
 10
-41.21016
 20
-23.02096
 30
0.0
 10
-41.21016
 20
-23.02096
 30
0.0
 10
-41.16988
 20
-23.07602
 30
0.0
 10
-41.15359
 20
-23.15777
 30
0.0
 10
-41.14404
 20
-23.2162
 30
0.0
 10
-41.14404
 20
-23.2162
 30
0.0
 10
-41.02247
 20
-23.18371
 30
0.0
 10
-40.89448
 20
-23.20207
 30
0.0
 10
-40.77277
 20
-23.17544
 30
0.0
  0
ENDSEC
  0
SECTION
  2
OBJECTS
  0
DICTIONARY
  5
C
330
0
100
AcDbDictionary
281
     1
  3
ACAD_DETAILVIEWSTYLE
350
F5
  3
ACAD_GROUP
350
D
  3
ACAD_LAYOUT
350
1A
  3
ACAD_MATERIAL
350
43
  3
ACAD_MLEADERSTYLE
350
6B
  3
ACAD_MLINESTYLE
350
17
  3
ACAD_PLOTSETTINGS
350
19
  3
ACAD_PLOTSTYLENAME
350
E
  3
ACAD_SCALELIST
350
47
  3
ACAD_SECTIONVIEWSTYLE
350
F6
  3
ACAD_TABLESTYLE
350
69
  3
ACAD_VISUALSTYLE
350
2A
  3
ACDB_RECOMPOSE_DATA
350
F2
  3
AcDbVariableDictionary
350
BA
  0
SUN
  5
6D
330
29
100
AcDbSun
 90
        1
290
     0
 63
     7
421
 16777215
 40
1.0
291
     1
 91
  2455826
 92
 54000000
292
     0
 70
     2
 71
   256
280
     1
  0
DICTIONARY
  5
F5
102
{ACAD_REACTORS
330
C
102
}
330
C
100
AcDbDictionary
281
     1
  0
DICTIONARY
  5
D
102
{ACAD_REACTORS
330
C
102
}
330
C
100
AcDbDictionary
281
     1
  0
DICTIONARY
  5
1A
102
{ACAD_REACTORS
330
C
102
}
330
C
100
AcDbDictionary
281
     1
  3
Layout1
350
1E
  3
Layout2
350
26
  3
Model
350
22
  0
DICTIONARY
  5
43
102
{ACAD_REACTORS
330
C
102
}
330
C
100
AcDbDictionary
281
     1
  3
ByBlock
350
45
  3
ByLayer
350
44
  3
Global
350
46
  0
DICTIONARY
  5
6B
102
{ACAD_REACTORS
330
C
102
}
330
C
100
AcDbDictionary
281
     1
  3
Standard
350
6C
  0
DICTIONARY
  5
17
102
{ACAD_REACTORS
330
C
102
}
330
C
100
AcDbDictionary
281
     1
  3
Standard
350
18
  0
DICTIONARY
  5
19
102
{ACAD_REACTORS
330
C
102
}
330
C
100
AcDbDictionary
281
     1
  0
ACDBDICTIONARYWDFLT
  5
E
102
{ACAD_REACTORS
330
C
102
}
330
C
100
AcDbDictionary
281
     1
  3
Normal
350
F
100
AcDbDictionaryWithDefault
340
F
  0
DICTIONARY
  5
47
102
{ACAD_REACTORS
330
C
102
}
330
C
100
AcDbDictionary
281
     1
  3
A0
350
48
  3
A1
350
49
  3
A2
350
4A
  3
A3
350
4B
  3
A4
350
4C
  3
A5
350
4D
  3
A6
350
4E
  3
A7
350
4F
  3
A8
350
50
  3
A9
350
51
  3
B0
350
52
  3
B1
350
53
  3
B2
350
54
  3
B3
350
55
  3
B4
350
56
  3
B5
350
57
  3
B6
350
58
  3
B7
350
59
  3
B8
350
5A
  3
B9
350
5B
  3
C0
350
5C
  3
C1
350
5D
  3
C2
350
5E
  3
C3
350
5F
  3
C4
350
60
  3
C5
350
61
  3
C6
350
62
  3
C7
350
63
  3
C8
350
64
  3
C9
350
65
  3
D0
350
66
  3
D1
350
67
  3
D2
350
68
  0
DICTIONARY
  5
F6
102
{ACAD_REACTORS
330
C
102
}
330
C
100
AcDbDictionary
281
     1
  0
DICTIONARY
  5
69
102
{ACAD_REACTORS
330
C
102
}
330
C
100
AcDbDictionary
281
     1
  3
Standard
350
6A
  0
DICTIONARY
  5
2A
102
{ACAD_REACTORS
330
C
102
}
330
C
100
AcDbDictionary
281
     1
  3
2dWireframe
350
2F
  3
Basic
350
32
  3
Brighten
350
36
  3
ColorChange
350
3A
  3
Conceptual
350
34
  3
Dim
350
35
  3
EdgeColorOff
350
3D
  3
Facepattern
350
39
  3
Flat
350
2B
  3
FlatWithEdges
350
2C
  3
Gouraud
350
2D
  3
GouraudWithEdges
350
2E
  3
Hidden
350
31
  3
JitterOff
350
3B
  3
Linepattern
350
38
  3
OverhangOff
350
3C
  3
Realistic
350
33
  3
Shaded
350
42
  3
Shaded with edges
350
41
  3
Shades of Gray
350
3E
  3
Sketchy
350
3F
  3
Thicken
350
37
  3
Wireframe
350
30
  3
X-Ray
350
40
  0
XRECORD
  5
F2
102
{ACAD_REACTORS
330
C
102
}
330
C
100
AcDbXrecord
280
     1
 90
        1
330
6A
  0
DICTIONARY
  5
BA
102
{ACAD_REACTORS
330
C
102
}
330
C
100
AcDbDictionary
281
     1
  3
CANNOSCALE
350
BB
  3
CMLEADERSTYLE
350
F4
  3
CTABLESTYLE
350
F3
  3
XCLIPFRAME
350
BC
  0
LAYOUT
  5
1E
102
{ACAD_REACTORS
330
1A
102
}
330
1A
100
AcDbPlotSettings
  1

  2
none_device
  4

  6

 40
0.0
 41
0.0
 42
0.0
 43
0.0
 44
0.0
 45
0.0
 46
0.0
 47
0.0
 48
0.0
 49
0.0
140
0.0
141
0.0
142
1.0
143
1.0
 70
   688
 72
     0
 73
     0
 74
     5
  7

 75
    16
 76
     0
 77
     2
 78
   300
147
1.0
148
0.0
149
0.0
100
AcDbLayout
  1
Layout1
 70
     1
 71
     1
 10
0.0
 20
0.0
 11
12.0
 21
9.0
 12
0.0
 22
0.0
 32
0.0
 14
1.000000000000000E+20
 24
1.000000000000000E+20
 34
1.000000000000000E+20
 15
-1.000000000000000E+20
 25
-1.000000000000000E+20
 35
-1.000000000000000E+20
146
0.0
 13
0.0
 23
0.0
 33
0.0
 16
1.0
 26
0.0
 36
0.0
 17
0.0
 27
1.0
 37
0.0
 76
     0
330
1B
  0
LAYOUT
  5
26
102
{ACAD_REACTORS
330
1A
102
}
330
1A
100
AcDbPlotSettings
  1

  2
none_device
  4

  6

 40
0.0
 41
0.0
 42
0.0
 43
0.0
 44
0.0
 45
0.0
 46
0.0
 47
0.0
 48
0.0
 49
0.0
140
0.0
141
0.0
142
1.0
143
1.0
 70
   688
 72
     0
 73
     0
 74
     5
  7

 75
    16
 76
     0
 77
     2
 78
   300
147
1.0
148
0.0
149
0.0
100
AcDbLayout
  1
Layout2
 70
     1
 71
     2
 10
0.0
 20
0.0
 11
0.0
 21
0.0
 12
0.0
 22
0.0
 32
0.0
 14
0.0
 24
0.0
 34
0.0
 15
0.0
 25
0.0
 35
0.0
146
0.0
 13
0.0
 23
0.0
 33
0.0
 16
1.0
 26
0.0
 36
0.0
 17
0.0
 27
1.0
 37
0.0
 76
     0
330
23
  0
LAYOUT
  5
22
102
{ACAD_REACTORS
330
1A
102
}
330
1A
100
AcDbPlotSettings
  1

  2
none_device
  4
Letter_(8.50_x_11.00_Inches)
  6

 40
6.35
 41
6.35
 42
6.35000508
 43
6.35000508
 44
215.9
 45
279.4
 46
0.0
 47
0.0
 48
0.0
 49
0.0
140
0.0
141
0.0
142
1.0
143
1.0
 70
  1712
 72
     0
 73
     0
 74
     0
  7

 75
     0
 76
     0
 77
     2
 78
   300
147
1.0
148
0.0
149
0.0
100
AcDbLayout
  1
Model
 70
     1
 71
     0
 10
0.0
 20
0.0
 11
12.0
 21
9.0
 12
0.0
 22
0.0
 32
0.0
 14
-47.22748
 24
-24.47711
 34
0.0
 15
-39.72059
 25
-17.23626
 35
0.0
146
0.0
 13
0.0
 23
0.0
 33
0.0
 16
1.0
 26
0.0
 36
0.0
 17
0.0
 27
1.0
 37
0.0
 76
     0
330
1F
331
29
  0
MATERIAL
  5
45
102
{ACAD_REACTORS
330
43
102
}
330
43
100
AcDbMaterial
  1
ByBlock
 72
     1
 94
      127
  0
MATERIAL
  5
44
102
{ACAD_REACTORS
330
43
102
}
330
43
100
AcDbMaterial
  1
ByLayer
 72
     1
 94
      127
  0
MATERIAL
  5
46
102
{ACAD_REACTORS
330
43
102
}
330
43
100
AcDbMaterial
  1
Global
 72
     1
 94
      127
  0
MLEADERSTYLE
  5
6C
102
{ACAD_REACTORS
330
6B
102
}
102
{ACAD_XDICTIONARY
360
F0
102
}
330
6B
100
AcDbMLeaderStyle
170
     2
171
     1
172
     0
 90
        2
 40
0.0
 41
0.0
173
     1
 91
-1056964608
340
14
 92
       -2
290
     1
 42
0.09
291
     1
 43
0.36
  3
Standard
341
0
 44
0.18
300

342
11
174
     1
178
     6
175
     1
176
     0
 93
-1056964608
 45
0.18
292
     0
297
     0
 46
0.18
343
0
 94
-1056964608
 47
1.0
 49
1.0
140
1.0
293
     1
141
0.0
294
     1
177
     0
142
1.0
295
     0
296
     0
143
0.125
1001
ACAD_MLEADERVER
1070
     2
  0
MLINESTYLE
  5
18
102
{ACAD_REACTORS
330
17
102
}
330
17
100
AcDbMlineStyle
  2
Standard
 70
     0
  3

 62
   256
 51
90.0
 52
90.0
 71
     2
 49
0.5
 62
   256
  6
BYLAYER
 49
-0.5
 62
   256
  6
BYLAYER
  0
ACDBPLACEHOLDER
  5
F
102
{ACAD_REACTORS
330
E
102
}
330
E
  0
SCALE
  5
48
102
{ACAD_REACTORS
330
47
102
}
330
47
100
AcDbScale
 70
     0
300
1:1
140
1.0
141
1.0
290
     1
  0
SCALE
  5
49
102
{ACAD_REACTORS
330
47
102
}
330
47
100
AcDbScale
 70
     0
300
1:2
140
1.0
141
2.0
290
     0
  0
SCALE
  5
4A
102
{ACAD_REACTORS
330
47
102
}
330
47
100
AcDbScale
 70
     0
300
1:4
140
1.0
141
4.0
290
     0
  0
SCALE
  5
4B
102
{ACAD_REACTORS
330
47
102
}
330
47
100
AcDbScale
 70
     0
300
1:5
140
1.0
141
5.0
290
     0
  0
SCALE
  5
4C
102
{ACAD_REACTORS
330
47
102
}
330
47
100
AcDbScale
 70
     0
300
1:8
140
1.0
141
8.0
290
     0
  0
SCALE
  5
4D
102
{ACAD_REACTORS
330
47
102
}
330
47
100
AcDbScale
 70
     0
300
1:10
140
1.0
141
10.0
290
     0
  0
SCALE
  5
4E
102
{ACAD_REACTORS
330
47
102
}
330
47
100
AcDbScale
 70
     0
300
1:16
140
1.0
141
16.0
290
     0
  0
SCALE
  5
4F
102
{ACAD_REACTORS
330
47
102
}
330
47
100
AcDbScale
 70
     0
300
1:20
140
1.0
141
20.0
290
     0
  0
SCALE
  5
50
102
{ACAD_REACTORS
330
47
102
}
330
47
100
AcDbScale
 70
     0
300
1:30
140
1.0
141
30.0
290
     0
  0
SCALE
  5
51
102
{ACAD_REACTORS
330
47
102
}
330
47
100
AcDbScale
 70
     0
300
1:40
140
1.0
141
40.0
290
     0
  0
SCALE
  5
52
102
{ACAD_REACTORS
330
47
102
}
330
47
100
AcDbScale
 70
     0
300
1:50
140
1.0
141
50.0
290
     0
  0
SCALE
  5
53
102
{ACAD_REACTORS
330
47
102
}
330
47
100
AcDbScale
 70
     0
300
1:100
140
1.0
141
100.0
290
     0
  0
SCALE
  5
54
102
{ACAD_REACTORS
330
47
102
}
330
47
100
AcDbScale
 70
     0
300
2:1
140
2.0
141
1.0
290
     0
  0
SCALE
  5
55
102
{ACAD_REACTORS
330
47
102
}
330
47
100
AcDbScale
 70
     0
300
4:1
140
4.0
141
1.0
290
     0
  0
SCALE
  5
56
102
{ACAD_REACTORS
330
47
102
}
330
47
100
AcDbScale
 70
     0
300
8:1
140
8.0
141
1.0
290
     0
  0
SCALE
  5
57
102
{ACAD_REACTORS
330
47
102
}
330
47
100
AcDbScale
 70
     0
300
10:1
140
10.0
141
1.0
290
     0
  0
SCALE
  5
58
102
{ACAD_REACTORS
330
47
102
}
330
47
100
AcDbScale
 70
     0
300
100:1
140
100.0
141
1.0
290
     0
  0
SCALE
  5
59
102
{ACAD_REACTORS
330
47
102
}
330
47
100
AcDbScale
 70
     0
300
1/128\" = 1\'-0\"
140
0.0078125
141
12.0
290
     0
  0
SCALE
  5
5A
102
{ACAD_REACTORS
330
47
102
}
330
47
100
AcDbScale
 70
     0
300
1/64\" = 1\'-0\"
140
0.015625
141
12.0
290
     0
  0
SCALE
  5
5B
102
{ACAD_REACTORS
330
47
102
}
330
47
100
AcDbScale
 70
     0
300
1/32\" = 1\'-0\"
140
0.03125
141
12.0
290
     0
  0
SCALE
  5
5C
102
{ACAD_REACTORS
330
47
102
}
330
47
100
AcDbScale
 70
     0
300
1/16\" = 1\'-0\"
140
0.0625
141
12.0
290
     0
  0
SCALE
  5
5D
102
{ACAD_REACTORS
330
47
102
}
330
47
100
AcDbScale
 70
     0
300
3/32\" = 1\'-0\"
140
0.09375
141
12.0
290
     0
  0
SCALE
  5
5E
102
{ACAD_REACTORS
330
47
102
}
330
47
100
AcDbScale
 70
     0
300
1/8\" = 1\'-0\"
140
0.125
141
12.0
290
     0
  0
SCALE
  5
5F
102
{ACAD_REACTORS
330
47
102
}
330
47
100
AcDbScale
 70
     0
300
3/16\" = 1\'-0\"
140
0.1875
141
12.0
290
     0
  0
SCALE
  5
60
102
{ACAD_REACTORS
330
47
102
}
330
47
100
AcDbScale
 70
     0
300
1/4\" = 1\'-0\"
140
0.25
141
12.0
290
     0
  0
SCALE
  5
61
102
{ACAD_REACTORS
330
47
102
}
330
47
100
AcDbScale
 70
     0
300
3/8\" = 1\'-0\"
140
0.375
141
12.0
290
     0
  0
SCALE
  5
62
102
{ACAD_REACTORS
330
47
102
}
330
47
100
AcDbScale
 70
     0
300
1/2\" = 1\'-0\"
140
0.5
141
12.0
290
     0
  0
SCALE
  5
63
102
{ACAD_REACTORS
330
47
102
}
330
47
100
AcDbScale
 70
     0
300
3/4\" = 1\'-0\"
140
0.75
141
12.0
290
     0
  0
SCALE
  5
64
102
{ACAD_REACTORS
330
47
102
}
330
47
100
AcDbScale
 70
     0
300
1\" = 1\'-0\"
140
1.0
141
12.0
290
     0
  0
SCALE
  5
65
102
{ACAD_REACTORS
330
47
102
}
330
47
100
AcDbScale
 70
     0
300
1-1/2\" = 1\'-0\"
140
1.5
141
12.0
290
     0
  0
SCALE
  5
66
102
{ACAD_REACTORS
330
47
102
}
330
47
100
AcDbScale
 70
     0
300
3\" = 1\'-0\"
140
3.0
141
12.0
290
     0
  0
SCALE
  5
67
102
{ACAD_REACTORS
330
47
102
}
330
47
100
AcDbScale
 70
     0
300
6\" = 1\'-0\"
140
6.0
141
12.0
290
     0
  0
SCALE
  5
68
102
{ACAD_REACTORS
330
47
102
}
330
47
100
AcDbScale
 70
     0
300
1\'-0\" = 1\'-0\"
140
12.0
141
12.0
290
     0
  0
TABLESTYLE
  5
6A
102
{ACAD_REACTORS
330
69
102
}
102
{ACAD_XDICTIONARY
360
ED
102
}
330
69
100
AcDbTableStyle
  3
Standard
 70
     0
 71
     0
 40
0.06
 41
0.06
280
     0
281
     0
  7
Standard
140
0.18
170
     2
 62
     0
 63
   257
283
     0
 90
        4
 91
        0
  1

274
    -2
284
     1
 64
     0
275
    -2
285
     1
 65
     0
276
    -2
286
     1
 66
     0
277
    -2
287
     1
 67
     0
278
    -2
288
     1
 68
     0
279
    -2
289
     1
 69
     0
  7
Standard
140
0.25
170
     5
 62
     0
 63
   257
283
     0
 90
        4
 91
        0
  1

274
    -2
284
     1
 64
     0
275
    -2
285
     1
 65
     0
276
    -2
286
     1
 66
     0
277
    -2
287
     1
 67
     0
278
    -2
288
     1
 68
     0
279
    -2
289
     1
 69
     0
  7
Standard
140
0.18
170
     5
 62
     0
 63
   257
283
     0
 90
        4
 91
        0
  1

274
    -2
284
     1
 64
     0
275
    -2
285
     1
 65
     0
276
    -2
286
     1
 66
     0
277
    -2
287
     1
 67
     0
278
    -2
288
     1
 68
     0
279
    -2
289
     1
 69
     0
  0
VISUALSTYLE
  5
2F
102
{ACAD_REACTORS
330
2A
102
}
102
{ACAD_XDICTIONARY
360
C5
102
}
330
2A
100
AcDbVisualStyle
  2
2dWireframe
 70
     4
 71
     0
 72
     2
 73
     0
 90
        0
 40
0.6
 41
30.0
 62
     5
 63
     7
421
 16777215
 74
     1
 91
        4
 64
     7
 65
   257
 75
     1
175
     1
 42
1.0
 92
        0
 66
   257
 43
1.0
 76
     1
 77
     6
 78
     2
 67
     7
 79
     5
170
     0
171
     0
290
     0
174
     0
 93
        1
 44
0.0
173
     0
291
     0
 45
0.0
  0
VISUALSTYLE
  5
32
102
{ACAD_REACTORS
330
2A
102
}
102
{ACAD_XDICTIONARY
360
CB
102
}
330
2A
100
AcDbVisualStyle
  2
Basic
 70
     7
 71
     1
 72
     0
 73
     1
 90
        0
 40
0.6
 41
30.0
 62
     5
 63
     7
421
 16777215
 74
     0
 91
        4
 64
     7
 65
   257
 75
     1
175
     1
 42
1.0
 92
        8
 66
     7
 43
1.0
 76
     1
 77
     6
 78
     2
 67
     7
 79
     5
170
     0
171
     0
290
     0
174
     0
 93
        1
 44
0.0
173
     0
291
     1
 45
0.0
  0
VISUALSTYLE
  5
36
102
{ACAD_REACTORS
330
2A
102
}
102
{ACAD_XDICTIONARY
360
D3
102
}
330
2A
100
AcDbVisualStyle
  2
Brighten
 70
    12
 71
     2
 72
     2
 73
     0
 90
        0
 40
0.6
 41
30.0
 62
     5
 63
     7
421
 16777215
 74
     1
 91
        4
 64
     7
 65
   257
 75
     1
175
     1
 42
1.0
 92
        8
 66
     7
 43
1.0
 76
     1
 77
     6
 78
     2
 67
     7
 79
     5
170
     0
171
     0
290
     0
174
     0
 93
        1
 44
50.0
173
     0
291
     1
 45
0.0
  0
VISUALSTYLE
  5
3A
102
{ACAD_REACTORS
330
2A
102
}
102
{ACAD_XDICTIONARY
360
DB
102
}
330
2A
100
AcDbVisualStyle
  2
ColorChange
 70
    16
 71
     2
 72
     2
 73
     3
 90
        0
 40
0.6
 41
30.0
 62
     5
 63
     8
421
  8421504
 74
     1
 91
        4
 64
     7
 65
   257
 75
     1
175
     1
 42
1.0
 92
        8
 66
     8
424
  8421504
 43
1.0
 76
     1
 77
     6
 78
     2
 67
     7
 79
     5
170
     0
171
     0
290
     0
174
     0
 93
        1
 44
0.0
173
     0
291
     1
 45
0.0
  0
VISUALSTYLE
  5
34
102
{ACAD_REACTORS
330
2A
102
}
102
{ACAD_XDICTIONARY
360
CF
102
}
330
2A
100
AcDbVisualStyle
  2
Conceptual
 70
     9
 71
     3
 72
     2
 73
     0
 90
        0
 40
0.6
 41
30.0
 62
     5
 63
     7
421
 16777215
 74
     2
 91
        2
 64
     7
 65
   257
 75
     1
175
     1
 42
179.0
 92
        8
 66
     7
 43
1.0
 76
     1
 77
     6
 78
     2
 67
     7
 79
     3
170
     0
171
     0
290
     0
174
     0
 93
        1
 44
0.0
173
     0
291
     0
 45
0.0
  0
VISUALSTYLE
  5
35
102
{ACAD_REACTORS
330
2A
102
}
102
{ACAD_XDICTIONARY
360
D1
102
}
330
2A
100
AcDbVisualStyle
  2
Dim
 70
    11
 71
     2
 72
     2
 73
     0
 90
        0
 40
0.6
 41
30.0
 62
     5
 63
     7
421
 16777215
 74
     1
 91
        4
 64
     7
 65
   257
 75
     1
175
     1
 42
1.0
 92
        8
 66
     7
 43
1.0
 76
     1
 77
     6
 78
     2
 67
     7
 79
     5
170
     0
171
     0
290
     0
174
     0
 93
        1
 44
-50.0
173
     0
291
     1
 45
0.0
  0
VISUALSTYLE
  5
3D
102
{ACAD_REACTORS
330
2A
102
}
102
{ACAD_XDICTIONARY
360
E1
102
}
330
2A
100
AcDbVisualStyle
  2
EdgeColorOff
 70
    22
 71
     2
 72
     2
 73
     0
 90
        0
 40
0.6
 41
30.0
 62
     5
 63
     7
421
 16777215
 74
     1
 91
        4
 64
     7
 65
   257
 75
     1
175
     1
 42
1.0
 92
        8
 66
     7
 43
1.0
 76
     1
 77
     6
 78
     2
 67
     7
 79
     5
170
     0
171
     0
290
     0
174
     0
 93
        1
 44
0.0
173
     0
291
     1
 45
0.0
  0
VISUALSTYLE
  5
39
102
{ACAD_REACTORS
330
2A
102
}
102
{ACAD_XDICTIONARY
360
D9
102
}
330
2A
100
AcDbVisualStyle
  2
Facepattern
 70
    15
 71
     2
 72
     2
 73
     0
 90
        0
 40
0.6
 41
30.0
 62
     5
 63
     7
421
 16777215
 74
     1
 91
        4
 64
     7
 65
   257
 75
     1
175
     1
 42
1.0
 92
        8
 66
     7
 43
1.0
 76
     1
 77
     6
 78
     2
 67
     7
 79
     5
170
     0
171
     0
290
     0
174
     0
 93
        1
 44
0.0
173
     0
291
     1
 45
0.0
  0
VISUALSTYLE
  5
2B
102
{ACAD_REACTORS
330
2A
102
}
102
{ACAD_XDICTIONARY
360
BD
102
}
330
2A
100
AcDbVisualStyle
  2
Flat
 70
     0
 71
     2
 72
     1
 73
     1
 90
        2
 40
0.6
 41
30.0
 62
     5
 63
     7
421
 16777215
 74
     0
 91
        0
 64
     7
 65
   257
 75
     1
175
     1
 42
1.0
 92
        8
 66
     7
 43
1.0
 76
     1
 77
     6
 78
     2
 67
     7
 79
     5
170
     0
171
     0
290
     0
174
     0
 93
       13
 44
0.0
173
     0
291
     1
 45
0.0
  0
VISUALSTYLE
  5
2C
102
{ACAD_REACTORS
330
2A
102
}
102
{ACAD_XDICTIONARY
360
BF
102
}
330
2A
100
AcDbVisualStyle
  2
FlatWithEdges
 70
     1
 71
     2
 72
     1
 73
     1
 90
        2
 40
0.6
 41
30.0
 62
     5
 63
     7
421
 16777215
 74
     1
 91
        0
 64
     7
 65
   257
 75
     1
175
     1
 42
1.0
 92
        0
 66
   257
 43
1.0
 76
     1
 77
     6
 78
     2
 67
     7
 79
     5
170
     0
171
     0
290
     0
174
     0
 93
       13
 44
0.0
173
     0
291
     1
 45
0.0
  0
VISUALSTYLE
  5
2D
102
{ACAD_REACTORS
330
2A
102
}
102
{ACAD_XDICTIONARY
360
C1
102
}
330
2A
100
AcDbVisualStyle
  2
Gouraud
 70
     2
 71
     2
 72
     2
 73
     1
 90
        2
 40
0.6
 41
30.0
 62
     5
 63
     7
421
 16777215
 74
     0
 91
        0
 64
     7
 65
   257
 75
     1
175
     1
 42
1.0
 92
        0
 66
     7
 43
1.0
 76
     1
 77
     6
 78
     2
 67
     7
 79
     5
170
     0
171
     0
290
     0
174
     0
 93
       13
 44
0.0
173
     0
291
     1
 45
0.0
  0
VISUALSTYLE
  5
2E
102
{ACAD_REACTORS
330
2A
102
}
102
{ACAD_XDICTIONARY
360
C3
102
}
330
2A
100
AcDbVisualStyle
  2
GouraudWithEdges
 70
     3
 71
     2
 72
     2
 73
     1
 90
        2
 40
0.6
 41
30.0
 62
     5
 63
     7
421
 16777215
 74
     1
 91
        0
 64
     7
 65
   257
 75
     1
175
     1
 42
1.0
 92
        0
 66
   257
 43
1.0
 76
     1
 77
     6
 78
     2
 67
     7
 79
     5
170
     0
171
     0
290
     0
174
     0
 93
       13
 44
0.0
173
     0
291
     1
 45
0.0
  0
VISUALSTYLE
  5
31
102
{ACAD_REACTORS
330
2A
102
}
102
{ACAD_XDICTIONARY
360
C9
102
}
330
2A
100
AcDbVisualStyle
  2
Hidden
 70
     6
 71
     1
 72
     2
 73
     2
 90
        0
 40
0.6
 41
30.0
 62
     5
 63
     7
421
 16777215
 74
     2
 91
        2
 64
     7
 65
   257
 75
     2
175
     1
 42
40.0
 92
        0
 66
   257
 43
1.0
 76
     1
 77
     6
 78
     2
 67
     7
 79
     3
170
     0
171
     0
290
     0
174
     0
 93
        1
 44
0.0
173
     0
291
     0
 45
0.0
  0
VISUALSTYLE
  5
3B
102
{ACAD_REACTORS
330
2A
102
}
102
{ACAD_XDICTIONARY
360
DD
102
}
330
2A
100
AcDbVisualStyle
  2
JitterOff
 70
    20
 71
     2
 72
     2
 73
     0
 90
        0
 40
0.6
 41
30.0
 62
     5
 63
     7
421
 16777215
 74
     1
 91
        4
 64
     7
 65
   257
 75
     1
175
     1
 42
1.0
 92
       10
 66
     7
 43
1.0
 76
     1
 77
     6
 78
     2
 67
     7
 79
     5
170
     0
171
     0
290
     0
174
     0
 93
        1
 44
0.0
173
     0
291
     1
 45
0.0
  0
VISUALSTYLE
  5
38
102
{ACAD_REACTORS
330
2A
102
}
102
{ACAD_XDICTIONARY
360
D7
102
}
330
2A
100
AcDbVisualStyle
  2
Linepattern
 70
    14
 71
     2
 72
     2
 73
     0
 90
        0
 40
0.6
 41
30.0
 62
     5
 63
     7
421
 16777215
 74
     1
 91
        4
 64
     7
 65
   257
 75
     7
175
     7
 42
1.0
 92
        8
 66
     7
 43
1.0
 76
     1
 77
     6
 78
     2
 67
     7
 79
     5
170
     0
171
     0
290
     0
174
     0
 93
        1
 44
0.0
173
     0
291
     1
 45
0.0
  0
VISUALSTYLE
  5
3C
102
{ACAD_REACTORS
330
2A
102
}
102
{ACAD_XDICTIONARY
360
DF
102
}
330
2A
100
AcDbVisualStyle
  2
OverhangOff
 70
    21
 71
     2
 72
     2
 73
     0
 90
        0
 40
0.6
 41
30.0
 62
     5
 63
     7
421
 16777215
 74
     1
 91
        4
 64
     7
 65
   257
 75
     1
175
     1
 42
1.0
 92
        9
 66
     7
 43
1.0
 76
     1
 77
     6
 78
     2
 67
     7
 79
     5
170
     0
171
     0
290
     0
174
     0
 93
        1
 44
0.0
173
     0
291
     1
 45
0.0
  0
VISUALSTYLE
  5
33
102
{ACAD_REACTORS
330
2A
102
}
102
{ACAD_XDICTIONARY
360
CD
102
}
330
2A
100
AcDbVisualStyle
  2
Realistic
 70
     8
 71
     2
 72
     3
 73
     0
 90
        2
 40
0.6
 41
30.0
 62
     5
 63
     7
421
 16777215
 74
     0
 91
        0
 64
     7
 65
   257
 75
     1
175
     1
 42
1.0
 92
        8
 66
   257
 43
1.0
 76
     1
 77
     6
 78
     2
 67
     7
 79
     3
170
     0
171
     0
290
     0
174
     0
 93
       13
 44
0.0
173
     0
291
     0
 45
0.0
  0
VISUALSTYLE
  5
42
102
{ACAD_REACTORS
330
2A
102
}
102
{ACAD_XDICTIONARY
360
EB
102
}
330
2A
100
AcDbVisualStyle
  2
Shaded
 70
    27
 71
     2
 72
     2
 73
     1
 90
        2
 40
0.6
 41
30.0
 62
     5
 63
     7
421
 16777215
 74
     0
 91
        4
 64
     7
 65
   257
 75
     1
175
     1
 42
1.0
 92
        8
 66
   257
 43
1.0
 76
     1
 77
     6
 78
     2
 67
     8
425
  7895160
 79
     3
170
     0
171
     0
290
     0
174
     0
 93
        5
 44
0.0
173
     0
291
     0
 45
0.0
  0
VISUALSTYLE
  5
41
102
{ACAD_REACTORS
330
2A
102
}
102
{ACAD_XDICTIONARY
360
E9
102
}
330
2A
100
AcDbVisualStyle
  2
Shaded with edges
 70
    26
 71
     2
 72
     2
 73
     1
 90
        2
 40
0.6
 41
30.0
 62
     5
 63
     7
421
 16777215
 74
     1
 91
       10
 64
     7
 65
   257
 75
     2
175
     1
 42
1.0
 92
        8
 66
   257
 43
1.0
 76
     1
 77
     6
 78
     2
 67
     7
 79
     3
170
     0
171
     0
290
     0
174
     0
 93
        5
 44
0.0
173
     0
291
     0
 45
0.0
  0
VISUALSTYLE
  5
3E
102
{ACAD_REACTORS
330
2A
102
}
102
{ACAD_XDICTIONARY
360
E3
102
}
330
2A
100
AcDbVisualStyle
  2
Shades of Gray
 70
    23
 71
     2
 72
     2
 73
     3
 90
        0
 40
0.6
 41
30.0
 62
     5
 63
     7
421
 16777215
 74
     2
 91
        2
 64
     7
 65
     7
 75
     1
175
     1
 42
40.0
 92
        8
 66
     7
 43
1.0
 76
     1
 77
     6
 78
     2
 67
     7
 79
     3
170
     0
171
     0
290
     0
174
     0
 93
        1
 44
0.0
173
     0
291
     0
 45
0.0
  0
VISUALSTYLE
  5
3F
102
{ACAD_REACTORS
330
2A
102
}
102
{ACAD_XDICTIONARY
360
E5
102
}
330
2A
100
AcDbVisualStyle
  2
Sketchy
 70
    24
 71
     1
 72
     2
 73
     2
 90
        0
 40
0.6
 41
30.0
 62
     5
 63
     7
421
 16777215
 74
     2
 91
        2
 64
     7
 65
     7
 75
     1
175
     1
 42
40.0
 92
       11
 66
     7
 43
1.0
 76
     1
 77
     6
 78
     2
 67
     7
 79
     6
170
     0
171
     0
290
     0
174
     0
 93
        1
 44
0.0
173
     0
291
     0
 45
0.0
  0
VISUALSTYLE
  5
37
102
{ACAD_REACTORS
330
2A
102
}
102
{ACAD_XDICTIONARY
360
D5
102
}
330
2A
100
AcDbVisualStyle
  2
Thicken
 70
    13
 71
     2
 72
     2
 73
     0
 90
        0
 40
0.6
 41
30.0
 62
     5
 63
     7
421
 16777215
 74
     1
 91
        4
 64
     7
 65
   257
 75
     1
175
     1
 42
1.0
 92
       12
 66
     7
 43
1.0
 76
     1
 77
     6
 78
     2
 67
     7
 79
     5
170
     0
171
     0
290
     0
174
     0
 93
        1
 44
0.0
173
     0
291
     1
 45
0.0
  0
VISUALSTYLE
  5
30
102
{ACAD_REACTORS
330
2A
102
}
102
{ACAD_XDICTIONARY
360
C7
102
}
330
2A
100
AcDbVisualStyle
  2
Wireframe
 70
     5
 71
     0
 72
     2
 73
     0
 90
        0
 40
0.6
 41
30.0
 62
     5
 63
     7
421
 16777215
 74
     1
 91
        4
 64
     7
 65
   257
 75
     1
175
     1
 42
1.0
 92
        0
 66
   257
 43
1.0
 76
     1
 77
     6
 78
     2
 67
     7
 79
     3
170
     0
171
     0
290
     0
174
     0
 93
        1
 44
0.0
173
     0
291
     0
 45
0.0
  0
VISUALSTYLE
  5
40
102
{ACAD_REACTORS
330
2A
102
}
102
{ACAD_XDICTIONARY
360
E7
102
}
330
2A
100
AcDbVisualStyle
  2
X-Ray
 70
    25
 71
     2
 72
     2
 73
     1
 90
        1
 40
0.5
 41
30.0
 62
     5
 63
     7
421
 16777215
 74
     1
 91
        0
 64
     7
 65
   257
 75
     1
175
     1
 42
1.0
 92
        8
 66
     7
 43
1.0
 76
     1
 77
     6
 78
     2
 67
     7
 79
     3
170
     0
171
     0
290
     0
174
     0
 93
       13
 44
0.0
173
     0
291
     0
 45
0.0
  0
DICTIONARYVAR
  5
BB
102
{ACAD_REACTORS
330
BA
102
}
330
BA
100
DictionaryVariables
280
     0
  1
1:1
  0
DICTIONARYVAR
  5
F4
102
{ACAD_REACTORS
330
BA
102
}
330
BA
100
DictionaryVariables
280
     0
  1
Standard
  0
DICTIONARYVAR
  5
F3
102
{ACAD_REACTORS
330
BA
102
}
330
BA
100
DictionaryVariables
280
     0
  1
Standard
  0
DICTIONARYVAR
  5
BC
102
{ACAD_REACTORS
330
BA
102
}
330
BA
100
DictionaryVariables
280
     0
  1
2
  0
DICTIONARY
  5
F0
330
6C
100
AcDbDictionary
280
     1
281
     1
  3
ACAD_XREC_ROUNDTRIP
360
F1
  0
DICTIONARY
  5
ED
330
6A
100
AcDbDictionary
280
     1
281
     1
  3
ACAD_ROUNDTRIP_2008_TABLESTYLE_CELLSTYLEMAP
360
EE
  0
DICTIONARY
  5
C5
330
2F
100
AcDbDictionary
280
     1
281
     1
  3
ACAD_XREC_ROUNDTRIP
360
C6
  0
DICTIONARY
  5
CB
330
32
100
AcDbDictionary
280
     1
281
     1
  3
ACAD_XREC_ROUNDTRIP
360
CC
  0
DICTIONARY
  5
D3
330
36
100
AcDbDictionary
280
     1
281
     1
  3
ACAD_XREC_ROUNDTRIP
360
D4
  0
DICTIONARY
  5
DB
330
3A
100
AcDbDictionary
280
     1
281
     1
  3
ACAD_XREC_ROUNDTRIP
360
DC
  0
DICTIONARY
  5
CF
330
34
100
AcDbDictionary
280
     1
281
     1
  3
ACAD_XREC_ROUNDTRIP
360
D0
  0
DICTIONARY
  5
D1
330
35
100
AcDbDictionary
280
     1
281
     1
  3
ACAD_XREC_ROUNDTRIP
360
D2
  0
DICTIONARY
  5
E1
330
3D
100
AcDbDictionary
280
     1
281
     1
  3
ACAD_XREC_ROUNDTRIP
360
E2
  0
DICTIONARY
  5
D9
330
39
100
AcDbDictionary
280
     1
281
     1
  3
ACAD_XREC_ROUNDTRIP
360
DA
  0
DICTIONARY
  5
BD
330
2B
100
AcDbDictionary
280
     1
281
     1
  3
ACAD_XREC_ROUNDTRIP
360
BE
  0
DICTIONARY
  5
BF
330
2C
100
AcDbDictionary
280
     1
281
     1
  3
ACAD_XREC_ROUNDTRIP
360
C0
  0
DICTIONARY
  5
C1
330
2D
100
AcDbDictionary
280
     1
281
     1
  3
ACAD_XREC_ROUNDTRIP
360
C2
  0
DICTIONARY
  5
C3
330
2E
100
AcDbDictionary
280
     1
281
     1
  3
ACAD_XREC_ROUNDTRIP
360
C4
  0
DICTIONARY
  5
C9
330
31
100
AcDbDictionary
280
     1
281
     1
  3
ACAD_XREC_ROUNDTRIP
360
CA
  0
DICTIONARY
  5
DD
330
3B
100
AcDbDictionary
280
     1
281
     1
  3
ACAD_XREC_ROUNDTRIP
360
DE
  0
DICTIONARY
  5
D7
330
38
100
AcDbDictionary
280
     1
281
     1
  3
ACAD_XREC_ROUNDTRIP
360
D8
  0
DICTIONARY
  5
DF
330
3C
100
AcDbDictionary
280
     1
281
     1
  3
ACAD_XREC_ROUNDTRIP
360
E0
  0
DICTIONARY
  5
CD
330
33
100
AcDbDictionary
280
     1
281
     1
  3
ACAD_XREC_ROUNDTRIP
360
CE
  0
DICTIONARY
  5
EB
330
42
100
AcDbDictionary
280
     1
281
     1
  3
ACAD_XREC_ROUNDTRIP
360
EC
  0
DICTIONARY
  5
E9
330
41
100
AcDbDictionary
280
     1
281
     1
  3
ACAD_XREC_ROUNDTRIP
360
EA
  0
DICTIONARY
  5
E3
330
3E
100
AcDbDictionary
280
     1
281
     1
  3
ACAD_XREC_ROUNDTRIP
360
E4
  0
DICTIONARY
  5
E5
330
3F
100
AcDbDictionary
280
     1
281
     1
  3
ACAD_XREC_ROUNDTRIP
360
E6
  0
DICTIONARY
  5
D5
330
37
100
AcDbDictionary
280
     1
281
     1
  3
ACAD_XREC_ROUNDTRIP
360
D6
  0
DICTIONARY
  5
C7
330
30
100
AcDbDictionary
280
     1
281
     1
  3
ACAD_XREC_ROUNDTRIP
360
C8
  0
DICTIONARY
  5
E7
330
40
100
AcDbDictionary
280
     1
281
     1
  3
ACAD_XREC_ROUNDTRIP
360
E8
  0
XRECORD
  5
F1
102
{ACAD_REACTORS
330
F0
102
}
330
F0
100
AcDbXrecord
280
     1
102
ACAD_ROUNDTRIP_2010_MLEADER_STYLE
  0
CELLSTYLEMAP
  5
EE
102
{ACAD_REACTORS
330
ED
102
}
330
ED
100
AcDbCellStyleMap
 90
        3
300
CELLSTYLE
  1
TABLEFORMAT_BEGIN
 90
        5
170
     1
 91
        0
 92
    32768
 62
   257
 93
        1
300
CONTENTFORMAT
  1
CONTENTFORMAT_BEGIN
 90
        0
 91
        0
 92
        4
 93
        0
300

 40
0.0
140
1.0
 94
        5
 62
     0
340
11
144
0.25
309
CONTENTFORMAT_END
171
     1
301
MARGIN
  1
CELLMARGIN_BEGIN
 40
0.06
 40
0.06
 40
0.06
 40
0.06
 40
0.06
 40
0.06
309
CELLMARGIN_END
 94
        6
 95
        1
302
GRIDFORMAT
  1
GRIDFORMAT_BEGIN
 90
        0
 91
        1
 62
     0
 92
       -2
340
14
 93
        0
 40
0.045
309
GRIDFORMAT_END
 95
        2
302
GRIDFORMAT
  1
GRIDFORMAT_BEGIN
 90
        0
 91
        1
 62
     0
 92
       -2
340
14
 93
        0
 40
0.045
309
GRIDFORMAT_END
 95
        4
302
GRIDFORMAT
  1
GRIDFORMAT_BEGIN
 90
        0
 91
        1
 62
     0
 92
       -2
340
14
 93
        0
 40
0.045
309
GRIDFORMAT_END
 95
        8
302
GRIDFORMAT
  1
GRIDFORMAT_BEGIN
 90
        0
 91
        1
 62
     0
 92
       -2
340
14
 93
        0
 40
0.045
309
GRIDFORMAT_END
 95
       16
302
GRIDFORMAT
  1
GRIDFORMAT_BEGIN
 90
        0
 91
        1
 62
     0
 92
       -2
340
14
 93
        0
 40
0.045
309
GRIDFORMAT_END
 95
       32
302
GRIDFORMAT
  1
GRIDFORMAT_BEGIN
 90
        0
 91
        1
 62
     0
 92
       -2
340
14
 93
        0
 40
0.045
309
GRIDFORMAT_END
309
TABLEFORMAT_END
  1
CELLSTYLE_BEGIN
 90
        1
 91
        1
300
_TITLE
309
CELLSTYLE_END
300
CELLSTYLE
  1
TABLEFORMAT_BEGIN
 90
        5
170
     1
 91
        0
 92
        0
 62
   257
 93
        1
300
CONTENTFORMAT
  1
CONTENTFORMAT_BEGIN
 90
        0
 91
        0
 92
        4
 93
        0
300

 40
0.0
140
1.0
 94
        5
 62
     0
340
11
144
0.18
309
CONTENTFORMAT_END
171
     1
301
MARGIN
  1
CELLMARGIN_BEGIN
 40
0.06
 40
0.06
 40
0.06
 40
0.06
 40
0.06
 40
0.06
309
CELLMARGIN_END
 94
        6
 95
        1
302
GRIDFORMAT
  1
GRIDFORMAT_BEGIN
 90
        0
 91
        1
 62
     0
 92
       -2
340
14
 93
        0
 40
0.045
309
GRIDFORMAT_END
 95
        2
302
GRIDFORMAT
  1
GRIDFORMAT_BEGIN
 90
        0
 91
        1
 62
     0
 92
       -2
340
14
 93
        0
 40
0.045
309
GRIDFORMAT_END
 95
        4
302
GRIDFORMAT
  1
GRIDFORMAT_BEGIN
 90
        0
 91
        1
 62
     0
 92
       -2
340
14
 93
        0
 40
0.045
309
GRIDFORMAT_END
 95
        8
302
GRIDFORMAT
  1
GRIDFORMAT_BEGIN
 90
        0
 91
        1
 62
     0
 92
       -2
340
14
 93
        0
 40
0.045
309
GRIDFORMAT_END
 95
       16
302
GRIDFORMAT
  1
GRIDFORMAT_BEGIN
 90
        0
 91
        1
 62
     0
 92
       -2
340
14
 93
        0
 40
0.045
309
GRIDFORMAT_END
 95
       32
302
GRIDFORMAT
  1
GRIDFORMAT_BEGIN
 90
        0
 91
        1
 62
     0
 92
       -2
340
14
 93
        0
 40
0.045
309
GRIDFORMAT_END
309
TABLEFORMAT_END
  1
CELLSTYLE_BEGIN
 90
        2
 91
        1
300
_HEADER
309
CELLSTYLE_END
300
CELLSTYLE
  1
TABLEFORMAT_BEGIN
 90
        5
170
     1
 91
        0
 92
        0
 62
   257
 93
        1
300
CONTENTFORMAT
  1
CONTENTFORMAT_BEGIN
 90
        0
 91
        0
 92
        4
 93
        0
300

 40
0.0
140
1.0
 94
        2
 62
     0
340
11
144
0.18
309
CONTENTFORMAT_END
171
     1
301
MARGIN
  1
CELLMARGIN_BEGIN
 40
0.06
 40
0.06
 40
0.06
 40
0.06
 40
0.06
 40
0.06
309
CELLMARGIN_END
 94
        6
 95
        1
302
GRIDFORMAT
  1
GRIDFORMAT_BEGIN
 90
        0
 91
        1
 62
     0
 92
       -2
340
14
 93
        0
 40
0.045
309
GRIDFORMAT_END
 95
        2
302
GRIDFORMAT
  1
GRIDFORMAT_BEGIN
 90
        0
 91
        1
 62
     0
 92
       -2
340
14
 93
        0
 40
0.045
309
GRIDFORMAT_END
 95
        4
302
GRIDFORMAT
  1
GRIDFORMAT_BEGIN
 90
        0
 91
        1
 62
     0
 92
       -2
340
14
 93
        0
 40
0.045
309
GRIDFORMAT_END
 95
        8
302
GRIDFORMAT
  1
GRIDFORMAT_BEGIN
 90
        0
 91
        1
 62
     0
 92
       -2
340
14
 93
        0
 40
0.045
309
GRIDFORMAT_END
 95
       16
302
GRIDFORMAT
  1
GRIDFORMAT_BEGIN
 90
        0
 91
        1
 62
     0
 92
       -2
340
14
 93
        0
 40
0.045
309
GRIDFORMAT_END
 95
       32
302
GRIDFORMAT
  1
GRIDFORMAT_BEGIN
 90
        0
 91
        1
 62
     0
 92
       -2
340
14
 93
        0
 40
0.045
309
GRIDFORMAT_END
309
TABLEFORMAT_END
  1
CELLSTYLE_BEGIN
 90
        3
 91
        2
300
_DATA
309
CELLSTYLE_END
  0
XRECORD
  5
C6
102
{ACAD_REACTORS
330
C5
102
}
330
C5
100
AcDbXrecord
280
     1
102
RTVSPropertyOp0
 70
     1
102
RTVSPropertyOp1
 70
     1
102
RTVSPropertyOp2
 70
     1
102
RTVSPropertyOp3
 70
     1
102
RTVSPropertyOp4
 70
     1
102
RTVSPropertyOp5
 70
     1
102
RTVSPropertyOp6
 70
     1
102
RTVSPropertyOp7
 70
     1
102
RTVSPropertyOp8
 70
     1
102
RTVSPropertyOp9
 70
     1
102
RTVSPropertyOp10
 70
     1
102
RTVSPropertyOp11
 70
     1
102
RTVSPropertyOp12
 70
     1
102
RTVSPropertyOp13
 70
     1
102
RTVSPropertyOp14
 70
     1
102
RTVSPropertyOp15
 70
     1
102
RTVSPropertyOp16
 70
     1
102
RTVSPropertyOp17
 70
     1
102
RTVSPropertyOp18
 70
     1
102
RTVSPropertyOp19
 70
     1
102
RTVSPropertyOp20
 70
     1
102
RTVSPropertyOp21
 70
     1
102
RTVSPropertyOp22
 70
     1
102
RTVSPropertyOp23
 70
     1
102
RTVSPropertyOp24
 70
     1
102
RTVSPropertyOp25
 70
     1
102
RTVSPropertyOp26
 70
     1
102
RTVSPropertyOp27
 70
     1
102
RTVSPropertyOp28
 70
     1
102
RTVSPropertyOp29
 70
     1
102
RTVSPropertyOp30
 70
     1
102
RTVSPropertyOp31
 70
     1
102
RTVSPropertyOp32
 70
     1
102
RTVSPropertyOp33
 70
     1
102
RTVSPropertyOp34
 70
     1
102
RTVSPropertyOp35
 70
     1
102
RTVSPropertyOp36
 70
     1
102
RTVSPropertyOp37
 70
     1
102
RTVSPropertyOp38
 70
     1
102
RTVSPropertyOp39
 70
     1
102
RTVSPropertyOp40
 70
     1
102
RTVSPropertyOp41
 70
     1
102
RTVSPropertyOp42
 70
     1
102
RTVSPropertyOp43
 70
     1
102
RTVSPropertyOp44
 70
     1
102
RTVSPropertyOp45
 70
     1
102
RTVSPropertyOp46
 70
     1
102
RTVSPropertyOp47
 70
     1
102
RTVSPropertyOp48
 70
     1
102
RTVSPropertyOp49
 70
     1
102
RTVSPropertyOp50
 70
     1
102
RTVSPropertyOp51
 70
     0
102
RTVSPropertyOp52
 70
     0
102
RTVSPropertyOp53
 70
     1
102
RTVSPropertyOp54
 70
     1
102
RTVSPropertyOp55
 70
     1
102
RTVSPropertyOp56
 70
     1
102
RTVSPropertyOp57
 70
     1
102
RTVSPost2010Prop28
280
     1
102
RTVSPost2010PropOp28
 70
     1
102
RTVSPost2010Prop29
280
     1
102
RTVSPost2010PropOp29
 70
     1
102
RTVSPost2010Prop30
280
     0
102
RTVSPost2010PropOp30
 70
     1
102
RTVSPost2010Prop31
280
     0
102
RTVSPost2010PropOp31
 70
     1
102
RTVSPost2010Prop32
280
     0
102
RTVSPost2010PropOp32
 70
     1
102
RTVSPost2010Prop33
280
     0
102
RTVSPost2010PropOp33
 70
     1
102
RTVSPost2010Prop34
280
     0
102
RTVSPost2010PropOp34
 70
     1
102
RTVSPost2010Prop35
280
     0
102
RTVSPost2010PropOp35
 70
     1
102
RTVSPost2010Prop36
280
     0
102
RTVSPost2010PropOp36
 70
     1
102
RTVSPost2010Prop37
 90
       50
102
RTVSPost2010PropOp37
 70
     1
102
RTVSPost2010Prop38
140
0.0
102
RTVSPost2010PropOp38
 70
     1
102
RTVSPost2010Prop39
140
1.0
102
RTVSPost2010PropOp39
 70
     1
102
RTVSPost2010Prop40
 90
        0
102
RTVSPost2010PropOp40
 70
     1
102
RTVSPost2010Prop41ColorIndex
 90
       18
102
RTVSPost2010Prop41ColorRGB
 90
        0
102
RTVSPost2010PropOp41
 70
     1
102
RTVSPost2010Prop42
 90
       50
102
RTVSPost2010PropOp42
 70
     1
102
RTVSPost2010Prop43
 90
        3
102
RTVSPost2010PropOp43
 70
     1
102
RTVSPost2010Prop44ColorIndex
 90
        5
102
RTVSPost2010Prop44ColorRGB
 90
      255
102
RTVSPost2010PropOp44
 70
     1
102
RTVSPost2010Prop45
280
     0
102
RTVSPost2010PropOp45
 70
     1
102
RTVSPost2010Prop46
 90
       50
102
RTVSPost2010PropOp46
 70
     1
102
RTVSPost2010Prop47
 90
       50
102
RTVSPost2010PropOp47
 70
     1
102
RTVSPost2010Prop48
 90
       50
102
RTVSPost2010PropOp48
 70
     1
102
RTVSPost2010Prop49
280
     0
102
RTVSPost2010PropOp49
 70
     1
102
RTVSPost2010Prop50
 90
       50
102
RTVSPost2010PropOp50
 70
     1
102
RTVSPost2010Prop51ColorIndex
 90
      256
102
RTVSPost2010Prop51ColorRGB
 90
-16777216
102
RTVSPost2010PropOp51
 70
     0
102
RTVSPost2010Prop52
140
1.0
102
RTVSPost2010PropOp52
 70
     0
102
RTVSPost2010Prop53
 90
        2
102
RTVSPost2010PropOp53
 70
     1
102
RTVSPost2010Prop54
  1
strokes_ogs.tif
102
RTVSPost2010PropOp54
 70
     1
102
RTVSPost2010Prop55
280
     0
102
RTVSPost2010PropOp55
 70
     1
102
RTVSPost2010Prop56
140
1.0
102
RTVSPost2010PropOp56
 70
     1
102
RTVSPost2010Prop57
140
1.0
102
RTVSPost2010PropOp57
 70
     1
  0
XRECORD
  5
CC
102
{ACAD_REACTORS
330
CB
102
}
330
CB
100
AcDbXrecord
280
     1
102
RTVSPropertyOp0
 70
     1
102
RTVSPropertyOp1
 70
     1
102
RTVSPropertyOp2
 70
     1
102
RTVSPropertyOp3
 70
     1
102
RTVSPropertyOp4
 70
     1
102
RTVSPropertyOp5
 70
     1
102
RTVSPropertyOp6
 70
     1
102
RTVSPropertyOp7
 70
     1
102
RTVSPropertyOp8
 70
     1
102
RTVSPropertyOp9
 70
     1
102
RTVSPropertyOp10
 70
     1
102
RTVSPropertyOp11
 70
     1
102
RTVSPropertyOp12
 70
     1
102
RTVSPropertyOp13
 70
     1
102
RTVSPropertyOp14
 70
     1
102
RTVSPropertyOp15
 70
     1
102
RTVSPropertyOp16
 70
     1
102
RTVSPropertyOp17
 70
     1
102
RTVSPropertyOp18
 70
     1
102
RTVSPropertyOp19
 70
     1
102
RTVSPropertyOp20
 70
     1
102
RTVSPropertyOp21
 70
     1
102
RTVSPropertyOp22
 70
     1
102
RTVSPropertyOp23
 70
     1
102
RTVSPropertyOp24
 70
     1
102
RTVSPropertyOp25
 70
     1
102
RTVSPropertyOp26
 70
     1
102
RTVSPropertyOp27
 70
     1
102
RTVSPropertyOp28
 70
     1
102
RTVSPropertyOp29
 70
     1
102
RTVSPropertyOp30
 70
     1
102
RTVSPropertyOp31
 70
     1
102
RTVSPropertyOp32
 70
     1
102
RTVSPropertyOp33
 70
     1
102
RTVSPropertyOp34
 70
     1
102
RTVSPropertyOp35
 70
     1
102
RTVSPropertyOp36
 70
     1
102
RTVSPropertyOp37
 70
     1
102
RTVSPropertyOp38
 70
     1
102
RTVSPropertyOp39
 70
     1
102
RTVSPropertyOp40
 70
     1
102
RTVSPropertyOp41
 70
     1
102
RTVSPropertyOp42
 70
     1
102
RTVSPropertyOp43
 70
     1
102
RTVSPropertyOp44
 70
     1
102
RTVSPropertyOp45
 70
     1
102
RTVSPropertyOp46
 70
     1
102
RTVSPropertyOp47
 70
     1
102
RTVSPropertyOp48
 70
     1
102
RTVSPropertyOp49
 70
     1
102
RTVSPropertyOp50
 70
     1
102
RTVSPropertyOp51
 70
     0
102
RTVSPropertyOp52
 70
     0
102
RTVSPropertyOp53
 70
     1
102
RTVSPropertyOp54
 70
     1
102
RTVSPropertyOp55
 70
     1
102
RTVSPropertyOp56
 70
     1
102
RTVSPropertyOp57
 70
     1
102
RTVSPost2010Prop28
280
     0
102
RTVSPost2010PropOp28
 70
     1
102
RTVSPost2010Prop29
280
     1
102
RTVSPost2010PropOp29
 70
     1
102
RTVSPost2010Prop30
280
     1
102
RTVSPost2010PropOp30
 70
     1
102
RTVSPost2010Prop31
280
     0
102
RTVSPost2010PropOp31
 70
     1
102
RTVSPost2010Prop32
280
     0
102
RTVSPost2010PropOp32
 70
     1
102
RTVSPost2010Prop33
280
     0
102
RTVSPost2010PropOp33
 70
     1
102
RTVSPost2010Prop34
280
     0
102
RTVSPost2010PropOp34
 70
     1
102
RTVSPost2010Prop35
280
     0
102
RTVSPost2010PropOp35
 70
     1
102
RTVSPost2010Prop36
280
     0
102
RTVSPost2010PropOp36
 70
     1
102
RTVSPost2010Prop37
 90
       50
102
RTVSPost2010PropOp37
 70
     1
102
RTVSPost2010Prop38
140
0.0
102
RTVSPost2010PropOp38
 70
     1
102
RTVSPost2010Prop39
140
1.0
102
RTVSPost2010PropOp39
 70
     1
102
RTVSPost2010Prop40
 90
        0
102
RTVSPost2010PropOp40
 70
     1
102
RTVSPost2010Prop41ColorIndex
 90
       18
102
RTVSPost2010Prop41ColorRGB
 90
        0
102
RTVSPost2010PropOp41
 70
     1
102
RTVSPost2010Prop42
 90
       50
102
RTVSPost2010PropOp42
 70
     1
102
RTVSPost2010Prop43
 90
        3
102
RTVSPost2010PropOp43
 70
     1
102
RTVSPost2010Prop44ColorIndex
 90
        5
102
RTVSPost2010Prop44ColorRGB
 90
      255
102
RTVSPost2010PropOp44
 70
     1
102
RTVSPost2010Prop45
280
     0
102
RTVSPost2010PropOp45
 70
     1
102
RTVSPost2010Prop46
 90
       50
102
RTVSPost2010PropOp46
 70
     1
102
RTVSPost2010Prop47
 90
       50
102
RTVSPost2010PropOp47
 70
     1
102
RTVSPost2010Prop48
 90
       50
102
RTVSPost2010PropOp48
 70
     1
102
RTVSPost2010Prop49
280
     0
102
RTVSPost2010PropOp49
 70
     1
102
RTVSPost2010Prop50
 90
       50
102
RTVSPost2010PropOp50
 70
     1
102
RTVSPost2010Prop51ColorIndex
 90
      256
102
RTVSPost2010Prop51ColorRGB
 90
-16777216
102
RTVSPost2010PropOp51
 70
     0
102
RTVSPost2010Prop52
140
1.0
102
RTVSPost2010PropOp52
 70
     0
102
RTVSPost2010Prop53
 90
        2
102
RTVSPost2010PropOp53
 70
     1
102
RTVSPost2010Prop54
  1
strokes_ogs.tif
102
RTVSPost2010PropOp54
 70
     1
102
RTVSPost2010Prop55
280
     0
102
RTVSPost2010PropOp55
 70
     1
102
RTVSPost2010Prop56
140
1.0
102
RTVSPost2010PropOp56
 70
     1
102
RTVSPost2010Prop57
140
1.0
102
RTVSPost2010PropOp57
 70
     1
  0
XRECORD
  5
D4
102
{ACAD_REACTORS
330
D3
102
}
330
D3
100
AcDbXrecord
280
     1
102
RTVSPropertyOp0
 70
     1
102
RTVSPropertyOp1
 70
     1
102
RTVSPropertyOp2
 70
     1
102
RTVSPropertyOp3
 70
     1
102
RTVSPropertyOp4
 70
     1
102
RTVSPropertyOp5
 70
     1
102
RTVSPropertyOp6
 70
     1
102
RTVSPropertyOp7
 70
     1
102
RTVSPropertyOp8
 70
     1
102
RTVSPropertyOp9
 70
     1
102
RTVSPropertyOp10
 70
     1
102
RTVSPropertyOp11
 70
     1
102
RTVSPropertyOp12
 70
     1
102
RTVSPropertyOp13
 70
     1
102
RTVSPropertyOp14
 70
     1
102
RTVSPropertyOp15
 70
     1
102
RTVSPropertyOp16
 70
     1
102
RTVSPropertyOp17
 70
     1
102
RTVSPropertyOp18
 70
     1
102
RTVSPropertyOp19
 70
     1
102
RTVSPropertyOp20
 70
     1
102
RTVSPropertyOp21
 70
     1
102
RTVSPropertyOp22
 70
     1
102
RTVSPropertyOp23
 70
     1
102
RTVSPropertyOp24
 70
     1
102
RTVSPropertyOp25
 70
     1
102
RTVSPropertyOp26
 70
     1
102
RTVSPropertyOp27
 70
     1
102
RTVSPropertyOp28
 70
     1
102
RTVSPropertyOp29
 70
     1
102
RTVSPropertyOp30
 70
     1
102
RTVSPropertyOp31
 70
     1
102
RTVSPropertyOp32
 70
     1
102
RTVSPropertyOp33
 70
     1
102
RTVSPropertyOp34
 70
     1
102
RTVSPropertyOp35
 70
     1
102
RTVSPropertyOp36
 70
     1
102
RTVSPropertyOp37
 70
     1
102
RTVSPropertyOp38
 70
     1
102
RTVSPropertyOp39
 70
     1
102
RTVSPropertyOp40
 70
     1
102
RTVSPropertyOp41
 70
     1
102
RTVSPropertyOp42
 70
     1
102
RTVSPropertyOp43
 70
     1
102
RTVSPropertyOp44
 70
     1
102
RTVSPropertyOp45
 70
     1
102
RTVSPropertyOp46
 70
     1
102
RTVSPropertyOp47
 70
     1
102
RTVSPropertyOp48
 70
     1
102
RTVSPropertyOp49
 70
     1
102
RTVSPropertyOp50
 70
     1
102
RTVSPropertyOp51
 70
     0
102
RTVSPropertyOp52
 70
     0
102
RTVSPropertyOp53
 70
     1
102
RTVSPropertyOp54
 70
     1
102
RTVSPropertyOp55
 70
     1
102
RTVSPropertyOp56
 70
     1
102
RTVSPropertyOp57
 70
     1
102
RTVSPost2010Prop28
280
     0
102
RTVSPost2010PropOp28
 70
     1
102
RTVSPost2010Prop29
280
     1
102
RTVSPost2010PropOp29
 70
     1
102
RTVSPost2010Prop30
280
     1
102
RTVSPost2010PropOp30
 70
     1
102
RTVSPost2010Prop31
280
     0
102
RTVSPost2010PropOp31
 70
     1
102
RTVSPost2010Prop32
280
     0
102
RTVSPost2010PropOp32
 70
     1
102
RTVSPost2010Prop33
280
     0
102
RTVSPost2010PropOp33
 70
     1
102
RTVSPost2010Prop34
280
     0
102
RTVSPost2010PropOp34
 70
     1
102
RTVSPost2010Prop35
280
     0
102
RTVSPost2010PropOp35
 70
     1
102
RTVSPost2010Prop36
280
     0
102
RTVSPost2010PropOp36
 70
     1
102
RTVSPost2010Prop37
 90
       50
102
RTVSPost2010PropOp37
 70
     1
102
RTVSPost2010Prop38
140
0.0
102
RTVSPost2010PropOp38
 70
     1
102
RTVSPost2010Prop39
140
1.0
102
RTVSPost2010PropOp39
 70
     1
102
RTVSPost2010Prop40
 90
        0
102
RTVSPost2010PropOp40
 70
     1
102
RTVSPost2010Prop41ColorIndex
 90
       18
102
RTVSPost2010Prop41ColorRGB
 90
        0
102
RTVSPost2010PropOp41
 70
     1
102
RTVSPost2010Prop42
 90
       50
102
RTVSPost2010PropOp42
 70
     1
102
RTVSPost2010Prop43
 90
        3
102
RTVSPost2010PropOp43
 70
     1
102
RTVSPost2010Prop44ColorIndex
 90
        5
102
RTVSPost2010Prop44ColorRGB
 90
      255
102
RTVSPost2010PropOp44
 70
     1
102
RTVSPost2010Prop45
280
     0
102
RTVSPost2010PropOp45
 70
     1
102
RTVSPost2010Prop46
 90
       50
102
RTVSPost2010PropOp46
 70
     1
102
RTVSPost2010Prop47
 90
       50
102
RTVSPost2010PropOp47
 70
     1
102
RTVSPost2010Prop48
 90
       50
102
RTVSPost2010PropOp48
 70
     1
102
RTVSPost2010Prop49
280
     0
102
RTVSPost2010PropOp49
 70
     1
102
RTVSPost2010Prop50
 90
       50
102
RTVSPost2010PropOp50
 70
     1
102
RTVSPost2010Prop51ColorIndex
 90
      256
102
RTVSPost2010Prop51ColorRGB
 90
-16777216
102
RTVSPost2010PropOp51
 70
     0
102
RTVSPost2010Prop52
140
1.0
102
RTVSPost2010PropOp52
 70
     0
102
RTVSPost2010Prop53
 90
        2
102
RTVSPost2010PropOp53
 70
     1
102
RTVSPost2010Prop54
  1
strokes_ogs.tif
102
RTVSPost2010PropOp54
 70
     1
102
RTVSPost2010Prop55
280
     0
102
RTVSPost2010PropOp55
 70
     1
102
RTVSPost2010Prop56
140
1.0
102
RTVSPost2010PropOp56
 70
     1
102
RTVSPost2010Prop57
140
1.0
102
RTVSPost2010PropOp57
 70
     1
  0
XRECORD
  5
DC
102
{ACAD_REACTORS
330
DB
102
}
330
DB
100
AcDbXrecord
280
     1
102
RTVSPropertyOp0
 70
     1
102
RTVSPropertyOp1
 70
     1
102
RTVSPropertyOp2
 70
     1
102
RTVSPropertyOp3
 70
     1
102
RTVSPropertyOp4
 70
     1
102
RTVSPropertyOp5
 70
     1
102
RTVSPropertyOp6
 70
     1
102
RTVSPropertyOp7
 70
     1
102
RTVSPropertyOp8
 70
     1
102
RTVSPropertyOp9
 70
     1
102
RTVSPropertyOp10
 70
     1
102
RTVSPropertyOp11
 70
     1
102
RTVSPropertyOp12
 70
     1
102
RTVSPropertyOp13
 70
     1
102
RTVSPropertyOp14
 70
     1
102
RTVSPropertyOp15
 70
     1
102
RTVSPropertyOp16
 70
     1
102
RTVSPropertyOp17
 70
     1
102
RTVSPropertyOp18
 70
     1
102
RTVSPropertyOp19
 70
     1
102
RTVSPropertyOp20
 70
     1
102
RTVSPropertyOp21
 70
     1
102
RTVSPropertyOp22
 70
     1
102
RTVSPropertyOp23
 70
     1
102
RTVSPropertyOp24
 70
     1
102
RTVSPropertyOp25
 70
     1
102
RTVSPropertyOp26
 70
     1
102
RTVSPropertyOp27
 70
     1
102
RTVSPropertyOp28
 70
     1
102
RTVSPropertyOp29
 70
     1
102
RTVSPropertyOp30
 70
     1
102
RTVSPropertyOp31
 70
     1
102
RTVSPropertyOp32
 70
     1
102
RTVSPropertyOp33
 70
     1
102
RTVSPropertyOp34
 70
     1
102
RTVSPropertyOp35
 70
     1
102
RTVSPropertyOp36
 70
     1
102
RTVSPropertyOp37
 70
     1
102
RTVSPropertyOp38
 70
     1
102
RTVSPropertyOp39
 70
     1
102
RTVSPropertyOp40
 70
     1
102
RTVSPropertyOp41
 70
     1
102
RTVSPropertyOp42
 70
     1
102
RTVSPropertyOp43
 70
     1
102
RTVSPropertyOp44
 70
     1
102
RTVSPropertyOp45
 70
     1
102
RTVSPropertyOp46
 70
     1
102
RTVSPropertyOp47
 70
     1
102
RTVSPropertyOp48
 70
     1
102
RTVSPropertyOp49
 70
     1
102
RTVSPropertyOp50
 70
     1
102
RTVSPropertyOp51
 70
     0
102
RTVSPropertyOp52
 70
     0
102
RTVSPropertyOp53
 70
     1
102
RTVSPropertyOp54
 70
     1
102
RTVSPropertyOp55
 70
     1
102
RTVSPropertyOp56
 70
     1
102
RTVSPropertyOp57
 70
     1
102
RTVSPost2010Prop28
280
     0
102
RTVSPost2010PropOp28
 70
     1
102
RTVSPost2010Prop29
280
     1
102
RTVSPost2010PropOp29
 70
     1
102
RTVSPost2010Prop30
280
     1
102
RTVSPost2010PropOp30
 70
     1
102
RTVSPost2010Prop31
280
     0
102
RTVSPost2010PropOp31
 70
     1
102
RTVSPost2010Prop32
280
     0
102
RTVSPost2010PropOp32
 70
     1
102
RTVSPost2010Prop33
280
     0
102
RTVSPost2010PropOp33
 70
     1
102
RTVSPost2010Prop34
280
     0
102
RTVSPost2010PropOp34
 70
     1
102
RTVSPost2010Prop35
280
     0
102
RTVSPost2010PropOp35
 70
     1
102
RTVSPost2010Prop36
280
     0
102
RTVSPost2010PropOp36
 70
     1
102
RTVSPost2010Prop37
 90
       50
102
RTVSPost2010PropOp37
 70
     1
102
RTVSPost2010Prop38
140
0.0
102
RTVSPost2010PropOp38
 70
     1
102
RTVSPost2010Prop39
140
1.0
102
RTVSPost2010PropOp39
 70
     1
102
RTVSPost2010Prop40
 90
        0
102
RTVSPost2010PropOp40
 70
     1
102
RTVSPost2010Prop41ColorIndex
 90
       18
102
RTVSPost2010Prop41ColorRGB
 90
        0
102
RTVSPost2010PropOp41
 70
     1
102
RTVSPost2010Prop42
 90
       50
102
RTVSPost2010PropOp42
 70
     1
102
RTVSPost2010Prop43
 90
        3
102
RTVSPost2010PropOp43
 70
     1
102
RTVSPost2010Prop44ColorIndex
 90
        5
102
RTVSPost2010Prop44ColorRGB
 90
      255
102
RTVSPost2010PropOp44
 70
     1
102
RTVSPost2010Prop45
280
     0
102
RTVSPost2010PropOp45
 70
     1
102
RTVSPost2010Prop46
 90
       50
102
RTVSPost2010PropOp46
 70
     1
102
RTVSPost2010Prop47
 90
       50
102
RTVSPost2010PropOp47
 70
     1
102
RTVSPost2010Prop48
 90
       50
102
RTVSPost2010PropOp48
 70
     1
102
RTVSPost2010Prop49
280
     0
102
RTVSPost2010PropOp49
 70
     1
102
RTVSPost2010Prop50
 90
       50
102
RTVSPost2010PropOp50
 70
     1
102
RTVSPost2010Prop51ColorIndex
 90
      256
102
RTVSPost2010Prop51ColorRGB
 90
-16777216
102
RTVSPost2010PropOp51
 70
     0
102
RTVSPost2010Prop52
140
1.0
102
RTVSPost2010PropOp52
 70
     0
102
RTVSPost2010Prop53
 90
        2
102
RTVSPost2010PropOp53
 70
     1
102
RTVSPost2010Prop54
  1
strokes_ogs.tif
102
RTVSPost2010PropOp54
 70
     1
102
RTVSPost2010Prop55
280
     0
102
RTVSPost2010PropOp55
 70
     1
102
RTVSPost2010Prop56
140
1.0
102
RTVSPost2010PropOp56
 70
     1
102
RTVSPost2010Prop57
140
1.0
102
RTVSPost2010PropOp57
 70
     1
  0
XRECORD
  5
D0
102
{ACAD_REACTORS
330
CF
102
}
330
CF
100
AcDbXrecord
280
     1
102
RTVSPropertyOp0
 70
     1
102
RTVSPropertyOp1
 70
     1
102
RTVSPropertyOp2
 70
     1
102
RTVSPropertyOp3
 70
     1
102
RTVSPropertyOp4
 70
     1
102
RTVSPropertyOp5
 70
     1
102
RTVSPropertyOp6
 70
     1
102
RTVSPropertyOp7
 70
     1
102
RTVSPropertyOp8
 70
     1
102
RTVSPropertyOp9
 70
     1
102
RTVSPropertyOp10
 70
     1
102
RTVSPropertyOp11
 70
     1
102
RTVSPropertyOp12
 70
     1
102
RTVSPropertyOp13
 70
     1
102
RTVSPropertyOp14
 70
     1
102
RTVSPropertyOp15
 70
     1
102
RTVSPropertyOp16
 70
     1
102
RTVSPropertyOp17
 70
     1
102
RTVSPropertyOp18
 70
     1
102
RTVSPropertyOp19
 70
     1
102
RTVSPropertyOp20
 70
     1
102
RTVSPropertyOp21
 70
     1
102
RTVSPropertyOp22
 70
     1
102
RTVSPropertyOp23
 70
     1
102
RTVSPropertyOp24
 70
     1
102
RTVSPropertyOp25
 70
     1
102
RTVSPropertyOp26
 70
     1
102
RTVSPropertyOp27
 70
     1
102
RTVSPropertyOp28
 70
     1
102
RTVSPropertyOp29
 70
     1
102
RTVSPropertyOp30
 70
     1
102
RTVSPropertyOp31
 70
     1
102
RTVSPropertyOp32
 70
     1
102
RTVSPropertyOp33
 70
     1
102
RTVSPropertyOp34
 70
     1
102
RTVSPropertyOp35
 70
     1
102
RTVSPropertyOp36
 70
     1
102
RTVSPropertyOp37
 70
     1
102
RTVSPropertyOp38
 70
     1
102
RTVSPropertyOp39
 70
     1
102
RTVSPropertyOp40
 70
     1
102
RTVSPropertyOp41
 70
     1
102
RTVSPropertyOp42
 70
     1
102
RTVSPropertyOp43
 70
     1
102
RTVSPropertyOp44
 70
     1
102
RTVSPropertyOp45
 70
     1
102
RTVSPropertyOp46
 70
     1
102
RTVSPropertyOp47
 70
     1
102
RTVSPropertyOp48
 70
     1
102
RTVSPropertyOp49
 70
     1
102
RTVSPropertyOp50
 70
     1
102
RTVSPropertyOp51
 70
     0
102
RTVSPropertyOp52
 70
     0
102
RTVSPropertyOp53
 70
     1
102
RTVSPropertyOp54
 70
     1
102
RTVSPropertyOp55
 70
     1
102
RTVSPropertyOp56
 70
     1
102
RTVSPropertyOp57
 70
     1
102
RTVSPost2010Prop28
280
     0
102
RTVSPost2010PropOp28
 70
     1
102
RTVSPost2010Prop29
280
     1
102
RTVSPost2010PropOp29
 70
     1
102
RTVSPost2010Prop30
280
     1
102
RTVSPost2010PropOp30
 70
     1
102
RTVSPost2010Prop31
280
     0
102
RTVSPost2010PropOp31
 70
     1
102
RTVSPost2010Prop32
280
     0
102
RTVSPost2010PropOp32
 70
     1
102
RTVSPost2010Prop33
280
     0
102
RTVSPost2010PropOp33
 70
     1
102
RTVSPost2010Prop34
280
     0
102
RTVSPost2010PropOp34
 70
     1
102
RTVSPost2010Prop35
280
     0
102
RTVSPost2010PropOp35
 70
     1
102
RTVSPost2010Prop36
280
     0
102
RTVSPost2010PropOp36
 70
     1
102
RTVSPost2010Prop37
 90
       50
102
RTVSPost2010PropOp37
 70
     1
102
RTVSPost2010Prop38
140
0.0
102
RTVSPost2010PropOp38
 70
     1
102
RTVSPost2010Prop39
140
1.0
102
RTVSPost2010PropOp39
 70
     1
102
RTVSPost2010Prop40
 90
        0
102
RTVSPost2010PropOp40
 70
     1
102
RTVSPost2010Prop41ColorIndex
 90
       18
102
RTVSPost2010Prop41ColorRGB
 90
        0
102
RTVSPost2010PropOp41
 70
     1
102
RTVSPost2010Prop42
 90
       50
102
RTVSPost2010PropOp42
 70
     1
102
RTVSPost2010Prop43
 90
        3
102
RTVSPost2010PropOp43
 70
     1
102
RTVSPost2010Prop44ColorIndex
 90
        5
102
RTVSPost2010Prop44ColorRGB
 90
      255
102
RTVSPost2010PropOp44
 70
     1
102
RTVSPost2010Prop45
280
     0
102
RTVSPost2010PropOp45
 70
     1
102
RTVSPost2010Prop46
 90
       50
102
RTVSPost2010PropOp46
 70
     1
102
RTVSPost2010Prop47
 90
       50
102
RTVSPost2010PropOp47
 70
     1
102
RTVSPost2010Prop48
 90
       50
102
RTVSPost2010PropOp48
 70
     1
102
RTVSPost2010Prop49
280
     0
102
RTVSPost2010PropOp49
 70
     1
102
RTVSPost2010Prop50
 90
       50
102
RTVSPost2010PropOp50
 70
     1
102
RTVSPost2010Prop51ColorIndex
 90
      256
102
RTVSPost2010Prop51ColorRGB
 90
-16777216
102
RTVSPost2010PropOp51
 70
     0
102
RTVSPost2010Prop52
140
1.0
102
RTVSPost2010PropOp52
 70
     0
102
RTVSPost2010Prop53
 90
        2
102
RTVSPost2010PropOp53
 70
     1
102
RTVSPost2010Prop54
  1
strokes_ogs.tif
102
RTVSPost2010PropOp54
 70
     1
102
RTVSPost2010Prop55
280
     0
102
RTVSPost2010PropOp55
 70
     1
102
RTVSPost2010Prop56
140
1.0
102
RTVSPost2010PropOp56
 70
     1
102
RTVSPost2010Prop57
140
1.0
102
RTVSPost2010PropOp57
 70
     1
  0
XRECORD
  5
D2
102
{ACAD_REACTORS
330
D1
102
}
330
D1
100
AcDbXrecord
280
     1
102
RTVSPropertyOp0
 70
     1
102
RTVSPropertyOp1
 70
     1
102
RTVSPropertyOp2
 70
     1
102
RTVSPropertyOp3
 70
     1
102
RTVSPropertyOp4
 70
     1
102
RTVSPropertyOp5
 70
     1
102
RTVSPropertyOp6
 70
     1
102
RTVSPropertyOp7
 70
     1
102
RTVSPropertyOp8
 70
     1
102
RTVSPropertyOp9
 70
     1
102
RTVSPropertyOp10
 70
     1
102
RTVSPropertyOp11
 70
     1
102
RTVSPropertyOp12
 70
     1
102
RTVSPropertyOp13
 70
     1
102
RTVSPropertyOp14
 70
     1
102
RTVSPropertyOp15
 70
     1
102
RTVSPropertyOp16
 70
     1
102
RTVSPropertyOp17
 70
     1
102
RTVSPropertyOp18
 70
     1
102
RTVSPropertyOp19
 70
     1
102
RTVSPropertyOp20
 70
     1
102
RTVSPropertyOp21
 70
     1
102
RTVSPropertyOp22
 70
     1
102
RTVSPropertyOp23
 70
     1
102
RTVSPropertyOp24
 70
     1
102
RTVSPropertyOp25
 70
     1
102
RTVSPropertyOp26
 70
     1
102
RTVSPropertyOp27
 70
     1
102
RTVSPropertyOp28
 70
     1
102
RTVSPropertyOp29
 70
     1
102
RTVSPropertyOp30
 70
     1
102
RTVSPropertyOp31
 70
     1
102
RTVSPropertyOp32
 70
     1
102
RTVSPropertyOp33
 70
     1
102
RTVSPropertyOp34
 70
     1
102
RTVSPropertyOp35
 70
     1
102
RTVSPropertyOp36
 70
     1
102
RTVSPropertyOp37
 70
     1
102
RTVSPropertyOp38
 70
     1
102
RTVSPropertyOp39
 70
     1
102
RTVSPropertyOp40
 70
     1
102
RTVSPropertyOp41
 70
     1
102
RTVSPropertyOp42
 70
     1
102
RTVSPropertyOp43
 70
     1
102
RTVSPropertyOp44
 70
     1
102
RTVSPropertyOp45
 70
     1
102
RTVSPropertyOp46
 70
     1
102
RTVSPropertyOp47
 70
     1
102
RTVSPropertyOp48
 70
     1
102
RTVSPropertyOp49
 70
     1
102
RTVSPropertyOp50
 70
     1
102
RTVSPropertyOp51
 70
     0
102
RTVSPropertyOp52
 70
     0
102
RTVSPropertyOp53
 70
     1
102
RTVSPropertyOp54
 70
     1
102
RTVSPropertyOp55
 70
     1
102
RTVSPropertyOp56
 70
     1
102
RTVSPropertyOp57
 70
     1
102
RTVSPost2010Prop28
280
     0
102
RTVSPost2010PropOp28
 70
     1
102
RTVSPost2010Prop29
280
     1
102
RTVSPost2010PropOp29
 70
     1
102
RTVSPost2010Prop30
280
     1
102
RTVSPost2010PropOp30
 70
     1
102
RTVSPost2010Prop31
280
     0
102
RTVSPost2010PropOp31
 70
     1
102
RTVSPost2010Prop32
280
     0
102
RTVSPost2010PropOp32
 70
     1
102
RTVSPost2010Prop33
280
     0
102
RTVSPost2010PropOp33
 70
     1
102
RTVSPost2010Prop34
280
     0
102
RTVSPost2010PropOp34
 70
     1
102
RTVSPost2010Prop35
280
     0
102
RTVSPost2010PropOp35
 70
     1
102
RTVSPost2010Prop36
280
     0
102
RTVSPost2010PropOp36
 70
     1
102
RTVSPost2010Prop37
 90
       50
102
RTVSPost2010PropOp37
 70
     1
102
RTVSPost2010Prop38
140
0.0
102
RTVSPost2010PropOp38
 70
     1
102
RTVSPost2010Prop39
140
1.0
102
RTVSPost2010PropOp39
 70
     1
102
RTVSPost2010Prop40
 90
        0
102
RTVSPost2010PropOp40
 70
     1
102
RTVSPost2010Prop41ColorIndex
 90
       18
102
RTVSPost2010Prop41ColorRGB
 90
        0
102
RTVSPost2010PropOp41
 70
     1
102
RTVSPost2010Prop42
 90
       50
102
RTVSPost2010PropOp42
 70
     1
102
RTVSPost2010Prop43
 90
        3
102
RTVSPost2010PropOp43
 70
     1
102
RTVSPost2010Prop44ColorIndex
 90
        5
102
RTVSPost2010Prop44ColorRGB
 90
      255
102
RTVSPost2010PropOp44
 70
     1
102
RTVSPost2010Prop45
280
     0
102
RTVSPost2010PropOp45
 70
     1
102
RTVSPost2010Prop46
 90
       50
102
RTVSPost2010PropOp46
 70
     1
102
RTVSPost2010Prop47
 90
       50
102
RTVSPost2010PropOp47
 70
     1
102
RTVSPost2010Prop48
 90
       50
102
RTVSPost2010PropOp48
 70
     1
102
RTVSPost2010Prop49
280
     0
102
RTVSPost2010PropOp49
 70
     1
102
RTVSPost2010Prop50
 90
       50
102
RTVSPost2010PropOp50
 70
     1
102
RTVSPost2010Prop51ColorIndex
 90
      256
102
RTVSPost2010Prop51ColorRGB
 90
-16777216
102
RTVSPost2010PropOp51
 70
     0
102
RTVSPost2010Prop52
140
1.0
102
RTVSPost2010PropOp52
 70
     0
102
RTVSPost2010Prop53
 90
        2
102
RTVSPost2010PropOp53
 70
     1
102
RTVSPost2010Prop54
  1
strokes_ogs.tif
102
RTVSPost2010PropOp54
 70
     1
102
RTVSPost2010Prop55
280
     0
102
RTVSPost2010PropOp55
 70
     1
102
RTVSPost2010Prop56
140
1.0
102
RTVSPost2010PropOp56
 70
     1
102
RTVSPost2010Prop57
140
1.0
102
RTVSPost2010PropOp57
 70
     1
  0
XRECORD
  5
E2
102
{ACAD_REACTORS
330
E1
102
}
330
E1
100
AcDbXrecord
280
     1
102
RTVSPropertyOp0
 70
     0
102
RTVSPropertyOp1
 70
     0
102
RTVSPropertyOp2
 70
     0
102
RTVSPropertyOp3
 70
     0
102
RTVSPropertyOp4
 70
     0
102
RTVSPropertyOp5
 70
     0
102
RTVSPropertyOp6
 70
     0
102
RTVSPropertyOp7
 70
     0
102
RTVSPropertyOp8
 70
     0
102
RTVSPropertyOp9
 70
     0
102
RTVSPropertyOp10
 70
     0
102
RTVSPropertyOp11
 70
     0
102
RTVSPropertyOp12
 70
     0
102
RTVSPropertyOp13
 70
     0
102
RTVSPropertyOp14
 70
     2
102
RTVSPropertyOp15
 70
     0
102
RTVSPropertyOp16
 70
     0
102
RTVSPropertyOp17
 70
     0
102
RTVSPropertyOp18
 70
     0
102
RTVSPropertyOp19
 70
     0
102
RTVSPropertyOp20
 70
     0
102
RTVSPropertyOp21
 70
     0
102
RTVSPropertyOp22
 70
     0
102
RTVSPropertyOp23
 70
     0
102
RTVSPropertyOp24
 70
     0
102
RTVSPropertyOp25
 70
     0
102
RTVSPropertyOp26
 70
     0
102
RTVSPropertyOp27
 70
     0
102
RTVSPropertyOp28
 70
     0
102
RTVSPropertyOp29
 70
     0
102
RTVSPropertyOp30
 70
     0
102
RTVSPropertyOp31
 70
     0
102
RTVSPropertyOp32
 70
     0
102
RTVSPropertyOp33
 70
     0
102
RTVSPropertyOp34
 70
     0
102
RTVSPropertyOp35
 70
     0
102
RTVSPropertyOp36
 70
     0
102
RTVSPropertyOp37
 70
     0
102
RTVSPropertyOp38
 70
     0
102
RTVSPropertyOp39
 70
     0
102
RTVSPropertyOp40
 70
     0
102
RTVSPropertyOp41
 70
     0
102
RTVSPropertyOp42
 70
     0
102
RTVSPropertyOp43
 70
     0
102
RTVSPropertyOp44
 70
     0
102
RTVSPropertyOp45
 70
     0
102
RTVSPropertyOp46
 70
     0
102
RTVSPropertyOp47
 70
     0
102
RTVSPropertyOp48
 70
     0
102
RTVSPropertyOp49
 70
     0
102
RTVSPropertyOp50
 70
     0
102
RTVSPropertyOp51
 70
     0
102
RTVSPropertyOp52
 70
     0
102
RTVSPropertyOp53
 70
     0
102
RTVSPropertyOp54
 70
     0
102
RTVSPropertyOp55
 70
     0
102
RTVSPropertyOp56
 70
     0
102
RTVSPropertyOp57
 70
     0
102
RTVSPost2010Prop28
280
     0
102
RTVSPost2010PropOp28
 70
     0
102
RTVSPost2010Prop29
280
     1
102
RTVSPost2010PropOp29
 70
     0
102
RTVSPost2010Prop30
280
     1
102
RTVSPost2010PropOp30
 70
     0
102
RTVSPost2010Prop31
280
     0
102
RTVSPost2010PropOp31
 70
     0
102
RTVSPost2010Prop32
280
     0
102
RTVSPost2010PropOp32
 70
     0
102
RTVSPost2010Prop33
280
     0
102
RTVSPost2010PropOp33
 70
     0
102
RTVSPost2010Prop34
280
     0
102
RTVSPost2010PropOp34
 70
     0
102
RTVSPost2010Prop35
280
     0
102
RTVSPost2010PropOp35
 70
     0
102
RTVSPost2010Prop36
280
     0
102
RTVSPost2010PropOp36
 70
     0
102
RTVSPost2010Prop37
 90
       50
102
RTVSPost2010PropOp37
 70
     0
102
RTVSPost2010Prop38
140
0.0
102
RTVSPost2010PropOp38
 70
     0
102
RTVSPost2010Prop39
140
1.0
102
RTVSPost2010PropOp39
 70
     0
102
RTVSPost2010Prop40
 90
        0
102
RTVSPost2010PropOp40
 70
     0
102
RTVSPost2010Prop41ColorIndex
 90
       18
102
RTVSPost2010Prop41ColorRGB
 90
        0
102
RTVSPost2010PropOp41
 70
     0
102
RTVSPost2010Prop42
 90
       50
102
RTVSPost2010PropOp42
 70
     0
102
RTVSPost2010Prop43
 90
        3
102
RTVSPost2010PropOp43
 70
     0
102
RTVSPost2010Prop44ColorIndex
 90
        5
102
RTVSPost2010Prop44ColorRGB
 90
      255
102
RTVSPost2010PropOp44
 70
     0
102
RTVSPost2010Prop45
280
     0
102
RTVSPost2010PropOp45
 70
     0
102
RTVSPost2010Prop46
 90
       50
102
RTVSPost2010PropOp46
 70
     0
102
RTVSPost2010Prop47
 90
       50
102
RTVSPost2010PropOp47
 70
     0
102
RTVSPost2010Prop48
 90
       50
102
RTVSPost2010PropOp48
 70
     0
102
RTVSPost2010Prop49
280
     0
102
RTVSPost2010PropOp49
 70
     0
102
RTVSPost2010Prop50
 90
       50
102
RTVSPost2010PropOp50
 70
     0
102
RTVSPost2010Prop51ColorIndex
 90
      256
102
RTVSPost2010Prop51ColorRGB
 90
-16777216
102
RTVSPost2010PropOp51
 70
     0
102
RTVSPost2010Prop52
140
1.0
102
RTVSPost2010PropOp52
 70
     0
102
RTVSPost2010Prop53
 90
        2
102
RTVSPost2010PropOp53
 70
     0
102
RTVSPost2010Prop54
  1
strokes_ogs.tif
102
RTVSPost2010PropOp54
 70
     0
102
RTVSPost2010Prop55
280
     0
102
RTVSPost2010PropOp55
 70
     0
102
RTVSPost2010Prop56
140
1.0
102
RTVSPost2010PropOp56
 70
     0
102
RTVSPost2010Prop57
140
1.0
102
RTVSPost2010PropOp57
 70
     0
  0
XRECORD
  5
DA
102
{ACAD_REACTORS
330
D9
102
}
330
D9
100
AcDbXrecord
280
     1
102
RTVSPropertyOp0
 70
     1
102
RTVSPropertyOp1
 70
     1
102
RTVSPropertyOp2
 70
     1
102
RTVSPropertyOp3
 70
     1
102
RTVSPropertyOp4
 70
     1
102
RTVSPropertyOp5
 70
     1
102
RTVSPropertyOp6
 70
     1
102
RTVSPropertyOp7
 70
     1
102
RTVSPropertyOp8
 70
     1
102
RTVSPropertyOp9
 70
     1
102
RTVSPropertyOp10
 70
     1
102
RTVSPropertyOp11
 70
     1
102
RTVSPropertyOp12
 70
     1
102
RTVSPropertyOp13
 70
     1
102
RTVSPropertyOp14
 70
     1
102
RTVSPropertyOp15
 70
     1
102
RTVSPropertyOp16
 70
     1
102
RTVSPropertyOp17
 70
     1
102
RTVSPropertyOp18
 70
     1
102
RTVSPropertyOp19
 70
     1
102
RTVSPropertyOp20
 70
     1
102
RTVSPropertyOp21
 70
     1
102
RTVSPropertyOp22
 70
     1
102
RTVSPropertyOp23
 70
     1
102
RTVSPropertyOp24
 70
     1
102
RTVSPropertyOp25
 70
     1
102
RTVSPropertyOp26
 70
     1
102
RTVSPropertyOp27
 70
     1
102
RTVSPropertyOp28
 70
     1
102
RTVSPropertyOp29
 70
     1
102
RTVSPropertyOp30
 70
     1
102
RTVSPropertyOp31
 70
     1
102
RTVSPropertyOp32
 70
     1
102
RTVSPropertyOp33
 70
     1
102
RTVSPropertyOp34
 70
     1
102
RTVSPropertyOp35
 70
     1
102
RTVSPropertyOp36
 70
     1
102
RTVSPropertyOp37
 70
     1
102
RTVSPropertyOp38
 70
     1
102
RTVSPropertyOp39
 70
     1
102
RTVSPropertyOp40
 70
     1
102
RTVSPropertyOp41
 70
     1
102
RTVSPropertyOp42
 70
     1
102
RTVSPropertyOp43
 70
     1
102
RTVSPropertyOp44
 70
     1
102
RTVSPropertyOp45
 70
     1
102
RTVSPropertyOp46
 70
     1
102
RTVSPropertyOp47
 70
     1
102
RTVSPropertyOp48
 70
     1
102
RTVSPropertyOp49
 70
     1
102
RTVSPropertyOp50
 70
     1
102
RTVSPropertyOp51
 70
     0
102
RTVSPropertyOp52
 70
     0
102
RTVSPropertyOp53
 70
     1
102
RTVSPropertyOp54
 70
     1
102
RTVSPropertyOp55
 70
     1
102
RTVSPropertyOp56
 70
     1
102
RTVSPropertyOp57
 70
     1
102
RTVSPost2010Prop28
280
     0
102
RTVSPost2010PropOp28
 70
     1
102
RTVSPost2010Prop29
280
     1
102
RTVSPost2010PropOp29
 70
     1
102
RTVSPost2010Prop30
280
     1
102
RTVSPost2010PropOp30
 70
     1
102
RTVSPost2010Prop31
280
     0
102
RTVSPost2010PropOp31
 70
     1
102
RTVSPost2010Prop32
280
     0
102
RTVSPost2010PropOp32
 70
     1
102
RTVSPost2010Prop33
280
     0
102
RTVSPost2010PropOp33
 70
     1
102
RTVSPost2010Prop34
280
     0
102
RTVSPost2010PropOp34
 70
     1
102
RTVSPost2010Prop35
280
     0
102
RTVSPost2010PropOp35
 70
     1
102
RTVSPost2010Prop36
280
     0
102
RTVSPost2010PropOp36
 70
     1
102
RTVSPost2010Prop37
 90
       50
102
RTVSPost2010PropOp37
 70
     1
102
RTVSPost2010Prop38
140
0.0
102
RTVSPost2010PropOp38
 70
     1
102
RTVSPost2010Prop39
140
1.0
102
RTVSPost2010PropOp39
 70
     1
102
RTVSPost2010Prop40
 90
        0
102
RTVSPost2010PropOp40
 70
     1
102
RTVSPost2010Prop41ColorIndex
 90
       18
102
RTVSPost2010Prop41ColorRGB
 90
        0
102
RTVSPost2010PropOp41
 70
     1
102
RTVSPost2010Prop42
 90
       50
102
RTVSPost2010PropOp42
 70
     1
102
RTVSPost2010Prop43
 90
        3
102
RTVSPost2010PropOp43
 70
     1
102
RTVSPost2010Prop44ColorIndex
 90
        5
102
RTVSPost2010Prop44ColorRGB
 90
      255
102
RTVSPost2010PropOp44
 70
     1
102
RTVSPost2010Prop45
280
     0
102
RTVSPost2010PropOp45
 70
     1
102
RTVSPost2010Prop46
 90
       50
102
RTVSPost2010PropOp46
 70
     1
102
RTVSPost2010Prop47
 90
       50
102
RTVSPost2010PropOp47
 70
     1
102
RTVSPost2010Prop48
 90
       50
102
RTVSPost2010PropOp48
 70
     1
102
RTVSPost2010Prop49
280
     0
102
RTVSPost2010PropOp49
 70
     1
102
RTVSPost2010Prop50
 90
       50
102
RTVSPost2010PropOp50
 70
     1
102
RTVSPost2010Prop51ColorIndex
 90
      256
102
RTVSPost2010Prop51ColorRGB
 90
-16777216
102
RTVSPost2010PropOp51
 70
     0
102
RTVSPost2010Prop52
140
1.0
102
RTVSPost2010PropOp52
 70
     0
102
RTVSPost2010Prop53
 90
        2
102
RTVSPost2010PropOp53
 70
     1
102
RTVSPost2010Prop54
  1
strokes_ogs.tif
102
RTVSPost2010PropOp54
 70
     1
102
RTVSPost2010Prop55
280
     0
102
RTVSPost2010PropOp55
 70
     1
102
RTVSPost2010Prop56
140
1.0
102
RTVSPost2010PropOp56
 70
     1
102
RTVSPost2010Prop57
140
1.0
102
RTVSPost2010PropOp57
 70
     1
  0
XRECORD
  5
BE
102
{ACAD_REACTORS
330
BD
102
}
330
BD
100
AcDbXrecord
280
     1
102
RTVSPropertyOp0
 70
     1
102
RTVSPropertyOp1
 70
     1
102
RTVSPropertyOp2
 70
     1
102
RTVSPropertyOp3
 70
     1
102
RTVSPropertyOp4
 70
     1
102
RTVSPropertyOp5
 70
     1
102
RTVSPropertyOp6
 70
     1
102
RTVSPropertyOp7
 70
     1
102
RTVSPropertyOp8
 70
     1
102
RTVSPropertyOp9
 70
     1
102
RTVSPropertyOp10
 70
     1
102
RTVSPropertyOp11
 70
     1
102
RTVSPropertyOp12
 70
     1
102
RTVSPropertyOp13
 70
     1
102
RTVSPropertyOp14
 70
     1
102
RTVSPropertyOp15
 70
     1
102
RTVSPropertyOp16
 70
     1
102
RTVSPropertyOp17
 70
     1
102
RTVSPropertyOp18
 70
     1
102
RTVSPropertyOp19
 70
     1
102
RTVSPropertyOp20
 70
     1
102
RTVSPropertyOp21
 70
     1
102
RTVSPropertyOp22
 70
     1
102
RTVSPropertyOp23
 70
     1
102
RTVSPropertyOp24
 70
     1
102
RTVSPropertyOp25
 70
     1
102
RTVSPropertyOp26
 70
     1
102
RTVSPropertyOp27
 70
     1
102
RTVSPropertyOp28
 70
     1
102
RTVSPropertyOp29
 70
     1
102
RTVSPropertyOp30
 70
     1
102
RTVSPropertyOp31
 70
     1
102
RTVSPropertyOp32
 70
     1
102
RTVSPropertyOp33
 70
     1
102
RTVSPropertyOp34
 70
     1
102
RTVSPropertyOp35
 70
     1
102
RTVSPropertyOp36
 70
     1
102
RTVSPropertyOp37
 70
     1
102
RTVSPropertyOp38
 70
     1
102
RTVSPropertyOp39
 70
     1
102
RTVSPropertyOp40
 70
     1
102
RTVSPropertyOp41
 70
     1
102
RTVSPropertyOp42
 70
     1
102
RTVSPropertyOp43
 70
     1
102
RTVSPropertyOp44
 70
     1
102
RTVSPropertyOp45
 70
     1
102
RTVSPropertyOp46
 70
     1
102
RTVSPropertyOp47
 70
     1
102
RTVSPropertyOp48
 70
     1
102
RTVSPropertyOp49
 70
     1
102
RTVSPropertyOp50
 70
     1
102
RTVSPropertyOp51
 70
     0
102
RTVSPropertyOp52
 70
     0
102
RTVSPropertyOp53
 70
     1
102
RTVSPropertyOp54
 70
     1
102
RTVSPropertyOp55
 70
     1
102
RTVSPropertyOp56
 70
     1
102
RTVSPropertyOp57
 70
     1
102
RTVSPost2010Prop28
280
     0
102
RTVSPost2010PropOp28
 70
     1
102
RTVSPost2010Prop29
280
     1
102
RTVSPost2010PropOp29
 70
     1
102
RTVSPost2010Prop30
280
     1
102
RTVSPost2010PropOp30
 70
     1
102
RTVSPost2010Prop31
280
     0
102
RTVSPost2010PropOp31
 70
     1
102
RTVSPost2010Prop32
280
     0
102
RTVSPost2010PropOp32
 70
     1
102
RTVSPost2010Prop33
280
     0
102
RTVSPost2010PropOp33
 70
     1
102
RTVSPost2010Prop34
280
     0
102
RTVSPost2010PropOp34
 70
     1
102
RTVSPost2010Prop35
280
     0
102
RTVSPost2010PropOp35
 70
     1
102
RTVSPost2010Prop36
280
     0
102
RTVSPost2010PropOp36
 70
     1
102
RTVSPost2010Prop37
 90
       50
102
RTVSPost2010PropOp37
 70
     1
102
RTVSPost2010Prop38
140
0.0
102
RTVSPost2010PropOp38
 70
     1
102
RTVSPost2010Prop39
140
1.0
102
RTVSPost2010PropOp39
 70
     1
102
RTVSPost2010Prop40
 90
        0
102
RTVSPost2010PropOp40
 70
     1
102
RTVSPost2010Prop41ColorIndex
 90
       18
102
RTVSPost2010Prop41ColorRGB
 90
        0
102
RTVSPost2010PropOp41
 70
     1
102
RTVSPost2010Prop42
 90
       50
102
RTVSPost2010PropOp42
 70
     1
102
RTVSPost2010Prop43
 90
        3
102
RTVSPost2010PropOp43
 70
     1
102
RTVSPost2010Prop44ColorIndex
 90
        5
102
RTVSPost2010Prop44ColorRGB
 90
      255
102
RTVSPost2010PropOp44
 70
     1
102
RTVSPost2010Prop45
280
     0
102
RTVSPost2010PropOp45
 70
     1
102
RTVSPost2010Prop46
 90
       50
102
RTVSPost2010PropOp46
 70
     1
102
RTVSPost2010Prop47
 90
       50
102
RTVSPost2010PropOp47
 70
     1
102
RTVSPost2010Prop48
 90
       50
102
RTVSPost2010PropOp48
 70
     1
102
RTVSPost2010Prop49
280
     0
102
RTVSPost2010PropOp49
 70
     1
102
RTVSPost2010Prop50
 90
       50
102
RTVSPost2010PropOp50
 70
     1
102
RTVSPost2010Prop51ColorIndex
 90
      256
102
RTVSPost2010Prop51ColorRGB
 90
-16777216
102
RTVSPost2010PropOp51
 70
     0
102
RTVSPost2010Prop52
140
1.0
102
RTVSPost2010PropOp52
 70
     0
102
RTVSPost2010Prop53
 90
        2
102
RTVSPost2010PropOp53
 70
     1
102
RTVSPost2010Prop54
  1
strokes_ogs.tif
102
RTVSPost2010PropOp54
 70
     1
102
RTVSPost2010Prop55
280
     0
102
RTVSPost2010PropOp55
 70
     1
102
RTVSPost2010Prop56
140
1.0
102
RTVSPost2010PropOp56
 70
     1
102
RTVSPost2010Prop57
140
1.0
102
RTVSPost2010PropOp57
 70
     1
  0
XRECORD
  5
C0
102
{ACAD_REACTORS
330
BF
102
}
330
BF
100
AcDbXrecord
280
     1
102
RTVSPropertyOp0
 70
     1
102
RTVSPropertyOp1
 70
     1
102
RTVSPropertyOp2
 70
     1
102
RTVSPropertyOp3
 70
     1
102
RTVSPropertyOp4
 70
     1
102
RTVSPropertyOp5
 70
     1
102
RTVSPropertyOp6
 70
     1
102
RTVSPropertyOp7
 70
     1
102
RTVSPropertyOp8
 70
     1
102
RTVSPropertyOp9
 70
     1
102
RTVSPropertyOp10
 70
     1
102
RTVSPropertyOp11
 70
     1
102
RTVSPropertyOp12
 70
     1
102
RTVSPropertyOp13
 70
     1
102
RTVSPropertyOp14
 70
     1
102
RTVSPropertyOp15
 70
     1
102
RTVSPropertyOp16
 70
     1
102
RTVSPropertyOp17
 70
     1
102
RTVSPropertyOp18
 70
     1
102
RTVSPropertyOp19
 70
     1
102
RTVSPropertyOp20
 70
     1
102
RTVSPropertyOp21
 70
     1
102
RTVSPropertyOp22
 70
     1
102
RTVSPropertyOp23
 70
     1
102
RTVSPropertyOp24
 70
     1
102
RTVSPropertyOp25
 70
     1
102
RTVSPropertyOp26
 70
     1
102
RTVSPropertyOp27
 70
     1
102
RTVSPropertyOp28
 70
     1
102
RTVSPropertyOp29
 70
     1
102
RTVSPropertyOp30
 70
     1
102
RTVSPropertyOp31
 70
     1
102
RTVSPropertyOp32
 70
     1
102
RTVSPropertyOp33
 70
     1
102
RTVSPropertyOp34
 70
     1
102
RTVSPropertyOp35
 70
     1
102
RTVSPropertyOp36
 70
     1
102
RTVSPropertyOp37
 70
     1
102
RTVSPropertyOp38
 70
     1
102
RTVSPropertyOp39
 70
     1
102
RTVSPropertyOp40
 70
     1
102
RTVSPropertyOp41
 70
     1
102
RTVSPropertyOp42
 70
     1
102
RTVSPropertyOp43
 70
     1
102
RTVSPropertyOp44
 70
     1
102
RTVSPropertyOp45
 70
     1
102
RTVSPropertyOp46
 70
     1
102
RTVSPropertyOp47
 70
     1
102
RTVSPropertyOp48
 70
     1
102
RTVSPropertyOp49
 70
     1
102
RTVSPropertyOp50
 70
     1
102
RTVSPropertyOp51
 70
     0
102
RTVSPropertyOp52
 70
     0
102
RTVSPropertyOp53
 70
     1
102
RTVSPropertyOp54
 70
     1
102
RTVSPropertyOp55
 70
     1
102
RTVSPropertyOp56
 70
     1
102
RTVSPropertyOp57
 70
     1
102
RTVSPost2010Prop28
280
     0
102
RTVSPost2010PropOp28
 70
     1
102
RTVSPost2010Prop29
280
     1
102
RTVSPost2010PropOp29
 70
     1
102
RTVSPost2010Prop30
280
     1
102
RTVSPost2010PropOp30
 70
     1
102
RTVSPost2010Prop31
280
     0
102
RTVSPost2010PropOp31
 70
     1
102
RTVSPost2010Prop32
280
     0
102
RTVSPost2010PropOp32
 70
     1
102
RTVSPost2010Prop33
280
     0
102
RTVSPost2010PropOp33
 70
     1
102
RTVSPost2010Prop34
280
     0
102
RTVSPost2010PropOp34
 70
     1
102
RTVSPost2010Prop35
280
     0
102
RTVSPost2010PropOp35
 70
     1
102
RTVSPost2010Prop36
280
     0
102
RTVSPost2010PropOp36
 70
     1
102
RTVSPost2010Prop37
 90
       50
102
RTVSPost2010PropOp37
 70
     1
102
RTVSPost2010Prop38
140
0.0
102
RTVSPost2010PropOp38
 70
     1
102
RTVSPost2010Prop39
140
1.0
102
RTVSPost2010PropOp39
 70
     1
102
RTVSPost2010Prop40
 90
        0
102
RTVSPost2010PropOp40
 70
     1
102
RTVSPost2010Prop41ColorIndex
 90
       18
102
RTVSPost2010Prop41ColorRGB
 90
        0
102
RTVSPost2010PropOp41
 70
     1
102
RTVSPost2010Prop42
 90
       50
102
RTVSPost2010PropOp42
 70
     1
102
RTVSPost2010Prop43
 90
        3
102
RTVSPost2010PropOp43
 70
     1
102
RTVSPost2010Prop44ColorIndex
 90
        5
102
RTVSPost2010Prop44ColorRGB
 90
      255
102
RTVSPost2010PropOp44
 70
     1
102
RTVSPost2010Prop45
280
     0
102
RTVSPost2010PropOp45
 70
     1
102
RTVSPost2010Prop46
 90
       50
102
RTVSPost2010PropOp46
 70
     1
102
RTVSPost2010Prop47
 90
       50
102
RTVSPost2010PropOp47
 70
     1
102
RTVSPost2010Prop48
 90
       50
102
RTVSPost2010PropOp48
 70
     1
102
RTVSPost2010Prop49
280
     0
102
RTVSPost2010PropOp49
 70
     1
102
RTVSPost2010Prop50
 90
       50
102
RTVSPost2010PropOp50
 70
     1
102
RTVSPost2010Prop51ColorIndex
 90
      256
102
RTVSPost2010Prop51ColorRGB
 90
-16777216
102
RTVSPost2010PropOp51
 70
     0
102
RTVSPost2010Prop52
140
1.0
102
RTVSPost2010PropOp52
 70
     0
102
RTVSPost2010Prop53
 90
        2
102
RTVSPost2010PropOp53
 70
     1
102
RTVSPost2010Prop54
  1
strokes_ogs.tif
102
RTVSPost2010PropOp54
 70
     1
102
RTVSPost2010Prop55
280
     0
102
RTVSPost2010PropOp55
 70
     1
102
RTVSPost2010Prop56
140
1.0
102
RTVSPost2010PropOp56
 70
     1
102
RTVSPost2010Prop57
140
1.0
102
RTVSPost2010PropOp57
 70
     1
  0
XRECORD
  5
C2
102
{ACAD_REACTORS
330
C1
102
}
330
C1
100
AcDbXrecord
280
     1
102
RTVSPropertyOp0
 70
     1
102
RTVSPropertyOp1
 70
     1
102
RTVSPropertyOp2
 70
     1
102
RTVSPropertyOp3
 70
     1
102
RTVSPropertyOp4
 70
     1
102
RTVSPropertyOp5
 70
     1
102
RTVSPropertyOp6
 70
     1
102
RTVSPropertyOp7
 70
     1
102
RTVSPropertyOp8
 70
     1
102
RTVSPropertyOp9
 70
     1
102
RTVSPropertyOp10
 70
     1
102
RTVSPropertyOp11
 70
     1
102
RTVSPropertyOp12
 70
     1
102
RTVSPropertyOp13
 70
     1
102
RTVSPropertyOp14
 70
     1
102
RTVSPropertyOp15
 70
     1
102
RTVSPropertyOp16
 70
     1
102
RTVSPropertyOp17
 70
     1
102
RTVSPropertyOp18
 70
     1
102
RTVSPropertyOp19
 70
     1
102
RTVSPropertyOp20
 70
     1
102
RTVSPropertyOp21
 70
     1
102
RTVSPropertyOp22
 70
     1
102
RTVSPropertyOp23
 70
     1
102
RTVSPropertyOp24
 70
     1
102
RTVSPropertyOp25
 70
     1
102
RTVSPropertyOp26
 70
     1
102
RTVSPropertyOp27
 70
     1
102
RTVSPropertyOp28
 70
     1
102
RTVSPropertyOp29
 70
     1
102
RTVSPropertyOp30
 70
     1
102
RTVSPropertyOp31
 70
     1
102
RTVSPropertyOp32
 70
     1
102
RTVSPropertyOp33
 70
     1
102
RTVSPropertyOp34
 70
     1
102
RTVSPropertyOp35
 70
     1
102
RTVSPropertyOp36
 70
     1
102
RTVSPropertyOp37
 70
     1
102
RTVSPropertyOp38
 70
     1
102
RTVSPropertyOp39
 70
     1
102
RTVSPropertyOp40
 70
     1
102
RTVSPropertyOp41
 70
     1
102
RTVSPropertyOp42
 70
     1
102
RTVSPropertyOp43
 70
     1
102
RTVSPropertyOp44
 70
     1
102
RTVSPropertyOp45
 70
     1
102
RTVSPropertyOp46
 70
     1
102
RTVSPropertyOp47
 70
     1
102
RTVSPropertyOp48
 70
     1
102
RTVSPropertyOp49
 70
     1
102
RTVSPropertyOp50
 70
     1
102
RTVSPropertyOp51
 70
     0
102
RTVSPropertyOp52
 70
     0
102
RTVSPropertyOp53
 70
     1
102
RTVSPropertyOp54
 70
     1
102
RTVSPropertyOp55
 70
     1
102
RTVSPropertyOp56
 70
     1
102
RTVSPropertyOp57
 70
     1
102
RTVSPost2010Prop28
280
     0
102
RTVSPost2010PropOp28
 70
     1
102
RTVSPost2010Prop29
280
     1
102
RTVSPost2010PropOp29
 70
     1
102
RTVSPost2010Prop30
280
     1
102
RTVSPost2010PropOp30
 70
     1
102
RTVSPost2010Prop31
280
     0
102
RTVSPost2010PropOp31
 70
     1
102
RTVSPost2010Prop32
280
     0
102
RTVSPost2010PropOp32
 70
     1
102
RTVSPost2010Prop33
280
     0
102
RTVSPost2010PropOp33
 70
     1
102
RTVSPost2010Prop34
280
     0
102
RTVSPost2010PropOp34
 70
     1
102
RTVSPost2010Prop35
280
     0
102
RTVSPost2010PropOp35
 70
     1
102
RTVSPost2010Prop36
280
     0
102
RTVSPost2010PropOp36
 70
     1
102
RTVSPost2010Prop37
 90
       50
102
RTVSPost2010PropOp37
 70
     1
102
RTVSPost2010Prop38
140
0.0
102
RTVSPost2010PropOp38
 70
     1
102
RTVSPost2010Prop39
140
1.0
102
RTVSPost2010PropOp39
 70
     1
102
RTVSPost2010Prop40
 90
        0
102
RTVSPost2010PropOp40
 70
     1
102
RTVSPost2010Prop41ColorIndex
 90
       18
102
RTVSPost2010Prop41ColorRGB
 90
        0
102
RTVSPost2010PropOp41
 70
     1
102
RTVSPost2010Prop42
 90
       50
102
RTVSPost2010PropOp42
 70
     1
102
RTVSPost2010Prop43
 90
        3
102
RTVSPost2010PropOp43
 70
     1
102
RTVSPost2010Prop44ColorIndex
 90
        5
102
RTVSPost2010Prop44ColorRGB
 90
      255
102
RTVSPost2010PropOp44
 70
     1
102
RTVSPost2010Prop45
280
     0
102
RTVSPost2010PropOp45
 70
     1
102
RTVSPost2010Prop46
 90
       50
102
RTVSPost2010PropOp46
 70
     1
102
RTVSPost2010Prop47
 90
       50
102
RTVSPost2010PropOp47
 70
     1
102
RTVSPost2010Prop48
 90
       50
102
RTVSPost2010PropOp48
 70
     1
102
RTVSPost2010Prop49
280
     0
102
RTVSPost2010PropOp49
 70
     1
102
RTVSPost2010Prop50
 90
       50
102
RTVSPost2010PropOp50
 70
     1
102
RTVSPost2010Prop51ColorIndex
 90
      256
102
RTVSPost2010Prop51ColorRGB
 90
-16777216
102
RTVSPost2010PropOp51
 70
     0
102
RTVSPost2010Prop52
140
1.0
102
RTVSPost2010PropOp52
 70
     0
102
RTVSPost2010Prop53
 90
        2
102
RTVSPost2010PropOp53
 70
     1
102
RTVSPost2010Prop54
  1
strokes_ogs.tif
102
RTVSPost2010PropOp54
 70
     1
102
RTVSPost2010Prop55
280
     0
102
RTVSPost2010PropOp55
 70
     1
102
RTVSPost2010Prop56
140
1.0
102
RTVSPost2010PropOp56
 70
     1
102
RTVSPost2010Prop57
140
1.0
102
RTVSPost2010PropOp57
 70
     1
  0
XRECORD
  5
C4
102
{ACAD_REACTORS
330
C3
102
}
330
C3
100
AcDbXrecord
280
     1
102
RTVSPropertyOp0
 70
     1
102
RTVSPropertyOp1
 70
     1
102
RTVSPropertyOp2
 70
     1
102
RTVSPropertyOp3
 70
     1
102
RTVSPropertyOp4
 70
     1
102
RTVSPropertyOp5
 70
     1
102
RTVSPropertyOp6
 70
     1
102
RTVSPropertyOp7
 70
     1
102
RTVSPropertyOp8
 70
     1
102
RTVSPropertyOp9
 70
     1
102
RTVSPropertyOp10
 70
     1
102
RTVSPropertyOp11
 70
     1
102
RTVSPropertyOp12
 70
     1
102
RTVSPropertyOp13
 70
     1
102
RTVSPropertyOp14
 70
     1
102
RTVSPropertyOp15
 70
     1
102
RTVSPropertyOp16
 70
     1
102
RTVSPropertyOp17
 70
     1
102
RTVSPropertyOp18
 70
     1
102
RTVSPropertyOp19
 70
     1
102
RTVSPropertyOp20
 70
     1
102
RTVSPropertyOp21
 70
     1
102
RTVSPropertyOp22
 70
     1
102
RTVSPropertyOp23
 70
     1
102
RTVSPropertyOp24
 70
     1
102
RTVSPropertyOp25
 70
     1
102
RTVSPropertyOp26
 70
     1
102
RTVSPropertyOp27
 70
     1
102
RTVSPropertyOp28
 70
     1
102
RTVSPropertyOp29
 70
     1
102
RTVSPropertyOp30
 70
     1
102
RTVSPropertyOp31
 70
     1
102
RTVSPropertyOp32
 70
     1
102
RTVSPropertyOp33
 70
     1
102
RTVSPropertyOp34
 70
     1
102
RTVSPropertyOp35
 70
     1
102
RTVSPropertyOp36
 70
     1
102
RTVSPropertyOp37
 70
     1
102
RTVSPropertyOp38
 70
     1
102
RTVSPropertyOp39
 70
     1
102
RTVSPropertyOp40
 70
     1
102
RTVSPropertyOp41
 70
     1
102
RTVSPropertyOp42
 70
     1
102
RTVSPropertyOp43
 70
     1
102
RTVSPropertyOp44
 70
     1
102
RTVSPropertyOp45
 70
     1
102
RTVSPropertyOp46
 70
     1
102
RTVSPropertyOp47
 70
     1
102
RTVSPropertyOp48
 70
     1
102
RTVSPropertyOp49
 70
     1
102
RTVSPropertyOp50
 70
     1
102
RTVSPropertyOp51
 70
     0
102
RTVSPropertyOp52
 70
     0
102
RTVSPropertyOp53
 70
     1
102
RTVSPropertyOp54
 70
     1
102
RTVSPropertyOp55
 70
     1
102
RTVSPropertyOp56
 70
     1
102
RTVSPropertyOp57
 70
     1
102
RTVSPost2010Prop28
280
     0
102
RTVSPost2010PropOp28
 70
     1
102
RTVSPost2010Prop29
280
     1
102
RTVSPost2010PropOp29
 70
     1
102
RTVSPost2010Prop30
280
     1
102
RTVSPost2010PropOp30
 70
     1
102
RTVSPost2010Prop31
280
     0
102
RTVSPost2010PropOp31
 70
     1
102
RTVSPost2010Prop32
280
     0
102
RTVSPost2010PropOp32
 70
     1
102
RTVSPost2010Prop33
280
     0
102
RTVSPost2010PropOp33
 70
     1
102
RTVSPost2010Prop34
280
     0
102
RTVSPost2010PropOp34
 70
     1
102
RTVSPost2010Prop35
280
     0
102
RTVSPost2010PropOp35
 70
     1
102
RTVSPost2010Prop36
280
     0
102
RTVSPost2010PropOp36
 70
     1
102
RTVSPost2010Prop37
 90
       50
102
RTVSPost2010PropOp37
 70
     1
102
RTVSPost2010Prop38
140
0.0
102
RTVSPost2010PropOp38
 70
     1
102
RTVSPost2010Prop39
140
1.0
102
RTVSPost2010PropOp39
 70
     1
102
RTVSPost2010Prop40
 90
        0
102
RTVSPost2010PropOp40
 70
     1
102
RTVSPost2010Prop41ColorIndex
 90
       18
102
RTVSPost2010Prop41ColorRGB
 90
        0
102
RTVSPost2010PropOp41
 70
     1
102
RTVSPost2010Prop42
 90
       50
102
RTVSPost2010PropOp42
 70
     1
102
RTVSPost2010Prop43
 90
        3
102
RTVSPost2010PropOp43
 70
     1
102
RTVSPost2010Prop44ColorIndex
 90
        5
102
RTVSPost2010Prop44ColorRGB
 90
      255
102
RTVSPost2010PropOp44
 70
     1
102
RTVSPost2010Prop45
280
     0
102
RTVSPost2010PropOp45
 70
     1
102
RTVSPost2010Prop46
 90
       50
102
RTVSPost2010PropOp46
 70
     1
102
RTVSPost2010Prop47
 90
       50
102
RTVSPost2010PropOp47
 70
     1
102
RTVSPost2010Prop48
 90
       50
102
RTVSPost2010PropOp48
 70
     1
102
RTVSPost2010Prop49
280
     0
102
RTVSPost2010PropOp49
 70
     1
102
RTVSPost2010Prop50
 90
       50
102
RTVSPost2010PropOp50
 70
     1
102
RTVSPost2010Prop51ColorIndex
 90
      256
102
RTVSPost2010Prop51ColorRGB
 90
-16777216
102
RTVSPost2010PropOp51
 70
     0
102
RTVSPost2010Prop52
140
1.0
102
RTVSPost2010PropOp52
 70
     0
102
RTVSPost2010Prop53
 90
        2
102
RTVSPost2010PropOp53
 70
     1
102
RTVSPost2010Prop54
  1
strokes_ogs.tif
102
RTVSPost2010PropOp54
 70
     1
102
RTVSPost2010Prop55
280
     0
102
RTVSPost2010PropOp55
 70
     1
102
RTVSPost2010Prop56
140
1.0
102
RTVSPost2010PropOp56
 70
     1
102
RTVSPost2010Prop57
140
1.0
102
RTVSPost2010PropOp57
 70
     1
  0
XRECORD
  5
CA
102
{ACAD_REACTORS
330
C9
102
}
330
C9
100
AcDbXrecord
280
     1
102
RTVSPropertyOp0
 70
     1
102
RTVSPropertyOp1
 70
     1
102
RTVSPropertyOp2
 70
     1
102
RTVSPropertyOp3
 70
     1
102
RTVSPropertyOp4
 70
     1
102
RTVSPropertyOp5
 70
     1
102
RTVSPropertyOp6
 70
     1
102
RTVSPropertyOp7
 70
     1
102
RTVSPropertyOp8
 70
     1
102
RTVSPropertyOp9
 70
     1
102
RTVSPropertyOp10
 70
     1
102
RTVSPropertyOp11
 70
     1
102
RTVSPropertyOp12
 70
     1
102
RTVSPropertyOp13
 70
     1
102
RTVSPropertyOp14
 70
     1
102
RTVSPropertyOp15
 70
     1
102
RTVSPropertyOp16
 70
     1
102
RTVSPropertyOp17
 70
     1
102
RTVSPropertyOp18
 70
     1
102
RTVSPropertyOp19
 70
     1
102
RTVSPropertyOp20
 70
     1
102
RTVSPropertyOp21
 70
     1
102
RTVSPropertyOp22
 70
     1
102
RTVSPropertyOp23
 70
     1
102
RTVSPropertyOp24
 70
     1
102
RTVSPropertyOp25
 70
     1
102
RTVSPropertyOp26
 70
     1
102
RTVSPropertyOp27
 70
     1
102
RTVSPropertyOp28
 70
     1
102
RTVSPropertyOp29
 70
     1
102
RTVSPropertyOp30
 70
     1
102
RTVSPropertyOp31
 70
     1
102
RTVSPropertyOp32
 70
     1
102
RTVSPropertyOp33
 70
     1
102
RTVSPropertyOp34
 70
     1
102
RTVSPropertyOp35
 70
     1
102
RTVSPropertyOp36
 70
     1
102
RTVSPropertyOp37
 70
     1
102
RTVSPropertyOp38
 70
     1
102
RTVSPropertyOp39
 70
     1
102
RTVSPropertyOp40
 70
     1
102
RTVSPropertyOp41
 70
     1
102
RTVSPropertyOp42
 70
     1
102
RTVSPropertyOp43
 70
     1
102
RTVSPropertyOp44
 70
     1
102
RTVSPropertyOp45
 70
     1
102
RTVSPropertyOp46
 70
     1
102
RTVSPropertyOp47
 70
     1
102
RTVSPropertyOp48
 70
     1
102
RTVSPropertyOp49
 70
     1
102
RTVSPropertyOp50
 70
     1
102
RTVSPropertyOp51
 70
     0
102
RTVSPropertyOp52
 70
     0
102
RTVSPropertyOp53
 70
     1
102
RTVSPropertyOp54
 70
     1
102
RTVSPropertyOp55
 70
     1
102
RTVSPropertyOp56
 70
     1
102
RTVSPropertyOp57
 70
     1
102
RTVSPost2010Prop28
280
     0
102
RTVSPost2010PropOp28
 70
     1
102
RTVSPost2010Prop29
280
     1
102
RTVSPost2010PropOp29
 70
     1
102
RTVSPost2010Prop30
280
     1
102
RTVSPost2010PropOp30
 70
     1
102
RTVSPost2010Prop31
280
     0
102
RTVSPost2010PropOp31
 70
     1
102
RTVSPost2010Prop32
280
     0
102
RTVSPost2010PropOp32
 70
     1
102
RTVSPost2010Prop33
280
     0
102
RTVSPost2010PropOp33
 70
     1
102
RTVSPost2010Prop34
280
     0
102
RTVSPost2010PropOp34
 70
     1
102
RTVSPost2010Prop35
280
     0
102
RTVSPost2010PropOp35
 70
     1
102
RTVSPost2010Prop36
280
     0
102
RTVSPost2010PropOp36
 70
     1
102
RTVSPost2010Prop37
 90
       50
102
RTVSPost2010PropOp37
 70
     1
102
RTVSPost2010Prop38
140
0.0
102
RTVSPost2010PropOp38
 70
     1
102
RTVSPost2010Prop39
140
1.0
102
RTVSPost2010PropOp39
 70
     1
102
RTVSPost2010Prop40
 90
        0
102
RTVSPost2010PropOp40
 70
     1
102
RTVSPost2010Prop41ColorIndex
 90
       18
102
RTVSPost2010Prop41ColorRGB
 90
        0
102
RTVSPost2010PropOp41
 70
     1
102
RTVSPost2010Prop42
 90
       50
102
RTVSPost2010PropOp42
 70
     1
102
RTVSPost2010Prop43
 90
        3
102
RTVSPost2010PropOp43
 70
     1
102
RTVSPost2010Prop44ColorIndex
 90
        5
102
RTVSPost2010Prop44ColorRGB
 90
      255
102
RTVSPost2010PropOp44
 70
     1
102
RTVSPost2010Prop45
280
     0
102
RTVSPost2010PropOp45
 70
     1
102
RTVSPost2010Prop46
 90
       50
102
RTVSPost2010PropOp46
 70
     1
102
RTVSPost2010Prop47
 90
       50
102
RTVSPost2010PropOp47
 70
     1
102
RTVSPost2010Prop48
 90
       50
102
RTVSPost2010PropOp48
 70
     1
102
RTVSPost2010Prop49
280
     0
102
RTVSPost2010PropOp49
 70
     1
102
RTVSPost2010Prop50
 90
       50
102
RTVSPost2010PropOp50
 70
     1
102
RTVSPost2010Prop51ColorIndex
 90
      256
102
RTVSPost2010Prop51ColorRGB
 90
-16777216
102
RTVSPost2010PropOp51
 70
     0
102
RTVSPost2010Prop52
140
1.0
102
RTVSPost2010PropOp52
 70
     0
102
RTVSPost2010Prop53
 90
        2
102
RTVSPost2010PropOp53
 70
     1
102
RTVSPost2010Prop54
  1
strokes_ogs.tif
102
RTVSPost2010PropOp54
 70
     1
102
RTVSPost2010Prop55
280
     0
102
RTVSPost2010PropOp55
 70
     1
102
RTVSPost2010Prop56
140
1.0
102
RTVSPost2010PropOp56
 70
     1
102
RTVSPost2010Prop57
140
1.0
102
RTVSPost2010PropOp57
 70
     1
  0
XRECORD
  5
DE
102
{ACAD_REACTORS
330
DD
102
}
330
DD
100
AcDbXrecord
280
     1
102
RTVSPropertyOp0
 70
     0
102
RTVSPropertyOp1
 70
     0
102
RTVSPropertyOp2
 70
     0
102
RTVSPropertyOp3
 70
     0
102
RTVSPropertyOp4
 70
     0
102
RTVSPropertyOp5
 70
     0
102
RTVSPropertyOp6
 70
     0
102
RTVSPropertyOp7
 70
     0
102
RTVSPropertyOp8
 70
     0
102
RTVSPropertyOp9
 70
     0
102
RTVSPropertyOp10
 70
     0
102
RTVSPropertyOp11
 70
     0
102
RTVSPropertyOp12
 70
     0
102
RTVSPropertyOp13
 70
     0
102
RTVSPropertyOp14
 70
     2
102
RTVSPropertyOp15
 70
     0
102
RTVSPropertyOp16
 70
     0
102
RTVSPropertyOp17
 70
     0
102
RTVSPropertyOp18
 70
     0
102
RTVSPropertyOp19
 70
     0
102
RTVSPropertyOp20
 70
     0
102
RTVSPropertyOp21
 70
     0
102
RTVSPropertyOp22
 70
     0
102
RTVSPropertyOp23
 70
     0
102
RTVSPropertyOp24
 70
     0
102
RTVSPropertyOp25
 70
     0
102
RTVSPropertyOp26
 70
     0
102
RTVSPropertyOp27
 70
     0
102
RTVSPropertyOp28
 70
     0
102
RTVSPropertyOp29
 70
     0
102
RTVSPropertyOp30
 70
     0
102
RTVSPropertyOp31
 70
     0
102
RTVSPropertyOp32
 70
     0
102
RTVSPropertyOp33
 70
     0
102
RTVSPropertyOp34
 70
     0
102
RTVSPropertyOp35
 70
     0
102
RTVSPropertyOp36
 70
     0
102
RTVSPropertyOp37
 70
     0
102
RTVSPropertyOp38
 70
     0
102
RTVSPropertyOp39
 70
     0
102
RTVSPropertyOp40
 70
     0
102
RTVSPropertyOp41
 70
     0
102
RTVSPropertyOp42
 70
     0
102
RTVSPropertyOp43
 70
     0
102
RTVSPropertyOp44
 70
     0
102
RTVSPropertyOp45
 70
     0
102
RTVSPropertyOp46
 70
     0
102
RTVSPropertyOp47
 70
     0
102
RTVSPropertyOp48
 70
     0
102
RTVSPropertyOp49
 70
     0
102
RTVSPropertyOp50
 70
     0
102
RTVSPropertyOp51
 70
     0
102
RTVSPropertyOp52
 70
     0
102
RTVSPropertyOp53
 70
     0
102
RTVSPropertyOp54
 70
     0
102
RTVSPropertyOp55
 70
     0
102
RTVSPropertyOp56
 70
     0
102
RTVSPropertyOp57
 70
     0
102
RTVSPost2010Prop28
280
     0
102
RTVSPost2010PropOp28
 70
     0
102
RTVSPost2010Prop29
280
     1
102
RTVSPost2010PropOp29
 70
     0
102
RTVSPost2010Prop30
280
     1
102
RTVSPost2010PropOp30
 70
     0
102
RTVSPost2010Prop31
280
     0
102
RTVSPost2010PropOp31
 70
     0
102
RTVSPost2010Prop32
280
     0
102
RTVSPost2010PropOp32
 70
     0
102
RTVSPost2010Prop33
280
     0
102
RTVSPost2010PropOp33
 70
     0
102
RTVSPost2010Prop34
280
     0
102
RTVSPost2010PropOp34
 70
     0
102
RTVSPost2010Prop35
280
     0
102
RTVSPost2010PropOp35
 70
     0
102
RTVSPost2010Prop36
280
     0
102
RTVSPost2010PropOp36
 70
     0
102
RTVSPost2010Prop37
 90
       50
102
RTVSPost2010PropOp37
 70
     0
102
RTVSPost2010Prop38
140
0.0
102
RTVSPost2010PropOp38
 70
     0
102
RTVSPost2010Prop39
140
1.0
102
RTVSPost2010PropOp39
 70
     0
102
RTVSPost2010Prop40
 90
        0
102
RTVSPost2010PropOp40
 70
     0
102
RTVSPost2010Prop41ColorIndex
 90
       18
102
RTVSPost2010Prop41ColorRGB
 90
        0
102
RTVSPost2010PropOp41
 70
     0
102
RTVSPost2010Prop42
 90
       50
102
RTVSPost2010PropOp42
 70
     0
102
RTVSPost2010Prop43
 90
        3
102
RTVSPost2010PropOp43
 70
     0
102
RTVSPost2010Prop44ColorIndex
 90
        5
102
RTVSPost2010Prop44ColorRGB
 90
      255
102
RTVSPost2010PropOp44
 70
     0
102
RTVSPost2010Prop45
280
     0
102
RTVSPost2010PropOp45
 70
     0
102
RTVSPost2010Prop46
 90
       50
102
RTVSPost2010PropOp46
 70
     0
102
RTVSPost2010Prop47
 90
       50
102
RTVSPost2010PropOp47
 70
     0
102
RTVSPost2010Prop48
 90
       50
102
RTVSPost2010PropOp48
 70
     0
102
RTVSPost2010Prop49
280
     0
102
RTVSPost2010PropOp49
 70
     0
102
RTVSPost2010Prop50
 90
       50
102
RTVSPost2010PropOp50
 70
     0
102
RTVSPost2010Prop51ColorIndex
 90
      256
102
RTVSPost2010Prop51ColorRGB
 90
-16777216
102
RTVSPost2010PropOp51
 70
     0
102
RTVSPost2010Prop52
140
1.0
102
RTVSPost2010PropOp52
 70
     0
102
RTVSPost2010Prop53
 90
        2
102
RTVSPost2010PropOp53
 70
     0
102
RTVSPost2010Prop54
  1
strokes_ogs.tif
102
RTVSPost2010PropOp54
 70
     0
102
RTVSPost2010Prop55
280
     0
102
RTVSPost2010PropOp55
 70
     0
102
RTVSPost2010Prop56
140
1.0
102
RTVSPost2010PropOp56
 70
     0
102
RTVSPost2010Prop57
140
1.0
102
RTVSPost2010PropOp57
 70
     0
  0
XRECORD
  5
D8
102
{ACAD_REACTORS
330
D7
102
}
330
D7
100
AcDbXrecord
280
     1
102
RTVSPropertyOp0
 70
     1
102
RTVSPropertyOp1
 70
     1
102
RTVSPropertyOp2
 70
     1
102
RTVSPropertyOp3
 70
     1
102
RTVSPropertyOp4
 70
     1
102
RTVSPropertyOp5
 70
     1
102
RTVSPropertyOp6
 70
     1
102
RTVSPropertyOp7
 70
     1
102
RTVSPropertyOp8
 70
     1
102
RTVSPropertyOp9
 70
     1
102
RTVSPropertyOp10
 70
     1
102
RTVSPropertyOp11
 70
     1
102
RTVSPropertyOp12
 70
     1
102
RTVSPropertyOp13
 70
     1
102
RTVSPropertyOp14
 70
     1
102
RTVSPropertyOp15
 70
     1
102
RTVSPropertyOp16
 70
     1
102
RTVSPropertyOp17
 70
     1
102
RTVSPropertyOp18
 70
     1
102
RTVSPropertyOp19
 70
     1
102
RTVSPropertyOp20
 70
     1
102
RTVSPropertyOp21
 70
     1
102
RTVSPropertyOp22
 70
     1
102
RTVSPropertyOp23
 70
     1
102
RTVSPropertyOp24
 70
     1
102
RTVSPropertyOp25
 70
     1
102
RTVSPropertyOp26
 70
     1
102
RTVSPropertyOp27
 70
     1
102
RTVSPropertyOp28
 70
     1
102
RTVSPropertyOp29
 70
     1
102
RTVSPropertyOp30
 70
     1
102
RTVSPropertyOp31
 70
     1
102
RTVSPropertyOp32
 70
     1
102
RTVSPropertyOp33
 70
     1
102
RTVSPropertyOp34
 70
     1
102
RTVSPropertyOp35
 70
     1
102
RTVSPropertyOp36
 70
     1
102
RTVSPropertyOp37
 70
     1
102
RTVSPropertyOp38
 70
     1
102
RTVSPropertyOp39
 70
     1
102
RTVSPropertyOp40
 70
     1
102
RTVSPropertyOp41
 70
     1
102
RTVSPropertyOp42
 70
     1
102
RTVSPropertyOp43
 70
     1
102
RTVSPropertyOp44
 70
     1
102
RTVSPropertyOp45
 70
     1
102
RTVSPropertyOp46
 70
     1
102
RTVSPropertyOp47
 70
     1
102
RTVSPropertyOp48
 70
     1
102
RTVSPropertyOp49
 70
     1
102
RTVSPropertyOp50
 70
     1
102
RTVSPropertyOp51
 70
     0
102
RTVSPropertyOp52
 70
     0
102
RTVSPropertyOp53
 70
     1
102
RTVSPropertyOp54
 70
     1
102
RTVSPropertyOp55
 70
     1
102
RTVSPropertyOp56
 70
     1
102
RTVSPropertyOp57
 70
     1
102
RTVSPost2010Prop28
280
     0
102
RTVSPost2010PropOp28
 70
     1
102
RTVSPost2010Prop29
280
     1
102
RTVSPost2010PropOp29
 70
     1
102
RTVSPost2010Prop30
280
     1
102
RTVSPost2010PropOp30
 70
     1
102
RTVSPost2010Prop31
280
     0
102
RTVSPost2010PropOp31
 70
     1
102
RTVSPost2010Prop32
280
     0
102
RTVSPost2010PropOp32
 70
     1
102
RTVSPost2010Prop33
280
     0
102
RTVSPost2010PropOp33
 70
     1
102
RTVSPost2010Prop34
280
     0
102
RTVSPost2010PropOp34
 70
     1
102
RTVSPost2010Prop35
280
     0
102
RTVSPost2010PropOp35
 70
     1
102
RTVSPost2010Prop36
280
     0
102
RTVSPost2010PropOp36
 70
     1
102
RTVSPost2010Prop37
 90
       50
102
RTVSPost2010PropOp37
 70
     1
102
RTVSPost2010Prop38
140
0.0
102
RTVSPost2010PropOp38
 70
     1
102
RTVSPost2010Prop39
140
1.0
102
RTVSPost2010PropOp39
 70
     1
102
RTVSPost2010Prop40
 90
        0
102
RTVSPost2010PropOp40
 70
     1
102
RTVSPost2010Prop41ColorIndex
 90
       18
102
RTVSPost2010Prop41ColorRGB
 90
        0
102
RTVSPost2010PropOp41
 70
     1
102
RTVSPost2010Prop42
 90
       50
102
RTVSPost2010PropOp42
 70
     1
102
RTVSPost2010Prop43
 90
        3
102
RTVSPost2010PropOp43
 70
     1
102
RTVSPost2010Prop44ColorIndex
 90
        5
102
RTVSPost2010Prop44ColorRGB
 90
      255
102
RTVSPost2010PropOp44
 70
     1
102
RTVSPost2010Prop45
280
     0
102
RTVSPost2010PropOp45
 70
     1
102
RTVSPost2010Prop46
 90
       50
102
RTVSPost2010PropOp46
 70
     1
102
RTVSPost2010Prop47
 90
       50
102
RTVSPost2010PropOp47
 70
     1
102
RTVSPost2010Prop48
 90
       50
102
RTVSPost2010PropOp48
 70
     1
102
RTVSPost2010Prop49
280
     0
102
RTVSPost2010PropOp49
 70
     1
102
RTVSPost2010Prop50
 90
       50
102
RTVSPost2010PropOp50
 70
     1
102
RTVSPost2010Prop51ColorIndex
 90
      256
102
RTVSPost2010Prop51ColorRGB
 90
-16777216
102
RTVSPost2010PropOp51
 70
     0
102
RTVSPost2010Prop52
140
1.0
102
RTVSPost2010PropOp52
 70
     0
102
RTVSPost2010Prop53
 90
        2
102
RTVSPost2010PropOp53
 70
     1
102
RTVSPost2010Prop54
  1
strokes_ogs.tif
102
RTVSPost2010PropOp54
 70
     1
102
RTVSPost2010Prop55
280
     0
102
RTVSPost2010PropOp55
 70
     1
102
RTVSPost2010Prop56
140
1.0
102
RTVSPost2010PropOp56
 70
     1
102
RTVSPost2010Prop57
140
1.0
102
RTVSPost2010PropOp57
 70
     1
  0
XRECORD
  5
E0
102
{ACAD_REACTORS
330
DF
102
}
330
DF
100
AcDbXrecord
280
     1
102
RTVSPropertyOp0
 70
     0
102
RTVSPropertyOp1
 70
     0
102
RTVSPropertyOp2
 70
     0
102
RTVSPropertyOp3
 70
     0
102
RTVSPropertyOp4
 70
     0
102
RTVSPropertyOp5
 70
     0
102
RTVSPropertyOp6
 70
     0
102
RTVSPropertyOp7
 70
     0
102
RTVSPropertyOp8
 70
     0
102
RTVSPropertyOp9
 70
     0
102
RTVSPropertyOp10
 70
     0
102
RTVSPropertyOp11
 70
     0
102
RTVSPropertyOp12
 70
     0
102
RTVSPropertyOp13
 70
     0
102
RTVSPropertyOp14
 70
     2
102
RTVSPropertyOp15
 70
     0
102
RTVSPropertyOp16
 70
     0
102
RTVSPropertyOp17
 70
     0
102
RTVSPropertyOp18
 70
     0
102
RTVSPropertyOp19
 70
     0
102
RTVSPropertyOp20
 70
     0
102
RTVSPropertyOp21
 70
     0
102
RTVSPropertyOp22
 70
     0
102
RTVSPropertyOp23
 70
     0
102
RTVSPropertyOp24
 70
     0
102
RTVSPropertyOp25
 70
     0
102
RTVSPropertyOp26
 70
     0
102
RTVSPropertyOp27
 70
     0
102
RTVSPropertyOp28
 70
     0
102
RTVSPropertyOp29
 70
     0
102
RTVSPropertyOp30
 70
     0
102
RTVSPropertyOp31
 70
     0
102
RTVSPropertyOp32
 70
     0
102
RTVSPropertyOp33
 70
     0
102
RTVSPropertyOp34
 70
     0
102
RTVSPropertyOp35
 70
     0
102
RTVSPropertyOp36
 70
     0
102
RTVSPropertyOp37
 70
     0
102
RTVSPropertyOp38
 70
     0
102
RTVSPropertyOp39
 70
     0
102
RTVSPropertyOp40
 70
     0
102
RTVSPropertyOp41
 70
     0
102
RTVSPropertyOp42
 70
     0
102
RTVSPropertyOp43
 70
     0
102
RTVSPropertyOp44
 70
     0
102
RTVSPropertyOp45
 70
     0
102
RTVSPropertyOp46
 70
     0
102
RTVSPropertyOp47
 70
     0
102
RTVSPropertyOp48
 70
     0
102
RTVSPropertyOp49
 70
     0
102
RTVSPropertyOp50
 70
     0
102
RTVSPropertyOp51
 70
     0
102
RTVSPropertyOp52
 70
     0
102
RTVSPropertyOp53
 70
     0
102
RTVSPropertyOp54
 70
     0
102
RTVSPropertyOp55
 70
     0
102
RTVSPropertyOp56
 70
     0
102
RTVSPropertyOp57
 70
     0
102
RTVSPost2010Prop28
280
     0
102
RTVSPost2010PropOp28
 70
     0
102
RTVSPost2010Prop29
280
     1
102
RTVSPost2010PropOp29
 70
     0
102
RTVSPost2010Prop30
280
     1
102
RTVSPost2010PropOp30
 70
     0
102
RTVSPost2010Prop31
280
     0
102
RTVSPost2010PropOp31
 70
     0
102
RTVSPost2010Prop32
280
     0
102
RTVSPost2010PropOp32
 70
     0
102
RTVSPost2010Prop33
280
     0
102
RTVSPost2010PropOp33
 70
     0
102
RTVSPost2010Prop34
280
     0
102
RTVSPost2010PropOp34
 70
     0
102
RTVSPost2010Prop35
280
     0
102
RTVSPost2010PropOp35
 70
     0
102
RTVSPost2010Prop36
280
     0
102
RTVSPost2010PropOp36
 70
     0
102
RTVSPost2010Prop37
 90
       50
102
RTVSPost2010PropOp37
 70
     0
102
RTVSPost2010Prop38
140
0.0
102
RTVSPost2010PropOp38
 70
     0
102
RTVSPost2010Prop39
140
1.0
102
RTVSPost2010PropOp39
 70
     0
102
RTVSPost2010Prop40
 90
        0
102
RTVSPost2010PropOp40
 70
     0
102
RTVSPost2010Prop41ColorIndex
 90
       18
102
RTVSPost2010Prop41ColorRGB
 90
        0
102
RTVSPost2010PropOp41
 70
     0
102
RTVSPost2010Prop42
 90
       50
102
RTVSPost2010PropOp42
 70
     0
102
RTVSPost2010Prop43
 90
        3
102
RTVSPost2010PropOp43
 70
     0
102
RTVSPost2010Prop44ColorIndex
 90
        5
102
RTVSPost2010Prop44ColorRGB
 90
      255
102
RTVSPost2010PropOp44
 70
     0
102
RTVSPost2010Prop45
280
     0
102
RTVSPost2010PropOp45
 70
     0
102
RTVSPost2010Prop46
 90
       50
102
RTVSPost2010PropOp46
 70
     0
102
RTVSPost2010Prop47
 90
       50
102
RTVSPost2010PropOp47
 70
     0
102
RTVSPost2010Prop48
 90
       50
102
RTVSPost2010PropOp48
 70
     0
102
RTVSPost2010Prop49
280
     0
102
RTVSPost2010PropOp49
 70
     0
102
RTVSPost2010Prop50
 90
       50
102
RTVSPost2010PropOp50
 70
     0
102
RTVSPost2010Prop51ColorIndex
 90
      256
102
RTVSPost2010Prop51ColorRGB
 90
-16777216
102
RTVSPost2010PropOp51
 70
     0
102
RTVSPost2010Prop52
140
1.0
102
RTVSPost2010PropOp52
 70
     0
102
RTVSPost2010Prop53
 90
        2
102
RTVSPost2010PropOp53
 70
     0
102
RTVSPost2010Prop54
  1
strokes_ogs.tif
102
RTVSPost2010PropOp54
 70
     0
102
RTVSPost2010Prop55
280
     0
102
RTVSPost2010PropOp55
 70
     0
102
RTVSPost2010Prop56
140
1.0
102
RTVSPost2010PropOp56
 70
     0
102
RTVSPost2010Prop57
140
1.0
102
RTVSPost2010PropOp57
 70
     0
  0
XRECORD
  5
CE
102
{ACAD_REACTORS
330
CD
102
}
330
CD
100
AcDbXrecord
280
     1
102
RTVSPropertyOp0
 70
     1
102
RTVSPropertyOp1
 70
     1
102
RTVSPropertyOp2
 70
     1
102
RTVSPropertyOp3
 70
     1
102
RTVSPropertyOp4
 70
     1
102
RTVSPropertyOp5
 70
     1
102
RTVSPropertyOp6
 70
     1
102
RTVSPropertyOp7
 70
     1
102
RTVSPropertyOp8
 70
     1
102
RTVSPropertyOp9
 70
     1
102
RTVSPropertyOp10
 70
     1
102
RTVSPropertyOp11
 70
     1
102
RTVSPropertyOp12
 70
     1
102
RTVSPropertyOp13
 70
     1
102
RTVSPropertyOp14
 70
     1
102
RTVSPropertyOp15
 70
     1
102
RTVSPropertyOp16
 70
     1
102
RTVSPropertyOp17
 70
     1
102
RTVSPropertyOp18
 70
     1
102
RTVSPropertyOp19
 70
     1
102
RTVSPropertyOp20
 70
     1
102
RTVSPropertyOp21
 70
     1
102
RTVSPropertyOp22
 70
     1
102
RTVSPropertyOp23
 70
     1
102
RTVSPropertyOp24
 70
     1
102
RTVSPropertyOp25
 70
     1
102
RTVSPropertyOp26
 70
     1
102
RTVSPropertyOp27
 70
     1
102
RTVSPropertyOp28
 70
     1
102
RTVSPropertyOp29
 70
     1
102
RTVSPropertyOp30
 70
     1
102
RTVSPropertyOp31
 70
     1
102
RTVSPropertyOp32
 70
     1
102
RTVSPropertyOp33
 70
     1
102
RTVSPropertyOp34
 70
     1
102
RTVSPropertyOp35
 70
     1
102
RTVSPropertyOp36
 70
     1
102
RTVSPropertyOp37
 70
     1
102
RTVSPropertyOp38
 70
     1
102
RTVSPropertyOp39
 70
     1
102
RTVSPropertyOp40
 70
     1
102
RTVSPropertyOp41
 70
     1
102
RTVSPropertyOp42
 70
     1
102
RTVSPropertyOp43
 70
     1
102
RTVSPropertyOp44
 70
     1
102
RTVSPropertyOp45
 70
     1
102
RTVSPropertyOp46
 70
     1
102
RTVSPropertyOp47
 70
     1
102
RTVSPropertyOp48
 70
     1
102
RTVSPropertyOp49
 70
     1
102
RTVSPropertyOp50
 70
     1
102
RTVSPropertyOp51
 70
     0
102
RTVSPropertyOp52
 70
     0
102
RTVSPropertyOp53
 70
     1
102
RTVSPropertyOp54
 70
     1
102
RTVSPropertyOp55
 70
     1
102
RTVSPropertyOp56
 70
     1
102
RTVSPropertyOp57
 70
     1
102
RTVSPost2010Prop28
280
     0
102
RTVSPost2010PropOp28
 70
     1
102
RTVSPost2010Prop29
280
     1
102
RTVSPost2010PropOp29
 70
     1
102
RTVSPost2010Prop30
280
     1
102
RTVSPost2010PropOp30
 70
     1
102
RTVSPost2010Prop31
280
     0
102
RTVSPost2010PropOp31
 70
     1
102
RTVSPost2010Prop32
280
     0
102
RTVSPost2010PropOp32
 70
     1
102
RTVSPost2010Prop33
280
     0
102
RTVSPost2010PropOp33
 70
     1
102
RTVSPost2010Prop34
280
     0
102
RTVSPost2010PropOp34
 70
     1
102
RTVSPost2010Prop35
280
     0
102
RTVSPost2010PropOp35
 70
     1
102
RTVSPost2010Prop36
280
     0
102
RTVSPost2010PropOp36
 70
     1
102
RTVSPost2010Prop37
 90
       50
102
RTVSPost2010PropOp37
 70
     1
102
RTVSPost2010Prop38
140
0.0
102
RTVSPost2010PropOp38
 70
     1
102
RTVSPost2010Prop39
140
1.0
102
RTVSPost2010PropOp39
 70
     1
102
RTVSPost2010Prop40
 90
        0
102
RTVSPost2010PropOp40
 70
     1
102
RTVSPost2010Prop41ColorIndex
 90
       18
102
RTVSPost2010Prop41ColorRGB
 90
        0
102
RTVSPost2010PropOp41
 70
     1
102
RTVSPost2010Prop42
 90
       50
102
RTVSPost2010PropOp42
 70
     1
102
RTVSPost2010Prop43
 90
        3
102
RTVSPost2010PropOp43
 70
     1
102
RTVSPost2010Prop44ColorIndex
 90
        5
102
RTVSPost2010Prop44ColorRGB
 90
      255
102
RTVSPost2010PropOp44
 70
     1
102
RTVSPost2010Prop45
280
     0
102
RTVSPost2010PropOp45
 70
     1
102
RTVSPost2010Prop46
 90
       50
102
RTVSPost2010PropOp46
 70
     1
102
RTVSPost2010Prop47
 90
       50
102
RTVSPost2010PropOp47
 70
     1
102
RTVSPost2010Prop48
 90
       50
102
RTVSPost2010PropOp48
 70
     1
102
RTVSPost2010Prop49
280
     0
102
RTVSPost2010PropOp49
 70
     1
102
RTVSPost2010Prop50
 90
       50
102
RTVSPost2010PropOp50
 70
     1
102
RTVSPost2010Prop51ColorIndex
 90
      256
102
RTVSPost2010Prop51ColorRGB
 90
-16777216
102
RTVSPost2010PropOp51
 70
     0
102
RTVSPost2010Prop52
140
1.0
102
RTVSPost2010PropOp52
 70
     0
102
RTVSPost2010Prop53
 90
        2
102
RTVSPost2010PropOp53
 70
     1
102
RTVSPost2010Prop54
  1
strokes_ogs.tif
102
RTVSPost2010PropOp54
 70
     1
102
RTVSPost2010Prop55
280
     0
102
RTVSPost2010PropOp55
 70
     1
102
RTVSPost2010Prop56
140
1.0
102
RTVSPost2010PropOp56
 70
     1
102
RTVSPost2010Prop57
140
1.0
102
RTVSPost2010PropOp57
 70
     1
  0
XRECORD
  5
EC
102
{ACAD_REACTORS
330
EB
102
}
330
EB
100
AcDbXrecord
280
     1
102
RTVSPropertyOp0
 70
     1
102
RTVSPropertyOp1
 70
     1
102
RTVSPropertyOp2
 70
     1
102
RTVSPropertyOp3
 70
     1
102
RTVSPropertyOp4
 70
     1
102
RTVSPropertyOp5
 70
     1
102
RTVSPropertyOp6
 70
     1
102
RTVSPropertyOp7
 70
     1
102
RTVSPropertyOp8
 70
     1
102
RTVSPropertyOp9
 70
     1
102
RTVSPropertyOp10
 70
     1
102
RTVSPropertyOp11
 70
     1
102
RTVSPropertyOp12
 70
     1
102
RTVSPropertyOp13
 70
     1
102
RTVSPropertyOp14
 70
     1
102
RTVSPropertyOp15
 70
     1
102
RTVSPropertyOp16
 70
     1
102
RTVSPropertyOp17
 70
     1
102
RTVSPropertyOp18
 70
     1
102
RTVSPropertyOp19
 70
     1
102
RTVSPropertyOp20
 70
     1
102
RTVSPropertyOp21
 70
     1
102
RTVSPropertyOp22
 70
     1
102
RTVSPropertyOp23
 70
     1
102
RTVSPropertyOp24
 70
     1
102
RTVSPropertyOp25
 70
     1
102
RTVSPropertyOp26
 70
     1
102
RTVSPropertyOp27
 70
     1
102
RTVSPropertyOp28
 70
     1
102
RTVSPropertyOp29
 70
     1
102
RTVSPropertyOp30
 70
     1
102
RTVSPropertyOp31
 70
     1
102
RTVSPropertyOp32
 70
     1
102
RTVSPropertyOp33
 70
     1
102
RTVSPropertyOp34
 70
     1
102
RTVSPropertyOp35
 70
     1
102
RTVSPropertyOp36
 70
     1
102
RTVSPropertyOp37
 70
     1
102
RTVSPropertyOp38
 70
     1
102
RTVSPropertyOp39
 70
     1
102
RTVSPropertyOp40
 70
     1
102
RTVSPropertyOp41
 70
     1
102
RTVSPropertyOp42
 70
     1
102
RTVSPropertyOp43
 70
     1
102
RTVSPropertyOp44
 70
     1
102
RTVSPropertyOp45
 70
     1
102
RTVSPropertyOp46
 70
     1
102
RTVSPropertyOp47
 70
     1
102
RTVSPropertyOp48
 70
     1
102
RTVSPropertyOp49
 70
     1
102
RTVSPropertyOp50
 70
     1
102
RTVSPropertyOp51
 70
     0
102
RTVSPropertyOp52
 70
     0
102
RTVSPropertyOp53
 70
     1
102
RTVSPropertyOp54
 70
     1
102
RTVSPropertyOp55
 70
     1
102
RTVSPropertyOp56
 70
     1
102
RTVSPropertyOp57
 70
     1
102
RTVSPost2010Prop28
280
     0
102
RTVSPost2010PropOp28
 70
     1
102
RTVSPost2010Prop29
280
     1
102
RTVSPost2010PropOp29
 70
     1
102
RTVSPost2010Prop30
280
     1
102
RTVSPost2010PropOp30
 70
     1
102
RTVSPost2010Prop31
280
     0
102
RTVSPost2010PropOp31
 70
     1
102
RTVSPost2010Prop32
280
     0
102
RTVSPost2010PropOp32
 70
     1
102
RTVSPost2010Prop33
280
     0
102
RTVSPost2010PropOp33
 70
     1
102
RTVSPost2010Prop34
280
     0
102
RTVSPost2010PropOp34
 70
     1
102
RTVSPost2010Prop35
280
     0
102
RTVSPost2010PropOp35
 70
     1
102
RTVSPost2010Prop36
280
     0
102
RTVSPost2010PropOp36
 70
     1
102
RTVSPost2010Prop37
 90
       50
102
RTVSPost2010PropOp37
 70
     1
102
RTVSPost2010Prop38
140
0.0
102
RTVSPost2010PropOp38
 70
     1
102
RTVSPost2010Prop39
140
1.0
102
RTVSPost2010PropOp39
 70
     1
102
RTVSPost2010Prop40
 90
        0
102
RTVSPost2010PropOp40
 70
     1
102
RTVSPost2010Prop41ColorIndex
 90
       18
102
RTVSPost2010Prop41ColorRGB
 90
        0
102
RTVSPost2010PropOp41
 70
     1
102
RTVSPost2010Prop42
 90
       50
102
RTVSPost2010PropOp42
 70
     1
102
RTVSPost2010Prop43
 90
        3
102
RTVSPost2010PropOp43
 70
     1
102
RTVSPost2010Prop44ColorIndex
 90
        5
102
RTVSPost2010Prop44ColorRGB
 90
      255
102
RTVSPost2010PropOp44
 70
     1
102
RTVSPost2010Prop45
280
     0
102
RTVSPost2010PropOp45
 70
     1
102
RTVSPost2010Prop46
 90
       50
102
RTVSPost2010PropOp46
 70
     1
102
RTVSPost2010Prop47
 90
       50
102
RTVSPost2010PropOp47
 70
     1
102
RTVSPost2010Prop48
 90
       50
102
RTVSPost2010PropOp48
 70
     1
102
RTVSPost2010Prop49
280
     0
102
RTVSPost2010PropOp49
 70
     1
102
RTVSPost2010Prop50
 90
       50
102
RTVSPost2010PropOp50
 70
     1
102
RTVSPost2010Prop51ColorIndex
 90
      256
102
RTVSPost2010Prop51ColorRGB
 90
-16777216
102
RTVSPost2010PropOp51
 70
     0
102
RTVSPost2010Prop52
140
1.0
102
RTVSPost2010PropOp52
 70
     0
102
RTVSPost2010Prop53
 90
        2
102
RTVSPost2010PropOp53
 70
     1
102
RTVSPost2010Prop54
  1
strokes_ogs.tif
102
RTVSPost2010PropOp54
 70
     1
102
RTVSPost2010Prop55
280
     0
102
RTVSPost2010PropOp55
 70
     1
102
RTVSPost2010Prop56
140
1.0
102
RTVSPost2010PropOp56
 70
     1
102
RTVSPost2010Prop57
140
1.0
102
RTVSPost2010PropOp57
 70
     1
  0
XRECORD
  5
EA
102
{ACAD_REACTORS
330
E9
102
}
330
E9
100
AcDbXrecord
280
     1
102
RTVSPropertyOp0
 70
     1
102
RTVSPropertyOp1
 70
     1
102
RTVSPropertyOp2
 70
     1
102
RTVSPropertyOp3
 70
     1
102
RTVSPropertyOp4
 70
     1
102
RTVSPropertyOp5
 70
     1
102
RTVSPropertyOp6
 70
     1
102
RTVSPropertyOp7
 70
     1
102
RTVSPropertyOp8
 70
     1
102
RTVSPropertyOp9
 70
     1
102
RTVSPropertyOp10
 70
     1
102
RTVSPropertyOp11
 70
     1
102
RTVSPropertyOp12
 70
     1
102
RTVSPropertyOp13
 70
     1
102
RTVSPropertyOp14
 70
     1
102
RTVSPropertyOp15
 70
     1
102
RTVSPropertyOp16
 70
     1
102
RTVSPropertyOp17
 70
     1
102
RTVSPropertyOp18
 70
     1
102
RTVSPropertyOp19
 70
     1
102
RTVSPropertyOp20
 70
     1
102
RTVSPropertyOp21
 70
     1
102
RTVSPropertyOp22
 70
     1
102
RTVSPropertyOp23
 70
     1
102
RTVSPropertyOp24
 70
     1
102
RTVSPropertyOp25
 70
     1
102
RTVSPropertyOp26
 70
     1
102
RTVSPropertyOp27
 70
     1
102
RTVSPropertyOp28
 70
     1
102
RTVSPropertyOp29
 70
     1
102
RTVSPropertyOp30
 70
     1
102
RTVSPropertyOp31
 70
     1
102
RTVSPropertyOp32
 70
     1
102
RTVSPropertyOp33
 70
     1
102
RTVSPropertyOp34
 70
     1
102
RTVSPropertyOp35
 70
     1
102
RTVSPropertyOp36
 70
     1
102
RTVSPropertyOp37
 70
     1
102
RTVSPropertyOp38
 70
     1
102
RTVSPropertyOp39
 70
     1
102
RTVSPropertyOp40
 70
     1
102
RTVSPropertyOp41
 70
     1
102
RTVSPropertyOp42
 70
     1
102
RTVSPropertyOp43
 70
     1
102
RTVSPropertyOp44
 70
     1
102
RTVSPropertyOp45
 70
     1
102
RTVSPropertyOp46
 70
     1
102
RTVSPropertyOp47
 70
     1
102
RTVSPropertyOp48
 70
     1
102
RTVSPropertyOp49
 70
     1
102
RTVSPropertyOp50
 70
     1
102
RTVSPropertyOp51
 70
     0
102
RTVSPropertyOp52
 70
     0
102
RTVSPropertyOp53
 70
     1
102
RTVSPropertyOp54
 70
     1
102
RTVSPropertyOp55
 70
     1
102
RTVSPropertyOp56
 70
     1
102
RTVSPropertyOp57
 70
     1
102
RTVSPost2010Prop28
280
     0
102
RTVSPost2010PropOp28
 70
     1
102
RTVSPost2010Prop29
280
     1
102
RTVSPost2010PropOp29
 70
     1
102
RTVSPost2010Prop30
280
     1
102
RTVSPost2010PropOp30
 70
     1
102
RTVSPost2010Prop31
280
     0
102
RTVSPost2010PropOp31
 70
     1
102
RTVSPost2010Prop32
280
     0
102
RTVSPost2010PropOp32
 70
     1
102
RTVSPost2010Prop33
280
     0
102
RTVSPost2010PropOp33
 70
     1
102
RTVSPost2010Prop34
280
     0
102
RTVSPost2010PropOp34
 70
     1
102
RTVSPost2010Prop35
280
     0
102
RTVSPost2010PropOp35
 70
     1
102
RTVSPost2010Prop36
280
     0
102
RTVSPost2010PropOp36
 70
     1
102
RTVSPost2010Prop37
 90
       50
102
RTVSPost2010PropOp37
 70
     1
102
RTVSPost2010Prop38
140
0.0
102
RTVSPost2010PropOp38
 70
     1
102
RTVSPost2010Prop39
140
1.0
102
RTVSPost2010PropOp39
 70
     1
102
RTVSPost2010Prop40
 90
        0
102
RTVSPost2010PropOp40
 70
     1
102
RTVSPost2010Prop41ColorIndex
 90
       18
102
RTVSPost2010Prop41ColorRGB
 90
        0
102
RTVSPost2010PropOp41
 70
     1
102
RTVSPost2010Prop42
 90
       50
102
RTVSPost2010PropOp42
 70
     1
102
RTVSPost2010Prop43
 90
        3
102
RTVSPost2010PropOp43
 70
     1
102
RTVSPost2010Prop44ColorIndex
 90
        5
102
RTVSPost2010Prop44ColorRGB
 90
      255
102
RTVSPost2010PropOp44
 70
     1
102
RTVSPost2010Prop45
280
     0
102
RTVSPost2010PropOp45
 70
     1
102
RTVSPost2010Prop46
 90
       50
102
RTVSPost2010PropOp46
 70
     1
102
RTVSPost2010Prop47
 90
       50
102
RTVSPost2010PropOp47
 70
     1
102
RTVSPost2010Prop48
 90
       50
102
RTVSPost2010PropOp48
 70
     1
102
RTVSPost2010Prop49
280
     0
102
RTVSPost2010PropOp49
 70
     1
102
RTVSPost2010Prop50
 90
       50
102
RTVSPost2010PropOp50
 70
     1
102
RTVSPost2010Prop51ColorIndex
 90
      256
102
RTVSPost2010Prop51ColorRGB
 90
-16777216
102
RTVSPost2010PropOp51
 70
     0
102
RTVSPost2010Prop52
140
1.0
102
RTVSPost2010PropOp52
 70
     0
102
RTVSPost2010Prop53
 90
        2
102
RTVSPost2010PropOp53
 70
     1
102
RTVSPost2010Prop54
  1
strokes_ogs.tif
102
RTVSPost2010PropOp54
 70
     1
102
RTVSPost2010Prop55
280
     0
102
RTVSPost2010PropOp55
 70
     1
102
RTVSPost2010Prop56
140
1.0
102
RTVSPost2010PropOp56
 70
     1
102
RTVSPost2010Prop57
140
1.0
102
RTVSPost2010PropOp57
 70
     1
  0
XRECORD
  5
E4
102
{ACAD_REACTORS
330
E3
102
}
330
E3
100
AcDbXrecord
280
     1
102
RTVSPropertyOp0
 70
     1
102
RTVSPropertyOp1
 70
     1
102
RTVSPropertyOp2
 70
     1
102
RTVSPropertyOp3
 70
     1
102
RTVSPropertyOp4
 70
     1
102
RTVSPropertyOp5
 70
     1
102
RTVSPropertyOp6
 70
     1
102
RTVSPropertyOp7
 70
     1
102
RTVSPropertyOp8
 70
     1
102
RTVSPropertyOp9
 70
     1
102
RTVSPropertyOp10
 70
     1
102
RTVSPropertyOp11
 70
     1
102
RTVSPropertyOp12
 70
     1
102
RTVSPropertyOp13
 70
     1
102
RTVSPropertyOp14
 70
     1
102
RTVSPropertyOp15
 70
     1
102
RTVSPropertyOp16
 70
     1
102
RTVSPropertyOp17
 70
     1
102
RTVSPropertyOp18
 70
     1
102
RTVSPropertyOp19
 70
     1
102
RTVSPropertyOp20
 70
     1
102
RTVSPropertyOp21
 70
     1
102
RTVSPropertyOp22
 70
     1
102
RTVSPropertyOp23
 70
     1
102
RTVSPropertyOp24
 70
     1
102
RTVSPropertyOp25
 70
     1
102
RTVSPropertyOp26
 70
     1
102
RTVSPropertyOp27
 70
     1
102
RTVSPropertyOp28
 70
     1
102
RTVSPropertyOp29
 70
     1
102
RTVSPropertyOp30
 70
     1
102
RTVSPropertyOp31
 70
     1
102
RTVSPropertyOp32
 70
     1
102
RTVSPropertyOp33
 70
     1
102
RTVSPropertyOp34
 70
     1
102
RTVSPropertyOp35
 70
     1
102
RTVSPropertyOp36
 70
     1
102
RTVSPropertyOp37
 70
     1
102
RTVSPropertyOp38
 70
     1
102
RTVSPropertyOp39
 70
     1
102
RTVSPropertyOp40
 70
     1
102
RTVSPropertyOp41
 70
     1
102
RTVSPropertyOp42
 70
     1
102
RTVSPropertyOp43
 70
     1
102
RTVSPropertyOp44
 70
     1
102
RTVSPropertyOp45
 70
     1
102
RTVSPropertyOp46
 70
     1
102
RTVSPropertyOp47
 70
     1
102
RTVSPropertyOp48
 70
     1
102
RTVSPropertyOp49
 70
     1
102
RTVSPropertyOp50
 70
     1
102
RTVSPropertyOp51
 70
     0
102
RTVSPropertyOp52
 70
     0
102
RTVSPropertyOp53
 70
     1
102
RTVSPropertyOp54
 70
     1
102
RTVSPropertyOp55
 70
     1
102
RTVSPropertyOp56
 70
     1
102
RTVSPropertyOp57
 70
     1
102
RTVSPost2010Prop28
280
     0
102
RTVSPost2010PropOp28
 70
     1
102
RTVSPost2010Prop29
280
     1
102
RTVSPost2010PropOp29
 70
     1
102
RTVSPost2010Prop30
280
     1
102
RTVSPost2010PropOp30
 70
     1
102
RTVSPost2010Prop31
280
     0
102
RTVSPost2010PropOp31
 70
     1
102
RTVSPost2010Prop32
280
     0
102
RTVSPost2010PropOp32
 70
     1
102
RTVSPost2010Prop33
280
     0
102
RTVSPost2010PropOp33
 70
     1
102
RTVSPost2010Prop34
280
     0
102
RTVSPost2010PropOp34
 70
     1
102
RTVSPost2010Prop35
280
     0
102
RTVSPost2010PropOp35
 70
     1
102
RTVSPost2010Prop36
280
     0
102
RTVSPost2010PropOp36
 70
     1
102
RTVSPost2010Prop37
 90
       50
102
RTVSPost2010PropOp37
 70
     1
102
RTVSPost2010Prop38
140
0.0
102
RTVSPost2010PropOp38
 70
     1
102
RTVSPost2010Prop39
140
1.0
102
RTVSPost2010PropOp39
 70
     1
102
RTVSPost2010Prop40
 90
        0
102
RTVSPost2010PropOp40
 70
     1
102
RTVSPost2010Prop41ColorIndex
 90
       18
102
RTVSPost2010Prop41ColorRGB
 90
        0
102
RTVSPost2010PropOp41
 70
     1
102
RTVSPost2010Prop42
 90
       50
102
RTVSPost2010PropOp42
 70
     1
102
RTVSPost2010Prop43
 90
        3
102
RTVSPost2010PropOp43
 70
     1
102
RTVSPost2010Prop44ColorIndex
 90
        5
102
RTVSPost2010Prop44ColorRGB
 90
      255
102
RTVSPost2010PropOp44
 70
     1
102
RTVSPost2010Prop45
280
     0
102
RTVSPost2010PropOp45
 70
     1
102
RTVSPost2010Prop46
 90
       50
102
RTVSPost2010PropOp46
 70
     1
102
RTVSPost2010Prop47
 90
       50
102
RTVSPost2010PropOp47
 70
     1
102
RTVSPost2010Prop48
 90
       50
102
RTVSPost2010PropOp48
 70
     1
102
RTVSPost2010Prop49
280
     0
102
RTVSPost2010PropOp49
 70
     1
102
RTVSPost2010Prop50
 90
       50
102
RTVSPost2010PropOp50
 70
     1
102
RTVSPost2010Prop51ColorIndex
 90
      256
102
RTVSPost2010Prop51ColorRGB
 90
-16777216
102
RTVSPost2010PropOp51
 70
     0
102
RTVSPost2010Prop52
140
1.0
102
RTVSPost2010PropOp52
 70
     0
102
RTVSPost2010Prop53
 90
        2
102
RTVSPost2010PropOp53
 70
     1
102
RTVSPost2010Prop54
  1
strokes_ogs.tif
102
RTVSPost2010PropOp54
 70
     1
102
RTVSPost2010Prop55
280
     0
102
RTVSPost2010PropOp55
 70
     1
102
RTVSPost2010Prop56
140
1.0
102
RTVSPost2010PropOp56
 70
     1
102
RTVSPost2010Prop57
140
1.0
102
RTVSPost2010PropOp57
 70
     1
  0
XRECORD
  5
E6
102
{ACAD_REACTORS
330
E5
102
}
330
E5
100
AcDbXrecord
280
     1
102
RTVSPropertyOp0
 70
     1
102
RTVSPropertyOp1
 70
     1
102
RTVSPropertyOp2
 70
     1
102
RTVSPropertyOp3
 70
     1
102
RTVSPropertyOp4
 70
     1
102
RTVSPropertyOp5
 70
     1
102
RTVSPropertyOp6
 70
     1
102
RTVSPropertyOp7
 70
     1
102
RTVSPropertyOp8
 70
     1
102
RTVSPropertyOp9
 70
     1
102
RTVSPropertyOp10
 70
     1
102
RTVSPropertyOp11
 70
     1
102
RTVSPropertyOp12
 70
     1
102
RTVSPropertyOp13
 70
     1
102
RTVSPropertyOp14
 70
     1
102
RTVSPropertyOp15
 70
     1
102
RTVSPropertyOp16
 70
     1
102
RTVSPropertyOp17
 70
     1
102
RTVSPropertyOp18
 70
     1
102
RTVSPropertyOp19
 70
     1
102
RTVSPropertyOp20
 70
     1
102
RTVSPropertyOp21
 70
     1
102
RTVSPropertyOp22
 70
     1
102
RTVSPropertyOp23
 70
     1
102
RTVSPropertyOp24
 70
     1
102
RTVSPropertyOp25
 70
     1
102
RTVSPropertyOp26
 70
     1
102
RTVSPropertyOp27
 70
     1
102
RTVSPropertyOp28
 70
     1
102
RTVSPropertyOp29
 70
     1
102
RTVSPropertyOp30
 70
     1
102
RTVSPropertyOp31
 70
     1
102
RTVSPropertyOp32
 70
     1
102
RTVSPropertyOp33
 70
     1
102
RTVSPropertyOp34
 70
     1
102
RTVSPropertyOp35
 70
     1
102
RTVSPropertyOp36
 70
     1
102
RTVSPropertyOp37
 70
     1
102
RTVSPropertyOp38
 70
     1
102
RTVSPropertyOp39
 70
     1
102
RTVSPropertyOp40
 70
     1
102
RTVSPropertyOp41
 70
     1
102
RTVSPropertyOp42
 70
     1
102
RTVSPropertyOp43
 70
     1
102
RTVSPropertyOp44
 70
     1
102
RTVSPropertyOp45
 70
     1
102
RTVSPropertyOp46
 70
     1
102
RTVSPropertyOp47
 70
     1
102
RTVSPropertyOp48
 70
     1
102
RTVSPropertyOp49
 70
     1
102
RTVSPropertyOp50
 70
     1
102
RTVSPropertyOp51
 70
     0
102
RTVSPropertyOp52
 70
     0
102
RTVSPropertyOp53
 70
     1
102
RTVSPropertyOp54
 70
     1
102
RTVSPropertyOp55
 70
     1
102
RTVSPropertyOp56
 70
     1
102
RTVSPropertyOp57
 70
     1
102
RTVSPost2010Prop28
280
     0
102
RTVSPost2010PropOp28
 70
     1
102
RTVSPost2010Prop29
280
     1
102
RTVSPost2010PropOp29
 70
     1
102
RTVSPost2010Prop30
280
     1
102
RTVSPost2010PropOp30
 70
     1
102
RTVSPost2010Prop31
280
     0
102
RTVSPost2010PropOp31
 70
     1
102
RTVSPost2010Prop32
280
     0
102
RTVSPost2010PropOp32
 70
     1
102
RTVSPost2010Prop33
280
     0
102
RTVSPost2010PropOp33
 70
     1
102
RTVSPost2010Prop34
280
     0
102
RTVSPost2010PropOp34
 70
     1
102
RTVSPost2010Prop35
280
     0
102
RTVSPost2010PropOp35
 70
     1
102
RTVSPost2010Prop36
280
     0
102
RTVSPost2010PropOp36
 70
     1
102
RTVSPost2010Prop37
 90
       50
102
RTVSPost2010PropOp37
 70
     1
102
RTVSPost2010Prop38
140
0.0
102
RTVSPost2010PropOp38
 70
     1
102
RTVSPost2010Prop39
140
1.0
102
RTVSPost2010PropOp39
 70
     1
102
RTVSPost2010Prop40
 90
        0
102
RTVSPost2010PropOp40
 70
     1
102
RTVSPost2010Prop41ColorIndex
 90
       18
102
RTVSPost2010Prop41ColorRGB
 90
        0
102
RTVSPost2010PropOp41
 70
     1
102
RTVSPost2010Prop42
 90
       50
102
RTVSPost2010PropOp42
 70
     1
102
RTVSPost2010Prop43
 90
        3
102
RTVSPost2010PropOp43
 70
     1
102
RTVSPost2010Prop44ColorIndex
 90
        5
102
RTVSPost2010Prop44ColorRGB
 90
      255
102
RTVSPost2010PropOp44
 70
     1
102
RTVSPost2010Prop45
280
     0
102
RTVSPost2010PropOp45
 70
     1
102
RTVSPost2010Prop46
 90
       50
102
RTVSPost2010PropOp46
 70
     1
102
RTVSPost2010Prop47
 90
       50
102
RTVSPost2010PropOp47
 70
     1
102
RTVSPost2010Prop48
 90
       50
102
RTVSPost2010PropOp48
 70
     1
102
RTVSPost2010Prop49
280
     0
102
RTVSPost2010PropOp49
 70
     1
102
RTVSPost2010Prop50
 90
       50
102
RTVSPost2010PropOp50
 70
     1
102
RTVSPost2010Prop51ColorIndex
 90
      256
102
RTVSPost2010Prop51ColorRGB
 90
-16777216
102
RTVSPost2010PropOp51
 70
     0
102
RTVSPost2010Prop52
140
1.0
102
RTVSPost2010PropOp52
 70
     0
102
RTVSPost2010Prop53
 90
        2
102
RTVSPost2010PropOp53
 70
     1
102
RTVSPost2010Prop54
  1
strokes_ogs.tif
102
RTVSPost2010PropOp54
 70
     1
102
RTVSPost2010Prop55
280
     0
102
RTVSPost2010PropOp55
 70
     1
102
RTVSPost2010Prop56
140
1.0
102
RTVSPost2010PropOp56
 70
     1
102
RTVSPost2010Prop57
140
1.0
102
RTVSPost2010PropOp57
 70
     1
  0
XRECORD
  5
D6
102
{ACAD_REACTORS
330
D5
102
}
330
D5
100
AcDbXrecord
280
     1
102
RTVSPropertyOp0
 70
     1
102
RTVSPropertyOp1
 70
     1
102
RTVSPropertyOp2
 70
     1
102
RTVSPropertyOp3
 70
     1
102
RTVSPropertyOp4
 70
     1
102
RTVSPropertyOp5
 70
     1
102
RTVSPropertyOp6
 70
     1
102
RTVSPropertyOp7
 70
     1
102
RTVSPropertyOp8
 70
     1
102
RTVSPropertyOp9
 70
     1
102
RTVSPropertyOp10
 70
     1
102
RTVSPropertyOp11
 70
     1
102
RTVSPropertyOp12
 70
     1
102
RTVSPropertyOp13
 70
     1
102
RTVSPropertyOp14
 70
     1
102
RTVSPropertyOp15
 70
     1
102
RTVSPropertyOp16
 70
     1
102
RTVSPropertyOp17
 70
     1
102
RTVSPropertyOp18
 70
     1
102
RTVSPropertyOp19
 70
     1
102
RTVSPropertyOp20
 70
     1
102
RTVSPropertyOp21
 70
     1
102
RTVSPropertyOp22
 70
     1
102
RTVSPropertyOp23
 70
     1
102
RTVSPropertyOp24
 70
     1
102
RTVSPropertyOp25
 70
     1
102
RTVSPropertyOp26
 70
     1
102
RTVSPropertyOp27
 70
     1
102
RTVSPropertyOp28
 70
     1
102
RTVSPropertyOp29
 70
     1
102
RTVSPropertyOp30
 70
     1
102
RTVSPropertyOp31
 70
     1
102
RTVSPropertyOp32
 70
     1
102
RTVSPropertyOp33
 70
     1
102
RTVSPropertyOp34
 70
     1
102
RTVSPropertyOp35
 70
     1
102
RTVSPropertyOp36
 70
     1
102
RTVSPropertyOp37
 70
     1
102
RTVSPropertyOp38
 70
     1
102
RTVSPropertyOp39
 70
     1
102
RTVSPropertyOp40
 70
     1
102
RTVSPropertyOp41
 70
     1
102
RTVSPropertyOp42
 70
     1
102
RTVSPropertyOp43
 70
     1
102
RTVSPropertyOp44
 70
     1
102
RTVSPropertyOp45
 70
     1
102
RTVSPropertyOp46
 70
     1
102
RTVSPropertyOp47
 70
     1
102
RTVSPropertyOp48
 70
     1
102
RTVSPropertyOp49
 70
     1
102
RTVSPropertyOp50
 70
     1
102
RTVSPropertyOp51
 70
     0
102
RTVSPropertyOp52
 70
     0
102
RTVSPropertyOp53
 70
     1
102
RTVSPropertyOp54
 70
     1
102
RTVSPropertyOp55
 70
     1
102
RTVSPropertyOp56
 70
     1
102
RTVSPropertyOp57
 70
     1
102
RTVSPost2010Prop28
280
     0
102
RTVSPost2010PropOp28
 70
     1
102
RTVSPost2010Prop29
280
     1
102
RTVSPost2010PropOp29
 70
     1
102
RTVSPost2010Prop30
280
     1
102
RTVSPost2010PropOp30
 70
     1
102
RTVSPost2010Prop31
280
     0
102
RTVSPost2010PropOp31
 70
     1
102
RTVSPost2010Prop32
280
     0
102
RTVSPost2010PropOp32
 70
     1
102
RTVSPost2010Prop33
280
     0
102
RTVSPost2010PropOp33
 70
     1
102
RTVSPost2010Prop34
280
     0
102
RTVSPost2010PropOp34
 70
     1
102
RTVSPost2010Prop35
280
     0
102
RTVSPost2010PropOp35
 70
     1
102
RTVSPost2010Prop36
280
     0
102
RTVSPost2010PropOp36
 70
     1
102
RTVSPost2010Prop37
 90
       50
102
RTVSPost2010PropOp37
 70
     1
102
RTVSPost2010Prop38
140
0.0
102
RTVSPost2010PropOp38
 70
     1
102
RTVSPost2010Prop39
140
1.0
102
RTVSPost2010PropOp39
 70
     1
102
RTVSPost2010Prop40
 90
        0
102
RTVSPost2010PropOp40
 70
     1
102
RTVSPost2010Prop41ColorIndex
 90
       18
102
RTVSPost2010Prop41ColorRGB
 90
        0
102
RTVSPost2010PropOp41
 70
     1
102
RTVSPost2010Prop42
 90
       50
102
RTVSPost2010PropOp42
 70
     1
102
RTVSPost2010Prop43
 90
        3
102
RTVSPost2010PropOp43
 70
     1
102
RTVSPost2010Prop44ColorIndex
 90
        5
102
RTVSPost2010Prop44ColorRGB
 90
      255
102
RTVSPost2010PropOp44
 70
     1
102
RTVSPost2010Prop45
280
     0
102
RTVSPost2010PropOp45
 70
     1
102
RTVSPost2010Prop46
 90
       50
102
RTVSPost2010PropOp46
 70
     1
102
RTVSPost2010Prop47
 90
       50
102
RTVSPost2010PropOp47
 70
     1
102
RTVSPost2010Prop48
 90
       50
102
RTVSPost2010PropOp48
 70
     1
102
RTVSPost2010Prop49
280
     0
102
RTVSPost2010PropOp49
 70
     1
102
RTVSPost2010Prop50
 90
       50
102
RTVSPost2010PropOp50
 70
     1
102
RTVSPost2010Prop51ColorIndex
 90
      256
102
RTVSPost2010Prop51ColorRGB
 90
-16777216
102
RTVSPost2010PropOp51
 70
     0
102
RTVSPost2010Prop52
140
1.0
102
RTVSPost2010PropOp52
 70
     0
102
RTVSPost2010Prop53
 90
        2
102
RTVSPost2010PropOp53
 70
     1
102
RTVSPost2010Prop54
  1
strokes_ogs.tif
102
RTVSPost2010PropOp54
 70
     1
102
RTVSPost2010Prop55
280
     0
102
RTVSPost2010PropOp55
 70
     1
102
RTVSPost2010Prop56
140
1.0
102
RTVSPost2010PropOp56
 70
     1
102
RTVSPost2010Prop57
140
1.0
102
RTVSPost2010PropOp57
 70
     1
  0
XRECORD
  5
C8
102
{ACAD_REACTORS
330
C7
102
}
330
C7
100
AcDbXrecord
280
     1
102
RTVSPropertyOp0
 70
     1
102
RTVSPropertyOp1
 70
     1
102
RTVSPropertyOp2
 70
     1
102
RTVSPropertyOp3
 70
     1
102
RTVSPropertyOp4
 70
     1
102
RTVSPropertyOp5
 70
     1
102
RTVSPropertyOp6
 70
     1
102
RTVSPropertyOp7
 70
     1
102
RTVSPropertyOp8
 70
     1
102
RTVSPropertyOp9
 70
     1
102
RTVSPropertyOp10
 70
     1
102
RTVSPropertyOp11
 70
     1
102
RTVSPropertyOp12
 70
     1
102
RTVSPropertyOp13
 70
     1
102
RTVSPropertyOp14
 70
     1
102
RTVSPropertyOp15
 70
     1
102
RTVSPropertyOp16
 70
     1
102
RTVSPropertyOp17
 70
     1
102
RTVSPropertyOp18
 70
     1
102
RTVSPropertyOp19
 70
     1
102
RTVSPropertyOp20
 70
     1
102
RTVSPropertyOp21
 70
     1
102
RTVSPropertyOp22
 70
     1
102
RTVSPropertyOp23
 70
     1
102
RTVSPropertyOp24
 70
     1
102
RTVSPropertyOp25
 70
     1
102
RTVSPropertyOp26
 70
     1
102
RTVSPropertyOp27
 70
     1
102
RTVSPropertyOp28
 70
     1
102
RTVSPropertyOp29
 70
     1
102
RTVSPropertyOp30
 70
     1
102
RTVSPropertyOp31
 70
     1
102
RTVSPropertyOp32
 70
     1
102
RTVSPropertyOp33
 70
     1
102
RTVSPropertyOp34
 70
     1
102
RTVSPropertyOp35
 70
     1
102
RTVSPropertyOp36
 70
     1
102
RTVSPropertyOp37
 70
     1
102
RTVSPropertyOp38
 70
     1
102
RTVSPropertyOp39
 70
     1
102
RTVSPropertyOp40
 70
     1
102
RTVSPropertyOp41
 70
     1
102
RTVSPropertyOp42
 70
     1
102
RTVSPropertyOp43
 70
     1
102
RTVSPropertyOp44
 70
     1
102
RTVSPropertyOp45
 70
     1
102
RTVSPropertyOp46
 70
     1
102
RTVSPropertyOp47
 70
     1
102
RTVSPropertyOp48
 70
     1
102
RTVSPropertyOp49
 70
     1
102
RTVSPropertyOp50
 70
     1
102
RTVSPropertyOp51
 70
     0
102
RTVSPropertyOp52
 70
     0
102
RTVSPropertyOp53
 70
     1
102
RTVSPropertyOp54
 70
     1
102
RTVSPropertyOp55
 70
     1
102
RTVSPropertyOp56
 70
     1
102
RTVSPropertyOp57
 70
     1
102
RTVSPost2010Prop28
280
     0
102
RTVSPost2010PropOp28
 70
     1
102
RTVSPost2010Prop29
280
     1
102
RTVSPost2010PropOp29
 70
     1
102
RTVSPost2010Prop30
280
     1
102
RTVSPost2010PropOp30
 70
     1
102
RTVSPost2010Prop31
280
     0
102
RTVSPost2010PropOp31
 70
     1
102
RTVSPost2010Prop32
280
     0
102
RTVSPost2010PropOp32
 70
     1
102
RTVSPost2010Prop33
280
     0
102
RTVSPost2010PropOp33
 70
     1
102
RTVSPost2010Prop34
280
     0
102
RTVSPost2010PropOp34
 70
     1
102
RTVSPost2010Prop35
280
     0
102
RTVSPost2010PropOp35
 70
     1
102
RTVSPost2010Prop36
280
     0
102
RTVSPost2010PropOp36
 70
     1
102
RTVSPost2010Prop37
 90
       50
102
RTVSPost2010PropOp37
 70
     1
102
RTVSPost2010Prop38
140
0.0
102
RTVSPost2010PropOp38
 70
     1
102
RTVSPost2010Prop39
140
1.0
102
RTVSPost2010PropOp39
 70
     1
102
RTVSPost2010Prop40
 90
        0
102
RTVSPost2010PropOp40
 70
     1
102
RTVSPost2010Prop41ColorIndex
 90
       18
102
RTVSPost2010Prop41ColorRGB
 90
        0
102
RTVSPost2010PropOp41
 70
     1
102
RTVSPost2010Prop42
 90
       50
102
RTVSPost2010PropOp42
 70
     1
102
RTVSPost2010Prop43
 90
        3
102
RTVSPost2010PropOp43
 70
     1
102
RTVSPost2010Prop44ColorIndex
 90
        5
102
RTVSPost2010Prop44ColorRGB
 90
      255
102
RTVSPost2010PropOp44
 70
     1
102
RTVSPost2010Prop45
280
     0
102
RTVSPost2010PropOp45
 70
     1
102
RTVSPost2010Prop46
 90
       50
102
RTVSPost2010PropOp46
 70
     1
102
RTVSPost2010Prop47
 90
       50
102
RTVSPost2010PropOp47
 70
     1
102
RTVSPost2010Prop48
 90
       50
102
RTVSPost2010PropOp48
 70
     1
102
RTVSPost2010Prop49
280
     0
102
RTVSPost2010PropOp49
 70
     1
102
RTVSPost2010Prop50
 90
       50
102
RTVSPost2010PropOp50
 70
     1
102
RTVSPost2010Prop51ColorIndex
 90
      256
102
RTVSPost2010Prop51ColorRGB
 90
-16777216
102
RTVSPost2010PropOp51
 70
     0
102
RTVSPost2010Prop52
140
1.0
102
RTVSPost2010PropOp52
 70
     0
102
RTVSPost2010Prop53
 90
        2
102
RTVSPost2010PropOp53
 70
     1
102
RTVSPost2010Prop54
  1
strokes_ogs.tif
102
RTVSPost2010PropOp54
 70
     1
102
RTVSPost2010Prop55
280
     0
102
RTVSPost2010PropOp55
 70
     1
102
RTVSPost2010Prop56
140
1.0
102
RTVSPost2010PropOp56
 70
     1
102
RTVSPost2010Prop57
140
1.0
102
RTVSPost2010PropOp57
 70
     1
  0
XRECORD
  5
E8
102
{ACAD_REACTORS
330
E7
102
}
330
E7
100
AcDbXrecord
280
     1
102
RTVSPropertyOp0
 70
     1
102
RTVSPropertyOp1
 70
     1
102
RTVSPropertyOp2
 70
     1
102
RTVSPropertyOp3
 70
     1
102
RTVSPropertyOp4
 70
     1
102
RTVSPropertyOp5
 70
     1
102
RTVSPropertyOp6
 70
     1
102
RTVSPropertyOp7
 70
     1
102
RTVSPropertyOp8
 70
     1
102
RTVSPropertyOp9
 70
     1
102
RTVSPropertyOp10
 70
     1
102
RTVSPropertyOp11
 70
     1
102
RTVSPropertyOp12
 70
     1
102
RTVSPropertyOp13
 70
     1
102
RTVSPropertyOp14
 70
     1
102
RTVSPropertyOp15
 70
     1
102
RTVSPropertyOp16
 70
     1
102
RTVSPropertyOp17
 70
     1
102
RTVSPropertyOp18
 70
     1
102
RTVSPropertyOp19
 70
     1
102
RTVSPropertyOp20
 70
     1
102
RTVSPropertyOp21
 70
     1
102
RTVSPropertyOp22
 70
     1
102
RTVSPropertyOp23
 70
     1
102
RTVSPropertyOp24
 70
     1
102
RTVSPropertyOp25
 70
     1
102
RTVSPropertyOp26
 70
     1
102
RTVSPropertyOp27
 70
     1
102
RTVSPropertyOp28
 70
     1
102
RTVSPropertyOp29
 70
     1
102
RTVSPropertyOp30
 70
     1
102
RTVSPropertyOp31
 70
     1
102
RTVSPropertyOp32
 70
     1
102
RTVSPropertyOp33
 70
     1
102
RTVSPropertyOp34
 70
     1
102
RTVSPropertyOp35
 70
     1
102
RTVSPropertyOp36
 70
     1
102
RTVSPropertyOp37
 70
     1
102
RTVSPropertyOp38
 70
     1
102
RTVSPropertyOp39
 70
     1
102
RTVSPropertyOp40
 70
     1
102
RTVSPropertyOp41
 70
     1
102
RTVSPropertyOp42
 70
     1
102
RTVSPropertyOp43
 70
     1
102
RTVSPropertyOp44
 70
     1
102
RTVSPropertyOp45
 70
     1
102
RTVSPropertyOp46
 70
     1
102
RTVSPropertyOp47
 70
     1
102
RTVSPropertyOp48
 70
     1
102
RTVSPropertyOp49
 70
     1
102
RTVSPropertyOp50
 70
     1
102
RTVSPropertyOp51
 70
     0
102
RTVSPropertyOp52
 70
     0
102
RTVSPropertyOp53
 70
     1
102
RTVSPropertyOp54
 70
     1
102
RTVSPropertyOp55
 70
     1
102
RTVSPropertyOp56
 70
     1
102
RTVSPropertyOp57
 70
     1
102
RTVSPost2010Prop28
280
     0
102
RTVSPost2010PropOp28
 70
     1
102
RTVSPost2010Prop29
280
     1
102
RTVSPost2010PropOp29
 70
     1
102
RTVSPost2010Prop30
280
     1
102
RTVSPost2010PropOp30
 70
     1
102
RTVSPost2010Prop31
280
     0
102
RTVSPost2010PropOp31
 70
     1
102
RTVSPost2010Prop32
280
     0
102
RTVSPost2010PropOp32
 70
     1
102
RTVSPost2010Prop33
280
     0
102
RTVSPost2010PropOp33
 70
     1
102
RTVSPost2010Prop34
280
     0
102
RTVSPost2010PropOp34
 70
     1
102
RTVSPost2010Prop35
280
     0
102
RTVSPost2010PropOp35
 70
     1
102
RTVSPost2010Prop36
280
     0
102
RTVSPost2010PropOp36
 70
     1
102
RTVSPost2010Prop37
 90
       50
102
RTVSPost2010PropOp37
 70
     1
102
RTVSPost2010Prop38
140
0.0
102
RTVSPost2010PropOp38
 70
     1
102
RTVSPost2010Prop39
140
1.0
102
RTVSPost2010PropOp39
 70
     1
102
RTVSPost2010Prop40
 90
        0
102
RTVSPost2010PropOp40
 70
     1
102
RTVSPost2010Prop41ColorIndex
 90
       18
102
RTVSPost2010Prop41ColorRGB
 90
        0
102
RTVSPost2010PropOp41
 70
     1
102
RTVSPost2010Prop42
 90
       50
102
RTVSPost2010PropOp42
 70
     1
102
RTVSPost2010Prop43
 90
        3
102
RTVSPost2010PropOp43
 70
     1
102
RTVSPost2010Prop44ColorIndex
 90
        5
102
RTVSPost2010Prop44ColorRGB
 90
      255
102
RTVSPost2010PropOp44
 70
     1
102
RTVSPost2010Prop45
280
     0
102
RTVSPost2010PropOp45
 70
     1
102
RTVSPost2010Prop46
 90
       50
102
RTVSPost2010PropOp46
 70
     1
102
RTVSPost2010Prop47
 90
       50
102
RTVSPost2010PropOp47
 70
     1
102
RTVSPost2010Prop48
 90
       50
102
RTVSPost2010PropOp48
 70
     1
102
RTVSPost2010Prop49
280
     0
102
RTVSPost2010PropOp49
 70
     1
102
RTVSPost2010Prop50
 90
       50
102
RTVSPost2010PropOp50
 70
     1
102
RTVSPost2010Prop51ColorIndex
 90
      256
102
RTVSPost2010Prop51ColorRGB
 90
-16777216
102
RTVSPost2010PropOp51
 70
     0
102
RTVSPost2010Prop52
140
1.0
102
RTVSPost2010PropOp52
 70
     0
102
RTVSPost2010Prop53
 90
        2
102
RTVSPost2010PropOp53
 70
     1
102
RTVSPost2010Prop54
  1
strokes_ogs.tif
102
RTVSPost2010PropOp54
 70
     1
102
RTVSPost2010Prop55
280
     0
102
RTVSPost2010PropOp55
 70
     1
102
RTVSPost2010Prop56
140
1.0
102
RTVSPost2010PropOp56
 70
     1
102
RTVSPost2010Prop57
140
1.0
102
RTVSPost2010PropOp57
 70
     1
  0
ENDSEC
  0
EOF
