  0
SECTION
  2
HEADER
  9
$ACADVER
  1
AC1015
  9
$ACADMAINTVER
 70
     6
  9
$DWGCODEPAGE
  3
DOS850
  9
$INSBASE
 10
0.0
 20
0.0
 30
0.0
  9
$EXTMIN
 10
-15.86258
 20
-27.12334
 30
1.000000E+20
  9
$EXTMAX
 10
20.36168
 20
24.78784
 30
-1.000000E+20
  9
$LIMMIN
 10
0.0
 20
0.0
  9
$LIMMAX
 10
0.0
 20
0.0
  9
$ORTHOMODE
 70
     0
  9
$REGENMODE
 70
     1
  9
$FILLMODE
 70
     1
  9
$QTEXTMODE
 70
     0
  9
$MIRRTEXT
 70
     1
  9
$LTSCALE
 40
1.0
  9
$ATTMODE
 70
     1
  9
$TEXTSIZE
 40
0.2
  9
$TRACEWID
 40
0.05
  9
$TEXTSTYLE
  7
Standard
  9
$CLAYER
  8
0
  9
$CELTYPE
  6
Continuous
  9
$CECOLOR
 62
   256
  9
$CELTSCALE
 40
1.0
  9
$DISPSILH
 70
     0
  9
$DIMSCALE
 40
1.0
  9
$DIMASZ
 40
0.18
  9
$DIMEXO
 40
0.0625
  9
$DIMDLI
 40
0.38
  9
$DIMRND
 40
0.0
  9
$DIMDLE
 40
0.0
  9
$DIMEXE
 40
0.18
  9
$DIMTP
 40
0.0
  9
$DIMTM
 40
0.0
  9
$DIMTXT
 40
0.18
  9
$DIMCEN
 40
0.09
  9
$DIMTSZ
 40
0.0
  9
$DIMTOL
 70
     0
  9
$DIMLIM
 70
     0
  9
$DIMTIH
 70
     1
  9
$DIMTOH
 70
     1
  9
$DIMSE1
 70
     0
  9
$DIMSE2
 70
     0
  9
$DIMTAD
 70
     0
  9
$DIMZIN
 70
     0
  9
$DIMBLK
  1

  9
$DIMASO
 70
     1
  9
$DIMSHO
 70
     1
  9
$DIMPOST
  1

  9
$DIMAPOST
  1

  9
$DIMALT
 70
     0
  9
$DIMALTD
 70
     2
  9
$DIMALTF
 40
25.4
  9
$DIMLFAC
 40
1.0
  9
$DIMTOFL
 70
     0
  9
$DIMTVP
 40
0.0
  9
$DIMTIX
 70
     0
  9
$DIMSOXD
 70
     0
  9
$DIMSAH
 70
     0
  9
$DIMBLK1
  1

  9
$DIMBLK2
  1

  9
$DIMSTYLE
  2
Standard
  9
$DIMCLRD
 70
     0
  9
$DIMCLRE
 70
     0
  9
$DIMCLRT
 70
     0
  9
$DIMTFAC
 40
1.0
  9
$DIMGAP
 40
0.09
  9
$DIMJUST
 70
     0
  9
$DIMSD1
 70
     0
  9
$DIMSD2
 70
     0
  9
$DIMTOLJ
 70
     1
  9
$DIMTZIN
 70
     0
  9
$DIMALTZ
 70
     0
  9
$DIMALTTZ
 70
     0
  9
$DIMUPT
 70
     0
  9
$DIMDEC
 70
     4
  9
$DIMTDEC
 70
     4
  9
$DIMALTU
 70
     2
  9
$DIMALTTD
 70
     2
  9
$DIMTXSTY
  7
Standard
  9
$DIMAUNIT
 70
     0
  9
$DIMADEC
 70
     0
  9
$DIMALTRND
 40
0.0
  9
$DIMAZIN
 70
     0
  9
$DIMDSEP
 70
     0
  9
$DIMATFIT
 70
     3
  9
$DIMFRAC
 70
     0
  9
$DIMLDRBLK
  1

  9
$DIMLUNIT
 70
     2
  9
$DIMLWD
 70
     0
  9
$DIMLWE
 70
     0
  9
$DIMTMOVE
 70
     0
  9
$LUNITS
 70
     2
  9
$LUPREC
 70
     4
  9
$SKETCHINC
 40
0.1
  9
$FILLETRAD
 40
0.0
  9
$AUNITS
 70
     0
  9
$AUPREC
 70
     0
  9
$MENU
  1
acad
  9
$ELEVATION
 40
0.0
  9
$PELEVATION
 40
0.0
  9
$THICKNESS
 40
0.0
  9
$LIMCHECK
 70
     0
  9
$CHAMFERA
 40
0.0
  9
$CHAMFERB
 40
0.0
  9
$CHAMFERC
 40
0.0
  9
$CHAMFERD
 40
0.0
  9
$SKPOLY
 70
     0
  9
$TDCREATE
 40
0.000000000
  9
$TDUCREATE
 40
0.000000000
  9
$TDUPDATE
 40
0.000000000
  9
$TDUUPDATE
 40
0.000000000
  9
$TDINDWG
 40
0.0000000000
  9
$TDUSRTIMER
 40
0.0000000000
  9
$USRTIMER
 70
     1
  9
$ANGBASE
 50
0.0
  9
$ANGDIR
 70
     0
  9
$PDMODE
 70
     0
  9
$PDSIZE
 40
0.0
  9
$PLINEWID
 40
0.0
  9
$SPLFRAME
 70
     0
  9
$SPLINETYPE
 70
     6
  9
$SPLINESEGS
 70
     8
  9
$HANDSEED
  5
99
  9
$SURFTAB1
 70
     6
  9
$SURFTAB2
 70
     6
  9
$SURFTYPE
 70
     6
  9
$SURFU
 70
     6
  9
$SURFV
 70
     6
  9
$UCSBASE
  2

  9
$UCSNAME
  2

  9
$UCSORG
 10
0.0
 20
0.0
 30
0.0
  9
$UCSXDIR
 10
1.0
 20
0.0
 30
0.0
  9
$UCSYDIR
 10
0.0
 20
1.0
 30
0.0
  9
$UCSORTHOREF
  2

  9
$UCSORTHOVIEW
 70
     0
  9
$UCSORGTOP
 10
0.0
 20
0.0
 30
0.0
  9
$UCSORGBOTTOM
 10
0.0
 20
0.0
 30
0.0
  9
$UCSORGLEFT
 10
0.0
 20
0.0
 30
0.0
  9
$UCSORGRIGHT
 10
0.0
 20
0.0
 30
0.0
  9
$UCSORGFRONT
 10
0.0
 20
0.0
 30
0.0
  9
$UCSORGBACK
 10
0.0
 20
0.0
 30
0.0
  9
$PUCSBASE
  2

  9
$PUCSNAME
  2

  9
$PUCSORG
 10
0.0
 20
0.0
 30
0.0
  9
$PUCSXDIR
 10
1.0
 20
0.0
 30
0.0
  9
$PUCSYDIR
 10
0.0
 20
1.0
 30
0.0
  9
$PUCSORTHOREF
  2

  9
$PUCSORTHOVIEW
 70
     0
  9
$PUCSORGTOP
 10
0.0
 20
0.0
 30
0.0
  9
$PUCSORGBOTTOM
 10
0.0
 20
0.0
 30
0.0
  9
$PUCSORGLEFT
 10
0.0
 20
0.0
 30
0.0
  9
$PUCSORGRIGHT
 10
0.0
 20
0.0
 30
0.0
  9
$PUCSORGFRONT
 10
0.0
 20
0.0
 30
0.0
  9
$PUCSORGBACK
 10
0.0
 20
0.0
 30
0.0
  9
$USERI1
 70
     0
  9
$USERI2
 70
     0
  9
$USERI3
 70
     0
  9
$USERI4
 70
     0
  9
$USERI5
 70
     0
  9
$USERR1
 40
0.0
  9
$USERR2
 40
0.0
  9
$USERR3
 40
0.0
  9
$USERR4
 40
0.0
  9
$USERR5
 40
0.0
  9
$WORLDVIEW
 70
     1
  9
$SHADEDGE
 70
     3
  9
$SHADEDIF
 70
    70
  9
$TILEMODE
 70
     1
  9
$MAXACTVP
 70
    16
  9
$PINSBASE
 10
0.0
 20
0.0
 30
0.0
  9
$PLIMCHECK
 70
     0
  9
$PEXTMIN
 10
1.000000E+20
 20
1.000000E+20
 30
1.000000E+20
  9
$PEXTMAX
 10
-1.000000E+20
 20
-1.000000E+20
 30
-1.000000E+20
  9
$PLIMMIN
 10
0.0
 20
0.0
  9
$PLIMMAX
 10
12.0
 20
9.0
  9
$UNITMODE
 70
     0
  9
$VISRETAIN
 70
     0
  9
$PLINEGEN
 70
     1
  9
$PSLTSCALE
 70
     0
  9
$TREEDEPTH
 70
  3020
  9
$CMLSTYLE
  2
Standard
  9
$CMLJUST
 70
     0
  9
$CMLSCALE
 40
1.0
  9
$PROXYGRAPHICS
 70
     0
  9
$MEASUREMENT
 70
     0
  9
$CELWEIGHT
370
     0
  9
$ENDCAPS
280
     0
  9
$JOINSTYLE
280
     0
  9
$LWDISPLAY
290
     0
  9
$INSUNITS
 70
     5
  9
$HYPERLINKBASE
  1

  9
$XEDIT
290
     1
  9
$CEPSNTYPE
380
     0
  9
$PSTYLEMODE
290
     1
  9
$FINGERPRINTGUID
  2

  9
$VERSIONGUID
  2

  9
$EXTNAMES
290
     1
  9
$PSVPSCALE
 40
0.0
  0
ENDSEC
  0
SECTION
  2
CLASSES
  0
CLASS
  1
LWPOLYLINE
  2
AcDbPolyline
  3
AutoCAD 2000
 90
        0
280
     0
281
     1
  0
CLASS
  1
IMAGE
  2
AcDbRasterImage
  3
ISM
 90
    32895
280
     0
281
     1
  0
CLASS
  1
OLE2FRAME
  2
AcDbOle2Frame
  3
AutoCAD 2000
 90
    32768
280
     0
281
     1
  0
CLASS
  1
HATCH
  2
AcDbHatch
  3
AutoCAD 2000
 90
    32768
280
     0
281
     1
  0
CLASS
  1
DICTIONARYVAR
  2
AcDbDictionaryVar
  3
AutoCAD 2000
 90
    32768
280
     0
281
     0
  0
CLASS
  1
RASTERVARIABLES
  2
AcDbRasterVariables
  3
ISM
 90
    32768
280
     0
281
     0
  0
CLASS
  1
IMAGEDEF
  2
AcDbRasterImageDef
  3
ISM
 90
    32768
280
     0
281
     0
  0
CLASS
  1
IMAGEDEF_REACTOR
  2
AcDbRasterImageDefReactor
  3
ISM
 90
    32769
280
     0
281
     0
  0
CLASS
  1
IDBUFFER
  2
AcDbIdBuffer
  3
AutoCAD 2000
 90
    32768
280
     0
281
     0
  0
CLASS
  1
SPATIAL_FILTER
  2
AcDbSpatialFilter
  3
AutoCAD 2000
 90
    32768
280
     0
281
     0
  0
CLASS
  1
XRECORD
  2
AcDbXrecord
  3
AutoCAD 2000
 90
    32768
280
     0
281
     0
  0
CLASS
  1
SORTENTSTABLE
  2
AcDbSortentsTable
  3
AutoCAD 2000
 90
    32768
280
     0
281
     0
  0
CLASS
  1
LAYER_INDEX
  2
AcDbLayerIndex
  3
AutoCAD 2000
 90
    32768
280
     0
281
     0
  0
CLASS
  1
SPATIAL_INDEX
  2
AcDbSpatialIndex
  3
AutoCAD 2000
 90
    32768
280
     0
281
     0
  0
CLASS
  1
OBJECT_PTR
  2
CAseDLPNTableRecord
  3
\"ASE-LPNTableRecord\"
 90
    32769
280
     0
281
     0
  0
CLASS
  1
LAYOUT
  2
AcDbLayout
  3
AutoCAD 2000
 90
        0
280
     0
281
     0
  0
CLASS
  1
PLOTSETTINGS
  2
AcDbPlotSettings
  3
AutoCAD 2000
 90
    32768
280
     0
281
     0
  0
CLASS
  1
ACDBDICTIONARYWDFLT
  2
AcDbDictionaryWithDefault
  3
AutoCAD 2000
 90
        0
280
     0
281
     0
  0
CLASS
  1
ACDBPLACEHOLDER
  2
AcDbPlaceHolder
  3
AutoCAD 2000
 90
        0
280
     0
281
     0
  0
CLASS
  1
VBA_PROJECT
  2
AcDbVbaProject
  3
acadvba
 90
    32768
280
     0
281
     0
  0
CLASS
  1
WIPEOUT
  2
AcDbWipeout
  3
WipeOut|AutoCAD Express Tool|expresstools@autodesk.com
 90
    32895
280
     0
281
     1
  0
CLASS
  1
WIPEOUTVARIABLES
  2
AcDbWipeoutVariables
  3
WipeOut|AutoCAD Express Tool|expresstools@autodesk.com
 90
        0
280
     0
281
     0
  0
CLASS
  1
RTEXT
  2
RText
  3
RText|AutoCAD Express Tool|expresstools@autodesk.com
 90
    32768
280
     0
281
     1
  0
CLASS
  1
ARCALIGNEDTEXT
  2
AcDbArcAlignedText
  3
ATEXT|AutoCAD Express Tool|expresstools@autodesk.com
 90
    32768
280
     0
281
     1
  0
ENDSEC
  0
SECTION
  2
TABLES
  0
TABLE
  2
VPORT
  5
7
100
AcDbSymbolTable
 70
     1
  0
VPORT
  5
15
100
AcDbSymbolTableRecord
100
AcDbViewportTableRecord
  2
*ACTIVE
 70
     0
 10
0.0
 20
0.0
 11
1.0
 21
1.0
 12
6.591288
 22
4.579184
 13
0.0
 23
0.0
 14
1.0
 24
1.0
 15
0.0
 25
0.0
 16
0.0
 26
0.0
 36
1.0
 17
0.0
 27
0.0
 37
0.0
 40
9.158369
 41
0.688564
 42
50.0
 43
0.0
 44
0.0
 50
0.0
 51
0.0
 71
     0
 72
   100
 73
     1
 74
     1
 75
     0
 76
     0
 77
     0
 78
     0
281
     0
 65
     0
110
0.0
120
0.0
130
0.0
111
1.0
121
0.0
131
0.0
112
0.0
122
1.0
132
0.0
345
0
346
0
 79
     0
146
0.0
  0
ENDTAB
  0
TABLE
  2
LTYPE
  5
4
100
AcDbSymbolTable
 70
     3
  0
LTYPE
  5
11
100
AcDbSymbolTableRecord
100
AcDbLinetypeTableRecord
  2
ByBlock
 70
    64
  3

 72
    65
 73
     0
 40
0.0
  0
LTYPE
  5
12
100
AcDbSymbolTableRecord
100
AcDbLinetypeTableRecord
  2
ByLayer
 70
    64
  3

 72
    65
 73
     0
 40
0.0
  0
LTYPE
  5
13
100
AcDbSymbolTableRecord
100
AcDbLinetypeTableRecord
  2
Continuous
 70
    64
  3
Solid line
 72
    65
 73
     0
 40
0.0
  0
ENDTAB
  0
TABLE
  2
LAYER
  5
2
100
AcDbSymbolTable
 70
     2
  0
LAYER
  5
14
100
AcDbSymbolTableRecord
100
AcDbLayerTableRecord
  2
0
 70
     0
 62
     7
  6
Continuous
290
     1
370
    -3
390
1D
  0
LAYER
  5
24
100
AcDbSymbolTableRecord
100
AcDbLayerTableRecord
  2
Layer 1
 70
     0
 62
     7
  6
Continuous
290
     1
370
    -3
390
1F
  0
ENDTAB
  0
TABLE
  2
STYLE
  5
3
100
AcDbSymbolTable
 70
     1
  0
STYLE
  5
17
100
AcDbSymbolTableRecord
100
AcDbTextStyleTableRecord
  2
Standard
 70
     0
 40
0.0
 41
1.0
 50
0.0
 71
     0
 42
0.0
  3
txt
  4

  0
ENDTAB
  0
TABLE
  2
VIEW
  5
5
100
AcDbSymbolTable
 70
     0
  0
ENDTAB
  0
TABLE
  2
UCS
  5
6
100
AcDbSymbolTable
 70
     0
  0
ENDTAB
  0
TABLE
  2
APPID
  5
8
100
AcDbSymbolTable
 70
     1
  0
APPID
  5
16
100
AcDbSymbolTableRecord
100
AcDbRegAppTableRecord
  2
ACAD
 70
     0
  0
ENDTAB
  0
TABLE
  2
DIMSTYLE
  5
9
100
AcDbSymbolTable
 70
     1
100
AcDbDimStyleTable
 71
     0
  0
DIMSTYLE
105
18
100
AcDbSymbolTableRecord
100
AcDbDimStyleTableRecord
  2
Standard
 70
     0
  3

  4

 40
1.0
 41
0.18
 42
0.0625
 43
0.38
 44
0.18
 45
0.0
 46
0.0
 47
0.0
 48
0.0
 71
     0
 72
     0
 73
     1
 74
     1
 75
     0
 76
     0
 77
     0
 78
     0
 79
     0
140
0.18
141
0.09
142
0.0
143
25.4
144
1.0
145
0.0
146
1.0
147
0.09
148
0.0
170
     0
171
     2
172
     0
173
     0
174
     0
175
     0
176
     0
177
     0
178
     0
179
     0
271
     4
272
     4
273
     2
274
     2
275
     0
276
     0
277
     2
278
    46
279
     0
280
     0
281
     0
282
     0
283
     1
284
     0
285
     0
286
     0
288
     0
340
17
341
0
342
0
343
0
344
0
371
    -2
372
    -2
  0
ENDTAB
  0
TABLE
  2
BLOCK_RECORD
  5
1
100
AcDbSymbolTable
 70
     0
  0
BLOCK_RECORD
  5
A
100
AcDbSymbolTableRecord
100
AcDbBlockTableRecord
  2
*MODEL_SPACE
340
20
  0
BLOCK_RECORD
  5
B
100
AcDbSymbolTableRecord
100
AcDbBlockTableRecord
  2
*PAPER_SPACE
340
21
  0
ENDTAB
  0
ENDSEC
  0
SECTION
  2
BLOCKS
  0
BLOCK
  5
D
100
AcDbEntity
  8
0
100
AcDbBlockBegin
  2
*MODEL_SPACE
 70
     0
 10
0.0
 20
0.0
 30
0.0
  3
*MODEL_SPACE
  1

  0
ENDBLK
  5
E
100
AcDbEntity
  8
0
100
AcDbBlockEnd
  0
BLOCK
  5
F
100
AcDbEntity
 67
     1
  8
0
100
AcDbBlockBegin
  2
*PAPER_SPACE
 70
     0
 10
0.0
 20
0.0
 30
0.0
  3
*PAPER_SPACE
  1

  0
ENDBLK
  5
10
100
AcDbEntity
 67
     1
  8
0
100
AcDbBlockEnd
  0
ENDSEC
  0
SECTION
  2
ENTITIES
  0
SPLINE
  5
25
100
AcDbEntity
  8
Layer 1
 62
     5
100
AcDbSpline
210
0.0
220
0.0
230
1.0
 70
     1
 71
     3
 72
   212
 73
   208
 74
     0
 42
0.0000000001
 43
0.0000000001
 40
0.0
 40
0.0
 40
0.0
 40
0.0
 40
0.0192307692307692
 40
0.0192307692307692
 40
0.0192307692307692
 40
0.0192307692307692
 40
0.0384615384615385
 40
0.0384615384615385
 40
0.0384615384615385
 40
0.0384615384615385
 40
0.0576923076923077
 40
0.0576923076923077
 40
0.0576923076923077
 40
0.0576923076923077
 40
0.0769230769230769
 40
0.0769230769230769
 40
0.0769230769230769
 40
0.0769230769230769
 40
0.0961538461538462
 40
0.0961538461538462
 40
0.0961538461538462
 40
0.0961538461538462
 40
0.1153846153846154
 40
0.1153846153846154
 40
0.1153846153846154
 40
0.1153846153846154
 40
0.1346153846153846
 40
0.1346153846153846
 40
0.1346153846153846
 40
0.1346153846153846
 40
0.1538461538461539
 40
0.1538461538461539
 40
0.1538461538461539
 40
0.1538461538461539
 40
0.1730769230769231
 40
0.1730769230769231
 40
0.1730769230769231
 40
0.1730769230769231
 40
0.1923076923076923
 40
0.1923076923076923
 40
0.1923076923076923
 40
0.1923076923076923
 40
0.2115384615384615
 40
0.2115384615384615
 40
0.2115384615384615
 40
0.2115384615384615
 40
0.2307692307692307
 40
0.2307692307692307
 40
0.2307692307692307
 40
0.2307692307692307
 40
0.2499999999999999
 40
0.2499999999999999
 40
0.2499999999999999
 40
0.2499999999999999
 40
0.2692307692307692
 40
0.2692307692307692
 40
0.2692307692307692
 40
0.2692307692307692
 40
0.2884615384615384
 40
0.2884615384615384
 40
0.2884615384615384
 40
0.2884615384615384
 40
0.3076923076923076
 40
0.3076923076923076
 40
0.3076923076923076
 40
0.3076923076923076
 40
0.3269230769230768
 40
0.3269230769230768
 40
0.3269230769230768
 40
0.3269230769230768
 40
0.346153846153846
 40
0.346153846153846
 40
0.346153846153846
 40
0.346153846153846
 40
0.3653846153846153
 40
0.3653846153846153
 40
0.3653846153846153
 40
0.3653846153846153
 40
0.3846153846153845
 40
0.3846153846153845
 40
0.3846153846153845
 40
0.3846153846153845
 40
0.4038461538461537
 40
0.4038461538461537
 40
0.4038461538461537
 40
0.4038461538461537
 40
0.4230769230769229
 40
0.4230769230769229
 40
0.4230769230769229
 40
0.4230769230769229
 40
0.4423076923076921
 40
0.4423076923076921
 40
0.4423076923076921
 40
0.4423076923076921
 40
0.4615384615384613
 40
0.4615384615384613
 40
0.4615384615384613
 40
0.4615384615384613
 40
0.4807692307692306
 40
0.4807692307692306
 40
0.4807692307692306
 40
0.4807692307692306
 40
0.4999999999999998
 40
0.4999999999999998
 40
0.4999999999999998
 40
0.4999999999999998
 40
0.5192307692307691
 40
0.5192307692307691
 40
0.5192307692307691
 40
0.5192307692307691
 40
0.5384615384615383
 40
0.5384615384615383
 40
0.5384615384615383
 40
0.5384615384615383
 40
0.5576923076923076
 40
0.5576923076923076
 40
0.5576923076923076
 40
0.5576923076923076
 40
0.5769230769230769
 40
0.5769230769230769
 40
0.5769230769230769
 40
0.5769230769230769
 40
0.5961538461538462
 40
0.5961538461538462
 40
0.5961538461538462
 40
0.5961538461538462
 40
0.6153846153846154
 40
0.6153846153846154
 40
0.6153846153846154
 40
0.6153846153846154
 40
0.6346153846153847
 40
0.6346153846153847
 40
0.6346153846153847
 40
0.6346153846153847
 40
0.653846153846154
 40
0.653846153846154
 40
0.653846153846154
 40
0.653846153846154
 40
0.6730769230769232
 40
0.6730769230769232
 40
0.6730769230769232
 40
0.6730769230769232
 40
0.6923076923076925
 40
0.6923076923076925
 40
0.6923076923076925
 40
0.6923076923076925
 40
0.7115384615384618
 40
0.7115384615384618
 40
0.7115384615384618
 40
0.7115384615384618
 40
0.7307692307692311
 40
0.7307692307692311
 40
0.7307692307692311
 40
0.7307692307692311
 40
0.7500000000000003
 40
0.7500000000000003
 40
0.7500000000000003
 40
0.7500000000000003
 40
0.7692307692307696
 40
0.7692307692307696
 40
0.7692307692307696
 40
0.7692307692307696
 40
0.7884615384615389
 40
0.7884615384615389
 40
0.7884615384615389
 40
0.7884615384615389
 40
0.8076923076923082
 40
0.8076923076923082
 40
0.8076923076923082
 40
0.8076923076923082
 40
0.8269230769230774
 40
0.8269230769230774
 40
0.8269230769230774
 40
0.8269230769230774
 40
0.8461538461538467
 40
0.8461538461538467
 40
0.8461538461538467
 40
0.8461538461538467
 40
0.865384615384616
 40
0.865384615384616
 40
0.865384615384616
 40
0.865384615384616
 40
0.8846153846153853
 40
0.8846153846153853
 40
0.8846153846153853
 40
0.8846153846153853
 40
0.9038461538461545
 40
0.9038461538461545
 40
0.9038461538461545
 40
0.9038461538461545
 40
0.9230769230769238
 40
0.9230769230769238
 40
0.9230769230769238
 40
0.9230769230769238
 40
0.9423076923076931
 40
0.9423076923076931
 40
0.9423076923076931
 40
0.9423076923076931
 40
0.9615384615384623
 40
0.9615384615384623
 40
0.9615384615384623
 40
0.9615384615384623
 40
0.9807692307692316
 40
0.9807692307692316
 40
0.9807692307692316
 40
0.9807692307692316
 40
1.0
 40
1.0
 40
1.0
 40
1.0
 10
-15.849500000000001
 20
18.124500000000001
 30
0.0
 10
-15.650690000000001
 20
17.997479999999999
 30
0.0
 10
-15.4786
 20
17.941040000000001
 30
0.0
 10
-15.14265
 20
17.963290000000001
 30
0.0
 10
-15.14265
 20
17.963290000000001
 30
0.0
 10
-14.583080000000001
 20
18.00038
 30
0.0
 10
-13.78009
 20
18.203600000000002
 30
0.0
 10
-13.62537
 20
18.316479999999999
 30
0.0
 10
-13.62537
 20
18.316479999999999
 30
0.0
 10
-14.060280000000001
 20
18.421150000000001
 30
0.0
 10
-13.93416
 20
18.574200000000001
 30
0.0
 10
-13.969139999999999
 20
18.810669999999998
 30
0.0
 10
-13.969139999999999
 20
18.810669999999998
 30
0.0
 10
-13.4213
 20
18.577829999999999
 30
0.0
 10
-12.713509999999999
 20
18.65654
 30
0.0
 10
-12.067769999999999
 20
18.739560000000001
 30
0.0
 10
-12.067769999999999
 20
18.739560000000001
 30
0.0
 10
-11.31113
 20
18.847580000000001
 30
0.0
 10
-10.416169999999999
 20
18.943860000000001
 30
0.0
 10
-9.5775900000000007
 20
18.904219999999999
 30
0.0
 10
-9.5775900000000007
 20
18.904219999999999
 30
0.0
 10
-8.4635800000000003
 20
18.851559999999999
 30
0.0
 10
-7.5325699999999998
 20
18.525210000000001
 30
0.0
 10
-7.4092500000000001
 20
17.915230000000001
 30
0.0
 10
-7.4092500000000001
 20
17.915230000000001
 30
0.0
 10
-7.3360000000000003
 20
17.552910000000001
 30
0.0
 10
-7.7569600000000003
 20
17.227640000000001
 30
0.0
 10
-8.4754799999999992
 20
17.23564
 30
0.0
 10
-8.4754799999999992
 20
17.23564
 30
0.0
 10
-8.9682700000000004
 20
17.244679999999999
 30
0.0
 10
-9.3331300000000006
 20
17.56775
 30
0.0
 10
-8.7631399999999999
 20
17.729839999999999
 30
0.0
 10
-8.7631399999999999
 20
17.729839999999999
 30
0.0
 10
-8.6366399999999999
 20
17.765820000000001
 30
0.0
 10
-8.4136900000000008
 20
17.735510000000001
 30
0.0
 10
-8.3351500000000005
 20
17.690740000000002
 30
0.0
 10
-8.3351500000000005
 20
17.690740000000002
 30
0.0
 10
-8.3351500000000005
 20
17.690740000000002
 30
0.0
 10
-8.16676
 20
17.640969999999999
 30
0.0
 10
-8.16676
 20
17.640969999999999
 30
0.0
 10
-8.16676
 20
17.640969999999999
 30
0.0
 10
-8.1205300000000005
 20
17.680330000000001
 30
0.0
 10
-8.0787700000000005
 20
17.721969999999999
 30
0.0
 10
-8.0685400000000005
 20
17.779620000000001
 30
0.0
 10
-8.0685400000000005
 20
17.779620000000001
 30
0.0
 10
-7.9474499999999999
 20
18.491309999999999
 30
0.0
 10
-9.9782499999999992
 20
18.908010000000001
 30
0.0
 10
-10.65752
 20
18.152950000000001
 30
0.0
 10
-10.65752
 20
18.152950000000001
 30
0.0
 10
-10.71594
 20
18.152889999999999
 30
0.0
 10
-10.77905
 20
18.157599999999999
 30
0.0
 10
-10.87501
 20
18.195599999999999
 30
0.0
 10
-10.87501
 20
18.195599999999999
 30
0.0
 10
-11.084490000000001
 20
18.370740000000001
 30
0.0
 10
-10.938459999999999
 20
18.482109999999999
 30
0.0
 10
-10.7768
 20
18.568909999999999
 30
0.0
 10
-10.7768
 20
18.568909999999999
 30
0.0
 10
-10.77224
 20
18.571349999999999
 30
0.0
 10
-10.82508
 20
18.58709
 30
0.0
 10
-10.868
 20
18.58315
 30
0.0
 10
-10.868
 20
18.58315
 30
0.0
 10
-10.91093
 20
18.579170000000001
 30
0.0
 10
-11.03974
 20
18.581510000000002
 30
0.0
 10
-11.23986
 20
18.512029999999999
 30
0.0
 10
-11.23986
 20
18.512029999999999
 30
0.0
 10
-11.439970000000001
 20
18.442550000000001
 30
0.0
 10
-12.500920000000001
 20
17.834689999999998
 30
0.0
 10
-11.94149
 20
17.57696
 30
0.0
 10
-11.94149
 20
17.57696
 30
0.0
 10
-11.94149
 20
17.57696
 30
0.0
 10
-11.84324
 20
17.55208
 30
0.0
 10
-11.84324
 20
17.55208
 30
0.0
 10
-11.84324
 20
17.55208
 30
0.0
 10
-11.84324
 20
17.55208
 30
0.0
 10
-11.78711
 20
17.530750000000001
 30
0.0
 10
-11.78711
 20
17.530750000000001
 30
0.0
 10
-11.78711
 20
17.530750000000001
 30
0.0
 10
-11.78711
 20
17.530750000000001
 30
0.0
 10
-11.8643
 20
17.463190000000001
 30
0.0
 10
-11.8643
 20
17.463190000000001
 30
0.0
 10
-11.8643
 20
17.463190000000001
 30
0.0
 10
-12.07328
 20
17.34216
 30
0.0
 10
-12.27524
 20
17.45318
 30
0.0
 10
-12.390499999999999
 20
17.544969999999999
 30
0.0
 10
-12.390499999999999
 20
17.544969999999999
 30
0.0
 10
-12.456189999999999
 20
17.27852
 30
0.0
 10
-12.041880000000001
 20
17.095870000000001
 30
0.0
 10
-11.56962
 20
17.064979999999998
 30
0.0
 10
-11.56962
 20
17.064979999999998
 30
0.0
 10
-11.56962
 20
17.064979999999998
 30
0.0
 10
-11.56962
 20
17.036539999999999
 30
0.0
 10
-11.56962
 20
17.036539999999999
 30
0.0
 10
-11.56962
 20
17.036539999999999
 30
0.0
 10
-11.99227
 20
16.633320000000001
 30
0.0
 10
-12.947089999999999
 20
17.138300000000001
 30
0.0
 10
-12.88865
 20
17.36009
 30
0.0
 10
-12.88865
 20
17.36009
 30
0.0
 10
-12.95168
 20
17.251930000000002
 30
0.0
 10
-13.042870000000001
 20
17.18045
 30
0.0
 10
-13.2605
 20
17.160979999999999
 30
0.0
 10
-13.2605
 20
17.160979999999999
 30
0.0
 10
-13.2605
 20
17.160979999999999
 30
0.0
 10
-13.2605
 20
17.313880000000001
 30
0.0
 10
-13.2605
 20
17.313880000000001
 30
0.0
 10
-13.2605
 20
17.313880000000001
 30
0.0
 10
-13.428710000000001
 20
17.708379999999998
 30
0.0
 10
-13.036
 20
18.05846
 30
0.0
 10
-12.57044
 20
18.36618
 30
0.0
 10
-12.57044
 20
18.36618
 30
0.0
 10
-13.6492
 20
18.138999999999999
 30
0.0
 10
-14.362410000000001
 20
17.315660000000001
 30
0.0
 10
-14.20805
 20
16.95129
 30
0.0
 10
-14.20805
 20
16.95129
 30
0.0
 10
-14.16568
 20
16.85127
 30
0.0
 10
-14.062379999999999
 20
16.76465
 30
0.0
 10
-13.89899
 20
16.70946
 30
0.0
 10
-13.89899
 20
16.70946
 30
0.0
 10
-13.97846
 20
16.588650000000001
 30
0.0
 10
-14.20346
 20
16.60003
 30
0.0
 10
-14.38472
 20
16.683039999999998
 30
0.0
 10
-14.38472
 20
16.683039999999998
 30
0.0
 10
-14.593579999999999
 20
16.778690000000001
 30
0.0
 10
-14.67779
 20
16.970680000000002
 30
0.0
 10
-14.67779
 20
17.100539999999999
 30
0.0
 10
-14.67779
 20
17.100539999999999
 30
0.0
 10
-15.327769999999999
 20
16.274740000000001
 30
0.0
 10
-14.828989999999999
 20
15.23982
 30
0.0
 10
-13.316649999999999
 20
15.28374
 30
0.0
 10
-13.316649999999999
 20
15.28374
 30
0.0
 10
-13.368309999999999
 20
15.077870000000001
 30
0.0
 10
-13.67001
 20
15.00605
 30
0.0
 10
-13.96848
 20
15.023440000000001
 30
0.0
 10
-13.96848
 20
15.023440000000001
 30
0.0
 10
-14.2773
 20
15.04144
 30
0.0
 10
-14.457000000000001
 20
15.139250000000001
 30
0.0
 10
-14.63428
 20
15.2553
 30
0.0
 10
-14.63428
 20
15.2553
 30
0.0
 10
-14.159190000000001
 20
14.80945
 30
0.0
 10
-12.96991
 20
14.479150000000001
 30
0.0
 10
-11.95992
 20
14.71799
 30
0.0
 10
-11.95992
 20
14.71799
 30
0.0
 10
-11.97702
 20
14.70026
 30
0.0
 10
-12.12757
 20
14.635529999999999
 30
0.0
 10
-12.174720000000001
 20
14.5908
 30
0.0
 10
-12.174720000000001
 20
14.5908
 30
0.0
 10
-12.383520000000001
 20
14.392720000000001
 30
0.0
 10
-12.2828
 20
14.27843
 30
0.0
 10
-13.048019999999999
 20
14.36819
 30
0.0
 10
-13.048019999999999
 20
14.36819
 30
0.0
 10
-12.945399999999999
 20
14.344099999999999
 30
0.0
 10
-12.83145
 20
14.320639999999999
 30
0.0
 10
-12.71355
 20
14.302720000000001
 30
0.0
 10
-12.71355
 20
14.302720000000001
 30
0.0
 10
-12.10782
 20
14.21053
 30
0.0
 10
-11.843870000000001
 20
14.33098
 30
0.0
 10
-11.48456
 20
14.568820000000001
 30
0.0
 10
-11.48456
 20
14.568820000000001
 30
0.0
 10
-11.28941
 20
14.697990000000001
 30
0.0
 10
-11.00545
 20
14.725300000000001
 30
0.0
 10
-10.87482
 20
14.826449999999999
 30
0.0
 10
-10.87482
 20
14.826449999999999
 30
0.0
 10
-10.79914
 20
14.885070000000001
 30
0.0
 10
-10.8161
 20
14.91902
 30
0.0
 10
-10.846970000000001
 20
14.98155
 30
0.0
 10
-10.846970000000001
 20
14.98155
 30
0.0
 10
-10.43356
 20
14.87041
 30
0.0
 10
-10.411530000000001
 20
14.58938
 30
0.0
 10
-10.666499999999999
 20
14.41226
 30
0.0
 10
-10.666499999999999
 20
14.41226
 30
0.0
 10
-10.814019999999999
 20
14.309799999999999
 30
0.0
 10
-11.039059999999999
 20
14.229139999999999
 30
0.0
 10
-11.270479999999999
 20
14.17989
 30
0.0
 10
-11.270479999999999
 20
14.17989
 30
0.0
 10
-11.60505
 20
14.10868
 30
0.0
 10
-11.9344
 20
14.08803
 30
0.0
 10
-12.34661
 20
14.10735
 30
0.0
 10
-12.34661
 20
14.10735
 30
0.0
 10
-15.303599999999999
 20
14.245979999999999
 30
0.0
 10
-15.9116
 20
16.45711
 30
0.0
 10
-14.72659
 20
17.541429999999998
 30
0.0
 10
-14.72659
 20
17.541429999999998
 30
0.0
 10
-14.619300000000001
 20
17.639610000000001
 30
0.0
 10
-14.50089
 20
17.739419999999999
 30
0.0
 10
-14.375069999999999
 20
17.84375
 30
0.0
 10
-14.375069999999999
 20
17.84375
 30
0.0
 10
-14.922689999999999
 20
17.763470000000002
 30
0.0
 10
-15.60253
 20
17.195630000000001
 30
0.0
 10
-15.2727
 20
16.922460000000001
 30
0.0
 10
-15.2727
 20
16.922460000000001
 30
0.0
 10
-15.24497
 20
16.89949
 30
0.0
 10
-15.43023
 20
16.970700000000001
 30
0.0
 10
-15.470000000000001
 20
16.982510000000001
 30
0.0
 10
-15.470000000000001
 20
16.982510000000001
 30
0.0
 10
-15.56288
 20
17.010110000000001
 30
0.0
 10
-15.641909999999999
 20
17.072610000000001
 30
0.0
 10
-15.695600000000001
 20
17.14451
 30
0.0
 10
-15.695600000000001
 20
17.14451
 30
0.0
 10
-15.950620000000001
 20
17.485980000000001
 30
0.0
 10
-15.17348
 20
17.744430000000001
 30
0.0
 10
-15.24668
 20
17.745200000000001
 30
0.0
 10
-15.24668
 20
17.745200000000001
 30
0.0
 10
-15.31823
 20
17.74596
 30
0.0
 10
-15.380179999999999
 20
17.746320000000001
 30
0.0
 10
-15.425700000000001
 20
17.757380000000001
 30
0.0
 10
-15.425700000000001
 20
17.757380000000001
 30
0.0
 10
-15.75813
 20
17.838149999999999
 30
0.0
 10
-15.91047
 20
17.937190000000001
 30
0.0
 10
-15.849500000000001
 20
18.124500000000001
 30
0.0
  0
SPLINE
  5
26
100
AcDbEntity
  8
Layer 1
 62
     5
100
AcDbSpline
210
0.0
220
0.0
230
1.0
 70
     1
 71
     3
 72
    36
 73
    32
 74
     0
 42
0.0000000001
 43
0.0000000001
 40
0.0
 40
0.0
 40
0.0
 40
0.0
 40
0.125
 40
0.125
 40
0.125
 40
0.125
 40
0.25
 40
0.25
 40
0.25
 40
0.25
 40
0.375
 40
0.375
 40
0.375
 40
0.375
 40
0.5
 40
0.5
 40
0.5
 40
0.5
 40
0.625
 40
0.625
 40
0.625
 40
0.625
 40
0.75
 40
0.75
 40
0.75
 40
0.75
 40
0.875
 40
0.875
 40
0.875
 40
0.875
 40
1.0
 40
1.0
 40
1.0
 40
1.0
 10
-10.67981
 20
16.743089999999999
 30
0.0
 10
-10.36745
 20
16.911069999999999
 30
0.0
 10
-9.4295399999999994
 20
17.24933
 30
0.0
 10
-9.0373699999999992
 20
16.935759999999998
 30
0.0
 10
-9.0373699999999992
 20
16.935759999999998
 30
0.0
 10
-8.7775800000000004
 20
17.083559999999999
 30
0.0
 10
-8.7996200000000009
 20
17.206379999999999
 30
0.0
 10
-9.0208200000000005
 20
17.270790000000002
 30
0.0
 10
-9.0208200000000005
 20
17.270790000000002
 30
0.0
 10
-9.3139099999999999
 20
17.356100000000001
 30
0.0
 10
-9.5965699999999998
 20
17.343509999999998
 30
0.0
 10
-9.8895999999999997
 20
17.309100000000001
 30
0.0
 10
-9.8895999999999997
 20
17.309100000000001
 30
0.0
 10
-11.435639999999999
 20
17.127610000000001
 30
0.0
 10
-12.39045
 20
15.821770000000001
 30
0.0
 10
-10.901630000000001
 20
15.048120000000001
 30
0.0
 10
-10.901630000000001
 20
15.048120000000001
 30
0.0
 10
-11.36436
 20
15.445959999999999
 30
0.0
 10
-11.51572
 20
15.840490000000001
 30
0.0
 10
-11.10439
 20
16.27178
 30
0.0
 10
-11.10439
 20
16.27178
 30
0.0
 10
-10.92897
 20
16.455719999999999
 30
0.0
 10
-10.65438
 20
16.599299999999999
 30
0.0
 10
-10.11463
 20
16.627780000000001
 30
0.0
 10
-10.11463
 20
16.627780000000001
 30
0.0
 10
-10.11463
 20
16.627780000000001
 30
0.0
 10
-10.12046
 20
16.653300000000002
 30
0.0
 10
-10.12046
 20
16.653300000000002
 30
0.0
 10
-10.12046
 20
16.653300000000002
 30
0.0
 10
-10.26571
 20
16.732209999999998
 30
0.0
 10
-10.44706
 20
16.73882
 30
0.0
 10
-10.67981
 20
16.743089999999999
 30
0.0
  0
SPLINE
  5
27
100
AcDbEntity
  8
Layer 1
 62
     5
100
AcDbSpline
210
0.0
220
0.0
230
1.0
 70
     1
 71
     3
 72
    36
 73
    32
 74
     0
 42
0.0000000001
 43
0.0000000001
 40
0.0
 40
0.0
 40
0.0
 40
0.0
 40
0.125
 40
0.125
 40
0.125
 40
0.125
 40
0.25
 40
0.25
 40
0.25
 40
0.25
 40
0.375
 40
0.375
 40
0.375
 40
0.375
 40
0.5
 40
0.5
 40
0.5
 40
0.5
 40
0.625
 40
0.625
 40
0.625
 40
0.625
 40
0.75
 40
0.75
 40
0.75
 40
0.75
 40
0.875
 40
0.875
 40
0.875
 40
0.875
 40
1.0
 40
1.0
 40
1.0
 40
1.0
 10
-10.95223
 20
11.15931
 30
0.0
 10
-10.95223
 20
11.15931
 30
0.0
 10
-13.8139
 20
11.15931
 30
0.0
 10
-13.8139
 20
11.15931
 30
0.0
 10
-13.8139
 20
11.15931
 30
0.0
 10
-14.19755
 20
11.15931
 30
0.0
 10
-14.511430000000001
 20
11.060320000000001
 30
0.0
 10
-14.511430000000001
 20
10.939360000000001
 30
0.0
 10
-14.511430000000001
 20
10.939360000000001
 30
0.0
 10
-14.511430000000001
 20
10.939360000000001
 30
0.0
 10
-14.511430000000001
 20
10.939360000000001
 30
0.0
 10
-14.511430000000001
 20
10.939360000000001
 30
0.0
 10
-14.511430000000001
 20
10.939360000000001
 30
0.0
 10
-14.511430000000001
 20
10.818390000000001
 30
0.0
 10
-14.19755
 20
10.719429999999999
 30
0.0
 10
-13.8139
 20
10.719429999999999
 30
0.0
 10
-13.8139
 20
10.719429999999999
 30
0.0
 10
-13.8139
 20
10.719429999999999
 30
0.0
 10
-10.95223
 20
10.719429999999999
 30
0.0
 10
-10.95223
 20
10.719429999999999
 30
0.0
 10
-10.95223
 20
10.719429999999999
 30
0.0
 10
-10.56859
 20
10.719429999999999
 30
0.0
 10
-10.2547
 20
10.818390000000001
 30
0.0
 10
-10.2547
 20
10.939360000000001
 30
0.0
 10
-10.2547
 20
10.939360000000001
 30
0.0
 10
-10.2547
 20
10.939360000000001
 30
0.0
 10
-10.2547
 20
10.939360000000001
 30
0.0
 10
-10.2547
 20
10.939360000000001
 30
0.0
 10
-10.2547
 20
10.939360000000001
 30
0.0
 10
-10.2547
 20
11.060320000000001
 30
0.0
 10
-10.56859
 20
11.15931
 30
0.0
 10
-10.95223
 20
11.15931
 30
0.0
  0
SPLINE
  5
28
100
AcDbEntity
  8
Layer 1
 62
     5
100
AcDbSpline
210
0.0
220
0.0
230
1.0
 70
     1
 71
     3
 72
    20
 73
    16
 74
     0
 42
0.0000000001
 43
0.0000000001
 40
0.0
 40
0.0
 40
0.0
 40
0.0
 40
0.25
 40
0.25
 40
0.25
 40
0.25
 40
0.5
 40
0.5
 40
0.5
 40
0.5
 40
0.75
 40
0.75
 40
0.75
 40
0.75
 40
1.0
 40
1.0
 40
1.0
 40
1.0
 10
-10.708970000000001
 20
13.20851
 30
0.0
 10
-10.708970000000001
 20
13.20851
 30
0.0
 10
-13.8474
 20
13.20851
 30
0.0
 10
-13.8474
 20
13.20851
 30
0.0
 10
-13.8474
 20
13.20851
 30
0.0
 10
-13.8474
 20
13.20851
 30
0.0
 10
-13.8474
 20
12.98456
 30
0.0
 10
-13.8474
 20
12.98456
 30
0.0
 10
-13.8474
 20
12.98456
 30
0.0
 10
-13.8474
 20
12.98456
 30
0.0
 10
-10.708970000000001
 20
12.98456
 30
0.0
 10
-10.708970000000001
 20
12.98456
 30
0.0
 10
-10.708970000000001
 20
12.98456
 30
0.0
 10
-10.708970000000001
 20
12.98456
 30
0.0
 10
-10.708970000000001
 20
13.20851
 30
0.0
 10
-10.708970000000001
 20
13.20851
 30
0.0
  0
SPLINE
  5
29
100
AcDbEntity
  8
Layer 1
 62
     5
100
AcDbSpline
210
0.0
220
0.0
230
1.0
 70
     1
 71
     3
 72
    36
 73
    32
 74
     0
 42
0.0000000001
 43
0.0000000001
 40
0.0
 40
0.0
 40
0.0
 40
0.0
 40
0.125
 40
0.125
 40
0.125
 40
0.125
 40
0.25
 40
0.25
 40
0.25
 40
0.25
 40
0.375
 40
0.375
 40
0.375
 40
0.375
 40
0.5
 40
0.5
 40
0.5
 40
0.5
 40
0.625
 40
0.625
 40
0.625
 40
0.625
 40
0.75
 40
0.75
 40
0.75
 40
0.75
 40
0.875
 40
0.875
 40
0.875
 40
0.875
 40
1.0
 40
1.0
 40
1.0
 40
1.0
 10
-10.752969999999999
 20
13.75244
 30
0.0
 10
-10.752969999999999
 20
13.75244
 30
0.0
 10
-13.682689999999999
 20
13.75244
 30
0.0
 10
-13.682689999999999
 20
13.75244
 30
0.0
 10
-13.682689999999999
 20
13.75244
 30
0.0
 10
-13.97245
 20
13.75244
 30
0.0
 10
-14.209530000000001
 20
13.651669999999999
 30
0.0
 10
-14.209530000000001
 20
13.52847
 30
0.0
 10
-14.209530000000001
 20
13.52847
 30
0.0
 10
-14.209530000000001
 20
13.52847
 30
0.0
 10
-14.209530000000001
 20
13.52848
 30
0.0
 10
-14.209530000000001
 20
13.52848
 30
0.0
 10
-14.209530000000001
 20
13.52848
 30
0.0
 10
-14.209530000000001
 20
13.405290000000001
 30
0.0
 10
-13.97245
 20
13.30452
 30
0.0
 10
-13.682689999999999
 20
13.30452
 30
0.0
 10
-13.682689999999999
 20
13.30452
 30
0.0
 10
-13.682689999999999
 20
13.30452
 30
0.0
 10
-10.752969999999999
 20
13.30452
 30
0.0
 10
-10.752969999999999
 20
13.30452
 30
0.0
 10
-10.752969999999999
 20
13.30452
 30
0.0
 10
-10.46321
 20
13.30452
 30
0.0
 10
-10.226129999999999
 20
13.405290000000001
 30
0.0
 10
-10.226129999999999
 20
13.52848
 30
0.0
 10
-10.226129999999999
 20
13.52848
 30
0.0
 10
-10.226129999999999
 20
13.52848
 30
0.0
 10
-10.226129999999999
 20
13.52847
 30
0.0
 10
-10.226129999999999
 20
13.52847
 30
0.0
 10
-10.226129999999999
 20
13.52847
 30
0.0
 10
-10.226129999999999
 20
13.651669999999999
 30
0.0
 10
-10.46321
 20
13.75244
 30
0.0
 10
-10.752969999999999
 20
13.75244
 30
0.0
  0
SPLINE
  5
2A
100
AcDbEntity
  8
Layer 1
 62
     5
100
AcDbSpline
210
0.0
220
0.0
230
1.0
 70
     1
 71
     3
 72
    44
 73
    40
 74
     0
 42
0.0000000001
 43
0.0000000001
 40
0.0
 40
0.0
 40
0.0
 40
0.0
 40
0.1
 40
0.1
 40
0.1
 40
0.1
 40
0.2
 40
0.2
 40
0.2
 40
0.2
 40
0.3
 40
0.3
 40
0.3
 40
0.3
 40
0.4
 40
0.4
 40
0.4
 40
0.4
 40
0.5
 40
0.5
 40
0.5
 40
0.5
 40
0.6
 40
0.6
 40
0.6
 40
0.6
 40
0.7
 40
0.7
 40
0.7
 40
0.7
 40
0.7999999999999999
 40
0.7999999999999999
 40
0.7999999999999999
 40
0.7999999999999999
 40
0.8999999999999999
 40
0.8999999999999999
 40
0.8999999999999999
 40
0.8999999999999999
 40
1.0
 40
1.0
 40
1.0
 40
1.0
 10
-11.216379999999999
 20
12.428699999999999
 30
0.0
 10
-11.216379999999999
 20
12.1754
 30
0.0
 10
-10.8368
 20
11.96881
 30
0.0
 10
-10.371409999999999
 20
11.96881
 30
0.0
 10
-10.371409999999999
 20
11.96881
 30
0.0
 10
-9.9060100000000002
 20
11.96881
 30
0.0
 10
-9.5264500000000005
 20
12.1754
 30
0.0
 10
-9.5264500000000005
 20
12.428699999999999
 30
0.0
 10
-9.5264500000000005
 20
12.428699999999999
 30
0.0
 10
-9.5264500000000005
 20
12.681979999999999
 30
0.0
 10
-9.9060100000000002
 20
12.88856
 30
0.0
 10
-10.371409999999999
 20
12.88856
 30
0.0
 10
-10.371409999999999
 20
12.88856
 30
0.0
 10
-10.371409999999999
 20
12.88856
 30
0.0
 10
-14.350899999999999
 20
12.88856
 30
0.0
 10
-14.350899999999999
 20
12.88856
 30
0.0
 10
-14.350899999999999
 20
12.88856
 30
0.0
 10
-14.350899999999999
 20
12.88856
 30
0.0
 10
-14.378170000000001
 20
12.88856
 30
0.0
 10
-14.378170000000001
 20
12.88856
 30
0.0
 10
-14.378170000000001
 20
12.88856
 30
0.0
 10
-14.378170000000001
 20
12.88856
 30
0.0
 10
-14.378170000000001
 20
12.888299999999999
 30
0.0
 10
-14.378170000000001
 20
12.888299999999999
 30
0.0
 10
-14.378170000000001
 20
12.888299999999999
 30
0.0
 10
-14.83103
 20
12.88043
 30
0.0
 10
-15.195869999999999
 20
12.677009999999999
 30
0.0
 10
-15.195869999999999
 20
12.428699999999999
 30
0.0
 10
-15.195869999999999
 20
12.428699999999999
 30
0.0
 10
-15.195869999999999
 20
12.1754
 30
0.0
 10
-14.81631
 20
11.96881
 30
0.0
 10
-14.350899999999999
 20
11.96881
 30
0.0
 10
-14.350899999999999
 20
11.96881
 30
0.0
 10
-13.88551
 20
11.96881
 30
0.0
 10
-13.505940000000001
 20
12.1754
 30
0.0
 10
-13.505940000000001
 20
12.428699999999999
 30
0.0
 10
-13.505940000000001
 20
12.428699999999999
 30
0.0
 10
-13.505940000000001
 20
12.428699999999999
 30
0.0
 10
-11.216379999999999
 20
12.428699999999999
 30
0.0
 10
-11.216379999999999
 20
12.428699999999999
 30
0.0
  0
SPLINE
  5
2B
100
AcDbEntity
  8
Layer 1
 62
     5
100
AcDbSpline
210
0.0
220
0.0
230
1.0
 70
     1
 71
     3
 72
    20
 73
    16
 74
     0
 42
0.0000000001
 43
0.0000000001
 40
0.0
 40
0.0
 40
0.0
 40
0.0
 40
0.25
 40
0.25
 40
0.25
 40
0.25
 40
0.5
 40
0.5
 40
0.5
 40
0.5
 40
0.75
 40
0.75
 40
0.75
 40
0.75
 40
1.0
 40
1.0
 40
1.0
 40
1.0
 10
-14.33309
 20
12.724360000000001
 30
0.0
 10
-14.62392
 20
12.724360000000001
 30
0.0
 10
-14.861129999999999
 20
12.59524
 30
0.0
 10
-14.861129999999999
 20
12.436959999999999
 30
0.0
 10
-14.861129999999999
 20
12.436959999999999
 30
0.0
 10
-14.861129999999999
 20
12.27868
 30
0.0
 10
-14.62392
 20
12.149570000000001
 30
0.0
 10
-14.33309
 20
12.149570000000001
 30
0.0
 10
-14.33309
 20
12.149570000000001
 30
0.0
 10
-14.042260000000001
 20
12.149570000000001
 30
0.0
 10
-13.80505
 20
12.27868
 30
0.0
 10
-13.80505
 20
12.436959999999999
 30
0.0
 10
-13.80505
 20
12.436959999999999
 30
0.0
 10
-13.80505
 20
12.59524
 30
0.0
 10
-14.042260000000001
 20
12.724360000000001
 30
0.0
 10
-14.33309
 20
12.724360000000001
 30
0.0
  0
SPLINE
  5
2C
100
AcDbEntity
  8
Layer 1
 62
     5
100
AcDbSpline
210
0.0
220
0.0
230
1.0
 70
     1
 71
     3
 72
    20
 73
    16
 74
     0
 42
0.0000000001
 43
0.0000000001
 40
0.0
 40
0.0
 40
0.0
 40
0.0
 40
0.25
 40
0.25
 40
0.25
 40
0.25
 40
0.5
 40
0.5
 40
0.5
 40
0.5
 40
0.75
 40
0.75
 40
0.75
 40
0.75
 40
1.0
 40
1.0
 40
1.0
 40
1.0
 10
-10.383290000000001
 20
12.724360000000001
 30
0.0
 10
-10.67413
 20
12.724360000000001
 30
0.0
 10
-10.91133
 20
12.59524
 30
0.0
 10
-10.91133
 20
12.436959999999999
 30
0.0
 10
-10.91133
 20
12.436959999999999
 30
0.0
 10
-10.91133
 20
12.27868
 30
0.0
 10
-10.67413
 20
12.149570000000001
 30
0.0
 10
-10.383290000000001
 20
12.149570000000001
 30
0.0
 10
-10.383290000000001
 20
12.149570000000001
 30
0.0
 10
-10.092460000000001
 20
12.149570000000001
 30
0.0
 10
-9.8552499999999998
 20
12.27868
 30
0.0
 10
-9.8552499999999998
 20
12.436959999999999
 30
0.0
 10
-9.8552499999999998
 20
12.436959999999999
 30
0.0
 10
-9.8552499999999998
 20
12.59524
 30
0.0
 10
-10.092460000000001
 20
12.724360000000001
 30
0.0
 10
-10.383290000000001
 20
12.724360000000001
 30
0.0
  0
LWPOLYLINE
  5
2D
100
AcDbEntity
  8
Layer 1
 62
     5
100
AcDbPolyline
 90
        5
 70
     1
 10
-14.10435
 20
10.24042
 10
-10.88069
 20
10.24042
 10
-10.88069
 20
10.60894
 10
-14.10435
 20
10.60894
 10
-14.10435
 20
10.24042
  0
SPLINE
  5
2E
100
AcDbEntity
  8
Layer 1
 62
     5
100
AcDbSpline
210
0.0
220
0.0
230
1.0
 70
     1
 71
     3
 72
    16
 73
    12
 74
     0
 42
0.0000000001
 43
0.0000000001
 40
0.0
 40
0.0
 40
0.0
 40
0.0
 40
0.3333333333333333
 40
0.3333333333333333
 40
0.3333333333333333
 40
0.3333333333333333
 40
0.6666666666666666
 40
0.6666666666666666
 40
0.6666666666666666
 40
0.6666666666666666
 40
1.0
 40
1.0
 40
1.0
 40
1.0
 10
-13.15677
 20
10.060560000000001
 30
0.0
 10
-13.15677
 20
10.060560000000001
 30
0.0
 10
-11.271430000000001
 20
10.060560000000001
 30
0.0
 10
-11.271430000000001
 20
10.060560000000001
 30
0.0
 10
-11.271430000000001
 20
10.060560000000001
 30
0.0
 10
-10.96524
 20
9.4177999999999997
 30
0.0
 10
-11.00074
 20
8.9655500000000004
 30
0.0
 10
-11.271430000000001
 20
8.6250999999999998
 30
0.0
 10
-11.271430000000001
 20
8.6250999999999998
 30
0.0
 10
-11.271430000000001
 20
8.6250999999999998
 30
0.0
 10
-13.15677
 20
10.060560000000001
 30
0.0
 10
-13.15677
 20
10.060560000000001
 30
0.0
  0
SPLINE
  5
2F
100
AcDbEntity
  8
Layer 1
 62
     5
100
AcDbSpline
210
0.0
220
0.0
230
1.0
 70
     1
 71
     3
 72
    20
 73
    16
 74
     0
 42
0.0000000001
 43
0.0000000001
 40
0.0
 40
0.0
 40
0.0
 40
0.0
 40
0.25
 40
0.25
 40
0.25
 40
0.25
 40
0.5
 40
0.5
 40
0.5
 40
0.5
 40
0.75
 40
0.75
 40
0.75
 40
0.75
 40
1.0
 40
1.0
 40
1.0
 40
1.0
 10
-11.12832
 20
8.1911100000000001
 30
0.0
 10
-10.842079999999999
 20
7.5049599999999996
 30
0.0
 10
-10.842079999999999
 20
6.9713399999999996
 30
0.0
 10
-11.12832
 20
6.5902099999999999
 30
0.0
 10
-11.12832
 20
6.5902099999999999
 30
0.0
 10
-11.12832
 20
6.5902099999999999
 30
0.0
 10
-13.63711
 20
8.5003499999999992
 30
0.0
 10
-13.63711
 20
8.5003499999999992
 30
0.0
 10
-13.63711
 20
8.5003499999999992
 30
0.0
 10
-14.067880000000001
 20
9.2059300000000004
 30
0.0
 10
-13.92421
 20
9.7012900000000002
 30
0.0
 10
-13.63711
 20
10.10122
 30
0.0
 10
-13.63711
 20
10.10122
 30
0.0
 10
-13.63711
 20
10.10122
 30
0.0
 10
-11.12832
 20
8.1911100000000001
 30
0.0
 10
-11.12832
 20
8.1911100000000001
 30
0.0
  0
SPLINE
  5
30
100
AcDbEntity
  8
Layer 1
 62
     5
100
AcDbSpline
210
0.0
220
0.0
230
1.0
 70
     1
 71
     3
 72
    20
 73
    16
 74
     0
 42
0.0000000001
 43
0.0000000001
 40
0.0
 40
0.0
 40
0.0
 40
0.0
 40
0.25
 40
0.25
 40
0.25
 40
0.25
 40
0.5
 40
0.5
 40
0.5
 40
0.5
 40
0.75
 40
0.75
 40
0.75
 40
0.75
 40
1.0
 40
1.0
 40
1.0
 40
1.0
 10
-11.12832
 20
6.3077199999999998
 30
0.0
 10
-10.842079999999999
 20
5.6215599999999997
 30
0.0
 10
-10.842079999999999
 20
5.0879200000000004
 30
0.0
 10
-11.12832
 20
4.7068099999999999
 30
0.0
 10
-11.12832
 20
4.7068099999999999
 30
0.0
 10
-11.12832
 20
4.7068099999999999
 30
0.0
 10
-13.637119999999999
 20
6.6169500000000001
 30
0.0
 10
-13.637119999999999
 20
6.6169500000000001
 30
0.0
 10
-13.637119999999999
 20
6.6169500000000001
 30
0.0
 10
-14.06789
 20
7.3225300000000004
 30
0.0
 10
-13.92422
 20
7.8178900000000002
 30
0.0
 10
-13.637119999999999
 20
8.2178199999999997
 30
0.0
 10
-13.637119999999999
 20
8.2178199999999997
 30
0.0
 10
-13.637119999999999
 20
8.2178199999999997
 30
0.0
 10
-11.12832
 20
6.3077199999999998
 30
0.0
 10
-11.12832
 20
6.3077199999999998
 30
0.0
  0
SPLINE
  5
31
100
AcDbEntity
  8
Layer 1
 62
     5
100
AcDbSpline
210
0.0
220
0.0
230
1.0
 70
     1
 71
     3
 72
    20
 73
    16
 74
     0
 42
0.0000000001
 43
0.0000000001
 40
0.0
 40
0.0
 40
0.0
 40
0.0
 40
0.25
 40
0.25
 40
0.25
 40
0.25
 40
0.5
 40
0.5
 40
0.5
 40
0.5
 40
0.75
 40
0.75
 40
0.75
 40
0.75
 40
1.0
 40
1.0
 40
1.0
 40
1.0
 10
-11.12832
 20
4.4243100000000002
 30
0.0
 10
-10.842079999999999
 20
3.7381500000000001
 30
0.0
 10
-10.842079999999999
 20
3.20452
 30
0.0
 10
-11.12832
 20
2.8233899999999998
 30
0.0
 10
-11.12832
 20
2.8233899999999998
 30
0.0
 10
-11.12832
 20
2.8233899999999998
 30
0.0
 10
-13.637119999999999
 20
4.73353
 30
0.0
 10
-13.637119999999999
 20
4.73353
 30
0.0
 10
-13.637119999999999
 20
4.73353
 30
0.0
 10
-14.06789
 20
5.43912
 30
0.0
 10
-13.92422
 20
5.9344900000000003
 30
0.0
 10
-13.637119999999999
 20
6.3344199999999997
 30
0.0
 10
-13.637119999999999
 20
6.3344199999999997
 30
0.0
 10
-13.637119999999999
 20
6.3344199999999997
 30
0.0
 10
-11.12832
 20
4.4243100000000002
 30
0.0
 10
-11.12832
 20
4.4243100000000002
 30
0.0
  0
SPLINE
  5
32
100
AcDbEntity
  8
Layer 1
 62
     5
100
AcDbSpline
210
0.0
220
0.0
230
1.0
 70
     1
 71
     3
 72
    20
 73
    16
 74
     0
 42
0.0000000001
 43
0.0000000001
 40
0.0
 40
0.0
 40
0.0
 40
0.0
 40
0.25
 40
0.25
 40
0.25
 40
0.25
 40
0.5
 40
0.5
 40
0.5
 40
0.5
 40
0.75
 40
0.75
 40
0.75
 40
0.75
 40
1.0
 40
1.0
 40
1.0
 40
1.0
 10
-11.12832
 20
2.5409099999999998
 30
0.0
 10
-10.842079999999999
 20
1.8547499999999999
 30
0.0
 10
-10.842079999999999
 20
1.3211200000000001
 30
0.0
 10
-11.12832
 20
0.94
 30
0.0
 10
-11.12832
 20
0.94
 30
0.0
 10
-11.12832
 20
0.94
 30
0.0
 10
-13.637119999999999
 20
2.8501300000000001
 30
0.0
 10
-13.637119999999999
 20
2.8501300000000001
 30
0.0
 10
-13.637119999999999
 20
2.8501300000000001
 30
0.0
 10
-14.06789
 20
3.55572
 30
0.0
 10
-13.92422
 20
4.0510900000000003
 30
0.0
 10
-13.637119999999999
 20
4.4510100000000001
 30
0.0
 10
-13.637119999999999
 20
4.4510100000000001
 30
0.0
 10
-13.637119999999999
 20
4.4510100000000001
 30
0.0
 10
-11.12832
 20
2.5409099999999998
 30
0.0
 10
-11.12832
 20
2.5409099999999998
 30
0.0
  0
SPLINE
  5
33
100
AcDbEntity
  8
Layer 1
 62
     5
100
AcDbSpline
210
0.0
220
0.0
230
1.0
 70
     1
 71
     3
 72
    20
 73
    16
 74
     0
 42
0.0000000001
 43
0.0000000001
 40
0.0
 40
0.0
 40
0.0
 40
0.0
 40
0.25
 40
0.25
 40
0.25
 40
0.25
 40
0.5
 40
0.5
 40
0.5
 40
0.5
 40
0.75
 40
0.75
 40
0.75
 40
0.75
 40
1.0
 40
1.0
 40
1.0
 40
1.0
 10
-11.12832
 20
0.65751
 30
0.0
 10
-10.842079999999999
 20
-0.02866
 30
0.0
 10
-10.842079999999999
 20
-0.56228
 30
0.0
 10
-11.12832
 20
-0.94341
 30
0.0
 10
-11.12832
 20
-0.94341
 30
0.0
 10
-11.12832
 20
-0.94341
 30
0.0
 10
-13.637119999999999
 20
0.96673
 30
0.0
 10
-13.637119999999999
 20
0.96673
 30
0.0
 10
-13.637119999999999
 20
0.96673
 30
0.0
 10
-14.06789
 20
1.67231
 30
0.0
 10
-13.92422
 20
2.1676799999999998
 30
0.0
 10
-13.637119999999999
 20
2.5676199999999998
 30
0.0
 10
-13.637119999999999
 20
2.5676199999999998
 30
0.0
 10
-13.637119999999999
 20
2.5676199999999998
 30
0.0
 10
-11.12832
 20
0.65751
 30
0.0
 10
-11.12832
 20
0.65751
 30
0.0
  0
SPLINE
  5
34
100
AcDbEntity
  8
Layer 1
 62
     5
100
AcDbSpline
210
0.0
220
0.0
230
1.0
 70
     1
 71
     3
 72
    20
 73
    16
 74
     0
 42
0.0000000001
 43
0.0000000001
 40
0.0
 40
0.0
 40
0.0
 40
0.0
 40
0.25
 40
0.25
 40
0.25
 40
0.25
 40
0.5
 40
0.5
 40
0.5
 40
0.5
 40
0.75
 40
0.75
 40
0.75
 40
0.75
 40
1.0
 40
1.0
 40
1.0
 40
1.0
 10
-11.12832
 20
-1.2259
 30
0.0
 10
-10.842079999999999
 20
-1.9120600000000001
 30
0.0
 10
-10.842079999999999
 20
-2.4456899999999999
 30
0.0
 10
-11.12832
 20
-2.82681
 30
0.0
 10
-11.12832
 20
-2.82681
 30
0.0
 10
-11.12832
 20
-2.82681
 30
0.0
 10
-13.637119999999999
 20
-0.91667
 30
0.0
 10
-13.637119999999999
 20
-0.91667
 30
0.0
 10
-13.637119999999999
 20
-0.91667
 30
0.0
 10
-14.06789
 20
-0.21108
 30
0.0
 10
-13.92422
 20
0.28428
 30
0.0
 10
-13.637119999999999
 20
0.6842
 30
0.0
 10
-13.637119999999999
 20
0.6842
 30
0.0
 10
-13.637119999999999
 20
0.6842
 30
0.0
 10
-11.12832
 20
-1.2259
 30
0.0
 10
-11.12832
 20
-1.2259
 30
0.0
  0
SPLINE
  5
35
100
AcDbEntity
  8
Layer 1
 62
     5
100
AcDbSpline
210
0.0
220
0.0
230
1.0
 70
     1
 71
     3
 72
    20
 73
    16
 74
     0
 42
0.0000000001
 43
0.0000000001
 40
0.0
 40
0.0
 40
0.0
 40
0.0
 40
0.25
 40
0.25
 40
0.25
 40
0.25
 40
0.5
 40
0.5
 40
0.5
 40
0.5
 40
0.75
 40
0.75
 40
0.75
 40
0.75
 40
1.0
 40
1.0
 40
1.0
 40
1.0
 10
-11.12832
 20
-3.1093099999999998
 30
0.0
 10
-10.842079999999999
 20
-3.7954699999999999
 30
0.0
 10
-10.842079999999999
 20
-4.3291000000000004
 30
0.0
 10
-11.12832
 20
-4.7102399999999998
 30
0.0
 10
-11.12832
 20
-4.7102399999999998
 30
0.0
 10
-11.12832
 20
-4.7102399999999998
 30
0.0
 10
-13.637119999999999
 20
-2.80009
 30
0.0
 10
-13.637119999999999
 20
-2.80009
 30
0.0
 10
-13.637119999999999
 20
-2.80009
 30
0.0
 10
-14.06789
 20
-2.0945
 30
0.0
 10
-13.92422
 20
-1.5991299999999999
 30
0.0
 10
-13.637119999999999
 20
-1.1992
 30
0.0
 10
-13.637119999999999
 20
-1.1992
 30
0.0
 10
-13.637119999999999
 20
-1.1992
 30
0.0
 10
-11.12832
 20
-3.1093099999999998
 30
0.0
 10
-11.12832
 20
-3.1093099999999998
 30
0.0
  0
SPLINE
  5
36
100
AcDbEntity
  8
Layer 1
 62
     5
100
AcDbSpline
210
0.0
220
0.0
230
1.0
 70
     1
 71
     3
 72
    20
 73
    16
 74
     0
 42
0.0000000001
 43
0.0000000001
 40
0.0
 40
0.0
 40
0.0
 40
0.0
 40
0.25
 40
0.25
 40
0.25
 40
0.25
 40
0.5
 40
0.5
 40
0.5
 40
0.5
 40
0.75
 40
0.75
 40
0.75
 40
0.75
 40
1.0
 40
1.0
 40
1.0
 40
1.0
 10
-11.12832
 20
-4.9927200000000003
 30
0.0
 10
-10.842079999999999
 20
-5.6788600000000002
 30
0.0
 10
-10.842079999999999
 20
-6.2125000000000004
 30
0.0
 10
-11.12832
 20
-6.5936199999999996
 30
0.0
 10
-11.12832
 20
-6.5936199999999996
 30
0.0
 10
-11.12832
 20
-6.5936199999999996
 30
0.0
 10
-13.637119999999999
 20
-4.6834899999999999
 30
0.0
 10
-13.637119999999999
 20
-4.6834899999999999
 30
0.0
 10
-13.637119999999999
 20
-4.6834899999999999
 30
0.0
 10
-14.06789
 20
-3.9778899999999999
 30
0.0
 10
-13.92422
 20
-3.4825300000000001
 30
0.0
 10
-13.637119999999999
 20
-3.0826099999999999
 30
0.0
 10
-13.637119999999999
 20
-3.0826099999999999
 30
0.0
 10
-13.637119999999999
 20
-3.0826099999999999
 30
0.0
 10
-11.12832
 20
-4.9927200000000003
 30
0.0
 10
-11.12832
 20
-4.9927200000000003
 30
0.0
  0
SPLINE
  5
37
100
AcDbEntity
  8
Layer 1
 62
     5
100
AcDbSpline
210
0.0
220
0.0
230
1.0
 70
     1
 71
     3
 72
    20
 73
    16
 74
     0
 42
0.0000000001
 43
0.0000000001
 40
0.0
 40
0.0
 40
0.0
 40
0.0
 40
0.25
 40
0.25
 40
0.25
 40
0.25
 40
0.5
 40
0.5
 40
0.5
 40
0.5
 40
0.75
 40
0.75
 40
0.75
 40
0.75
 40
1.0
 40
1.0
 40
1.0
 40
1.0
 10
-11.12832
 20
-6.8761099999999997
 30
0.0
 10
-10.842079999999999
 20
-7.5622699999999998
 30
0.0
 10
-10.842079999999999
 20
-8.0959199999999996
 30
0.0
 10
-11.12832
 20
-8.4770299999999992
 30
0.0
 10
-11.12832
 20
-8.4770299999999992
 30
0.0
 10
-11.12832
 20
-8.4770299999999992
 30
0.0
 10
-13.63711
 20
-6.5668899999999999
 30
0.0
 10
-13.63711
 20
-6.5668899999999999
 30
0.0
 10
-13.63711
 20
-6.5668899999999999
 30
0.0
 10
-14.067880000000001
 20
-5.8613
 30
0.0
 10
-13.92421
 20
-5.3659400000000002
 30
0.0
 10
-13.63711
 20
-4.9660099999999998
 30
0.0
 10
-13.63711
 20
-4.9660099999999998
 30
0.0
 10
-13.63711
 20
-4.9660099999999998
 30
0.0
 10
-11.12832
 20
-6.8761099999999997
 30
0.0
 10
-11.12832
 20
-6.8761099999999997
 30
0.0
  0
SPLINE
  5
38
100
AcDbEntity
  8
Layer 1
 62
     5
100
AcDbSpline
210
0.0
220
0.0
230
1.0
 70
     1
 71
     3
 72
    20
 73
    16
 74
     0
 42
0.0000000001
 43
0.0000000001
 40
0.0
 40
0.0
 40
0.0
 40
0.0
 40
0.25
 40
0.25
 40
0.25
 40
0.25
 40
0.5
 40
0.5
 40
0.5
 40
0.5
 40
0.75
 40
0.75
 40
0.75
 40
0.75
 40
1.0
 40
1.0
 40
1.0
 40
1.0
 10
-11.12832
 20
-8.7595200000000002
 30
0.0
 10
-10.842079999999999
 20
-9.4457000000000004
 30
0.0
 10
-10.842079999999999
 20
-9.9793199999999995
 30
0.0
 10
-11.12832
 20
-10.36045
 30
0.0
 10
-11.12832
 20
-10.36045
 30
0.0
 10
-11.12832
 20
-10.36045
 30
0.0
 10
-13.637119999999999
 20
-8.4502900000000007
 30
0.0
 10
-13.637119999999999
 20
-8.4502900000000007
 30
0.0
 10
-13.637119999999999
 20
-8.4502900000000007
 30
0.0
 10
-14.06789
 20
-7.7447100000000004
 30
0.0
 10
-13.92422
 20
-7.2493499999999997
 30
0.0
 10
-13.637119999999999
 20
-6.8494200000000003
 30
0.0
 10
-13.637119999999999
 20
-6.8494200000000003
 30
0.0
 10
-13.637119999999999
 20
-6.8494200000000003
 30
0.0
 10
-11.12832
 20
-8.7595200000000002
 30
0.0
 10
-11.12832
 20
-8.7595200000000002
 30
0.0
  0
SPLINE
  5
39
100
AcDbEntity
  8
Layer 1
 62
     5
100
AcDbSpline
210
0.0
220
0.0
230
1.0
 70
     1
 71
     3
 72
    20
 73
    16
 74
     0
 42
0.0000000001
 43
0.0000000001
 40
0.0
 40
0.0
 40
0.0
 40
0.0
 40
0.25
 40
0.25
 40
0.25
 40
0.25
 40
0.5
 40
0.5
 40
0.5
 40
0.5
 40
0.75
 40
0.75
 40
0.75
 40
0.75
 40
1.0
 40
1.0
 40
1.0
 40
1.0
 10
-11.12832
 20
-10.642939999999999
 30
0.0
 10
-10.842079999999999
 20
-11.329079999999999
 30
0.0
 10
-10.842079999999999
 20
-11.86271
 30
0.0
 10
-11.12832
 20
-12.24385
 30
0.0
 10
-11.12832
 20
-12.24385
 30
0.0
 10
-11.12832
 20
-12.24385
 30
0.0
 10
-13.637119999999999
 20
-10.333690000000001
 30
0.0
 10
-13.637119999999999
 20
-10.333690000000001
 30
0.0
 10
-13.637119999999999
 20
-10.333690000000001
 30
0.0
 10
-14.06789
 20
-9.6281099999999995
 30
0.0
 10
-13.92422
 20
-9.1327700000000007
 30
0.0
 10
-13.637119999999999
 20
-8.7328200000000002
 30
0.0
 10
-13.637119999999999
 20
-8.7328200000000002
 30
0.0
 10
-13.637119999999999
 20
-8.7328200000000002
 30
0.0
 10
-11.12832
 20
-10.642939999999999
 30
0.0
 10
-11.12832
 20
-10.642939999999999
 30
0.0
  0
SPLINE
  5
3A
100
AcDbEntity
  8
Layer 1
 62
     5
100
AcDbSpline
210
0.0
220
0.0
230
1.0
 70
     1
 71
     3
 72
    20
 73
    16
 74
     0
 42
0.0000000001
 43
0.0000000001
 40
0.0
 40
0.0
 40
0.0
 40
0.0
 40
0.25
 40
0.25
 40
0.25
 40
0.25
 40
0.5
 40
0.5
 40
0.5
 40
0.5
 40
0.75
 40
0.75
 40
0.75
 40
0.75
 40
1.0
 40
1.0
 40
1.0
 40
1.0
 10
-11.12832
 20
-12.526339999999999
 30
0.0
 10
-10.842079999999999
 20
-13.2125
 30
0.0
 10
-10.842079999999999
 20
-13.746119999999999
 30
0.0
 10
-11.12832
 20
-14.12726
 30
0.0
 10
-11.12832
 20
-14.12726
 30
0.0
 10
-11.12832
 20
-14.12726
 30
0.0
 10
-13.637119999999999
 20
-12.21711
 30
0.0
 10
-13.637119999999999
 20
-12.21711
 30
0.0
 10
-13.637119999999999
 20
-12.21711
 30
0.0
 10
-14.06789
 20
-11.511520000000001
 30
0.0
 10
-13.92422
 20
-11.01615
 30
0.0
 10
-13.637119999999999
 20
-10.61623
 30
0.0
 10
-13.637119999999999
 20
-10.61623
 30
0.0
 10
-13.637119999999999
 20
-10.61623
 30
0.0
 10
-11.12832
 20
-12.526339999999999
 30
0.0
 10
-11.12832
 20
-12.526339999999999
 30
0.0
  0
SPLINE
  5
3B
100
AcDbEntity
  8
Layer 1
 62
     5
100
AcDbSpline
210
0.0
220
0.0
230
1.0
 70
     1
 71
     3
 72
    20
 73
    16
 74
     0
 42
0.0000000001
 43
0.0000000001
 40
0.0
 40
0.0
 40
0.0
 40
0.0
 40
0.25
 40
0.25
 40
0.25
 40
0.25
 40
0.5
 40
0.5
 40
0.5
 40
0.5
 40
0.75
 40
0.75
 40
0.75
 40
0.75
 40
1.0
 40
1.0
 40
1.0
 40
1.0
 10
-11.12832
 20
-14.40973
 30
0.0
 10
-10.842079999999999
 20
-15.0959
 30
0.0
 10
-10.842079999999999
 20
-15.62954
 30
0.0
 10
-11.12832
 20
-16.010660000000001
 30
0.0
 10
-11.12832
 20
-16.010660000000001
 30
0.0
 10
-11.12832
 20
-16.010660000000001
 30
0.0
 10
-13.637119999999999
 20
-14.10051
 30
0.0
 10
-13.637119999999999
 20
-14.10051
 30
0.0
 10
-13.637119999999999
 20
-14.10051
 30
0.0
 10
-14.06789
 20
-13.39493
 30
0.0
 10
-13.92422
 20
-12.899570000000001
 30
0.0
 10
-13.637119999999999
 20
-12.49962
 30
0.0
 10
-13.637119999999999
 20
-12.49962
 30
0.0
 10
-13.637119999999999
 20
-12.49962
 30
0.0
 10
-11.12832
 20
-14.40973
 30
0.0
 10
-11.12832
 20
-14.40973
 30
0.0
  0
SPLINE
  5
3C
100
AcDbEntity
  8
Layer 1
 62
     5
100
AcDbSpline
210
0.0
220
0.0
230
1.0
 70
     1
 71
     3
 72
    20
 73
    16
 74
     0
 42
0.0000000001
 43
0.0000000001
 40
0.0
 40
0.0
 40
0.0
 40
0.0
 40
0.25
 40
0.25
 40
0.25
 40
0.25
 40
0.5
 40
0.5
 40
0.5
 40
0.5
 40
0.75
 40
0.75
 40
0.75
 40
0.75
 40
1.0
 40
1.0
 40
1.0
 40
1.0
 10
-11.12832
 20
-16.293150000000001
 30
0.0
 10
-10.842079999999999
 20
-16.979299999999999
 30
0.0
 10
-10.842079999999999
 20
-17.512930000000001
 30
0.0
 10
-11.12832
 20
-17.89406
 30
0.0
 10
-11.12832
 20
-17.89406
 30
0.0
 10
-11.12832
 20
-17.89406
 30
0.0
 10
-13.637119999999999
 20
-15.98391
 30
0.0
 10
-13.637119999999999
 20
-15.98391
 30
0.0
 10
-13.637119999999999
 20
-15.98391
 30
0.0
 10
-14.06789
 20
-15.27833
 30
0.0
 10
-13.92422
 20
-14.782970000000001
 30
0.0
 10
-13.637119999999999
 20
-14.383050000000001
 30
0.0
 10
-13.637119999999999
 20
-14.383050000000001
 30
0.0
 10
-13.637119999999999
 20
-14.383050000000001
 30
0.0
 10
-11.12832
 20
-16.293150000000001
 30
0.0
 10
-11.12832
 20
-16.293150000000001
 30
0.0
  0
SPLINE
  5
3D
100
AcDbEntity
  8
Layer 1
 62
     5
100
AcDbSpline
210
0.0
220
0.0
230
1.0
 70
     1
 71
     3
 72
    20
 73
    16
 74
     0
 42
0.0000000001
 43
0.0000000001
 40
0.0
 40
0.0
 40
0.0
 40
0.0
 40
0.25
 40
0.25
 40
0.25
 40
0.25
 40
0.5
 40
0.5
 40
0.5
 40
0.5
 40
0.75
 40
0.75
 40
0.75
 40
0.75
 40
1.0
 40
1.0
 40
1.0
 40
1.0
 10
-11.12832
 20
-18.176559999999998
 30
0.0
 10
-10.842079999999999
 20
-18.862729999999999
 30
0.0
 10
-10.842079999999999
 20
-19.396339999999999
 30
0.0
 10
-11.12832
 20
-19.777460000000001
 30
0.0
 10
-11.12832
 20
-19.777460000000001
 30
0.0
 10
-11.12832
 20
-19.777460000000001
 30
0.0
 10
-13.637119999999999
 20
-17.867319999999999
 30
0.0
 10
-13.637119999999999
 20
-17.867319999999999
 30
0.0
 10
-13.637119999999999
 20
-17.867319999999999
 30
0.0
 10
-14.06789
 20
-17.161740000000002
 30
0.0
 10
-13.92422
 20
-16.666370000000001
 30
0.0
 10
-13.637119999999999
 20
-16.266449999999999
 30
0.0
 10
-13.637119999999999
 20
-16.266449999999999
 30
0.0
 10
-13.637119999999999
 20
-16.266449999999999
 30
0.0
 10
-11.12832
 20
-18.176559999999998
 30
0.0
 10
-11.12832
 20
-18.176559999999998
 30
0.0
  0
SPLINE
  5
3E
100
AcDbEntity
  8
Layer 1
 62
     5
100
AcDbSpline
210
0.0
220
0.0
230
1.0
 70
     1
 71
     3
 72
    20
 73
    16
 74
     0
 42
0.0000000001
 43
0.0000000001
 40
0.0
 40
0.0
 40
0.0
 40
0.0
 40
0.25
 40
0.25
 40
0.25
 40
0.25
 40
0.5
 40
0.5
 40
0.5
 40
0.5
 40
0.75
 40
0.75
 40
0.75
 40
0.75
 40
1.0
 40
1.0
 40
1.0
 40
1.0
 10
-11.12832
 20
-20.059940000000001
 30
0.0
 10
-10.842079999999999
 20
-20.746110000000002
 30
0.0
 10
-10.842079999999999
 20
-21.27975
 30
0.0
 10
-11.12832
 20
-21.660869999999999
 30
0.0
 10
-11.12832
 20
-21.660869999999999
 30
0.0
 10
-11.12832
 20
-21.660869999999999
 30
0.0
 10
-13.637119999999999
 20
-19.750720000000001
 30
0.0
 10
-13.637119999999999
 20
-19.750720000000001
 30
0.0
 10
-13.637119999999999
 20
-19.750720000000001
 30
0.0
 10
-14.06789
 20
-19.04514
 30
0.0
 10
-13.92422
 20
-18.549779999999998
 30
0.0
 10
-13.637119999999999
 20
-18.149840000000001
 30
0.0
 10
-13.637119999999999
 20
-18.149840000000001
 30
0.0
 10
-13.637119999999999
 20
-18.149840000000001
 30
0.0
 10
-11.12832
 20
-20.059940000000001
 30
0.0
 10
-11.12832
 20
-20.059940000000001
 30
0.0
  0
SPLINE
  5
3F
100
AcDbEntity
  8
Layer 1
 62
     5
100
AcDbSpline
210
0.0
220
0.0
230
1.0
 70
     1
 71
     3
 72
    16
 73
    12
 74
     0
 42
0.0000000001
 43
0.0000000001
 40
0.0
 40
0.0
 40
0.0
 40
0.0
 40
0.3333333333333333
 40
0.3333333333333333
 40
0.3333333333333333
 40
0.3333333333333333
 40
0.6666666666666666
 40
0.6666666666666666
 40
0.6666666666666666
 40
0.6666666666666666
 40
1.0
 40
1.0
 40
1.0
 40
1.0
 10
-11.554650000000001
 20
-21.66086
 30
0.0
 10
-11.554650000000001
 20
-21.66086
 30
0.0
 10
-13.43999
 20
-21.66086
 30
0.0
 10
-13.43999
 20
-21.66086
 30
0.0
 10
-13.43999
 20
-21.66086
 30
0.0
 10
-13.746180000000001
 20
-21.01812
 30
0.0
 10
-13.71068
 20
-20.565860000000001
 30
0.0
 10
-13.43999
 20
-20.22541
 30
0.0
 10
-13.43999
 20
-20.22541
 30
0.0
 10
-13.43999
 20
-20.22541
 30
0.0
 10
-11.554650000000001
 20
-21.66086
 30
0.0
 10
-11.554650000000001
 20
-21.66086
 30
0.0
  0
SPLINE
  5
40
100
AcDbEntity
  8
Layer 1
 62
     5
100
AcDbSpline
210
0.0
220
0.0
230
1.0
 70
     1
 71
     3
 72
    36
 73
    32
 74
     0
 42
0.0000000001
 43
0.0000000001
 40
0.0
 40
0.0
 40
0.0
 40
0.0
 40
0.125
 40
0.125
 40
0.125
 40
0.125
 40
0.25
 40
0.25
 40
0.25
 40
0.25
 40
0.375
 40
0.375
 40
0.375
 40
0.375
 40
0.5
 40
0.5
 40
0.5
 40
0.5
 40
0.625
 40
0.625
 40
0.625
 40
0.625
 40
0.75
 40
0.75
 40
0.75
 40
0.75
 40
0.875
 40
0.875
 40
0.875
 40
0.875
 40
1.0
 40
1.0
 40
1.0
 40
1.0
 10
-13.92967
 20
-23.022629999999999
 30
0.0
 10
-13.92967
 20
-23.022629999999999
 30
0.0
 10
-10.645910000000001
 20
-23.022629999999999
 30
0.0
 10
-10.645910000000001
 20
-23.022629999999999
 30
0.0
 10
-10.645910000000001
 20
-23.022629999999999
 30
0.0
 10
-10.20567
 20
-23.022629999999999
 30
0.0
 10
-9.8454899999999999
 20
-22.898779999999999
 30
0.0
 10
-9.8454899999999999
 20
-22.747399999999999
 30
0.0
 10
-9.8454899999999999
 20
-22.747399999999999
 30
0.0
 10
-9.8454899999999999
 20
-22.747399999999999
 30
0.0
 10
-9.8454899999999999
 20
-22.747399999999999
 30
0.0
 10
-9.8454899999999999
 20
-22.747399999999999
 30
0.0
 10
-9.8454899999999999
 20
-22.747399999999999
 30
0.0
 10
-9.8454899999999999
 20
-22.596039999999999
 30
0.0
 10
-10.20567
 20
-22.472190000000001
 30
0.0
 10
-10.645910000000001
 20
-22.472190000000001
 30
0.0
 10
-10.645910000000001
 20
-22.472190000000001
 30
0.0
 10
-10.645910000000001
 20
-22.472190000000001
 30
0.0
 10
-13.92967
 20
-22.472190000000001
 30
0.0
 10
-13.92967
 20
-22.472190000000001
 30
0.0
 10
-13.92967
 20
-22.472190000000001
 30
0.0
 10
-14.369899999999999
 20
-22.472190000000001
 30
0.0
 10
-14.730090000000001
 20
-22.596039999999999
 30
0.0
 10
-14.730090000000001
 20
-22.747399999999999
 30
0.0
 10
-14.730090000000001
 20
-22.747399999999999
 30
0.0
 10
-14.730090000000001
 20
-22.747399999999999
 30
0.0
 10
-14.730090000000001
 20
-22.747399999999999
 30
0.0
 10
-14.730090000000001
 20
-22.747399999999999
 30
0.0
 10
-14.730090000000001
 20
-22.747399999999999
 30
0.0
 10
-14.730090000000001
 20
-22.898779999999999
 30
0.0
 10
-14.369899999999999
 20
-23.022629999999999
 30
0.0
 10
-13.92967
 20
-23.022629999999999
 30
0.0
  0
SPLINE
  5
41
100
AcDbEntity
  8
Layer 1
 62
     5
100
AcDbSpline
210
0.0
220
0.0
230
1.0
 70
     1
 71
     3
 72
    20
 73
    16
 74
     0
 42
0.0000000001
 43
0.0000000001
 40
0.0
 40
0.0
 40
0.0
 40
0.0
 40
0.25
 40
0.25
 40
0.25
 40
0.25
 40
0.5
 40
0.5
 40
0.5
 40
0.5
 40
0.75
 40
0.75
 40
0.75
 40
0.75
 40
1.0
 40
1.0
 40
1.0
 40
1.0
 10
-13.94928
 20
-22.30228
 30
0.0
 10
-13.94928
 20
-22.30228
 30
0.0
 10
-10.55367
 20
-22.30228
 30
0.0
 10
-10.55367
 20
-22.30228
 30
0.0
 10
-10.55367
 20
-22.30228
 30
0.0
 10
-10.55367
 20
-22.30228
 30
0.0
 10
-10.55367
 20
-21.88195
 30
0.0
 10
-10.55367
 20
-21.88195
 30
0.0
 10
-10.55367
 20
-21.88195
 30
0.0
 10
-10.55367
 20
-21.88195
 30
0.0
 10
-13.94928
 20
-21.88195
 30
0.0
 10
-13.94928
 20
-21.88195
 30
0.0
 10
-13.94928
 20
-21.88195
 30
0.0
 10
-13.94928
 20
-21.88195
 30
0.0
 10
-13.94928
 20
-22.30228
 30
0.0
 10
-13.94928
 20
-22.30228
 30
0.0
  0
SPLINE
  5
42
100
AcDbEntity
  8
Layer 1
 62
     5
100
AcDbSpline
210
0.0
220
0.0
230
1.0
 70
     1
 71
     3
 72
    92
 73
    88
 74
     0
 42
0.0000000001
 43
0.0000000001
 40
0.0
 40
0.0
 40
0.0
 40
0.0
 40
0.0454545454545455
 40
0.0454545454545455
 40
0.0454545454545455
 40
0.0454545454545455
 40
0.0909090909090909
 40
0.0909090909090909
 40
0.0909090909090909
 40
0.0909090909090909
 40
0.1363636363636364
 40
0.1363636363636364
 40
0.1363636363636364
 40
0.1363636363636364
 40
0.1818181818181818
 40
0.1818181818181818
 40
0.1818181818181818
 40
0.1818181818181818
 40
0.2272727272727273
 40
0.2272727272727273
 40
0.2272727272727273
 40
0.2272727272727273
 40
0.2727272727272728
 40
0.2727272727272728
 40
0.2727272727272728
 40
0.2727272727272728
 40
0.3181818181818182
 40
0.3181818181818182
 40
0.3181818181818182
 40
0.3181818181818182
 40
0.3636363636363637
 40
0.3636363636363637
 40
0.3636363636363637
 40
0.3636363636363637
 40
0.4090909090909092
 40
0.4090909090909092
 40
0.4090909090909092
 40
0.4090909090909092
 40
0.4545454545454546
 40
0.4545454545454546
 40
0.4545454545454546
 40
0.4545454545454546
 40
0.5000000000000001
 40
0.5000000000000001
 40
0.5000000000000001
 40
0.5000000000000001
 40
0.5454545454545455
 40
0.5454545454545455
 40
0.5454545454545455
 40
0.5454545454545455
 40
0.5909090909090909
 40
0.5909090909090909
 40
0.5909090909090909
 40
0.5909090909090909
 40
0.6363636363636364
 40
0.6363636363636364
 40
0.6363636363636364
 40
0.6363636363636364
 40
0.6818181818181818
 40
0.6818181818181818
 40
0.6818181818181818
 40
0.6818181818181818
 40
0.7272727272727272
 40
0.7272727272727272
 40
0.7272727272727272
 40
0.7272727272727272
 40
0.7727272727272726
 40
0.7727272727272726
 40
0.7727272727272726
 40
0.7727272727272726
 40
0.818181818181818
 40
0.818181818181818
 40
0.818181818181818
 40
0.818181818181818
 40
0.8636363636363634
 40
0.8636363636363634
 40
0.8636363636363634
 40
0.8636363636363634
 40
0.9090909090909088
 40
0.9090909090909088
 40
0.9090909090909088
 40
0.9090909090909088
 40
0.9545454545454543
 40
0.9545454545454543
 40
0.9545454545454543
 40
0.9545454545454543
 40
1.0
 40
1.0
 40
1.0
 40
1.0
 10
-11.97357
 20
20.711760000000002
 30
0.0
 10
-11.48263
 20
20.811499999999999
 30
0.0
 10
-10.92413
 20
20.825749999999999
 30
0.0
 10
-10.366440000000001
 20
20.780139999999999
 30
0.0
 10
-10.366440000000001
 20
20.780139999999999
 30
0.0
 10
-9.30898
 20
20.693680000000001
 30
0.0
 10
-8.5647300000000008
 20
20.463750000000001
 30
0.0
 10
-7.9562600000000003
 20
20.14489
 30
0.0
 10
-7.9562600000000003
 20
20.14489
 30
0.0
 10
-6.9379600000000003
 20
19.611280000000001
 30
0.0
 10
-6.1753299999999998
 20
18.948180000000001
 30
0.0
 10
-4.8077500000000004
 20
18.5733
 30
0.0
 10
-4.8077500000000004
 20
18.5733
 30
0.0
 10
-4.5187499999999998
 20
18.49409
 30
0.0
 10
-4.1862899999999996
 20
18.441960000000002
 30
0.0
 10
-4.2180400000000002
 20
18.43946
 30
0.0
 10
-4.2180400000000002
 20
18.43946
 30
0.0
 10
-4.3293400000000002
 20
18.43075
 30
0.0
 10
-4.69754
 20
18.42052
 30
0.0
 10
-5.2042900000000003
 20
18.479790000000001
 30
0.0
 10
-5.2042900000000003
 20
18.479790000000001
 30
0.0
 10
-6.1399900000000001
 20
18.589230000000001
 30
0.0
 10
-7.4143499999999998
 20
18.92446
 30
0.0
 10
-7.6908700000000003
 20
19.423819999999999
 30
0.0
 10
-7.6908700000000003
 20
19.423819999999999
 30
0.0
 10
-7.7123900000000001
 20
19.462679999999999
 30
0.0
 10
-8.2759099999999997
 20
19.10331
 30
0.0
 10
-8.4423200000000005
 20
19.117930000000001
 30
0.0
 10
-8.4423200000000005
 20
19.117930000000001
 30
0.0
 10
-8.4826999999999995
 20
19.121500000000001
 30
0.0
 10
-8.4448799999999995
 20
19.162009999999999
 30
0.0
 10
-8.4475300000000004
 20
19.184010000000001
 30
0.0
 10
-8.4475300000000004
 20
19.184010000000001
 30
0.0
 10
-8.4661000000000008
 20
19.338049999999999
 30
0.0
 10
-8.5294899999999991
 20
19.490760000000002
 30
0.0
 10
-8.6321600000000007
 20
19.635190000000001
 30
0.0
 10
-8.6321600000000007
 20
19.635190000000001
 30
0.0
 10
-9.0711499999999994
 20
20.252759999999999
 30
0.0
 10
-10.22845
 20
20.719560000000001
 30
0.0
 10
-11.673830000000001
 20
20.495650000000001
 30
0.0
 10
-11.673830000000001
 20
20.495650000000001
 30
0.0
 10
-11.43792
 20
20.489319999999999
 30
0.0
 10
-11.230420000000001
 20
20.481929999999998
 30
0.0
 10
-11.0442
 20
20.47101
 30
0.0
 10
-11.0442
 20
20.47101
 30
0.0
 10
-9.6610899999999997
 20
20.38993
 30
0.0
 10
-8.86388
 20
19.871269999999999
 30
0.0
 10
-8.6721800000000009
 20
19.137560000000001
 30
0.0
 10
-8.6721800000000009
 20
19.137560000000001
 30
0.0
 10
-8.6657700000000002
 20
19.11299
 30
0.0
 10
-8.7675400000000003
 20
19.145150000000001
 30
0.0
 10
-8.8371099999999991
 20
19.18778
 30
0.0
 10
-8.8371099999999991
 20
19.18778
 30
0.0
 10
-8.9066700000000001
 20
19.230419999999999
 30
0.0
 10
-8.9854500000000002
 20
19.292059999999999
 30
0.0
 10
-9.0572499999999998
 20
19.3522
 30
0.0
 10
-9.0572499999999998
 20
19.3522
 30
0.0
 10
-9.2008700000000001
 20
19.472480000000001
 30
0.0
 10
-9.2107899999999994
 20
19.579750000000001
 30
0.0
 10
-9.2750000000000004
 20
19.530339999999999
 30
0.0
 10
-9.2750000000000004
 20
19.530339999999999
 30
0.0
 10
-9.4548699999999997
 20
19.3919
 30
0.0
 10
-10.19412
 20
19.256070000000001
 30
0.0
 10
-9.9901599999999995
 20
19.355589999999999
 30
0.0
 10
-9.9901599999999995
 20
19.355589999999999
 30
0.0
 10
-9.4804200000000005
 20
19.604320000000001
 30
0.0
 10
-9.7350899999999996
 20
20.293189999999999
 30
0.0
 10
-11.277950000000001
 20
20.369679999999999
 30
0.0
 10
-11.277950000000001
 20
20.369679999999999
 30
0.0
 10
-10.995990000000001
 20
20.155149999999999
 30
0.0
 10
-10.913779999999999
 20
19.876609999999999
 30
0.0
 10
-11.2006
 20
19.65673
 30
0.0
 10
-11.2006
 20
19.65673
 30
0.0
 10
-11.285589999999999
 20
19.59158
 30
0.0
 10
-11.36162
 20
19.555479999999999
 30
0.0
 10
-11.363189999999999
 20
19.573080000000001
 30
0.0
 10
-11.363189999999999
 20
19.573080000000001
 30
0.0
 10
-11.36885
 20
19.636900000000001
 30
0.0
 10
-11.337210000000001
 20
19.838159999999998
 30
0.0
 10
-11.571619999999999
 20
20.019690000000001
 30
0.0
 10
-11.571619999999999
 20
20.019690000000001
 30
0.0
 10
-11.886889999999999
 20
20.263860000000001
 30
0.0
 10
-12.447480000000001
 20
20.356359999999999
 30
0.0
 10
-12.95689
 20
20.241869999999999
 30
0.0
 10
-12.95689
 20
20.241869999999999
 30
0.0
 10
-13.14852
 20
20.198820000000001
 30
0.0
 10
-12.90743
 20
20.521999999999998
 30
0.0
 10
-11.97357
 20
20.711760000000002
 30
0.0
  0
SPLINE
  5
43
100
AcDbEntity
  8
Layer 1
 62
     5
100
AcDbSpline
210
0.0
220
0.0
230
1.0
 70
     1
 71
     3
 72
    84
 73
    80
 74
     0
 42
0.0000000001
 43
0.0000000001
 40
0.0
 40
0.0
 40
0.0
 40
0.0
 40
0.05
 40
0.05
 40
0.05
 40
0.05
 40
0.1
 40
0.1
 40
0.1
 40
0.1
 40
0.15
 40
0.15
 40
0.15
 40
0.15
 40
0.2
 40
0.2
 40
0.2
 40
0.2
 40
0.25
 40
0.25
 40
0.25
 40
0.25
 40
0.3
 40
0.3
 40
0.3
 40
0.3
 40
0.35
 40
0.35
 40
0.35
 40
0.35
 40
0.4
 40
0.4
 40
0.4
 40
0.4
 40
0.45
 40
0.45
 40
0.45
 40
0.45
 40
0.4999999999999999
 40
0.4999999999999999
 40
0.4999999999999999
 40
0.4999999999999999
 40
0.5499999999999999
 40
0.5499999999999999
 40
0.5499999999999999
 40
0.5499999999999999
 40
0.6
 40
0.6
 40
0.6
 40
0.6
 40
0.65
 40
0.65
 40
0.65
 40
0.65
 40
0.7000000000000001
 40
0.7000000000000001
 40
0.7000000000000001
 40
0.7000000000000001
 40
0.7500000000000001
 40
0.7500000000000001
 40
0.7500000000000001
 40
0.7500000000000001
 40
0.8000000000000002
 40
0.8000000000000002
 40
0.8000000000000002
 40
0.8000000000000002
 40
0.8500000000000002
 40
0.8500000000000002
 40
0.8500000000000002
 40
0.8500000000000002
 40
0.9000000000000002
 40
0.9000000000000002
 40
0.9000000000000002
 40
0.9000000000000002
 40
0.9500000000000003
 40
0.9500000000000003
 40
0.9500000000000003
 40
0.9500000000000003
 40
1.0
 40
1.0
 40
1.0
 40
1.0
 10
-13.444979999999999
 20
19.971060000000001
 30
0.0
 10
-12.54542
 20
20.425329999999999
 30
0.0
 10
-11.18375
 20
19.817270000000001
 30
0.0
 10
-11.87154
 20
19.268139999999999
 30
0.0
 10
-11.87154
 20
19.268139999999999
 30
0.0
 10
-12.472619999999999
 20
18.788260000000001
 30
0.0
 10
-13.83038
 20
18.983339999999998
 30
0.0
 10
-14.29217
 20
19.487559999999998
 30
0.0
 10
-14.29217
 20
19.487559999999998
 30
0.0
 10
-14.50536
 20
19.720320000000001
 30
0.0
 10
-14.543419999999999
 20
20.014890000000001
 30
0.0
 10
-14.340859999999999
 20
20.318480000000001
 30
0.0
 10
-14.340859999999999
 20
20.318480000000001
 30
0.0
 10
-14.16507
 20
20.581980000000001
 30
0.0
 10
-13.85286
 20
20.82901
 30
0.0
 10
-13.48446
 20
21.000540000000001
 30
0.0
 10
-13.48446
 20
21.000540000000001
 30
0.0
 10
-11.99779
 20
21.692689999999999
 30
0.0
 10
-9.2585700000000006
 20
21.40475
 30
0.0
 10
-7.4443000000000001
 20
20.72062
 30
0.0
 10
-7.4443000000000001
 20
20.72062
 30
0.0
 10
-7.0879799999999999
 20
20.586259999999999
 30
0.0
 10
-6.7744900000000001
 20
20.44369
 30
0.0
 10
-6.4875499999999997
 20
20.269010000000002
 30
0.0
 10
-6.4875499999999997
 20
20.269010000000002
 30
0.0
 10
-6.2473799999999997
 20
20.42061
 30
0.0
 10
-5.3689299999999998
 20
20.707740000000001
 30
0.0
 10
-5.1218199999999996
 20
20.673760000000001
 30
0.0
 10
-5.1218199999999996
 20
20.673760000000001
 30
0.0
 10
-5.05558
 20
20.664639999999999
 30
0.0
 10
-5.2386499999999998
 20
20.109639999999999
 30
0.0
 10
-4.6279599999999999
 20
19.584140000000001
 30
0.0
 10
-4.6279599999999999
 20
19.584140000000001
 30
0.0
 10
-3.9112399999999998
 20
18.96743
 30
0.0
 10
-2.5783399999999999
 20
18.695070000000001
 30
0.0
 10
-1.33369
 20
19.02018
 30
0.0
 10
-1.33369
 20
19.02018
 30
0.0
 10
-0.64659
 20
19.199670000000001
 30
0.0
 10
-0.12582
 20
19.53472
 30
0.0
 10
-0.20462
 20
19.963229999999999
 30
0.0
 10
-0.20462
 20
19.963229999999999
 30
0.0
 10
-0.33925
 20
19.935690000000001
 30
0.0
 10
-0.48513
 20
19.920559999999998
 30
0.0
 10
-0.63757
 20
19.920559999999998
 30
0.0
 10
-0.63757
 20
19.920559999999998
 30
0.0
 10
-0.90291
 20
19.920559999999998
 30
0.0
 10
-1.1565700000000001
 20
19.968640000000001
 30
0.0
 10
-1.36429
 20
20.05049
 30
0.0
 10
-1.36429
 20
20.05049
 30
0.0
 10
-1.7746999999999999
 20
20.21217
 30
0.0
 10
-1.93655
 20
20.48189
 30
0.0
 10
-1.8427100000000001
 20
20.726680000000002
 30
0.0
 10
-1.8427100000000001
 20
20.726680000000002
 30
0.0
 10
-1.72855
 20
21.024619999999999
 30
0.0
 10
-1.2062299999999999
 20
21.24802
 30
0.0
 10
-0.65198
 20
21.24802
 30
0.0
 10
-0.65198
 20
21.24802
 30
0.0
 10
0.46487
 20
21.24802
 30
0.0
 10
0.98174
 20
20.613669999999999
 30
0.0
 10
0.95
 20
20.069510000000001
 30
0.0
 10
0.95
 20
20.069510000000001
 30
0.0
 10
0.9132
 20
19.438759999999998
 30
0.0
 10
0.13943
 20
18.80376
 30
0.0
 10
-1.1445399999999999
 20
18.53436
 30
0.0
 10
-1.1445399999999999
 20
18.53436
 30
0.0
 10
-2.55674
 20
18.238040000000002
 30
0.0
 10
-3.9318300000000002
 20
18.475989999999999
 30
0.0
 10
-5.0367600000000001
 20
18.879660000000001
 30
0.0
 10
-5.0367600000000001
 20
18.879660000000001
 30
0.0
 10
-5.9181900000000001
 20
19.20168
 30
0.0
 10
-6.5887500000000001
 20
19.703700000000001
 30
0.0
 10
-7.3669700000000002
 20
20.117290000000001
 30
0.0
 10
-7.3669700000000002
 20
20.117290000000001
 30
0.0
 10
-8.6157299999999992
 20
20.780940000000001
 30
0.0
 10
-10.642799999999999
 20
21.201989999999999
 30
0.0
 10
-12.347379999999999
 20
20.83184
 30
0.0
 10
-12.347379999999999
 20
20.83184
 30
0.0
 10
-12.896890000000001
 20
20.712530000000001
 30
0.0
 10
-13.39485
 20
20.437059999999999
 30
0.0
 10
-13.444979999999999
 20
19.971060000000001
 30
0.0
  0
SPLINE
  5
44
100
AcDbEntity
  8
Layer 1
 62
     5
100
AcDbSpline
210
0.0
220
0.0
230
1.0
 70
     1
 71
     3
 72
    16
 73
    12
 74
     0
 42
0.0000000001
 43
0.0000000001
 40
0.0
 40
0.0
 40
0.0
 40
0.0
 40
0.3333333333333333
 40
0.3333333333333333
 40
0.3333333333333333
 40
0.3333333333333333
 40
0.6666666666666666
 40
0.6666666666666666
 40
0.6666666666666666
 40
0.6666666666666666
 40
1.0
 40
1.0
 40
1.0
 40
1.0
 10
-5.5504199999999999
 20
20.224460000000001
 30
0.0
 10
-5.7473700000000001
 20
20.13768
 30
0.0
 10
-5.8344800000000001
 20
20.13524
 30
0.0
 10
-6.02942
 20
20.023510000000002
 30
0.0
 10
-6.02942
 20
20.023510000000002
 30
0.0
 10
-5.7583900000000003
 20
19.827190000000002
 30
0.0
 10
-5.5136700000000003
 20
19.681080000000001
 30
0.0
 10
-5.0741300000000003
 20
19.4847
 30
0.0
 10
-5.0741300000000003
 20
19.4847
 30
0.0
 10
-5.3250599999999997
 20
19.68242
 30
0.0
 10
-5.5101500000000003
 20
19.915040000000001
 30
0.0
 10
-5.5504199999999999
 20
20.224460000000001
 30
0.0
  0
SPLINE
  5
45
100
AcDbEntity
  8
Layer 1
 62
     5
100
AcDbSpline
210
0.0
220
0.0
230
1.0
 70
     1
 71
     3
 72
    36
 73
    32
 74
     0
 42
0.0000000001
 43
0.0000000001
 40
0.0
 40
0.0
 40
0.0
 40
0.0
 40
0.125
 40
0.125
 40
0.125
 40
0.125
 40
0.25
 40
0.25
 40
0.25
 40
0.25
 40
0.375
 40
0.375
 40
0.375
 40
0.375
 40
0.5
 40
0.5
 40
0.5
 40
0.5
 40
0.625
 40
0.625
 40
0.625
 40
0.625
 40
0.75
 40
0.75
 40
0.75
 40
0.75
 40
0.875
 40
0.875
 40
0.875
 40
0.875
 40
1.0
 40
1.0
 40
1.0
 40
1.0
 10
-0.54481
 20
19.748149999999999
 30
0.0
 10
-1.4437800000000001
 20
19.758949999999999
 30
0.0
 10
-2.29013
 20
20.057700000000001
 30
0.0
 10
-2.18886
 20
20.623169999999998
 30
0.0
 10
-2.18886
 20
20.623169999999998
 30
0.0
 10
-2.1589200000000002
 20
20.79034
 30
0.0
 10
-2.0323600000000002
 20
20.937370000000001
 30
0.0
 10
-1.7797400000000001
 20
21.12548
 30
0.0
 10
-1.7797400000000001
 20
21.12548
 30
0.0
 10
-2.39927
 20
20.958390000000001
 30
0.0
 10
-2.9965199999999999
 20
20.847100000000001
 30
0.0
 10
-3.3662000000000001
 20
20.431470000000001
 30
0.0
 10
-3.3662000000000001
 20
20.431470000000001
 30
0.0
 10
-3.4991300000000001
 20
20.96407
 30
0.0
 10
-3.0223100000000001
 20
21.260459999999998
 30
0.0
 10
-2.6410499999999999
 20
21.503119999999999
 30
0.0
 10
-2.6410499999999999
 20
21.503119999999999
 30
0.0
 10
-3.9381400000000002
 20
21.406459999999999
 30
0.0
 10
-4.6766399999999999
 20
20.846399999999999
 30
0.0
 10
-4.6418600000000003
 20
20.25732
 30
0.0
 10
-4.6418600000000003
 20
20.25732
 30
0.0
 10
-4.6024700000000003
 20
19.589880000000001
 30
0.0
 10
-3.5160999999999998
 20
18.990079999999999
 30
0.0
 10
-2.2149700000000001
 20
19.046130000000002
 30
0.0
 10
-2.2149700000000001
 20
19.046130000000002
 30
0.0
 10
-1.68282
 20
19.06906
 30
0.0
 10
-1.1624699999999999
 20
19.19295
 30
0.0
 10
-0.8426399999999999
 20
19.418379999999999
 30
0.0
 10
-0.8426399999999999
 20
19.418379999999999
 30
0.0
 10
-0.70839
 20
19.513000000000002
 30
0.0
 10
-0.60915
 20
19.62445
 30
0.0
 10
-0.54481
 20
19.748149999999999
 30
0.0
  0
SPLINE
  5
46
100
AcDbEntity
  8
Layer 1
 62
     5
100
AcDbSpline
210
0.0
220
0.0
230
1.0
 70
     1
 71
     3
 72
    40
 73
    36
 74
     0
 42
0.0000000001
 43
0.0000000001
 40
0.0
 40
0.0
 40
0.0
 40
0.0
 40
0.1111111111111111
 40
0.1111111111111111
 40
0.1111111111111111
 40
0.1111111111111111
 40
0.2222222222222222
 40
0.2222222222222222
 40
0.2222222222222222
 40
0.2222222222222222
 40
0.3333333333333333
 40
0.3333333333333333
 40
0.3333333333333333
 40
0.3333333333333333
 40
0.4444444444444444
 40
0.4444444444444444
 40
0.4444444444444444
 40
0.4444444444444444
 40
0.5555555555555556
 40
0.5555555555555556
 40
0.5555555555555556
 40
0.5555555555555556
 40
0.6666666666666667
 40
0.6666666666666667
 40
0.6666666666666667
 40
0.6666666666666667
 40
0.7777777777777779
 40
0.7777777777777779
 40
0.7777777777777779
 40
0.7777777777777779
 40
0.8888888888888891
 40
0.8888888888888891
 40
0.8888888888888891
 40
0.8888888888888891
 40
1.0
 40
1.0
 40
1.0
 40
1.0
 10
-0.89119
 20
19.627379999999999
 30
0.0
 10
-2.2898100000000001
 20
19.739439999999998
 30
0.0
 10
-2.7387700000000001
 20
20.328520000000001
 30
0.0
 10
-2.3017799999999999
 20
20.869689999999999
 30
0.0
 10
-2.3017799999999999
 20
20.869689999999999
 30
0.0
 10
-3.8207100000000001
 20
20.271850000000001
 30
0.0
 10
-3.02352
 20
19.650960000000001
 30
0.0
 10
-2.4562400000000002
 20
19.53698
 30
0.0
 10
-2.4562400000000002
 20
19.53698
 30
0.0
 10
-2.3779400000000002
 20
19.521260000000002
 30
0.0
 10
-2.6221399999999999
 20
19.537489999999998
 30
0.0
 10
-2.7033299999999998
 20
19.548760000000001
 30
0.0
 10
-2.7033299999999998
 20
19.548760000000001
 30
0.0
 10
-2.78451
 20
19.560030000000001
 30
0.0
 10
-2.8641299999999998
 20
19.57837
 30
0.0
 10
-2.9408699999999999
 20
19.603020000000001
 30
0.0
 10
-2.9408699999999999
 20
19.603020000000001
 30
0.0
 10
-3.0655800000000002
 20
19.643049999999999
 30
0.0
 10
-3.1827899999999998
 20
19.699760000000001
 30
0.0
 10
-3.28708
 20
19.769739999999999
 30
0.0
 10
-3.28708
 20
19.769739999999999
 30
0.0
 10
-3.3576899999999998
 20
19.817129999999999
 30
0.0
 10
-3.4224199999999998
 20
19.8706
 30
0.0
 10
-3.4795400000000001
 20
19.92914
 30
0.0
 10
-3.4795400000000001
 20
19.92914
 30
0.0
 10
-3.7880099999999999
 20
20.245270000000001
 30
0.0
 10
-3.8753799999999998
 20
20.708929999999999
 30
0.0
 10
-3.4787699999999999
 20
21.156839999999999
 30
0.0
 10
-3.4787699999999999
 20
21.156839999999999
 30
0.0
 10
-4.4724599999999999
 20
20.650480000000002
 30
0.0
 10
-4.4144800000000002
 20
19.94107
 30
0.0
 10
-3.6248499999999999
 20
19.50864
 30
0.0
 10
-3.6248499999999999
 20
19.50864
 30
0.0
 10
-2.98224
 20
19.156749999999999
 30
0.0
 10
-1.64611
 20
19.05198
 30
0.0
 10
-0.89119
 20
19.627379999999999
 30
0.0
  0
SPLINE
  5
47
100
AcDbEntity
  8
Layer 1
 62
     5
100
AcDbSpline
210
0.0
220
0.0
230
1.0
 70
     1
 71
     3
 72
    16
 73
    12
 74
     0
 42
0.0000000001
 43
0.0000000001
 40
0.0
 40
0.0
 40
0.0
 40
0.0
 40
0.3333333333333333
 40
0.3333333333333333
 40
0.3333333333333333
 40
0.3333333333333333
 40
0.6666666666666666
 40
0.6666666666666666
 40
0.6666666666666666
 40
0.6666666666666666
 40
1.0
 40
1.0
 40
1.0
 40
1.0
 10
0.21775
 20
17.822649999999999
 30
0.0
 10
0.92018
 20
18.094360000000002
 30
0.0
 10
1.3792
 20
18.546469999999999
 30
0.0
 10
1.52586
 20
19.86299
 30
0.0
 10
1.52586
 20
19.86299
 30
0.0
 10
1.82487
 20
19.307480000000002
 30
0.0
 10
2.0377399999999999
 20
18.739070000000002
 30
0.0
 10
1.7469399999999999
 20
18.157689999999999
 30
0.0
 10
1.7469399999999999
 20
18.157689999999999
 30
0.0
 10
1.54114
 20
17.74624
 30
0.0
 10
1.08331
 20
17.459779999999999
 30
0.0
 10
0.21775
 20
17.822649999999999
 30
0.0
  0
SPLINE
  5
48
100
AcDbEntity
  8
Layer 1
 62
     5
100
AcDbSpline
210
0.0
220
0.0
230
1.0
 70
     1
 71
     3
 72
    20
 73
    16
 74
     0
 42
0.0000000001
 43
0.0000000001
 40
0.0
 40
0.0
 40
0.0
 40
0.0
 40
0.25
 40
0.25
 40
0.25
 40
0.25
 40
0.5
 40
0.5
 40
0.5
 40
0.5
 40
0.75
 40
0.75
 40
0.75
 40
0.75
 40
1.0
 40
1.0
 40
1.0
 40
1.0
 10
1.39778
 20
19.922879999999999
 30
0.0
 10
1.2432399999999999
 20
19.09468
 30
0.0
 10
1.02477
 20
18.589860000000002
 30
0.0
 10
0.65004
 20
18.2941
 30
0.0
 10
0.65004
 20
18.2941
 30
0.0
 10
0.12241
 20
17.877680000000002
 30
0.0
 10
-0.89767
 20
17.78706
 30
0.0
 10
-1.10832
 20
18.35923
 30
0.0
 10
-1.10832
 20
18.35923
 30
0.0
 10
-0.1707
 20
18.061350000000001
 30
0.0
 10
1.2157899999999999
 20
19.177879999999998
 30
0.0
 10
1.13829
 20
20.349540000000001
 30
0.0
 10
1.13829
 20
20.349540000000001
 30
0.0
 10
1.13829
 20
20.349540000000001
 30
0.0
 10
1.39778
 20
19.922879999999999
 30
0.0
 10
1.39778
 20
19.922879999999999
 30
0.0
  0
SPLINE
  5
49
100
AcDbEntity
  8
Layer 1
 62
     5
100
AcDbSpline
210
0.0
220
0.0
230
1.0
 70
     1
 71
     3
 72
    16
 73
    12
 74
     0
 42
0.0000000001
 43
0.0000000001
 40
0.0
 40
0.0
 40
0.0
 40
0.0
 40
0.3333333333333333
 40
0.3333333333333333
 40
0.3333333333333333
 40
0.3333333333333333
 40
0.6666666666666666
 40
0.6666666666666666
 40
0.6666666666666666
 40
0.6666666666666666
 40
1.0
 40
1.0
 40
1.0
 40
1.0
 10
4.1266299999999996
 20
17.822649999999999
 30
0.0
 10
3.4241999999999999
 20
18.094360000000002
 30
0.0
 10
2.9651800000000001
 20
18.546469999999999
 30
0.0
 10
2.81853
 20
19.86299
 30
0.0
 10
2.81853
 20
19.86299
 30
0.0
 10
2.51952
 20
19.307480000000002
 30
0.0
 10
2.3066399999999998
 20
18.739070000000002
 30
0.0
 10
2.5974499999999998
 20
18.157689999999999
 30
0.0
 10
2.5974499999999998
 20
18.157689999999999
 30
0.0
 10
2.8032499999999998
 20
17.74624
 30
0.0
 10
3.2610800000000002
 20
17.459779999999999
 30
0.0
 10
4.1266299999999996
 20
17.822649999999999
 30
0.0
  0
SPLINE
  5
4A
100
AcDbEntity
  8
Layer 1
 62
     5
100
AcDbSpline
210
0.0
220
0.0
230
1.0
 70
     1
 71
     3
 72
    20
 73
    16
 74
     0
 42
0.0000000001
 43
0.0000000001
 40
0.0
 40
0.0
 40
0.0
 40
0.0
 40
0.25
 40
0.25
 40
0.25
 40
0.25
 40
0.5
 40
0.5
 40
0.5
 40
0.5
 40
0.75
 40
0.75
 40
0.75
 40
0.75
 40
1.0
 40
1.0
 40
1.0
 40
1.0
 10
2.9466000000000001
 20
19.922879999999999
 30
0.0
 10
3.10114
 20
19.09468
 30
0.0
 10
3.3196099999999999
 20
18.589860000000002
 30
0.0
 10
3.69435
 20
18.2941
 30
0.0
 10
3.69435
 20
18.2941
 30
0.0
 10
4.2219699999999998
 20
17.877680000000002
 30
0.0
 10
5.2420600000000004
 20
17.78706
 30
0.0
 10
5.4527000000000001
 20
18.35923
 30
0.0
 10
5.4527000000000001
 20
18.35923
 30
0.0
 10
4.5150800000000002
 20
18.061350000000001
 30
0.0
 10
3.1286
 20
19.177879999999998
 30
0.0
 10
3.2060900000000001
 20
20.349540000000001
 30
0.0
 10
3.2060900000000001
 20
20.349540000000001
 30
0.0
 10
3.2060900000000001
 20
20.349540000000001
 30
0.0
 10
2.9466000000000001
 20
19.922879999999999
 30
0.0
 10
2.9466000000000001
 20
19.922879999999999
 30
0.0
  0
SPLINE
  5
4B
100
AcDbEntity
  8
Layer 1
 62
     5
100
AcDbSpline
210
0.0
220
0.0
230
1.0
 70
     1
 71
     3
 72
    24
 73
    20
 74
     0
 42
0.0000000001
 43
0.0000000001
 40
0.0
 40
0.0
 40
0.0
 40
0.0
 40
0.2
 40
0.2
 40
0.2
 40
0.2
 40
0.4
 40
0.4
 40
0.4
 40
0.4
 40
0.6000000000000001
 40
0.6000000000000001
 40
0.6000000000000001
 40
0.6000000000000001
 40
0.8
 40
0.8
 40
0.8
 40
0.8
 40
1.0
 40
1.0
 40
1.0
 40
1.0
 10
1.359
 20
17.528880000000001
 30
0.0
 10
2.3054899999999998
 20
17.715610000000002
 30
0.0
 10
2.0840700000000001
 20
18.95965
 30
0.0
 10
1.88767
 20
19.59252
 30
0.0
 10
1.88767
 20
19.59252
 30
0.0
 10
1.88767
 20
19.59252
 30
0.0
 10
2.1721900000000001
 20
19.423269999999999
 30
0.0
 10
2.1721900000000001
 20
19.423269999999999
 30
0.0
 10
2.1721900000000001
 20
19.423269999999999
 30
0.0
 10
2.1721900000000001
 20
19.423269999999999
 30
0.0
 10
2.4567100000000002
 20
19.59252
 30
0.0
 10
2.4567100000000002
 20
19.59252
 30
0.0
 10
2.4567100000000002
 20
19.59252
 30
0.0
 10
2.26031
 20
18.95965
 30
0.0
 10
2.0388899999999999
 20
17.715610000000002
 30
0.0
 10
2.9853900000000002
 20
17.528880000000001
 30
0.0
 10
2.9853900000000002
 20
17.528880000000001
 30
0.0
 10
3.0003000000000002
 20
16.976929999999999
 30
0.0
 10
1.3452900000000001
 20
17.021360000000001
 30
0.0
 10
1.359
 20
17.528880000000001
 30
0.0
  0
SPLINE
  5
4C
100
AcDbEntity
  8
Layer 1
 62
     5
100
AcDbSpline
210
0.0
220
0.0
230
1.0
 70
     1
 71
     3
 72
    52
 73
    48
 74
     0
 42
0.0000000001
 43
0.0000000001
 40
0.0
 40
0.0
 40
0.0
 40
0.0
 40
0.0833333333333333
 40
0.0833333333333333
 40
0.0833333333333333
 40
0.0833333333333333
 40
0.1666666666666667
 40
0.1666666666666667
 40
0.1666666666666667
 40
0.1666666666666667
 40
0.25
 40
0.25
 40
0.25
 40
0.25
 40
0.3333333333333333
 40
0.3333333333333333
 40
0.3333333333333333
 40
0.3333333333333333
 40
0.4166666666666666
 40
0.4166666666666666
 40
0.4166666666666666
 40
0.4166666666666666
 40
0.4999999999999999
 40
0.4999999999999999
 40
0.4999999999999999
 40
0.4999999999999999
 40
0.5833333333333333
 40
0.5833333333333333
 40
0.5833333333333333
 40
0.5833333333333333
 40
0.6666666666666666
 40
0.6666666666666666
 40
0.6666666666666666
 40
0.6666666666666666
 40
0.75
 40
0.75
 40
0.75
 40
0.75
 40
0.8333333333333334
 40
0.8333333333333334
 40
0.8333333333333334
 40
0.8333333333333334
 40
0.9166666666666667
 40
0.9166666666666667
 40
0.9166666666666667
 40
0.9166666666666667
 40
1.0
 40
1.0
 40
1.0
 40
1.0
 10
2.1757599999999999
 20
19.541319999999999
 30
0.0
 10
2.1739999999999999
 20
19.540700000000001
 30
0.0
 10
2.0821100000000001
 20
19.595109999999998
 30
0.0
 10
1.99654
 20
19.64733
 30
0.0
 10
1.99654
 20
19.64733
 30
0.0
 10
1.65503
 20
19.855730000000001
 30
0.0
 10
1.48841
 20
20.122779999999999
 30
0.0
 10
1.3059499999999999
 20
20.377300000000002
 30
0.0
 10
1.3059499999999999
 20
20.377300000000002
 30
0.0
 10
0.83838
 20
21.02955
 30
0.0
 10
0.21172
 20
21.388770000000001
 30
0.0
 10
-0.80748
 20
21.346789999999999
 30
0.0
 10
-0.80748
 20
21.346789999999999
 30
0.0
 10
-1.22818
 20
21.329470000000001
 30
0.0
 10
1.01169
 20
21.99793
 30
0.0
 10
1.6252599999999999
 20
21.02703
 30
0.0
 10
1.6252599999999999
 20
21.02703
 30
0.0
 10
1.5698099999999999
 20
21.3781
 30
0.0
 10
1.8269899999999999
 20
21.474160000000001
 30
0.0
 10
2.1354000000000002
 20
21.729620000000001
 30
0.0
 10
2.1354000000000002
 20
21.729620000000001
 30
0.0
 10
2.1354000000000002
 20
21.729620000000001
 30
0.0
 10
2.1855000000000002
 20
21.77223
 30
0.0
 10
2.1855000000000002
 20
21.77223
 30
0.0
 10
2.1855000000000002
 20
21.77223
 30
0.0
 10
2.1855000000000002
 20
21.77223
 30
0.0
 10
2.23556
 20
21.729659999999999
 30
0.0
 10
2.23556
 20
21.729659999999999
 30
0.0
 10
2.23556
 20
21.729659999999999
 30
0.0
 10
2.5439799999999999
 20
21.47418
 30
0.0
 10
2.8011499999999998
 20
21.3781
 30
0.0
 10
2.7456999999999998
 20
21.02703
 30
0.0
 10
2.7456999999999998
 20
21.02703
 30
0.0
 10
3.35927
 20
21.99793
 30
0.0
 10
5.5991400000000002
 20
21.329470000000001
 30
0.0
 10
5.1784400000000002
 20
21.346789999999999
 30
0.0
 10
5.1784400000000002
 20
21.346789999999999
 30
0.0
 10
4.1592500000000001
 20
21.388770000000001
 30
0.0
 10
3.5325799999999998
 20
21.02956
 30
0.0
 10
3.06501
 20
20.377300000000002
 30
0.0
 10
3.06501
 20
20.377300000000002
 30
0.0
 10
2.88002
 20
20.119260000000001
 30
0.0
 10
2.7175500000000001
 20
19.857189999999999
 30
0.0
 10
2.3649200000000001
 20
19.6495
 30
0.0
 10
2.3649200000000001
 20
19.6495
 30
0.0
 10
2.2719100000000001
 20
19.5947
 30
0.0
 10
2.1774100000000001
 20
19.54073
 30
0.0
 10
2.1757599999999999
 20
19.541319999999999
 30
0.0
  0
SPLINE
  5
4D
100
AcDbEntity
  8
Layer 1
 62
     5
100
AcDbSpline
210
0.0
220
0.0
230
1.0
 70
     1
 71
     3
 72
    92
 73
    88
 74
     0
 42
0.0000000001
 43
0.0000000001
 40
0.0
 40
0.0
 40
0.0
 40
0.0
 40
0.0454545454545455
 40
0.0454545454545455
 40
0.0454545454545455
 40
0.0454545454545455
 40
0.0909090909090909
 40
0.0909090909090909
 40
0.0909090909090909
 40
0.0909090909090909
 40
0.1363636363636364
 40
0.1363636363636364
 40
0.1363636363636364
 40
0.1363636363636364
 40
0.1818181818181818
 40
0.1818181818181818
 40
0.1818181818181818
 40
0.1818181818181818
 40
0.2272727272727273
 40
0.2272727272727273
 40
0.2272727272727273
 40
0.2272727272727273
 40
0.2727272727272728
 40
0.2727272727272728
 40
0.2727272727272728
 40
0.2727272727272728
 40
0.3181818181818182
 40
0.3181818181818182
 40
0.3181818181818182
 40
0.3181818181818182
 40
0.3636363636363637
 40
0.3636363636363637
 40
0.3636363636363637
 40
0.3636363636363637
 40
0.4090909090909092
 40
0.4090909090909092
 40
0.4090909090909092
 40
0.4090909090909092
 40
0.4545454545454546
 40
0.4545454545454546
 40
0.4545454545454546
 40
0.4545454545454546
 40
0.5000000000000001
 40
0.5000000000000001
 40
0.5000000000000001
 40
0.5000000000000001
 40
0.5454545454545455
 40
0.5454545454545455
 40
0.5454545454545455
 40
0.5454545454545455
 40
0.5909090909090909
 40
0.5909090909090909
 40
0.5909090909090909
 40
0.5909090909090909
 40
0.6363636363636364
 40
0.6363636363636364
 40
0.6363636363636364
 40
0.6363636363636364
 40
0.6818181818181818
 40
0.6818181818181818
 40
0.6818181818181818
 40
0.6818181818181818
 40
0.7272727272727272
 40
0.7272727272727272
 40
0.7272727272727272
 40
0.7272727272727272
 40
0.7727272727272726
 40
0.7727272727272726
 40
0.7727272727272726
 40
0.7727272727272726
 40
0.818181818181818
 40
0.818181818181818
 40
0.818181818181818
 40
0.818181818181818
 40
0.8636363636363634
 40
0.8636363636363634
 40
0.8636363636363634
 40
0.8636363636363634
 40
0.9090909090909088
 40
0.9090909090909088
 40
0.9090909090909088
 40
0.9090909090909088
 40
0.9545454545454543
 40
0.9545454545454543
 40
0.9545454545454543
 40
0.9545454545454543
 40
1.0
 40
1.0
 40
1.0
 40
1.0
 10
16.372769999999999
 20
20.711760000000002
 30
0.0
 10
15.881830000000001
 20
20.811499999999999
 30
0.0
 10
15.32333
 20
20.825749999999999
 30
0.0
 10
14.765639999999999
 20
20.780139999999999
 30
0.0
 10
14.765639999999999
 20
20.780139999999999
 30
0.0
 10
13.70819
 20
20.693680000000001
 30
0.0
 10
12.96393
 20
20.463750000000001
 30
0.0
 10
12.355460000000001
 20
20.14489
 30
0.0
 10
12.355460000000001
 20
20.14489
 30
0.0
 10
11.33717
 20
19.611280000000001
 30
0.0
 10
10.574529999999999
 20
18.948180000000001
 30
0.0
 10
9.2069500000000009
 20
18.5733
 30
0.0
 10
9.2069500000000009
 20
18.5733
 30
0.0
 10
8.9179499999999994
 20
18.49409
 30
0.0
 10
8.5854900000000001
 20
18.441960000000002
 30
0.0
 10
8.6172400000000007
 20
18.43946
 30
0.0
 10
8.6172400000000007
 20
18.43946
 30
0.0
 10
8.7285400000000006
 20
18.43075
 30
0.0
 10
9.0967500000000001
 20
18.42052
 30
0.0
 10
9.6034900000000007
 20
18.479790000000001
 30
0.0
 10
9.6034900000000007
 20
18.479790000000001
 30
0.0
 10
10.53919
 20
18.589230000000001
 30
0.0
 10
11.813560000000001
 20
18.92446
 30
0.0
 10
12.090070000000001
 20
19.423819999999999
 30
0.0
 10
12.090070000000001
 20
19.423819999999999
 30
0.0
 10
12.111599999999999
 20
19.462679999999999
 30
0.0
 10
12.67511
 20
19.10331
 30
0.0
 10
12.841530000000001
 20
19.117930000000001
 30
0.0
 10
12.841530000000001
 20
19.117930000000001
 30
0.0
 10
12.8819
 20
19.121500000000001
 30
0.0
 10
12.84408
 20
19.162009999999999
 30
0.0
 10
12.846730000000001
 20
19.184010000000001
 30
0.0
 10
12.846730000000001
 20
19.184010000000001
 30
0.0
 10
12.8653
 20
19.338049999999999
 30
0.0
 10
12.92869
 20
19.490760000000002
 30
0.0
 10
13.031370000000001
 20
19.635190000000001
 30
0.0
 10
13.031370000000001
 20
19.635190000000001
 30
0.0
 10
13.47035
 20
20.252759999999999
 30
0.0
 10
14.627649999999999
 20
20.719560000000001
 30
0.0
 10
16.073029999999999
 20
20.495650000000001
 30
0.0
 10
16.073029999999999
 20
20.495650000000001
 30
0.0
 10
15.837120000000001
 20
20.489319999999999
 30
0.0
 10
15.629619999999999
 20
20.481929999999998
 30
0.0
 10
15.44341
 20
20.47101
 30
0.0
 10
15.44341
 20
20.47101
 30
0.0
 10
14.06029
 20
20.38993
 30
0.0
 10
13.26308
 20
19.871269999999999
 30
0.0
 10
13.071389999999999
 20
19.137560000000001
 30
0.0
 10
13.071389999999999
 20
19.137560000000001
 30
0.0
 10
13.064970000000001
 20
19.11299
 30
0.0
 10
13.166740000000001
 20
19.145150000000001
 30
0.0
 10
13.23631
 20
19.18778
 30
0.0
 10
13.23631
 20
19.18778
 30
0.0
 10
13.305870000000001
 20
19.230419999999999
 30
0.0
 10
13.384650000000001
 20
19.292059999999999
 30
0.0
 10
13.45646
 20
19.3522
 30
0.0
 10
13.45646
 20
19.3522
 30
0.0
 10
13.600070000000001
 20
19.472480000000001
 30
0.0
 10
13.60999
 20
19.579750000000001
 30
0.0
 10
13.674200000000001
 20
19.530339999999999
 30
0.0
 10
13.674200000000001
 20
19.530339999999999
 30
0.0
 10
13.85407
 20
19.3919
 30
0.0
 10
14.59332
 20
19.256070000000001
 30
0.0
 10
14.38936
 20
19.355589999999999
 30
0.0
 10
14.38936
 20
19.355589999999999
 30
0.0
 10
13.879619999999999
 20
19.604320000000001
 30
0.0
 10
14.13429
 20
20.293189999999999
 30
0.0
 10
15.677149999999999
 20
20.369679999999999
 30
0.0
 10
15.677149999999999
 20
20.369679999999999
 30
0.0
 10
15.395189999999999
 20
20.155149999999999
 30
0.0
 10
15.31298
 20
19.876609999999999
 30
0.0
 10
15.59981
 20
19.65673
 30
0.0
 10
15.59981
 20
19.65673
 30
0.0
 10
15.68479
 20
19.59158
 30
0.0
 10
15.760820000000001
 20
19.555479999999999
 30
0.0
 10
15.76239
 20
19.573080000000001
 30
0.0
 10
15.76239
 20
19.573080000000001
 30
0.0
 10
15.768050000000001
 20
19.636900000000001
 30
0.0
 10
15.736409999999999
 20
19.838159999999998
 30
0.0
 10
15.97082
 20
20.019690000000001
 30
0.0
 10
15.97082
 20
20.019690000000001
 30
0.0
 10
16.286090000000002
 20
20.263860000000001
 30
0.0
 10
16.846679999999999
 20
20.356359999999999
 30
0.0
 10
17.356100000000001
 20
20.241869999999999
 30
0.0
 10
17.356100000000001
 20
20.241869999999999
 30
0.0
 10
17.547730000000001
 20
20.198820000000001
 30
0.0
 10
17.306640000000002
 20
20.521999999999998
 30
0.0
 10
16.372769999999999
 20
20.711760000000002
 30
0.0
  0
SPLINE
  5
4E
100
AcDbEntity
  8
Layer 1
 62
     5
100
AcDbSpline
210
0.0
220
0.0
230
1.0
 70
     1
 71
     3
 72
    84
 73
    80
 74
     0
 42
0.0000000001
 43
0.0000000001
 40
0.0
 40
0.0
 40
0.0
 40
0.0
 40
0.05
 40
0.05
 40
0.05
 40
0.05
 40
0.1
 40
0.1
 40
0.1
 40
0.1
 40
0.15
 40
0.15
 40
0.15
 40
0.15
 40
0.2
 40
0.2
 40
0.2
 40
0.2
 40
0.25
 40
0.25
 40
0.25
 40
0.25
 40
0.3
 40
0.3
 40
0.3
 40
0.3
 40
0.35
 40
0.35
 40
0.35
 40
0.35
 40
0.4
 40
0.4
 40
0.4
 40
0.4
 40
0.45
 40
0.45
 40
0.45
 40
0.45
 40
0.4999999999999999
 40
0.4999999999999999
 40
0.4999999999999999
 40
0.4999999999999999
 40
0.5499999999999999
 40
0.5499999999999999
 40
0.5499999999999999
 40
0.5499999999999999
 40
0.6
 40
0.6
 40
0.6
 40
0.6
 40
0.65
 40
0.65
 40
0.65
 40
0.65
 40
0.7000000000000001
 40
0.7000000000000001
 40
0.7000000000000001
 40
0.7000000000000001
 40
0.7500000000000001
 40
0.7500000000000001
 40
0.7500000000000001
 40
0.7500000000000001
 40
0.8000000000000002
 40
0.8000000000000002
 40
0.8000000000000002
 40
0.8000000000000002
 40
0.8500000000000002
 40
0.8500000000000002
 40
0.8500000000000002
 40
0.8500000000000002
 40
0.9000000000000002
 40
0.9000000000000002
 40
0.9000000000000002
 40
0.9000000000000002
 40
0.9500000000000003
 40
0.9500000000000003
 40
0.9500000000000003
 40
0.9500000000000003
 40
1.0
 40
1.0
 40
1.0
 40
1.0
 10
17.844180000000001
 20
19.971060000000001
 30
0.0
 10
16.94462
 20
20.425329999999999
 30
0.0
 10
15.58295
 20
19.817270000000001
 30
0.0
 10
16.27074
 20
19.268139999999999
 30
0.0
 10
16.27074
 20
19.268139999999999
 30
0.0
 10
16.87182
 20
18.788260000000001
 30
0.0
 10
18.229579999999999
 20
18.983339999999998
 30
0.0
 10
18.691369999999999
 20
19.487559999999998
 30
0.0
 10
18.691369999999999
 20
19.487559999999998
 30
0.0
 10
18.90456
 20
19.720320000000001
 30
0.0
 10
18.942620000000002
 20
20.014890000000001
 30
0.0
 10
18.74006
 20
20.318480000000001
 30
0.0
 10
18.74006
 20
20.318480000000001
 30
0.0
 10
18.56427
 20
20.581980000000001
 30
0.0
 10
18.25206
 20
20.82901
 30
0.0
 10
17.883669999999999
 20
21.000540000000001
 30
0.0
 10
17.883669999999999
 20
21.000540000000001
 30
0.0
 10
16.396989999999999
 20
21.692689999999999
 30
0.0
 10
13.657769999999999
 20
21.40475
 30
0.0
 10
11.84351
 20
20.72062
 30
0.0
 10
11.84351
 20
20.72062
 30
0.0
 10
11.48718
 20
20.586259999999999
 30
0.0
 10
11.173690000000001
 20
20.44369
 30
0.0
 10
10.886749999999999
 20
20.269010000000002
 30
0.0
 10
10.886749999999999
 20
20.269010000000002
 30
0.0
 10
10.64658
 20
20.42061
 30
0.0
 10
9.7681299999999993
 20
20.707740000000001
 30
0.0
 10
9.52102
 20
20.673760000000001
 30
0.0
 10
9.52102
 20
20.673760000000001
 30
0.0
 10
9.4547799999999995
 20
20.664639999999999
 30
0.0
 10
9.6378599999999999
 20
20.109639999999999
 30
0.0
 10
9.0271600000000003
 20
19.584140000000001
 30
0.0
 10
9.0271600000000003
 20
19.584140000000001
 30
0.0
 10
8.3104399999999998
 20
18.96743
 30
0.0
 10
6.9775400000000003
 20
18.695070000000001
 30
0.0
 10
5.7328999999999999
 20
19.02018
 30
0.0
 10
5.7328999999999999
 20
19.02018
 30
0.0
 10
5.0457900000000002
 20
19.199670000000001
 30
0.0
 10
4.5250199999999996
 20
19.53472
 30
0.0
 10
4.6038199999999998
 20
19.963229999999999
 30
0.0
 10
4.6038199999999998
 20
19.963229999999999
 30
0.0
 10
4.7384599999999999
 20
19.935690000000001
 30
0.0
 10
4.8843399999999999
 20
19.920559999999998
 30
0.0
 10
5.0367800000000003
 20
19.920559999999998
 30
0.0
 10
5.0367800000000003
 20
19.920559999999998
 30
0.0
 10
5.3021099999999999
 20
19.920559999999998
 30
0.0
 10
5.5557699999999999
 20
19.968640000000001
 30
0.0
 10
5.76349
 20
20.05049
 30
0.0
 10
5.76349
 20
20.05049
 30
0.0
 10
6.1738999999999997
 20
20.21217
 30
0.0
 10
6.33575
 20
20.48189
 30
0.0
 10
6.2419099999999998
 20
20.726680000000002
 30
0.0
 10
6.2419099999999998
 20
20.726680000000002
 30
0.0
 10
6.1277600000000003
 20
21.024619999999999
 30
0.0
 10
5.6054300000000001
 20
21.24802
 30
0.0
 10
5.0511799999999996
 20
21.24802
 30
0.0
 10
5.0511799999999996
 20
21.24802
 30
0.0
 10
3.9343300000000001
 20
21.24802
 30
0.0
 10
3.4174600000000002
 20
20.613669999999999
 30
0.0
 10
3.4491999999999998
 20
20.069510000000001
 30
0.0
 10
3.4491999999999998
 20
20.069510000000001
 30
0.0
 10
3.4860000000000002
 20
19.438759999999998
 30
0.0
 10
4.2597699999999996
 20
18.80376
 30
0.0
 10
5.5437399999999997
 20
18.53436
 30
0.0
 10
5.5437399999999997
 20
18.53436
 30
0.0
 10
6.95594
 20
18.238040000000002
 30
0.0
 10
8.3310399999999998
 20
18.475989999999999
 30
0.0
 10
9.4359599999999997
 20
18.879660000000001
 30
0.0
 10
9.4359599999999997
 20
18.879660000000001
 30
0.0
 10
10.31739
 20
19.20168
 30
0.0
 10
10.98795
 20
19.703700000000001
 30
0.0
 10
11.76618
 20
20.117290000000001
 30
0.0
 10
11.76618
 20
20.117290000000001
 30
0.0
 10
13.01493
 20
20.780940000000001
 30
0.0
 10
15.042
 20
21.201989999999999
 30
0.0
 10
16.746580000000002
 20
20.83184
 30
0.0
 10
16.746580000000002
 20
20.83184
 30
0.0
 10
17.29609
 20
20.712530000000001
 30
0.0
 10
17.794049999999999
 20
20.437059999999999
 30
0.0
 10
17.844180000000001
 20
19.971060000000001
 30
0.0
  0
SPLINE
  5
4F
100
AcDbEntity
  8
Layer 1
 62
     5
100
AcDbSpline
210
0.0
220
0.0
230
1.0
 70
     1
 71
     3
 72
    16
 73
    12
 74
     0
 42
0.0000000001
 43
0.0000000001
 40
0.0
 40
0.0
 40
0.0
 40
0.0
 40
0.3333333333333333
 40
0.3333333333333333
 40
0.3333333333333333
 40
0.3333333333333333
 40
0.6666666666666666
 40
0.6666666666666666
 40
0.6666666666666666
 40
0.6666666666666666
 40
1.0
 40
1.0
 40
1.0
 40
1.0
 10
9.9496199999999995
 20
20.224460000000001
 30
0.0
 10
10.146570000000001
 20
20.13768
 30
0.0
 10
10.233689999999999
 20
20.13524
 30
0.0
 10
10.42863
 20
20.023510000000002
 30
0.0
 10
10.42863
 20
20.023510000000002
 30
0.0
 10
10.157590000000001
 20
19.827190000000002
 30
0.0
 10
9.9128699999999998
 20
19.681080000000001
 30
0.0
 10
9.4733300000000007
 20
19.4847
 30
0.0
 10
9.4733300000000007
 20
19.4847
 30
0.0
 10
9.7242599999999992
 20
19.68242
 30
0.0
 10
9.9093499999999999
 20
19.915040000000001
 30
0.0
 10
9.9496199999999995
 20
20.224460000000001
 30
0.0
  0
SPLINE
  5
50
100
AcDbEntity
  8
Layer 1
 62
     5
100
AcDbSpline
210
0.0
220
0.0
230
1.0
 70
     1
 71
     3
 72
    36
 73
    32
 74
     0
 42
0.0000000001
 43
0.0000000001
 40
0.0
 40
0.0
 40
0.0
 40
0.0
 40
0.125
 40
0.125
 40
0.125
 40
0.125
 40
0.25
 40
0.25
 40
0.25
 40
0.25
 40
0.375
 40
0.375
 40
0.375
 40
0.375
 40
0.5
 40
0.5
 40
0.5
 40
0.5
 40
0.625
 40
0.625
 40
0.625
 40
0.625
 40
0.75
 40
0.75
 40
0.75
 40
0.75
 40
0.875
 40
0.875
 40
0.875
 40
0.875
 40
1.0
 40
1.0
 40
1.0
 40
1.0
 10
4.9440099999999996
 20
19.748149999999999
 30
0.0
 10
5.8429799999999998
 20
19.758949999999999
 30
0.0
 10
6.6893399999999996
 20
20.057700000000001
 30
0.0
 10
6.5880599999999996
 20
20.623169999999998
 30
0.0
 10
6.5880599999999996
 20
20.623169999999998
 30
0.0
 10
6.5581199999999997
 20
20.79034
 30
0.0
 10
6.4315699999999998
 20
20.937370000000001
 30
0.0
 10
6.1789399999999999
 20
21.12548
 30
0.0
 10
6.1789399999999999
 20
21.12548
 30
0.0
 10
6.79847
 20
20.958390000000001
 30
0.0
 10
7.3957199999999998
 20
20.847100000000001
 30
0.0
 10
7.7653999999999996
 20
20.431470000000001
 30
0.0
 10
7.7653999999999996
 20
20.431470000000001
 30
0.0
 10
7.8983299999999996
 20
20.96407
 30
0.0
 10
7.4215099999999996
 20
21.260459999999998
 30
0.0
 10
7.0402500000000003
 20
21.503119999999999
 30
0.0
 10
7.0402500000000003
 20
21.503119999999999
 30
0.0
 10
8.3373500000000007
 20
21.406459999999999
 30
0.0
 10
9.0758399999999995
 20
20.846399999999999
 30
0.0
 10
9.0410599999999999
 20
20.25732
 30
0.0
 10
9.0410599999999999
 20
20.25732
 30
0.0
 10
9.0016700000000007
 20
19.589880000000001
 30
0.0
 10
7.9153000000000002
 20
18.990079999999999
 30
0.0
 10
6.6141800000000002
 20
19.046130000000002
 30
0.0
 10
6.6141800000000002
 20
19.046130000000002
 30
0.0
 10
6.08202
 20
19.06906
 30
0.0
 10
5.56168
 20
19.19295
 30
0.0
 10
5.2418399999999998
 20
19.418379999999999
 30
0.0
 10
5.2418399999999998
 20
19.418379999999999
 30
0.0
 10
5.1075900000000001
 20
19.513000000000002
 30
0.0
 10
5.0083500000000001
 20
19.62445
 30
0.0
 10
4.9440099999999996
 20
19.748149999999999
 30
0.0
  0
SPLINE
  5
51
100
AcDbEntity
  8
Layer 1
 62
     5
100
AcDbSpline
210
0.0
220
0.0
230
1.0
 70
     1
 71
     3
 72
    40
 73
    36
 74
     0
 42
0.0000000001
 43
0.0000000001
 40
0.0
 40
0.0
 40
0.0
 40
0.0
 40
0.1111111111111111
 40
0.1111111111111111
 40
0.1111111111111111
 40
0.1111111111111111
 40
0.2222222222222222
 40
0.2222222222222222
 40
0.2222222222222222
 40
0.2222222222222222
 40
0.3333333333333333
 40
0.3333333333333333
 40
0.3333333333333333
 40
0.3333333333333333
 40
0.4444444444444444
 40
0.4444444444444444
 40
0.4444444444444444
 40
0.4444444444444444
 40
0.5555555555555556
 40
0.5555555555555556
 40
0.5555555555555556
 40
0.5555555555555556
 40
0.6666666666666667
 40
0.6666666666666667
 40
0.6666666666666667
 40
0.6666666666666667
 40
0.7777777777777779
 40
0.7777777777777779
 40
0.7777777777777779
 40
0.7777777777777779
 40
0.8888888888888891
 40
0.8888888888888891
 40
0.8888888888888891
 40
0.8888888888888891
 40
1.0
 40
1.0
 40
1.0
 40
1.0
 10
5.2903900000000004
 20
19.627379999999999
 30
0.0
 10
6.6890099999999997
 20
19.739439999999998
 30
0.0
 10
7.1379700000000001
 20
20.328520000000001
 30
0.0
 10
6.7009800000000004
 20
20.869689999999999
 30
0.0
 10
6.7009800000000004
 20
20.869689999999999
 30
0.0
 10
8.2199100000000005
 20
20.271850000000001
 30
0.0
 10
7.42272
 20
19.650960000000001
 30
0.0
 10
6.8554500000000003
 20
19.53698
 30
0.0
 10
6.8554500000000003
 20
19.53698
 30
0.0
 10
6.7771400000000002
 20
19.521260000000002
 30
0.0
 10
7.0213400000000004
 20
19.537489999999998
 30
0.0
 10
7.1025299999999998
 20
19.548760000000001
 30
0.0
 10
7.1025299999999998
 20
19.548760000000001
 30
0.0
 10
7.1837200000000001
 20
19.560030000000001
 30
0.0
 10
7.2633299999999998
 20
19.57837
 30
0.0
 10
7.3400699999999999
 20
19.603020000000001
 30
0.0
 10
7.3400699999999999
 20
19.603020000000001
 30
0.0
 10
7.4647899999999998
 20
19.643049999999999
 30
0.0
 10
7.5819900000000002
 20
19.699760000000001
 30
0.0
 10
7.6862899999999996
 20
19.769739999999999
 30
0.0
 10
7.6862899999999996
 20
19.769739999999999
 30
0.0
 10
7.7568999999999999
 20
19.817129999999999
 30
0.0
 10
7.8216200000000002
 20
19.8706
 30
0.0
 10
7.8787399999999996
 20
19.92914
 30
0.0
 10
7.8787399999999996
 20
19.92914
 30
0.0
 10
8.1872100000000003
 20
20.245270000000001
 30
0.0
 10
8.2745899999999999
 20
20.708929999999999
 30
0.0
 10
7.8779700000000004
 20
21.156839999999999
 30
0.0
 10
7.8779700000000004
 20
21.156839999999999
 30
0.0
 10
8.8716600000000003
 20
20.650480000000002
 30
0.0
 10
8.8136799999999997
 20
19.94107
 30
0.0
 10
8.0240500000000008
 20
19.50864
 30
0.0
 10
8.0240500000000008
 20
19.50864
 30
0.0
 10
7.3814500000000001
 20
19.156749999999999
 30
0.0
 10
6.0453099999999997
 20
19.05198
 30
0.0
 10
5.2903900000000004
 20
19.627379999999999
 30
0.0
  0
SPLINE
  5
52
100
AcDbEntity
  8
Layer 1
 62
     5
100
AcDbSpline
210
0.0
220
0.0
230
1.0
 70
     1
 71
     3
 72
   196
 73
   192
 74
     0
 42
0.0000000001
 43
0.0000000001
 40
0.0
 40
0.0
 40
0.0
 40
0.0
 40
0.0208333333333333
 40
0.0208333333333333
 40
0.0208333333333333
 40
0.0208333333333333
 40
0.0416666666666667
 40
0.0416666666666667
 40
0.0416666666666667
 40
0.0416666666666667
 40
0.0625
 40
0.0625
 40
0.0625
 40
0.0625
 40
0.0833333333333333
 40
0.0833333333333333
 40
0.0833333333333333
 40
0.0833333333333333
 40
0.1041666666666667
 40
0.1041666666666667
 40
0.1041666666666667
 40
0.1041666666666667
 40
0.125
 40
0.125
 40
0.125
 40
0.125
 40
0.1458333333333333
 40
0.1458333333333333
 40
0.1458333333333333
 40
0.1458333333333333
 40
0.1666666666666667
 40
0.1666666666666667
 40
0.1666666666666667
 40
0.1666666666666667
 40
0.1875
 40
0.1875
 40
0.1875
 40
0.1875
 40
0.2083333333333333
 40
0.2083333333333333
 40
0.2083333333333333
 40
0.2083333333333333
 40
0.2291666666666667
 40
0.2291666666666667
 40
0.2291666666666667
 40
0.2291666666666667
 40
0.25
 40
0.25
 40
0.25
 40
0.25
 40
0.2708333333333333
 40
0.2708333333333333
 40
0.2708333333333333
 40
0.2708333333333333
 40
0.2916666666666666
 40
0.2916666666666666
 40
0.2916666666666666
 40
0.2916666666666666
 40
0.3124999999999999
 40
0.3124999999999999
 40
0.3124999999999999
 40
0.3124999999999999
 40
0.3333333333333333
 40
0.3333333333333333
 40
0.3333333333333333
 40
0.3333333333333333
 40
0.3541666666666666
 40
0.3541666666666666
 40
0.3541666666666666
 40
0.3541666666666666
 40
0.3749999999999999
 40
0.3749999999999999
 40
0.3749999999999999
 40
0.3749999999999999
 40
0.3958333333333332
 40
0.3958333333333332
 40
0.3958333333333332
 40
0.3958333333333332
 40
0.4166666666666665
 40
0.4166666666666665
 40
0.4166666666666665
 40
0.4166666666666665
 40
0.4374999999999998
 40
0.4374999999999998
 40
0.4374999999999998
 40
0.4374999999999998
 40
0.4583333333333332
 40
0.4583333333333332
 40
0.4583333333333332
 40
0.4583333333333332
 40
0.4791666666666665
 40
0.4791666666666665
 40
0.4791666666666665
 40
0.4791666666666665
 40
0.4999999999999998
 40
0.4999999999999998
 40
0.4999999999999998
 40
0.4999999999999998
 40
0.5208333333333332
 40
0.5208333333333332
 40
0.5208333333333332
 40
0.5208333333333332
 40
0.5416666666666665
 40
0.5416666666666665
 40
0.5416666666666665
 40
0.5416666666666665
 40
0.5624999999999999
 40
0.5624999999999999
 40
0.5624999999999999
 40
0.5624999999999999
 40
0.5833333333333333
 40
0.5833333333333333
 40
0.5833333333333333
 40
0.5833333333333333
 40
0.6041666666666666
 40
0.6041666666666666
 40
0.6041666666666666
 40
0.6041666666666666
 40
0.625
 40
0.625
 40
0.625
 40
0.625
 40
0.6458333333333334
 40
0.6458333333333334
 40
0.6458333333333334
 40
0.6458333333333334
 40
0.6666666666666667
 40
0.6666666666666667
 40
0.6666666666666667
 40
0.6666666666666667
 40
0.6875000000000001
 40
0.6875000000000001
 40
0.6875000000000001
 40
0.6875000000000001
 40
0.7083333333333335
 40
0.7083333333333335
 40
0.7083333333333335
 40
0.7083333333333335
 40
0.7291666666666669
 40
0.7291666666666669
 40
0.7291666666666669
 40
0.7291666666666669
 40
0.7500000000000002
 40
0.7500000000000002
 40
0.7500000000000002
 40
0.7500000000000002
 40
0.7708333333333336
 40
0.7708333333333336
 40
0.7708333333333336
 40
0.7708333333333336
 40
0.791666666666667
 40
0.791666666666667
 40
0.791666666666667
 40
0.791666666666667
 40
0.8125000000000003
 40
0.8125000000000003
 40
0.8125000000000003
 40
0.8125000000000003
 40
0.8333333333333337
 40
0.8333333333333337
 40
0.8333333333333337
 40
0.8333333333333337
 40
0.8541666666666671
 40
0.8541666666666671
 40
0.8541666666666671
 40
0.8541666666666671
 40
0.8750000000000004
 40
0.8750000000000004
 40
0.8750000000000004
 40
0.8750000000000004
 40
0.8958333333333338
 40
0.8958333333333338
 40
0.8958333333333338
 40
0.8958333333333338
 40
0.9166666666666672
 40
0.9166666666666672
 40
0.9166666666666672
 40
0.9166666666666672
 40
0.9375000000000006
 40
0.9375000000000006
 40
0.9375000000000006
 40
0.9375000000000006
 40
0.9583333333333339
 40
0.9583333333333339
 40
0.9583333333333339
 40
0.9583333333333339
 40
0.9791666666666673
 40
0.9791666666666673
 40
0.9791666666666673
 40
0.9791666666666673
 40
1.0
 40
1.0
 40
1.0
 40
1.0
 10
2.8353000000000002
 20
21.408819999999999
 30
0.0
 10
3.5877599999999998
 20
21.80142
 30
0.0
 10
4.7837699999999996
 20
21.756969999999999
 30
0.0
 10
5.6297899999999998
 20
21.335599999999999
 30
0.0
 10
5.6297899999999998
 20
21.335599999999999
 30
0.0
 10
5.8361700000000001
 20
21.717210000000001
 30
0.0
 10
5.2212100000000001
 20
21.963149999999999
 30
0.0
 10
4.5259400000000003
 20
21.952870000000001
 30
0.0
 10
4.5259400000000003
 20
21.952870000000001
 30
0.0
 10
3.8866299999999998
 20
21.943370000000002
 30
0.0
 10
3.4849999999999999
 20
21.775189999999998
 30
0.0
 10
2.9590800000000002
 20
21.615819999999999
 30
0.0
 10
2.9590800000000002
 20
21.615819999999999
 30
0.0
 10
3.6483500000000002
 20
22.109310000000001
 30
0.0
 10
4.9866200000000003
 20
22.166509999999999
 30
0.0
 10
5.8532200000000003
 20
21.951080000000001
 30
0.0
 10
5.8532200000000003
 20
21.951080000000001
 30
0.0
 10
6.1825700000000001
 20
21.869209999999999
 30
0.0
 10
6.4928499999999998
 20
21.75196
 30
0.0
 10
6.7756699999999999
 20
21.593109999999999
 30
0.0
 10
6.7756699999999999
 20
21.593109999999999
 30
0.0
 10
6.0460200000000004
 20
22.6936
 30
0.0
 10
3.7507899999999998
 20
22.54299
 30
0.0
 10
2.8311999999999999
 20
21.67606
 30
0.0
 10
2.8311999999999999
 20
21.67606
 30
0.0
 10
3.21644
 20
22.45665
 30
0.0
 10
4.9984200000000003
 20
23.270309999999998
 30
0.0
 10
6.2380500000000003
 20
22.39499
 30
0.0
 10
6.2380500000000003
 20
22.39499
 30
0.0
 10
6.39499
 20
22.28415
 30
0.0
 10
6.5204899999999997
 20
22.154820000000001
 30
0.0
 10
6.6261299999999999
 20
22.018650000000001
 30
0.0
 10
6.6261299999999999
 20
22.018650000000001
 30
0.0
 10
6.8599699999999997
 20
22.582740000000001
 30
0.0
 10
6.3088100000000003
 20
23.21941
 30
0.0
 10
5.0354200000000002
 20
23.177779999999998
 30
0.0
 10
5.0354200000000002
 20
23.177779999999998
 30
0.0
 10
3.68451
 20
23.133610000000001
 30
0.0
 10
2.92441
 20
22.38166
 30
0.0
 10
2.6904300000000001
 20
21.823930000000001
 30
0.0
 10
2.6904300000000001
 20
21.823930000000001
 30
0.0
 10
2.7801900000000002
 20
23.00553
 30
0.0
 10
4.9732000000000003
 20
23.8323
 30
0.0
 10
6.7008799999999997
 20
22.981560000000002
 30
0.0
 10
6.7008799999999997
 20
22.981560000000002
 30
0.0
 10
5.0952799999999998
 20
24.22335
 30
0.0
 10
2.6828699999999999
 20
23.47953
 30
0.0
 10
2.5456300000000001
 20
21.946709999999999
 30
0.0
 10
2.5456300000000001
 20
21.946709999999999
 30
0.0
 10
2.35067
 20
22.788250000000001
 30
0.0
 10
3.5167099999999998
 20
24.256250000000001
 30
0.0
 10
5.0602299999999998
 20
23.807659999999998
 30
0.0
 10
5.0602299999999998
 20
23.807659999999998
 30
0.0
 10
5.22037
 20
23.761119999999998
 30
0.0
 10
5.3792999999999997
 20
23.684660000000001
 30
0.0
 10
5.5379500000000004
 20
23.57668
 30
0.0
 10
5.5379500000000004
 20
23.57668
 30
0.0
 10
5.4971399999999999
 20
23.939209999999999
 30
0.0
 10
5.0272399999999999
 20
24.1416
 30
0.0
 10
4.5456000000000003
 20
24.155999999999999
 30
0.0
 10
4.5456000000000003
 20
24.155999999999999
 30
0.0
 10
3.12073
 20
24.198599999999999
 30
0.0
 10
2.5605099999999998
 20
23.204170000000001
 30
0.0
 10
2.4591799999999999
 20
22.61496
 30
0.0
 10
2.4591799999999999
 20
22.61496
 30
0.0
 10
2.4305300000000001
 20
22.448350000000001
 30
0.0
 10
2.4082599999999998
 20
22.282710000000002
 30
0.0
 10
2.3823799999999999
 20
22.123470000000001
 30
0.0
 10
2.3823799999999999
 20
22.123470000000001
 30
0.0
 10
2.2943699999999998
 20
22.905860000000001
 30
0.0
 10
2.69048
 20
24.003699999999998
 30
0.0
 10
4.24918
 20
24.231179999999998
 30
0.0
 10
4.24918
 20
24.231179999999998
 30
0.0
 10
2.8768699999999998
 20
24.562100000000001
 30
0.0
 10
2.1988599999999998
 20
23.071300000000001
 30
0.0
 10
2.2633700000000001
 20
22.83165
 30
0.0
 10
2.2633700000000001
 20
22.83165
 30
0.0
 10
2.1661899999999998
 20
23.464670000000002
 30
0.0
 10
2.5987399999999998
 20
24.335349999999998
 30
0.0
 10
3.1898900000000001
 20
24.240690000000001
 30
0.0
 10
3.1898900000000001
 20
24.240690000000001
 30
0.0
 10
3.2680500000000001
 20
24.440020000000001
 30
0.0
 10
2.4843500000000001
 20
24.515689999999999
 30
0.0
 10
2.2179199999999999
 20
24.748930000000001
 30
0.0
 10
2.2179199999999999
 20
24.748930000000001
 30
0.0
 10
2.2179199999999999
 20
24.748930000000001
 30
0.0
 10
2.1797499999999999
 20
24.787839999999999
 30
0.0
 10
2.1797499999999999
 20
24.787839999999999
 30
0.0
 10
2.1797499999999999
 20
24.787839999999999
 30
0.0
 10
2.1797499999999999
 20
24.787839999999999
 30
0.0
 10
2.14222
 20
24.750430000000001
 30
0.0
 10
2.14222
 20
24.750430000000001
 30
0.0
 10
2.14222
 20
24.750430000000001
 30
0.0
 10
1.8688800000000001
 20
24.516010000000001
 30
0.0
 10
1.0443199999999999
 20
24.440439999999999
 30
0.0
 10
1.1226400000000001
 20
24.240690000000001
 30
0.0
 10
1.1226400000000001
 20
24.240690000000001
 30
0.0
 10
1.7137899999999999
 20
24.335349999999998
 30
0.0
 10
2.1463399999999999
 20
23.464670000000002
 30
0.0
 10
2.0491600000000001
 20
22.83165
 30
0.0
 10
2.0491600000000001
 20
22.83165
 30
0.0
 10
2.1136699999999999
 20
23.071300000000001
 30
0.0
 10
1.4356599999999999
 20
24.562100000000001
 30
0.0
 10
0.06335
 20
24.231179999999998
 30
0.0
 10
0.06335
 20
24.231179999999998
 30
0.0
 10
1.62205
 20
24.003699999999998
 30
0.0
 10
2.01816
 20
22.905860000000001
 30
0.0
 10
1.93015
 20
22.123470000000001
 30
0.0
 10
1.93015
 20
22.123470000000001
 30
0.0
 10
1.9042699999999999
 20
22.282710000000002
 30
0.0
 10
1.8819999999999999
 20
22.448350000000001
 30
0.0
 10
1.8533500000000001
 20
22.61496
 30
0.0
 10
1.8533500000000001
 20
22.61496
 30
0.0
 10
1.7520199999999999
 20
23.204170000000001
 30
0.0
 10
1.1918
 20
24.198599999999999
 30
0.0
 10
-0.23307
 20
24.155999999999999
 30
0.0
 10
-0.23307
 20
24.155999999999999
 30
0.0
 10
-0.71471
 20
24.1416
 30
0.0
 10
-1.1846099999999999
 20
23.939209999999999
 30
0.0
 10
-1.22542
 20
23.57668
 30
0.0
 10
-1.22542
 20
23.57668
 30
0.0
 10
-1.06677
 20
23.684660000000001
 30
0.0
 10
-0.90784
 20
23.761119999999998
 30
0.0
 10
-0.7477
 20
23.807659999999998
 30
0.0
 10
-0.7477
 20
23.807659999999998
 30
0.0
 10
0.79582
 20
24.256250000000001
 30
0.0
 10
1.9618599999999999
 20
22.788250000000001
 30
0.0
 10
1.7668999999999999
 20
21.946709999999999
 30
0.0
 10
1.7668999999999999
 20
21.946709999999999
 30
0.0
 10
1.6296600000000001
 20
23.47953
 30
0.0
 10
-0.78275
 20
24.22335
 30
0.0
 10
-2.38835
 20
22.981560000000002
 30
0.0
 10
-2.38835
 20
22.981560000000002
 30
0.0
 10
-0.66067
 20
23.8323
 30
0.0
 10
1.53234
 20
23.00553
 30
0.0
 10
1.6221000000000001
 20
21.823930000000001
 30
0.0
 10
1.6221000000000001
 20
21.823930000000001
 30
0.0
 10
1.38812
 20
22.38166
 30
0.0
 10
0.62802
 20
23.133610000000001
 30
0.0
 10
-0.72289
 20
23.177779999999998
 30
0.0
 10
-0.72289
 20
23.177779999999998
 30
0.0
 10
-1.9962800000000001
 20
23.21941
 30
0.0
 10
-2.5474399999999999
 20
22.582740000000001
 30
0.0
 10
-2.3136000000000001
 20
22.018650000000001
 30
0.0
 10
-2.3136000000000001
 20
22.018650000000001
 30
0.0
 10
-2.2079599999999999
 20
22.154820000000001
 30
0.0
 10
-2.0824600000000002
 20
22.28415
 30
0.0
 10
-1.9255199999999999
 20
22.39499
 30
0.0
 10
-1.9255199999999999
 20
22.39499
 30
0.0
 10
-0.68589
 20
23.270309999999998
 30
0.0
 10
1.09609
 20
22.45665
 30
0.0
 10
1.48133
 20
21.67606
 30
0.0
 10
1.48133
 20
21.67606
 30
0.0
 10
0.56174
 20
22.54299
 30
0.0
 10
-1.73349
 20
22.6936
 30
0.0
 10
-2.4631400000000001
 20
21.593109999999999
 30
0.0
 10
-2.4631400000000001
 20
21.593109999999999
 30
0.0
 10
-2.18032
 20
21.75196
 30
0.0
 10
-1.8700399999999999
 20
21.869209999999999
 30
0.0
 10
-1.5406899999999999
 20
21.951080000000001
 30
0.0
 10
-1.5406899999999999
 20
21.951080000000001
 30
0.0
 10
-0.67409
 20
22.166509999999999
 30
0.0
 10
0.66418
 20
22.109310000000001
 30
0.0
 10
1.35345
 20
21.615819999999999
 30
0.0
 10
1.35345
 20
21.615819999999999
 30
0.0
 10
0.82753
 20
21.775189999999998
 30
0.0
 10
0.42591
 20
21.943370000000002
 30
0.0
 10
-0.21341
 20
21.952870000000001
 30
0.0
 10
-0.21341
 20
21.952870000000001
 30
0.0
 10
-0.90868
 20
21.963149999999999
 30
0.0
 10
-1.5236400000000001
 20
21.717210000000001
 30
0.0
 10
-1.3172600000000001
 20
21.335599999999999
 30
0.0
 10
-1.3172600000000001
 20
21.335599999999999
 30
0.0
 10
-0.47124
 20
21.756969999999999
 30
0.0
 10
0.72477
 20
21.80142
 30
0.0
 10
1.47723
 20
21.408819999999999
 30
0.0
 10
1.47723
 20
21.408819999999999
 30
0.0
 10
1.5799000000000001
 20
21.506969999999999
 30
0.0
 10
1.6493899999999999
 20
21.592669999999998
 30
0.0
 10
1.8374900000000001
 20
21.72551
 30
0.0
 10
1.8374900000000001
 20
21.72551
 30
0.0
 10
1.91343
 20
21.779129999999999
 30
0.0
 10
2.0462600000000002
 20
21.840450000000001
 30
0.0
 10
2.1792500000000001
 20
21.913340000000002
 30
0.0
 10
2.1792500000000001
 20
21.913340000000002
 30
0.0
 10
2.30383
 20
21.840450000000001
 30
0.0
 10
2.3990900000000002
 20
21.779129999999999
 30
0.0
 10
2.4750399999999999
 20
21.72551
 30
0.0
 10
2.4750399999999999
 20
21.72551
 30
0.0
 10
2.6631399999999998
 20
21.592659999999999
 30
0.0
 10
2.7326299999999999
 20
21.506969999999999
 30
0.0
 10
2.8353000000000002
 20
21.408819999999999
 30
0.0
  0
SPLINE
  5
53
100
AcDbEntity
  8
Layer 1
 62
     5
100
AcDbSpline
210
0.0
220
0.0
230
1.0
 70
     1
 71
     3
 72
    24
 73
    20
 74
     0
 42
0.0000000001
 43
0.0000000001
 40
0.0
 40
0.0
 40
0.0
 40
0.0
 40
0.2
 40
0.2
 40
0.2
 40
0.2
 40
0.4
 40
0.4
 40
0.4
 40
0.4
 40
0.6000000000000001
 40
0.6000000000000001
 40
0.6000000000000001
 40
0.6000000000000001
 40
0.8
 40
0.8
 40
0.8
 40
0.8
 40
1.0
 40
1.0
 40
1.0
 40
1.0
 10
1.99027
 20
24.062380000000001
 30
0.0
 10
2.0832099999999998
 20
23.853290000000001
 30
0.0
 10
2.1663399999999999
 20
23.689779999999999
 30
0.0
 10
2.1746799999999999
 20
23.46857
 30
0.0
 10
2.1746799999999999
 20
23.46857
 30
0.0
 10
2.1749800000000001
 20
23.488859999999999
 30
0.0
 10
2.1758500000000001
 20
23.50928
 30
0.0
 10
2.17726
 20
23.529810000000001
 30
0.0
 10
2.17726
 20
23.529810000000001
 30
0.0
 10
2.1786699999999999
 20
23.50928
 30
0.0
 10
2.1794899999999999
 20
23.488859999999999
 30
0.0
 10
2.1797900000000001
 20
23.46857
 30
0.0
 10
2.1797900000000001
 20
23.46857
 30
0.0
 10
2.1881200000000001
 20
23.689779999999999
 30
0.0
 10
2.2712599999999998
 20
23.853290000000001
 30
0.0
 10
2.3642099999999999
 20
24.062380000000001
 30
0.0
 10
2.3642099999999999
 20
24.062380000000001
 30
0.0
 10
2.4996299999999998
 20
24.36703
 30
0.0
 10
1.85253
 20
24.372240000000001
 30
0.0
 10
1.99027
 20
24.062380000000001
 30
0.0
  0
SPLINE
  5
54
100
AcDbEntity
  8
Layer 1
 62
     5
100
AcDbSpline
210
0.0
220
0.0
230
1.0
 70
     1
 71
     3
 72
   212
 73
   208
 74
     0
 42
0.0000000001
 43
0.0000000001
 40
0.0
 40
0.0
 40
0.0
 40
0.0
 40
0.0192307692307692
 40
0.0192307692307692
 40
0.0192307692307692
 40
0.0192307692307692
 40
0.0384615384615385
 40
0.0384615384615385
 40
0.0384615384615385
 40
0.0384615384615385
 40
0.0576923076923077
 40
0.0576923076923077
 40
0.0576923076923077
 40
0.0576923076923077
 40
0.0769230769230769
 40
0.0769230769230769
 40
0.0769230769230769
 40
0.0769230769230769
 40
0.0961538461538462
 40
0.0961538461538462
 40
0.0961538461538462
 40
0.0961538461538462
 40
0.1153846153846154
 40
0.1153846153846154
 40
0.1153846153846154
 40
0.1153846153846154
 40
0.1346153846153846
 40
0.1346153846153846
 40
0.1346153846153846
 40
0.1346153846153846
 40
0.1538461538461539
 40
0.1538461538461539
 40
0.1538461538461539
 40
0.1538461538461539
 40
0.1730769230769231
 40
0.1730769230769231
 40
0.1730769230769231
 40
0.1730769230769231
 40
0.1923076923076923
 40
0.1923076923076923
 40
0.1923076923076923
 40
0.1923076923076923
 40
0.2115384615384615
 40
0.2115384615384615
 40
0.2115384615384615
 40
0.2115384615384615
 40
0.2307692307692307
 40
0.2307692307692307
 40
0.2307692307692307
 40
0.2307692307692307
 40
0.2499999999999999
 40
0.2499999999999999
 40
0.2499999999999999
 40
0.2499999999999999
 40
0.2692307692307692
 40
0.2692307692307692
 40
0.2692307692307692
 40
0.2692307692307692
 40
0.2884615384615384
 40
0.2884615384615384
 40
0.2884615384615384
 40
0.2884615384615384
 40
0.3076923076923076
 40
0.3076923076923076
 40
0.3076923076923076
 40
0.3076923076923076
 40
0.3269230769230768
 40
0.3269230769230768
 40
0.3269230769230768
 40
0.3269230769230768
 40
0.346153846153846
 40
0.346153846153846
 40
0.346153846153846
 40
0.346153846153846
 40
0.3653846153846153
 40
0.3653846153846153
 40
0.3653846153846153
 40
0.3653846153846153
 40
0.3846153846153845
 40
0.3846153846153845
 40
0.3846153846153845
 40
0.3846153846153845
 40
0.4038461538461537
 40
0.4038461538461537
 40
0.4038461538461537
 40
0.4038461538461537
 40
0.4230769230769229
 40
0.4230769230769229
 40
0.4230769230769229
 40
0.4230769230769229
 40
0.4423076923076921
 40
0.4423076923076921
 40
0.4423076923076921
 40
0.4423076923076921
 40
0.4615384615384613
 40
0.4615384615384613
 40
0.4615384615384613
 40
0.4615384615384613
 40
0.4807692307692306
 40
0.4807692307692306
 40
0.4807692307692306
 40
0.4807692307692306
 40
0.4999999999999998
 40
0.4999999999999998
 40
0.4999999999999998
 40
0.4999999999999998
 40
0.5192307692307691
 40
0.5192307692307691
 40
0.5192307692307691
 40
0.5192307692307691
 40
0.5384615384615383
 40
0.5384615384615383
 40
0.5384615384615383
 40
0.5384615384615383
 40
0.5576923076923076
 40
0.5576923076923076
 40
0.5576923076923076
 40
0.5576923076923076
 40
0.5769230769230769
 40
0.5769230769230769
 40
0.5769230769230769
 40
0.5769230769230769
 40
0.5961538461538462
 40
0.5961538461538462
 40
0.5961538461538462
 40
0.5961538461538462
 40
0.6153846153846154
 40
0.6153846153846154
 40
0.6153846153846154
 40
0.6153846153846154
 40
0.6346153846153847
 40
0.6346153846153847
 40
0.6346153846153847
 40
0.6346153846153847
 40
0.653846153846154
 40
0.653846153846154
 40
0.653846153846154
 40
0.653846153846154
 40
0.6730769230769232
 40
0.6730769230769232
 40
0.6730769230769232
 40
0.6730769230769232
 40
0.6923076923076925
 40
0.6923076923076925
 40
0.6923076923076925
 40
0.6923076923076925
 40
0.7115384615384618
 40
0.7115384615384618
 40
0.7115384615384618
 40
0.7115384615384618
 40
0.7307692307692311
 40
0.7307692307692311
 40
0.7307692307692311
 40
0.7307692307692311
 40
0.7500000000000003
 40
0.7500000000000003
 40
0.7500000000000003
 40
0.7500000000000003
 40
0.7692307692307696
 40
0.7692307692307696
 40
0.7692307692307696
 40
0.7692307692307696
 40
0.7884615384615389
 40
0.7884615384615389
 40
0.7884615384615389
 40
0.7884615384615389
 40
0.8076923076923082
 40
0.8076923076923082
 40
0.8076923076923082
 40
0.8076923076923082
 40
0.8269230769230774
 40
0.8269230769230774
 40
0.8269230769230774
 40
0.8269230769230774
 40
0.8461538461538467
 40
0.8461538461538467
 40
0.8461538461538467
 40
0.8461538461538467
 40
0.865384615384616
 40
0.865384615384616
 40
0.865384615384616
 40
0.865384615384616
 40
0.8846153846153853
 40
0.8846153846153853
 40
0.8846153846153853
 40
0.8846153846153853
 40
0.9038461538461545
 40
0.9038461538461545
 40
0.9038461538461545
 40
0.9038461538461545
 40
0.9230769230769238
 40
0.9230769230769238
 40
0.9230769230769238
 40
0.9230769230769238
 40
0.9423076923076931
 40
0.9423076923076931
 40
0.9423076923076931
 40
0.9423076923076931
 40
0.9615384615384623
 40
0.9615384615384623
 40
0.9615384615384623
 40
0.9615384615384623
 40
0.9807692307692316
 40
0.9807692307692316
 40
0.9807692307692316
 40
0.9807692307692316
 40
1.0
 40
1.0
 40
1.0
 40
1.0
 10
20.348600000000001
 20
18.124500000000001
 30
0.0
 10
20.149789999999999
 20
17.997479999999999
 30
0.0
 10
19.977699999999999
 20
17.941040000000001
 30
0.0
 10
19.641749999999998
 20
17.963290000000001
 30
0.0
 10
19.641749999999998
 20
17.963290000000001
 30
0.0
 10
19.082180000000001
 20
18.00038
 30
0.0
 10
18.27919
 20
18.203600000000002
 30
0.0
 10
18.124469999999999
 20
18.316479999999999
 30
0.0
 10
18.124469999999999
 20
18.316479999999999
 30
0.0
 10
18.559380000000001
 20
18.421150000000001
 30
0.0
 10
18.433260000000001
 20
18.574200000000001
 30
0.0
 10
18.468240000000002
 20
18.810669999999998
 30
0.0
 10
18.468240000000002
 20
18.810669999999998
 30
0.0
 10
17.920400000000001
 20
18.577829999999999
 30
0.0
 10
17.212610000000002
 20
18.65654
 30
0.0
 10
16.566870000000002
 20
18.739560000000001
 30
0.0
 10
16.566870000000002
 20
18.739560000000001
 30
0.0
 10
15.810230000000001
 20
18.847580000000001
 30
0.0
 10
14.91527
 20
18.943860000000001
 30
0.0
 10
14.076689999999999
 20
18.904219999999999
 30
0.0
 10
14.076689999999999
 20
18.904219999999999
 30
0.0
 10
12.962680000000001
 20
18.851559999999999
 30
0.0
 10
12.03167
 20
18.525210000000001
 30
0.0
 10
11.90835
 20
17.915230000000001
 30
0.0
 10
11.90835
 20
17.915230000000001
 30
0.0
 10
11.835100000000001
 20
17.552910000000001
 30
0.0
 10
12.25606
 20
17.227640000000001
 30
0.0
 10
12.97458
 20
17.23564
 30
0.0
 10
12.97458
 20
17.23564
 30
0.0
 10
13.467370000000001
 20
17.244679999999999
 30
0.0
 10
13.832229999999999
 20
17.56775
 30
0.0
 10
13.26224
 20
17.729839999999999
 30
0.0
 10
13.26224
 20
17.729839999999999
 30
0.0
 10
13.13574
 20
17.765820000000001
 30
0.0
 10
12.912789999999999
 20
17.735510000000001
 30
0.0
 10
12.834250000000001
 20
17.690740000000002
 30
0.0
 10
12.834250000000001
 20
17.690740000000002
 30
0.0
 10
12.834250000000001
 20
17.690740000000002
 30
0.0
 10
12.66586
 20
17.640969999999999
 30
0.0
 10
12.66586
 20
17.640969999999999
 30
0.0
 10
12.66586
 20
17.640969999999999
 30
0.0
 10
12.619630000000001
 20
17.680330000000001
 30
0.0
 10
12.577870000000001
 20
17.721969999999999
 30
0.0
 10
12.567640000000001
 20
17.779620000000001
 30
0.0
 10
12.567640000000001
 20
17.779620000000001
 30
0.0
 10
12.44655
 20
18.491309999999999
 30
0.0
 10
14.477349999999999
 20
18.908010000000001
 30
0.0
 10
15.15662
 20
18.152950000000001
 30
0.0
 10
15.15662
 20
18.152950000000001
 30
0.0
 10
15.21504
 20
18.152889999999999
 30
0.0
 10
15.27815
 20
18.157599999999999
 30
0.0
 10
15.37411
 20
18.195599999999999
 30
0.0
 10
15.37411
 20
18.195599999999999
 30
0.0
 10
15.583589999999999
 20
18.370740000000001
 30
0.0
 10
15.43756
 20
18.482109999999999
 30
0.0
 10
15.2759
 20
18.568909999999999
 30
0.0
 10
15.2759
 20
18.568909999999999
 30
0.0
 10
15.27134
 20
18.571349999999999
 30
0.0
 10
15.32418
 20
18.58709
 30
0.0
 10
15.367100000000001
 20
18.58315
 30
0.0
 10
15.367100000000001
 20
18.58315
 30
0.0
 10
15.410030000000001
 20
18.579170000000001
 30
0.0
 10
15.53884
 20
18.581510000000002
 30
0.0
 10
15.738960000000001
 20
18.512029999999999
 30
0.0
 10
15.738960000000001
 20
18.512029999999999
 30
0.0
 10
15.939069999999999
 20
18.442550000000001
 30
0.0
 10
17.000019999999999
 20
17.834689999999998
 30
0.0
 10
16.44059
 20
17.57696
 30
0.0
 10
16.44059
 20
17.57696
 30
0.0
 10
16.44059
 20
17.57696
 30
0.0
 10
16.34234
 20
17.55208
 30
0.0
 10
16.34234
 20
17.55208
 30
0.0
 10
16.34234
 20
17.55208
 30
0.0
 10
16.34234
 20
17.55208
 30
0.0
 10
16.286210000000001
 20
17.530750000000001
 30
0.0
 10
16.286210000000001
 20
17.530750000000001
 30
0.0
 10
16.286210000000001
 20
17.530750000000001
 30
0.0
 10
16.286210000000001
 20
17.530750000000001
 30
0.0
 10
16.363399999999999
 20
17.463190000000001
 30
0.0
 10
16.363399999999999
 20
17.463190000000001
 30
0.0
 10
16.363399999999999
 20
17.463190000000001
 30
0.0
 10
16.572379999999999
 20
17.34216
 30
0.0
 10
16.774339999999999
 20
17.45318
 30
0.0
 10
16.889600000000002
 20
17.544969999999999
 30
0.0
 10
16.889600000000002
 20
17.544969999999999
 30
0.0
 10
16.955290000000002
 20
17.27852
 30
0.0
 10
16.540980000000001
 20
17.095870000000001
 30
0.0
 10
16.068719999999999
 20
17.064979999999998
 30
0.0
 10
16.068719999999999
 20
17.064979999999998
 30
0.0
 10
16.068719999999999
 20
17.064979999999998
 30
0.0
 10
16.068719999999999
 20
17.036539999999999
 30
0.0
 10
16.068719999999999
 20
17.036539999999999
 30
0.0
 10
16.068719999999999
 20
17.036539999999999
 30
0.0
 10
16.49137
 20
16.633320000000001
 30
0.0
 10
17.446190000000001
 20
17.138300000000001
 30
0.0
 10
17.38775
 20
17.36009
 30
0.0
 10
17.38775
 20
17.36009
 30
0.0
 10
17.450780000000002
 20
17.251930000000002
 30
0.0
 10
17.541969999999999
 20
17.18045
 30
0.0
 10
17.759599999999999
 20
17.160979999999999
 30
0.0
 10
17.759599999999999
 20
17.160979999999999
 30
0.0
 10
17.759599999999999
 20
17.160979999999999
 30
0.0
 10
17.759599999999999
 20
17.313880000000001
 30
0.0
 10
17.759599999999999
 20
17.313880000000001
 30
0.0
 10
17.759599999999999
 20
17.313880000000001
 30
0.0
 10
17.927810000000001
 20
17.708379999999998
 30
0.0
 10
17.5351
 20
18.05846
 30
0.0
 10
17.06954
 20
18.36618
 30
0.0
 10
17.06954
 20
18.36618
 30
0.0
 10
18.148299999999999
 20
18.138999999999999
 30
0.0
 10
18.861509999999999
 20
17.315660000000001
 30
0.0
 10
18.707149999999999
 20
16.95129
 30
0.0
 10
18.707149999999999
 20
16.95129
 30
0.0
 10
18.66478
 20
16.85127
 30
0.0
 10
18.56148
 20
16.76465
 30
0.0
 10
18.39809
 20
16.70946
 30
0.0
 10
18.39809
 20
16.70946
 30
0.0
 10
18.47756
 20
16.588650000000001
 30
0.0
 10
18.702559999999998
 20
16.60003
 30
0.0
 10
18.88382
 20
16.683039999999998
 30
0.0
 10
18.88382
 20
16.683039999999998
 30
0.0
 10
19.092680000000001
 20
16.778690000000001
 30
0.0
 10
19.17689
 20
16.970680000000002
 30
0.0
 10
19.17689
 20
17.100539999999999
 30
0.0
 10
19.17689
 20
17.100539999999999
 30
0.0
 10
19.82687
 20
16.274740000000001
 30
0.0
 10
19.32809
 20
15.23982
 30
0.0
 10
17.815750000000001
 20
15.28374
 30
0.0
 10
17.815750000000001
 20
15.28374
 30
0.0
 10
17.86741
 20
15.077870000000001
 30
0.0
 10
18.16911
 20
15.00605
 30
0.0
 10
18.467580000000002
 20
15.023440000000001
 30
0.0
 10
18.467580000000002
 20
15.023440000000001
 30
0.0
 10
18.776399999999999
 20
15.04144
 30
0.0
 10
18.956099999999999
 20
15.139250000000001
 30
0.0
 10
19.133379999999999
 20
15.2553
 30
0.0
 10
19.133379999999999
 20
15.2553
 30
0.0
 10
18.658290000000001
 20
14.80945
 30
0.0
 10
17.469010000000001
 20
14.479150000000001
 30
0.0
 10
16.459019999999999
 20
14.71799
 30
0.0
 10
16.459019999999999
 20
14.71799
 30
0.0
 10
16.476120000000002
 20
14.70026
 30
0.0
 10
16.626670000000001
 20
14.635529999999999
 30
0.0
 10
16.673819999999999
 20
14.5908
 30
0.0
 10
16.673819999999999
 20
14.5908
 30
0.0
 10
16.882619999999999
 20
14.392720000000001
 30
0.0
 10
16.7819
 20
14.27843
 30
0.0
 10
17.54712
 20
14.36819
 30
0.0
 10
17.54712
 20
14.36819
 30
0.0
 10
17.444500000000001
 20
14.344099999999999
 30
0.0
 10
17.330549999999999
 20
14.320639999999999
 30
0.0
 10
17.21265
 20
14.302720000000001
 30
0.0
 10
17.21265
 20
14.302720000000001
 30
0.0
 10
16.606919999999999
 20
14.21053
 30
0.0
 10
16.342970000000001
 20
14.33098
 30
0.0
 10
15.98366
 20
14.568820000000001
 30
0.0
 10
15.98366
 20
14.568820000000001
 30
0.0
 10
15.78851
 20
14.697990000000001
 30
0.0
 10
15.50455
 20
14.725300000000001
 30
0.0
 10
15.37392
 20
14.826449999999999
 30
0.0
 10
15.37392
 20
14.826449999999999
 30
0.0
 10
15.29824
 20
14.885070000000001
 30
0.0
 10
15.315200000000001
 20
14.91902
 30
0.0
 10
15.346069999999999
 20
14.98155
 30
0.0
 10
15.346069999999999
 20
14.98155
 30
0.0
 10
14.93266
 20
14.87041
 30
0.0
 10
14.910629999999999
 20
14.58938
 30
0.0
 10
15.1656
 20
14.41226
 30
0.0
 10
15.1656
 20
14.41226
 30
0.0
 10
15.31312
 20
14.309799999999999
 30
0.0
 10
15.53816
 20
14.229139999999999
 30
0.0
 10
15.769579999999999
 20
14.17989
 30
0.0
 10
15.769579999999999
 20
14.17989
 30
0.0
 10
16.104150000000001
 20
14.10868
 30
0.0
 10
16.433499999999999
 20
14.08803
 30
0.0
 10
16.84571
 20
14.10735
 30
0.0
 10
16.84571
 20
14.10735
 30
0.0
 10
19.802700000000002
 20
14.245979999999999
 30
0.0
 10
20.410699999999999
 20
16.45711
 30
0.0
 10
19.22569
 20
17.541429999999998
 30
0.0
 10
19.22569
 20
17.541429999999998
 30
0.0
 10
19.118400000000001
 20
17.639610000000001
 30
0.0
 10
18.99999
 20
17.739419999999999
 30
0.0
 10
18.874169999999999
 20
17.84375
 30
0.0
 10
18.874169999999999
 20
17.84375
 30
0.0
 10
19.421790000000001
 20
17.763470000000002
 30
0.0
 10
20.10163
 20
17.195630000000001
 30
0.0
 10
19.771799999999999
 20
16.922460000000001
 30
0.0
 10
19.771799999999999
 20
16.922460000000001
 30
0.0
 10
19.744070000000001
 20
16.89949
 30
0.0
 10
19.92933
 20
16.970700000000001
 30
0.0
 10
19.969100000000001
 20
16.982510000000001
 30
0.0
 10
19.969100000000001
 20
16.982510000000001
 30
0.0
 10
20.061979999999998
 20
17.010110000000001
 30
0.0
 10
20.141010000000001
 20
17.072610000000001
 30
0.0
 10
20.194700000000001
 20
17.14451
 30
0.0
 10
20.194700000000001
 20
17.14451
 30
0.0
 10
20.449719999999999
 20
17.485980000000001
 30
0.0
 10
19.67258
 20
17.744430000000001
 30
0.0
 10
19.74578
 20
17.745200000000001
 30
0.0
 10
19.74578
 20
17.745200000000001
 30
0.0
 10
19.817329999999998
 20
17.74596
 30
0.0
 10
19.879280000000001
 20
17.746320000000001
 30
0.0
 10
19.924800000000001
 20
17.757380000000001
 30
0.0
 10
19.924800000000001
 20
17.757380000000001
 30
0.0
 10
20.25723
 20
17.838149999999999
 30
0.0
 10
20.409569999999999
 20
17.937190000000001
 30
0.0
 10
20.348600000000001
 20
18.124500000000001
 30
0.0
  0
SPLINE
  5
55
100
AcDbEntity
  8
Layer 1
 62
     5
100
AcDbSpline
210
0.0
220
0.0
230
1.0
 70
     1
 71
     3
 72
    36
 73
    32
 74
     0
 42
0.0000000001
 43
0.0000000001
 40
0.0
 40
0.0
 40
0.0
 40
0.0
 40
0.125
 40
0.125
 40
0.125
 40
0.125
 40
0.25
 40
0.25
 40
0.25
 40
0.25
 40
0.375
 40
0.375
 40
0.375
 40
0.375
 40
0.5
 40
0.5
 40
0.5
 40
0.5
 40
0.625
 40
0.625
 40
0.625
 40
0.625
 40
0.75
 40
0.75
 40
0.75
 40
0.75
 40
0.875
 40
0.875
 40
0.875
 40
0.875
 40
1.0
 40
1.0
 40
1.0
 40
1.0
 10
15.17891
 20
16.743089999999999
 30
0.0
 10
14.86655
 20
16.911069999999999
 30
0.0
 10
13.92864
 20
17.24933
 30
0.0
 10
13.53647
 20
16.935759999999998
 30
0.0
 10
13.53647
 20
16.935759999999998
 30
0.0
 10
13.276680000000001
 20
17.083559999999999
 30
0.0
 10
13.298719999999999
 20
17.206379999999999
 30
0.0
 10
13.519920000000001
 20
17.270790000000002
 30
0.0
 10
13.519920000000001
 20
17.270790000000002
 30
0.0
 10
13.81301
 20
17.356100000000001
 30
0.0
 10
14.09567
 20
17.343509999999998
 30
0.0
 10
14.3887
 20
17.309100000000001
 30
0.0
 10
14.3887
 20
17.309100000000001
 30
0.0
 10
15.93474
 20
17.127610000000001
 30
0.0
 10
16.88955
 20
15.821770000000001
 30
0.0
 10
15.400729999999999
 20
15.048120000000001
 30
0.0
 10
15.400729999999999
 20
15.048120000000001
 30
0.0
 10
15.86346
 20
15.445959999999999
 30
0.0
 10
16.01482
 20
15.840490000000001
 30
0.0
 10
15.603490000000001
 20
16.27178
 30
0.0
 10
15.603490000000001
 20
16.27178
 30
0.0
 10
15.42807
 20
16.455719999999999
 30
0.0
 10
15.15348
 20
16.599299999999999
 30
0.0
 10
14.61373
 20
16.627780000000001
 30
0.0
 10
14.61373
 20
16.627780000000001
 30
0.0
 10
14.61373
 20
16.627780000000001
 30
0.0
 10
14.61956
 20
16.653300000000002
 30
0.0
 10
14.61956
 20
16.653300000000002
 30
0.0
 10
14.61956
 20
16.653300000000002
 30
0.0
 10
14.764810000000001
 20
16.732209999999998
 30
0.0
 10
14.946160000000001
 20
16.73882
 30
0.0
 10
15.17891
 20
16.743089999999999
 30
0.0
  0
SPLINE
  5
56
100
AcDbEntity
  8
Layer 1
 62
     5
100
AcDbSpline
210
0.0
220
0.0
230
1.0
 70
     1
 71
     3
 72
    20
 73
    16
 74
     0
 42
0.0000000001
 43
0.0000000001
 40
0.0
 40
0.0
 40
0.0
 40
0.0
 40
0.25
 40
0.25
 40
0.25
 40
0.25
 40
0.5
 40
0.5
 40
0.5
 40
0.5
 40
0.75
 40
0.75
 40
0.75
 40
0.75
 40
1.0
 40
1.0
 40
1.0
 40
1.0
 10
16.018460000000001
 20
12.301170000000001
 30
0.0
 10
16.97795
 20
12.158519999999999
 30
0.0
 10
17.16544
 20
12.187609999999999
 30
0.0
 10
17.768529999999998
 20
12.31719
 30
0.0
 10
17.768529999999998
 20
12.31719
 30
0.0
 10
17.43366
 20
11.69544
 30
0.0
 10
17.979559999999999
 20
11.239269999999999
 30
0.0
 10
18.43235
 20
11.27744
 30
0.0
 10
18.43235
 20
11.27744
 30
0.0
 10
18.43235
 20
11.27744
 30
0.0
 10
15.535679999999999
 20
11.26145
 30
0.0
 10
15.535679999999999
 20
11.26145
 30
0.0
 10
15.535679999999999
 20
11.26145
 30
0.0
 10
15.92713
 20
11.33995
 30
0.0
 10
16.303380000000001
 20
11.690440000000001
 30
0.0
 10
16.018460000000001
 20
12.301170000000001
 30
0.0
  0
SPLINE
  5
57
100
AcDbEntity
  8
Layer 1
 62
     5
100
AcDbSpline
210
0.0
220
0.0
230
1.0
 70
     1
 71
     3
 72
    12
 73
     8
 74
     0
 42
0.0000000001
 43
0.0000000001
 40
0.0
 40
0.0
 40
0.0
 40
0.0
 40
0.5
 40
0.5
 40
0.5
 40
0.5
 40
1.0
 40
1.0
 40
1.0
 40
1.0
 10
15.86759
 20
12.14123
 30
0.0
 10
16.040320000000001
 20
10.946580000000001
 30
0.0
 10
13.49025
 20
11.293990000000001
 30
0.0
 10
14.4796
 20
11.909269999999999
 30
0.0
 10
14.4796
 20
11.909269999999999
 30
0.0
 10
14.543469999999999
 20
11.949009999999999
 30
0.0
 10
15.467890000000001
 20
11.623950000000001
 30
0.0
 10
15.86759
 20
12.14123
 30
0.0
  0
SPLINE
  5
58
100
AcDbEntity
  8
Layer 1
 62
     5
100
AcDbSpline
210
0.0
220
0.0
230
1.0
 70
     1
 71
     3
 72
    12
 73
     8
 74
     0
 42
0.0000000001
 43
0.0000000001
 40
0.0
 40
0.0
 40
0.0
 40
0.0
 40
0.5
 40
0.5
 40
0.5
 40
0.5
 40
1.0
 40
1.0
 40
1.0
 40
1.0
 10
17.9481
 20
12.14123
 30
0.0
 10
17.775379999999998
 20
10.946580000000001
 30
0.0
 10
20.32545
 20
11.293990000000001
 30
0.0
 10
19.336089999999999
 20
11.909269999999999
 30
0.0
 10
19.336089999999999
 20
11.909269999999999
 30
0.0
 10
19.272220000000001
 20
11.949009999999999
 30
0.0
 10
18.347799999999999
 20
11.623950000000001
 30
0.0
 10
17.9481
 20
12.14123
 30
0.0
  0
SPLINE
  5
59
100
AcDbEntity
  8
Layer 1
 62
     5
100
AcDbSpline
210
0.0
220
0.0
230
1.0
 70
     1
 71
     3
 72
    36
 73
    32
 74
     0
 42
0.0000000001
 43
0.0000000001
 40
0.0
 40
0.0
 40
0.0
 40
0.0
 40
0.125
 40
0.125
 40
0.125
 40
0.125
 40
0.25
 40
0.25
 40
0.25
 40
0.25
 40
0.375
 40
0.375
 40
0.375
 40
0.375
 40
0.5
 40
0.5
 40
0.5
 40
0.5
 40
0.625
 40
0.625
 40
0.625
 40
0.625
 40
0.75
 40
0.75
 40
0.75
 40
0.75
 40
0.875
 40
0.875
 40
0.875
 40
0.875
 40
1.0
 40
1.0
 40
1.0
 40
1.0
 10
15.45133
 20
11.15931
 30
0.0
 10
15.45133
 20
11.15931
 30
0.0
 10
18.312999999999999
 20
11.15931
 30
0.0
 10
18.312999999999999
 20
11.15931
 30
0.0
 10
18.312999999999999
 20
11.15931
 30
0.0
 10
18.696650000000002
 20
11.15931
 30
0.0
 10
19.010529999999999
 20
11.060320000000001
 30
0.0
 10
19.010529999999999
 20
10.939360000000001
 30
0.0
 10
19.010529999999999
 20
10.939360000000001
 30
0.0
 10
19.010529999999999
 20
10.939360000000001
 30
0.0
 10
19.010529999999999
 20
10.939360000000001
 30
0.0
 10
19.010529999999999
 20
10.939360000000001
 30
0.0
 10
19.010529999999999
 20
10.939360000000001
 30
0.0
 10
19.010529999999999
 20
10.818390000000001
 30
0.0
 10
18.696650000000002
 20
10.719429999999999
 30
0.0
 10
18.312999999999999
 20
10.719429999999999
 30
0.0
 10
18.312999999999999
 20
10.719429999999999
 30
0.0
 10
18.312999999999999
 20
10.719429999999999
 30
0.0
 10
15.45133
 20
10.719429999999999
 30
0.0
 10
15.45133
 20
10.719429999999999
 30
0.0
 10
15.45133
 20
10.719429999999999
 30
0.0
 10
15.067690000000001
 20
10.719429999999999
 30
0.0
 10
14.7538
 20
10.818390000000001
 30
0.0
 10
14.7538
 20
10.939360000000001
 30
0.0
 10
14.7538
 20
10.939360000000001
 30
0.0
 10
14.7538
 20
10.939360000000001
 30
0.0
 10
14.7538
 20
10.939360000000001
 30
0.0
 10
14.7538
 20
10.939360000000001
 30
0.0
 10
14.7538
 20
10.939360000000001
 30
0.0
 10
14.7538
 20
11.060320000000001
 30
0.0
 10
15.067690000000001
 20
11.15931
 30
0.0
 10
15.45133
 20
11.15931
 30
0.0
  0
SPLINE
  5
5A
100
AcDbEntity
  8
Layer 1
 62
     5
100
AcDbSpline
210
0.0
220
0.0
230
1.0
 70
     1
 71
     3
 72
    20
 73
    16
 74
     0
 42
0.0000000001
 43
0.0000000001
 40
0.0
 40
0.0
 40
0.0
 40
0.0
 40
0.25
 40
0.25
 40
0.25
 40
0.25
 40
0.5
 40
0.5
 40
0.5
 40
0.5
 40
0.75
 40
0.75
 40
0.75
 40
0.75
 40
1.0
 40
1.0
 40
1.0
 40
1.0
 10
15.208069999999999
 20
13.20851
 30
0.0
 10
15.208069999999999
 20
13.20851
 30
0.0
 10
18.346499999999999
 20
13.20851
 30
0.0
 10
18.346499999999999
 20
13.20851
 30
0.0
 10
18.346499999999999
 20
13.20851
 30
0.0
 10
18.346499999999999
 20
13.20851
 30
0.0
 10
18.346499999999999
 20
12.98456
 30
0.0
 10
18.346499999999999
 20
12.98456
 30
0.0
 10
18.346499999999999
 20
12.98456
 30
0.0
 10
18.346499999999999
 20
12.98456
 30
0.0
 10
15.208069999999999
 20
12.98456
 30
0.0
 10
15.208069999999999
 20
12.98456
 30
0.0
 10
15.208069999999999
 20
12.98456
 30
0.0
 10
15.208069999999999
 20
12.98456
 30
0.0
 10
15.208069999999999
 20
13.20851
 30
0.0
 10
15.208069999999999
 20
13.20851
 30
0.0
  0
SPLINE
  5
5B
100
AcDbEntity
  8
Layer 1
 62
     5
100
AcDbSpline
210
0.0
220
0.0
230
1.0
 70
     1
 71
     3
 72
    36
 73
    32
 74
     0
 42
0.0000000001
 43
0.0000000001
 40
0.0
 40
0.0
 40
0.0
 40
0.0
 40
0.125
 40
0.125
 40
0.125
 40
0.125
 40
0.25
 40
0.25
 40
0.25
 40
0.25
 40
0.375
 40
0.375
 40
0.375
 40
0.375
 40
0.5
 40
0.5
 40
0.5
 40
0.5
 40
0.625
 40
0.625
 40
0.625
 40
0.625
 40
0.75
 40
0.75
 40
0.75
 40
0.75
 40
0.875
 40
0.875
 40
0.875
 40
0.875
 40
1.0
 40
1.0
 40
1.0
 40
1.0
 10
15.25207
 20
13.75244
 30
0.0
 10
15.25207
 20
13.75244
 30
0.0
 10
18.181789999999999
 20
13.75244
 30
0.0
 10
18.181789999999999
 20
13.75244
 30
0.0
 10
18.181789999999999
 20
13.75244
 30
0.0
 10
18.471550000000001
 20
13.75244
 30
0.0
 10
18.708629999999999
 20
13.651669999999999
 30
0.0
 10
18.708629999999999
 20
13.52847
 30
0.0
 10
18.708629999999999
 20
13.52847
 30
0.0
 10
18.708629999999999
 20
13.52847
 30
0.0
 10
18.708629999999999
 20
13.52848
 30
0.0
 10
18.708629999999999
 20
13.52848
 30
0.0
 10
18.708629999999999
 20
13.52848
 30
0.0
 10
18.708629999999999
 20
13.405290000000001
 30
0.0
 10
18.471550000000001
 20
13.30452
 30
0.0
 10
18.181789999999999
 20
13.30452
 30
0.0
 10
18.181789999999999
 20
13.30452
 30
0.0
 10
18.181789999999999
 20
13.30452
 30
0.0
 10
15.25207
 20
13.30452
 30
0.0
 10
15.25207
 20
13.30452
 30
0.0
 10
15.25207
 20
13.30452
 30
0.0
 10
14.96231
 20
13.30452
 30
0.0
 10
14.72523
 20
13.405290000000001
 30
0.0
 10
14.72523
 20
13.52848
 30
0.0
 10
14.72523
 20
13.52848
 30
0.0
 10
14.72523
 20
13.52848
 30
0.0
 10
14.72523
 20
13.52847
 30
0.0
 10
14.72523
 20
13.52847
 30
0.0
 10
14.72523
 20
13.52847
 30
0.0
 10
14.72523
 20
13.651669999999999
 30
0.0
 10
14.96231
 20
13.75244
 30
0.0
 10
15.25207
 20
13.75244
 30
0.0
  0
SPLINE
  5
5C
100
AcDbEntity
  8
Layer 1
 62
     5
100
AcDbSpline
210
0.0
220
0.0
230
1.0
 70
     1
 71
     3
 72
    44
 73
    40
 74
     0
 42
0.0000000001
 43
0.0000000001
 40
0.0
 40
0.0
 40
0.0
 40
0.0
 40
0.1
 40
0.1
 40
0.1
 40
0.1
 40
0.2
 40
0.2
 40
0.2
 40
0.2
 40
0.3
 40
0.3
 40
0.3
 40
0.3
 40
0.4
 40
0.4
 40
0.4
 40
0.4
 40
0.5
 40
0.5
 40
0.5
 40
0.5
 40
0.6
 40
0.6
 40
0.6
 40
0.6
 40
0.7
 40
0.7
 40
0.7
 40
0.7
 40
0.7999999999999999
 40
0.7999999999999999
 40
0.7999999999999999
 40
0.7999999999999999
 40
0.8999999999999999
 40
0.8999999999999999
 40
0.8999999999999999
 40
0.8999999999999999
 40
1.0
 40
1.0
 40
1.0
 40
1.0
 10
15.715479999999999
 20
12.428699999999999
 30
0.0
 10
15.715479999999999
 20
12.1754
 30
0.0
 10
15.335900000000001
 20
11.96881
 30
0.0
 10
14.870509999999999
 20
11.96881
 30
0.0
 10
14.870509999999999
 20
11.96881
 30
0.0
 10
14.405110000000001
 20
11.96881
 30
0.0
 10
14.025550000000001
 20
12.1754
 30
0.0
 10
14.025550000000001
 20
12.428699999999999
 30
0.0
 10
14.025550000000001
 20
12.428699999999999
 30
0.0
 10
14.025550000000001
 20
12.681979999999999
 30
0.0
 10
14.405110000000001
 20
12.88856
 30
0.0
 10
14.870509999999999
 20
12.88856
 30
0.0
 10
14.870509999999999
 20
12.88856
 30
0.0
 10
14.870509999999999
 20
12.88856
 30
0.0
 10
18.850000000000001
 20
12.88856
 30
0.0
 10
18.850000000000001
 20
12.88856
 30
0.0
 10
18.850000000000001
 20
12.88856
 30
0.0
 10
18.850000000000001
 20
12.88856
 30
0.0
 10
18.877269999999999
 20
12.88856
 30
0.0
 10
18.877269999999999
 20
12.88856
 30
0.0
 10
18.877269999999999
 20
12.88856
 30
0.0
 10
18.877269999999999
 20
12.88856
 30
0.0
 10
18.877269999999999
 20
12.888299999999999
 30
0.0
 10
18.877269999999999
 20
12.888299999999999
 30
0.0
 10
18.877269999999999
 20
12.888299999999999
 30
0.0
 10
19.33013
 20
12.88043
 30
0.0
 10
19.694970000000001
 20
12.677009999999999
 30
0.0
 10
19.694970000000001
 20
12.428699999999999
 30
0.0
 10
19.694970000000001
 20
12.428699999999999
 30
0.0
 10
19.694970000000001
 20
12.1754
 30
0.0
 10
19.31541
 20
11.96881
 30
0.0
 10
18.850000000000001
 20
11.96881
 30
0.0
 10
18.850000000000001
 20
11.96881
 30
0.0
 10
18.384609999999999
 20
11.96881
 30
0.0
 10
18.005040000000001
 20
12.1754
 30
0.0
 10
18.005040000000001
 20
12.428699999999999
 30
0.0
 10
18.005040000000001
 20
12.428699999999999
 30
0.0
 10
18.005040000000001
 20
12.428699999999999
 30
0.0
 10
15.715479999999999
 20
12.428699999999999
 30
0.0
 10
15.715479999999999
 20
12.428699999999999
 30
0.0
  0
SPLINE
  5
5D
100
AcDbEntity
  8
Layer 1
 62
     5
100
AcDbSpline
210
0.0
220
0.0
230
1.0
 70
     1
 71
     3
 72
    20
 73
    16
 74
     0
 42
0.0000000001
 43
0.0000000001
 40
0.0
 40
0.0
 40
0.0
 40
0.0
 40
0.25
 40
0.25
 40
0.25
 40
0.25
 40
0.5
 40
0.5
 40
0.5
 40
0.5
 40
0.75
 40
0.75
 40
0.75
 40
0.75
 40
1.0
 40
1.0
 40
1.0
 40
1.0
 10
18.832190000000001
 20
12.724360000000001
 30
0.0
 10
19.12302
 20
12.724360000000001
 30
0.0
 10
19.360230000000001
 20
12.59524
 30
0.0
 10
19.360230000000001
 20
12.436959999999999
 30
0.0
 10
19.360230000000001
 20
12.436959999999999
 30
0.0
 10
19.360230000000001
 20
12.27868
 30
0.0
 10
19.12302
 20
12.149570000000001
 30
0.0
 10
18.832190000000001
 20
12.149570000000001
 30
0.0
 10
18.832190000000001
 20
12.149570000000001
 30
0.0
 10
18.541360000000001
 20
12.149570000000001
 30
0.0
 10
18.30415
 20
12.27868
 30
0.0
 10
18.30415
 20
12.436959999999999
 30
0.0
 10
18.30415
 20
12.436959999999999
 30
0.0
 10
18.30415
 20
12.59524
 30
0.0
 10
18.541360000000001
 20
12.724360000000001
 30
0.0
 10
18.832190000000001
 20
12.724360000000001
 30
0.0
  0
SPLINE
  5
5E
100
AcDbEntity
  8
Layer 1
 62
     5
100
AcDbSpline
210
0.0
220
0.0
230
1.0
 70
     1
 71
     3
 72
    20
 73
    16
 74
     0
 42
0.0000000001
 43
0.0000000001
 40
0.0
 40
0.0
 40
0.0
 40
0.0
 40
0.25
 40
0.25
 40
0.25
 40
0.25
 40
0.5
 40
0.5
 40
0.5
 40
0.5
 40
0.75
 40
0.75
 40
0.75
 40
0.75
 40
1.0
 40
1.0
 40
1.0
 40
1.0
 10
14.882389999999999
 20
12.724360000000001
 30
0.0
 10
15.17323
 20
12.724360000000001
 30
0.0
 10
15.41043
 20
12.59524
 30
0.0
 10
15.41043
 20
12.436959999999999
 30
0.0
 10
15.41043
 20
12.436959999999999
 30
0.0
 10
15.41043
 20
12.27868
 30
0.0
 10
15.17323
 20
12.149570000000001
 30
0.0
 10
14.882389999999999
 20
12.149570000000001
 30
0.0
 10
14.882389999999999
 20
12.149570000000001
 30
0.0
 10
14.591559999999999
 20
12.149570000000001
 30
0.0
 10
14.35435
 20
12.27868
 30
0.0
 10
14.35435
 20
12.436959999999999
 30
0.0
 10
14.35435
 20
12.436959999999999
 30
0.0
 10
14.35435
 20
12.59524
 30
0.0
 10
14.591559999999999
 20
12.724360000000001
 30
0.0
 10
14.882389999999999
 20
12.724360000000001
 30
0.0
  0
LWPOLYLINE
  5
5F
100
AcDbEntity
  8
Layer 1
 62
     5
100
AcDbPolyline
 90
        5
 70
     1
 10
15.37979
 20
10.24042
 10
18.60345
 20
10.24042
 10
18.60345
 20
10.60894
 10
15.37979
 20
10.60894
 10
15.37979
 20
10.24042
  0
SPLINE
  5
60
100
AcDbEntity
  8
Layer 1
 62
     5
100
AcDbSpline
210
0.0
220
0.0
230
1.0
 70
     1
 71
     3
 72
    16
 73
    12
 74
     0
 42
0.0000000001
 43
0.0000000001
 40
0.0
 40
0.0
 40
0.0
 40
0.0
 40
0.3333333333333333
 40
0.3333333333333333
 40
0.3333333333333333
 40
0.3333333333333333
 40
0.6666666666666666
 40
0.6666666666666666
 40
0.6666666666666666
 40
0.6666666666666666
 40
1.0
 40
1.0
 40
1.0
 40
1.0
 10
17.65587
 20
10.060560000000001
 30
0.0
 10
17.65587
 20
10.060560000000001
 30
0.0
 10
15.770530000000001
 20
10.060560000000001
 30
0.0
 10
15.770530000000001
 20
10.060560000000001
 30
0.0
 10
15.770530000000001
 20
10.060560000000001
 30
0.0
 10
15.46434
 20
9.4177999999999997
 30
0.0
 10
15.499840000000001
 20
8.9655500000000004
 30
0.0
 10
15.770530000000001
 20
8.6250999999999998
 30
0.0
 10
15.770530000000001
 20
8.6250999999999998
 30
0.0
 10
15.770530000000001
 20
8.6250999999999998
 30
0.0
 10
17.65587
 20
10.060560000000001
 30
0.0
 10
17.65587
 20
10.060560000000001
 30
0.0
  0
SPLINE
  5
61
100
AcDbEntity
  8
Layer 1
 62
     5
100
AcDbSpline
210
0.0
220
0.0
230
1.0
 70
     1
 71
     3
 72
    20
 73
    16
 74
     0
 42
0.0000000001
 43
0.0000000001
 40
0.0
 40
0.0
 40
0.0
 40
0.0
 40
0.25
 40
0.25
 40
0.25
 40
0.25
 40
0.5
 40
0.5
 40
0.5
 40
0.5
 40
0.75
 40
0.75
 40
0.75
 40
0.75
 40
1.0
 40
1.0
 40
1.0
 40
1.0
 10
15.627420000000001
 20
8.1911100000000001
 30
0.0
 10
15.34118
 20
7.5049599999999996
 30
0.0
 10
15.34118
 20
6.9713399999999996
 30
0.0
 10
15.627420000000001
 20
6.5902099999999999
 30
0.0
 10
15.627420000000001
 20
6.5902099999999999
 30
0.0
 10
15.627420000000001
 20
6.5902099999999999
 30
0.0
 10
18.136209999999998
 20
8.5003499999999992
 30
0.0
 10
18.136209999999998
 20
8.5003499999999992
 30
0.0
 10
18.136209999999998
 20
8.5003499999999992
 30
0.0
 10
18.566980000000001
 20
9.2059300000000004
 30
0.0
 10
18.423310000000001
 20
9.7012900000000002
 30
0.0
 10
18.136209999999998
 20
10.10122
 30
0.0
 10
18.136209999999998
 20
10.10122
 30
0.0
 10
18.136209999999998
 20
10.10122
 30
0.0
 10
15.627420000000001
 20
8.1911100000000001
 30
0.0
 10
15.627420000000001
 20
8.1911100000000001
 30
0.0
  0
SPLINE
  5
62
100
AcDbEntity
  8
Layer 1
 62
     5
100
AcDbSpline
210
0.0
220
0.0
230
1.0
 70
     1
 71
     3
 72
    20
 73
    16
 74
     0
 42
0.0000000001
 43
0.0000000001
 40
0.0
 40
0.0
 40
0.0
 40
0.0
 40
0.25
 40
0.25
 40
0.25
 40
0.25
 40
0.5
 40
0.5
 40
0.5
 40
0.5
 40
0.75
 40
0.75
 40
0.75
 40
0.75
 40
1.0
 40
1.0
 40
1.0
 40
1.0
 10
15.627420000000001
 20
6.3077199999999998
 30
0.0
 10
15.34118
 20
5.6215599999999997
 30
0.0
 10
15.34118
 20
5.0879200000000004
 30
0.0
 10
15.627420000000001
 20
4.7068099999999999
 30
0.0
 10
15.627420000000001
 20
4.7068099999999999
 30
0.0
 10
15.627420000000001
 20
4.7068099999999999
 30
0.0
 10
18.136220000000002
 20
6.6169500000000001
 30
0.0
 10
18.136220000000002
 20
6.6169500000000001
 30
0.0
 10
18.136220000000002
 20
6.6169500000000001
 30
0.0
 10
18.566990000000001
 20
7.3225300000000004
 30
0.0
 10
18.42332
 20
7.8178900000000002
 30
0.0
 10
18.136220000000002
 20
8.2178199999999997
 30
0.0
 10
18.136220000000002
 20
8.2178199999999997
 30
0.0
 10
18.136220000000002
 20
8.2178199999999997
 30
0.0
 10
15.627420000000001
 20
6.3077199999999998
 30
0.0
 10
15.627420000000001
 20
6.3077199999999998
 30
0.0
  0
SPLINE
  5
63
100
AcDbEntity
  8
Layer 1
 62
     5
100
AcDbSpline
210
0.0
220
0.0
230
1.0
 70
     1
 71
     3
 72
    20
 73
    16
 74
     0
 42
0.0000000001
 43
0.0000000001
 40
0.0
 40
0.0
 40
0.0
 40
0.0
 40
0.25
 40
0.25
 40
0.25
 40
0.25
 40
0.5
 40
0.5
 40
0.5
 40
0.5
 40
0.75
 40
0.75
 40
0.75
 40
0.75
 40
1.0
 40
1.0
 40
1.0
 40
1.0
 10
15.627420000000001
 20
4.4243100000000002
 30
0.0
 10
15.34118
 20
3.7381500000000001
 30
0.0
 10
15.34118
 20
3.20452
 30
0.0
 10
15.627420000000001
 20
2.8233899999999998
 30
0.0
 10
15.627420000000001
 20
2.8233899999999998
 30
0.0
 10
15.627420000000001
 20
2.8233899999999998
 30
0.0
 10
18.136220000000002
 20
4.73353
 30
0.0
 10
18.136220000000002
 20
4.73353
 30
0.0
 10
18.136220000000002
 20
4.73353
 30
0.0
 10
18.566990000000001
 20
5.43912
 30
0.0
 10
18.42332
 20
5.9344900000000003
 30
0.0
 10
18.136220000000002
 20
6.3344199999999997
 30
0.0
 10
18.136220000000002
 20
6.3344199999999997
 30
0.0
 10
18.136220000000002
 20
6.3344199999999997
 30
0.0
 10
15.627420000000001
 20
4.4243100000000002
 30
0.0
 10
15.627420000000001
 20
4.4243100000000002
 30
0.0
  0
SPLINE
  5
64
100
AcDbEntity
  8
Layer 1
 62
     5
100
AcDbSpline
210
0.0
220
0.0
230
1.0
 70
     1
 71
     3
 72
    20
 73
    16
 74
     0
 42
0.0000000001
 43
0.0000000001
 40
0.0
 40
0.0
 40
0.0
 40
0.0
 40
0.25
 40
0.25
 40
0.25
 40
0.25
 40
0.5
 40
0.5
 40
0.5
 40
0.5
 40
0.75
 40
0.75
 40
0.75
 40
0.75
 40
1.0
 40
1.0
 40
1.0
 40
1.0
 10
15.627420000000001
 20
2.5409099999999998
 30
0.0
 10
15.34118
 20
1.8547499999999999
 30
0.0
 10
15.34118
 20
1.3211200000000001
 30
0.0
 10
15.627420000000001
 20
0.94
 30
0.0
 10
15.627420000000001
 20
0.94
 30
0.0
 10
15.627420000000001
 20
0.94
 30
0.0
 10
18.136220000000002
 20
2.8501300000000001
 30
0.0
 10
18.136220000000002
 20
2.8501300000000001
 30
0.0
 10
18.136220000000002
 20
2.8501300000000001
 30
0.0
 10
18.566990000000001
 20
3.55572
 30
0.0
 10
18.42332
 20
4.0510900000000003
 30
0.0
 10
18.136220000000002
 20
4.4510100000000001
 30
0.0
 10
18.136220000000002
 20
4.4510100000000001
 30
0.0
 10
18.136220000000002
 20
4.4510100000000001
 30
0.0
 10
15.627420000000001
 20
2.5409099999999998
 30
0.0
 10
15.627420000000001
 20
2.5409099999999998
 30
0.0
  0
SPLINE
  5
65
100
AcDbEntity
  8
Layer 1
 62
     5
100
AcDbSpline
210
0.0
220
0.0
230
1.0
 70
     1
 71
     3
 72
    20
 73
    16
 74
     0
 42
0.0000000001
 43
0.0000000001
 40
0.0
 40
0.0
 40
0.0
 40
0.0
 40
0.25
 40
0.25
 40
0.25
 40
0.25
 40
0.5
 40
0.5
 40
0.5
 40
0.5
 40
0.75
 40
0.75
 40
0.75
 40
0.75
 40
1.0
 40
1.0
 40
1.0
 40
1.0
 10
15.627420000000001
 20
0.65751
 30
0.0
 10
15.34118
 20
-0.02866
 30
0.0
 10
15.34118
 20
-0.56228
 30
0.0
 10
15.627420000000001
 20
-0.94341
 30
0.0
 10
15.627420000000001
 20
-0.94341
 30
0.0
 10
15.627420000000001
 20
-0.94341
 30
0.0
 10
18.136220000000002
 20
0.96673
 30
0.0
 10
18.136220000000002
 20
0.96673
 30
0.0
 10
18.136220000000002
 20
0.96673
 30
0.0
 10
18.566990000000001
 20
1.67231
 30
0.0
 10
18.42332
 20
2.1676799999999998
 30
0.0
 10
18.136220000000002
 20
2.5676199999999998
 30
0.0
 10
18.136220000000002
 20
2.5676199999999998
 30
0.0
 10
18.136220000000002
 20
2.5676199999999998
 30
0.0
 10
15.627420000000001
 20
0.65751
 30
0.0
 10
15.627420000000001
 20
0.65751
 30
0.0
  0
SPLINE
  5
66
100
AcDbEntity
  8
Layer 1
 62
     5
100
AcDbSpline
210
0.0
220
0.0
230
1.0
 70
     1
 71
     3
 72
    20
 73
    16
 74
     0
 42
0.0000000001
 43
0.0000000001
 40
0.0
 40
0.0
 40
0.0
 40
0.0
 40
0.25
 40
0.25
 40
0.25
 40
0.25
 40
0.5
 40
0.5
 40
0.5
 40
0.5
 40
0.75
 40
0.75
 40
0.75
 40
0.75
 40
1.0
 40
1.0
 40
1.0
 40
1.0
 10
15.627420000000001
 20
-1.2259
 30
0.0
 10
15.34118
 20
-1.9120600000000001
 30
0.0
 10
15.34118
 20
-2.4456899999999999
 30
0.0
 10
15.627420000000001
 20
-2.82681
 30
0.0
 10
15.627420000000001
 20
-2.82681
 30
0.0
 10
15.627420000000001
 20
-2.82681
 30
0.0
 10
18.136220000000002
 20
-0.91667
 30
0.0
 10
18.136220000000002
 20
-0.91667
 30
0.0
 10
18.136220000000002
 20
-0.91667
 30
0.0
 10
18.566990000000001
 20
-0.21108
 30
0.0
 10
18.42332
 20
0.28428
 30
0.0
 10
18.136220000000002
 20
0.6842
 30
0.0
 10
18.136220000000002
 20
0.6842
 30
0.0
 10
18.136220000000002
 20
0.6842
 30
0.0
 10
15.627420000000001
 20
-1.2259
 30
0.0
 10
15.627420000000001
 20
-1.2259
 30
0.0
  0
SPLINE
  5
67
100
AcDbEntity
  8
Layer 1
 62
     5
100
AcDbSpline
210
0.0
220
0.0
230
1.0
 70
     1
 71
     3
 72
    20
 73
    16
 74
     0
 42
0.0000000001
 43
0.0000000001
 40
0.0
 40
0.0
 40
0.0
 40
0.0
 40
0.25
 40
0.25
 40
0.25
 40
0.25
 40
0.5
 40
0.5
 40
0.5
 40
0.5
 40
0.75
 40
0.75
 40
0.75
 40
0.75
 40
1.0
 40
1.0
 40
1.0
 40
1.0
 10
15.627420000000001
 20
-3.1093099999999998
 30
0.0
 10
15.34118
 20
-3.7954699999999999
 30
0.0
 10
15.34118
 20
-4.3291000000000004
 30
0.0
 10
15.627420000000001
 20
-4.7102399999999998
 30
0.0
 10
15.627420000000001
 20
-4.7102399999999998
 30
0.0
 10
15.627420000000001
 20
-4.7102399999999998
 30
0.0
 10
18.136220000000002
 20
-2.80009
 30
0.0
 10
18.136220000000002
 20
-2.80009
 30
0.0
 10
18.136220000000002
 20
-2.80009
 30
0.0
 10
18.566990000000001
 20
-2.0945
 30
0.0
 10
18.42332
 20
-1.5991299999999999
 30
0.0
 10
18.136220000000002
 20
-1.1992
 30
0.0
 10
18.136220000000002
 20
-1.1992
 30
0.0
 10
18.136220000000002
 20
-1.1992
 30
0.0
 10
15.627420000000001
 20
-3.1093099999999998
 30
0.0
 10
15.627420000000001
 20
-3.1093099999999998
 30
0.0
  0
SPLINE
  5
68
100
AcDbEntity
  8
Layer 1
 62
     5
100
AcDbSpline
210
0.0
220
0.0
230
1.0
 70
     1
 71
     3
 72
    20
 73
    16
 74
     0
 42
0.0000000001
 43
0.0000000001
 40
0.0
 40
0.0
 40
0.0
 40
0.0
 40
0.25
 40
0.25
 40
0.25
 40
0.25
 40
0.5
 40
0.5
 40
0.5
 40
0.5
 40
0.75
 40
0.75
 40
0.75
 40
0.75
 40
1.0
 40
1.0
 40
1.0
 40
1.0
 10
15.627420000000001
 20
-4.9927200000000003
 30
0.0
 10
15.34118
 20
-5.6788600000000002
 30
0.0
 10
15.34118
 20
-6.2125000000000004
 30
0.0
 10
15.627420000000001
 20
-6.5936199999999996
 30
0.0
 10
15.627420000000001
 20
-6.5936199999999996
 30
0.0
 10
15.627420000000001
 20
-6.5936199999999996
 30
0.0
 10
18.136220000000002
 20
-4.6834899999999999
 30
0.0
 10
18.136220000000002
 20
-4.6834899999999999
 30
0.0
 10
18.136220000000002
 20
-4.6834899999999999
 30
0.0
 10
18.566990000000001
 20
-3.9778899999999999
 30
0.0
 10
18.42332
 20
-3.4825300000000001
 30
0.0
 10
18.136220000000002
 20
-3.0826099999999999
 30
0.0
 10
18.136220000000002
 20
-3.0826099999999999
 30
0.0
 10
18.136220000000002
 20
-3.0826099999999999
 30
0.0
 10
15.627420000000001
 20
-4.9927200000000003
 30
0.0
 10
15.627420000000001
 20
-4.9927200000000003
 30
0.0
  0
SPLINE
  5
69
100
AcDbEntity
  8
Layer 1
 62
     5
100
AcDbSpline
210
0.0
220
0.0
230
1.0
 70
     1
 71
     3
 72
    20
 73
    16
 74
     0
 42
0.0000000001
 43
0.0000000001
 40
0.0
 40
0.0
 40
0.0
 40
0.0
 40
0.25
 40
0.25
 40
0.25
 40
0.25
 40
0.5
 40
0.5
 40
0.5
 40
0.5
 40
0.75
 40
0.75
 40
0.75
 40
0.75
 40
1.0
 40
1.0
 40
1.0
 40
1.0
 10
15.627420000000001
 20
-6.8761099999999997
 30
0.0
 10
15.34118
 20
-7.5622699999999998
 30
0.0
 10
15.34118
 20
-8.0959199999999996
 30
0.0
 10
15.627420000000001
 20
-8.4770299999999992
 30
0.0
 10
15.627420000000001
 20
-8.4770299999999992
 30
0.0
 10
15.627420000000001
 20
-8.4770299999999992
 30
0.0
 10
18.136209999999998
 20
-6.5668899999999999
 30
0.0
 10
18.136209999999998
 20
-6.5668899999999999
 30
0.0
 10
18.136209999999998
 20
-6.5668899999999999
 30
0.0
 10
18.566980000000001
 20
-5.8613
 30
0.0
 10
18.423310000000001
 20
-5.3659400000000002
 30
0.0
 10
18.136209999999998
 20
-4.9660099999999998
 30
0.0
 10
18.136209999999998
 20
-4.9660099999999998
 30
0.0
 10
18.136209999999998
 20
-4.9660099999999998
 30
0.0
 10
15.627420000000001
 20
-6.8761099999999997
 30
0.0
 10
15.627420000000001
 20
-6.8761099999999997
 30
0.0
  0
SPLINE
  5
6A
100
AcDbEntity
  8
Layer 1
 62
     5
100
AcDbSpline
210
0.0
220
0.0
230
1.0
 70
     1
 71
     3
 72
    20
 73
    16
 74
     0
 42
0.0000000001
 43
0.0000000001
 40
0.0
 40
0.0
 40
0.0
 40
0.0
 40
0.25
 40
0.25
 40
0.25
 40
0.25
 40
0.5
 40
0.5
 40
0.5
 40
0.5
 40
0.75
 40
0.75
 40
0.75
 40
0.75
 40
1.0
 40
1.0
 40
1.0
 40
1.0
 10
15.627420000000001
 20
-8.7595200000000002
 30
0.0
 10
15.34118
 20
-9.4457000000000004
 30
0.0
 10
15.34118
 20
-9.9793199999999995
 30
0.0
 10
15.627420000000001
 20
-10.36045
 30
0.0
 10
15.627420000000001
 20
-10.36045
 30
0.0
 10
15.627420000000001
 20
-10.36045
 30
0.0
 10
18.136220000000002
 20
-8.4502900000000007
 30
0.0
 10
18.136220000000002
 20
-8.4502900000000007
 30
0.0
 10
18.136220000000002
 20
-8.4502900000000007
 30
0.0
 10
18.566990000000001
 20
-7.7447100000000004
 30
0.0
 10
18.42332
 20
-7.2493499999999997
 30
0.0
 10
18.136220000000002
 20
-6.8494200000000003
 30
0.0
 10
18.136220000000002
 20
-6.8494200000000003
 30
0.0
 10
18.136220000000002
 20
-6.8494200000000003
 30
0.0
 10
15.627420000000001
 20
-8.7595200000000002
 30
0.0
 10
15.627420000000001
 20
-8.7595200000000002
 30
0.0
  0
SPLINE
  5
6B
100
AcDbEntity
  8
Layer 1
 62
     5
100
AcDbSpline
210
0.0
220
0.0
230
1.0
 70
     1
 71
     3
 72
    20
 73
    16
 74
     0
 42
0.0000000001
 43
0.0000000001
 40
0.0
 40
0.0
 40
0.0
 40
0.0
 40
0.25
 40
0.25
 40
0.25
 40
0.25
 40
0.5
 40
0.5
 40
0.5
 40
0.5
 40
0.75
 40
0.75
 40
0.75
 40
0.75
 40
1.0
 40
1.0
 40
1.0
 40
1.0
 10
15.627420000000001
 20
-10.642939999999999
 30
0.0
 10
15.34118
 20
-11.329079999999999
 30
0.0
 10
15.34118
 20
-11.86271
 30
0.0
 10
15.627420000000001
 20
-12.24385
 30
0.0
 10
15.627420000000001
 20
-12.24385
 30
0.0
 10
15.627420000000001
 20
-12.24385
 30
0.0
 10
18.136220000000002
 20
-10.333690000000001
 30
0.0
 10
18.136220000000002
 20
-10.333690000000001
 30
0.0
 10
18.136220000000002
 20
-10.333690000000001
 30
0.0
 10
18.566990000000001
 20
-9.6281099999999995
 30
0.0
 10
18.42332
 20
-9.1327700000000007
 30
0.0
 10
18.136220000000002
 20
-8.7328200000000002
 30
0.0
 10
18.136220000000002
 20
-8.7328200000000002
 30
0.0
 10
18.136220000000002
 20
-8.7328200000000002
 30
0.0
 10
15.627420000000001
 20
-10.642939999999999
 30
0.0
 10
15.627420000000001
 20
-10.642939999999999
 30
0.0
  0
SPLINE
  5
6C
100
AcDbEntity
  8
Layer 1
 62
     5
100
AcDbSpline
210
0.0
220
0.0
230
1.0
 70
     1
 71
     3
 72
    20
 73
    16
 74
     0
 42
0.0000000001
 43
0.0000000001
 40
0.0
 40
0.0
 40
0.0
 40
0.0
 40
0.25
 40
0.25
 40
0.25
 40
0.25
 40
0.5
 40
0.5
 40
0.5
 40
0.5
 40
0.75
 40
0.75
 40
0.75
 40
0.75
 40
1.0
 40
1.0
 40
1.0
 40
1.0
 10
15.627420000000001
 20
-12.526339999999999
 30
0.0
 10
15.34118
 20
-13.2125
 30
0.0
 10
15.34118
 20
-13.746119999999999
 30
0.0
 10
15.627420000000001
 20
-14.12726
 30
0.0
 10
15.627420000000001
 20
-14.12726
 30
0.0
 10
15.627420000000001
 20
-14.12726
 30
0.0
 10
18.136220000000002
 20
-12.21711
 30
0.0
 10
18.136220000000002
 20
-12.21711
 30
0.0
 10
18.136220000000002
 20
-12.21711
 30
0.0
 10
18.566990000000001
 20
-11.511520000000001
 30
0.0
 10
18.42332
 20
-11.01615
 30
0.0
 10
18.136220000000002
 20
-10.61623
 30
0.0
 10
18.136220000000002
 20
-10.61623
 30
0.0
 10
18.136220000000002
 20
-10.61623
 30
0.0
 10
15.627420000000001
 20
-12.526339999999999
 30
0.0
 10
15.627420000000001
 20
-12.526339999999999
 30
0.0
  0
SPLINE
  5
6D
100
AcDbEntity
  8
Layer 1
 62
     5
100
AcDbSpline
210
0.0
220
0.0
230
1.0
 70
     1
 71
     3
 72
    20
 73
    16
 74
     0
 42
0.0000000001
 43
0.0000000001
 40
0.0
 40
0.0
 40
0.0
 40
0.0
 40
0.25
 40
0.25
 40
0.25
 40
0.25
 40
0.5
 40
0.5
 40
0.5
 40
0.5
 40
0.75
 40
0.75
 40
0.75
 40
0.75
 40
1.0
 40
1.0
 40
1.0
 40
1.0
 10
15.627420000000001
 20
-14.40973
 30
0.0
 10
15.34118
 20
-15.0959
 30
0.0
 10
15.34118
 20
-15.62954
 30
0.0
 10
15.627420000000001
 20
-16.010660000000001
 30
0.0
 10
15.627420000000001
 20
-16.010660000000001
 30
0.0
 10
15.627420000000001
 20
-16.010660000000001
 30
0.0
 10
18.136220000000002
 20
-14.10051
 30
0.0
 10
18.136220000000002
 20
-14.10051
 30
0.0
 10
18.136220000000002
 20
-14.10051
 30
0.0
 10
18.566990000000001
 20
-13.39493
 30
0.0
 10
18.42332
 20
-12.899570000000001
 30
0.0
 10
18.136220000000002
 20
-12.49962
 30
0.0
 10
18.136220000000002
 20
-12.49962
 30
0.0
 10
18.136220000000002
 20
-12.49962
 30
0.0
 10
15.627420000000001
 20
-14.40973
 30
0.0
 10
15.627420000000001
 20
-14.40973
 30
0.0
  0
SPLINE
  5
6E
100
AcDbEntity
  8
Layer 1
 62
     5
100
AcDbSpline
210
0.0
220
0.0
230
1.0
 70
     1
 71
     3
 72
    20
 73
    16
 74
     0
 42
0.0000000001
 43
0.0000000001
 40
0.0
 40
0.0
 40
0.0
 40
0.0
 40
0.25
 40
0.25
 40
0.25
 40
0.25
 40
0.5
 40
0.5
 40
0.5
 40
0.5
 40
0.75
 40
0.75
 40
0.75
 40
0.75
 40
1.0
 40
1.0
 40
1.0
 40
1.0
 10
15.627420000000001
 20
-16.293150000000001
 30
0.0
 10
15.34118
 20
-16.979299999999999
 30
0.0
 10
15.34118
 20
-17.512930000000001
 30
0.0
 10
15.627420000000001
 20
-17.89406
 30
0.0
 10
15.627420000000001
 20
-17.89406
 30
0.0
 10
15.627420000000001
 20
-17.89406
 30
0.0
 10
18.136220000000002
 20
-15.98391
 30
0.0
 10
18.136220000000002
 20
-15.98391
 30
0.0
 10
18.136220000000002
 20
-15.98391
 30
0.0
 10
18.566990000000001
 20
-15.27833
 30
0.0
 10
18.42332
 20
-14.782970000000001
 30
0.0
 10
18.136220000000002
 20
-14.383050000000001
 30
0.0
 10
18.136220000000002
 20
-14.383050000000001
 30
0.0
 10
18.136220000000002
 20
-14.383050000000001
 30
0.0
 10
15.627420000000001
 20
-16.293150000000001
 30
0.0
 10
15.627420000000001
 20
-16.293150000000001
 30
0.0
  0
SPLINE
  5
6F
100
AcDbEntity
  8
Layer 1
 62
     5
100
AcDbSpline
210
0.0
220
0.0
230
1.0
 70
     1
 71
     3
 72
    20
 73
    16
 74
     0
 42
0.0000000001
 43
0.0000000001
 40
0.0
 40
0.0
 40
0.0
 40
0.0
 40
0.25
 40
0.25
 40
0.25
 40
0.25
 40
0.5
 40
0.5
 40
0.5
 40
0.5
 40
0.75
 40
0.75
 40
0.75
 40
0.75
 40
1.0
 40
1.0
 40
1.0
 40
1.0
 10
15.627420000000001
 20
-18.176559999999998
 30
0.0
 10
15.34118
 20
-18.862729999999999
 30
0.0
 10
15.34118
 20
-19.396339999999999
 30
0.0
 10
15.627420000000001
 20
-19.777460000000001
 30
0.0
 10
15.627420000000001
 20
-19.777460000000001
 30
0.0
 10
15.627420000000001
 20
-19.777460000000001
 30
0.0
 10
18.136220000000002
 20
-17.867319999999999
 30
0.0
 10
18.136220000000002
 20
-17.867319999999999
 30
0.0
 10
18.136220000000002
 20
-17.867319999999999
 30
0.0
 10
18.566990000000001
 20
-17.161740000000002
 30
0.0
 10
18.42332
 20
-16.666370000000001
 30
0.0
 10
18.136220000000002
 20
-16.266449999999999
 30
0.0
 10
18.136220000000002
 20
-16.266449999999999
 30
0.0
 10
18.136220000000002
 20
-16.266449999999999
 30
0.0
 10
15.627420000000001
 20
-18.176559999999998
 30
0.0
 10
15.627420000000001
 20
-18.176559999999998
 30
0.0
  0
SPLINE
  5
70
100
AcDbEntity
  8
Layer 1
 62
     5
100
AcDbSpline
210
0.0
220
0.0
230
1.0
 70
     1
 71
     3
 72
    20
 73
    16
 74
     0
 42
0.0000000001
 43
0.0000000001
 40
0.0
 40
0.0
 40
0.0
 40
0.0
 40
0.25
 40
0.25
 40
0.25
 40
0.25
 40
0.5
 40
0.5
 40
0.5
 40
0.5
 40
0.75
 40
0.75
 40
0.75
 40
0.75
 40
1.0
 40
1.0
 40
1.0
 40
1.0
 10
15.627420000000001
 20
-20.059940000000001
 30
0.0
 10
15.34118
 20
-20.746110000000002
 30
0.0
 10
15.34118
 20
-21.27975
 30
0.0
 10
15.627420000000001
 20
-21.660869999999999
 30
0.0
 10
15.627420000000001
 20
-21.660869999999999
 30
0.0
 10
15.627420000000001
 20
-21.660869999999999
 30
0.0
 10
18.136220000000002
 20
-19.750720000000001
 30
0.0
 10
18.136220000000002
 20
-19.750720000000001
 30
0.0
 10
18.136220000000002
 20
-19.750720000000001
 30
0.0
 10
18.566990000000001
 20
-19.04514
 30
0.0
 10
18.42332
 20
-18.549779999999998
 30
0.0
 10
18.136220000000002
 20
-18.149840000000001
 30
0.0
 10
18.136220000000002
 20
-18.149840000000001
 30
0.0
 10
18.136220000000002
 20
-18.149840000000001
 30
0.0
 10
15.627420000000001
 20
-20.059940000000001
 30
0.0
 10
15.627420000000001
 20
-20.059940000000001
 30
0.0
  0
SPLINE
  5
71
100
AcDbEntity
  8
Layer 1
 62
     5
100
AcDbSpline
210
0.0
220
0.0
230
1.0
 70
     1
 71
     3
 72
    16
 73
    12
 74
     0
 42
0.0000000001
 43
0.0000000001
 40
0.0
 40
0.0
 40
0.0
 40
0.0
 40
0.3333333333333333
 40
0.3333333333333333
 40
0.3333333333333333
 40
0.3333333333333333
 40
0.6666666666666666
 40
0.6666666666666666
 40
0.6666666666666666
 40
0.6666666666666666
 40
1.0
 40
1.0
 40
1.0
 40
1.0
 10
16.053750000000001
 20
-21.66086
 30
0.0
 10
16.053750000000001
 20
-21.66086
 30
0.0
 10
17.93909
 20
-21.66086
 30
0.0
 10
17.93909
 20
-21.66086
 30
0.0
 10
17.93909
 20
-21.66086
 30
0.0
 10
18.245280000000001
 20
-21.01812
 30
0.0
 10
18.209779999999999
 20
-20.565860000000001
 30
0.0
 10
17.93909
 20
-20.22541
 30
0.0
 10
17.93909
 20
-20.22541
 30
0.0
 10
17.93909
 20
-20.22541
 30
0.0
 10
16.053750000000001
 20
-21.66086
 30
0.0
 10
16.053750000000001
 20
-21.66086
 30
0.0
  0
SPLINE
  5
72
100
AcDbEntity
  8
Layer 1
 62
     5
100
AcDbSpline
210
0.0
220
0.0
230
1.0
 70
     1
 71
     3
 72
    36
 73
    32
 74
     0
 42
0.0000000001
 43
0.0000000001
 40
0.0
 40
0.0
 40
0.0
 40
0.0
 40
0.125
 40
0.125
 40
0.125
 40
0.125
 40
0.25
 40
0.25
 40
0.25
 40
0.25
 40
0.375
 40
0.375
 40
0.375
 40
0.375
 40
0.5
 40
0.5
 40
0.5
 40
0.5
 40
0.625
 40
0.625
 40
0.625
 40
0.625
 40
0.75
 40
0.75
 40
0.75
 40
0.75
 40
0.875
 40
0.875
 40
0.875
 40
0.875
 40
1.0
 40
1.0
 40
1.0
 40
1.0
 10
18.42877
 20
-23.022629999999999
 30
0.0
 10
18.42877
 20
-23.022629999999999
 30
0.0
 10
15.145009999999999
 20
-23.022629999999999
 30
0.0
 10
15.145009999999999
 20
-23.022629999999999
 30
0.0
 10
15.145009999999999
 20
-23.022629999999999
 30
0.0
 10
14.70477
 20
-23.022629999999999
 30
0.0
 10
14.34459
 20
-22.898779999999999
 30
0.0
 10
14.34459
 20
-22.747399999999999
 30
0.0
 10
14.34459
 20
-22.747399999999999
 30
0.0
 10
14.34459
 20
-22.747399999999999
 30
0.0
 10
14.34459
 20
-22.747399999999999
 30
0.0
 10
14.34459
 20
-22.747399999999999
 30
0.0
 10
14.34459
 20
-22.747399999999999
 30
0.0
 10
14.34459
 20
-22.596039999999999
 30
0.0
 10
14.70477
 20
-22.472190000000001
 30
0.0
 10
15.145009999999999
 20
-22.472190000000001
 30
0.0
 10
15.145009999999999
 20
-22.472190000000001
 30
0.0
 10
15.145009999999999
 20
-22.472190000000001
 30
0.0
 10
18.42877
 20
-22.472190000000001
 30
0.0
 10
18.42877
 20
-22.472190000000001
 30
0.0
 10
18.42877
 20
-22.472190000000001
 30
0.0
 10
18.869
 20
-22.472190000000001
 30
0.0
 10
19.229189999999999
 20
-22.596039999999999
 30
0.0
 10
19.229189999999999
 20
-22.747399999999999
 30
0.0
 10
19.229189999999999
 20
-22.747399999999999
 30
0.0
 10
19.229189999999999
 20
-22.747399999999999
 30
0.0
 10
19.229189999999999
 20
-22.747399999999999
 30
0.0
 10
19.229189999999999
 20
-22.747399999999999
 30
0.0
 10
19.229189999999999
 20
-22.747399999999999
 30
0.0
 10
19.229189999999999
 20
-22.898779999999999
 30
0.0
 10
18.869
 20
-23.022629999999999
 30
0.0
 10
18.42877
 20
-23.022629999999999
 30
0.0
  0
SPLINE
  5
73
100
AcDbEntity
  8
Layer 1
 62
     5
100
AcDbSpline
210
0.0
220
0.0
230
1.0
 70
     1
 71
     3
 72
    20
 73
    16
 74
     0
 42
0.0000000001
 43
0.0000000001
 40
0.0
 40
0.0
 40
0.0
 40
0.0
 40
0.25
 40
0.25
 40
0.25
 40
0.25
 40
0.5
 40
0.5
 40
0.5
 40
0.5
 40
0.75
 40
0.75
 40
0.75
 40
0.75
 40
1.0
 40
1.0
 40
1.0
 40
1.0
 10
18.44838
 20
-22.30228
 30
0.0
 10
18.44838
 20
-22.30228
 30
0.0
 10
15.052770000000001
 20
-22.30228
 30
0.0
 10
15.052770000000001
 20
-22.30228
 30
0.0
 10
15.052770000000001
 20
-22.30228
 30
0.0
 10
15.052770000000001
 20
-22.30228
 30
0.0
 10
15.052770000000001
 20
-21.88195
 30
0.0
 10
15.052770000000001
 20
-21.88195
 30
0.0
 10
15.052770000000001
 20
-21.88195
 30
0.0
 10
15.052770000000001
 20
-21.88195
 30
0.0
 10
18.44838
 20
-21.88195
 30
0.0
 10
18.44838
 20
-21.88195
 30
0.0
 10
18.44838
 20
-21.88195
 30
0.0
 10
18.44838
 20
-21.88195
 30
0.0
 10
18.44838
 20
-22.30228
 30
0.0
 10
18.44838
 20
-22.30228
 30
0.0
  0
SPLINE
  5
74
100
AcDbEntity
  8
Layer 1
 62
     5
100
AcDbSpline
210
0.0
220
0.0
230
1.0
 70
     1
 71
     3
 72
    92
 73
    88
 74
     0
 42
0.0000000001
 43
0.0000000001
 40
0.0
 40
0.0
 40
0.0
 40
0.0
 40
0.0454545454545455
 40
0.0454545454545455
 40
0.0454545454545455
 40
0.0454545454545455
 40
0.0909090909090909
 40
0.0909090909090909
 40
0.0909090909090909
 40
0.0909090909090909
 40
0.1363636363636364
 40
0.1363636363636364
 40
0.1363636363636364
 40
0.1363636363636364
 40
0.1818181818181818
 40
0.1818181818181818
 40
0.1818181818181818
 40
0.1818181818181818
 40
0.2272727272727273
 40
0.2272727272727273
 40
0.2272727272727273
 40
0.2272727272727273
 40
0.2727272727272728
 40
0.2727272727272728
 40
0.2727272727272728
 40
0.2727272727272728
 40
0.3181818181818182
 40
0.3181818181818182
 40
0.3181818181818182
 40
0.3181818181818182
 40
0.3636363636363637
 40
0.3636363636363637
 40
0.3636363636363637
 40
0.3636363636363637
 40
0.4090909090909092
 40
0.4090909090909092
 40
0.4090909090909092
 40
0.4090909090909092
 40
0.4545454545454546
 40
0.4545454545454546
 40
0.4545454545454546
 40
0.4545454545454546
 40
0.5000000000000001
 40
0.5000000000000001
 40
0.5000000000000001
 40
0.5000000000000001
 40
0.5454545454545455
 40
0.5454545454545455
 40
0.5454545454545455
 40
0.5454545454545455
 40
0.5909090909090909
 40
0.5909090909090909
 40
0.5909090909090909
 40
0.5909090909090909
 40
0.6363636363636364
 40
0.6363636363636364
 40
0.6363636363636364
 40
0.6363636363636364
 40
0.6818181818181818
 40
0.6818181818181818
 40
0.6818181818181818
 40
0.6818181818181818
 40
0.7272727272727272
 40
0.7272727272727272
 40
0.7272727272727272
 40
0.7272727272727272
 40
0.7727272727272726
 40
0.7727272727272726
 40
0.7727272727272726
 40
0.7727272727272726
 40
0.818181818181818
 40
0.818181818181818
 40
0.818181818181818
 40
0.818181818181818
 40
0.8636363636363634
 40
0.8636363636363634
 40
0.8636363636363634
 40
0.8636363636363634
 40
0.9090909090909088
 40
0.9090909090909088
 40
0.9090909090909088
 40
0.9090909090909088
 40
0.9545454545454543
 40
0.9545454545454543
 40
0.9545454545454543
 40
0.9545454545454543
 40
1.0
 40
1.0
 40
1.0
 40
1.0
 10
-11.563639999999999
 20
-26.06287
 30
0.0
 10
-11.083489999999999
 20
-26.162600000000001
 30
0.0
 10
-10.537269999999999
 20
-26.176880000000001
 30
0.0
 10
-9.9918300000000002
 20
-26.131270000000001
 30
0.0
 10
-9.9918300000000002
 20
-26.131270000000001
 30
0.0
 10
-8.9576200000000004
 20
-26.044779999999999
 30
0.0
 10
-8.22973
 20
-25.814879999999999
 30
0.0
 10
-7.6346299999999996
 20
-25.495999999999999
 30
0.0
 10
-7.6346299999999996
 20
-25.495999999999999
 30
0.0
 10
-6.6387200000000002
 20
-24.96238
 30
0.0
 10
-5.8928500000000001
 20
-24.299299999999999
 30
0.0
 10
-4.5553299999999997
 20
-23.924420000000001
 30
0.0
 10
-4.5553299999999997
 20
-23.924420000000001
 30
0.0
 10
-4.2726800000000003
 20
-23.845199999999998
 30
0.0
 10
-3.94753
 20
-23.79308
 30
0.0
 10
-3.97858
 20
-23.790590000000002
 30
0.0
 10
-3.97858
 20
-23.790590000000002
 30
0.0
 10
-4.0874300000000003
 20
-23.781860000000002
 30
0.0
 10
-4.4475499999999997
 20
-23.771640000000001
 30
0.0
 10
-4.9431500000000002
 20
-23.830909999999999
 30
0.0
 10
-4.9431500000000002
 20
-23.830909999999999
 30
0.0
 10
-5.8582900000000002
 20
-23.94031
 30
0.0
 10
-7.1046399999999998
 20
-24.275559999999999
 30
0.0
 10
-7.3750799999999996
 20
-24.774920000000002
 30
0.0
 10
-7.3750799999999996
 20
-24.774920000000002
 30
0.0
 10
-7.3961300000000003
 20
-24.813780000000001
 30
0.0
 10
-7.94726
 20
-24.454429999999999
 30
0.0
 10
-8.1100100000000008
 20
-24.469049999999999
 30
0.0
 10
-8.1100100000000008
 20
-24.469049999999999
 30
0.0
 10
-8.1494999999999997
 20
-24.47259
 30
0.0
 10
-8.1125100000000003
 20
-24.513110000000001
 30
0.0
 10
-8.1151099999999996
 20
-24.535119999999999
 30
0.0
 10
-8.1151099999999996
 20
-24.535119999999999
 30
0.0
 10
-8.1332699999999996
 20
-24.689160000000001
 30
0.0
 10
-8.1952599999999993
 20
-24.84187
 30
0.0
 10
-8.2956800000000008
 20
-24.98631
 30
0.0
 10
-8.2956800000000008
 20
-24.98631
 30
0.0
 10
-8.7250099999999993
 20
-25.60388
 30
0.0
 10
-9.8568700000000007
 20
-26.07067
 30
0.0
 10
-11.270490000000001
 20
-25.84675
 30
0.0
 10
-11.270490000000001
 20
-25.84675
 30
0.0
 10
-11.039759999999999
 20
-25.840430000000001
 30
0.0
 10
-10.836819999999999
 20
-25.833030000000001
 30
0.0
 10
-10.6547
 20
-25.822120000000002
 30
0.0
 10
-10.6547
 20
-25.822120000000002
 30
0.0
 10
-9.30199
 20
-25.741050000000001
 30
0.0
 10
-8.5222999999999995
 20
-25.222390000000001
 30
0.0
 10
-8.3348200000000006
 20
-24.488679999999999
 30
0.0
 10
-8.3348200000000006
 20
-24.488679999999999
 30
0.0
 10
-8.3285400000000003
 20
-24.464089999999999
 30
0.0
 10
-8.4280799999999996
 20
-24.496269999999999
 30
0.0
 10
-8.4961199999999995
 20
-24.538889999999999
 30
0.0
 10
-8.4961199999999995
 20
-24.538889999999999
 30
0.0
 10
-8.5641499999999997
 20
-24.581530000000001
 30
0.0
 10
-8.6411999999999995
 20
-24.6432
 30
0.0
 10
-8.71143
 20
-24.703320000000001
 30
0.0
 10
-8.71143
 20
-24.703320000000001
 30
0.0
 10
-8.8518799999999995
 20
-24.823589999999999
 30
0.0
 10
-8.86158
 20
-24.930890000000002
 30
0.0
 10
-8.9243799999999993
 20
-24.881450000000001
 30
0.0
 10
-8.9243799999999993
 20
-24.881450000000001
 30
0.0
 10
-9.1003000000000007
 20
-24.743030000000001
 30
0.0
 10
-9.8232999999999997
 20
-24.607189999999999
 30
0.0
 10
-9.6238200000000003
 20
-24.706710000000001
 30
0.0
 10
-9.6238200000000003
 20
-24.706710000000001
 30
0.0
 10
-9.1252899999999997
 20
-24.955439999999999
 30
0.0
 10
-9.3743599999999994
 20
-25.644290000000002
 30
0.0
 10
-10.88331
 20
-25.720800000000001
 30
0.0
 10
-10.88331
 20
-25.720800000000001
 30
0.0
 10
-10.60754
 20
-25.506260000000001
 30
0.0
 10
-10.527139999999999
 20
-25.227730000000001
 30
0.0
 10
-10.80766
 20
-25.007840000000002
 30
0.0
 10
-10.80766
 20
-25.007840000000002
 30
0.0
 10
-10.890779999999999
 20
-24.942699999999999
 30
0.0
 10
-10.96514
 20
-24.906590000000001
 30
0.0
 10
-10.966670000000001
 20
-24.924189999999999
 30
0.0
 10
-10.966670000000001
 20
-24.924189999999999
 30
0.0
 10
-10.97221
 20
-24.988009999999999
 30
0.0
 10
-10.941269999999999
 20
-25.18928
 30
0.0
 10
-11.17052
 20
-25.370799999999999
 30
0.0
 10
-11.17052
 20
-25.370799999999999
 30
0.0
 10
-11.478859999999999
 20
-25.61496
 30
0.0
 10
-12.02713
 20
-25.707470000000001
 30
0.0
 10
-12.52535
 20
-25.59299
 30
0.0
 10
-12.52535
 20
-25.59299
 30
0.0
 10
-12.712770000000001
 20
-25.54992
 30
0.0
 10
-12.476979999999999
 20
-25.87311
 30
0.0
 10
-11.563639999999999
 20
-26.06287
 30
0.0
  0
SPLINE
  5
75
100
AcDbEntity
  8
Layer 1
 62
     5
100
AcDbSpline
210
0.0
220
0.0
230
1.0
 70
     1
 71
     3
 72
    84
 73
    80
 74
     0
 42
0.0000000001
 43
0.0000000001
 40
0.0
 40
0.0
 40
0.0
 40
0.0
 40
0.05
 40
0.05
 40
0.05
 40
0.05
 40
0.1
 40
0.1
 40
0.1
 40
0.1
 40
0.15
 40
0.15
 40
0.15
 40
0.15
 40
0.2
 40
0.2
 40
0.2
 40
0.2
 40
0.25
 40
0.25
 40
0.25
 40
0.25
 40
0.3
 40
0.3
 40
0.3
 40
0.3
 40
0.35
 40
0.35
 40
0.35
 40
0.35
 40
0.4
 40
0.4
 40
0.4
 40
0.4
 40
0.45
 40
0.45
 40
0.45
 40
0.45
 40
0.4999999999999999
 40
0.4999999999999999
 40
0.4999999999999999
 40
0.4999999999999999
 40
0.5499999999999999
 40
0.5499999999999999
 40
0.5499999999999999
 40
0.5499999999999999
 40
0.6
 40
0.6
 40
0.6
 40
0.6
 40
0.65
 40
0.65
 40
0.65
 40
0.65
 40
0.7000000000000001
 40
0.7000000000000001
 40
0.7000000000000001
 40
0.7000000000000001
 40
0.7500000000000001
 40
0.7500000000000001
 40
0.7500000000000001
 40
0.7500000000000001
 40
0.8000000000000002
 40
0.8000000000000002
 40
0.8000000000000002
 40
0.8000000000000002
 40
0.8500000000000002
 40
0.8500000000000002
 40
0.8500000000000002
 40
0.8500000000000002
 40
0.9000000000000002
 40
0.9000000000000002
 40
0.9000000000000002
 40
0.9000000000000002
 40
0.9500000000000003
 40
0.9500000000000003
 40
0.9500000000000003
 40
0.9500000000000003
 40
1.0
 40
1.0
 40
1.0
 40
1.0
 10
-13.00271
 20
-25.322189999999999
 30
0.0
 10
-12.122920000000001
 20
-25.776440000000001
 30
0.0
 10
-10.791180000000001
 20
-25.168389999999999
 30
0.0
 10
-11.463850000000001
 20
-24.619250000000001
 30
0.0
 10
-11.463850000000001
 20
-24.619250000000001
 30
0.0
 10
-12.05172
 20
-24.139379999999999
 30
0.0
 10
-13.379630000000001
 20
-24.33446
 30
0.0
 10
-13.83128
 20
-24.83867
 30
0.0
 10
-13.83128
 20
-24.83867
 30
0.0
 10
-14.039770000000001
 20
-25.071439999999999
 30
0.0
 10
-14.077
 20
-25.36599
 30
0.0
 10
-13.87889
 20
-25.669589999999999
 30
0.0
 10
-13.87889
 20
-25.669589999999999
 30
0.0
 10
-13.70696
 20
-25.93309
 30
0.0
 10
-13.401619999999999
 20
-26.180129999999998
 30
0.0
 10
-13.041320000000001
 20
-26.351649999999999
 30
0.0
 10
-13.041320000000001
 20
-26.351649999999999
 30
0.0
 10
-11.58732
 20
-27.043810000000001
 30
0.0
 10
-8.9083100000000002
 20
-26.755870000000002
 30
0.0
 10
-7.1339300000000003
 20
-26.071729999999999
 30
0.0
 10
-7.1339300000000003
 20
-26.071729999999999
 30
0.0
 10
-6.7854400000000004
 20
-25.937370000000001
 30
0.0
 10
-6.4788399999999999
 20
-25.794789999999999
 30
0.0
 10
-6.1982100000000004
 20
-25.62013
 30
0.0
 10
-6.1982100000000004
 20
-25.62013
 30
0.0
 10
-5.9633099999999999
 20
-25.771719999999998
 30
0.0
 10
-5.1041800000000004
 20
-26.058859999999999
 30
0.0
 10
-4.8624999999999998
 20
-26.02488
 30
0.0
 10
-4.8624999999999998
 20
-26.02488
 30
0.0
 10
-4.7977100000000004
 20
-26.01576
 30
0.0
 10
-4.9767599999999996
 20
-25.46078
 30
0.0
 10
-4.3794899999999997
 20
-24.93526
 30
0.0
 10
-4.3794899999999997
 20
-24.93526
 30
0.0
 10
-3.6785199999999998
 20
-24.318529999999999
 30
0.0
 10
-2.3749199999999999
 20
-24.04618
 30
0.0
 10
-1.15764
 20
-24.371300000000002
 30
0.0
 10
-1.15764
 20
-24.371300000000002
 30
0.0
 10
-0.48563
 20
-24.55077
 30
0.0
 10
0.02369
 20
-24.885829999999999
 30
0.0
 10
-0.05338
 20
-25.314330000000002
 30
0.0
 10
-0.05338
 20
-25.314330000000002
 30
0.0
 10
-0.18506
 20
-25.286809999999999
 30
0.0
 10
-0.32773
 20
-25.27168
 30
0.0
 10
-0.47682
 20
-25.27168
 30
0.0
 10
-0.47682
 20
-25.27168
 30
0.0
 10
-0.73632
 20
-25.27168
 30
0.0
 10
-0.98441
 20
-25.319759999999999
 30
0.0
 10
-1.1875599999999999
 20
-25.40157
 30
0.0
 10
-1.1875599999999999
 20
-25.40157
 30
0.0
 10
-1.5889500000000001
 20
-25.56326
 30
0.0
 10
-1.7472399999999999
 20
-25.832999999999998
 30
0.0
 10
-1.65547
 20
-26.077829999999999
 30
0.0
 10
-1.65547
 20
-26.077829999999999
 30
0.0
 10
-1.54382
 20
-26.375730000000001
 30
0.0
 10
-1.0329699999999999
 20
-26.599129999999999
 30
0.0
 10
-0.49091
 20
-26.599129999999999
 30
0.0
 10
-0.49091
 20
-26.599129999999999
 30
0.0
 10
0.60139
 20
-26.599129999999999
 30
0.0
 10
1.1069
 20
-25.9648
 30
0.0
 10
1.07586
 20
-25.420639999999999
 30
0.0
 10
1.07586
 20
-25.420639999999999
 30
0.0
 10
1.0398700000000001
 20
-24.789870000000001
 30
0.0
 10
0.28311
 20
-24.154879999999999
 30
0.0
 10
-0.97264
 20
-23.885459999999998
 30
0.0
 10
-0.97264
 20
-23.885459999999998
 30
0.0
 10
-2.3538000000000001
 20
-23.58915
 30
0.0
 10
-3.6986699999999999
 20
-23.827089999999998
 30
0.0
 10
-4.7793099999999997
 20
-24.230779999999999
 30
0.0
 10
-4.7793099999999997
 20
-24.230779999999999
 30
0.0
 10
-5.6413599999999997
 20
-24.552769999999999
 30
0.0
 10
-6.29718
 20
-25.054819999999999
 30
0.0
 10
-7.0583
 20
-25.468399999999999
 30
0.0
 10
-7.0583
 20
-25.468399999999999
 30
0.0
 10
-8.2796000000000003
 20
-26.132069999999999
 30
0.0
 10
-10.262119999999999
 20
-26.553100000000001
 30
0.0
 10
-11.92923
 20
-26.182960000000001
 30
0.0
 10
-11.92923
 20
-26.182960000000001
 30
0.0
 10
-12.466659999999999
 20
-26.063649999999999
 30
0.0
 10
-12.953670000000001
 20
-25.788180000000001
 30
0.0
 10
-13.00271
 20
-25.322189999999999
 30
0.0
  0
SPLINE
  5
76
100
AcDbEntity
  8
Layer 1
 62
     5
100
AcDbSpline
210
0.0
220
0.0
230
1.0
 70
     1
 71
     3
 72
    16
 73
    12
 74
     0
 42
0.0000000001
 43
0.0000000001
 40
0.0
 40
0.0
 40
0.0
 40
0.0
 40
0.3333333333333333
 40
0.3333333333333333
 40
0.3333333333333333
 40
0.3333333333333333
 40
0.6666666666666666
 40
0.6666666666666666
 40
0.6666666666666666
 40
0.6666666666666666
 40
1.0
 40
1.0
 40
1.0
 40
1.0
 10
-5.2816700000000001
 20
-25.575579999999999
 30
0.0
 10
-5.4743000000000004
 20
-25.488790000000002
 30
0.0
 10
-5.5594999999999999
 20
-25.486339999999998
 30
0.0
 10
-5.7501499999999997
 20
-25.37463
 30
0.0
 10
-5.7501499999999997
 20
-25.37463
 30
0.0
 10
-5.4850700000000003
 20
-25.178290000000001
 30
0.0
 10
-5.24573
 20
-25.03219
 30
0.0
 10
-4.8158500000000002
 20
-24.835799999999999
 30
0.0
 10
-4.8158500000000002
 20
-24.835799999999999
 30
0.0
 10
-5.0612700000000004
 20
-25.033529999999999
 30
0.0
 10
-5.2422899999999997
 20
-25.266169999999999
 30
0.0
 10
-5.2816700000000001
 20
-25.575579999999999
 30
0.0
  0
SPLINE
  5
77
100
AcDbEntity
  8
Layer 1
 62
     5
100
AcDbSpline
210
0.0
220
0.0
230
1.0
 70
     1
 71
     3
 72
    36
 73
    32
 74
     0
 42
0.0000000001
 43
0.0000000001
 40
0.0
 40
0.0
 40
0.0
 40
0.0
 40
0.125
 40
0.125
 40
0.125
 40
0.125
 40
0.25
 40
0.25
 40
0.25
 40
0.25
 40
0.375
 40
0.375
 40
0.375
 40
0.375
 40
0.5
 40
0.5
 40
0.5
 40
0.5
 40
0.625
 40
0.625
 40
0.625
 40
0.625
 40
0.75
 40
0.75
 40
0.75
 40
0.75
 40
0.875
 40
0.875
 40
0.875
 40
0.875
 40
1.0
 40
1.0
 40
1.0
 40
1.0
 10
-0.38609
 20
-25.099299999999999
 30
0.0
 10
-1.2653000000000001
 20
-25.110050000000001
 30
0.0
 10
-2.0930499999999999
 20
-25.408829999999998
 30
0.0
 10
-1.994
 20
-25.97429
 30
0.0
 10
-1.994
 20
-25.97429
 30
0.0
 10
-1.96472
 20
-26.141459999999999
 30
0.0
 10
-1.8409500000000001
 20
-26.288489999999999
 30
0.0
 10
-1.5938699999999999
 20
-26.476590000000002
 30
0.0
 10
-1.5938699999999999
 20
-26.476590000000002
 30
0.0
 10
-2.1997900000000001
 20
-26.30951
 30
0.0
 10
-2.7839100000000001
 20
-26.198229999999999
 30
0.0
 10
-3.1454599999999999
 20
-25.782589999999999
 30
0.0
 10
-3.1454599999999999
 20
-25.782589999999999
 30
0.0
 10
-3.2754799999999999
 20
-26.315169999999998
 30
0.0
 10
-2.8091300000000001
 20
-26.611560000000001
 30
0.0
 10
-2.4362499999999998
 20
-26.854220000000002
 30
0.0
 10
-2.4362499999999998
 20
-26.854220000000002
 30
0.0
 10
-3.7048399999999999
 20
-26.7576
 30
0.0
 10
-4.4271000000000003
 20
-26.197510000000001
 30
0.0
 10
-4.3930899999999999
 20
-25.608440000000002
 30
0.0
 10
-4.3930899999999999
 20
-25.608440000000002
 30
0.0
 10
-4.3545600000000002
 20
-24.940999999999999
 30
0.0
 10
-3.2920699999999998
 20
-24.341190000000001
 30
0.0
 10
-2.0195500000000002
 20
-24.397269999999999
 30
0.0
 10
-2.0195500000000002
 20
-24.397269999999999
 30
0.0
 10
-1.49909
 20
-24.420190000000002
 30
0.0
 10
-0.99018
 20
-24.544060000000002
 30
0.0
 10
-0.67738
 20
-24.769500000000001
 30
0.0
 10
-0.67738
 20
-24.769500000000001
 30
0.0
 10
-0.54608
 20
-24.86411
 30
0.0
 10
-0.44902
 20
-24.975560000000002
 30
0.0
 10
-0.38609
 20
-25.099299999999999
 30
0.0
  0
SPLINE
  5
78
100
AcDbEntity
  8
Layer 1
 62
     5
100
AcDbSpline
210
0.0
220
0.0
230
1.0
 70
     1
 71
     3
 72
    40
 73
    36
 74
     0
 42
0.0000000001
 43
0.0000000001
 40
0.0
 40
0.0
 40
0.0
 40
0.0
 40
0.1111111111111111
 40
0.1111111111111111
 40
0.1111111111111111
 40
0.1111111111111111
 40
0.2222222222222222
 40
0.2222222222222222
 40
0.2222222222222222
 40
0.2222222222222222
 40
0.3333333333333333
 40
0.3333333333333333
 40
0.3333333333333333
 40
0.3333333333333333
 40
0.4444444444444444
 40
0.4444444444444444
 40
0.4444444444444444
 40
0.4444444444444444
 40
0.5555555555555556
 40
0.5555555555555556
 40
0.5555555555555556
 40
0.5555555555555556
 40
0.6666666666666667
 40
0.6666666666666667
 40
0.6666666666666667
 40
0.6666666666666667
 40
0.7777777777777779
 40
0.7777777777777779
 40
0.7777777777777779
 40
0.7777777777777779
 40
0.8888888888888891
 40
0.8888888888888891
 40
0.8888888888888891
 40
0.8888888888888891
 40
1.0
 40
1.0
 40
1.0
 40
1.0
 10
-0.72486
 20
-24.9785
 30
0.0
 10
-2.09274
 20
-25.09055
 30
0.0
 10
-2.5318299999999998
 20
-25.67963
 30
0.0
 10
-2.1044399999999999
 20
-26.220800000000001
 30
0.0
 10
-2.1044399999999999
 20
-26.220800000000001
 30
0.0
 10
-3.5899800000000002
 20
-25.622969999999999
 30
0.0
 10
-2.8103199999999999
 20
-25.002079999999999
 30
0.0
 10
-2.2555100000000001
 20
-24.888100000000001
 30
0.0
 10
-2.2555100000000001
 20
-24.888100000000001
 30
0.0
 10
-2.1789299999999998
 20
-24.87237
 30
0.0
 10
-2.4177599999999999
 20
-24.88862
 30
0.0
 10
-2.4971700000000001
 20
-24.899889999999999
 30
0.0
 10
-2.4971700000000001
 20
-24.899889999999999
 30
0.0
 10
-2.5765699999999998
 20
-24.91114
 30
0.0
 10
-2.6544300000000001
 20
-24.929490000000001
 30
0.0
 10
-2.7294900000000002
 20
-24.954139999999999
 30
0.0
 10
-2.7294900000000002
 20
-24.954139999999999
 30
0.0
 10
-2.8514599999999999
 20
-24.99418
 30
0.0
 10
-2.9660899999999999
 20
-25.05087
 30
0.0
 10
-3.0680900000000002
 20
-25.12086
 30
0.0
 10
-3.0680900000000002
 20
-25.12086
 30
0.0
 10
-3.1371500000000001
 20
-25.168240000000001
 30
0.0
 10
-3.20045
 20
-25.221710000000002
 30
0.0
 10
-3.25631
 20
-25.280270000000002
 30
0.0
 10
-3.25631
 20
-25.280270000000002
 30
0.0
 10
-3.5579999999999998
 20
-25.59639
 30
0.0
 10
-3.6434600000000001
 20
-26.06006
 30
0.0
 10
-3.25556
 20
-26.507960000000001
 30
0.0
 10
-3.25556
 20
-26.507960000000001
 30
0.0
 10
-4.2274099999999999
 20
-26.001580000000001
 30
0.0
 10
-4.1707000000000001
 20
-25.292169999999999
 30
0.0
 10
-3.3984299999999998
 20
-24.859760000000001
 30
0.0
 10
-3.3984299999999998
 20
-24.859760000000001
 30
0.0
 10
-2.7699500000000001
 20
-24.507850000000001
 30
0.0
 10
-1.4631799999999999
 20
-24.403089999999999
 30
0.0
 10
-0.72486
 20
-24.9785
 30
0.0
  0
SPLINE
  5
79
100
AcDbEntity
  8
Layer 1
 62
     5
100
AcDbSpline
210
0.0
220
0.0
230
1.0
 70
     1
 71
     3
 72
    16
 73
    12
 74
     0
 42
0.0000000001
 43
0.0000000001
 40
0.0
 40
0.0
 40
0.0
 40
0.0
 40
0.3333333333333333
 40
0.3333333333333333
 40
0.3333333333333333
 40
0.3333333333333333
 40
0.6666666666666666
 40
0.6666666666666666
 40
0.6666666666666666
 40
0.6666666666666666
 40
1.0
 40
1.0
 40
1.0
 40
1.0
 10
0.35971
 20
-23.173760000000001
 30
0.0
 10
1.0466899999999999
 20
-23.44547
 30
0.0
 10
1.49563
 20
-23.897570000000002
 30
0.0
 10
1.63906
 20
-25.214099999999998
 30
0.0
 10
1.63906
 20
-25.214099999999998
 30
0.0
 10
1.9315
 20
-24.658609999999999
 30
0.0
 10
2.1396899999999999
 20
-24.09018
 30
0.0
 10
1.85528
 20
-23.508800000000001
 30
0.0
 10
1.85528
 20
-23.508800000000001
 30
0.0
 10
1.6539999999999999
 20
-23.097349999999999
 30
0.0
 10
1.20624
 20
-22.810890000000001
 30
0.0
 10
0.35971
 20
-23.173760000000001
 30
0.0
  0
SPLINE
  5
7A
100
AcDbEntity
  8
Layer 1
 62
     5
100
AcDbSpline
210
0.0
220
0.0
230
1.0
 70
     1
 71
     3
 72
    20
 73
    16
 74
     0
 42
0.0000000001
 43
0.0000000001
 40
0.0
 40
0.0
 40
0.0
 40
0.0
 40
0.25
 40
0.25
 40
0.25
 40
0.25
 40
0.5
 40
0.5
 40
0.5
 40
0.5
 40
0.75
 40
0.75
 40
0.75
 40
0.75
 40
1.0
 40
1.0
 40
1.0
 40
1.0
 10
1.5138
 20
-25.273990000000001
 30
0.0
 10
1.36266
 20
-24.445789999999999
 30
0.0
 10
1.14899
 20
-23.94097
 30
0.0
 10
0.78249
 20
-23.645230000000002
 30
0.0
 10
0.78249
 20
-23.645230000000002
 30
0.0
 10
0.26646
 20
-23.228809999999999
 30
0.0
 10
-0.7312
 20
-23.138159999999999
 30
0.0
 10
-0.93721
 20
-23.710329999999999
 30
0.0
 10
-0.93721
 20
-23.710329999999999
 30
0.0
 10
-0.02021
 20
-23.412489999999998
 30
0.0
 10
1.3358000000000001
 20
-24.52901
 30
0.0
 10
1.2600199999999999
 20
-25.70063
 30
0.0
 10
1.2600199999999999
 20
-25.70063
 30
0.0
 10
1.2600199999999999
 20
-25.70063
 30
0.0
 10
1.5138
 20
-25.273990000000001
 30
0.0
 10
1.5138
 20
-25.273990000000001
 30
0.0
  0
SPLINE
  5
7B
100
AcDbEntity
  8
Layer 1
 62
     5
100
AcDbSpline
210
0.0
220
0.0
230
1.0
 70
     1
 71
     3
 72
    16
 73
    12
 74
     0
 42
0.0000000001
 43
0.0000000001
 40
0.0
 40
0.0
 40
0.0
 40
0.0
 40
0.3333333333333333
 40
0.3333333333333333
 40
0.3333333333333333
 40
0.3333333333333333
 40
0.6666666666666666
 40
0.6666666666666666
 40
0.6666666666666666
 40
0.6666666666666666
 40
1.0
 40
1.0
 40
1.0
 40
1.0
 10
4.1826699999999999
 20
-23.173760000000001
 30
0.0
 10
3.4956800000000001
 20
-23.44547
 30
0.0
 10
3.0467499999999998
 20
-23.897570000000002
 30
0.0
 10
2.9033099999999998
 20
-25.214099999999998
 30
0.0
 10
2.9033099999999998
 20
-25.214099999999998
 30
0.0
 10
2.6108799999999999
 20
-24.658609999999999
 30
0.0
 10
2.4026800000000001
 20
-24.09018
 30
0.0
 10
2.6871
 20
-23.508800000000001
 30
0.0
 10
2.6871
 20
-23.508800000000001
 30
0.0
 10
2.8883700000000001
 20
-23.097349999999999
 30
0.0
 10
3.3361399999999999
 20
-22.810890000000001
 30
0.0
 10
4.1826699999999999
 20
-23.173760000000001
 30
0.0
  0
SPLINE
  5
7C
100
AcDbEntity
  8
Layer 1
 62
     5
100
AcDbSpline
210
0.0
220
0.0
230
1.0
 70
     1
 71
     3
 72
    20
 73
    16
 74
     0
 42
0.0000000001
 43
0.0000000001
 40
0.0
 40
0.0
 40
0.0
 40
0.0
 40
0.25
 40
0.25
 40
0.25
 40
0.25
 40
0.5
 40
0.5
 40
0.5
 40
0.5
 40
0.75
 40
0.75
 40
0.75
 40
0.75
 40
1.0
 40
1.0
 40
1.0
 40
1.0
 10
3.0285799999999998
 20
-25.273990000000001
 30
0.0
 10
3.1797200000000001
 20
-24.445789999999999
 30
0.0
 10
3.3933900000000001
 20
-23.94097
 30
0.0
 10
3.7598799999999999
 20
-23.645230000000002
 30
0.0
 10
3.7598799999999999
 20
-23.645230000000002
 30
0.0
 10
4.2759099999999997
 20
-23.228809999999999
 30
0.0
 10
5.2735700000000003
 20
-23.138159999999999
 30
0.0
 10
5.47959
 20
-23.710329999999999
 30
0.0
 10
5.47959
 20
-23.710329999999999
 30
0.0
 10
4.5625799999999996
 20
-23.412489999999998
 30
0.0
 10
3.2065700000000001
 20
-24.52901
 30
0.0
 10
3.2823600000000002
 20
-25.70063
 30
0.0
 10
3.2823600000000002
 20
-25.70063
 30
0.0
 10
3.2823600000000002
 20
-25.70063
 30
0.0
 10
3.0285799999999998
 20
-25.273990000000001
 30
0.0
 10
3.0285799999999998
 20
-25.273990000000001
 30
0.0
  0
SPLINE
  5
7D
100
AcDbEntity
  8
Layer 1
 62
     5
100
AcDbSpline
210
0.0
220
0.0
230
1.0
 70
     1
 71
     3
 72
    24
 73
    20
 74
     0
 42
0.0000000001
 43
0.0000000001
 40
0.0
 40
0.0
 40
0.0
 40
0.0
 40
0.2
 40
0.2
 40
0.2
 40
0.2
 40
0.4
 40
0.4
 40
0.4
 40
0.4
 40
0.6000000000000001
 40
0.6000000000000001
 40
0.6000000000000001
 40
0.6000000000000001
 40
0.8
 40
0.8
 40
0.8
 40
0.8
 40
1.0
 40
1.0
 40
1.0
 40
1.0
 10
1.47587
 20
-22.879989999999999
 30
0.0
 10
2.4015599999999999
 20
-23.06672
 30
0.0
 10
2.1850100000000001
 20
-24.310770000000002
 30
0.0
 10
1.99292
 20
-24.943629999999999
 30
0.0
 10
1.99292
 20
-24.943629999999999
 30
0.0
 10
1.99292
 20
-24.943629999999999
 30
0.0
 10
2.2711899999999998
 20
-24.774380000000001
 30
0.0
 10
2.2711899999999998
 20
-24.774380000000001
 30
0.0
 10
2.2711899999999998
 20
-24.774380000000001
 30
0.0
 10
2.2711899999999998
 20
-24.774380000000001
 30
0.0
 10
2.5494599999999998
 20
-24.943629999999999
 30
0.0
 10
2.5494599999999998
 20
-24.943629999999999
 30
0.0
 10
2.5494599999999998
 20
-24.943629999999999
 30
0.0
 10
2.35737
 20
-24.310770000000002
 30
0.0
 10
2.1408200000000002
 20
-23.06672
 30
0.0
 10
3.0665100000000001
 20
-22.879989999999999
 30
0.0
 10
3.0665100000000001
 20
-22.879989999999999
 30
0.0
 10
3.0811000000000002
 20
-22.328029999999998
 30
0.0
 10
1.4624600000000001
 20
-22.37247
 30
0.0
 10
1.47587
 20
-22.879989999999999
 30
0.0
  0
SPLINE
  5
7E
100
AcDbEntity
  8
Layer 1
 62
     5
100
AcDbSpline
210
0.0
220
0.0
230
1.0
 70
     1
 71
     3
 72
    52
 73
    48
 74
     0
 42
0.0000000001
 43
0.0000000001
 40
0.0
 40
0.0
 40
0.0
 40
0.0
 40
0.0833333333333333
 40
0.0833333333333333
 40
0.0833333333333333
 40
0.0833333333333333
 40
0.1666666666666667
 40
0.1666666666666667
 40
0.1666666666666667
 40
0.1666666666666667
 40
0.25
 40
0.25
 40
0.25
 40
0.25
 40
0.3333333333333333
 40
0.3333333333333333
 40
0.3333333333333333
 40
0.3333333333333333
 40
0.4166666666666666
 40
0.4166666666666666
 40
0.4166666666666666
 40
0.4166666666666666
 40
0.4999999999999999
 40
0.4999999999999999
 40
0.4999999999999999
 40
0.4999999999999999
 40
0.5833333333333333
 40
0.5833333333333333
 40
0.5833333333333333
 40
0.5833333333333333
 40
0.6666666666666666
 40
0.6666666666666666
 40
0.6666666666666666
 40
0.6666666666666666
 40
0.75
 40
0.75
 40
0.75
 40
0.75
 40
0.8333333333333334
 40
0.8333333333333334
 40
0.8333333333333334
 40
0.8333333333333334
 40
0.9166666666666667
 40
0.9166666666666667
 40
0.9166666666666667
 40
0.9166666666666667
 40
1.0
 40
1.0
 40
1.0
 40
1.0
 10
2.27467
 20
-24.892410000000002
 30
0.0
 10
2.2729599999999999
 20
-24.891819999999999
 30
0.0
 10
2.18309
 20
-24.94622
 30
0.0
 10
2.0993900000000001
 20
-24.998449999999998
 30
0.0
 10
2.0993900000000001
 20
-24.998449999999998
 30
0.0
 10
1.7654000000000001
 20
-25.20684
 30
0.0
 10
1.60243
 20
-25.473890000000001
 30
0.0
 10
1.4239900000000001
 20
-25.728439999999999
 30
0.0
 10
1.4239900000000001
 20
-25.728439999999999
 30
0.0
 10
0.9667
 20
-26.380680000000002
 30
0.0
 10
0.3538
 20
-26.739879999999999
 30
0.0
 10
-0.64299
 20
-26.69791
 30
0.0
 10
-0.64299
 20
-26.69791
 30
0.0
 10
-1.05444
 20
-26.680599999999998
 30
0.0
 10
1.1362000000000001
 20
-27.349049999999998
 30
0.0
 10
1.73628
 20
-26.378150000000002
 30
0.0
 10
1.73628
 20
-26.378150000000002
 30
0.0
 10
1.68205
 20
-26.729199999999999
 30
0.0
 10
1.93357
 20
-26.825279999999999
 30
0.0
 10
2.2352099999999999
 20
-27.080739999999999
 30
0.0
 10
2.2352099999999999
 20
-27.080739999999999
 30
0.0
 10
2.2352099999999999
 20
-27.080739999999999
 30
0.0
 10
2.2841999999999998
 20
-27.123339999999999
 30
0.0
 10
2.2841999999999998
 20
-27.123339999999999
 30
0.0
 10
2.2841999999999998
 20
-27.123339999999999
 30
0.0
 10
2.2841999999999998
 20
-27.123339999999999
 30
0.0
 10
2.3331599999999999
 20
-27.080770000000001
 30
0.0
 10
2.3331599999999999
 20
-27.080770000000001
 30
0.0
 10
2.3331599999999999
 20
-27.080770000000001
 30
0.0
 10
2.6347999999999998
 20
-26.825299999999999
 30
0.0
 10
2.88632
 20
-26.729209999999998
 30
0.0
 10
2.83209
 20
-26.378150000000002
 30
0.0
 10
2.83209
 20
-26.378150000000002
 30
0.0
 10
3.4321700000000002
 20
-27.349049999999998
 30
0.0
 10
5.6227999999999998
 20
-26.680599999999998
 30
0.0
 10
5.21136
 20
-26.69791
 30
0.0
 10
5.21136
 20
-26.69791
 30
0.0
 10
4.2145599999999996
 20
-26.739879999999999
 30
0.0
 10
3.6016699999999999
 20
-26.380680000000002
 30
0.0
 10
3.14438
 20
-25.728439999999999
 30
0.0
 10
3.14438
 20
-25.728439999999999
 30
0.0
 10
2.96346
 20
-25.470359999999999
 30
0.0
 10
2.8045599999999999
 20
-25.208320000000001
 30
0.0
 10
2.4596800000000001
 20
-25.000599999999999
 30
0.0
 10
2.4596800000000001
 20
-25.000599999999999
 30
0.0
 10
2.3687100000000001
 20
-24.94584
 30
0.0
 10
2.2762899999999999
 20
-24.891850000000002
 30
0.0
 10
2.27467
 20
-24.892410000000002
 30
0.0
  0
SPLINE
  5
7F
100
AcDbEntity
  8
Layer 1
 62
     5
100
AcDbSpline
210
0.0
220
0.0
230
1.0
 70
     1
 71
     3
 72
    92
 73
    88
 74
     0
 42
0.0000000001
 43
0.0000000001
 40
0.0
 40
0.0
 40
0.0
 40
0.0
 40
0.0454545454545455
 40
0.0454545454545455
 40
0.0454545454545455
 40
0.0454545454545455
 40
0.0909090909090909
 40
0.0909090909090909
 40
0.0909090909090909
 40
0.0909090909090909
 40
0.1363636363636364
 40
0.1363636363636364
 40
0.1363636363636364
 40
0.1363636363636364
 40
0.1818181818181818
 40
0.1818181818181818
 40
0.1818181818181818
 40
0.1818181818181818
 40
0.2272727272727273
 40
0.2272727272727273
 40
0.2272727272727273
 40
0.2272727272727273
 40
0.2727272727272728
 40
0.2727272727272728
 40
0.2727272727272728
 40
0.2727272727272728
 40
0.3181818181818182
 40
0.3181818181818182
 40
0.3181818181818182
 40
0.3181818181818182
 40
0.3636363636363637
 40
0.3636363636363637
 40
0.3636363636363637
 40
0.3636363636363637
 40
0.4090909090909092
 40
0.4090909090909092
 40
0.4090909090909092
 40
0.4090909090909092
 40
0.4545454545454546
 40
0.4545454545454546
 40
0.4545454545454546
 40
0.4545454545454546
 40
0.5000000000000001
 40
0.5000000000000001
 40
0.5000000000000001
 40
0.5000000000000001
 40
0.5454545454545455
 40
0.5454545454545455
 40
0.5454545454545455
 40
0.5454545454545455
 40
0.5909090909090909
 40
0.5909090909090909
 40
0.5909090909090909
 40
0.5909090909090909
 40
0.6363636363636364
 40
0.6363636363636364
 40
0.6363636363636364
 40
0.6363636363636364
 40
0.6818181818181818
 40
0.6818181818181818
 40
0.6818181818181818
 40
0.6818181818181818
 40
0.7272727272727272
 40
0.7272727272727272
 40
0.7272727272727272
 40
0.7272727272727272
 40
0.7727272727272726
 40
0.7727272727272726
 40
0.7727272727272726
 40
0.7727272727272726
 40
0.818181818181818
 40
0.818181818181818
 40
0.818181818181818
 40
0.818181818181818
 40
0.8636363636363634
 40
0.8636363636363634
 40
0.8636363636363634
 40
0.8636363636363634
 40
0.9090909090909088
 40
0.9090909090909088
 40
0.9090909090909088
 40
0.9090909090909088
 40
0.9545454545454543
 40
0.9545454545454543
 40
0.9545454545454543
 40
0.9545454545454543
 40
1.0
 40
1.0
 40
1.0
 40
1.0
 10
16.15962
 20
-26.06287
 30
0.0
 10
15.67947
 20
-26.162600000000001
 30
0.0
 10
15.13325
 20
-26.176880000000001
 30
0.0
 10
14.587820000000001
 20
-26.131270000000001
 30
0.0
 10
14.587820000000001
 20
-26.131270000000001
 30
0.0
 10
13.553610000000001
 20
-26.044779999999999
 30
0.0
 10
12.825710000000001
 20
-25.814879999999999
 30
0.0
 10
12.23062
 20
-25.495999999999999
 30
0.0
 10
12.23062
 20
-25.495999999999999
 30
0.0
 10
11.23471
 20
-24.96238
 30
0.0
 10
10.48884
 20
-24.299299999999999
 30
0.0
 10
9.1513200000000001
 20
-23.924420000000001
 30
0.0
 10
9.1513200000000001
 20
-23.924420000000001
 30
0.0
 10
8.8686699999999998
 20
-23.845199999999998
 30
0.0
 10
8.5435099999999995
 20
-23.79308
 30
0.0
 10
8.5745699999999996
 20
-23.790590000000002
 30
0.0
 10
8.5745699999999996
 20
-23.790590000000002
 30
0.0
 10
8.6834199999999999
 20
-23.781860000000002
 30
0.0
 10
9.0435300000000005
 20
-23.771640000000001
 30
0.0
 10
9.5391399999999997
 20
-23.830909999999999
 30
0.0
 10
9.5391399999999997
 20
-23.830909999999999
 30
0.0
 10
10.454269999999999
 20
-23.94031
 30
0.0
 10
11.70063
 20
-24.275559999999999
 30
0.0
 10
11.971069999999999
 20
-24.774920000000002
 30
0.0
 10
11.971069999999999
 20
-24.774920000000002
 30
0.0
 10
11.99212
 20
-24.813780000000001
 30
0.0
 10
12.543240000000001
 20
-24.454429999999999
 30
0.0
 10
12.706
 20
-24.469049999999999
 30
0.0
 10
12.706
 20
-24.469049999999999
 30
0.0
 10
12.74549
 20
-24.47259
 30
0.0
 10
12.708500000000001
 20
-24.513110000000001
 30
0.0
 10
12.71109
 20
-24.535119999999999
 30
0.0
 10
12.71109
 20
-24.535119999999999
 30
0.0
 10
12.72926
 20
-24.689160000000001
 30
0.0
 10
12.79125
 20
-24.84187
 30
0.0
 10
12.89167
 20
-24.98631
 30
0.0
 10
12.89167
 20
-24.98631
 30
0.0
 10
13.321
 20
-25.60388
 30
0.0
 10
14.452859999999999
 20
-26.07067
 30
0.0
 10
15.866479999999999
 20
-25.84675
 30
0.0
 10
15.866479999999999
 20
-25.84675
 30
0.0
 10
15.63575
 20
-25.840430000000001
 30
0.0
 10
15.43281
 20
-25.833030000000001
 30
0.0
 10
15.250690000000001
 20
-25.822120000000002
 30
0.0
 10
15.250690000000001
 20
-25.822120000000002
 30
0.0
 10
13.89798
 20
-25.741050000000001
 30
0.0
 10
13.11829
 20
-25.222390000000001
 30
0.0
 10
12.930809999999999
 20
-24.488679999999999
 30
0.0
 10
12.930809999999999
 20
-24.488679999999999
 30
0.0
 10
12.924530000000001
 20
-24.464089999999999
 30
0.0
 10
13.02406
 20
-24.496269999999999
 30
0.0
 10
13.0921
 20
-24.538889999999999
 30
0.0
 10
13.0921
 20
-24.538889999999999
 30
0.0
 10
13.16014
 20
-24.581530000000001
 30
0.0
 10
13.23719
 20
-24.6432
 30
0.0
 10
13.307410000000001
 20
-24.703320000000001
 30
0.0
 10
13.307410000000001
 20
-24.703320000000001
 30
0.0
 10
13.44787
 20
-24.823589999999999
 30
0.0
 10
13.45757
 20
-24.930890000000002
 30
0.0
 10
13.52037
 20
-24.881450000000001
 30
0.0
 10
13.52037
 20
-24.881450000000001
 30
0.0
 10
13.696289999999999
 20
-24.743030000000001
 30
0.0
 10
14.41929
 20
-24.607189999999999
 30
0.0
 10
14.219810000000001
 20
-24.706710000000001
 30
0.0
 10
14.219810000000001
 20
-24.706710000000001
 30
0.0
 10
13.72128
 20
-24.955439999999999
 30
0.0
 10
13.97035
 20
-25.644290000000002
 30
0.0
 10
15.4793
 20
-25.720800000000001
 30
0.0
 10
15.4793
 20
-25.720800000000001
 30
0.0
 10
15.203530000000001
 20
-25.506260000000001
 30
0.0
 10
15.12313
 20
-25.227730000000001
 30
0.0
 10
15.403650000000001
 20
-25.007840000000002
 30
0.0
 10
15.403650000000001
 20
-25.007840000000002
 30
0.0
 10
15.48676
 20
-24.942699999999999
 30
0.0
 10
15.56113
 20
-24.906590000000001
 30
0.0
 10
15.562659999999999
 20
-24.924189999999999
 30
0.0
 10
15.562659999999999
 20
-24.924189999999999
 30
0.0
 10
15.568199999999999
 20
-24.988009999999999
 30
0.0
 10
15.53725
 20
-25.18928
 30
0.0
 10
15.76651
 20
-25.370799999999999
 30
0.0
 10
15.76651
 20
-25.370799999999999
 30
0.0
 10
16.074850000000001
 20
-25.61496
 30
0.0
 10
16.62312
 20
-25.707470000000001
 30
0.0
 10
17.12134
 20
-25.59299
 30
0.0
 10
17.12134
 20
-25.59299
 30
0.0
 10
17.30875
 20
-25.54992
 30
0.0
 10
17.072959999999998
 20
-25.87311
 30
0.0
 10
16.15962
 20
-26.06287
 30
0.0
  0
SPLINE
  5
80
100
AcDbEntity
  8
Layer 1
 62
     5
100
AcDbSpline
210
0.0
220
0.0
230
1.0
 70
     1
 71
     3
 72
    84
 73
    80
 74
     0
 42
0.0000000001
 43
0.0000000001
 40
0.0
 40
0.0
 40
0.0
 40
0.0
 40
0.05
 40
0.05
 40
0.05
 40
0.05
 40
0.1
 40
0.1
 40
0.1
 40
0.1
 40
0.15
 40
0.15
 40
0.15
 40
0.15
 40
0.2
 40
0.2
 40
0.2
 40
0.2
 40
0.25
 40
0.25
 40
0.25
 40
0.25
 40
0.3
 40
0.3
 40
0.3
 40
0.3
 40
0.35
 40
0.35
 40
0.35
 40
0.35
 40
0.4
 40
0.4
 40
0.4
 40
0.4
 40
0.45
 40
0.45
 40
0.45
 40
0.45
 40
0.4999999999999999
 40
0.4999999999999999
 40
0.4999999999999999
 40
0.4999999999999999
 40
0.5499999999999999
 40
0.5499999999999999
 40
0.5499999999999999
 40
0.5499999999999999
 40
0.6
 40
0.6
 40
0.6
 40
0.6
 40
0.65
 40
0.65
 40
0.65
 40
0.65
 40
0.7000000000000001
 40
0.7000000000000001
 40
0.7000000000000001
 40
0.7000000000000001
 40
0.7500000000000001
 40
0.7500000000000001
 40
0.7500000000000001
 40
0.7500000000000001
 40
0.8000000000000002
 40
0.8000000000000002
 40
0.8000000000000002
 40
0.8000000000000002
 40
0.8500000000000002
 40
0.8500000000000002
 40
0.8500000000000002
 40
0.8500000000000002
 40
0.9000000000000002
 40
0.9000000000000002
 40
0.9000000000000002
 40
0.9000000000000002
 40
0.9500000000000003
 40
0.9500000000000003
 40
0.9500000000000003
 40
0.9500000000000003
 40
1.0
 40
1.0
 40
1.0
 40
1.0
 10
17.598690000000001
 20
-25.322189999999999
 30
0.0
 10
16.718910000000001
 20
-25.776440000000001
 30
0.0
 10
15.387169999999999
 20
-25.168389999999999
 30
0.0
 10
16.059840000000001
 20
-24.619250000000001
 30
0.0
 10
16.059840000000001
 20
-24.619250000000001
 30
0.0
 10
16.64771
 20
-24.139379999999999
 30
0.0
 10
17.975619999999999
 20
-24.33446
 30
0.0
 10
18.42726
 20
-24.83867
 30
0.0
 10
18.42726
 20
-24.83867
 30
0.0
 10
18.635760000000001
 20
-25.071439999999999
 30
0.0
 10
18.672979999999999
 20
-25.36599
 30
0.0
 10
18.474879999999999
 20
-25.669589999999999
 30
0.0
 10
18.474879999999999
 20
-25.669589999999999
 30
0.0
 10
18.302949999999999
 20
-25.93309
 30
0.0
 10
17.997610000000002
 20
-26.180129999999998
 30
0.0
 10
17.637309999999999
 20
-26.351649999999999
 30
0.0
 10
17.637309999999999
 20
-26.351649999999999
 30
0.0
 10
16.183309999999999
 20
-27.043810000000001
 30
0.0
 10
13.504300000000001
 20
-26.755870000000002
 30
0.0
 10
11.72992
 20
-26.071729999999999
 30
0.0
 10
11.72992
 20
-26.071729999999999
 30
0.0
 10
11.38143
 20
-25.937370000000001
 30
0.0
 10
11.07483
 20
-25.794789999999999
 30
0.0
 10
10.79419
 20
-25.62013
 30
0.0
 10
10.79419
 20
-25.62013
 30
0.0
 10
10.5593
 20
-25.771719999999998
 30
0.0
 10
9.7001600000000003
 20
-26.058859999999999
 30
0.0
 10
9.4584799999999998
 20
-26.02488
 30
0.0
 10
9.4584799999999998
 20
-26.02488
 30
0.0
 10
9.3937000000000008
 20
-26.01576
 30
0.0
 10
9.5727499999999992
 20
-25.46078
 30
0.0
 10
8.9754799999999992
 20
-24.93526
 30
0.0
 10
8.9754799999999992
 20
-24.93526
 30
0.0
 10
8.2745099999999994
 20
-24.318529999999999
 30
0.0
 10
6.9709099999999999
 20
-24.04618
 30
0.0
 10
5.7536199999999997
 20
-24.371300000000002
 30
0.0
 10
5.7536199999999997
 20
-24.371300000000002
 30
0.0
 10
5.08162
 20
-24.55077
 30
0.0
 10
4.5723000000000003
 20
-24.885829999999999
 30
0.0
 10
4.6493599999999997
 20
-25.314330000000002
 30
0.0
 10
4.6493599999999997
 20
-25.314330000000002
 30
0.0
 10
4.78104
 20
-25.286809999999999
 30
0.0
 10
4.9237200000000003
 20
-25.27168
 30
0.0
 10
5.0728099999999996
 20
-25.27168
 30
0.0
 10
5.0728099999999996
 20
-25.27168
 30
0.0
 10
5.3323099999999997
 20
-25.27168
 30
0.0
 10
5.5803900000000004
 20
-25.319759999999999
 30
0.0
 10
5.78355
 20
-25.40157
 30
0.0
 10
5.78355
 20
-25.40157
 30
0.0
 10
6.1849400000000001
 20
-25.56326
 30
0.0
 10
6.3432199999999996
 20
-25.832999999999998
 30
0.0
 10
6.2514500000000002
 20
-26.077829999999999
 30
0.0
 10
6.2514500000000002
 20
-26.077829999999999
 30
0.0
 10
6.1398000000000001
 20
-26.375730000000001
 30
0.0
 10
5.6289600000000002
 20
-26.599129999999999
 30
0.0
 10
5.0868900000000004
 20
-26.599129999999999
 30
0.0
 10
5.0868900000000004
 20
-26.599129999999999
 30
0.0
 10
3.9945900000000001
 20
-26.599129999999999
 30
0.0
 10
3.48909
 20
-25.9648
 30
0.0
 10
3.52013
 20
-25.420639999999999
 30
0.0
 10
3.52013
 20
-25.420639999999999
 30
0.0
 10
3.5561199999999999
 20
-24.789870000000001
 30
0.0
 10
4.3128799999999998
 20
-24.154879999999999
 30
0.0
 10
5.5686299999999997
 20
-23.885459999999998
 30
0.0
 10
5.5686299999999997
 20
-23.885459999999998
 30
0.0
 10
6.9497900000000001
 20
-23.58915
 30
0.0
 10
8.2946600000000004
 20
-23.827089999999998
 30
0.0
 10
9.3752999999999993
 20
-24.230779999999999
 30
0.0
 10
9.3752999999999993
 20
-24.230779999999999
 30
0.0
 10
10.23734
 20
-24.552769999999999
 30
0.0
 10
10.89317
 20
-25.054819999999999
 30
0.0
 10
11.65429
 20
-25.468399999999999
 30
0.0
 10
11.65429
 20
-25.468399999999999
 30
0.0
 10
12.875590000000001
 20
-26.132069999999999
 30
0.0
 10
14.85811
 20
-26.553100000000001
 30
0.0
 10
16.525220000000001
 20
-26.182960000000001
 30
0.0
 10
16.525220000000001
 20
-26.182960000000001
 30
0.0
 10
17.062650000000001
 20
-26.063649999999999
 30
0.0
 10
17.549659999999999
 20
-25.788180000000001
 30
0.0
 10
17.598690000000001
 20
-25.322189999999999
 30
0.0
  0
SPLINE
  5
81
100
AcDbEntity
  8
Layer 1
 62
     5
100
AcDbSpline
210
0.0
220
0.0
230
1.0
 70
     1
 71
     3
 72
    16
 73
    12
 74
     0
 42
0.0000000001
 43
0.0000000001
 40
0.0
 40
0.0
 40
0.0
 40
0.0
 40
0.3333333333333333
 40
0.3333333333333333
 40
0.3333333333333333
 40
0.3333333333333333
 40
0.6666666666666666
 40
0.6666666666666666
 40
0.6666666666666666
 40
0.6666666666666666
 40
1.0
 40
1.0
 40
1.0
 40
1.0
 10
9.8776600000000006
 20
-25.575579999999999
 30
0.0
 10
10.07029
 20
-25.488790000000002
 30
0.0
 10
10.155480000000001
 20
-25.486339999999998
 30
0.0
 10
10.34614
 20
-25.37463
 30
0.0
 10
10.34614
 20
-25.37463
 30
0.0
 10
10.081060000000001
 20
-25.178290000000001
 30
0.0
 10
9.8417200000000005
 20
-25.03219
 30
0.0
 10
9.4118399999999998
 20
-24.835799999999999
 30
0.0
 10
9.4118399999999998
 20
-24.835799999999999
 30
0.0
 10
9.6572499999999994
 20
-25.033529999999999
 30
0.0
 10
9.8382799999999992
 20
-25.266169999999999
 30
0.0
 10
9.8776600000000006
 20
-25.575579999999999
 30
0.0
  0
SPLINE
  5
82
100
AcDbEntity
  8
Layer 1
 62
     5
100
AcDbSpline
210
0.0
220
0.0
230
1.0
 70
     1
 71
     3
 72
    36
 73
    32
 74
     0
 42
0.0000000001
 43
0.0000000001
 40
0.0
 40
0.0
 40
0.0
 40
0.0
 40
0.125
 40
0.125
 40
0.125
 40
0.125
 40
0.25
 40
0.25
 40
0.25
 40
0.25
 40
0.375
 40
0.375
 40
0.375
 40
0.375
 40
0.5
 40
0.5
 40
0.5
 40
0.5
 40
0.625
 40
0.625
 40
0.625
 40
0.625
 40
0.75
 40
0.75
 40
0.75
 40
0.75
 40
0.875
 40
0.875
 40
0.875
 40
0.875
 40
1.0
 40
1.0
 40
1.0
 40
1.0
 10
4.9820799999999998
 20
-25.099299999999999
 30
0.0
 10
5.8612900000000003
 20
-25.110050000000001
 30
0.0
 10
6.6890400000000003
 20
-25.408829999999998
 30
0.0
 10
6.5899900000000002
 20
-25.97429
 30
0.0
 10
6.5899900000000002
 20
-25.97429
 30
0.0
 10
6.5607100000000003
 20
-26.141459999999999
 30
0.0
 10
6.4369399999999999
 20
-26.288489999999999
 30
0.0
 10
6.1898600000000004
 20
-26.476590000000002
 30
0.0
 10
6.1898600000000004
 20
-26.476590000000002
 30
0.0
 10
6.7957799999999997
 20
-26.30951
 30
0.0
 10
7.3799000000000001
 20
-26.198229999999999
 30
0.0
 10
7.7414500000000004
 20
-25.782589999999999
 30
0.0
 10
7.7414500000000004
 20
-25.782589999999999
 30
0.0
 10
7.8714599999999999
 20
-26.315169999999998
 30
0.0
 10
7.4051200000000001
 20
-26.611560000000001
 30
0.0
 10
7.0322399999999998
 20
-26.854220000000002
 30
0.0
 10
7.0322399999999998
 20
-26.854220000000002
 30
0.0
 10
8.3008299999999995
 20
-26.7576
 30
0.0
 10
9.0230899999999998
 20
-26.197510000000001
 30
0.0
 10
8.9890799999999995
 20
-25.608440000000002
 30
0.0
 10
8.9890799999999995
 20
-25.608440000000002
 30
0.0
 10
8.9505499999999998
 20
-24.940999999999999
 30
0.0
 10
7.8880600000000003
 20
-24.341190000000001
 30
0.0
 10
6.6155299999999997
 20
-24.397269999999999
 30
0.0
 10
6.6155299999999997
 20
-24.397269999999999
 30
0.0
 10
6.0950699999999998
 20
-24.420190000000002
 30
0.0
 10
5.5861700000000001
 20
-24.544060000000002
 30
0.0
 10
5.2733600000000003
 20
-24.769500000000001
 30
0.0
 10
5.2733600000000003
 20
-24.769500000000001
 30
0.0
 10
5.1420700000000004
 20
-24.86411
 30
0.0
 10
5.0449999999999999
 20
-24.975560000000002
 30
0.0
 10
4.9820799999999998
 20
-25.099299999999999
 30
0.0
  0
SPLINE
  5
83
100
AcDbEntity
  8
Layer 1
 62
     5
100
AcDbSpline
210
0.0
220
0.0
230
1.0
 70
     1
 71
     3
 72
    40
 73
    36
 74
     0
 42
0.0000000001
 43
0.0000000001
 40
0.0
 40
0.0
 40
0.0
 40
0.0
 40
0.1111111111111111
 40
0.1111111111111111
 40
0.1111111111111111
 40
0.1111111111111111
 40
0.2222222222222222
 40
0.2222222222222222
 40
0.2222222222222222
 40
0.2222222222222222
 40
0.3333333333333333
 40
0.3333333333333333
 40
0.3333333333333333
 40
0.3333333333333333
 40
0.4444444444444444
 40
0.4444444444444444
 40
0.4444444444444444
 40
0.4444444444444444
 40
0.5555555555555556
 40
0.5555555555555556
 40
0.5555555555555556
 40
0.5555555555555556
 40
0.6666666666666667
 40
0.6666666666666667
 40
0.6666666666666667
 40
0.6666666666666667
 40
0.7777777777777779
 40
0.7777777777777779
 40
0.7777777777777779
 40
0.7777777777777779
 40
0.8888888888888891
 40
0.8888888888888891
 40
0.8888888888888891
 40
0.8888888888888891
 40
1.0
 40
1.0
 40
1.0
 40
1.0
 10
5.3208399999999996
 20
-24.9785
 30
0.0
 10
6.6887299999999996
 20
-25.09055
 30
0.0
 10
7.1278199999999998
 20
-25.67963
 30
0.0
 10
6.7004299999999999
 20
-26.220800000000001
 30
0.0
 10
6.7004299999999999
 20
-26.220800000000001
 30
0.0
 10
8.1859699999999993
 20
-25.622969999999999
 30
0.0
 10
7.4062999999999999
 20
-25.002079999999999
 30
0.0
 10
6.8514999999999997
 20
-24.888100000000001
 30
0.0
 10
6.8514999999999997
 20
-24.888100000000001
 30
0.0
 10
6.7749199999999998
 20
-24.87237
 30
0.0
 10
7.0137499999999999
 20
-24.88862
 30
0.0
 10
7.0931600000000001
 20
-24.899889999999999
 30
0.0
 10
7.0931600000000001
 20
-24.899889999999999
 30
0.0
 10
7.1725500000000002
 20
-24.91114
 30
0.0
 10
7.2504200000000001
 20
-24.929490000000001
 30
0.0
 10
7.3254700000000001
 20
-24.954139999999999
 30
0.0
 10
7.3254700000000001
 20
-24.954139999999999
 30
0.0
 10
7.4474499999999999
 20
-24.99418
 30
0.0
 10
7.5620799999999999
 20
-25.05087
 30
0.0
 10
7.6640800000000002
 20
-25.12086
 30
0.0
 10
7.6640800000000002
 20
-25.12086
 30
0.0
 10
7.7331300000000001
 20
-25.168240000000001
 30
0.0
 10
7.79643
 20
-25.221710000000002
 30
0.0
 10
7.8522999999999996
 20
-25.280270000000002
 30
0.0
 10
7.8522999999999996
 20
-25.280270000000002
 30
0.0
 10
8.1539900000000003
 20
-25.59639
 30
0.0
 10
8.2394499999999997
 20
-26.06006
 30
0.0
 10
7.8515499999999996
 20
-26.507960000000001
 30
0.0
 10
7.8515499999999996
 20
-26.507960000000001
 30
0.0
 10
8.8233999999999995
 20
-26.001580000000001
 30
0.0
 10
8.7666900000000005
 20
-25.292169999999999
 30
0.0
 10
7.9944100000000002
 20
-24.859760000000001
 30
0.0
 10
7.9944100000000002
 20
-24.859760000000001
 30
0.0
 10
7.3659400000000002
 20
-24.507850000000001
 30
0.0
 10
6.0591699999999999
 20
-24.403089999999999
 30
0.0
 10
5.3208399999999996
 20
-24.9785
 30
0.0
  0
SPLINE
  5
84
100
AcDbEntity
  8
Layer 1
 62
     5
100
AcDbSpline
210
0.0
220
0.0
230
1.0
 70
     1
 71
     3
 72
    20
 73
    16
 74
     0
 42
0.0000000001
 43
0.0000000001
 40
0.0
 40
0.0
 40
0.0
 40
0.0
 40
0.25
 40
0.25
 40
0.25
 40
0.25
 40
0.5
 40
0.5
 40
0.5
 40
0.5
 40
0.75
 40
0.75
 40
0.75
 40
0.75
 40
1.0
 40
1.0
 40
1.0
 40
1.0
 10
-13.180479999999999
 20
12.278879999999999
 30
0.0
 10
-13.13203
 20
11.88622
 30
0.0
 10
-13.59235
 20
11.277139999999999
 30
0.0
 10
-14.49372
 20
11.32061
 30
0.0
 10
-14.49372
 20
11.32061
 30
0.0
 10
-15.446199999999999
 20
11.366580000000001
 30
0.0
 10
-15.206580000000001
 20
12.07151
 30
0.0
 10
-15.22719
 20
12.02336
 30
0.0
 10
-15.22719
 20
12.02336
 30
0.0
 10
-15.28152
 20
11.896459999999999
 30
0.0
 10
-14.20004
 20
11.540990000000001
 30
0.0
 10
-13.49165
 20
11.989560000000001
 30
0.0
 10
-13.49165
 20
11.989560000000001
 30
0.0
 10
-13.375730000000001
 20
12.06296
 30
0.0
 10
-13.26981
 20
12.15788
 30
0.0
 10
-13.180479999999999
 20
12.278879999999999
 30
0.0
  0
SPLINE
  5
85
100
AcDbEntity
  8
Layer 1
 62
     5
100
AcDbSpline
210
0.0
220
0.0
230
1.0
 70
     1
 71
     3
 72
    20
 73
    16
 74
     0
 42
0.0000000001
 43
0.0000000001
 40
0.0
 40
0.0
 40
0.0
 40
0.0
 40
0.25
 40
0.25
 40
0.25
 40
0.25
 40
0.5
 40
0.5
 40
0.5
 40
0.5
 40
0.75
 40
0.75
 40
0.75
 40
0.75
 40
1.0
 40
1.0
 40
1.0
 40
1.0
 10
-11.641450000000001
 20
12.278879999999999
 30
0.0
 10
-11.68989
 20
11.88622
 30
0.0
 10
-11.22958
 20
11.277139999999999
 30
0.0
 10
-10.32821
 20
11.32061
 30
0.0
 10
-10.32821
 20
11.32061
 30
0.0
 10
-9.3757300000000008
 20
11.366580000000001
 30
0.0
 10
-9.6153499999999994
 20
12.07151
 30
0.0
 10
-9.5947399999999998
 20
12.02336
 30
0.0
 10
-9.5947399999999998
 20
12.02336
 30
0.0
 10
-9.5404099999999996
 20
11.896459999999999
 30
0.0
 10
-10.62189
 20
11.540990000000001
 30
0.0
 10
-11.33028
 20
11.989560000000001
 30
0.0
 10
-11.33028
 20
11.989560000000001
 30
0.0
 10
-11.446199999999999
 20
12.06296
 30
0.0
 10
-11.55212
 20
12.15788
 30
0.0
 10
-11.641450000000001
 20
12.278879999999999
 30
0.0
  0
SPLINE
  5
86
100
AcDbEntity
  8
Layer 1
 62
     5
100
AcDbSpline
210
0.0
220
0.0
230
1.0
 70
     1
 71
     3
 72
    24
 73
    20
 74
     0
 42
0.0000000001
 43
0.0000000001
 40
0.0
 40
0.0
 40
0.0
 40
0.0
 40
0.2
 40
0.2
 40
0.2
 40
0.2
 40
0.4
 40
0.4
 40
0.4
 40
0.4
 40
0.6000000000000001
 40
0.6000000000000001
 40
0.6000000000000001
 40
0.6000000000000001
 40
0.8
 40
0.8
 40
0.8
 40
0.8
 40
1.0
 40
1.0
 40
1.0
 40
1.0
 10
-11.71536
 20
12.279350000000001
 30
0.0
 10
-11.73574
 20
11.809480000000001
 30
0.0
 10
-11.480650000000001
 20
11.53716
 30
0.0
 10
-10.785679999999999
 20
11.25562
 30
0.0
 10
-10.785679999999999
 20
11.25562
 30
0.0
 10
-10.785679999999999
 20
11.25562
 30
0.0
 10
-11.409739999999999
 20
11.25562
 30
0.0
 10
-11.409739999999999
 20
11.25562
 30
0.0
 10
-11.409739999999999
 20
11.25562
 30
0.0
 10
-11.409739999999999
 20
11.25562
 30
0.0
 10
-11.42722
 20
11.255800000000001
 30
0.0
 10
-11.42722
 20
11.255800000000001
 30
0.0
 10
-11.42722
 20
11.255800000000001
 30
0.0
 10
-11.766299999999999
 20
11.61398
 30
0.0
 10
-11.92714
 20
11.89344
 30
0.0
 10
-11.91136
 20
12.279350000000001
 30
0.0
 10
-11.91136
 20
12.279350000000001
 30
0.0
 10
-11.91136
 20
12.279350000000001
 30
0.0
 10
-11.71536
 20
12.279350000000001
 30
0.0
 10
-11.71536
 20
12.279350000000001
 30
0.0
  0
SPLINE
  5
87
100
AcDbEntity
  8
Layer 1
 62
     5
100
AcDbSpline
210
0.0
220
0.0
230
1.0
 70
     1
 71
     3
 72
    20
 73
    16
 74
     0
 42
0.0000000001
 43
0.0000000001
 40
0.0
 40
0.0
 40
0.0
 40
0.0
 40
0.25
 40
0.25
 40
0.25
 40
0.25
 40
0.5
 40
0.5
 40
0.5
 40
0.5
 40
0.75
 40
0.75
 40
0.75
 40
0.75
 40
1.0
 40
1.0
 40
1.0
 40
1.0
 10
-11.99352
 20
12.279350000000001
 30
0.0
 10
-12.02876
 20
11.922750000000001
 30
0.0
 10
-11.853569999999999
 20
11.59399
 30
0.0
 10
-11.5999
 20
11.255800000000001
 30
0.0
 10
-11.5999
 20
11.255800000000001
 30
0.0
 10
-11.5999
 20
11.255800000000001
 30
0.0
 10
-12.09493
 20
11.261900000000001
 30
0.0
 10
-12.09493
 20
11.261900000000001
 30
0.0
 10
-12.09493
 20
11.261900000000001
 30
0.0
 10
-12.19215
 20
11.53177
 30
0.0
 10
-12.2425
 20
11.89547
 30
0.0
 10
-12.211740000000001
 20
12.279350000000001
 30
0.0
 10
-12.211740000000001
 20
12.279350000000001
 30
0.0
 10
-12.211740000000001
 20
12.279350000000001
 30
0.0
 10
-11.99352
 20
12.279350000000001
 30
0.0
 10
-11.99352
 20
12.279350000000001
 30
0.0
  0
SPLINE
  5
88
100
AcDbEntity
  8
Layer 1
 62
     5
100
AcDbSpline
210
0.0
220
0.0
230
1.0
 70
     1
 71
     3
 72
    20
 73
    16
 74
     0
 42
0.0000000001
 43
0.0000000001
 40
0.0
 40
0.0
 40
0.0
 40
0.0
 40
0.25
 40
0.25
 40
0.25
 40
0.25
 40
0.5
 40
0.5
 40
0.5
 40
0.5
 40
0.75
 40
0.75
 40
0.75
 40
0.75
 40
1.0
 40
1.0
 40
1.0
 40
1.0
 10
-12.31474
 20
12.279350000000001
 30
0.0
 10
-12.33264
 20
11.93482
 30
0.0
 10
-12.31659
 20
11.597630000000001
 30
0.0
 10
-12.198539999999999
 20
11.255800000000001
 30
0.0
 10
-12.198539999999999
 20
11.255800000000001
 30
0.0
 10
-12.198539999999999
 20
11.255800000000001
 30
0.0
 10
-12.632669999999999
 20
11.257999999999999
 30
0.0
 10
-12.632669999999999
 20
11.257999999999999
 30
0.0
 10
-12.632669999999999
 20
11.257999999999999
 30
0.0
 10
-12.514860000000001
 20
11.5991
 30
0.0
 10
-12.498620000000001
 20
11.935560000000001
 30
0.0
 10
-12.51633
 20
12.279350000000001
 30
0.0
 10
-12.51633
 20
12.279350000000001
 30
0.0
 10
-12.51633
 20
12.279350000000001
 30
0.0
 10
-12.31474
 20
12.279350000000001
 30
0.0
 10
-12.31474
 20
12.279350000000001
 30
0.0
  0
SPLINE
  5
89
100
AcDbEntity
  8
Layer 1
 62
     5
100
AcDbSpline
210
0.0
220
0.0
230
1.0
 70
     1
 71
     3
 72
    20
 73
    16
 74
     0
 42
0.0000000001
 43
0.0000000001
 40
0.0
 40
0.0
 40
0.0
 40
0.0
 40
0.25
 40
0.25
 40
0.25
 40
0.25
 40
0.5
 40
0.5
 40
0.5
 40
0.5
 40
0.75
 40
0.75
 40
0.75
 40
0.75
 40
1.0
 40
1.0
 40
1.0
 40
1.0
 10
-12.832649999999999
 20
12.279350000000001
 30
0.0
 10
-12.797420000000001
 20
11.922750000000001
 30
0.0
 10
-12.97261
 20
11.59399
 30
0.0
 10
-13.22627
 20
11.255800000000001
 30
0.0
 10
-13.22627
 20
11.255800000000001
 30
0.0
 10
-13.22627
 20
11.255800000000001
 30
0.0
 10
-12.73124
 20
11.261900000000001
 30
0.0
 10
-12.73124
 20
11.261900000000001
 30
0.0
 10
-12.73124
 20
11.261900000000001
 30
0.0
 10
-12.63402
 20
11.53177
 30
0.0
 10
-12.58367
 20
11.89547
 30
0.0
 10
-12.61443
 20
12.279350000000001
 30
0.0
 10
-12.61443
 20
12.279350000000001
 30
0.0
 10
-12.61443
 20
12.279350000000001
 30
0.0
 10
-12.832649999999999
 20
12.279350000000001
 30
0.0
 10
-12.832649999999999
 20
12.279350000000001
 30
0.0
  0
SPLINE
  5
8A
100
AcDbEntity
  8
Layer 1
 62
     5
100
AcDbSpline
210
0.0
220
0.0
230
1.0
 70
     1
 71
     3
 72
    24
 73
    20
 74
     0
 42
0.0000000001
 43
0.0000000001
 40
0.0
 40
0.0
 40
0.0
 40
0.0
 40
0.2
 40
0.2
 40
0.2
 40
0.2
 40
0.4
 40
0.4
 40
0.4
 40
0.4
 40
0.6000000000000001
 40
0.6000000000000001
 40
0.6000000000000001
 40
0.6000000000000001
 40
0.8
 40
0.8
 40
0.8
 40
0.8
 40
1.0
 40
1.0
 40
1.0
 40
1.0
 10
-13.11082
 20
12.279350000000001
 30
0.0
 10
-13.09043
 20
11.809480000000001
 30
0.0
 10
-13.34553
 20
11.53716
 30
0.0
 10
-14.04049
 20
11.25562
 30
0.0
 10
-14.04049
 20
11.25562
 30
0.0
 10
-14.04049
 20
11.25562
 30
0.0
 10
-13.41643
 20
11.25562
 30
0.0
 10
-13.41643
 20
11.25562
 30
0.0
 10
-13.41643
 20
11.25562
 30
0.0
 10
-13.41643
 20
11.25562
 30
0.0
 10
-13.398949999999999
 20
11.255800000000001
 30
0.0
 10
-13.398949999999999
 20
11.255800000000001
 30
0.0
 10
-13.398949999999999
 20
11.255800000000001
 30
0.0
 10
-13.05988
 20
11.61398
 30
0.0
 10
-12.899039999999999
 20
11.89344
 30
0.0
 10
-12.914809999999999
 20
12.279350000000001
 30
0.0
 10
-12.914809999999999
 20
12.279350000000001
 30
0.0
 10
-12.914809999999999
 20
12.279350000000001
 30
0.0
 10
-13.11082
 20
12.279350000000001
 30
0.0
 10
-13.11082
 20
12.279350000000001
 30
0.0
  0
SPLINE
  5
8B
100
AcDbEntity
  8
Layer 1
 62
     5
100
AcDbSpline
210
0.0
220
0.0
230
1.0
 70
     1
 71
     3
 72
    20
 73
    16
 74
     0
 42
0.0000000001
 43
0.0000000001
 40
0.0
 40
0.0
 40
0.0
 40
0.0
 40
0.25
 40
0.25
 40
0.25
 40
0.25
 40
0.5
 40
0.5
 40
0.5
 40
0.5
 40
0.75
 40
0.75
 40
0.75
 40
0.75
 40
1.0
 40
1.0
 40
1.0
 40
1.0
 10
-13.180479999999999
 20
-24.21754
 30
0.0
 10
-13.13203
 20
-23.82489
 30
0.0
 10
-13.59235
 20
-23.215810000000001
 30
0.0
 10
-14.49372
 20
-23.2593
 30
0.0
 10
-14.49372
 20
-23.2593
 30
0.0
 10
-15.446199999999999
 20
-23.305260000000001
 30
0.0
 10
-15.206580000000001
 20
-24.010179999999998
 30
0.0
 10
-15.22719
 20
-23.962039999999998
 30
0.0
 10
-15.22719
 20
-23.962039999999998
 30
0.0
 10
-15.28152
 20
-23.83512
 30
0.0
 10
-14.20004
 20
-23.479669999999999
 30
0.0
 10
-13.49165
 20
-23.928239999999999
 30
0.0
 10
-13.49165
 20
-23.928239999999999
 30
0.0
 10
-13.375730000000001
 20
-24.001639999999998
 30
0.0
 10
-13.26981
 20
-24.096579999999999
 30
0.0
 10
-13.180479999999999
 20
-24.21754
 30
0.0
  0
SPLINE
  5
8C
100
AcDbEntity
  8
Layer 1
 62
     5
100
AcDbSpline
210
0.0
220
0.0
230
1.0
 70
     1
 71
     3
 72
    20
 73
    16
 74
     0
 42
0.0000000001
 43
0.0000000001
 40
0.0
 40
0.0
 40
0.0
 40
0.0
 40
0.25
 40
0.25
 40
0.25
 40
0.25
 40
0.5
 40
0.5
 40
0.5
 40
0.5
 40
0.75
 40
0.75
 40
0.75
 40
0.75
 40
1.0
 40
1.0
 40
1.0
 40
1.0
 10
-11.641450000000001
 20
-24.21754
 30
0.0
 10
-11.68989
 20
-23.82489
 30
0.0
 10
-11.22958
 20
-23.215810000000001
 30
0.0
 10
-10.32821
 20
-23.2593
 30
0.0
 10
-10.32821
 20
-23.2593
 30
0.0
 10
-9.3757300000000008
 20
-23.305260000000001
 30
0.0
 10
-9.6153499999999994
 20
-24.010179999999998
 30
0.0
 10
-9.5947399999999998
 20
-23.962039999999998
 30
0.0
 10
-9.5947399999999998
 20
-23.962039999999998
 30
0.0
 10
-9.5404099999999996
 20
-23.83512
 30
0.0
 10
-10.62189
 20
-23.479669999999999
 30
0.0
 10
-11.33028
 20
-23.928239999999999
 30
0.0
 10
-11.33028
 20
-23.928239999999999
 30
0.0
 10
-11.446199999999999
 20
-24.001639999999998
 30
0.0
 10
-11.55212
 20
-24.096579999999999
 30
0.0
 10
-11.641450000000001
 20
-24.21754
 30
0.0
  0
SPLINE
  5
8D
100
AcDbEntity
  8
Layer 1
 62
     5
100
AcDbSpline
210
0.0
220
0.0
230
1.0
 70
     1
 71
     3
 72
    24
 73
    20
 74
     0
 42
0.0000000001
 43
0.0000000001
 40
0.0
 40
0.0
 40
0.0
 40
0.0
 40
0.2
 40
0.2
 40
0.2
 40
0.2
 40
0.4
 40
0.4
 40
0.4
 40
0.4
 40
0.6000000000000001
 40
0.6000000000000001
 40
0.6000000000000001
 40
0.6000000000000001
 40
0.8
 40
0.8
 40
0.8
 40
0.8
 40
1.0
 40
1.0
 40
1.0
 40
1.0
 10
-11.71536
 20
-24.218019999999999
 30
0.0
 10
-11.73574
 20
-23.748149999999999
 30
0.0
 10
-11.480650000000001
 20
-23.475819999999999
 30
0.0
 10
-10.785679999999999
 20
-23.194299999999998
 30
0.0
 10
-10.785679999999999
 20
-23.194299999999998
 30
0.0
 10
-10.785679999999999
 20
-23.194299999999998
 30
0.0
 10
-11.409739999999999
 20
-23.194299999999998
 30
0.0
 10
-11.409739999999999
 20
-23.194299999999998
 30
0.0
 10
-11.409739999999999
 20
-23.194299999999998
 30
0.0
 10
-11.409739999999999
 20
-23.194299999999998
 30
0.0
 10
-11.42722
 20
-23.19445
 30
0.0
 10
-11.42722
 20
-23.19445
 30
0.0
 10
-11.42722
 20
-23.19445
 30
0.0
 10
-11.766299999999999
 20
-23.552669999999999
 30
0.0
 10
-11.92714
 20
-23.832129999999999
 30
0.0
 10
-11.91136
 20
-24.218019999999999
 30
0.0
 10
-11.91136
 20
-24.218019999999999
 30
0.0
 10
-11.91136
 20
-24.218019999999999
 30
0.0
 10
-11.71536
 20
-24.218019999999999
 30
0.0
 10
-11.71536
 20
-24.218019999999999
 30
0.0
  0
SPLINE
  5
8E
100
AcDbEntity
  8
Layer 1
 62
     5
100
AcDbSpline
210
0.0
220
0.0
230
1.0
 70
     1
 71
     3
 72
    20
 73
    16
 74
     0
 42
0.0000000001
 43
0.0000000001
 40
0.0
 40
0.0
 40
0.0
 40
0.0
 40
0.25
 40
0.25
 40
0.25
 40
0.25
 40
0.5
 40
0.5
 40
0.5
 40
0.5
 40
0.75
 40
0.75
 40
0.75
 40
0.75
 40
1.0
 40
1.0
 40
1.0
 40
1.0
 10
-11.99352
 20
-24.218019999999999
 30
0.0
 10
-12.02876
 20
-23.861419999999999
 30
0.0
 10
-11.853569999999999
 20
-23.53267
 30
0.0
 10
-11.5999
 20
-23.19445
 30
0.0
 10
-11.5999
 20
-23.19445
 30
0.0
 10
-11.5999
 20
-23.19445
 30
0.0
 10
-12.09493
 20
-23.200569999999999
 30
0.0
 10
-12.09493
 20
-23.200569999999999
 30
0.0
 10
-12.09493
 20
-23.200569999999999
 30
0.0
 10
-12.19215
 20
-23.47044
 30
0.0
 10
-12.2425
 20
-23.834160000000001
 30
0.0
 10
-12.211740000000001
 20
-24.218019999999999
 30
0.0
 10
-12.211740000000001
 20
-24.218019999999999
 30
0.0
 10
-12.211740000000001
 20
-24.218019999999999
 30
0.0
 10
-11.99352
 20
-24.218019999999999
 30
0.0
 10
-11.99352
 20
-24.218019999999999
 30
0.0
  0
SPLINE
  5
8F
100
AcDbEntity
  8
Layer 1
 62
     5
100
AcDbSpline
210
0.0
220
0.0
230
1.0
 70
     1
 71
     3
 72
    20
 73
    16
 74
     0
 42
0.0000000001
 43
0.0000000001
 40
0.0
 40
0.0
 40
0.0
 40
0.0
 40
0.25
 40
0.25
 40
0.25
 40
0.25
 40
0.5
 40
0.5
 40
0.5
 40
0.5
 40
0.75
 40
0.75
 40
0.75
 40
0.75
 40
1.0
 40
1.0
 40
1.0
 40
1.0
 10
-12.31474
 20
-24.218019999999999
 30
0.0
 10
-12.33264
 20
-23.873480000000001
 30
0.0
 10
-12.31659
 20
-23.536290000000001
 30
0.0
 10
-12.198539999999999
 20
-23.19445
 30
0.0
 10
-12.198539999999999
 20
-23.19445
 30
0.0
 10
-12.198539999999999
 20
-23.19445
 30
0.0
 10
-12.632669999999999
 20
-23.196660000000001
 30
0.0
 10
-12.632669999999999
 20
-23.196660000000001
 30
0.0
 10
-12.632669999999999
 20
-23.196660000000001
 30
0.0
 10
-12.514860000000001
 20
-23.537769999999998
 30
0.0
 10
-12.498620000000001
 20
-23.87425
 30
0.0
 10
-12.51633
 20
-24.218019999999999
 30
0.0
 10
-12.51633
 20
-24.218019999999999
 30
0.0
 10
-12.51633
 20
-24.218019999999999
 30
0.0
 10
-12.31474
 20
-24.218019999999999
 30
0.0
 10
-12.31474
 20
-24.218019999999999
 30
0.0
  0
SPLINE
  5
90
100
AcDbEntity
  8
Layer 1
 62
     5
100
AcDbSpline
210
0.0
220
0.0
230
1.0
 70
     1
 71
     3
 72
    20
 73
    16
 74
     0
 42
0.0000000001
 43
0.0000000001
 40
0.0
 40
0.0
 40
0.0
 40
0.0
 40
0.25
 40
0.25
 40
0.25
 40
0.25
 40
0.5
 40
0.5
 40
0.5
 40
0.5
 40
0.75
 40
0.75
 40
0.75
 40
0.75
 40
1.0
 40
1.0
 40
1.0
 40
1.0
 10
-12.832649999999999
 20
-24.218019999999999
 30
0.0
 10
-12.797420000000001
 20
-23.861419999999999
 30
0.0
 10
-12.97261
 20
-23.53267
 30
0.0
 10
-13.22627
 20
-23.19445
 30
0.0
 10
-13.22627
 20
-23.19445
 30
0.0
 10
-13.22627
 20
-23.19445
 30
0.0
 10
-12.73124
 20
-23.200569999999999
 30
0.0
 10
-12.73124
 20
-23.200569999999999
 30
0.0
 10
-12.73124
 20
-23.200569999999999
 30
0.0
 10
-12.63402
 20
-23.47044
 30
0.0
 10
-12.58367
 20
-23.834160000000001
 30
0.0
 10
-12.61443
 20
-24.218019999999999
 30
0.0
 10
-12.61443
 20
-24.218019999999999
 30
0.0
 10
-12.61443
 20
-24.218019999999999
 30
0.0
 10
-12.832649999999999
 20
-24.218019999999999
 30
0.0
 10
-12.832649999999999
 20
-24.218019999999999
 30
0.0
  0
SPLINE
  5
91
100
AcDbEntity
  8
Layer 1
 62
     5
100
AcDbSpline
210
0.0
220
0.0
230
1.0
 70
     1
 71
     3
 72
    24
 73
    20
 74
     0
 42
0.0000000001
 43
0.0000000001
 40
0.0
 40
0.0
 40
0.0
 40
0.0
 40
0.2
 40
0.2
 40
0.2
 40
0.2
 40
0.4
 40
0.4
 40
0.4
 40
0.4
 40
0.6000000000000001
 40
0.6000000000000001
 40
0.6000000000000001
 40
0.6000000000000001
 40
0.8
 40
0.8
 40
0.8
 40
0.8
 40
1.0
 40
1.0
 40
1.0
 40
1.0
 10
-13.11082
 20
-24.218019999999999
 30
0.0
 10
-13.09043
 20
-23.748149999999999
 30
0.0
 10
-13.34553
 20
-23.475819999999999
 30
0.0
 10
-14.04049
 20
-23.194299999999998
 30
0.0
 10
-14.04049
 20
-23.194299999999998
 30
0.0
 10
-14.04049
 20
-23.194299999999998
 30
0.0
 10
-13.41643
 20
-23.194299999999998
 30
0.0
 10
-13.41643
 20
-23.194299999999998
 30
0.0
 10
-13.41643
 20
-23.194299999999998
 30
0.0
 10
-13.41643
 20
-23.194299999999998
 30
0.0
 10
-13.398949999999999
 20
-23.19445
 30
0.0
 10
-13.398949999999999
 20
-23.19445
 30
0.0
 10
-13.398949999999999
 20
-23.19445
 30
0.0
 10
-13.05988
 20
-23.552669999999999
 30
0.0
 10
-12.899039999999999
 20
-23.832129999999999
 30
0.0
 10
-12.914809999999999
 20
-24.218019999999999
 30
0.0
 10
-12.914809999999999
 20
-24.218019999999999
 30
0.0
 10
-12.914809999999999
 20
-24.218019999999999
 30
0.0
 10
-13.11082
 20
-24.218019999999999
 30
0.0
 10
-13.11082
 20
-24.218019999999999
 30
0.0
  0
SPLINE
  5
92
100
AcDbEntity
  8
Layer 1
 62
     5
100
AcDbSpline
210
0.0
220
0.0
230
1.0
 70
     1
 71
     3
 72
    20
 73
    16
 74
     0
 42
0.0000000001
 43
0.0000000001
 40
0.0
 40
0.0
 40
0.0
 40
0.0
 40
0.25
 40
0.25
 40
0.25
 40
0.25
 40
0.5
 40
0.5
 40
0.5
 40
0.5
 40
0.75
 40
0.75
 40
0.75
 40
0.75
 40
1.0
 40
1.0
 40
1.0
 40
1.0
 10
16.21996
 20
-24.21754
 30
0.0
 10
16.268409999999999
 20
-23.82489
 30
0.0
 10
15.80809
 20
-23.215810000000001
 30
0.0
 10
14.90672
 20
-23.2593
 30
0.0
 10
14.90672
 20
-23.2593
 30
0.0
 10
13.95424
 20
-23.305260000000001
 30
0.0
 10
14.193860000000001
 20
-24.010179999999998
 30
0.0
 10
14.173249999999999
 20
-23.962039999999998
 30
0.0
 10
14.173249999999999
 20
-23.962039999999998
 30
0.0
 10
14.118919999999999
 20
-23.83512
 30
0.0
 10
15.2004
 20
-23.479669999999999
 30
0.0
 10
15.90879
 20
-23.928239999999999
 30
0.0
 10
15.90879
 20
-23.928239999999999
 30
0.0
 10
16.024709999999999
 20
-24.001639999999998
 30
0.0
 10
16.13063
 20
-24.096579999999999
 30
0.0
 10
16.21996
 20
-24.21754
 30
0.0
  0
SPLINE
  5
93
100
AcDbEntity
  8
Layer 1
 62
     5
100
AcDbSpline
210
0.0
220
0.0
230
1.0
 70
     1
 71
     3
 72
    20
 73
    16
 74
     0
 42
0.0000000001
 43
0.0000000001
 40
0.0
 40
0.0
 40
0.0
 40
0.0
 40
0.25
 40
0.25
 40
0.25
 40
0.25
 40
0.5
 40
0.5
 40
0.5
 40
0.5
 40
0.75
 40
0.75
 40
0.75
 40
0.75
 40
1.0
 40
1.0
 40
1.0
 40
1.0
 10
17.758990000000001
 20
-24.21754
 30
0.0
 10
17.710550000000001
 20
-23.82489
 30
0.0
 10
18.170860000000001
 20
-23.215810000000001
 30
0.0
 10
19.072230000000001
 20
-23.2593
 30
0.0
 10
19.072230000000001
 20
-23.2593
 30
0.0
 10
20.024709999999999
 20
-23.305260000000001
 30
0.0
 10
19.78509
 20
-24.010179999999998
 30
0.0
 10
19.805700000000002
 20
-23.962039999999998
 30
0.0
 10
19.805700000000002
 20
-23.962039999999998
 30
0.0
 10
19.860029999999998
 20
-23.83512
 30
0.0
 10
18.778549999999999
 20
-23.479669999999999
 30
0.0
 10
18.070160000000001
 20
-23.928239999999999
 30
0.0
 10
18.070160000000001
 20
-23.928239999999999
 30
0.0
 10
17.954239999999999
 20
-24.001639999999998
 30
0.0
 10
17.848320000000001
 20
-24.096579999999999
 30
0.0
 10
17.758990000000001
 20
-24.21754
 30
0.0
  0
SPLINE
  5
94
100
AcDbEntity
  8
Layer 1
 62
     5
100
AcDbSpline
210
0.0
220
0.0
230
1.0
 70
     1
 71
     3
 72
    24
 73
    20
 74
     0
 42
0.0000000001
 43
0.0000000001
 40
0.0
 40
0.0
 40
0.0
 40
0.0
 40
0.2
 40
0.2
 40
0.2
 40
0.2
 40
0.4
 40
0.4
 40
0.4
 40
0.4
 40
0.6000000000000001
 40
0.6000000000000001
 40
0.6000000000000001
 40
0.6000000000000001
 40
0.8
 40
0.8
 40
0.8
 40
0.8
 40
1.0
 40
1.0
 40
1.0
 40
1.0
 10
17.685079999999999
 20
-24.218019999999999
 30
0.0
 10
17.6647
 20
-23.748149999999999
 30
0.0
 10
17.919789999999999
 20
-23.475819999999999
 30
0.0
 10
18.61476
 20
-23.194299999999998
 30
0.0
 10
18.61476
 20
-23.194299999999998
 30
0.0
 10
18.61476
 20
-23.194299999999998
 30
0.0
 10
17.9907
 20
-23.194299999999998
 30
0.0
 10
17.9907
 20
-23.194299999999998
 30
0.0
 10
17.9907
 20
-23.194299999999998
 30
0.0
 10
17.9907
 20
-23.194299999999998
 30
0.0
 10
17.973220000000001
 20
-23.19445
 30
0.0
 10
17.973220000000001
 20
-23.19445
 30
0.0
 10
17.973220000000001
 20
-23.19445
 30
0.0
 10
17.634139999999999
 20
-23.552669999999999
 30
0.0
 10
17.473299999999998
 20
-23.832129999999999
 30
0.0
 10
17.489080000000001
 20
-24.218019999999999
 30
0.0
 10
17.489080000000001
 20
-24.218019999999999
 30
0.0
 10
17.489080000000001
 20
-24.218019999999999
 30
0.0
 10
17.685079999999999
 20
-24.218019999999999
 30
0.0
 10
17.685079999999999
 20
-24.218019999999999
 30
0.0
  0
SPLINE
  5
95
100
AcDbEntity
  8
Layer 1
 62
     5
100
AcDbSpline
210
0.0
220
0.0
230
1.0
 70
     1
 71
     3
 72
    20
 73
    16
 74
     0
 42
0.0000000001
 43
0.0000000001
 40
0.0
 40
0.0
 40
0.0
 40
0.0
 40
0.25
 40
0.25
 40
0.25
 40
0.25
 40
0.5
 40
0.5
 40
0.5
 40
0.5
 40
0.75
 40
0.75
 40
0.75
 40
0.75
 40
1.0
 40
1.0
 40
1.0
 40
1.0
 10
17.40692
 20
-24.218019999999999
 30
0.0
 10
17.371680000000001
 20
-23.861419999999999
 30
0.0
 10
17.546869999999998
 20
-23.53267
 30
0.0
 10
17.800540000000002
 20
-23.19445
 30
0.0
 10
17.800540000000002
 20
-23.19445
 30
0.0
 10
17.800540000000002
 20
-23.19445
 30
0.0
 10
17.305510000000002
 20
-23.200569999999999
 30
0.0
 10
17.305510000000002
 20
-23.200569999999999
 30
0.0
 10
17.305510000000002
 20
-23.200569999999999
 30
0.0
 10
17.208290000000002
 20
-23.47044
 30
0.0
 10
17.15794
 20
-23.834160000000001
 30
0.0
 10
17.188700000000001
 20
-24.218019999999999
 30
0.0
 10
17.188700000000001
 20
-24.218019999999999
 30
0.0
 10
17.188700000000001
 20
-24.218019999999999
 30
0.0
 10
17.40692
 20
-24.218019999999999
 30
0.0
 10
17.40692
 20
-24.218019999999999
 30
0.0
  0
SPLINE
  5
96
100
AcDbEntity
  8
Layer 1
 62
     5
100
AcDbSpline
210
0.0
220
0.0
230
1.0
 70
     1
 71
     3
 72
    20
 73
    16
 74
     0
 42
0.0000000001
 43
0.0000000001
 40
0.0
 40
0.0
 40
0.0
 40
0.0
 40
0.25
 40
0.25
 40
0.25
 40
0.25
 40
0.5
 40
0.5
 40
0.5
 40
0.5
 40
0.75
 40
0.75
 40
0.75
 40
0.75
 40
1.0
 40
1.0
 40
1.0
 40
1.0
 10
17.085699999999999
 20
-24.218019999999999
 30
0.0
 10
17.067799999999998
 20
-23.873480000000001
 30
0.0
 10
17.083850000000002
 20
-23.536290000000001
 30
0.0
 10
17.201899999999998
 20
-23.19445
 30
0.0
 10
17.201899999999998
 20
-23.19445
 30
0.0
 10
17.201899999999998
 20
-23.19445
 30
0.0
 10
16.767769999999999
 20
-23.196660000000001
 30
0.0
 10
16.767769999999999
 20
-23.196660000000001
 30
0.0
 10
16.767769999999999
 20
-23.196660000000001
 30
0.0
 10
16.885580000000001
 20
-23.537769999999998
 30
0.0
 10
16.901820000000001
 20
-23.87425
 30
0.0
 10
16.88411
 20
-24.218019999999999
 30
0.0
 10
16.88411
 20
-24.218019999999999
 30
0.0
 10
16.88411
 20
-24.218019999999999
 30
0.0
 10
17.085699999999999
 20
-24.218019999999999
 30
0.0
 10
17.085699999999999
 20
-24.218019999999999
 30
0.0
  0
SPLINE
  5
97
100
AcDbEntity
  8
Layer 1
 62
     5
100
AcDbSpline
210
0.0
220
0.0
230
1.0
 70
     1
 71
     3
 72
    20
 73
    16
 74
     0
 42
0.0000000001
 43
0.0000000001
 40
0.0
 40
0.0
 40
0.0
 40
0.0
 40
0.25
 40
0.25
 40
0.25
 40
0.25
 40
0.5
 40
0.5
 40
0.5
 40
0.5
 40
0.75
 40
0.75
 40
0.75
 40
0.75
 40
1.0
 40
1.0
 40
1.0
 40
1.0
 10
16.567789999999999
 20
-24.218019999999999
 30
0.0
 10
16.603020000000001
 20
-23.861419999999999
 30
0.0
 10
16.42783
 20
-23.53267
 30
0.0
 10
16.17417
 20
-23.19445
 30
0.0
 10
16.17417
 20
-23.19445
 30
0.0
 10
16.17417
 20
-23.19445
 30
0.0
 10
16.6692
 20
-23.200569999999999
 30
0.0
 10
16.6692
 20
-23.200569999999999
 30
0.0
 10
16.6692
 20
-23.200569999999999
 30
0.0
 10
16.76642
 20
-23.47044
 30
0.0
 10
16.816770000000002
 20
-23.834160000000001
 30
0.0
 10
16.786010000000001
 20
-24.218019999999999
 30
0.0
 10
16.786010000000001
 20
-24.218019999999999
 30
0.0
 10
16.786010000000001
 20
-24.218019999999999
 30
0.0
 10
16.567789999999999
 20
-24.218019999999999
 30
0.0
 10
16.567789999999999
 20
-24.218019999999999
 30
0.0
  0
SPLINE
  5
98
100
AcDbEntity
  8
Layer 1
 62
     5
100
AcDbSpline
210
0.0
220
0.0
230
1.0
 70
     1
 71
     3
 72
    24
 73
    20
 74
     0
 42
0.0000000001
 43
0.0000000001
 40
0.0
 40
0.0
 40
0.0
 40
0.0
 40
0.2
 40
0.2
 40
0.2
 40
0.2
 40
0.4
 40
0.4
 40
0.4
 40
0.4
 40
0.6000000000000001
 40
0.6000000000000001
 40
0.6000000000000001
 40
0.6000000000000001
 40
0.8
 40
0.8
 40
0.8
 40
0.8
 40
1.0
 40
1.0
 40
1.0
 40
1.0
 10
16.289619999999999
 20
-24.218019999999999
 30
0.0
 10
16.310009999999998
 20
-23.748149999999999
 30
0.0
 10
16.05491
 20
-23.475819999999999
 30
0.0
 10
15.35995
 20
-23.194299999999998
 30
0.0
 10
15.35995
 20
-23.194299999999998
 30
0.0
 10
15.35995
 20
-23.194299999999998
 30
0.0
 10
15.98401
 20
-23.194299999999998
 30
0.0
 10
15.98401
 20
-23.194299999999998
 30
0.0
 10
15.98401
 20
-23.194299999999998
 30
0.0
 10
15.98401
 20
-23.194299999999998
 30
0.0
 10
16.00149
 20
-23.19445
 30
0.0
 10
16.00149
 20
-23.19445
 30
0.0
 10
16.00149
 20
-23.19445
 30
0.0
 10
16.34056
 20
-23.552669999999999
 30
0.0
 10
16.5014
 20
-23.832129999999999
 30
0.0
 10
16.48563
 20
-24.218019999999999
 30
0.0
 10
16.48563
 20
-24.218019999999999
 30
0.0
 10
16.48563
 20
-24.218019999999999
 30
0.0
 10
16.289619999999999
 20
-24.218019999999999
 30
0.0
 10
16.289619999999999
 20
-24.218019999999999
 30
0.0
  0
ENDSEC
  0
SECTION
  2
OBJECTS
  0
DICTIONARY
  5
19
100
AcDbDictionary
280
     0
281
     1
  3
ACAD_GROUP
350
1A
  3
ACAD_MLINESTYLE
350
1B
  3
ACAD_LAYOUT
350
1E
  3
ACAD_PLOTSETTINGS
350
22
  3
ACAD_PLOTSTYLENAME
350
1F
  3
ACAD_WIPEOUT_VARS
350
23
  0
DICTIONARY
  5
1A
102
{ACAD_REACTORS
330
19
102
}
100
AcDbDictionary
280
     0
281
     1
  0
DICTIONARY
  5
1B
102
{ACAD_REACTORS
330
19
102
}
100
AcDbDictionary
280
     0
281
     1
  3
Standard
350
1C
  0
MLINESTYLE
  5
1C
102
{ACAD_REACTORS
330
1B
102
}
100
AcDbMlineStyle
  2
Standard
 70
     0
  3

 62
     0
 51
90.0
 52
90.0
 71
     2
 49
0.5
 62
   256
  6
BYLAYER
 49
-0.5
 62
   256
  6
BYLAYER
  0
ACDBDICTIONARYWDFLT
  5
1F
102
{ACAD_REACTORS
330
19
102
}
100
AcDbDictionary
281
     1
  3
Normal
350
1D
100
AcDbDictionaryWithDefault
340
1D
  0
ACDBPLACEHOLDER
  5
1D
102
{ACAD_REACTORS
330
1F
102
}
  0
LAYOUT
  5
20
102
{ACAD_REACTORS
330
1E
102
}
100
AcDbPlotSettings
  1

  2

  4

  6

 40
0.0
 41
0.0
 42
0.0
 43
0.0
 44
0.0
 45
0.0
 46
0.0
 47
0.0
 48
0.0
 49
0.0
140
0.0
141
0.0
142
1.0
143
1.0
 70
  1024
 72
     0
 73
     0
 74
     0
  7

 75
     0
147
1.0
148
0.0
149
0.0
100
AcDbLayout
  1
Model
 70
     0
 71
     0
 10
0.0
 20
0.0
 11
0.0
 21
0.0
 12
0.0
 22
0.0
 32
0.0
 14
0.0
 24
0.0
 34
0.0
 15
0.0
 25
0.0
 35
0.0
146
0.0
 13
0.0
 23
0.0
 33
0.0
 16
0.0
 26
0.0
 36
0.0
 17
0.0
 27
0.0
 37
0.0
 76
     0
330
A
331
0
345
0
346
0
  0
LAYOUT
  5
21
102
{ACAD_REACTORS
330
1E
102
}
100
AcDbPlotSettings
  1

  2

  4

  6

 40
0.0
 41
0.0
 42
0.0
 43
0.0
 44
0.0
 45
0.0
 46
0.0
 47
0.0
 48
0.0
 49
0.0
140
0.0
141
0.0
142
1.0
143
1.0
 70
     0
 72
     0
 73
     0
 74
     0
  7

 75
     0
147
1.0
148
0.0
149
0.0
100
AcDbLayout
  1
Layout1
 70
     0
 71
     0
 10
0.0
 20
0.0
 11
0.0
 21
0.0
 12
0.0
 22
0.0
 32
0.0
 14
0.0
 24
0.0
 34
0.0
 15
0.0
 25
0.0
 35
0.0
146
0.0
 13
0.0
 23
0.0
 33
0.0
 16
0.0
 26
0.0
 36
0.0
 17
0.0
 27
0.0
 37
0.0
 76
     0
330
B
331
0
345
0
346
0
  0
DICTIONARY
  5
1E
102
{ACAD_REACTORS
330
19
102
}
100
AcDbDictionary
280
     0
281
     1
  3
Layout1
350
21
  3
Model
350
20
  0
DICTIONARY
  5
22
102
{ACAD_REACTORS
330
19
102
}
100
AcDbDictionary
280
     0
281
     1
  0
WIPEOUTVARIABLES
  5
23
100
AcDbWipeoutVariables
 70
     1
  0
ENDSEC
  0
EOF
