  0
SECTION
  2
HEADER
  9
$ACADVER
  1
AC1015
  9
$ACADMAINTVER
 70
     6
  9
$DWGCODEPAGE
  3
DOS850
  9
$INSBASE
 10
0.0
 20
0.0
 30
0.0
  9
$EXTMIN
 10
-18.48886
 20
-19.46712
 30
1.000000E+20
  9
$EXTMAX
 10
14.16136
 20
20.5405
 30
-1.000000E+20
  9
$LIMMIN
 10
0.0
 20
0.0
  9
$LIMMAX
 10
0.0
 20
0.0
  9
$ORTHOMODE
 70
     0
  9
$REGENMODE
 70
     1
  9
$FILLMODE
 70
     1
  9
$QTEXTMODE
 70
     0
  9
$MIRRTEXT
 70
     1
  9
$LTSCALE
 40
1.0
  9
$ATTMODE
 70
     1
  9
$TEXTSIZE
 40
0.2
  9
$TRACEWID
 40
0.05
  9
$TEXTSTYLE
  7
Standard
  9
$CLAYER
  8
0
  9
$CELTYPE
  6
Continuous
  9
$CECOLOR
 62
   256
  9
$CELTSCALE
 40
1.0
  9
$DISPSILH
 70
     0
  9
$DIMSCALE
 40
1.0
  9
$DIMASZ
 40
0.18
  9
$DIMEXO
 40
0.0625
  9
$DIMDLI
 40
0.38
  9
$DIMRND
 40
0.0
  9
$DIMDLE
 40
0.0
  9
$DIMEXE
 40
0.18
  9
$DIMTP
 40
0.0
  9
$DIMTM
 40
0.0
  9
$DIMTXT
 40
0.18
  9
$DIMCEN
 40
0.09
  9
$DIMTSZ
 40
0.0
  9
$DIMTOL
 70
     0
  9
$DIMLIM
 70
     0
  9
$DIMTIH
 70
     1
  9
$DIMTOH
 70
     1
  9
$DIMSE1
 70
     0
  9
$DIMSE2
 70
     0
  9
$DIMTAD
 70
     0
  9
$DIMZIN
 70
     0
  9
$DIMBLK
  1

  9
$DIMASO
 70
     1
  9
$DIMSHO
 70
     1
  9
$DIMPOST
  1

  9
$DIMAPOST
  1

  9
$DIMALT
 70
     0
  9
$DIMALTD
 70
     2
  9
$DIMALTF
 40
25.4
  9
$DIMLFAC
 40
1.0
  9
$DIMTOFL
 70
     0
  9
$DIMTVP
 40
0.0
  9
$DIMTIX
 70
     0
  9
$DIMSOXD
 70
     0
  9
$DIMSAH
 70
     0
  9
$DIMBLK1
  1

  9
$DIMBLK2
  1

  9
$DIMSTYLE
  2
Standard
  9
$DIMCLRD
 70
     0
  9
$DIMCLRE
 70
     0
  9
$DIMCLRT
 70
     0
  9
$DIMTFAC
 40
1.0
  9
$DIMGAP
 40
0.09
  9
$DIMJUST
 70
     0
  9
$DIMSD1
 70
     0
  9
$DIMSD2
 70
     0
  9
$DIMTOLJ
 70
     1
  9
$DIMTZIN
 70
     0
  9
$DIMALTZ
 70
     0
  9
$DIMALTTZ
 70
     0
  9
$DIMUPT
 70
     0
  9
$DIMDEC
 70
     4
  9
$DIMTDEC
 70
     4
  9
$DIMALTU
 70
     2
  9
$DIMALTTD
 70
     2
  9
$DIMTXSTY
  7
Standard
  9
$DIMAUNIT
 70
     0
  9
$DIMADEC
 70
     0
  9
$DIMALTRND
 40
0.0
  9
$DIMAZIN
 70
     0
  9
$DIMDSEP
 70
     0
  9
$DIMATFIT
 70
     3
  9
$DIMFRAC
 70
     0
  9
$DIMLDRBLK
  1

  9
$DIMLUNIT
 70
     2
  9
$DIMLWD
 70
     0
  9
$DIMLWE
 70
     0
  9
$DIMTMOVE
 70
     0
  9
$LUNITS
 70
     2
  9
$LUPREC
 70
     4
  9
$SKETCHINC
 40
0.1
  9
$FILLETRAD
 40
0.0
  9
$AUNITS
 70
     0
  9
$AUPREC
 70
     0
  9
$MENU
  1
acad
  9
$ELEVATION
 40
0.0
  9
$PELEVATION
 40
0.0
  9
$THICKNESS
 40
0.0
  9
$LIMCHECK
 70
     0
  9
$CHAMFERA
 40
0.0
  9
$CHAMFERB
 40
0.0
  9
$CHAMFERC
 40
0.0
  9
$CHAMFERD
 40
0.0
  9
$SKPOLY
 70
     0
  9
$TDCREATE
 40
0.000000000
  9
$TDUCREATE
 40
0.000000000
  9
$TDUPDATE
 40
0.000000000
  9
$TDUUPDATE
 40
0.000000000
  9
$TDINDWG
 40
0.0000000000
  9
$TDUSRTIMER
 40
0.0000000000
  9
$USRTIMER
 70
     1
  9
$ANGBASE
 50
0.0
  9
$ANGDIR
 70
     0
  9
$PDMODE
 70
     0
  9
$PDSIZE
 40
0.0
  9
$PLINEWID
 40
0.0
  9
$SPLFRAME
 70
     0
  9
$SPLINETYPE
 70
     6
  9
$SPLINESEGS
 70
     8
  9
$HANDSEED
  5
68
  9
$SURFTAB1
 70
     6
  9
$SURFTAB2
 70
     6
  9
$SURFTYPE
 70
     6
  9
$SURFU
 70
     6
  9
$SURFV
 70
     6
  9
$UCSBASE
  2

  9
$UCSNAME
  2

  9
$UCSORG
 10
0.0
 20
0.0
 30
0.0
  9
$UCSXDIR
 10
1.0
 20
0.0
 30
0.0
  9
$UCSYDIR
 10
0.0
 20
1.0
 30
0.0
  9
$UCSORTHOREF
  2

  9
$UCSORTHOVIEW
 70
     0
  9
$UCSORGTOP
 10
0.0
 20
0.0
 30
0.0
  9
$UCSORGBOTTOM
 10
0.0
 20
0.0
 30
0.0
  9
$UCSORGLEFT
 10
0.0
 20
0.0
 30
0.0
  9
$UCSORGRIGHT
 10
0.0
 20
0.0
 30
0.0
  9
$UCSORGFRONT
 10
0.0
 20
0.0
 30
0.0
  9
$UCSORGBACK
 10
0.0
 20
0.0
 30
0.0
  9
$PUCSBASE
  2

  9
$PUCSNAME
  2

  9
$PUCSORG
 10
0.0
 20
0.0
 30
0.0
  9
$PUCSXDIR
 10
1.0
 20
0.0
 30
0.0
  9
$PUCSYDIR
 10
0.0
 20
1.0
 30
0.0
  9
$PUCSORTHOREF
  2

  9
$PUCSORTHOVIEW
 70
     0
  9
$PUCSORGTOP
 10
0.0
 20
0.0
 30
0.0
  9
$PUCSORGBOTTOM
 10
0.0
 20
0.0
 30
0.0
  9
$PUCSORGLEFT
 10
0.0
 20
0.0
 30
0.0
  9
$PUCSORGRIGHT
 10
0.0
 20
0.0
 30
0.0
  9
$PUCSORGFRONT
 10
0.0
 20
0.0
 30
0.0
  9
$PUCSORGBACK
 10
0.0
 20
0.0
 30
0.0
  9
$USERI1
 70
     0
  9
$USERI2
 70
     0
  9
$USERI3
 70
     0
  9
$USERI4
 70
     0
  9
$USERI5
 70
     0
  9
$USERR1
 40
0.0
  9
$USERR2
 40
0.0
  9
$USERR3
 40
0.0
  9
$USERR4
 40
0.0
  9
$USERR5
 40
0.0
  9
$WORLDVIEW
 70
     1
  9
$SHADEDGE
 70
     3
  9
$SHADEDIF
 70
    70
  9
$TILEMODE
 70
     1
  9
$MAXACTVP
 70
    16
  9
$PINSBASE
 10
0.0
 20
0.0
 30
0.0
  9
$PLIMCHECK
 70
     0
  9
$PEXTMIN
 10
1.000000E+20
 20
1.000000E+20
 30
1.000000E+20
  9
$PEXTMAX
 10
-1.000000E+20
 20
-1.000000E+20
 30
-1.000000E+20
  9
$PLIMMIN
 10
0.0
 20
0.0
  9
$PLIMMAX
 10
12.0
 20
9.0
  9
$UNITMODE
 70
     0
  9
$VISRETAIN
 70
     0
  9
$PLINEGEN
 70
     1
  9
$PSLTSCALE
 70
     0
  9
$TREEDEPTH
 70
  3020
  9
$CMLSTYLE
  2
Standard
  9
$CMLJUST
 70
     0
  9
$CMLSCALE
 40
1.0
  9
$PROXYGRAPHICS
 70
     0
  9
$MEASUREMENT
 70
     0
  9
$CELWEIGHT
370
     0
  9
$ENDCAPS
280
     0
  9
$JOINSTYLE
280
     0
  9
$LWDISPLAY
290
     0
  9
$INSUNITS
 70
     5
  9
$HYPERLINKBASE
  1

  9
$XEDIT
290
     1
  9
$CEPSNTYPE
380
     0
  9
$PSTYLEMODE
290
     1
  9
$FINGERPRINTGUID
  2

  9
$VERSIONGUID
  2

  9
$EXTNAMES
290
     1
  9
$PSVPSCALE
 40
0.0
  0
ENDSEC
  0
SECTION
  2
CLASSES
  0
CLASS
  1
LWPOLYLINE
  2
AcDbPolyline
  3
AutoCAD 2000
 90
    32768
280
     0
281
     1
  0
CLASS
  1
IMAGE
  2
AcDbRasterImage
  3
ISM
 90
    32895
280
     0
281
     1
  0
CLASS
  1
OLE2FRAME
  2
AcDbOle2Frame
  3
AutoCAD 2000
 90
    32768
280
     0
281
     1
  0
CLASS
  1
HATCH
  2
AcDbHatch
  3
AutoCAD 2000
 90
    32768
280
     0
281
     1
  0
CLASS
  1
DICTIONARYVAR
  2
AcDbDictionaryVar
  3
AutoCAD 2000
 90
    32768
280
     0
281
     0
  0
CLASS
  1
RASTERVARIABLES
  2
AcDbRasterVariables
  3
ISM
 90
    32768
280
     0
281
     0
  0
CLASS
  1
IMAGEDEF
  2
AcDbRasterImageDef
  3
ISM
 90
    32768
280
     0
281
     0
  0
CLASS
  1
IMAGEDEF_REACTOR
  2
AcDbRasterImageDefReactor
  3
ISM
 90
    32769
280
     0
281
     0
  0
CLASS
  1
IDBUFFER
  2
AcDbIdBuffer
  3
AutoCAD 2000
 90
    32768
280
     0
281
     0
  0
CLASS
  1
SPATIAL_FILTER
  2
AcDbSpatialFilter
  3
AutoCAD 2000
 90
    32768
280
     0
281
     0
  0
CLASS
  1
XRECORD
  2
AcDbXrecord
  3
AutoCAD 2000
 90
    32768
280
     0
281
     0
  0
CLASS
  1
SORTENTSTABLE
  2
AcDbSortentsTable
  3
AutoCAD 2000
 90
    32768
280
     0
281
     0
  0
CLASS
  1
LAYER_INDEX
  2
AcDbLayerIndex
  3
AutoCAD 2000
 90
    32768
280
     0
281
     0
  0
CLASS
  1
SPATIAL_INDEX
  2
AcDbSpatialIndex
  3
AutoCAD 2000
 90
    32768
280
     0
281
     0
  0
CLASS
  1
OBJECT_PTR
  2
CAseDLPNTableRecord
  3
\"ASE-LPNTableRecord\"
 90
    32769
280
     0
281
     0
  0
CLASS
  1
LAYOUT
  2
AcDbLayout
  3
AutoCAD 2000
 90
        0
280
     0
281
     0
  0
CLASS
  1
PLOTSETTINGS
  2
AcDbPlotSettings
  3
AutoCAD 2000
 90
    32768
280
     0
281
     0
  0
CLASS
  1
ACDBDICTIONARYWDFLT
  2
AcDbDictionaryWithDefault
  3
AutoCAD 2000
 90
        0
280
     0
281
     0
  0
CLASS
  1
ACDBPLACEHOLDER
  2
AcDbPlaceHolder
  3
AutoCAD 2000
 90
        0
280
     0
281
     0
  0
CLASS
  1
VBA_PROJECT
  2
AcDbVbaProject
  3
acadvba
 90
    32768
280
     0
281
     0
  0
CLASS
  1
WIPEOUT
  2
AcDbWipeout
  3
WipeOut|AutoCAD Express Tool|expresstools@autodesk.com
 90
    32895
280
     0
281
     1
  0
CLASS
  1
WIPEOUTVARIABLES
  2
AcDbWipeoutVariables
  3
WipeOut|AutoCAD Express Tool|expresstools@autodesk.com
 90
        0
280
     0
281
     0
  0
CLASS
  1
RTEXT
  2
RText
  3
RText|AutoCAD Express Tool|expresstools@autodesk.com
 90
    32768
280
     0
281
     1
  0
CLASS
  1
ARCALIGNEDTEXT
  2
AcDbArcAlignedText
  3
ATEXT|AutoCAD Express Tool|expresstools@autodesk.com
 90
    32768
280
     0
281
     1
  0
ENDSEC
  0
SECTION
  2
TABLES
  0
TABLE
  2
VPORT
  5
7
100
AcDbSymbolTable
 70
     1
  0
VPORT
  5
15
100
AcDbSymbolTableRecord
100
AcDbViewportTableRecord
  2
*ACTIVE
 70
     0
 10
0.0
 20
0.0
 11
1.0
 21
1.0
 12
6.591288
 22
4.579184
 13
0.0
 23
0.0
 14
1.0
 24
1.0
 15
0.0
 25
0.0
 16
0.0
 26
0.0
 36
1.0
 17
0.0
 27
0.0
 37
0.0
 40
9.158369
 41
0.688564
 42
50.0
 43
0.0
 44
0.0
 50
0.0
 51
0.0
 71
     0
 72
   100
 73
     1
 74
     1
 75
     0
 76
     0
 77
     0
 78
     0
281
     0
 65
     0
110
0.0
120
0.0
130
0.0
111
1.0
121
0.0
131
0.0
112
0.0
122
1.0
132
0.0
345
0
346
0
 79
     0
146
0.0
  0
ENDTAB
  0
TABLE
  2
LTYPE
  5
4
100
AcDbSymbolTable
 70
     3
  0
LTYPE
  5
11
100
AcDbSymbolTableRecord
100
AcDbLinetypeTableRecord
  2
ByBlock
 70
    64
  3

 72
    65
 73
     0
 40
0.0
  0
LTYPE
  5
12
100
AcDbSymbolTableRecord
100
AcDbLinetypeTableRecord
  2
ByLayer
 70
    64
  3

 72
    65
 73
     0
 40
0.0
  0
LTYPE
  5
13
100
AcDbSymbolTableRecord
100
AcDbLinetypeTableRecord
  2
Continuous
 70
    64
  3
Solid line
 72
    65
 73
     0
 40
0.0
  0
ENDTAB
  0
TABLE
  2
LAYER
  5
2
100
AcDbSymbolTable
 70
     2
  0
LAYER
  5
14
100
AcDbSymbolTableRecord
100
AcDbLayerTableRecord
  2
0
 70
     0
 62
     7
  6
Continuous
290
     1
370
    -3
390
1D
  0
LAYER
  5
24
100
AcDbSymbolTableRecord
100
AcDbLayerTableRecord
  2
Default
 70
     0
 62
     7
  6
Continuous
290
     1
370
    -3
390
1F
  0
ENDTAB
  0
TABLE
  2
STYLE
  5
3
100
AcDbSymbolTable
 70
     1
  0
STYLE
  5
17
100
AcDbSymbolTableRecord
100
AcDbTextStyleTableRecord
  2
Standard
 70
     0
 40
0.0
 41
1.0
 50
0.0
 71
     0
 42
0.0
  3
txt
  4

  0
ENDTAB
  0
TABLE
  2
VIEW
  5
5
100
AcDbSymbolTable
 70
     0
  0
ENDTAB
  0
TABLE
  2
UCS
  5
6
100
AcDbSymbolTable
 70
     0
  0
ENDTAB
  0
TABLE
  2
APPID
  5
8
100
AcDbSymbolTable
 70
     1
  0
APPID
  5
16
100
AcDbSymbolTableRecord
100
AcDbRegAppTableRecord
  2
ACAD
 70
     0
  0
ENDTAB
  0
TABLE
  2
DIMSTYLE
  5
9
100
AcDbSymbolTable
 70
     1
100
AcDbDimStyleTable
 71
     0
  0
DIMSTYLE
105
18
100
AcDbSymbolTableRecord
100
AcDbDimStyleTableRecord
  2
Standard
 70
     0
  3

  4

 40
1.0
 41
0.18
 42
0.0625
 43
0.38
 44
0.18
 45
0.0
 46
0.0
 47
0.0
 48
0.0
 71
     0
 72
     0
 73
     1
 74
     1
 75
     0
 76
     0
 77
     0
 78
     0
 79
     0
140
0.18
141
0.09
142
0.0
143
25.4
144
1.0
145
0.0
146
1.0
147
0.09
148
0.0
170
     0
171
     2
172
     0
173
     0
174
     0
175
     0
176
     0
177
     0
178
     0
179
     0
271
     4
272
     4
273
     2
274
     2
275
     0
276
     0
277
     2
278
    46
279
     0
280
     0
281
     0
282
     0
283
     1
284
     0
285
     0
286
     0
288
     0
340
17
341
0
342
0
343
0
344
0
371
    -2
372
    -2
  0
ENDTAB
  0
TABLE
  2
BLOCK_RECORD
  5
1
100
AcDbSymbolTable
 70
     0
  0
BLOCK_RECORD
  5
A
100
AcDbSymbolTableRecord
100
AcDbBlockTableRecord
  2
*MODEL_SPACE
340
20
  0
BLOCK_RECORD
  5
B
100
AcDbSymbolTableRecord
100
AcDbBlockTableRecord
  2
*PAPER_SPACE
340
21
  0
ENDTAB
  0
ENDSEC
  0
SECTION
  2
BLOCKS
  0
BLOCK
  5
D
100
AcDbEntity
  8
0
100
AcDbBlockBegin
  2
*MODEL_SPACE
 70
     0
 10
0.0
 20
0.0
 30
0.0
  3
*MODEL_SPACE
  1

  0
ENDBLK
  5
E
100
AcDbEntity
  8
0
100
AcDbBlockEnd
  0
BLOCK
  5
F
100
AcDbEntity
 67
     1
  8
0
100
AcDbBlockBegin
  2
*PAPER_SPACE
 70
     0
 10
0.0
 20
0.0
 30
0.0
  3
*PAPER_SPACE
  1

  0
ENDBLK
  5
10
100
AcDbEntity
 67
     1
  8
0
100
AcDbBlockEnd
  0
ENDSEC
  0
SECTION
  2
ENTITIES
  0
SPLINE
  5
25
100
AcDbEntity
  8
Default
100
AcDbSpline
210
0.0
220
0.0
230
1.0
 70
     1
 71
     3
 72
   124
 73
   120
 74
     0
 42
0.0000000001
 43
0.0000000001
 40
0.0
 40
0.0
 40
0.0
 40
0.0
 40
0.0333333333333333
 40
0.0333333333333333
 40
0.0333333333333333
 40
0.0333333333333333
 40
0.0666666666666667
 40
0.0666666666666667
 40
0.0666666666666667
 40
0.0666666666666667
 40
0.1
 40
0.1
 40
0.1
 40
0.1
 40
0.1333333333333333
 40
0.1333333333333333
 40
0.1333333333333333
 40
0.1333333333333333
 40
0.1666666666666667
 40
0.1666666666666667
 40
0.1666666666666667
 40
0.1666666666666667
 40
0.2
 40
0.2
 40
0.2
 40
0.2
 40
0.2333333333333333
 40
0.2333333333333333
 40
0.2333333333333333
 40
0.2333333333333333
 40
0.2666666666666667
 40
0.2666666666666667
 40
0.2666666666666667
 40
0.2666666666666667
 40
0.3
 40
0.3
 40
0.3
 40
0.3
 40
0.3333333333333333
 40
0.3333333333333333
 40
0.3333333333333333
 40
0.3333333333333333
 40
0.3666666666666666
 40
0.3666666666666666
 40
0.3666666666666666
 40
0.3666666666666666
 40
0.4
 40
0.4
 40
0.4
 40
0.4
 40
0.4333333333333333
 40
0.4333333333333333
 40
0.4333333333333333
 40
0.4333333333333333
 40
0.4666666666666666
 40
0.4666666666666666
 40
0.4666666666666666
 40
0.4666666666666666
 40
0.4999999999999999
 40
0.4999999999999999
 40
0.4999999999999999
 40
0.4999999999999999
 40
0.5333333333333333
 40
0.5333333333333333
 40
0.5333333333333333
 40
0.5333333333333333
 40
0.5666666666666667
 40
0.5666666666666667
 40
0.5666666666666667
 40
0.5666666666666667
 40
0.6
 40
0.6
 40
0.6
 40
0.6
 40
0.6333333333333333
 40
0.6333333333333333
 40
0.6333333333333333
 40
0.6333333333333333
 40
0.6666666666666666
 40
0.6666666666666666
 40
0.6666666666666666
 40
0.6666666666666666
 40
0.7
 40
0.7
 40
0.7
 40
0.7
 40
0.7333333333333333
 40
0.7333333333333333
 40
0.7333333333333333
 40
0.7333333333333333
 40
0.7666666666666666
 40
0.7666666666666666
 40
0.7666666666666666
 40
0.7666666666666666
 40
0.7999999999999999
 40
0.7999999999999999
 40
0.7999999999999999
 40
0.7999999999999999
 40
0.8333333333333333
 40
0.8333333333333333
 40
0.8333333333333333
 40
0.8333333333333333
 40
0.8666666666666666
 40
0.8666666666666666
 40
0.8666666666666666
 40
0.8666666666666666
 40
0.8999999999999999
 40
0.8999999999999999
 40
0.8999999999999999
 40
0.8999999999999999
 40
0.9333333333333332
 40
0.9333333333333332
 40
0.9333333333333332
 40
0.9333333333333332
 40
0.9666666666666666
 40
0.9666666666666666
 40
0.9666666666666666
 40
0.9666666666666666
 40
1.0
 40
1.0
 40
1.0
 40
1.0
 10
-12.312250000000001
 20
-6.4092700000000002
 30
0.0
 10
-12.39893
 20
-6.1641300000000001
 30
0.0
 10
-12.48563
 20
-5.91899
 30
0.0
 10
-12.53646
 20
-5.61557
 30
0.0
 10
-12.53646
 20
-5.61557
 30
0.0
 10
-12.58727
 20
-5.3121400000000003
 30
0.0
 10
-12.602220000000001
 20
-4.9504099999999998
 30
0.0
 10
-12.57682
 20
-4.6440099999999997
 30
0.0
 10
-12.57682
 20
-4.6440099999999997
 30
0.0
 10
-12.551399999999999
 20
-4.33758
 30
0.0
 10
-12.48563
 20
-4.0864700000000003
 30
0.0
 10
-12.378019999999999
 20
-3.8144399999999998
 30
0.0
 10
-12.378019999999999
 20
-3.8144399999999998
 30
0.0
 10
-12.270390000000001
 20
-3.5423900000000001
 30
0.0
 10
-12.12091
 20
-3.2494299999999998
 30
0.0
 10
-11.922129999999999
 20
-2.90266
 30
0.0
 10
-11.922129999999999
 20
-2.90266
 30
0.0
 10
-11.723330000000001
 20
-2.5558800000000002
 30
0.0
 10
-11.475199999999999
 20
-2.1552899999999999
 30
0.0
 10
-11.16281
 20
-1.69791
 30
0.0
 10
-11.16281
 20
-1.69791
 30
0.0
 10
-10.85042
 20
-1.2405200000000001
 30
0.0
 10
-10.473750000000001
 20
-0.72634
 30
0.0
 10
-10.143420000000001
 20
-0.28541
 30
0.0
 10
-10.143420000000001
 20
-0.28541
 30
0.0
 10
-9.8130799999999994
 20
0.15553
 30
0.0
 10
-9.5290800000000004
 20
0.52324
 30
0.0
 10
-9.2914300000000001
 20
0.87747
 30
0.0
 10
-9.2914300000000001
 20
0.87747
 30
0.0
 10
-9.0537600000000005
 20
1.23173
 30
0.0
 10
-8.8624399999999994
 20
1.57253
 30
0.0
 10
-8.7309099999999997
 20
1.85202
 30
0.0
 10
-8.7309099999999997
 20
1.85202
 30
0.0
 10
-8.5993600000000008
 20
2.1315400000000002
 30
0.0
 10
-8.5276200000000006
 20
2.3497699999999999
 30
0.0
 10
-8.4693299999999994
 20
2.6098499999999998
 30
0.0
 10
-8.4693299999999994
 20
2.6098499999999998
 30
0.0
 10
-8.4110399999999998
 20
2.8699300000000001
 30
0.0
 10
-8.3661899999999996
 20
3.1718700000000002
 30
0.0
 10
-8.3392800000000005
 20
3.45587
 30
0.0
 10
-8.3392800000000005
 20
3.45587
 30
0.0
 10
-8.3123900000000006
 20
3.7398600000000002
 30
0.0
 10
-8.3034099999999995
 20
4.0059199999999997
 30
0.0
 10
-8.3078800000000008
 20
4.29739
 30
0.0
 10
-8.3078800000000008
 20
4.29739
 30
0.0
 10
-8.3123900000000006
 20
4.5888499999999999
 30
0.0
 10
-8.3303200000000004
 20
4.9057300000000001
 30
0.0
 10
-8.3661899999999996
 20
5.1837499999999999
 30
0.0
 10
-8.3661899999999996
 20
5.1837499999999999
 30
0.0
 10
-8.4020600000000005
 20
5.4617699999999996
 30
0.0
 10
-8.4558700000000009
 20
5.7009299999999996
 30
0.0
 10
-8.5171500000000009
 20
5.9086800000000004
 30
0.0
 10
-8.5171500000000009
 20
5.9086800000000004
 30
0.0
 10
-8.5784400000000005
 20
6.11646
 30
0.0
 10
-8.6471999999999998
 20
6.2928300000000004
 30
0.0
 10
-8.7234099999999994
 20
6.4542599999999997
 30
0.0
 10
-8.7234099999999994
 20
6.4542599999999997
 30
0.0
 10
-8.7996599999999994
 20
6.6157000000000004
 30
0.0
 10
-8.8833699999999993
 20
6.7621900000000004
 30
0.0
 10
-8.9670699999999997
 20
6.9086600000000002
 30
0.0
 10
-8.9670699999999997
 20
6.9086600000000002
 30
0.0
 10
-8.8295600000000007
 20
6.6964100000000002
 30
0.0
 10
-8.6920300000000008
 20
6.4841699999999998
 30
0.0
 10
-8.5784400000000005
 20
6.2091399999999997
 30
0.0
 10
-8.5784400000000005
 20
6.2091399999999997
 30
0.0
 10
-8.4648400000000006
 20
5.9341200000000001
 30
0.0
 10
-8.3751499999999997
 20
5.5963099999999999
 30
0.0
 10
-8.3183500000000006
 20
5.2719699999999996
 30
0.0
 10
-8.3183500000000006
 20
5.2719699999999996
 30
0.0
 10
-8.2615599999999993
 20
4.9475899999999999
 30
0.0
 10
-8.2376400000000007
 20
4.6366899999999998
 30
0.0
 10
-8.2286800000000007
 20
4.3213299999999997
 30
0.0
 10
-8.2286800000000007
 20
4.3213299999999997
 30
0.0
 10
-8.2196999999999996
 20
4.0059199999999997
 30
0.0
 10
-8.2256900000000002
 20
3.6860499999999998
 30
0.0
 10
-8.25108
 20
3.3527300000000002
 30
0.0
 10
-8.25108
 20
3.3527300000000002
 30
0.0
 10
-8.2765000000000004
 20
3.0194100000000001
 30
0.0
 10
-8.3213500000000007
 20
2.6726299999999998
 30
0.0
 10
-8.4110399999999998
 20
2.2885
 30
0.0
 10
-8.4110399999999998
 20
2.2885
 30
0.0
 10
-8.5007099999999998
 20
1.90435
 30
0.0
 10
-8.63523
 20
1.4828399999999999
 30
0.0
 10
-8.7951700000000006
 20
1.07179
 30
0.0
 10
-8.7951700000000006
 20
1.07179
 30
0.0
 10
-8.9551099999999995
 20
0.66075
 30
0.0
 10
-9.1404599999999991
 20
0.26016
 30
0.0
 10
-9.34971
 20
-0.14489
 30
0.0
 10
-9.34971
 20
-0.14489
 30
0.0
 10
-9.55898
 20
-0.54996
 30
0.0
 10
-9.7921499999999995
 20
-0.95953
 30
0.0
 10
-10.02383
 20
-1.3331999999999999
 30
0.0
 10
-10.02383
 20
-1.3331999999999999
 30
0.0
 10
-10.255520000000001
 20
-1.70688
 30
0.0
 10
-10.4857
 20
-2.0446900000000001
 30
0.0
 10
-10.68599
 20
-2.3167200000000001
 30
0.0
 10
-10.68599
 20
-2.3167200000000001
 30
0.0
 10
-10.886290000000001
 20
-2.5887600000000002
 30
0.0
 10
-11.05668
 20
-2.7950300000000001
 30
0.0
 10
-11.23753
 20
-3.05213
 30
0.0
 10
-11.23753
 20
-3.05213
 30
0.0
 10
-11.41841
 20
-3.3092199999999998
 30
0.0
 10
-11.609719999999999
 20
-3.61714
 30
0.0
 10
-11.77563
 20
-3.9085899999999998
 30
0.0
 10
-11.77563
 20
-3.9085899999999998
 30
0.0
 10
-11.941560000000001
 20
-4.2000700000000002
 30
0.0
 10
-12.082050000000001
 20
-4.4750899999999998
 30
0.0
 10
-12.176209999999999
 20
-4.7007899999999996
 30
0.0
 10
-12.176209999999999
 20
-4.7007899999999996
 30
0.0
 10
-12.270390000000001
 20
-4.9264900000000003
 30
0.0
 10
-12.31823
 20
-5.1028900000000004
 30
0.0
 10
-12.34662
 20
-5.3031600000000001
 30
0.0
 10
-12.34662
 20
-5.3031600000000001
 30
0.0
 10
-12.375030000000001
 20
-5.5034599999999996
 30
0.0
 10
-12.383990000000001
 20
-5.7276699999999998
 30
0.0
 10
-12.375030000000001
 20
-5.91601
 30
0.0
 10
-12.375030000000001
 20
-5.91601
 30
0.0
 10
-12.36605
 20
-6.1043399999999997
 30
0.0
 10
-12.33914
 20
-6.2568000000000001
 30
0.0
 10
-12.312250000000001
 20
-6.4092700000000002
 30
0.0
  0
SPLINE
  5
26
100
AcDbEntity
  8
Default
100
AcDbSpline
210
0.0
220
0.0
230
1.0
 70
     1
 71
     3
 72
    56
 73
    52
 74
     0
 42
0.0000000001
 43
0.0000000001
 40
0.0
 40
0.0
 40
0.0
 40
0.0
 40
0.0769230769230769
 40
0.0769230769230769
 40
0.0769230769230769
 40
0.0769230769230769
 40
0.1538461538461539
 40
0.1538461538461539
 40
0.1538461538461539
 40
0.1538461538461539
 40
0.2307692307692308
 40
0.2307692307692308
 40
0.2307692307692308
 40
0.2307692307692308
 40
0.3076923076923077
 40
0.3076923076923077
 40
0.3076923076923077
 40
0.3076923076923077
 40
0.3846153846153846
 40
0.3846153846153846
 40
0.3846153846153846
 40
0.3846153846153846
 40
0.4615384615384616
 40
0.4615384615384616
 40
0.4615384615384616
 40
0.4615384615384616
 40
0.5384615384615386
 40
0.5384615384615386
 40
0.5384615384615386
 40
0.5384615384615386
 40
0.6153846153846154
 40
0.6153846153846154
 40
0.6153846153846154
 40
0.6153846153846154
 40
0.6923076923076923
 40
0.6923076923076923
 40
0.6923076923076923
 40
0.6923076923076923
 40
0.7692307692307692
 40
0.7692307692307692
 40
0.7692307692307692
 40
0.7692307692307692
 40
0.846153846153846
 40
0.846153846153846
 40
0.846153846153846
 40
0.846153846153846
 40
0.9230769230769229
 40
0.9230769230769229
 40
0.9230769230769229
 40
0.9230769230769229
 40
1.0
 40
1.0
 40
1.0
 40
1.0
 10
-8.0523000000000007
 20
4.3168199999999999
 30
0.0
 10
-8.0612600000000008
 20
3.9700500000000001
 30
0.0
 10
-8.0702400000000001
 20
3.6232700000000002
 30
0.0
 10
-8.0941600000000005
 20
3.2809900000000001
 30
0.0
 10
-8.0941600000000005
 20
3.2809900000000001
 30
0.0
 10
-8.1180599999999998
 20
2.9386999999999999
 30
0.0
 10
-8.1569199999999995
 20
2.6008900000000001
 30
0.0
 10
-8.2182099999999991
 20
2.2660800000000001
 30
0.0
 10
-8.2182099999999991
 20
2.2660800000000001
 30
0.0
 10
-8.2794899999999991
 20
1.93126
 30
0.0
 10
-8.3632000000000009
 20
1.5994200000000001
 30
0.0
 10
-8.4588599999999996
 20
1.29451
 30
0.0
 10
-8.4588599999999996
 20
1.29451
 30
0.0
 10
-8.5545200000000001
 20
0.98958
 30
0.0
 10
-8.6621400000000008
 20
0.71156
 30
0.0
 10
-8.7832000000000008
 20
0.46046
 30
0.0
 10
-8.7832000000000008
 20
0.46046
 30
0.0
 10
-8.9042899999999996
 20
0.20933
 30
0.0
 10
-9.0388099999999998
 20
-0.01485
 30
0.0
 10
-9.1524099999999997
 20
-0.18227
 30
0.0
 10
-9.1524099999999997
 20
-0.18227
 30
0.0
 10
-9.2660199999999993
 20
-0.34967
 30
0.0
 10
-9.3586899999999993
 20
-0.46029
 30
0.0
 10
-9.4513499999999997
 20
-0.57089
 30
0.0
 10
-9.4513499999999997
 20
-0.57089
 30
0.0
 10
-9.3317700000000006
 20
-0.45131
 30
0.0
 10
-9.2121999999999993
 20
-0.33173
 30
0.0
 10
-9.08216
 20
-0.15986
 30
0.0
 10
-9.08216
 20
-0.15986
 30
0.0
 10
-8.9521099999999993
 20
0.01203
 30
0.0
 10
-8.8116099999999999
 20
0.23624
 30
0.0
 10
-8.6830700000000007
 20
0.47314
 30
0.0
 10
-8.6830700000000007
 20
0.47314
 30
0.0
 10
-8.5545200000000001
 20
0.71007
 30
0.0
 10
-8.4379299999999997
 20
0.95969
 30
0.0
 10
-8.3497500000000002
 20
1.2182599999999999
 30
0.0
 10
-8.3497500000000002
 20
1.2182599999999999
 30
0.0
 10
-8.2615599999999993
 20
1.4768300000000001
 30
0.0
 10
-8.2017699999999998
 20
1.7444299999999999
 30
0.0
 10
-8.15395
 20
1.9783299999999999
 30
0.0
 10
-8.15395
 20
1.9783299999999999
 30
0.0
 10
-8.1061099999999993
 20
2.21225
 30
0.0
 10
-8.0702400000000001
 20
2.41255
 30
0.0
 10
-8.0463199999999997
 20
2.6576900000000001
 30
0.0
 10
-8.0463199999999997
 20
2.6576900000000001
 30
0.0
 10
-8.0223999999999993
 20
2.9028299999999998
 30
0.0
 10
-8.0104500000000005
 20
3.1928000000000001
 30
0.0
 10
-8.0134399999999992
 20
3.4767999999999999
 30
0.0
 10
-8.0134399999999992
 20
3.4767999999999999
 30
0.0
 10
-8.0164299999999997
 20
3.76078
 30
0.0
 10
-8.0343699999999991
 20
4.0388000000000002
 30
0.0
 10
-8.0523000000000007
 20
4.3168199999999999
 30
0.0
  0
SPLINE
  5
27
100
AcDbEntity
  8
Default
100
AcDbSpline
210
0.0
220
0.0
230
1.0
 70
     1
 71
     3
 72
    56
 73
    52
 74
     0
 42
0.0000000001
 43
0.0000000001
 40
0.0
 40
0.0
 40
0.0
 40
0.0
 40
0.0769230769230769
 40
0.0769230769230769
 40
0.0769230769230769
 40
0.0769230769230769
 40
0.1538461538461539
 40
0.1538461538461539
 40
0.1538461538461539
 40
0.1538461538461539
 40
0.2307692307692308
 40
0.2307692307692308
 40
0.2307692307692308
 40
0.2307692307692308
 40
0.3076923076923077
 40
0.3076923076923077
 40
0.3076923076923077
 40
0.3076923076923077
 40
0.3846153846153846
 40
0.3846153846153846
 40
0.3846153846153846
 40
0.3846153846153846
 40
0.4615384615384616
 40
0.4615384615384616
 40
0.4615384615384616
 40
0.4615384615384616
 40
0.5384615384615386
 40
0.5384615384615386
 40
0.5384615384615386
 40
0.5384615384615386
 40
0.6153846153846154
 40
0.6153846153846154
 40
0.6153846153846154
 40
0.6153846153846154
 40
0.6923076923076923
 40
0.6923076923076923
 40
0.6923076923076923
 40
0.6923076923076923
 40
0.7692307692307692
 40
0.7692307692307692
 40
0.7692307692307692
 40
0.7692307692307692
 40
0.846153846153846
 40
0.846153846153846
 40
0.846153846153846
 40
0.846153846153846
 40
0.9230769230769229
 40
0.9230769230769229
 40
0.9230769230769229
 40
0.9230769230769229
 40
1.0
 40
1.0
 40
1.0
 40
1.0
 10
-7.8101599999999998
 20
3.3572199999999999
 30
0.0
 10
-7.91479
 20
2.6995399999999998
 30
0.0
 10
-8.0194100000000006
 20
2.0418599999999998
 30
0.0
 10
-8.1389899999999997
 20
1.46191
 30
0.0
 10
-8.1389899999999997
 20
1.46191
 30
0.0
 10
-8.2585599999999992
 20
0.88195
 30
0.0
 10
-8.3931000000000004
 20
0.37974
 30
0.0
 10
-8.5141600000000004
 20
0.01203
 30
0.0
 10
-8.5141600000000004
 20
0.01203
 30
0.0
 10
-8.63523
 20
-0.35565
 30
0.0
 10
-8.7428600000000003
 20
-0.58883
 30
0.0
 10
-8.8788599999999995
 20
-0.81452
 30
0.0
 10
-8.8788599999999995
 20
-0.81452
 30
0.0
 10
-9.0148899999999994
 20
-1.0402400000000001
 30
0.0
 10
-9.1793200000000006
 20
-1.25847
 30
0.0
 10
-9.3242899999999995
 20
-1.42438
 30
0.0
 10
-9.3242899999999995
 20
-1.42438
 30
0.0
 10
-9.4692900000000009
 20
-1.5903
 30
0.0
 10
-9.5948499999999992
 20
-1.7038899999999999
 30
0.0
 10
-9.7144300000000001
 20
-1.80254
 30
0.0
 10
-9.7144300000000001
 20
-1.80254
 30
0.0
 10
-9.8340099999999993
 20
-1.9011899999999999
 30
0.0
 10
-9.9475999999999996
 20
-1.9849000000000001
 30
0.0
 10
-10.06119
 20
-2.0686100000000001
 30
0.0
 10
-10.06119
 20
-2.0686100000000001
 30
0.0
 10
-9.8250299999999999
 20
-1.9161300000000001
 30
0.0
 10
-9.58887
 20
-1.7636799999999999
 30
0.0
 10
-9.3885699999999996
 20
-1.59179
 30
0.0
 10
-9.3885699999999996
 20
-1.59179
 30
0.0
 10
-9.1882800000000007
 20
-1.4198900000000001
 30
0.0
 10
-9.0238700000000005
 20
-1.2285699999999999
 30
0.0
 10
-8.8968299999999996
 20
-1.06115
 30
0.0
 10
-8.8968299999999996
 20
-1.06115
 30
0.0
 10
-8.7697699999999994
 20
-0.89375
 30
0.0
 10
-8.6800800000000002
 20
-0.75026
 30
0.0
 10
-8.5859199999999998
 20
-0.5425
 30
0.0
 10
-8.5859199999999998
 20
-0.5425
 30
0.0
 10
-8.4917499999999997
 20
-0.33473
 30
0.0
 10
-8.3931000000000004
 20
-0.06269
 30
0.0
 10
-8.3213500000000007
 20
0.16
 30
0.0
 10
-8.3213500000000007
 20
0.16
 30
0.0
 10
-8.2496100000000006
 20
0.38273
 30
0.0
 10
-8.2047600000000003
 20
0.55611
 30
0.0
 10
-8.1464800000000004
 20
0.83114
 30
0.0
 10
-8.1464800000000004
 20
0.83114
 30
0.0
 10
-8.0881699999999999
 20
1.1061700000000001
 30
0.0
 10
-8.0164299999999997
 20
1.4828399999999999
 30
0.0
 10
-7.9581400000000002
 20
1.92079
 30
0.0
 10
-7.9581400000000002
 20
1.92079
 30
0.0
 10
-7.8998299999999997
 20
2.3587400000000001
 30
0.0
 10
-7.8550000000000004
 20
2.85798
 30
0.0
 10
-7.8101599999999998
 20
3.3572199999999999
 30
0.0
  0
SPLINE
  5
28
100
AcDbEntity
  8
Default
100
AcDbSpline
210
0.0
220
0.0
230
1.0
 70
     1
 71
     3
 72
    68
 73
    64
 74
     0
 42
0.0000000001
 43
0.0000000001
 40
0.0
 40
0.0
 40
0.0
 40
0.0
 40
0.0625
 40
0.0625
 40
0.0625
 40
0.0625
 40
0.125
 40
0.125
 40
0.125
 40
0.125
 40
0.1875
 40
0.1875
 40
0.1875
 40
0.1875
 40
0.25
 40
0.25
 40
0.25
 40
0.25
 40
0.3125
 40
0.3125
 40
0.3125
 40
0.3125
 40
0.375
 40
0.375
 40
0.375
 40
0.375
 40
0.4375
 40
0.4375
 40
0.4375
 40
0.4375
 40
0.5
 40
0.5
 40
0.5
 40
0.5
 40
0.5625
 40
0.5625
 40
0.5625
 40
0.5625
 40
0.625
 40
0.625
 40
0.625
 40
0.625
 40
0.6875
 40
0.6875
 40
0.6875
 40
0.6875
 40
0.75
 40
0.75
 40
0.75
 40
0.75
 40
0.8125
 40
0.8125
 40
0.8125
 40
0.8125
 40
0.875
 40
0.875
 40
0.875
 40
0.875
 40
0.9375
 40
0.9375
 40
0.9375
 40
0.9375
 40
1.0
 40
1.0
 40
1.0
 40
1.0
 10
-10.50962
 20
-3.0640800000000001
 30
0.0
 10
-10.285410000000001
 20
-2.93554
 30
0.0
 10
-10.06119
 20
-2.8069899999999999
 30
0.0
 10
-9.8474699999999995
 20
-2.6485500000000002
 30
0.0
 10
-9.8474699999999995
 20
-2.6485500000000002
 30
0.0
 10
-9.6337100000000007
 20
-2.49011
 30
0.0
 10
-9.4304299999999994
 20
-2.3017799999999999
 30
0.0
 10
-9.2361199999999997
 20
-2.0880399999999999
 30
0.0
 10
-9.2361199999999997
 20
-2.0880399999999999
 30
0.0
 10
-9.0418099999999999
 20
-1.8742799999999999
 30
0.0
 10
-8.8564500000000006
 20
-1.63514
 30
0.0
 10
-8.69801
 20
-1.3825400000000001
 30
0.0
 10
-8.69801
 20
-1.3825400000000001
 30
0.0
 10
-8.5395699999999994
 20
-1.12992
 30
0.0
 10
-8.4080499999999994
 20
-0.86385
 30
0.0
 10
-8.2944499999999994
 20
-0.5754
 30
0.0
 10
-8.2944499999999994
 20
-0.5754
 30
0.0
 10
-8.1808399999999999
 20
-0.28691
 30
0.0
 10
-8.0851799999999994
 20
0.024
 30
0.0
 10
-8.0059799999999992
 20
0.32294
 30
0.0
 10
-8.0059799999999992
 20
0.32294
 30
0.0
 10
-7.9267399999999997
 20
0.6218900000000001
 30
0.0
 10
-7.8639599999999996
 20
0.90886
 30
0.0
 10
-7.8176399999999999
 20
1.19435
 30
0.0
 10
-7.8176399999999999
 20
1.19435
 30
0.0
 10
-7.7712899999999996
 20
1.47984
 30
0.0
 10
-7.74139
 20
1.7638499999999999
 30
0.0
 10
-7.7264499999999998
 20
1.9596499999999999
 30
0.0
 10
-7.7264499999999998
 20
1.9596499999999999
 30
0.0
 10
-7.7115
 20
2.1554600000000002
 30
0.0
 10
-7.7115
 20
2.26308
 30
0.0
 10
-7.7115
 20
2.3706900000000002
 30
0.0
 10
-7.7115
 20
2.3706900000000002
 30
0.0
 10
-7.7025300000000003
 20
2.1913299999999998
 30
0.0
 10
-7.6935700000000002
 20
2.0119600000000002
 30
0.0
 10
-7.6995500000000003
 20
1.76085
 30
0.0
 10
-7.6995500000000003
 20
1.76085
 30
0.0
 10
-7.7055199999999999
 20
1.5097499999999999
 30
0.0
 10
-7.7264499999999998
 20
1.1868799999999999
 30
0.0
 10
-7.7593399999999999
 20
0.88794
 30
0.0
 10
-7.7593399999999999
 20
0.88794
 30
0.0
 10
-7.7922200000000004
 20
0.58899
 30
0.0
 10
-7.8370699999999998
 20
0.31397
 30
0.0
 10
-7.9102899999999998
 20
0.024
 30
0.0
 10
-7.9102899999999998
 20
0.024
 30
0.0
 10
-7.9835399999999996
 20
-0.26598
 30
0.0
 10
-8.0851799999999994
 20
-0.57089
 30
0.0
 10
-8.2167100000000008
 20
-0.85637
 30
0.0
 10
-8.2167100000000008
 20
-0.85637
 30
0.0
 10
-8.3482599999999998
 20
-1.1418699999999999
 30
0.0
 10
-8.5096900000000009
 20
-1.40794
 30
0.0
 10
-8.6920300000000008
 20
-1.64558
 30
0.0
 10
-8.6920300000000008
 20
-1.64558
 30
0.0
 10
-8.87439
 20
-1.8832599999999999
 30
0.0
 10
-9.0776800000000009
 20
-2.0925099999999999
 30
0.0
 10
-9.2749799999999993
 20
-2.2673899999999998
 30
0.0
 10
-9.2749799999999993
 20
-2.2673899999999998
 30
0.0
 10
-9.4722799999999996
 20
-2.4422799999999998
 30
0.0
 10
-9.6636000000000006
 20
-2.5827900000000001
 30
0.0
 10
-9.8683800000000002
 20
-2.7098300000000002
 30
0.0
 10
-9.8683800000000002
 20
-2.7098300000000002
 30
0.0
 10
-10.07316
 20
-2.8368899999999999
 30
0.0
 10
-10.29139
 20
-2.9504800000000002
 30
0.0
 10
-10.50962
 20
-3.0640800000000001
 30
0.0
  0
SPLINE
  5
29
100
AcDbEntity
  8
Default
100
AcDbSpline
210
0.0
220
0.0
230
1.0
 70
     1
 71
     3
 72
    60
 73
    56
 74
     0
 42
0.0000000001
 43
0.0000000001
 40
0.0
 40
0.0
 40
0.0
 40
0.0
 40
0.0714285714285714
 40
0.0714285714285714
 40
0.0714285714285714
 40
0.0714285714285714
 40
0.1428571428571429
 40
0.1428571428571429
 40
0.1428571428571429
 40
0.1428571428571429
 40
0.2142857142857143
 40
0.2142857142857143
 40
0.2142857142857143
 40
0.2142857142857143
 40
0.2857142857142857
 40
0.2857142857142857
 40
0.2857142857142857
 40
0.2857142857142857
 40
0.3571428571428571
 40
0.3571428571428571
 40
0.3571428571428571
 40
0.3571428571428571
 40
0.4285714285714285
 40
0.4285714285714285
 40
0.4285714285714285
 40
0.4285714285714285
 40
0.4999999999999999
 40
0.4999999999999999
 40
0.4999999999999999
 40
0.4999999999999999
 40
0.5714285714285713
 40
0.5714285714285713
 40
0.5714285714285713
 40
0.5714285714285713
 40
0.6428571428571427
 40
0.6428571428571427
 40
0.6428571428571427
 40
0.6428571428571427
 40
0.7142857142857141
 40
0.7142857142857141
 40
0.7142857142857141
 40
0.7142857142857141
 40
0.7857142857142855
 40
0.7857142857142855
 40
0.7857142857142855
 40
0.7857142857142855
 40
0.8571428571428569
 40
0.8571428571428569
 40
0.8571428571428569
 40
0.8571428571428569
 40
0.9285714285714283
 40
0.9285714285714283
 40
0.9285714285714283
 40
0.9285714285714283
 40
1.0
 40
1.0
 40
1.0
 40
1.0
 10
-9.2977100000000004
 20
-2.7662200000000001
 30
0.0
 10
-9.1008099999999992
 20
-2.629
 30
0.0
 10
-8.9039400000000004
 20
-2.4917500000000001
 30
0.0
 10
-8.7465799999999998
 20
-2.359
 30
0.0
 10
-8.7465799999999998
 20
-2.359
 30
0.0
 10
-8.5892099999999996
 20
-2.22627
 30
0.0
 10
-8.4713700000000003
 20
-2.0979700000000001
 30
0.0
 10
-8.3572799999999994
 20
-1.9451000000000001
 30
0.0
 10
-8.3572799999999994
 20
-1.9451000000000001
 30
0.0
 10
-8.2431800000000006
 20
-1.7922199999999999
 30
0.0
 10
-8.1327599999999993
 20
-1.61469
 30
0.0
 10
-8.0410500000000003
 20
-1.4319900000000001
 30
0.0
 10
-8.0410500000000003
 20
-1.4319900000000001
 30
0.0
 10
-7.9493200000000002
 20
-1.2492799999999999
 30
0.0
 10
-7.87622
 20
-1.06132
 30
0.0
 10
-7.80985
 20
-0.85029
 30
0.0
 10
-7.80985
 20
-0.85029
 30
0.0
 10
-7.7434799999999999
 20
-0.6392099999999999
 30
0.0
 10
-7.6838100000000003
 20
-0.40502
 30
0.0
 10
-7.6346100000000003
 20
-0.18802
 30
0.0
 10
-7.6346100000000003
 20
-0.18802
 30
0.0
 10
-7.5853799999999998
 20
0.029
 30
0.0
 10
-7.54657
 20
0.2289
 30
0.0
 10
-7.5212399999999997
 20
0.45485
 30
0.0
 10
-7.5212399999999997
 20
0.45485
 30
0.0
 10
-7.4958900000000002
 20
0.6808300000000001
 30
0.0
 10
-7.48393
 20
0.93292
 30
0.0
 10
-7.47201
 20
1.1849799999999999
 30
0.0
 10
-7.47201
 20
1.1849799999999999
 30
0.0
 10
-7.47201
 20
0.91949
 30
0.0
 10
-7.47201
 20
0.65398
 30
0.0
 10
-7.49139
 20
0.37656
 30
0.0
 10
-7.49139
 20
0.37656
 30
0.0
 10
-7.5107900000000001
 20
0.09912
 30
0.0
 10
-7.5495799999999997
 20
-0.19026
 30
0.0
 10
-7.5958199999999998
 20
-0.44456
 30
0.0
 10
-7.5958199999999998
 20
-0.44456
 30
0.0
 10
-7.6420399999999997
 20
-0.69888
 30
0.0
 10
-7.6957500000000003
 20
-0.91813
 30
0.0
 10
-7.7606299999999999
 20
-1.1157600000000001
 30
0.0
 10
-7.7606299999999999
 20
-1.1157600000000001
 30
0.0
 10
-7.82552
 20
-1.3133999999999999
 30
0.0
 10
-7.90158
 20
-1.48942
 30
0.0
 10
-7.9821299999999997
 20
-1.6378299999999999
 30
0.0
 10
-7.9821299999999997
 20
-1.6378299999999999
 30
0.0
 10
-8.0626700000000007
 20
-1.78624
 30
0.0
 10
-8.1476900000000008
 20
-1.90706
 30
0.0
 10
-8.2670100000000009
 20
-2.02861
 30
0.0
 10
-8.2670100000000009
 20
-2.02861
 30
0.0
 10
-8.3863500000000002
 20
-2.1501700000000001
 30
0.0
 10
-8.5399799999999999
 20
-2.27251
 30
0.0
 10
-8.7174800000000001
 20
-2.3955299999999999
 30
0.0
 10
-8.7174800000000001
 20
-2.3955299999999999
 30
0.0
 10
-8.8949800000000003
 20
-2.5186000000000002
 30
0.0
 10
-9.0963399999999996
 20
-2.6424300000000001
 30
0.0
 10
-9.2977100000000004
 20
-2.7662200000000001
 30
0.0
  0
SPLINE
  5
2A
100
AcDbEntity
  8
Default
100
AcDbSpline
210
0.0
220
0.0
230
1.0
 70
     1
 71
     3
 72
    44
 73
    40
 74
     0
 42
0.0000000001
 43
0.0000000001
 40
0.0
 40
0.0
 40
0.0
 40
0.0
 40
0.1
 40
0.1
 40
0.1
 40
0.1
 40
0.2
 40
0.2
 40
0.2
 40
0.2
 40
0.3
 40
0.3
 40
0.3
 40
0.3
 40
0.4
 40
0.4
 40
0.4
 40
0.4
 40
0.5
 40
0.5
 40
0.5
 40
0.5
 40
0.6
 40
0.6
 40
0.6
 40
0.6
 40
0.7
 40
0.7
 40
0.7
 40
0.7
 40
0.7999999999999999
 40
0.7999999999999999
 40
0.7999999999999999
 40
0.7999999999999999
 40
0.8999999999999999
 40
0.8999999999999999
 40
0.8999999999999999
 40
0.8999999999999999
 40
1.0
 40
1.0
 40
1.0
 40
1.0
 10
-6.8500100000000002
 20
0.46455
 30
0.0
 10
-6.8977300000000001
 20
0.22144
 30
0.0
 10
-6.9455
 20
-0.02171
 30
0.0
 10
-7.0297499999999999
 20
-0.2626
 30
0.0
 10
-7.0297499999999999
 20
-0.2626
 30
0.0
 10
-7.11402
 20
-0.50347
 30
0.0
 10
-7.2348400000000002
 20
-0.74213
 30
0.0
 10
-7.3347800000000003
 20
-0.92335
 30
0.0
 10
-7.3347800000000003
 20
-0.92335
 30
0.0
 10
-7.4347099999999999
 20
-1.1045700000000001
 30
0.0
 10
-7.5137900000000002
 20
-1.2283999999999999
 30
0.0
 10
-7.6114800000000002
 20
-1.35145
 30
0.0
 10
-7.6114800000000002
 20
-1.35145
 30
0.0
 10
-7.7091799999999999
 20
-1.4744900000000001
 30
0.0
 10
-7.82552
 20
-1.5968199999999999
 30
0.0
 10
-7.9418499999999996
 20
-1.71912
 30
0.0
 10
-7.9418499999999996
 20
-1.71912
 30
0.0
 10
-7.7882300000000004
 20
-1.58639
 30
0.0
 10
-7.6345799999999997
 20
-1.4536
 30
0.0
 10
-7.5115499999999997
 20
-1.3290599999999999
 30
0.0
 10
-7.5115499999999997
 20
-1.3290599999999999
 30
0.0
 10
-7.38849
 20
-1.20451
 30
0.0
 10
-7.2959899999999998
 20
-1.0881799999999999
 30
0.0
 10
-7.2184400000000002
 20
-0.97855
 30
0.0
 10
-7.2184400000000002
 20
-0.97855
 30
0.0
 10
-7.1408800000000001
 20
-0.86892
 30
0.0
 10
-7.0782400000000001
 20
-0.766
 30
0.0
 10
-7.0245300000000004
 20
-0.6437000000000001
 30
0.0
 10
-7.0245300000000004
 20
-0.6437000000000001
 30
0.0
 10
-6.9708300000000003
 20
-0.52139
 30
0.0
 10
-6.9260900000000003
 20
-0.37966
 30
0.0
 10
-6.8970000000000002
 20
-0.23946
 30
0.0
 10
-6.8970000000000002
 20
-0.23946
 30
0.0
 10
-6.8679100000000002
 20
-0.09926
 30
0.0
 10
-6.8544999999999998
 20
0.03945
 30
0.0
 10
-6.8492600000000001
 20
0.15653
 30
0.0
 10
-6.8492600000000001
 20
0.15653
 30
0.0
 10
-6.8440500000000002
 20
0.27363
 30
0.0
 10
-6.8470500000000003
 20
0.3691
 30
0.0
 10
-6.8500100000000002
 20
0.46455
 30
0.0
  0
SPLINE
  5
2B
100
AcDbEntity
  8
Default
100
AcDbSpline
210
0.0
220
0.0
230
1.0
 70
     1
 71
     3
 72
    36
 73
    32
 74
     0
 42
0.0000000001
 43
0.0000000001
 40
0.0
 40
0.0
 40
0.0
 40
0.0
 40
0.125
 40
0.125
 40
0.125
 40
0.125
 40
0.25
 40
0.25
 40
0.25
 40
0.25
 40
0.375
 40
0.375
 40
0.375
 40
0.375
 40
0.5
 40
0.5
 40
0.5
 40
0.5
 40
0.625
 40
0.625
 40
0.625
 40
0.625
 40
0.75
 40
0.75
 40
0.75
 40
0.75
 40
0.875
 40
0.875
 40
0.875
 40
0.875
 40
1.0
 40
1.0
 40
1.0
 40
1.0
 10
-6.3398899999999996
 20
0.14684
 30
0.0
 10
-6.3861299999999996
 20
-0.01722
 30
0.0
 10
-6.4323899999999998
 20
-0.1813
 30
0.0
 10
-6.4868100000000002
 20
-0.33046
 30
0.0
 10
-6.4868100000000002
 20
-0.33046
 30
0.0
 10
-6.5412600000000003
 20
-0.47962
 30
0.0
 10
-6.6039000000000003
 20
-0.61385
 30
0.0
 10
-6.65909
 20
-0.71527
 30
0.0
 10
-6.65909
 20
-0.71527
 30
0.0
 10
-6.71427
 20
-0.8167100000000001
 30
0.0
 10
-6.7620199999999997
 20
-0.88532
 30
0.0
 10
-6.8157100000000002
 20
-0.95618
 30
0.0
 10
-6.8157100000000002
 20
-0.95618
 30
0.0
 10
-6.8694100000000002
 20
-1.02702
 30
0.0
 10
-6.9290799999999999
 20
-1.10012
 30
0.0
 10
-6.9887300000000003
 20
-1.1732
 30
0.0
 10
-6.9887300000000003
 20
-1.1732
 30
0.0
 10
-6.8828399999999998
 20
-1.0792200000000001
 30
0.0
 10
-6.77691
 20
-0.98527
 30
0.0
 10
-6.69191
 20
-0.8928
 30
0.0
 10
-6.69191
 20
-0.8928
 30
0.0
 10
-6.6069000000000004
 20
-0.80031
 30
0.0
 10
-6.5427499999999998
 20
-0.7093
 30
0.0
 10
-6.4897999999999998
 20
-0.59372
 30
0.0
 10
-6.4897999999999998
 20
-0.59372
 30
0.0
 10
-6.4368600000000002
 20
-0.47812
 30
0.0
 10
-6.3950800000000001
 20
-0.33791
 30
0.0
 10
-6.3719700000000001
 20
-0.21039
 30
0.0
 10
-6.3719700000000001
 20
-0.21039
 30
0.0
 10
-6.3488499999999997
 20
-0.08287
 30
0.0
 10
-6.34436
 20
0.032
 30
0.0
 10
-6.3398899999999996
 20
0.14684
 30
0.0
  0
SPLINE
  5
2C
100
AcDbEntity
  8
Default
100
AcDbSpline
210
0.0
220
0.0
230
1.0
 70
     1
 71
     3
 72
    24
 73
    20
 74
     0
 42
0.0000000001
 43
0.0000000001
 40
0.0
 40
0.0
 40
0.0
 40
0.0
 40
0.2
 40
0.2
 40
0.2
 40
0.2
 40
0.4
 40
0.4
 40
0.4
 40
0.4
 40
0.6000000000000001
 40
0.6000000000000001
 40
0.6000000000000001
 40
0.6000000000000001
 40
0.8
 40
0.8
 40
0.8
 40
0.8
 40
1.0
 40
1.0
 40
1.0
 40
1.0
 10
-5.7089600000000003
 20
0.04839
 30
0.0
 10
-5.7760699999999998
 20
-0.0888
 30
0.0
 10
-5.8432000000000004
 20
-0.22606
 30
0.0
 10
-5.92448
 20
-0.35955
 30
0.0
 10
-5.92448
 20
-0.35955
 30
0.0
 10
-6.0057799999999997
 20
-0.49303
 30
0.0
 10
-6.1012500000000003
 20
-0.62281
 30
0.0
 10
-6.1966999999999999
 20
-0.75257
 30
0.0
 10
-6.1966999999999999
 20
-0.75257
 30
0.0
 10
-6.1176700000000004
 20
-0.68248
 30
0.0
 10
-6.0385900000000001
 20
-0.61235
 30
0.0
 10
-5.9670199999999998
 20
-0.5243600000000001
 30
0.0
 10
-5.9670199999999998
 20
-0.5243600000000001
 30
0.0
 10
-5.89541
 20
-0.43637
 30
0.0
 10
-5.8312499999999998
 20
-0.33044
 30
0.0
 10
-5.7895000000000003
 20
-0.23201
 30
0.0
 10
-5.7895000000000003
 20
-0.23201
 30
0.0
 10
-5.7477499999999999
 20
-0.13357
 30
0.0
 10
-5.7283400000000002
 20
-0.04256
 30
0.0
 10
-5.7089600000000003
 20
0.04839
 30
0.0
  0
SPLINE
  5
2D
100
AcDbEntity
  8
Default
100
AcDbSpline
210
0.0
220
0.0
230
1.0
 70
     1
 71
     3
 72
    20
 73
    16
 74
     0
 42
0.0000000001
 43
0.0000000001
 40
0.0
 40
0.0
 40
0.0
 40
0.0
 40
0.25
 40
0.25
 40
0.25
 40
0.25
 40
0.5
 40
0.5
 40
0.5
 40
0.5
 40
0.75
 40
0.75
 40
0.75
 40
0.75
 40
1.0
 40
1.0
 40
1.0
 40
1.0
 10
-5.18872
 20
0.07524
 30
0.0
 10
-5.2552599999999998
 20
-0.04168
 30
0.0
 10
-5.3217999999999996
 20
-0.15864
 30
0.0
 10
-5.37934
 20
-0.24969
 30
0.0
 10
-5.37934
 20
-0.24969
 30
0.0
 10
-5.4369199999999998
 20
-0.34076
 30
0.0
 10
-5.4855400000000003
 20
-0.40601
 30
0.0
 10
-5.5341300000000002
 20
-0.4712
 30
0.0
 10
-5.5341300000000002
 20
-0.4712
 30
0.0
 10
-5.4660900000000003
 20
-0.40449
 30
0.0
 10
-5.3980399999999999
 20
-0.33777
 30
0.0
 10
-5.3404800000000003
 20
-0.24672
 30
0.0
 10
-5.3404800000000003
 20
-0.24672
 30
0.0
 10
-5.2829199999999998
 20
-0.15565
 30
0.0
 10
-5.2358099999999999
 20
-0.04018
 30
0.0
 10
-5.18872
 20
0.07524
 30
0.0
  0
SPLINE
  5
2E
100
AcDbEntity
  8
Default
100
AcDbSpline
210
0.0
220
0.0
230
1.0
 70
     1
 71
     3
 72
   148
 73
   144
 74
     0
 42
0.0000000001
 43
0.0000000001
 40
0.0
 40
0.0
 40
0.0
 40
0.0
 40
0.0277777777777778
 40
0.0277777777777778
 40
0.0277777777777778
 40
0.0277777777777778
 40
0.0555555555555556
 40
0.0555555555555556
 40
0.0555555555555556
 40
0.0555555555555556
 40
0.0833333333333333
 40
0.0833333333333333
 40
0.0833333333333333
 40
0.0833333333333333
 40
0.1111111111111111
 40
0.1111111111111111
 40
0.1111111111111111
 40
0.1111111111111111
 40
0.1388888888888889
 40
0.1388888888888889
 40
0.1388888888888889
 40
0.1388888888888889
 40
0.1666666666666667
 40
0.1666666666666667
 40
0.1666666666666667
 40
0.1666666666666667
 40
0.1944444444444445
 40
0.1944444444444445
 40
0.1944444444444445
 40
0.1944444444444445
 40
0.2222222222222223
 40
0.2222222222222223
 40
0.2222222222222223
 40
0.2222222222222223
 40
0.2500000000000001
 40
0.2500000000000001
 40
0.2500000000000001
 40
0.2500000000000001
 40
0.2777777777777779
 40
0.2777777777777779
 40
0.2777777777777779
 40
0.2777777777777779
 40
0.3055555555555556
 40
0.3055555555555556
 40
0.3055555555555556
 40
0.3055555555555556
 40
0.3333333333333334
 40
0.3333333333333334
 40
0.3333333333333334
 40
0.3333333333333334
 40
0.3611111111111112
 40
0.3611111111111112
 40
0.3611111111111112
 40
0.3611111111111112
 40
0.388888888888889
 40
0.388888888888889
 40
0.388888888888889
 40
0.388888888888889
 40
0.4166666666666668
 40
0.4166666666666668
 40
0.4166666666666668
 40
0.4166666666666668
 40
0.4444444444444446
 40
0.4444444444444446
 40
0.4444444444444446
 40
0.4444444444444446
 40
0.4722222222222224
 40
0.4722222222222224
 40
0.4722222222222224
 40
0.4722222222222224
 40
0.5000000000000001
 40
0.5000000000000001
 40
0.5000000000000001
 40
0.5000000000000001
 40
0.5277777777777779
 40
0.5277777777777779
 40
0.5277777777777779
 40
0.5277777777777779
 40
0.5555555555555557
 40
0.5555555555555557
 40
0.5555555555555557
 40
0.5555555555555557
 40
0.5833333333333335
 40
0.5833333333333335
 40
0.5833333333333335
 40
0.5833333333333335
 40
0.6111111111111113
 40
0.6111111111111113
 40
0.6111111111111113
 40
0.6111111111111113
 40
0.6388888888888891
 40
0.6388888888888891
 40
0.6388888888888891
 40
0.6388888888888891
 40
0.6666666666666669
 40
0.6666666666666669
 40
0.6666666666666669
 40
0.6666666666666669
 40
0.6944444444444446
 40
0.6944444444444446
 40
0.6944444444444446
 40
0.6944444444444446
 40
0.7222222222222224
 40
0.7222222222222224
 40
0.7222222222222224
 40
0.7222222222222224
 40
0.7500000000000002
 40
0.7500000000000002
 40
0.7500000000000002
 40
0.7500000000000002
 40
0.777777777777778
 40
0.777777777777778
 40
0.777777777777778
 40
0.777777777777778
 40
0.8055555555555558
 40
0.8055555555555558
 40
0.8055555555555558
 40
0.8055555555555558
 40
0.8333333333333336
 40
0.8333333333333336
 40
0.8333333333333336
 40
0.8333333333333336
 40
0.8611111111111114
 40
0.8611111111111114
 40
0.8611111111111114
 40
0.8611111111111114
 40
0.8888888888888892
 40
0.8888888888888892
 40
0.8888888888888892
 40
0.8888888888888892
 40
0.916666666666667
 40
0.916666666666667
 40
0.916666666666667
 40
0.916666666666667
 40
0.9444444444444448
 40
0.9444444444444448
 40
0.9444444444444448
 40
0.9444444444444448
 40
0.9722222222222225
 40
0.9722222222222225
 40
0.9722222222222225
 40
0.9722222222222225
 40
1.0
 40
1.0
 40
1.0
 40
1.0
 10
-10.975960000000001
 20
-8.1760300000000008
 30
0.0
 10
-10.949070000000001
 20
-7.7843999999999998
 30
0.0
 10
-10.92216
 20
-7.3927899999999998
 30
0.0
 10
-10.87135
 20
-7.0310600000000001
 30
0.0
 10
-10.87135
 20
-7.0310600000000001
 30
0.0
 10
-10.82052
 20
-6.6693499999999997
 30
0.0
 10
-10.74578
 20
-6.33751
 30
0.0
 10
-10.63668
 20
-5.9832799999999997
 30
0.0
 10
-10.63668
 20
-5.9832799999999997
 30
0.0
 10
-10.52755
 20
-5.6290199999999997
 30
0.0
 10
-10.38406
 20
-5.2523499999999999
 30
0.0
 10
-10.22115
 20
-4.8906200000000002
 30
0.0
 10
-10.22115
 20
-4.8906200000000002
 30
0.0
 10
-10.05822
 20
-4.5289200000000003
 30
0.0
 10
-9.8758599999999994
 20
-4.1821299999999999
 30
0.0
 10
-9.6875199999999992
 20
-3.8712399999999998
 30
0.0
 10
-9.6875199999999992
 20
-3.8712399999999998
 30
0.0
 10
-9.4991900000000005
 20
-3.5603199999999999
 30
0.0
 10
-9.3048800000000007
 20
-3.2852999999999999
 30
0.0
 10
-9.0851600000000001
 20
-3.02224
 30
0.0
 10
-9.0851600000000001
 20
-3.02224
 30
0.0
 10
-8.8654299999999999
 20
-2.7591600000000001
 30
0.0
 10
-8.6202900000000007
 20
-2.5080399999999998
 30
0.0
 10
-8.3841300000000007
 20
-2.2823500000000001
 30
0.0
 10
-8.3841300000000007
 20
-2.2823500000000001
 30
0.0
 10
-8.1479599999999994
 20
-2.0566399999999998
 30
0.0
 10
-7.9207599999999996
 20
-1.8563499999999999
 30
0.0
 10
-7.6741400000000004
 20
-1.6769799999999999
 30
0.0
 10
-7.6741400000000004
 20
-1.6769799999999999
 30
0.0
 10
-7.4275000000000002
 20
-1.4976100000000001
 30
0.0
 10
-7.1614500000000003
 20
-1.33917
 30
0.0
 10
-6.8819400000000002
 20
-1.1956899999999999
 30
0.0
 10
-6.8819400000000002
 20
-1.1956899999999999
 30
0.0
 10
-6.6024200000000004
 20
-1.05219
 30
0.0
 10
-6.3094599999999996
 20
-0.92364
 30
0.0
 10
-5.9895899999999997
 20
-0.79211
 30
0.0
 10
-5.9895899999999997
 20
-0.79211
 30
0.0
 10
-5.6697199999999999
 20
-0.66058
 30
0.0
 10
-5.32294
 20
-0.52604
 30
0.0
 10
-4.9717000000000002
 20
-0.37658
 30
0.0
 10
-4.9717000000000002
 20
-0.37658
 30
0.0
 10
-4.6204299999999998
 20
-0.22712
 30
0.0
 10
-4.2646899999999999
 20
-0.06269
 30
0.0
 10
-3.8835500000000001
 20
0.11666
 30
0.0
 10
-3.8835500000000001
 20
0.11666
 30
0.0
 10
-3.50237
 20
0.29603
 30
0.0
 10
-3.0958199999999998
 20
0.49034
 30
0.0
 10
-2.7251300000000001
 20
0.70408
 30
0.0
 10
-2.7251300000000001
 20
0.70408
 30
0.0
 10
-2.3544299999999998
 20
0.91784
 30
0.0
 10
-2.0196200000000002
 20
1.1510100000000001
 30
0.0
 10
-1.7161999999999999
 20
1.39913
 30
0.0
 10
-1.7161999999999999
 20
1.39913
 30
0.0
 10
-1.4127700000000001
 20
1.6472599999999999
 30
0.0
 10
-1.14072
 20
1.9103300000000001
 30
0.0
 10
-0.93595
 20
2.1390199999999999
 30
0.0
 10
-0.93595
 20
2.1390199999999999
 30
0.0
 10
-0.73117
 20
2.3677199999999998
 30
0.0
 10
-0.59366
 20
2.56203
 30
0.0
 10
-0.47109
 20
2.7682899999999999
 30
0.0
 10
-0.47109
 20
2.7682899999999999
 30
0.0
 10
-0.34852
 20
2.9745699999999999
 30
0.0
 10
-0.24091
 20
3.1928000000000001
 30
0.0
 10
-0.14674
 20
3.42597
 30
0.0
 10
-0.14674
 20
3.42597
 30
0.0
 10
-0.05256
 20
3.6591399999999998
 30
0.0
 10
0.02814
 20
3.90727
 30
0.0
 10
0.0924
 20
4.1494200000000001
 30
0.0
 10
0.0924
 20
4.1494200000000001
 30
0.0
 10
0.15668
 20
4.3915499999999996
 30
0.0
 10
0.20452
 20
4.6277299999999997
 30
0.0
 10
0.22842
 20
4.8698600000000001
 30
0.0
 10
0.22842
 20
4.8698600000000001
 30
0.0
 10
0.25234
 20
5.1120099999999997
 30
0.0
 10
0.25234
 20
5.3601400000000003
 30
0.0
 10
0.25234
 20
5.6082599999999996
 30
0.0
 10
0.25234
 20
5.6082599999999996
 30
0.0
 10
0.2673
 20
5.3990099999999996
 30
0.0
 10
0.28224
 20
5.1897399999999996
 30
0.0
 10
0.27327
 20
4.9550900000000002
 30
0.0
 10
0.27327
 20
4.9550900000000002
 30
0.0
 10
0.26431
 20
4.7203999999999997
 30
0.0
 10
0.23141
 20
4.4603200000000003
 30
0.0
 10
0.16715
 20
4.1852900000000002
 30
0.0
 10
0.16715
 20
4.1852900000000002
 30
0.0
 10
0.10288
 20
3.9102700000000001
 30
0.0
 10
0.00722
 20
3.6202800000000002
 30
0.0
 10
-0.09889
 20
3.3557299999999999
 30
0.0
 10
-0.09889
 20
3.3557299999999999
 30
0.0
 10
-0.20504
 20
3.0911499999999998
 30
0.0
 10
-0.32162
 20
2.8519999999999999
 30
0.0
 10
-0.46512
 20
2.61883
 30
0.0
 10
-0.46512
 20
2.61883
 30
0.0
 10
-0.6086
 20
2.38565
 30
0.0
 10
-0.77901
 20
2.1584500000000002
 30
0.0
 10
-0.95088
 20
1.9492
 30
0.0
 10
-0.95088
 20
1.9492
 30
0.0
 10
-1.1227799999999999
 20
1.73993
 30
0.0
 10
-1.2961800000000001
 20
1.54861
 30
0.0
 10
-1.5218700000000001
 20
1.3453200000000001
 30
0.0
 10
-1.5218700000000001
 20
1.3453200000000001
 30
0.0
 10
-1.7475799999999999
 20
1.1420399999999999
 30
0.0
 10
-2.0255999999999998
 20
0.9268
 30
0.0
 10
-2.3499400000000001
 20
0.69812
 30
0.0
 10
-2.3499400000000001
 20
0.69812
 30
0.0
 10
-2.6743000000000001
 20
0.46941
 30
0.0
 10
-3.0449899999999999
 20
0.22728
 30
0.0
 10
-3.4455800000000001
 20
-0.00889
 30
0.0
 10
-3.4455800000000001
 20
-0.00889
 30
0.0
 10
-3.8461599999999998
 20
-0.24505
 30
0.0
 10
-4.2766400000000004
 20
-0.47523
 30
0.0
 10
-4.6936600000000004
 20
-0.6979300000000001
 30
0.0
 10
-4.6936600000000004
 20
-0.6979300000000001
 30
0.0
 10
-5.11069
 20
-0.92067
 30
0.0
 10
-5.5142699999999998
 20
-1.1358999999999999
 30
0.0
 10
-5.9327899999999998
 20
-1.3780300000000001
 30
0.0
 10
-5.9327899999999998
 20
-1.3780300000000001
 30
0.0
 10
-6.3513200000000003
 20
-1.62018
 30
0.0
 10
-6.7847799999999996
 20
-1.88924
 30
0.0
 10
-7.1674199999999999
 20
-2.1418300000000001
 30
0.0
 10
-7.1674199999999999
 20
-2.1418300000000001
 30
0.0
 10
-7.5500699999999998
 20
-2.39445
 30
0.0
 10
-7.8818999999999999
 20
-2.6306099999999999
 30
0.0
 10
-8.2122200000000003
 20
-2.9220799999999998
 30
0.0
 10
-8.2122200000000003
 20
-2.9220799999999998
 30
0.0
 10
-8.5425699999999996
 20
-3.2135600000000002
 30
0.0
 10
-8.8713999999999995
 20
-3.5603199999999999
 30
0.0
 10
-9.1359700000000004
 20
-3.8652500000000001
 30
0.0
 10
-9.1359700000000004
 20
-3.8652500000000001
 30
0.0
 10
-9.4005399999999995
 20
-4.1701800000000002
 30
0.0
 10
-9.6008300000000002
 20
-4.4332399999999996
 30
0.0
 10
-9.7966200000000008
 20
-4.7411599999999998
 30
0.0
 10
-9.7966200000000008
 20
-4.7411599999999998
 30
0.0
 10
-9.9924499999999998
 20
-5.0490599999999999
 30
0.0
 10
-10.183759999999999
 20
-5.4018100000000002
 30
0.0
 10
-10.33624
 20
-5.7560599999999997
 30
0.0
 10
-10.33624
 20
-5.7560599999999997
 30
0.0
 10
-10.48869
 20
-6.1103199999999998
 30
0.0
 10
-10.60229
 20
-6.4660700000000002
 30
0.0
 10
-10.70242
 20
-6.8696299999999999
 30
0.0
 10
-10.70242
 20
-6.8696299999999999
 30
0.0
 10
-10.802580000000001
 20
-7.2732099999999997
 30
0.0
 10
-10.889279999999999
 20
-7.7246100000000002
 30
0.0
 10
-10.975960000000001
 20
-8.1760300000000008
 30
0.0
  0
SPLINE
  5
2F
100
AcDbEntity
  8
Default
100
AcDbSpline
210
0.0
220
0.0
230
1.0
 70
     1
 71
     3
 72
   100
 73
    96
 74
     0
 42
0.0000000001
 43
0.0000000001
 40
0.0
 40
0.0
 40
0.0
 40
0.0
 40
0.0416666666666667
 40
0.0416666666666667
 40
0.0416666666666667
 40
0.0416666666666667
 40
0.0833333333333333
 40
0.0833333333333333
 40
0.0833333333333333
 40
0.0833333333333333
 40
0.125
 40
0.125
 40
0.125
 40
0.125
 40
0.1666666666666667
 40
0.1666666666666667
 40
0.1666666666666667
 40
0.1666666666666667
 40
0.2083333333333333
 40
0.2083333333333333
 40
0.2083333333333333
 40
0.2083333333333333
 40
0.25
 40
0.25
 40
0.25
 40
0.25
 40
0.2916666666666666
 40
0.2916666666666666
 40
0.2916666666666666
 40
0.2916666666666666
 40
0.3333333333333333
 40
0.3333333333333333
 40
0.3333333333333333
 40
0.3333333333333333
 40
0.375
 40
0.375
 40
0.375
 40
0.375
 40
0.4166666666666667
 40
0.4166666666666667
 40
0.4166666666666667
 40
0.4166666666666667
 40
0.4583333333333334
 40
0.4583333333333334
 40
0.4583333333333334
 40
0.4583333333333334
 40
0.5
 40
0.5
 40
0.5
 40
0.5
 40
0.5416666666666666
 40
0.5416666666666666
 40
0.5416666666666666
 40
0.5416666666666666
 40
0.5833333333333333
 40
0.5833333333333333
 40
0.5833333333333333
 40
0.5833333333333333
 40
0.6249999999999999
 40
0.6249999999999999
 40
0.6249999999999999
 40
0.6249999999999999
 40
0.6666666666666665
 40
0.6666666666666665
 40
0.6666666666666665
 40
0.6666666666666665
 40
0.7083333333333332
 40
0.7083333333333332
 40
0.7083333333333332
 40
0.7083333333333332
 40
0.7499999999999998
 40
0.7499999999999998
 40
0.7499999999999998
 40
0.7499999999999998
 40
0.7916666666666664
 40
0.7916666666666664
 40
0.7916666666666664
 40
0.7916666666666664
 40
0.833333333333333
 40
0.833333333333333
 40
0.833333333333333
 40
0.833333333333333
 40
0.8749999999999997
 40
0.8749999999999997
 40
0.8749999999999997
 40
0.8749999999999997
 40
0.9166666666666663
 40
0.9166666666666663
 40
0.9166666666666663
 40
0.9166666666666663
 40
0.9583333333333329
 40
0.9583333333333329
 40
0.9583333333333329
 40
0.9583333333333329
 40
1.0
 40
1.0
 40
1.0
 40
1.0
 10
-10.81453
 20
-6.36442
 30
0.0
 10
-11.17925
 20
-6.5348100000000002
 30
0.0
 10
-11.54397
 20
-6.7052199999999997
 30
0.0
 10
-11.908670000000001
 20
-6.8367500000000003
 30
0.0
 10
-11.908670000000001
 20
-6.8367500000000003
 30
0.0
 10
-12.273389999999999
 20
-6.96828
 30
0.0
 10
-12.63809
 20
-7.0609599999999997
 30
0.0
 10
-12.96095
 20
-7.1043000000000003
 30
0.0
 10
-12.96095
 20
-7.1043000000000003
 30
0.0
 10
-13.28382
 20
-7.1476499999999996
 30
0.0
 10
-13.564830000000001
 20
-7.14168
 30
0.0
 10
-13.851800000000001
 20
-7.0714399999999999
 30
0.0
 10
-13.851800000000001
 20
-7.0714399999999999
 30
0.0
 10
-14.1388
 20
-7.0011700000000001
 30
0.0
 10
-14.431760000000001
 20
-6.8666499999999999
 30
0.0
 10
-14.75311
 20
-6.7455800000000004
 30
0.0
 10
-14.75311
 20
-6.7455800000000004
 30
0.0
 10
-15.074479999999999
 20
-6.6245099999999999
 30
0.0
 10
-15.424250000000001
 20
-6.5168799999999996
 30
0.0
 10
-15.66189
 20
-6.4556100000000001
 30
0.0
 10
-15.66189
 20
-6.4556100000000001
 30
0.0
 10
-15.899570000000001
 20
-6.3943099999999999
 30
0.0
 10
-16.025130000000001
 20
-6.3793699999999998
 30
0.0
 10
-16.16113
 20
-6.3704099999999997
 30
0.0
 10
-16.16113
 20
-6.3704099999999997
 30
0.0
 10
-16.297170000000001
 20
-6.3614300000000004
 30
0.0
 10
-16.443639999999998
 20
-6.3584399999999999
 30
0.0
 10
-16.570679999999999
 20
-6.3763699999999996
 30
0.0
 10
-16.570679999999999
 20
-6.3763699999999996
 30
0.0
 10
-16.697759999999999
 20
-6.3943099999999999
 30
0.0
 10
-16.80537
 20
-6.4331699999999996
 30
0.0
 10
-16.890550000000001
 20
-6.4750199999999998
 30
0.0
 10
-16.890550000000001
 20
-6.4750199999999998
 30
0.0
 10
-16.975770000000001
 20
-6.5168799999999996
 30
0.0
 10
-17.038540000000001
 20
-6.5617200000000002
 30
0.0
 10
-17.083379999999998
 20
-6.61104
 30
0.0
 10
-17.083379999999998
 20
-6.61104
 30
0.0
 10
-17.128229999999999
 20
-6.66038
 30
0.0
 10
-17.15512
 20
-6.7141799999999998
 30
0.0
 10
-17.162600000000001
 20
-6.7769599999999999
 30
0.0
 10
-17.162600000000001
 20
-6.7769599999999999
 30
0.0
 10
-17.170079999999999
 20
-6.8397399999999999
 30
0.0
 10
-17.15812
 20
-6.9114800000000001
 30
0.0
 10
-17.141690000000001
 20
-6.9653
 30
0.0
 10
-17.141690000000001
 20
-6.9653
 30
0.0
 10
-17.125240000000002
 20
-7.0191100000000004
 30
0.0
 10
-17.104310000000002
 20
-7.0549799999999996
 30
0.0
 10
-17.059460000000001
 20
-7.0968299999999997
 30
0.0
 10
-17.059460000000001
 20
-7.0968299999999997
 30
0.0
 10
-17.01464
 20
-7.1386900000000004
 30
0.0
 10
-16.945869999999999
 20
-7.1865100000000002
 30
0.0
 10
-16.877120000000001
 20
-7.2343500000000001
 30
0.0
 10
-16.877120000000001
 20
-7.2343500000000001
 30
0.0
 10
-16.987719999999999
 20
-7.1655800000000003
 30
0.0
 10
-17.098330000000001
 20
-7.0968299999999997
 30
0.0
 10
-17.171559999999999
 20
-7.0206099999999996
 30
0.0
 10
-17.171559999999999
 20
-7.0206099999999996
 30
0.0
 10
-17.244820000000001
 20
-6.9443799999999998
 30
0.0
 10
-17.28069
 20
-6.8606699999999998
 30
0.0
 10
-17.28368
 20
-6.7784700000000004
 30
0.0
 10
-17.28368
 20
-6.7784700000000004
 30
0.0
 10
-17.286670000000001
 20
-6.69625
 30
0.0
 10
-17.256769999999999
 20
-6.6155299999999997
 30
0.0
 10
-17.207450000000001
 20
-6.5557400000000001
 30
0.0
 10
-17.207450000000001
 20
-6.5557400000000001
 30
0.0
 10
-17.15812
 20
-6.4959499999999997
 30
0.0
 10
-17.089369999999999
 20
-6.45709
 30
0.0
 10
-16.99371
 20
-6.4227299999999996
 30
0.0
 10
-16.99371
 20
-6.4227299999999996
 30
0.0
 10
-16.898029999999999
 20
-6.3883400000000004
 30
0.0
 10
-16.775480000000002
 20
-6.3584399999999999
 30
0.0
 10
-16.612549999999999
 20
-6.3360300000000001
 30
0.0
 10
-16.612549999999999
 20
-6.3360300000000001
 30
0.0
 10
-16.449619999999999
 20
-6.3135899999999996
 30
0.0
 10
-16.24634
 20
-6.2986500000000003
 30
0.0
 10
-15.9773
 20
-6.2986500000000003
 30
0.0
 10
-15.9773
 20
-6.2986500000000003
 30
0.0
 10
-15.70824
 20
-6.2986500000000003
 30
0.0
 10
-15.373419999999999
 20
-6.3135899999999996
 30
0.0
 10
-14.957890000000001
 20
-6.37338
 30
0.0
 10
-14.957890000000001
 20
-6.37338
 30
0.0
 10
-14.54236
 20
-6.4331699999999996
 30
0.0
 10
-14.046110000000001
 20
-6.5378100000000003
 30
0.0
 10
-13.668799999999999
 20
-6.6175199999999998
 30
0.0
 10
-13.668799999999999
 20
-6.6175199999999998
 30
0.0
 10
-13.291449999999999
 20
-6.6972699999999996
 30
0.0
 10
-13.033010000000001
 20
-6.7520899999999999
 30
0.0
 10
-12.738250000000001
 20
-6.7705500000000001
 30
0.0
 10
-12.738250000000001
 20
-6.7705500000000001
 30
0.0
 10
-12.44345
 20
-6.7890100000000002
 30
0.0
 10
-12.11233
 20
-6.7711100000000002
 30
0.0
 10
-11.78566
 20
-6.6973799999999999
 30
0.0
 10
-11.78566
 20
-6.6973799999999999
 30
0.0
 10
-11.45898
 20
-6.6236199999999998
 30
0.0
 10
-11.136749999999999
 20
-6.4940100000000003
 30
0.0
 10
-10.81453
 20
-6.36442
 30
0.0
  0
SPLINE
  5
30
100
AcDbEntity
  8
Default
100
AcDbSpline
210
0.0
220
0.0
230
1.0
 70
     1
 71
     3
 72
   116
 73
   112
 74
     0
 42
0.0000000001
 43
0.0000000001
 40
0.0
 40
0.0
 40
0.0
 40
0.0
 40
0.0357142857142857
 40
0.0357142857142857
 40
0.0357142857142857
 40
0.0357142857142857
 40
0.0714285714285714
 40
0.0714285714285714
 40
0.0714285714285714
 40
0.0714285714285714
 40
0.1071428571428571
 40
0.1071428571428571
 40
0.1071428571428571
 40
0.1071428571428571
 40
0.1428571428571429
 40
0.1428571428571429
 40
0.1428571428571429
 40
0.1428571428571429
 40
0.1785714285714286
 40
0.1785714285714286
 40
0.1785714285714286
 40
0.1785714285714286
 40
0.2142857142857143
 40
0.2142857142857143
 40
0.2142857142857143
 40
0.2142857142857143
 40
0.2499999999999999
 40
0.2499999999999999
 40
0.2499999999999999
 40
0.2499999999999999
 40
0.2857142857142856
 40
0.2857142857142856
 40
0.2857142857142856
 40
0.2857142857142856
 40
0.3214285714285713
 40
0.3214285714285713
 40
0.3214285714285713
 40
0.3214285714285713
 40
0.357142857142857
 40
0.357142857142857
 40
0.357142857142857
 40
0.357142857142857
 40
0.3928571428571427
 40
0.3928571428571427
 40
0.3928571428571427
 40
0.3928571428571427
 40
0.4285714285714284
 40
0.4285714285714284
 40
0.4285714285714284
 40
0.4285714285714284
 40
0.4642857142857141
 40
0.4642857142857141
 40
0.4642857142857141
 40
0.4642857142857141
 40
0.4999999999999998
 40
0.4999999999999998
 40
0.4999999999999998
 40
0.4999999999999998
 40
0.5357142857142856
 40
0.5357142857142856
 40
0.5357142857142856
 40
0.5357142857142856
 40
0.5714285714285713
 40
0.5714285714285713
 40
0.5714285714285713
 40
0.5714285714285713
 40
0.607142857142857
 40
0.607142857142857
 40
0.607142857142857
 40
0.607142857142857
 40
0.6428571428571427
 40
0.6428571428571427
 40
0.6428571428571427
 40
0.6428571428571427
 40
0.6785714285714284
 40
0.6785714285714284
 40
0.6785714285714284
 40
0.6785714285714284
 40
0.7142857142857141
 40
0.7142857142857141
 40
0.7142857142857141
 40
0.7142857142857141
 40
0.7499999999999998
 40
0.7499999999999998
 40
0.7499999999999998
 40
0.7499999999999998
 40
0.7857142857142855
 40
0.7857142857142855
 40
0.7857142857142855
 40
0.7857142857142855
 40
0.8214285714285712
 40
0.8214285714285712
 40
0.8214285714285712
 40
0.8214285714285712
 40
0.8571428571428569
 40
0.8571428571428569
 40
0.8571428571428569
 40
0.8571428571428569
 40
0.8928571428571426
 40
0.8928571428571426
 40
0.8928571428571426
 40
0.8928571428571426
 40
0.9285714285714283
 40
0.9285714285714283
 40
0.9285714285714283
 40
0.9285714285714283
 40
0.964285714285714
 40
0.964285714285714
 40
0.964285714285714
 40
0.964285714285714
 40
1.0
 40
1.0
 40
1.0
 40
1.0
 10
-15.92929
 20
-8.3148999999999997
 30
0.0
 10
-16.011330000000001
 20
-8.3089499999999994
 30
0.0
 10
-16.09337
 20
-8.3029700000000002
 30
0.0
 10
-16.183610000000002
 20
-8.2708999999999993
 30
0.0
 10
-16.183610000000002
 20
-8.2708999999999993
 30
0.0
 10
-16.27384
 20
-8.2388399999999997
 30
0.0
 10
-16.37229
 20
-8.1806699999999992
 30
0.0
 10
-16.48565
 20
-8.08521
 30
0.0
 10
-16.48565
 20
-8.08521
 30
0.0
 10
-16.599
 20
-7.9897600000000004
 30
0.0
 10
-16.7273
 20
-7.8569699999999996
 30
0.0
 10
-16.841390000000001
 20
-7.7294700000000001
 30
0.0
 10
-16.841390000000001
 20
-7.7294700000000001
 30
0.0
 10
-16.955490000000001
 20
-7.6019399999999999
 30
0.0
 10
-17.05545
 20
-7.4796100000000001
 30
0.0
 10
-17.15164
 20
-7.37296
 30
0.0
 10
-17.15164
 20
-7.37296
 30
0.0
 10
-17.24784
 20
-7.2663200000000003
 30
0.0
 10
-17.340340000000001
 20
-7.1753200000000001
 30
0.0
 10
-17.438040000000001
 20
-7.0985300000000002
 30
0.0
 10
-17.438040000000001
 20
-7.0985300000000002
 30
0.0
 10
-17.535740000000001
 20
-7.0217099999999997
 30
0.0
 10
-17.638649999999998
 20
-6.9590500000000004
 30
0.0
 10
-17.734110000000001
 20
-6.9195399999999996
 30
0.0
 10
-17.734110000000001
 20
-6.9195399999999996
 30
0.0
 10
-17.829560000000001
 20
-6.88002
 30
0.0
 10
-17.917590000000001
 20
-6.8635799999999998
 30
0.0
 10
-17.990670000000001
 20
-6.8553800000000003
 30
0.0
 10
-17.990670000000001
 20
-6.8553800000000003
 30
0.0
 10
-18.063759999999998
 20
-6.8471900000000003
 30
0.0
 10
-18.121929999999999
 20
-6.8471900000000003
 30
0.0
 10
-18.17859
 20
-6.8531399999999998
 30
0.0
 10
-18.17859
 20
-6.8531399999999998
 30
0.0
 10
-18.23527
 20
-6.8591100000000003
 30
0.0
 10
-18.290489999999998
 20
-6.8710599999999999
 30
0.0
 10
-18.345669999999998
 20
-6.8829900000000004
 30
0.0
 10
-18.345669999999998
 20
-6.8829900000000004
 30
0.0
 10
-18.288989999999998
 20
-6.8531700000000004
 30
0.0
 10
-18.232289999999999
 20
-6.8232999999999997
 30
0.0
 10
-18.157720000000001
 20
-6.8031899999999998
 30
0.0
 10
-18.157720000000001
 20
-6.8031899999999998
 30
0.0
 10
-18.08315
 20
-6.7830500000000002
 30
0.0
 10
-17.990659999999998
 20
-6.7726100000000002
 30
0.0
 10
-17.904140000000002
 20
-6.7688899999999999
 30
0.0
 10
-17.904140000000002
 20
-6.7688899999999999
 30
0.0
 10
-17.81765
 20
-6.7651300000000001
 30
0.0
 10
-17.737100000000002
 20
-6.7681399999999998
 30
0.0
 10
-17.660299999999999
 20
-6.7733600000000003
 30
0.0
 10
-17.660299999999999
 20
-6.7733600000000003
 30
0.0
 10
-17.583469999999998
 20
-6.7785599999999997
 30
0.0
 10
-17.510370000000002
 20
-6.7860399999999998
 30
0.0
 10
-17.437290000000001
 20
-6.7934900000000003
 30
0.0
 10
-17.437290000000001
 20
-6.7934900000000003
 30
0.0
 10
-17.508880000000001
 20
-6.7666399999999998
 30
0.0
 10
-17.580480000000001
 20
-6.7397999999999998
 30
0.0
 10
-17.674440000000001
 20
-6.7263700000000002
 30
0.0
 10
-17.674440000000001
 20
-6.7263700000000002
 30
0.0
 10
-17.768419999999999
 20
-6.7129399999999997
 30
0.0
 10
-17.88476
 20
-6.7129399999999997
 30
0.0
 10
-17.985440000000001
 20
-6.7211299999999996
 30
0.0
 10
-17.985440000000001
 20
-6.7211299999999996
 30
0.0
 10
-18.086130000000001
 20
-6.7293399999999997
 30
0.0
 10
-18.171150000000001
 20
-6.7457700000000003
 30
0.0
 10
-18.238990000000001
 20
-6.7688899999999999
 30
0.0
 10
-18.238990000000001
 20
-6.7688899999999999
 30
0.0
 10
-18.30687
 20
-6.7919900000000002
 30
0.0
 10
-18.357600000000001
 20
-6.8218399999999999
 30
0.0
 10
-18.396360000000001
 20
-6.8569000000000004
 30
0.0
 10
-18.396360000000001
 20
-6.8569000000000004
 30
0.0
 10
-18.43516
 20
-6.8919300000000003
 30
0.0
 10
-18.462
 20
-6.9322100000000004
 30
0.0
 10
-18.488859999999999
 20
-6.97248
 30
0.0
 10
-18.488859999999999
 20
-6.97248
 30
0.0
 10
-18.415780000000002
 20
-6.9560899999999997
 30
0.0
 10
-18.342680000000001
 20
-6.9396500000000003
 30
0.0
 10
-18.256910000000001
 20
-6.9292100000000003
 30
0.0
 10
-18.256910000000001
 20
-6.9292100000000003
 30
0.0
 10
-18.171150000000001
 20
-6.9187799999999999
 30
0.0
 10
-18.072700000000001
 20
-6.9142999999999999
 30
0.0
 10
-17.98321
 20
-6.9292100000000003
 30
0.0
 10
-17.98321
 20
-6.9292100000000003
 30
0.0
 10
-17.893709999999999
 20
-6.9441199999999998
 30
0.0
 10
-17.81316
 20
-6.9784600000000001
 30
0.0
 10
-17.735610000000001
 20
-7.0298999999999996
 30
0.0
 10
-17.735610000000001
 20
-7.0298999999999996
 30
0.0
 10
-17.658049999999999
 20
-7.0813600000000001
 30
0.0
 10
-17.583459999999999
 20
-7.1499899999999998
 30
0.0
 10
-17.507400000000001
 20
-7.2402100000000003
 30
0.0
 10
-17.507400000000001
 20
-7.2402100000000003
 30
0.0
 10
-17.431319999999999
 20
-7.3304600000000004
 30
0.0
 10
-17.353750000000002
 20
-7.4423199999999996
 30
0.0
 10
-17.26352
 20
-7.5594000000000001
 30
0.0
 10
-17.26352
 20
-7.5594000000000001
 30
0.0
 10
-17.173279999999998
 20
-7.6764999999999999
 30
0.0
 10
-17.070360000000001
 20
-7.7988299999999997
 30
0.0
 10
-16.959230000000002
 20
-7.8965100000000001
 30
0.0
 10
-16.959230000000002
 20
-7.8965100000000001
 30
0.0
 10
-16.848120000000002
 20
-7.9942099999999998
 30
0.0
 10
-16.728760000000001
 20
-8.0673100000000009
 30
0.0
 10
-16.637049999999999
 20
-8.1247199999999999
 30
0.0
 10
-16.637049999999999
 20
-8.1247199999999999
 30
0.0
 10
-16.54532
 20
-8.18215
 30
0.0
 10
-16.481179999999998
 20
-8.2239299999999993
 30
0.0
 10
-16.408090000000001
 20
-8.2567299999999992
 30
0.0
 10
-16.408090000000001
 20
-8.2567299999999992
 30
0.0
 10
-16.33501
 20
-8.2895400000000006
 30
0.0
 10
-16.252970000000001
 20
-8.3134200000000007
 30
0.0
 10
-16.171690000000002
 20
-8.3216199999999994
 30
0.0
 10
-16.171690000000002
 20
-8.3216199999999994
 30
0.0
 10
-16.09038
 20
-8.3298299999999994
 30
0.0
 10
-16.009830000000001
 20
-8.3223500000000001
 30
0.0
 10
-15.92929
 20
-8.3148999999999997
 30
0.0
  0
SPLINE
  5
31
100
AcDbEntity
  8
Default
100
AcDbSpline
210
0.0
220
0.0
230
1.0
 70
     1
 71
     3
 72
    64
 73
    60
 74
     0
 42
0.0000000001
 43
0.0000000001
 40
0.0
 40
0.0
 40
0.0
 40
0.0
 40
0.0666666666666667
 40
0.0666666666666667
 40
0.0666666666666667
 40
0.0666666666666667
 40
0.1333333333333333
 40
0.1333333333333333
 40
0.1333333333333333
 40
0.1333333333333333
 40
0.2
 40
0.2
 40
0.2
 40
0.2
 40
0.2666666666666667
 40
0.2666666666666667
 40
0.2666666666666667
 40
0.2666666666666667
 40
0.3333333333333333
 40
0.3333333333333333
 40
0.3333333333333333
 40
0.3333333333333333
 40
0.4
 40
0.4
 40
0.4
 40
0.4
 40
0.4666666666666666
 40
0.4666666666666666
 40
0.4666666666666666
 40
0.4666666666666666
 40
0.5333333333333333
 40
0.5333333333333333
 40
0.5333333333333333
 40
0.5333333333333333
 40
0.6
 40
0.6
 40
0.6
 40
0.6
 40
0.6666666666666666
 40
0.6666666666666666
 40
0.6666666666666666
 40
0.6666666666666666
 40
0.7333333333333333
 40
0.7333333333333333
 40
0.7333333333333333
 40
0.7333333333333333
 40
0.7999999999999999
 40
0.7999999999999999
 40
0.7999999999999999
 40
0.7999999999999999
 40
0.8666666666666666
 40
0.8666666666666666
 40
0.8666666666666666
 40
0.8666666666666666
 40
0.9333333333333332
 40
0.9333333333333332
 40
0.9333333333333332
 40
0.9333333333333332
 40
1.0
 40
1.0
 40
1.0
 40
1.0
 10
-16.511009999999999
 20
-7.0440800000000001
 30
0.0
 10
-16.434940000000001
 20
-7.00678
 30
0.0
 10
-16.358879999999999
 20
-6.9694900000000004
 30
0.0
 10
-16.283550000000002
 20
-6.9515900000000004
 30
0.0
 10
-16.283550000000002
 20
-6.9515900000000004
 30
0.0
 10
-16.20824
 20
-6.9336799999999998
 30
0.0
 10
-16.13363
 20
-6.9352
 30
0.0
 10
-16.057569999999998
 20
-6.9568199999999996
 30
0.0
 10
-16.057569999999998
 20
-6.9568199999999996
 30
0.0
 10
-15.98151
 20
-6.9784499999999996
 30
0.0
 10
-15.903919999999999
 20
-7.0202099999999996
 30
0.0
 10
-15.836819999999999
 20
-7.0739000000000001
 30
0.0
 10
-15.836819999999999
 20
-7.0739000000000001
 30
0.0
 10
-15.76971
 20
-7.1275899999999996
 30
0.0
 10
-15.712999999999999
 20
-7.1932400000000003
 30
0.0
 10
-15.65781
 20
-7.2499200000000004
 30
0.0
 10
-15.65781
 20
-7.2499200000000004
 30
0.0
 10
-15.60263
 20
-7.3065800000000003
 30
0.0
 10
-15.54895
 20
-7.35433
 30
0.0
 10
-15.49004
 20
-7.3804299999999996
 30
0.0
 10
-15.49004
 20
-7.3804299999999996
 30
0.0
 10
-15.431100000000001
 20
-7.4065200000000004
 30
0.0
 10
-15.366960000000001
 20
-7.4110100000000001
 30
0.0
 10
-15.29463
 20
-7.3931100000000001
 30
0.0
 10
-15.29463
 20
-7.3931100000000001
 30
0.0
 10
-15.22227
 20
-7.37521
 30
0.0
 10
-15.14175
 20
-7.3349399999999996
 30
0.0
 10
-15.061199999999999
 20
-7.2946600000000004
 30
0.0
 10
-15.061199999999999
 20
-7.2946600000000004
 30
0.0
 10
-15.12979
 20
-7.3423800000000004
 30
0.0
 10
-15.19842
 20
-7.3901300000000001
 30
0.0
 10
-15.275230000000001
 20
-7.4236800000000001
 30
0.0
 10
-15.275230000000001
 20
-7.4236800000000001
 30
0.0
 10
-15.35205
 20
-7.45723
 30
0.0
 10
-15.43707
 20
-7.4766500000000002
 30
0.0
 10
-15.516120000000001
 20
-7.4796100000000001
 30
0.0
 10
-15.516120000000001
 20
-7.4796100000000001
 30
0.0
 10
-15.59517
 20
-7.4825999999999997
 30
0.0
 10
-15.66827
 20
-7.4691799999999997
 30
0.0
 10
-15.741350000000001
 20
-7.4333799999999997
 30
0.0
 10
-15.741350000000001
 20
-7.4333799999999997
 30
0.0
 10
-15.814439999999999
 20
-7.3975799999999996
 30
0.0
 10
-15.88754
 20
-7.33941
 30
0.0
 10
-15.94868
 20
-7.2797499999999999
 30
0.0
 10
-15.94868
 20
-7.2797499999999999
 30
0.0
 10
-16.009830000000001
 20
-7.2201000000000004
 30
0.0
 10
-16.059069999999998
 20
-7.1589200000000002
 30
0.0
 10
-16.106780000000001
 20
-7.1164199999999997
 30
0.0
 10
-16.106780000000001
 20
-7.1164199999999997
 30
0.0
 10
-16.154520000000002
 20
-7.0739200000000002
 30
0.0
 10
-16.200759999999999
 20
-7.0500299999999996
 30
0.0
 10
-16.24625
 20
-7.0366400000000002
 30
0.0
 10
-16.24625
 20
-7.0366400000000002
 30
0.0
 10
-16.291740000000001
 20
-7.0232099999999997
 30
0.0
 10
-16.336490000000001
 20
-7.0202
 30
0.0
 10
-16.380479999999999
 20
-7.0231899999999996
 30
0.0
 10
-16.380479999999999
 20
-7.0231899999999996
 30
0.0
 10
-16.424479999999999
 20
-7.0261800000000001
 30
0.0
 10
-16.467759999999998
 20
-7.03512
 30
0.0
 10
-16.511009999999999
 20
-7.0440800000000001
 30
0.0
  0
SPLINE
  5
32
100
AcDbEntity
  8
Default
100
AcDbSpline
210
0.0
220
0.0
230
1.0
 70
     1
 71
     3
 72
    32
 73
    28
 74
     0
 42
0.0000000001
 43
0.0000000001
 40
0.0
 40
0.0
 40
0.0
 40
0.0
 40
0.1428571428571429
 40
0.1428571428571429
 40
0.1428571428571429
 40
0.1428571428571429
 40
0.2857142857142857
 40
0.2857142857142857
 40
0.2857142857142857
 40
0.2857142857142857
 40
0.4285714285714286
 40
0.4285714285714286
 40
0.4285714285714286
 40
0.4285714285714286
 40
0.5714285714285714
 40
0.5714285714285714
 40
0.5714285714285714
 40
0.5714285714285714
 40
0.7142857142857142
 40
0.7142857142857142
 40
0.7142857142857142
 40
0.7142857142857142
 40
0.857142857142857
 40
0.857142857142857
 40
0.857142857142857
 40
0.857142857142857
 40
1.0
 40
1.0
 40
1.0
 40
1.0
 10
-15.28045
 20
-7.8271499999999996
 30
0.0
 10
-15.20886
 20
-7.8525
 30
0.0
 10
-15.137259999999999
 20
-7.8778800000000002
 30
0.0
 10
-15.06494
 20
-7.8912899999999997
 30
0.0
 10
-15.06494
 20
-7.8912899999999997
 30
0.0
 10
-14.99259
 20
-7.9047099999999997
 30
0.0
 10
-14.91949
 20
-7.9062200000000002
 30
0.0
 10
-14.83896
 20
-7.9024999999999999
 30
0.0
 10
-14.83896
 20
-7.9024999999999999
 30
0.0
 10
-14.75841
 20
-7.8987600000000002
 30
0.0
 10
-14.670389999999999
 20
-7.8898000000000001
 30
0.0
 10
-14.58239
 20
-7.8808600000000002
 30
0.0
 10
-14.58239
 20
-7.8808600000000002
 30
0.0
 10
-14.648009999999999
 20
-7.9121699999999997
 30
0.0
 10
-14.71367
 20
-7.9435000000000002
 30
0.0
 10
-14.782260000000001
 20
-7.9606500000000002
 30
0.0
 10
-14.782260000000001
 20
-7.9606500000000002
 30
0.0
 10
-14.85088
 20
-7.9777899999999997
 30
0.0
 10
-14.92248
 20
-7.9808000000000003
 30
0.0
 10
-14.98512
 20
-7.97485
 30
0.0
 10
-14.98512
 20
-7.97485
 30
0.0
 10
-15.04777
 20
-7.9688699999999999
 30
0.0
 10
-15.101470000000001
 20
-7.9539400000000002
 30
0.0
 10
-15.14917
 20
-7.9278399999999998
 30
0.0
 10
-15.14917
 20
-7.9278399999999998
 30
0.0
 10
-15.19693
 20
-7.9017499999999998
 30
0.0
 10
-15.2387
 20
-7.8644299999999996
 30
0.0
 10
-15.28045
 20
-7.8271499999999996
 30
0.0
  0
SPLINE
  5
33
100
AcDbEntity
  8
Default
100
AcDbSpline
210
0.0
220
0.0
230
1.0
 70
     1
 71
     3
 72
   148
 73
   144
 74
     0
 42
0.0000000001
 43
0.0000000001
 40
0.0
 40
0.0
 40
0.0
 40
0.0
 40
0.0277777777777778
 40
0.0277777777777778
 40
0.0277777777777778
 40
0.0277777777777778
 40
0.0555555555555556
 40
0.0555555555555556
 40
0.0555555555555556
 40
0.0555555555555556
 40
0.0833333333333333
 40
0.0833333333333333
 40
0.0833333333333333
 40
0.0833333333333333
 40
0.1111111111111111
 40
0.1111111111111111
 40
0.1111111111111111
 40
0.1111111111111111
 40
0.1388888888888889
 40
0.1388888888888889
 40
0.1388888888888889
 40
0.1388888888888889
 40
0.1666666666666667
 40
0.1666666666666667
 40
0.1666666666666667
 40
0.1666666666666667
 40
0.1944444444444445
 40
0.1944444444444445
 40
0.1944444444444445
 40
0.1944444444444445
 40
0.2222222222222223
 40
0.2222222222222223
 40
0.2222222222222223
 40
0.2222222222222223
 40
0.2500000000000001
 40
0.2500000000000001
 40
0.2500000000000001
 40
0.2500000000000001
 40
0.2777777777777779
 40
0.2777777777777779
 40
0.2777777777777779
 40
0.2777777777777779
 40
0.3055555555555556
 40
0.3055555555555556
 40
0.3055555555555556
 40
0.3055555555555556
 40
0.3333333333333334
 40
0.3333333333333334
 40
0.3333333333333334
 40
0.3333333333333334
 40
0.3611111111111112
 40
0.3611111111111112
 40
0.3611111111111112
 40
0.3611111111111112
 40
0.388888888888889
 40
0.388888888888889
 40
0.388888888888889
 40
0.388888888888889
 40
0.4166666666666668
 40
0.4166666666666668
 40
0.4166666666666668
 40
0.4166666666666668
 40
0.4444444444444446
 40
0.4444444444444446
 40
0.4444444444444446
 40
0.4444444444444446
 40
0.4722222222222224
 40
0.4722222222222224
 40
0.4722222222222224
 40
0.4722222222222224
 40
0.5000000000000001
 40
0.5000000000000001
 40
0.5000000000000001
 40
0.5000000000000001
 40
0.5277777777777779
 40
0.5277777777777779
 40
0.5277777777777779
 40
0.5277777777777779
 40
0.5555555555555557
 40
0.5555555555555557
 40
0.5555555555555557
 40
0.5555555555555557
 40
0.5833333333333335
 40
0.5833333333333335
 40
0.5833333333333335
 40
0.5833333333333335
 40
0.6111111111111113
 40
0.6111111111111113
 40
0.6111111111111113
 40
0.6111111111111113
 40
0.6388888888888891
 40
0.6388888888888891
 40
0.6388888888888891
 40
0.6388888888888891
 40
0.6666666666666669
 40
0.6666666666666669
 40
0.6666666666666669
 40
0.6666666666666669
 40
0.6944444444444446
 40
0.6944444444444446
 40
0.6944444444444446
 40
0.6944444444444446
 40
0.7222222222222224
 40
0.7222222222222224
 40
0.7222222222222224
 40
0.7222222222222224
 40
0.7500000000000002
 40
0.7500000000000002
 40
0.7500000000000002
 40
0.7500000000000002
 40
0.777777777777778
 40
0.777777777777778
 40
0.777777777777778
 40
0.777777777777778
 40
0.8055555555555558
 40
0.8055555555555558
 40
0.8055555555555558
 40
0.8055555555555558
 40
0.8333333333333336
 40
0.8333333333333336
 40
0.8333333333333336
 40
0.8333333333333336
 40
0.8611111111111114
 40
0.8611111111111114
 40
0.8611111111111114
 40
0.8611111111111114
 40
0.8888888888888892
 40
0.8888888888888892
 40
0.8888888888888892
 40
0.8888888888888892
 40
0.916666666666667
 40
0.916666666666667
 40
0.916666666666667
 40
0.916666666666667
 40
0.9444444444444448
 40
0.9444444444444448
 40
0.9444444444444448
 40
0.9444444444444448
 40
0.9722222222222225
 40
0.9722222222222225
 40
0.9722222222222225
 40
0.9722222222222225
 40
1.0
 40
1.0
 40
1.0
 40
1.0
 10
-16.44389
 20
-7.1470000000000002
 30
0.0
 10
-16.394659999999998
 20
-7.1440299999999999
 30
0.0
 10
-16.34545
 20
-7.1410200000000001
 30
0.0
 10
-16.29101
 20
-7.1484800000000002
 30
0.0
 10
-16.29101
 20
-7.1484800000000002
 30
0.0
 10
-16.236560000000001
 20
-7.1559400000000002
 30
0.0
 10
-16.17689
 20
-7.1738400000000002
 30
0.0
 10
-16.126930000000002
 20
-7.2156000000000002
 30
0.0
 10
-16.126930000000002
 20
-7.2156000000000002
 30
0.0
 10
-16.076969999999999
 20
-7.2573600000000003
 30
0.0
 10
-16.03669
 20
-7.3230199999999996
 30
0.0
 10
-15.99569
 20
-7.3774499999999996
 30
0.0
 10
-15.99569
 20
-7.3774499999999996
 30
0.0
 10
-15.954650000000001
 20
-7.43187
 30
0.0
 10
-15.912879999999999
 20
-7.4751500000000002
 30
0.0
 10
-15.85323
 20
-7.5124300000000002
 30
0.0
 10
-15.85323
 20
-7.5124300000000002
 30
0.0
 10
-15.793559999999999
 20
-7.5497300000000003
 30
0.0
 10
-15.71599
 20
-7.5810399999999998
 30
0.0
 10
-15.645149999999999
 20
-7.6056600000000003
 30
0.0
 10
-15.645149999999999
 20
-7.6056600000000003
 30
0.0
 10
-15.574310000000001
 20
-7.63028
 30
0.0
 10
-15.510149999999999
 20
-7.6481599999999998
 30
0.0
 10
-15.426629999999999
 20
-7.6518800000000002
 30
0.0
 10
-15.426629999999999
 20
-7.6518800000000002
 30
0.0
 10
-15.34309
 20
-7.6556199999999999
 30
0.0
 10
-15.240180000000001
 20
-7.6451900000000004
 30
0.0
 10
-15.14324
 20
-7.62059
 30
0.0
 10
-15.14324
 20
-7.62059
 30
0.0
 10
-15.046290000000001
 20
-7.5959700000000003
 30
0.0
 10
-14.95529
 20
-7.5571799999999998
 30
0.0
 10
-14.86431
 20
-7.5183999999999997
 30
0.0
 10
-14.86431
 20
-7.5183999999999997
 30
0.0
 10
-14.923959999999999
 20
-7.5646399999999998
 30
0.0
 10
-14.98363
 20
-7.6108799999999999
 30
0.0
 10
-15.06865
 20
-7.6459299999999999
 30
0.0
 10
-15.06865
 20
-7.6459299999999999
 30
0.0
 10
-15.15366
 20
-7.6809700000000003
 30
0.0
 10
-15.264060000000001
 20
-7.70486
 30
0.0
 10
-15.36623
 20
-7.71082
 30
0.0
 10
-15.36623
 20
-7.71082
 30
0.0
 10
-15.468400000000001
 20
-7.7167899999999996
 30
0.0
 10
-15.56236
 20
-7.7048399999999999
 30
0.0
 10
-15.645149999999999
 20
-7.68248
 30
0.0
 10
-15.645149999999999
 20
-7.68248
 30
0.0
 10
-15.727919999999999
 20
-7.6601100000000004
 30
0.0
 10
-15.799530000000001
 20
-7.6272799999999998
 30
0.0
 10
-15.857699999999999
 20
-7.6078900000000003
 30
0.0
 10
-15.857699999999999
 20
-7.6078900000000003
 30
0.0
 10
-15.91587
 20
-7.5885100000000003
 30
0.0
 10
-15.96062
 20
-7.5825199999999997
 30
0.0
 10
-15.98746
 20
-7.5892400000000002
 30
0.0
 10
-15.98746
 20
-7.5892400000000002
 30
0.0
 10
-16.014320000000001
 20
-7.5959500000000002
 30
0.0
 10
-16.023260000000001
 20
-7.6153700000000004
 30
0.0
 10
-16.027729999999998
 20
-7.6362300000000003
 30
0.0
 10
-16.027729999999998
 20
-7.6362300000000003
 30
0.0
 10
-16.032209999999999
 20
-7.6571199999999999
 30
0.0
 10
-16.032209999999999
 20
-7.6794900000000004
 30
0.0
 10
-16.012830000000001
 20
-7.6996200000000004
 30
0.0
 10
-16.012830000000001
 20
-7.6996200000000004
 30
0.0
 10
-15.993449999999999
 20
-7.71976
 30
0.0
 10
-15.95463
 20
-7.7376699999999996
 30
0.0
 10
-15.92259
 20
-7.74214
 30
0.0
 10
-15.92259
 20
-7.74214
 30
0.0
 10
-15.89053
 20
-7.7466100000000004
 30
0.0
 10
-15.86515
 20
-7.7376699999999996
 30
0.0
 10
-15.85323
 20
-7.7264799999999996
 30
0.0
 10
-15.85323
 20
-7.7264799999999996
 30
0.0
 10
-15.841279999999999
 20
-7.7152900000000004
 30
0.0
 10
-15.842790000000001
 20
-7.7018599999999999
 30
0.0
 10
-15.84427
 20
-7.6884300000000003
 30
0.0
 10
-15.84427
 20
-7.6884300000000003
 30
0.0
 10
-15.780150000000001
 20
-7.7003700000000004
 30
0.0
 10
-15.71599
 20
-7.7123200000000001
 30
0.0
 10
-15.650370000000001
 20
-7.7339399999999996
 30
0.0
 10
-15.650370000000001
 20
-7.7339399999999996
 30
0.0
 10
-15.58473
 20
-7.7555699999999996
 30
0.0
 10
-15.517620000000001
 20
-7.78688
 30
0.0
 10
-15.462429999999999
 20
-7.8196899999999996
 30
0.0
 10
-15.462429999999999
 20
-7.8196899999999996
 30
0.0
 10
-15.407249999999999
 20
-7.8525
 30
0.0
 10
-15.36397
 20
-7.8868400000000003
 30
0.0
 10
-15.331910000000001
 20
-7.9293199999999997
 30
0.0
 10
-15.331910000000001
 20
-7.9293199999999997
 30
0.0
 10
-15.299860000000001
 20
-7.9718400000000003
 30
0.0
 10
-15.27895
 20
-8.02257
 30
0.0
 10
-15.25808
 20
-8.0732599999999994
 30
0.0
 10
-15.25808
 20
-8.0732599999999994
 30
0.0
 10
-15.299849999999999
 20
-8.0180799999999994
 30
0.0
 10
-15.341609999999999
 20
-7.9628800000000002
 30
0.0
 10
-15.39977
 20
-7.9188900000000002
 30
0.0
 10
-15.39977
 20
-7.9188900000000002
 30
0.0
 10
-15.45795
 20
-7.8748899999999997
 30
0.0
 10
-15.532539999999999
 20
-7.84206
 30
0.0
 10
-15.59592
 20
-7.8159700000000001
 30
0.0
 10
-15.59592
 20
-7.8159700000000001
 30
0.0
 10
-15.65931
 20
-7.7898699999999996
 30
0.0
 10
-15.71153
 20
-7.7704800000000001
 30
0.0
 10
-15.763719999999999
 20
-7.75108
 30
0.0
 10
-15.763719999999999
 20
-7.75108
 30
0.0
 10
-15.78759
 20
-7.7764300000000004
 30
0.0
 10
-15.81146
 20
-7.8018099999999997
 30
0.0
 10
-15.85619
 20
-7.8152200000000001
 30
0.0
 10
-15.85619
 20
-7.8152200000000001
 30
0.0
 10
-15.90095
 20
-7.8286499999999997
 30
0.0
 10
-15.9666
 20
-7.8301499999999997
 30
0.0
 10
-16.024010000000001
 20
-7.8294100000000002
 30
0.0
 10
-16.024010000000001
 20
-7.8294100000000002
 30
0.0
 10
-16.081440000000001
 20
-7.8286699999999998
 30
0.0
 10
-16.130649999999999
 20
-7.8256600000000001
 30
0.0
 10
-16.180620000000001
 20
-7.8070300000000001
 30
0.0
 10
-16.180620000000001
 20
-7.8070300000000001
 30
0.0
 10
-16.230599999999999
 20
-7.7883899999999997
 30
0.0
 10
-16.281310000000001
 20
-7.7540500000000003
 30
0.0
 10
-16.31485
 20
-7.7160399999999996
 30
0.0
 10
-16.31485
 20
-7.7160399999999996
 30
0.0
 10
-16.348420000000001
 20
-7.6780099999999996
 30
0.0
 10
-16.364840000000001
 20
-7.6362300000000003
 30
0.0
 10
-16.369319999999998
 20
-7.5847800000000003
 30
0.0
 10
-16.369319999999998
 20
-7.5847800000000003
 30
0.0
 10
-16.373799999999999
 20
-7.5333300000000003
 30
0.0
 10
-16.366320000000002
 20
-7.4721399999999996
 30
0.0
 10
-16.3462
 20
-7.4281499999999996
 30
0.0
 10
-16.3462
 20
-7.4281499999999996
 30
0.0
 10
-16.326070000000001
 20
-7.38415
 30
0.0
 10
-16.293240000000001
 20
-7.35731
 30
0.0
 10
-16.25074
 20
-7.3409199999999997
 30
0.0
 10
-16.25074
 20
-7.3409199999999997
 30
0.0
 10
-16.20824
 20
-7.3244999999999996
 30
0.0
 10
-16.155999999999999
 20
-7.3185099999999998
 30
0.0
 10
-16.103809999999999
 20
-7.3125600000000004
 30
0.0
 10
-16.103809999999999
 20
-7.3125600000000004
 30
0.0
 10
-16.13514
 20
-7.2827500000000001
 30
0.0
 10
-16.166450000000001
 20
-7.2528899999999998
 30
0.0
 10
-16.20074
 20
-7.2297700000000003
 30
0.0
 10
-16.20074
 20
-7.2297700000000003
 30
0.0
 10
-16.23507
 20
-7.2066699999999999
 30
0.0
 10
-16.272359999999999
 20
-7.1902299999999997
 30
0.0
 10
-16.313369999999999
 20
-7.1775700000000002
 30
0.0
 10
-16.313369999999999
 20
-7.1775700000000002
 30
0.0
 10
-16.354389999999999
 20
-7.1649000000000003
 30
0.0
 10
-16.399149999999999
 20
-7.1559400000000002
 30
0.0
 10
-16.44389
 20
-7.1470000000000002
 30
0.0
  0
SPLINE
  5
34
100
AcDbEntity
  8
Default
100
AcDbSpline
210
0.0
220
0.0
230
1.0
 70
     1
 71
     3
 72
    24
 73
    20
 74
     0
 42
0.0000000001
 43
0.0000000001
 40
0.0
 40
0.0
 40
0.0
 40
0.0
 40
0.2
 40
0.2
 40
0.2
 40
0.2
 40
0.4
 40
0.4
 40
0.4
 40
0.4
 40
0.6000000000000001
 40
0.6000000000000001
 40
0.6000000000000001
 40
0.6000000000000001
 40
0.8
 40
0.8
 40
0.8
 40
0.8
 40
1.0
 40
1.0
 40
1.0
 40
1.0
 10
-16.564710000000002
 20
-7.2364899999999999
 30
0.0
 10
-16.525939999999999
 20
-7.2543899999999999
 30
0.0
 10
-16.487130000000001
 20
-7.2722899999999999
 30
0.0
 10
-16.448370000000001
 20
-7.2879500000000004
 30
0.0
 10
-16.448370000000001
 20
-7.2879500000000004
 30
0.0
 10
-16.409590000000001
 20
-7.3036000000000003
 30
0.0
 10
-16.37079
 20
-7.3170299999999999
 30
0.0
 10
-16.33202
 20
-7.3304600000000004
 30
0.0
 10
-16.33202
 20
-7.3304600000000004
 30
0.0
 10
-16.367819999999998
 20
-7.3423800000000004
 30
0.0
 10
-16.40362
 20
-7.35433
 30
0.0
 10
-16.443149999999999
 20
-7.3506099999999996
 30
0.0
 10
-16.443149999999999
 20
-7.3506099999999996
 30
0.0
 10
-16.48265
 20
-7.34687
 30
0.0
 10
-16.525939999999999
 20
-7.3274699999999999
 30
0.0
 10
-16.546810000000001
 20
-7.3058500000000004
 30
0.0
 10
-16.546810000000001
 20
-7.3058500000000004
 30
0.0
 10
-16.567710000000002
 20
-7.2842200000000004
 30
0.0
 10
-16.566189999999999
 20
-7.2603600000000004
 30
0.0
 10
-16.564710000000002
 20
-7.2364899999999999
 30
0.0
  0
SPLINE
  5
35
100
AcDbEntity
  8
Default
100
AcDbSpline
210
0.0
220
0.0
230
1.0
 70
     1
 71
     3
 72
    20
 73
    16
 74
     0
 42
0.0000000001
 43
0.0000000001
 40
0.0
 40
0.0
 40
0.0
 40
0.0
 40
0.25
 40
0.25
 40
0.25
 40
0.25
 40
0.5
 40
0.5
 40
0.5
 40
0.5
 40
0.75
 40
0.75
 40
0.75
 40
0.75
 40
1.0
 40
1.0
 40
1.0
 40
1.0
 10
-14.84193
 20
-8.1090599999999995
 30
0.0
 10
-14.7927
 20
-8.12697
 30
0.0
 10
-14.74349
 20
-8.1448699999999992
 30
0.0
 10
-14.692030000000001
 20
-8.1709599999999991
 30
0.0
 10
-14.692030000000001
 20
-8.1709599999999991
 30
0.0
 10
-14.64057
 20
-8.1970600000000005
 30
0.0
 10
-14.586869999999999
 20
-8.2314000000000007
 30
0.0
 10
-14.533160000000001
 20
-8.2656899999999993
 30
0.0
 10
-14.533160000000001
 20
-8.2656899999999993
 30
0.0
 10
-14.59878
 20
-8.2463099999999994
 30
0.0
 10
-14.664440000000001
 20
-8.2268899999999991
 30
0.0
 10
-14.71588
 20
-8.2007999999999992
 30
0.0
 10
-14.71588
 20
-8.2007999999999992
 30
0.0
 10
-14.767340000000001
 20
-8.1746999999999996
 30
0.0
 10
-14.804650000000001
 20
-8.1418700000000008
 30
0.0
 10
-14.84193
 20
-8.1090599999999995
 30
0.0
  0
SPLINE
  5
36
100
AcDbEntity
  8
Default
100
AcDbSpline
210
0.0
220
0.0
230
1.0
 70
     1
 71
     3
 72
    68
 73
    64
 74
     0
 42
0.0000000001
 43
0.0000000001
 40
0.0
 40
0.0
 40
0.0
 40
0.0
 40
0.0625
 40
0.0625
 40
0.0625
 40
0.0625
 40
0.125
 40
0.125
 40
0.125
 40
0.125
 40
0.1875
 40
0.1875
 40
0.1875
 40
0.1875
 40
0.25
 40
0.25
 40
0.25
 40
0.25
 40
0.3125
 40
0.3125
 40
0.3125
 40
0.3125
 40
0.375
 40
0.375
 40
0.375
 40
0.375
 40
0.4375
 40
0.4375
 40
0.4375
 40
0.4375
 40
0.5
 40
0.5
 40
0.5
 40
0.5
 40
0.5625
 40
0.5625
 40
0.5625
 40
0.5625
 40
0.625
 40
0.625
 40
0.625
 40
0.625
 40
0.6875
 40
0.6875
 40
0.6875
 40
0.6875
 40
0.75
 40
0.75
 40
0.75
 40
0.75
 40
0.8125
 40
0.8125
 40
0.8125
 40
0.8125
 40
0.875
 40
0.875
 40
0.875
 40
0.875
 40
0.9375
 40
0.9375
 40
0.9375
 40
0.9375
 40
1.0
 40
1.0
 40
1.0
 40
1.0
 10
-16.448370000000001
 20
-7.5362999999999998
 30
0.0
 10
-16.442399999999999
 20
-7.5944700000000003
 30
0.0
 10
-16.436430000000001
 20
-7.6526500000000004
 30
0.0
 10
-16.414809999999999
 20
-7.7018599999999999
 30
0.0
 10
-16.414809999999999
 20
-7.7018599999999999
 30
0.0
 10
-16.393180000000001
 20
-7.75108
 30
0.0
 10
-16.355889999999999
 20
-7.7913500000000004
 30
0.0
 10
-16.31636
 20
-7.8204399999999996
 30
0.0
 10
-16.31636
 20
-7.8204399999999996
 30
0.0
 10
-16.27684
 20
-7.8495299999999997
 30
0.0
 10
-16.23507
 20
-7.8674299999999997
 30
0.0
 10
-16.17764
 20
-7.8763899999999998
 30
0.0
 10
-16.17764
 20
-7.8763899999999998
 30
0.0
 10
-16.12021
 20
-7.8853299999999997
 30
0.0
 10
-16.04711
 20
-7.8853299999999997
 30
0.0
 10
-15.9718
 20
-7.8845999999999998
 30
0.0
 10
-15.9718
 20
-7.8845999999999998
 30
0.0
 10
-15.89648
 20
-7.8838499999999998
 30
0.0
 10
-15.818910000000001
 20
-7.8823400000000001
 30
0.0
 10
-15.76
 20
-7.8912899999999997
 30
0.0
 10
-15.76
 20
-7.8912899999999997
 30
0.0
 10
-15.701079999999999
 20
-7.9002400000000002
 30
0.0
 10
-15.66081
 20
-7.9196499999999999
 30
0.0
 10
-15.62205
 20
-7.9427500000000002
 30
0.0
 10
-15.62205
 20
-7.9427500000000002
 30
0.0
 10
-15.58325
 20
-7.9658699999999998
 30
0.0
 10
-15.545949999999999
 20
-7.9927200000000003
 30
0.0
 10
-15.51464
 20
-8.0314899999999998
 30
0.0
 10
-15.51464
 20
-8.0314899999999998
 30
0.0
 10
-15.48333
 20
-8.07029
 30
0.0
 10
-15.45795
 20
-8.1210000000000004
 30
0.0
 10
-15.432600000000001
 20
-8.1717099999999991
 30
0.0
 10
-15.432600000000001
 20
-8.1717099999999991
 30
0.0
 10
-15.487780000000001
 20
-8.1165299999999991
 30
0.0
 10
-15.54298
 20
-8.0613299999999999
 30
0.0
 10
-15.60188
 20
-8.0218000000000007
 30
0.0
 10
-15.60188
 20
-8.0218000000000007
 30
0.0
 10
-15.66081
 20
-7.9823000000000004
 30
0.0
 10
-15.72345
 20
-7.9584099999999998
 30
0.0
 10
-15.789820000000001
 20
-7.9464899999999998
 30
0.0
 10
-15.789820000000001
 20
-7.9464899999999998
 30
0.0
 10
-15.85619
 20
-7.9345600000000003
 30
0.0
 10
-15.92633
 20
-7.9345600000000003
 30
0.0
 10
-15.988960000000001
 20
-7.9360400000000002
 30
0.0
 10
-15.988960000000001
 20
-7.9360400000000002
 30
0.0
 10
-16.051600000000001
 20
-7.9375200000000001
 30
0.0
 10
-16.1068
 20
-7.9405299999999999
 30
0.0
 10
-16.164960000000001
 20
-7.9323300000000003
 30
0.0
 10
-16.164960000000001
 20
-7.9323300000000003
 30
0.0
 10
-16.223120000000002
 20
-7.9241200000000003
 30
0.0
 10
-16.284300000000002
 20
-7.9047099999999997
 30
0.0
 10
-16.33426
 20
-7.8778800000000002
 30
0.0
 10
-16.33426
 20
-7.8778800000000002
 30
0.0
 10
-16.384209999999999
 20
-7.8510400000000002
 30
0.0
 10
-16.423020000000001
 20
-7.8167
 30
0.0
 10
-16.44689
 20
-7.77942
 30
0.0
 10
-16.44689
 20
-7.77942
 30
0.0
 10
-16.470739999999999
 20
-7.74214
 30
0.0
 10
-16.479700000000001
 20
-7.7018599999999999
 30
0.0
 10
-16.477450000000001
 20
-7.6608599999999996
 30
0.0
 10
-16.477450000000001
 20
-7.6608599999999996
 30
0.0
 10
-16.475210000000001
 20
-7.6198399999999999
 30
0.0
 10
-16.4618
 20
-7.5780500000000002
 30
0.0
 10
-16.448370000000001
 20
-7.5362999999999998
 30
0.0
  0
SPLINE
  5
37
100
AcDbEntity
  8
Default
100
AcDbSpline
210
0.0
220
0.0
230
1.0
 70
     1
 71
     3
 72
   160
 73
   156
 74
     0
 42
0.0000000001
 43
0.0000000001
 40
0.0
 40
0.0
 40
0.0
 40
0.0
 40
0.0256410256410256
 40
0.0256410256410256
 40
0.0256410256410256
 40
0.0256410256410256
 40
0.0512820512820513
 40
0.0512820512820513
 40
0.0512820512820513
 40
0.0512820512820513
 40
0.0769230769230769
 40
0.0769230769230769
 40
0.0769230769230769
 40
0.0769230769230769
 40
0.1025641025641026
 40
0.1025641025641026
 40
0.1025641025641026
 40
0.1025641025641026
 40
0.1282051282051282
 40
0.1282051282051282
 40
0.1282051282051282
 40
0.1282051282051282
 40
0.1538461538461538
 40
0.1538461538461538
 40
0.1538461538461538
 40
0.1538461538461538
 40
0.1794871794871795
 40
0.1794871794871795
 40
0.1794871794871795
 40
0.1794871794871795
 40
0.2051282051282051
 40
0.2051282051282051
 40
0.2051282051282051
 40
0.2051282051282051
 40
0.2307692307692307
 40
0.2307692307692307
 40
0.2307692307692307
 40
0.2307692307692307
 40
0.2564102564102564
 40
0.2564102564102564
 40
0.2564102564102564
 40
0.2564102564102564
 40
0.2820512820512821
 40
0.2820512820512821
 40
0.2820512820512821
 40
0.2820512820512821
 40
0.3076923076923077
 40
0.3076923076923077
 40
0.3076923076923077
 40
0.3076923076923077
 40
0.3333333333333334
 40
0.3333333333333334
 40
0.3333333333333334
 40
0.3333333333333334
 40
0.358974358974359
 40
0.358974358974359
 40
0.358974358974359
 40
0.358974358974359
 40
0.3846153846153847
 40
0.3846153846153847
 40
0.3846153846153847
 40
0.3846153846153847
 40
0.4102564102564104
 40
0.4102564102564104
 40
0.4102564102564104
 40
0.4102564102564104
 40
0.435897435897436
 40
0.435897435897436
 40
0.435897435897436
 40
0.435897435897436
 40
0.4615384615384617
 40
0.4615384615384617
 40
0.4615384615384617
 40
0.4615384615384617
 40
0.4871794871794873
 40
0.4871794871794873
 40
0.4871794871794873
 40
0.4871794871794873
 40
0.512820512820513
 40
0.512820512820513
 40
0.512820512820513
 40
0.512820512820513
 40
0.5384615384615387
 40
0.5384615384615387
 40
0.5384615384615387
 40
0.5384615384615387
 40
0.5641025641025643
 40
0.5641025641025643
 40
0.5641025641025643
 40
0.5641025641025643
 40
0.58974358974359
 40
0.58974358974359
 40
0.58974358974359
 40
0.58974358974359
 40
0.6153846153846156
 40
0.6153846153846156
 40
0.6153846153846156
 40
0.6153846153846156
 40
0.6410256410256413
 40
0.6410256410256413
 40
0.6410256410256413
 40
0.6410256410256413
 40
0.666666666666667
 40
0.666666666666667
 40
0.666666666666667
 40
0.666666666666667
 40
0.6923076923076926
 40
0.6923076923076926
 40
0.6923076923076926
 40
0.6923076923076926
 40
0.7179487179487183
 40
0.7179487179487183
 40
0.7179487179487183
 40
0.7179487179487183
 40
0.743589743589744
 40
0.743589743589744
 40
0.743589743589744
 40
0.743589743589744
 40
0.7692307692307696
 40
0.7692307692307696
 40
0.7692307692307696
 40
0.7692307692307696
 40
0.7948717948717953
 40
0.7948717948717953
 40
0.7948717948717953
 40
0.7948717948717953
 40
0.8205128205128209
 40
0.8205128205128209
 40
0.8205128205128209
 40
0.8205128205128209
 40
0.8461538461538466
 40
0.8461538461538466
 40
0.8461538461538466
 40
0.8461538461538466
 40
0.8717948717948723
 40
0.8717948717948723
 40
0.8717948717948723
 40
0.8717948717948723
 40
0.8974358974358979
 40
0.8974358974358979
 40
0.8974358974358979
 40
0.8974358974358979
 40
0.9230769230769236
 40
0.9230769230769236
 40
0.9230769230769236
 40
0.9230769230769236
 40
0.9487179487179492
 40
0.9487179487179492
 40
0.9487179487179492
 40
0.9487179487179492
 40
0.9743589743589749
 40
0.9743589743589749
 40
0.9743589743589749
 40
0.9743589743589749
 40
1.0
 40
1.0
 40
1.0
 40
1.0
 10
-15.92929
 20
-8.3820300000000003
 30
0.0
 10
-15.99044
 20
-8.3969400000000007
 30
0.0
 10
-16.05162
 20
-8.4118700000000004
 30
0.0
 10
-16.128430000000002
 20
-8.4081499999999991
 30
0.0
 10
-16.128430000000002
 20
-8.4081499999999991
 30
0.0
 10
-16.20523
 20
-8.4044100000000004
 30
0.0
 10
-16.297730000000001
 20
-8.3820300000000003
 30
0.0
 10
-16.399899999999999
 20
-8.3417600000000007
 30
0.0
 10
-16.399899999999999
 20
-8.3417600000000007
 30
0.0
 10
-16.50207
 20
-8.3014899999999994
 30
0.0
 10
-16.61393
 20
-8.2433099999999992
 30
0.0
 10
-16.733250000000002
 20
-8.1687499999999993
 30
0.0
 10
-16.733250000000002
 20
-8.1687499999999993
 30
0.0
 10
-16.85257
 20
-8.0941600000000005
 30
0.0
 10
-16.979379999999999
 20
-8.0031499999999998
 30
0.0
 10
-17.105399999999999
 20
-7.8965100000000001
 30
0.0
 10
-17.105399999999999
 20
-7.8965100000000001
 30
0.0
 10
-17.231449999999999
 20
-7.7898699999999996
 30
0.0
 10
-17.356739999999999
 20
-7.6675599999999999
 30
0.0
 10
-17.458909999999999
 20
-7.5803099999999999
 30
0.0
 10
-17.458909999999999
 20
-7.5803099999999999
 30
0.0
 10
-17.561070000000001
 20
-7.4930500000000002
 30
0.0
 10
-17.640149999999998
 20
-7.4408300000000001
 30
0.0
 10
-17.709489999999999
 20
-7.4080199999999996
 30
0.0
 10
-17.709489999999999
 20
-7.4080199999999996
 30
0.0
 10
-17.778849999999998
 20
-7.37521
 30
0.0
 10
-17.838519999999999
 20
-7.3617800000000004
 30
0.0
 10
-17.903400000000001
 20
-7.3528399999999996
 30
0.0
 10
-17.903400000000001
 20
-7.3528399999999996
 30
0.0
 10
-17.96828
 20
-7.3438800000000004
 30
0.0
 10
-18.038409999999999
 20
-7.33941
 30
0.0
 10
-18.093589999999999
 20
-7.3431300000000004
 30
0.0
 10
-18.093589999999999
 20
-7.3431300000000004
 30
0.0
 10
-18.148769999999999
 20
-7.3468499999999999
 30
0.0
 10
-18.189050000000002
 20
-7.3588199999999997
 30
0.0
 10
-18.229320000000001
 20
-7.3707399999999996
 30
0.0
 10
-18.229320000000001
 20
-7.3707399999999996
 30
0.0
 10
-18.133859999999999
 20
-7.4035500000000001
 30
0.0
 10
-18.03839
 20
-7.4363700000000001
 30
0.0
 10
-17.92653
 20
-7.4937800000000001
 30
0.0
 10
-17.92653
 20
-7.4937800000000001
 30
0.0
 10
-17.81467
 20
-7.5512100000000002
 30
0.0
 10
-17.68637
 20
-7.6332500000000003
 30
0.0
 10
-17.58643
 20
-7.7190200000000004
 30
0.0
 10
-17.58643
 20
-7.7190200000000004
 30
0.0
 10
-17.486499999999999
 20
-7.8047800000000001
 30
0.0
 10
-17.414919999999999
 20
-7.8942899999999998
 30
0.0
 10
-17.33587
 20
-7.9621300000000002
 30
0.0
 10
-17.33587
 20
-7.9621300000000002
 30
0.0
 10
-17.256820000000001
 20
-8.0300100000000008
 30
0.0
 10
-17.170290000000001
 20
-8.0762499999999999
 30
0.0
 10
-17.086770000000001
 20
-8.1247199999999999
 30
0.0
 10
-17.086770000000001
 20
-8.1247199999999999
 30
0.0
 10
-17.003229999999999
 20
-8.1732099999999992
 30
0.0
 10
-16.92268
 20
-8.2239299999999993
 30
0.0
 10
-16.85708
 20
-8.2813400000000001
 30
0.0
 10
-16.85708
 20
-8.2813400000000001
 30
0.0
 10
-16.791440000000001
 20
-8.3387700000000002
 30
0.0
 10
-16.74071
 20
-8.4029100000000003
 30
0.0
 10
-16.690750000000001
 20
-8.4536200000000008
 30
0.0
 10
-16.690750000000001
 20
-8.4536200000000008
 30
0.0
 10
-16.64077
 20
-8.5043299999999995
 30
0.0
 10
-16.591560000000001
 20
-8.5416299999999996
 30
0.0
 10
-16.540099999999999
 20
-8.5885999999999996
 30
0.0
 10
-16.540099999999999
 20
-8.5885999999999996
 30
0.0
 10
-16.48864
 20
-8.6355900000000005
 30
0.0
 10
-16.434940000000001
 20
-8.6922800000000002
 30
0.0
 10
-16.38946
 20
-8.7676099999999995
 30
0.0
 10
-16.38946
 20
-8.7676099999999995
 30
0.0
 10
-16.343969999999999
 20
-8.8429199999999994
 30
0.0
 10
-16.306650000000001
 20
-8.9368999999999996
 30
0.0
 10
-16.269369999999999
 20
-9.0308700000000002
 30
0.0
 10
-16.269369999999999
 20
-9.0308700000000002
 30
0.0
 10
-16.27534
 20
-8.9697200000000006
 30
0.0
 10
-16.281310000000001
 20
-8.9085400000000003
 30
0.0
 10
-16.306650000000001
 20
-8.8347300000000004
 30
0.0
 10
-16.306650000000001
 20
-8.8347300000000004
 30
0.0
 10
-16.33202
 20
-8.7608999999999995
 30
0.0
 10
-16.376760000000001
 20
-8.6743699999999997
 30
0.0
 10
-16.434190000000001
 20
-8.6020500000000002
 30
0.0
 10
-16.434190000000001
 20
-8.6020500000000002
 30
0.0
 10
-16.491610000000001
 20
-8.5297000000000001
 30
0.0
 10
-16.56174
 20
-8.4715199999999999
 30
0.0
 10
-16.626609999999999
 20
-8.4126200000000004
 30
0.0
 10
-16.626609999999999
 20
-8.4126200000000004
 30
0.0
 10
-16.691479999999999
 20
-8.3536900000000003
 30
0.0
 10
-16.751169999999998
 20
-8.2940199999999997
 30
0.0
 10
-16.8123
 20
-8.2440599999999993
 30
0.0
 10
-16.8123
 20
-8.2440599999999993
 30
0.0
 10
-16.873470000000001
 20
-8.1940799999999996
 30
0.0
 10
-16.936109999999999
 20
-8.15381
 30
0.0
 10
-16.998010000000001
 20
-8.1180199999999996
 30
0.0
 10
-16.998010000000001
 20
-8.1180199999999996
 30
0.0
 10
-17.059909999999999
 20
-8.0822199999999995
 30
0.0
 10
-17.121089999999999
 20
-8.0508900000000008
 30
0.0
 10
-17.182220000000001
 20
-8.0106199999999994
 30
0.0
 10
-17.182220000000001
 20
-8.0106199999999994
 30
0.0
 10
-17.243369999999999
 20
-7.9703400000000002
 30
0.0
 10
-17.304549999999999
 20
-7.9211299999999998
 30
0.0
 10
-17.356000000000002
 20
-7.8719000000000001
 30
0.0
 10
-17.356000000000002
 20
-7.8719000000000001
 30
0.0
 10
-17.407450000000001
 20
-7.8226800000000001
 30
0.0
 10
-17.44922
 20
-7.7734699999999997
 30
0.0
 10
-17.509609999999999
 20
-7.71976
 30
0.0
 10
-17.509609999999999
 20
-7.71976
 30
0.0
 10
-17.570029999999999
 20
-7.6660599999999999
 30
0.0
 10
-17.64911
 20
-7.6078900000000003
 30
0.0
 10
-17.717700000000001
 20
-7.5609200000000003
 30
0.0
 10
-17.717700000000001
 20
-7.5609200000000003
 30
0.0
 10
-17.78632
 20
-7.5139300000000002
 30
0.0
 10
-17.84449
 20
-7.4781300000000002
 30
0.0
 10
-17.916499999999999
 20
-7.4488000000000003
 30
0.0
 10
-17.916499999999999
 20
-7.4488000000000003
 30
0.0
 10
-17.988530000000001
 20
-7.4194599999999999
 30
0.0
 10
-18.07442
 20
-7.39656
 30
0.0
 10
-18.16028
 20
-7.3737000000000004
 30
0.0
 10
-18.16028
 20
-7.3737000000000004
 30
0.0
 10
-18.056509999999999
 20
-7.3846400000000001
 30
0.0
 10
-17.952729999999999
 20
-7.3955900000000003
 30
0.0
 10
-17.86506
 20
-7.4167199999999998
 30
0.0
 10
-17.86506
 20
-7.4167199999999998
 30
0.0
 10
-17.777370000000001
 20
-7.4378500000000001
 30
0.0
 10
-17.705770000000001
 20
-7.4691799999999997
 30
0.0
 10
-17.637160000000002
 20
-7.5116800000000001
 30
0.0
 10
-17.637160000000002
 20
-7.5116800000000001
 30
0.0
 10
-17.568560000000002
 20
-7.5541999999999998
 30
0.0
 10
-17.50291
 20
-7.6078900000000003
 30
0.0
 10
-17.428329999999999
 20
-7.6727800000000004
 30
0.0
 10
-17.428329999999999
 20
-7.6727800000000004
 30
0.0
 10
-17.353770000000001
 20
-7.7376699999999996
 30
0.0
 10
-17.270209999999999
 20
-7.8137400000000001
 30
0.0
 10
-17.19416
 20
-7.8808600000000002
 30
0.0
 10
-17.19416
 20
-7.8808600000000002
 30
0.0
 10
-17.118099999999998
 20
-7.9479699999999998
 30
0.0
 10
-17.049469999999999
 20
-8.0061499999999999
 30
0.0
 10
-16.980129999999999
 20
-8.0598500000000008
 30
0.0
 10
-16.980129999999999
 20
-8.0598500000000008
 30
0.0
 10
-16.910769999999999
 20
-8.1135400000000004
 30
0.0
 10
-16.84064
 20
-8.1627700000000001
 30
0.0
 10
-16.772030000000001
 20
-8.2067599999999992
 30
0.0
 10
-16.772030000000001
 20
-8.2067599999999992
 30
0.0
 10
-16.703430000000001
 20
-8.2507599999999996
 30
0.0
 10
-16.636299999999999
 20
-8.2895500000000002
 30
0.0
 10
-16.564710000000002
 20
-8.3246099999999998
 30
0.0
 10
-16.564710000000002
 20
-8.3246099999999998
 30
0.0
 10
-16.493110000000001
 20
-8.3596599999999999
 30
0.0
 10
-16.41703
 20
-8.3909800000000008
 30
0.0
 10
-16.340250000000001
 20
-8.4133499999999994
 30
0.0
 10
-16.340250000000001
 20
-8.4133499999999994
 30
0.0
 10
-16.26342
 20
-8.4357199999999999
 30
0.0
 10
-16.185829999999999
 20
-8.4491499999999995
 30
0.0
 10
-16.117239999999999
 20
-8.4424299999999999
 30
0.0
 10
-16.117239999999999
 20
-8.4424299999999999
 30
0.0
 10
-16.048629999999999
 20
-8.4357199999999999
 30
0.0
 10
-15.988960000000001
 20
-8.4088799999999999
 30
0.0
 10
-15.92929
 20
-8.3820300000000003
 30
0.0
  0
SPLINE
  5
38
100
AcDbEntity
  8
Default
100
AcDbSpline
210
0.0
220
0.0
230
1.0
 70
     1
 71
     3
 72
    40
 73
    36
 74
     0
 42
0.0000000001
 43
0.0000000001
 40
0.0
 40
0.0
 40
0.0
 40
0.0
 40
0.1111111111111111
 40
0.1111111111111111
 40
0.1111111111111111
 40
0.1111111111111111
 40
0.2222222222222222
 40
0.2222222222222222
 40
0.2222222222222222
 40
0.2222222222222222
 40
0.3333333333333333
 40
0.3333333333333333
 40
0.3333333333333333
 40
0.3333333333333333
 40
0.4444444444444444
 40
0.4444444444444444
 40
0.4444444444444444
 40
0.4444444444444444
 40
0.5555555555555556
 40
0.5555555555555556
 40
0.5555555555555556
 40
0.5555555555555556
 40
0.6666666666666667
 40
0.6666666666666667
 40
0.6666666666666667
 40
0.6666666666666667
 40
0.7777777777777779
 40
0.7777777777777779
 40
0.7777777777777779
 40
0.7777777777777779
 40
0.8888888888888891
 40
0.8888888888888891
 40
0.8888888888888891
 40
0.8888888888888891
 40
1.0
 40
1.0
 40
1.0
 40
1.0
 10
-16.344819999999999
 20
-8.6003799999999995
 30
0.0
 10
-16.281269999999999
 20
-8.6708300000000005
 30
0.0
 10
-16.21773
 20
-8.7413299999999996
 30
0.0
 10
-16.166899999999998
 20
-8.8095199999999991
 30
0.0
 10
-16.166899999999998
 20
-8.8095199999999991
 30
0.0
 10
-16.116050000000001
 20
-8.8777399999999993
 30
0.0
 10
-16.077919999999999
 20
-8.9436999999999998
 30
0.0
 10
-16.051400000000001
 20
-9.0032800000000002
 30
0.0
 10
-16.051400000000001
 20
-9.0032800000000002
 30
0.0
 10
-16.024840000000001
 20
-9.0628700000000002
 30
0.0
 10
-16.009879999999999
 20
-9.1161100000000008
 30
0.0
 10
-16.004650000000002
 20
-9.1592099999999999
 30
0.0
 10
-16.004650000000002
 20
-9.1592099999999999
 30
0.0
 10
-15.999409999999999
 20
-9.2022999999999993
 30
0.0
 10
-16.003920000000001
 20
-9.2352799999999995
 30
0.0
 10
-16.008389999999999
 20
-9.2682599999999997
 30
0.0
 10
-16.008389999999999
 20
-9.2682599999999997
 30
0.0
 10
-15.992699999999999
 20
-9.2300299999999993
 30
0.0
 10
-15.976990000000001
 20
-9.1917899999999992
 30
0.0
 10
-15.971019999999999
 20
-9.1509400000000003
 30
0.0
 10
-15.971019999999999
 20
-9.1509400000000003
 30
0.0
 10
-15.965020000000001
 20
-9.1100899999999996
 30
0.0
 10
-15.968780000000001
 20
-9.0666100000000007
 30
0.0
 10
-15.979229999999999
 20
-9.0227599999999999
 30
0.0
 10
-15.979229999999999
 20
-9.0227599999999999
 30
0.0
 10
-15.98969
 20
-8.9789200000000005
 30
0.0
 10
-16.006910000000001
 20
-8.9346999999999994
 30
0.0
 10
-16.034569999999999
 20
-8.8897200000000005
 30
0.0
 10
-16.034569999999999
 20
-8.8897200000000005
 30
0.0
 10
-16.06223
 20
-8.8447600000000008
 30
0.0
 10
-16.100339999999999
 20
-8.7990300000000001
 30
0.0
 10
-16.15381
 20
-8.7506799999999991
 30
0.0
 10
-16.15381
 20
-8.7506799999999991
 30
0.0
 10
-16.207249999999998
 20
-8.7023299999999999
 30
0.0
 10
-16.276050000000001
 20
-8.6513600000000004
 30
0.0
 10
-16.344819999999999
 20
-8.6003799999999995
 30
0.0
  0
SPLINE
  5
39
100
AcDbEntity
  8
Default
100
AcDbSpline
210
0.0
220
0.0
230
1.0
 70
     1
 71
     3
 72
    40
 73
    36
 74
     0
 42
0.0000000001
 43
0.0000000001
 40
0.0
 40
0.0
 40
0.0
 40
0.0
 40
0.1111111111111111
 40
0.1111111111111111
 40
0.1111111111111111
 40
0.1111111111111111
 40
0.2222222222222222
 40
0.2222222222222222
 40
0.2222222222222222
 40
0.2222222222222222
 40
0.3333333333333333
 40
0.3333333333333333
 40
0.3333333333333333
 40
0.3333333333333333
 40
0.4444444444444444
 40
0.4444444444444444
 40
0.4444444444444444
 40
0.4444444444444444
 40
0.5555555555555556
 40
0.5555555555555556
 40
0.5555555555555556
 40
0.5555555555555556
 40
0.6666666666666667
 40
0.6666666666666667
 40
0.6666666666666667
 40
0.6666666666666667
 40
0.7777777777777779
 40
0.7777777777777779
 40
0.7777777777777779
 40
0.7777777777777779
 40
0.8888888888888891
 40
0.8888888888888891
 40
0.8888888888888891
 40
0.8888888888888891
 40
1.0
 40
1.0
 40
1.0
 40
1.0
 10
-16.06672
 20
-8.7735299999999992
 30
0.0
 10
-16.012889999999999
 20
-8.8319899999999993
 30
0.0
 10
-15.95905
 20
-8.8904700000000005
 30
0.0
 10
-15.917199999999999
 20
-8.9463000000000008
 30
0.0
 10
-15.917199999999999
 20
-8.9463000000000008
 30
0.0
 10
-15.87533
 20
-9.0021400000000007
 30
0.0
 10
-15.845409999999999
 20
-9.0553899999999992
 30
0.0
 10
-15.82708
 20
-9.1044800000000006
 30
0.0
 10
-15.82708
 20
-9.1044800000000006
 30
0.0
 10
-15.808770000000001
 20
-9.1535600000000006
 30
0.0
 10
-15.80204
 20
-9.1985600000000005
 30
0.0
 10
-15.799049999999999
 20
-9.2457700000000003
 30
0.0
 10
-15.799049999999999
 20
-9.2457700000000003
 30
0.0
 10
-15.796060000000001
 20
-9.2929999999999993
 30
0.0
 10
-15.79682
 20
-9.3424700000000005
 30
0.0
 10
-15.79757
 20
-9.39194
 30
0.0
 10
-15.79757
 20
-9.39194
 30
0.0
 10
-15.77515
 20
-9.3536999999999999
 30
0.0
 10
-15.75271
 20
-9.3154900000000005
 30
0.0
 10
-15.743359999999999
 20
-9.2686499999999992
 30
0.0
 10
-15.743359999999999
 20
-9.2686499999999992
 30
0.0
 10
-15.73401
 20
-9.2218
 30
0.0
 10
-15.737769999999999
 20
-9.1663099999999993
 30
0.0
 10
-15.75196
 20
-9.1179799999999993
 30
0.0
 10
-15.75196
 20
-9.1179799999999993
 30
0.0
 10
-15.766159999999999
 20
-9.0696300000000001
 30
0.0
 10
-15.790839999999999
 20
-9.0283899999999999
 30
0.0
 10
-15.819229999999999
 20
-8.9886800000000004
 30
0.0
 10
-15.819229999999999
 20
-8.9886800000000004
 30
0.0
 10
-15.84764
 20
-8.94895
 30
0.0
 10
-15.879799999999999
 20
-8.9107000000000003
 30
0.0
 10
-15.92165
 20
-8.8751200000000008
 30
0.0
 10
-15.92165
 20
-8.8751200000000008
 30
0.0
 10
-15.96353
 20
-8.8394999999999992
 30
0.0
 10
-16.01512
 20
-8.8065099999999994
 30
0.0
 10
-16.06672
 20
-8.7735299999999992
 30
0.0
  0
SPLINE
  5
3A
100
AcDbEntity
  8
Default
100
AcDbSpline
210
0.0
220
0.0
230
1.0
 70
     1
 71
     3
 72
    36
 73
    32
 74
     0
 42
0.0000000001
 43
0.0000000001
 40
0.0
 40
0.0
 40
0.0
 40
0.0
 40
0.125
 40
0.125
 40
0.125
 40
0.125
 40
0.25
 40
0.25
 40
0.25
 40
0.25
 40
0.375
 40
0.375
 40
0.375
 40
0.375
 40
0.5
 40
0.5
 40
0.5
 40
0.5
 40
0.625
 40
0.625
 40
0.625
 40
0.625
 40
0.75
 40
0.75
 40
0.75
 40
0.75
 40
0.875
 40
0.875
 40
0.875
 40
0.875
 40
1.0
 40
1.0
 40
1.0
 40
1.0
 10
-15.74822
 20
-8.9781700000000004
 30
0.0
 10
-15.71383
 20
-9.0351400000000002
 30
0.0
 10
-15.67944
 20
-9.0921099999999999
 30
0.0
 10
-15.654019999999999
 20
-9.1426999999999996
 30
0.0
 10
-15.654019999999999
 20
-9.1426999999999996
 30
0.0
 10
-15.62861
 20
-9.1932899999999993
 30
0.0
 10
-15.61215
 20
-9.23752
 30
0.0
 10
-15.601699999999999
 20
-9.2783800000000003
 30
0.0
 10
-15.601699999999999
 20
-9.2783800000000003
 30
0.0
 10
-15.591229999999999
 20
-9.3192299999999992
 30
0.0
 10
-15.58672
 20
-9.3567099999999996
 30
0.0
 10
-15.58522
 20
-9.3911700000000007
 30
0.0
 10
-15.58522
 20
-9.3911700000000007
 30
0.0
 10
-15.583729999999999
 20
-9.4256600000000006
 30
0.0
 10
-15.585240000000001
 20
-9.4571500000000004
 30
0.0
 10
-15.586740000000001
 20
-9.4886300000000006
 30
0.0
 10
-15.586740000000001
 20
-9.4886300000000006
 30
0.0
 10
-15.56729
 20
-9.4354200000000006
 30
0.0
 10
-15.547840000000001
 20
-9.38218
 30
0.0
 10
-15.541130000000001
 20
-9.3357200000000002
 30
0.0
 10
-15.541130000000001
 20
-9.3357200000000002
 30
0.0
 10
-15.53439
 20
-9.2892399999999995
 30
0.0
 10
-15.540380000000001
 20
-9.2495100000000008
 30
0.0
 10
-15.560930000000001
 20
-9.20641
 30
0.0
 10
-15.560930000000001
 20
-9.20641
 30
0.0
 10
-15.5815
 20
-9.1633200000000006
 30
0.0
 10
-15.61664
 20
-9.1168200000000006
 30
0.0
 10
-15.65028
 20
-9.0782500000000006
 30
0.0
 10
-15.65028
 20
-9.0782500000000006
 30
0.0
 10
-15.683909999999999
 20
-9.0396400000000003
 30
0.0
 10
-15.716089999999999
 20
-9.0088899999999992
 30
0.0
 10
-15.74822
 20
-8.9781700000000004
 30
0.0
  0
SPLINE
  5
3B
100
AcDbEntity
  8
Default
100
AcDbSpline
210
0.0
220
0.0
230
1.0
 70
     1
 71
     3
 72
    76
 73
    72
 74
     0
 42
0.0000000001
 43
0.0000000001
 40
0.0
 40
0.0
 40
0.0
 40
0.0
 40
0.0555555555555556
 40
0.0555555555555556
 40
0.0555555555555556
 40
0.0555555555555556
 40
0.1111111111111111
 40
0.1111111111111111
 40
0.1111111111111111
 40
0.1111111111111111
 40
0.1666666666666667
 40
0.1666666666666667
 40
0.1666666666666667
 40
0.1666666666666667
 40
0.2222222222222222
 40
0.2222222222222222
 40
0.2222222222222222
 40
0.2222222222222222
 40
0.2777777777777778
 40
0.2777777777777778
 40
0.2777777777777778
 40
0.2777777777777778
 40
0.3333333333333334
 40
0.3333333333333334
 40
0.3333333333333334
 40
0.3333333333333334
 40
0.388888888888889
 40
0.388888888888889
 40
0.388888888888889
 40
0.388888888888889
 40
0.4444444444444445
 40
0.4444444444444445
 40
0.4444444444444445
 40
0.4444444444444445
 40
0.5000000000000001
 40
0.5000000000000001
 40
0.5000000000000001
 40
0.5000000000000001
 40
0.5555555555555557
 40
0.5555555555555557
 40
0.5555555555555557
 40
0.5555555555555557
 40
0.6111111111111113
 40
0.6111111111111113
 40
0.6111111111111113
 40
0.6111111111111113
 40
0.6666666666666669
 40
0.6666666666666669
 40
0.6666666666666669
 40
0.6666666666666669
 40
0.7222222222222224
 40
0.7222222222222224
 40
0.7222222222222224
 40
0.7222222222222224
 40
0.777777777777778
 40
0.777777777777778
 40
0.777777777777778
 40
0.777777777777778
 40
0.8333333333333336
 40
0.8333333333333336
 40
0.8333333333333336
 40
0.8333333333333336
 40
0.8888888888888892
 40
0.8888888888888892
 40
0.8888888888888892
 40
0.8888888888888892
 40
0.9444444444444448
 40
0.9444444444444448
 40
0.9444444444444448
 40
0.9444444444444448
 40
1.0
 40
1.0
 40
1.0
 40
1.0
 10
-15.432600000000001
 20
-9.3172499999999996
 30
0.0
 10
-15.26554
 20
-9.4812999999999992
 30
0.0
 10
-15.09848
 20
-9.64541
 30
0.0
 10
-14.880710000000001
 20
-9.8057499999999997
 30
0.0
 10
-14.880710000000001
 20
-9.8057499999999997
 30
0.0
 10
-14.662940000000001
 20
-9.9660899999999994
 30
0.0
 10
-14.39446
 20
-10.12271
 30
0.0
 10
-14.12448
 20
-10.260669999999999
 30
0.0
 10
-14.12448
 20
-10.260669999999999
 30
0.0
 10
-13.854509999999999
 20
-10.39864
 30
0.0
 10
-13.583019999999999
 20
-10.51798
 30
0.0
 10
-13.302619999999999
 20
-10.632070000000001
 30
0.0
 10
-13.302619999999999
 20
-10.632070000000001
 30
0.0
 10
-13.0222
 20
-10.74619
 30
0.0
 10
-12.732810000000001
 20
-10.85507
 30
0.0
 10
-12.406169999999999
 20
-10.955019999999999
 30
0.0
 10
-12.406169999999999
 20
-10.955019999999999
 30
0.0
 10
-12.07952
 20
-11.05494
 30
0.0
 10
-11.71557
 20
-11.14594
 30
0.0
 10
-11.38893
 20
-11.20186
 30
0.0
 10
-11.38893
 20
-11.20186
 30
0.0
 10
-11.06227
 20
-11.25779
 30
0.0
 10
-10.772880000000001
 20
-11.278700000000001
 30
0.0
 10
-10.48128
 20
-11.285410000000001
 30
0.0
 10
-10.48128
 20
-11.285410000000001
 30
0.0
 10
-10.1897
 20
-11.29213
 30
0.0
 10
-9.8958200000000005
 20
-11.28463
 30
0.0
 10
-9.5840899999999998
 20
-11.24512
 30
0.0
 10
-9.5840899999999998
 20
-11.24512
 30
0.0
 10
-9.2723600000000008
 20
-11.2056
 30
0.0
 10
-8.9427000000000003
 20
-11.133990000000001
 30
0.0
 10
-8.58995
 20
-11.032590000000001
 30
0.0
 10
-8.58995
 20
-11.032590000000001
 30
0.0
 10
-8.2371999999999996
 20
-10.931150000000001
 30
0.0
 10
-7.8613099999999996
 20
-10.79988
 30
0.0
 10
-7.4854399999999996
 20
-10.668620000000001
 30
0.0
 10
-7.4854399999999996
 20
-10.668620000000001
 30
0.0
 10
-7.82104
 20
-10.762589999999999
 30
0.0
 10
-8.1566500000000008
 20
-10.85657
 30
0.0
 10
-8.4355700000000002
 20
-10.929650000000001
 30
0.0
 10
-8.4355700000000002
 20
-10.929650000000001
 30
0.0
 10
-8.7144899999999996
 20
-11.002739999999999
 30
0.0
 10
-8.9367599999999996
 20
-11.054959999999999
 30
0.0
 10
-9.2186599999999999
 20
-11.08925
 30
0.0
 10
-9.2186599999999999
 20
-11.08925
 30
0.0
 10
-9.5005500000000005
 20
-11.12354
 30
0.0
 10
-9.8421500000000002
 20
-11.13998
 30
0.0
 10
-10.17773
 20
-11.13625
 30
0.0
 10
-10.17773
 20
-11.13625
 30
0.0
 10
-10.513339999999999
 20
-11.13251
 30
0.0
 10
-10.84301
 20
-11.10863
 30
0.0
 10
-11.1853
 20
-11.059430000000001
 30
0.0
 10
-11.1853
 20
-11.059430000000001
 30
0.0
 10
-11.527609999999999
 20
-11.01022
 30
0.0
 10
-11.882619999999999
 20
-10.935600000000001
 30
0.0
 10
-12.218220000000001
 20
-10.84686
 30
0.0
 10
-12.218220000000001
 20
-10.84686
 30
0.0
 10
-12.55382
 20
-10.75812
 30
0.0
 10
-12.87007
 20
-10.65521
 30
0.0
 10
-13.17808
 20
-10.54185
 30
0.0
 10
-13.17808
 20
-10.54185
 30
0.0
 10
-13.486079999999999
 20
-10.42849
 30
0.0
 10
-13.78589
 20
-10.30467
 30
0.0
 10
-14.05363
 20
-10.177149999999999
 30
0.0
 10
-14.05363
 20
-10.177149999999999
 30
0.0
 10
-14.32136
 20
-10.049630000000001
 30
0.0
 10
-14.55705
 20
-9.9183599999999998
 30
0.0
 10
-14.78152
 20
-9.7744400000000002
 30
0.0
 10
-14.78152
 20
-9.7744400000000002
 30
0.0
 10
-15.005979999999999
 20
-9.6304800000000004
 30
0.0
 10
-15.21932
 20
-9.4738600000000002
 30
0.0
 10
-15.432600000000001
 20
-9.3172499999999996
 30
0.0
  0
SPLINE
  5
3C
100
AcDbEntity
  8
Default
100
AcDbSpline
210
0.0
220
0.0
230
1.0
 70
     1
 71
     3
 72
    28
 73
    24
 74
     0
 42
0.0000000001
 43
0.0000000001
 40
0.0
 40
0.0
 40
0.0
 40
0.0
 40
0.1666666666666667
 40
0.1666666666666667
 40
0.1666666666666667
 40
0.1666666666666667
 40
0.3333333333333333
 40
0.3333333333333333
 40
0.3333333333333333
 40
0.3333333333333333
 40
0.5
 40
0.5
 40
0.5
 40
0.5
 40
0.6666666666666666
 40
0.6666666666666666
 40
0.6666666666666666
 40
0.6666666666666666
 40
0.8333333333333333
 40
0.8333333333333333
 40
0.8333333333333333
 40
0.8333333333333333
 40
1.0
 40
1.0
 40
1.0
 40
1.0
 10
-9.0657200000000007
 20
-10.46294
 30
0.0
 10
-8.7488399999999995
 20
-10.418089999999999
 30
0.0
 10
-8.4319600000000001
 20
-10.37326
 30
0.0
 10
-8.1673899999999993
 20
-10.30898
 30
0.0
 10
-8.1673899999999993
 20
-10.30898
 30
0.0
 10
-7.9028200000000002
 20
-10.24471
 30
0.0
 10
-7.6905799999999997
 20
-10.161
 30
0.0
 10
-7.4813200000000002
 20
-10.05936
 30
0.0
 10
-7.4813200000000002
 20
-10.05936
 30
0.0
 10
-7.2720500000000001
 20
-9.9577299999999997
 30
0.0
 10
-7.0657899999999998
 20
-9.8381500000000006
 30
0.0
 10
-6.8595199999999998
 20
-9.7185699999999997
 30
0.0
 10
-6.8595199999999998
 20
-9.7185699999999997
 30
0.0
 10
-7.0807399999999996
 20
-9.8859700000000004
 30
0.0
 10
-7.3019600000000002
 20
-10.05339
 30
0.0
 10
-7.5381200000000002
 20
-10.18342
 30
0.0
 10
-7.5381200000000002
 20
-10.18342
 30
0.0
 10
-7.7742899999999997
 20
-10.313470000000001
 30
0.0
 10
-8.0253899999999998
 20
-10.406140000000001
 30
0.0
 10
-8.2824799999999996
 20
-10.446479999999999
 30
0.0
 10
-8.2824799999999996
 20
-10.446479999999999
 30
0.0
 10
-8.5395699999999994
 20
-10.48685
 30
0.0
 10
-8.8026499999999999
 20
-10.4749
 30
0.0
 10
-9.0657200000000007
 20
-10.46294
 30
0.0
  0
SPLINE
  5
3D
100
AcDbEntity
  8
Default
100
AcDbSpline
210
0.0
220
0.0
230
1.0
 70
     1
 71
     3
 72
    36
 73
    32
 74
     0
 42
0.0000000001
 43
0.0000000001
 40
0.0
 40
0.0
 40
0.0
 40
0.0
 40
0.125
 40
0.125
 40
0.125
 40
0.125
 40
0.25
 40
0.25
 40
0.25
 40
0.25
 40
0.375
 40
0.375
 40
0.375
 40
0.375
 40
0.5
 40
0.5
 40
0.5
 40
0.5
 40
0.625
 40
0.625
 40
0.625
 40
0.625
 40
0.75
 40
0.75
 40
0.75
 40
0.75
 40
0.875
 40
0.875
 40
0.875
 40
0.875
 40
1.0
 40
1.0
 40
1.0
 40
1.0
 10
-5.0299800000000001
 20
-9.0459499999999995
 30
0.0
 10
-5.2242899999999999
 20
-9.2731399999999997
 30
0.0
 10
-5.4186100000000001
 20
-9.5003399999999996
 30
0.0
 10
-5.5740600000000002
 20
-9.6707400000000003
 30
0.0
 10
-5.5740600000000002
 20
-9.6707400000000003
 30
0.0
 10
-5.7295100000000003
 20
-9.8411399999999993
 30
0.0
 10
-5.8460900000000002
 20
-9.9547399999999993
 30
0.0
 10
-6.0030400000000004
 20
-10.06981
 30
0.0
 10
-6.0030400000000004
 20
-10.06981
 30
0.0
 10
-6.15998
 20
-10.18492
 30
0.0
 10
-6.3572800000000003
 20
-10.301500000000001
 30
0.0
 10
-6.5067700000000004
 20
-10.37175
 30
0.0
 10
-6.5067700000000004
 20
-10.37175
 30
0.0
 10
-6.6562299999999999
 20
-10.44201
 30
0.0
 10
-6.7578699999999996
 20
-10.46593
 30
0.0
 10
-6.8595199999999998
 20
-10.489850000000001
 30
0.0
 10
-6.8595199999999998
 20
-10.489850000000001
 30
0.0
 10
-6.6173700000000002
 20
-10.44201
 30
0.0
 10
-6.3752199999999997
 20
-10.39419
 30
0.0
 10
-6.1629699999999996
 20
-10.306010000000001
 30
0.0
 10
-6.1629699999999996
 20
-10.306010000000001
 30
0.0
 10
-5.9507300000000001
 20
-10.21781
 30
0.0
 10
-5.76837
 20
-10.089259999999999
 30
0.0
 10
-5.6159100000000004
 20
-9.9472699999999996
 30
0.0
 10
-5.6159100000000004
 20
-9.9472699999999996
 30
0.0
 10
-5.4634400000000003
 20
-9.8052600000000005
 30
0.0
 10
-5.3408899999999999
 20
-9.6498100000000004
 30
0.0
 10
-5.2183200000000003
 20
-9.4943600000000004
 30
0.0
 10
-5.2183200000000003
 20
-9.4943600000000004
 30
0.0
 10
-5.1555400000000002
 20
-9.3449000000000009
 30
0.0
 10
-5.0927600000000002
 20
-9.1954200000000004
 30
0.0
 10
-5.0299800000000001
 20
-9.0459499999999995
 30
0.0
  0
SPLINE
  5
3E
100
AcDbEntity
  8
Default
100
AcDbSpline
210
0.0
220
0.0
230
1.0
 70
     1
 71
     3
 72
    48
 73
    44
 74
     0
 42
0.0000000001
 43
0.0000000001
 40
0.0
 40
0.0
 40
0.0
 40
0.0
 40
0.0909090909090909
 40
0.0909090909090909
 40
0.0909090909090909
 40
0.0909090909090909
 40
0.1818181818181818
 40
0.1818181818181818
 40
0.1818181818181818
 40
0.1818181818181818
 40
0.2727272727272727
 40
0.2727272727272727
 40
0.2727272727272727
 40
0.2727272727272727
 40
0.3636363636363637
 40
0.3636363636363637
 40
0.3636363636363637
 40
0.3636363636363637
 40
0.4545454545454546
 40
0.4545454545454546
 40
0.4545454545454546
 40
0.4545454545454546
 40
0.5454545454545455
 40
0.5454545454545455
 40
0.5454545454545455
 40
0.5454545454545455
 40
0.6363636363636365
 40
0.6363636363636365
 40
0.6363636363636365
 40
0.6363636363636365
 40
0.7272727272727274
 40
0.7272727272727274
 40
0.7272727272727274
 40
0.7272727272727274
 40
0.8181818181818183
 40
0.8181818181818183
 40
0.8181818181818183
 40
0.8181818181818183
 40
0.9090909090909093
 40
0.9090909090909093
 40
0.9090909090909093
 40
0.9090909090909093
 40
1.0
 40
1.0
 40
1.0
 40
1.0
 10
-9.3347700000000007
 20
-9.7275299999999998
 30
0.0
 10
-9.1583900000000007
 20
-9.7634000000000007
 30
0.0
 10
-8.9820200000000003
 20
-9.7992899999999992
 30
0.0
 10
-8.7383900000000008
 20
-9.79331
 30
0.0
 10
-8.7383900000000008
 20
-9.79331
 30
0.0
 10
-8.4947300000000006
 20
-9.7873199999999994
 30
0.0
 10
-8.1838300000000004
 20
-9.7394999999999996
 30
0.0
 10
-7.85799
 20
-9.6408500000000004
 30
0.0
 10
-7.85799
 20
-9.6408500000000004
 30
0.0
 10
-7.5321400000000001
 20
-9.5421999999999993
 30
0.0
 10
-7.1913400000000003
 20
-9.3927200000000006
 30
0.0
 10
-6.8714700000000004
 20
-9.2298100000000005
 30
0.0
 10
-6.8714700000000004
 20
-9.2298100000000005
 30
0.0
 10
-6.55159
 20
-9.0668799999999994
 30
0.0
 10
-6.2526700000000002
 20
-8.8904899999999998
 30
0.0
 10
-5.9372800000000003
 20
-8.6752500000000001
 30
0.0
 10
-5.9372800000000003
 20
-8.6752500000000001
 30
0.0
 10
-5.62188
 20
-8.4600100000000005
 30
0.0
 10
-5.2900600000000004
 20
-8.2059099999999994
 30
0.0
 10
-4.95824
 20
-7.95181
 30
0.0
 10
-4.95824
 20
-7.95181
 30
0.0
 10
-5.20038
 20
-8.1819900000000008
 30
0.0
 10
-5.4425100000000004
 20
-8.4121900000000007
 30
0.0
 10
-5.6951200000000002
 20
-8.6199499999999993
 30
0.0
 10
-5.6951200000000002
 20
-8.6199499999999993
 30
0.0
 10
-5.9477399999999996
 20
-8.8277199999999993
 30
0.0
 10
-6.2108100000000004
 20
-9.0130599999999994
 30
0.0
 10
-6.4574299999999996
 20
-9.1684999999999999
 30
0.0
 10
-6.4574299999999996
 20
-9.1684999999999999
 30
0.0
 10
-6.7040699999999998
 20
-9.3239699999999992
 30
0.0
 10
-6.9342499999999996
 20
-9.4495100000000001
 30
0.0
 10
-7.1719099999999996
 20
-9.5556300000000007
 30
0.0
 10
-7.1719099999999996
 20
-9.5556300000000007
 30
0.0
 10
-7.4095700000000004
 20
-9.6617800000000003
 30
0.0
 10
-7.6547099999999997
 20
-9.7484599999999997
 30
0.0
 10
-7.9102899999999998
 20
-9.8082499999999992
 30
0.0
 10
-7.9102899999999998
 20
-9.8082499999999992
 30
0.0
 10
-8.1659000000000006
 20
-9.8680400000000006
 30
0.0
 10
-8.4319600000000001
 20
-9.9009199999999993
 30
0.0
 10
-8.6711200000000002
 20
-9.8829799999999999
 30
0.0
 10
-8.6711200000000002
 20
-9.8829799999999999
 30
0.0
 10
-8.9102599999999992
 20
-9.8650500000000001
 30
0.0
 10
-9.1225199999999997
 20
-9.7963000000000005
 30
0.0
 10
-9.3347700000000007
 20
-9.7275299999999998
 30
0.0
  0
SPLINE
  5
3F
100
AcDbEntity
  8
Default
100
AcDbSpline
210
0.0
220
0.0
230
1.0
 70
     1
 71
     3
 72
    56
 73
    52
 74
     0
 42
0.0000000001
 43
0.0000000001
 40
0.0
 40
0.0
 40
0.0
 40
0.0
 40
0.0769230769230769
 40
0.0769230769230769
 40
0.0769230769230769
 40
0.0769230769230769
 40
0.1538461538461539
 40
0.1538461538461539
 40
0.1538461538461539
 40
0.1538461538461539
 40
0.2307692307692308
 40
0.2307692307692308
 40
0.2307692307692308
 40
0.2307692307692308
 40
0.3076923076923077
 40
0.3076923076923077
 40
0.3076923076923077
 40
0.3076923076923077
 40
0.3846153846153846
 40
0.3846153846153846
 40
0.3846153846153846
 40
0.3846153846153846
 40
0.4615384615384616
 40
0.4615384615384616
 40
0.4615384615384616
 40
0.4615384615384616
 40
0.5384615384615386
 40
0.5384615384615386
 40
0.5384615384615386
 40
0.5384615384615386
 40
0.6153846153846154
 40
0.6153846153846154
 40
0.6153846153846154
 40
0.6153846153846154
 40
0.6923076923076923
 40
0.6923076923076923
 40
0.6923076923076923
 40
0.6923076923076923
 40
0.7692307692307692
 40
0.7692307692307692
 40
0.7692307692307692
 40
0.7692307692307692
 40
0.846153846153846
 40
0.846153846153846
 40
0.846153846153846
 40
0.846153846153846
 40
0.9230769230769229
 40
0.9230769230769229
 40
0.9230769230769229
 40
0.9230769230769229
 40
1.0
 40
1.0
 40
1.0
 40
1.0
 10
-8.5904000000000007
 20
-8.7410200000000007
 30
0.0
 10
-8.2735199999999995
 20
-8.7380300000000002
 30
0.0
 10
-7.9566400000000002
 20
-8.7350399999999997
 30
0.0
 10
-7.64872
 20
-8.6887100000000004
 30
0.0
 10
-7.64872
 20
-8.6887100000000004
 30
0.0
 10
-7.3408199999999999
 20
-8.6423699999999997
 30
0.0
 10
-7.0418700000000003
 20
-8.5526999999999997
 30
0.0
 10
-6.72499
 20
-8.4301300000000001
 30
0.0
 10
-6.72499
 20
-8.4301300000000001
 30
0.0
 10
-6.4081099999999998
 20
-8.3075600000000005
 30
0.0
 10
-6.0732999999999997
 20
-8.1521100000000004
 30
0.0
 10
-5.7534299999999998
 20
-7.9682700000000004
 30
0.0
 10
-5.7534299999999998
 20
-7.9682700000000004
 30
0.0
 10
-5.4335599999999999
 20
-7.7843999999999998
 30
0.0
 10
-5.1286300000000002
 20
-7.5721499999999997
 30
0.0
 10
-4.8281999999999998
 20
-7.3345099999999999
 30
0.0
 10
-4.8281999999999998
 20
-7.3345099999999999
 30
0.0
 10
-4.5277599999999998
 20
-7.0968299999999997
 30
0.0
 10
-4.2317900000000002
 20
-6.8337599999999998
 30
0.0
 10
-4.0001300000000004
 20
-6.6095600000000001
 30
0.0
 10
-4.0001300000000004
 20
-6.6095600000000001
 30
0.0
 10
-3.76844
 20
-6.3853499999999999
 30
0.0
 10
-3.6010200000000001
 20
-6.2000000000000002
 30
0.0
 10
-3.4336199999999999
 20
-6.0146600000000001
 30
0.0
 10
-3.4336199999999999
 20
-6.0146600000000001
 30
0.0
 10
-3.7206000000000001
 20
-6.3823600000000003
 30
0.0
 10
-4.0076000000000001
 20
-6.7500499999999999
 30
0.0
 10
-4.2856100000000001
 20
-7.05199
 30
0.0
 10
-4.2856100000000001
 20
-7.05199
 30
0.0
 10
-4.5636299999999999
 20
-7.3539199999999996
 30
0.0
 10
-4.8326700000000002
 20
-7.59009
 30
0.0
 10
-5.0838000000000001
 20
-7.7903799999999999
 30
0.0
 10
-5.0838000000000001
 20
-7.7903799999999999
 30
0.0
 10
-5.3349000000000002
 20
-7.9906800000000002
 30
0.0
 10
-5.5680800000000001
 20
-8.1550999999999991
 30
0.0
 10
-5.8057400000000001
 20
-8.2881099999999996
 30
0.0
 10
-5.8057400000000001
 20
-8.2881099999999996
 30
0.0
 10
-6.0434000000000001
 20
-8.4211500000000008
 30
0.0
 10
-6.2855400000000001
 20
-8.5227900000000005
 30
0.0
 10
-6.5247000000000002
 20
-8.5990199999999994
 30
0.0
 10
-6.5247000000000002
 20
-8.5990199999999994
 30
0.0
 10
-6.7638600000000002
 20
-8.6752500000000001
 30
0.0
 10
-7.0000200000000001
 20
-8.7260799999999996
 30
0.0
 10
-7.2556000000000003
 20
-8.7604399999999991
 30
0.0
 10
-7.2556000000000003
 20
-8.7604399999999991
 30
0.0
 10
-7.5112100000000002
 20
-8.7948299999999993
 30
0.0
 10
-7.7862400000000003
 20
-8.8127600000000008
 30
0.0
 10
-8.0119299999999996
 20
-8.8068000000000008
 30
0.0
 10
-8.0119299999999996
 20
-8.8068000000000008
 30
0.0
 10
-8.2376400000000007
 20
-8.8008100000000002
 30
0.0
 10
-8.4140099999999993
 20
-8.7709299999999999
 30
0.0
 10
-8.5904000000000007
 20
-8.7410200000000007
 30
0.0
  0
SPLINE
  5
40
100
AcDbEntity
  8
Default
100
AcDbSpline
210
0.0
220
0.0
230
1.0
 70
     1
 71
     3
 72
    48
 73
    44
 74
     0
 42
0.0000000001
 43
0.0000000001
 40
0.0
 40
0.0
 40
0.0
 40
0.0
 40
0.0909090909090909
 40
0.0909090909090909
 40
0.0909090909090909
 40
0.0909090909090909
 40
0.1818181818181818
 40
0.1818181818181818
 40
0.1818181818181818
 40
0.1818181818181818
 40
0.2727272727272727
 40
0.2727272727272727
 40
0.2727272727272727
 40
0.2727272727272727
 40
0.3636363636363637
 40
0.3636363636363637
 40
0.3636363636363637
 40
0.3636363636363637
 40
0.4545454545454546
 40
0.4545454545454546
 40
0.4545454545454546
 40
0.4545454545454546
 40
0.5454545454545455
 40
0.5454545454545455
 40
0.5454545454545455
 40
0.5454545454545455
 40
0.6363636363636365
 40
0.6363636363636365
 40
0.6363636363636365
 40
0.6363636363636365
 40
0.7272727272727274
 40
0.7272727272727274
 40
0.7272727272727274
 40
0.7272727272727274
 40
0.8181818181818183
 40
0.8181818181818183
 40
0.8181818181818183
 40
0.8181818181818183
 40
0.9090909090909093
 40
0.9090909090909093
 40
0.9090909090909093
 40
0.9090909090909093
 40
1.0
 40
1.0
 40
1.0
 40
1.0
 10
-7.7384199999999996
 20
-7.7993600000000001
 30
0.0
 10
-7.4215400000000002
 20
-7.7724500000000001
 30
0.0
 10
-7.10466
 20
-7.7455400000000001
 30
0.0
 10
-6.7309599999999996
 20
-7.6543700000000001
 30
0.0
 10
-6.7309599999999996
 20
-7.6543700000000001
 30
0.0
 10
-6.3572800000000003
 20
-7.56318
 30
0.0
 10
-5.9268099999999997
 20
-7.4077299999999999
 30
0.0
 10
-5.5546300000000004
 20
-7.2209000000000003
 30
0.0
 10
-5.5546300000000004
 20
-7.2209000000000003
 30
0.0
 10
-5.1824500000000002
 20
-7.0340499999999997
 30
0.0
 10
-4.8685400000000003
 20
-6.8158200000000004
 30
0.0
 10
-4.5800700000000001
 20
-6.5931199999999999
 30
0.0
 10
-4.5800700000000001
 20
-6.5931199999999999
 30
0.0
 10
-4.2915799999999997
 20
-6.3704099999999997
 30
0.0
 10
-4.0285200000000003
 20
-6.1432000000000002
 30
0.0
 10
-3.7400500000000001
 20
-5.8756599999999999
 30
0.0
 10
-3.7400500000000001
 20
-5.8756599999999999
 30
0.0
 10
-3.4515600000000002
 20
-5.6080899999999998
 30
0.0
 10
-3.13767
 20
-5.3001899999999997
 30
0.0
 10
-2.8237800000000002
 20
-4.9922700000000004
 30
0.0
 10
-2.8237800000000002
 20
-4.9922700000000004
 30
0.0
 10
-3.1615700000000002
 20
-5.3988399999999999
 30
0.0
 10
-3.4993799999999999
 20
-5.8053900000000001
 30
0.0
 10
-3.7878500000000002
 20
-6.1192799999999998
 30
0.0
 10
-3.7878500000000002
 20
-6.1192799999999998
 30
0.0
 10
-4.0763400000000001
 20
-6.4331699999999996
 30
0.0
 10
-4.3155000000000001
 20
-6.6543900000000002
 30
0.0
 10
-4.5427
 20
-6.8427300000000004
 30
0.0
 10
-4.5427
 20
-6.8427300000000004
 30
0.0
 10
-4.7698900000000002
 20
-7.0310600000000001
 30
0.0
 10
-4.9851299999999998
 20
-7.1865100000000002
 30
0.0
 10
-5.2048500000000004
 20
-7.3120700000000003
 30
0.0
 10
-5.2048500000000004
 20
-7.3120700000000003
 30
0.0
 10
-5.4245799999999997
 20
-7.4376300000000004
 30
0.0
 10
-5.64879
 20
-7.53329
 30
0.0
 10
-5.8864400000000003
 20
-7.6140100000000004
 30
0.0
 10
-5.8864400000000003
 20
-7.6140100000000004
 30
0.0
 10
-6.1241099999999999
 20
-7.6947200000000002
 30
0.0
 10
-6.3752199999999997
 20
-7.7604800000000003
 30
0.0
 10
-6.6861300000000004
 20
-7.7888700000000002
 30
0.0
 10
-6.6861300000000004
 20
-7.7888700000000002
 30
0.0
 10
-6.9970299999999996
 20
-7.8172899999999998
 30
0.0
 10
-7.3677099999999998
 20
-7.8083200000000001
 30
0.0
 10
-7.7384199999999996
 20
-7.7993600000000001
 30
0.0
  0
SPLINE
  5
41
100
AcDbEntity
  8
Default
100
AcDbSpline
210
0.0
220
0.0
230
1.0
 70
     1
 71
     3
 72
    56
 73
    52
 74
     0
 42
0.0000000001
 43
0.0000000001
 40
0.0
 40
0.0
 40
0.0
 40
0.0
 40
0.0769230769230769
 40
0.0769230769230769
 40
0.0769230769230769
 40
0.0769230769230769
 40
0.1538461538461539
 40
0.1538461538461539
 40
0.1538461538461539
 40
0.1538461538461539
 40
0.2307692307692308
 40
0.2307692307692308
 40
0.2307692307692308
 40
0.2307692307692308
 40
0.3076923076923077
 40
0.3076923076923077
 40
0.3076923076923077
 40
0.3076923076923077
 40
0.3846153846153846
 40
0.3846153846153846
 40
0.3846153846153846
 40
0.3846153846153846
 40
0.4615384615384616
 40
0.4615384615384616
 40
0.4615384615384616
 40
0.4615384615384616
 40
0.5384615384615386
 40
0.5384615384615386
 40
0.5384615384615386
 40
0.5384615384615386
 40
0.6153846153846154
 40
0.6153846153846154
 40
0.6153846153846154
 40
0.6153846153846154
 40
0.6923076923076923
 40
0.6923076923076923
 40
0.6923076923076923
 40
0.6923076923076923
 40
0.7692307692307692
 40
0.7692307692307692
 40
0.7692307692307692
 40
0.7692307692307692
 40
0.846153846153846
 40
0.846153846153846
 40
0.846153846153846
 40
0.846153846153846
 40
0.9230769230769229
 40
0.9230769230769229
 40
0.9230769230769229
 40
0.9230769230769229
 40
1.0
 40
1.0
 40
1.0
 40
1.0
 10
-7.0119699999999998
 20
-6.9922000000000004
 30
0.0
 10
-6.66221
 20
-6.9294200000000004
 30
0.0
 10
-6.3124599999999997
 20
-6.8666499999999999
 30
0.0
 10
-5.9656700000000003
 20
-6.7679999999999998
 30
0.0
 10
-5.9656700000000003
 20
-6.7679999999999998
 30
0.0
 10
-5.6189099999999996
 20
-6.6693199999999999
 30
0.0
 10
-5.2751200000000003
 20
-6.5347499999999998
 30
0.0
 10
-4.9567399999999999
 20
-6.3598699999999999
 30
0.0
 10
-4.9567399999999999
 20
-6.3598699999999999
 30
0.0
 10
-4.6383599999999996
 20
-6.1849999999999996
 30
0.0
 10
-4.3453999999999997
 20
-5.9697800000000001
 30
0.0
 10
-4.0748600000000001
 20
-5.7336400000000003
 30
0.0
 10
-4.0748600000000001
 20
-5.7336400000000003
 30
0.0
 10
-3.8043100000000001
 20
-5.49749
 30
0.0
 10
-3.55619
 20
-5.2404000000000002
 30
0.0
 10
-3.3394599999999999
 20
-4.9907899999999996
 30
0.0
 10
-3.3394599999999999
 20
-4.9907899999999996
 30
0.0
 10
-3.1227100000000001
 20
-4.7411599999999998
 30
0.0
 10
-2.9373800000000001
 20
-4.4990100000000002
 30
0.0
 10
-2.7699600000000002
 20
-4.2613700000000003
 30
0.0
 10
-2.7699600000000002
 20
-4.2613700000000003
 30
0.0
 10
-2.60256
 20
-4.0236900000000002
 30
0.0
 10
-2.4530799999999999
 20
-3.7905199999999999
 30
0.0
 10
-2.30362
 20
-3.55735
 30
0.0
 10
-2.30362
 20
-3.55735
 30
0.0
 10
-2.5068999999999999
 20
-3.9579200000000001
 30
0.0
 10
-2.7101700000000002
 20
-4.3585099999999999
 30
0.0
 10
-2.9328699999999999
 20
-4.7067699999999997
 30
0.0
 10
-2.9328699999999999
 20
-4.7067699999999997
 30
0.0
 10
-3.1556099999999998
 20
-5.0550499999999996
 30
0.0
 10
-3.3977499999999998
 20
-5.351
 30
0.0
 10
-3.6040199999999998
 20
-5.5811799999999998
 30
0.0
 10
-3.6040199999999998
 20
-5.5811799999999998
 30
0.0
 10
-3.8102900000000002
 20
-5.8113799999999998
 30
0.0
 10
-3.98068
 20
-5.9757999999999996
 30
0.0
 10
-4.1854500000000003
 20
-6.1267500000000004
 30
0.0
 10
-4.1854500000000003
 20
-6.1267500000000004
 30
0.0
 10
-4.39025
 20
-6.2777200000000004
 30
0.0
 10
-4.6293899999999999
 20
-6.4152399999999998
 30
0.0
 10
-4.8715400000000004
 20
-6.5258500000000002
 30
0.0
 10
-4.8715400000000004
 20
-6.5258500000000002
 30
0.0
 10
-5.1136799999999996
 20
-6.6364599999999996
 30
0.0
 10
-5.3588199999999997
 20
-6.7201599999999999
 30
0.0
 10
-5.6189099999999996
 20
-6.7934000000000001
 30
0.0
 10
-5.6189099999999996
 20
-6.7934000000000001
 30
0.0
 10
-5.8789699999999998
 20
-6.8666499999999999
 30
0.0
 10
-6.15402
 20
-6.9294200000000004
 30
0.0
 10
-6.3886700000000003
 20
-6.9607999999999999
 30
0.0
 10
-6.3886700000000003
 20
-6.9607999999999999
 30
0.0
 10
-6.6233500000000003
 20
-6.9922000000000004
 30
0.0
 10
-6.8176600000000001
 20
-6.9922000000000004
 30
0.0
 10
-7.0119699999999998
 20
-6.9922000000000004
 30
0.0
  0
SPLINE
  5
42
100
AcDbEntity
  8
Default
100
AcDbSpline
210
0.0
220
0.0
230
1.0
 70
     1
 71
     3
 72
    64
 73
    60
 74
     0
 42
0.0000000001
 43
0.0000000001
 40
0.0
 40
0.0
 40
0.0
 40
0.0
 40
0.0666666666666667
 40
0.0666666666666667
 40
0.0666666666666667
 40
0.0666666666666667
 40
0.1333333333333333
 40
0.1333333333333333
 40
0.1333333333333333
 40
0.1333333333333333
 40
0.2
 40
0.2
 40
0.2
 40
0.2
 40
0.2666666666666667
 40
0.2666666666666667
 40
0.2666666666666667
 40
0.2666666666666667
 40
0.3333333333333333
 40
0.3333333333333333
 40
0.3333333333333333
 40
0.3333333333333333
 40
0.4
 40
0.4
 40
0.4
 40
0.4
 40
0.4666666666666666
 40
0.4666666666666666
 40
0.4666666666666666
 40
0.4666666666666666
 40
0.5333333333333333
 40
0.5333333333333333
 40
0.5333333333333333
 40
0.5333333333333333
 40
0.6
 40
0.6
 40
0.6
 40
0.6
 40
0.6666666666666666
 40
0.6666666666666666
 40
0.6666666666666666
 40
0.6666666666666666
 40
0.7333333333333333
 40
0.7333333333333333
 40
0.7333333333333333
 40
0.7333333333333333
 40
0.7999999999999999
 40
0.7999999999999999
 40
0.7999999999999999
 40
0.7999999999999999
 40
0.8666666666666666
 40
0.8666666666666666
 40
0.8666666666666666
 40
0.8666666666666666
 40
0.9333333333333332
 40
0.9333333333333332
 40
0.9333333333333332
 40
0.9333333333333332
 40
1.0
 40
1.0
 40
1.0
 40
1.0
 10
-6.5187200000000001
 20
-5.9967100000000002
 30
0.0
 10
-6.2945000000000002
 20
-5.9877500000000001
 30
0.0
 10
-6.0703100000000001
 20
-5.9787800000000004
 30
0.0
 10
-5.78782
 20
-5.91751
 30
0.0
 10
-5.78782
 20
-5.91751
 30
0.0
 10
-5.5053000000000001
 20
-5.8562200000000004
 30
0.0
 10
-5.1645000000000003
 20
-5.74261
 30
0.0
 10
-4.8700599999999996
 20
-5.59016
 30
0.0
 10
-4.8700599999999996
 20
-5.59016
 30
0.0
 10
-4.5755800000000004
 20
-5.4377000000000004
 30
0.0
 10
-4.3274699999999999
 20
-5.2463699999999998
 30
0.0
 10
-4.0883099999999999
 20
-5.0430999999999999
 30
0.0
 10
-4.0883099999999999
 20
-5.0430999999999999
 30
0.0
 10
-3.8491599999999999
 20
-4.8398099999999999
 30
0.0
 10
-3.61896
 20
-4.6245700000000003
 30
0.0
 10
-3.3843100000000002
 20
-4.3585099999999999
 30
0.0
 10
-3.3843100000000002
 20
-4.3585099999999999
 30
0.0
 10
-3.1496200000000001
 20
-4.09246
 30
0.0
 10
-2.9104700000000001
 20
-3.7755800000000002
 30
0.0
 10
-2.7116899999999999
 20
-3.4870999999999999
 30
0.0
 10
-2.7116899999999999
 20
-3.4870999999999999
 30
0.0
 10
-2.5128699999999999
 20
-3.19861
 30
0.0
 10
-2.3544299999999998
 20
-2.9385300000000001
 30
0.0
 10
-2.2154400000000001
 20
-2.6724600000000001
 30
0.0
 10
-2.2154400000000001
 20
-2.6724600000000001
 30
0.0
 10
-2.0764100000000001
 20
-2.4064100000000002
 30
0.0
 10
-1.9568300000000001
 20
-2.13436
 30
0.0
 10
-1.8372599999999999
 20
-1.86233
 30
0.0
 10
-1.8372599999999999
 20
-1.86233
 30
0.0
 10
-1.9568300000000001
 20
-2.2330100000000002
 30
0.0
 10
-2.0764100000000001
 20
-2.60372
 30
0.0
 10
-2.21991
 20
-2.9430000000000001
 30
0.0
 10
-2.21991
 20
-2.9430000000000001
 30
0.0
 10
-2.36341
 20
-3.2823099999999998
 30
0.0
 10
-2.5308099999999998
 20
-3.59023
 30
0.0
 10
-2.6907399999999999
 20
-3.8488000000000002
 30
0.0
 10
-2.6907399999999999
 20
-3.8488000000000002
 30
0.0
 10
-2.8506800000000001
 20
-4.1074000000000002
 30
0.0
 10
-3.0031300000000001
 20
-4.3166500000000001
 30
0.0
 10
-3.1645699999999999
 20
-4.5094700000000003
 30
0.0
 10
-3.1645699999999999
 20
-4.5094700000000003
 30
0.0
 10
-3.3260000000000001
 20
-4.7023000000000001
 30
0.0
 10
-3.49641
 20
-4.8786699999999996
 30
0.0
 10
-3.6727799999999999
 20
-5.0371100000000002
 30
0.0
 10
-3.6727799999999999
 20
-5.0371100000000002
 30
0.0
 10
-3.8491599999999999
 20
-5.1955499999999999
 30
0.0
 10
-4.0315099999999999
 20
-5.3360599999999998
 30
0.0
 10
-4.2572099999999997
 20
-5.4690799999999999
 30
0.0
 10
-4.2572099999999997
 20
-5.4690799999999999
 30
0.0
 10
-4.48292
 20
-5.6021099999999997
 30
0.0
 10
-4.7519600000000004
 20
-5.7276699999999998
 30
0.0
 10
-5.0075500000000002
 20
-5.8188399999999998
 30
0.0
 10
-5.0075500000000002
 20
-5.8188399999999998
 30
0.0
 10
-5.2631500000000004
 20
-5.9100299999999999
 30
0.0
 10
-5.5053000000000001
 20
-5.9668299999999999
 30
0.0
 10
-5.7549099999999997
 20
-5.9907500000000002
 30
0.0
 10
-5.7549099999999997
 20
-5.9907500000000002
 30
0.0
 10
-6.0045299999999999
 20
-6.0146600000000001
 30
0.0
 10
-6.2616300000000003
 20
-6.0056900000000004
 30
0.0
 10
-6.5187200000000001
 20
-5.9967100000000002
 30
0.0
  0
SPLINE
  5
43
100
AcDbEntity
  8
Default
100
AcDbSpline
210
0.0
220
0.0
230
1.0
 70
     1
 71
     3
 72
    64
 73
    60
 74
     0
 42
0.0000000001
 43
0.0000000001
 40
0.0
 40
0.0
 40
0.0
 40
0.0
 40
0.0666666666666667
 40
0.0666666666666667
 40
0.0666666666666667
 40
0.0666666666666667
 40
0.1333333333333333
 40
0.1333333333333333
 40
0.1333333333333333
 40
0.1333333333333333
 40
0.2
 40
0.2
 40
0.2
 40
0.2
 40
0.2666666666666667
 40
0.2666666666666667
 40
0.2666666666666667
 40
0.2666666666666667
 40
0.3333333333333333
 40
0.3333333333333333
 40
0.3333333333333333
 40
0.3333333333333333
 40
0.4
 40
0.4
 40
0.4
 40
0.4
 40
0.4666666666666666
 40
0.4666666666666666
 40
0.4666666666666666
 40
0.4666666666666666
 40
0.5333333333333333
 40
0.5333333333333333
 40
0.5333333333333333
 40
0.5333333333333333
 40
0.6
 40
0.6
 40
0.6
 40
0.6
 40
0.6666666666666666
 40
0.6666666666666666
 40
0.6666666666666666
 40
0.6666666666666666
 40
0.7333333333333333
 40
0.7333333333333333
 40
0.7333333333333333
 40
0.7333333333333333
 40
0.7999999999999999
 40
0.7999999999999999
 40
0.7999999999999999
 40
0.7999999999999999
 40
0.8666666666666666
 40
0.8666666666666666
 40
0.8666666666666666
 40
0.8666666666666666
 40
0.9333333333333332
 40
0.9333333333333332
 40
0.9333333333333332
 40
0.9333333333333332
 40
1.0
 40
1.0
 40
1.0
 40
1.0
 10
-6.3124599999999997
 20
-5.1626799999999999
 30
0.0
 10
-6.0045299999999999
 20
-5.0879300000000001
 30
0.0
 10
-5.6966299999999999
 20
-5.0131899999999998
 30
0.0
 10
-5.3722899999999996
 20
-4.8816699999999997
 30
0.0
 10
-5.3722899999999996
 20
-4.8816699999999997
 30
0.0
 10
-5.0479099999999999
 20
-4.7501199999999999
 30
0.0
 10
-4.7071300000000003
 20
-4.5617900000000002
 30
0.0
 10
-4.4096799999999998
 20
-4.3555200000000003
 30
0.0
 10
-4.4096799999999998
 20
-4.3555200000000003
 30
0.0
 10
-4.1122300000000003
 20
-4.1492500000000003
 30
0.0
 10
-3.8581099999999999
 20
-3.9250400000000001
 30
0.0
 10
-3.6025399999999999
 20
-3.6575000000000002
 30
0.0
 10
-3.6025399999999999
 20
-3.6575000000000002
 30
0.0
 10
-3.3469199999999999
 20
-3.3899300000000001
 30
0.0
 10
-3.0898300000000001
 20
-3.07904
 30
0.0
 10
-2.84321
 20
-2.7501899999999999
 30
0.0
 10
-2.84321
 20
-2.7501899999999999
 30
0.0
 10
-2.5965799999999999
 20
-2.42136
 30
0.0
 10
-2.3604099999999999
 20
-2.07457
 30
0.0
 10
-2.15266
 20
-1.7457400000000001
 30
0.0
 10
-2.15266
 20
-1.7457400000000001
 30
0.0
 10
-1.9448799999999999
 20
-1.4169099999999999
 30
0.0
 10
-1.76552
 20
-1.1060000000000001
 30
0.0
 10
-1.6235299999999999
 20
-0.85489
 30
0.0
 10
-1.6235299999999999
 20
-0.85489
 30
0.0
 10
-1.4815100000000001
 20
-0.6037900000000001
 30
0.0
 10
-1.3769
 20
-0.41245
 30
0.0
 10
-1.2722599999999999
 20
-0.22113
 30
0.0
 10
-1.2722599999999999
 20
-0.22113
 30
0.0
 10
-1.4934799999999999
 20
-0.70244
 30
0.0
 10
-1.71469
 20
-1.1837200000000001
 30
0.0
 10
-1.91947
 20
-1.60524
 30
0.0
 10
-1.91947
 20
-1.60524
 30
0.0
 10
-2.12425
 20
-2.0267499999999998
 30
0.0
 10
-2.3125800000000001
 20
-2.3884799999999999
 30
0.0
 10
-2.4994100000000001
 20
-2.6978599999999999
 30
0.0
 10
-2.4994100000000001
 20
-2.6978599999999999
 30
0.0
 10
-2.6862499999999998
 20
-3.0072800000000002
 30
0.0
 10
-2.8715999999999999
 20
-3.26437
 30
0.0
 10
-3.05097
 20
-3.4885799999999998
 30
0.0
 10
-3.05097
 20
-3.4885799999999998
 30
0.0
 10
-3.23034
 20
-3.7128000000000001
 30
0.0
 10
-3.4037199999999999
 20
-3.9041100000000002
 30
0.0
 10
-3.5965400000000001
 20
-4.0774999999999997
 30
0.0
 10
-3.5965400000000001
 20
-4.0774999999999997
 30
0.0
 10
-3.7893699999999999
 20
-4.2508999999999997
 30
0.0
 10
-4.0016100000000003
 20
-4.4063499999999998
 30
0.0
 10
-4.2616899999999998
 20
-4.54983
 30
0.0
 10
-4.2616899999999998
 20
-4.54983
 30
0.0
 10
-4.5217799999999997
 20
-4.6933199999999999
 30
0.0
 10
-4.8296799999999998
 20
-4.8248699999999998
 30
0.0
 10
-5.0987400000000003
 20
-4.9220100000000002
 30
0.0
 10
-5.0987400000000003
 20
-4.9220100000000002
 30
0.0
 10
-5.3677799999999998
 20
-5.0191800000000004
 30
0.0
 10
-5.5979799999999997
 20
-5.0819599999999996
 30
0.0
 10
-5.7937700000000003
 20
-5.11632
 30
0.0
 10
-5.7937700000000003
 20
-5.11632
 30
0.0
 10
-5.9895899999999997
 20
-5.1507100000000001
 30
0.0
 10
-6.1510199999999999
 20
-5.1566900000000002
 30
0.0
 10
-6.3124599999999997
 20
-5.1626799999999999
 30
0.0
  0
SPLINE
  5
44
100
AcDbEntity
  8
Default
100
AcDbSpline
210
0.0
220
0.0
230
1.0
 70
     1
 71
     3
 72
    56
 73
    52
 74
     0
 42
0.0000000001
 43
0.0000000001
 40
0.0
 40
0.0
 40
0.0
 40
0.0
 40
0.0769230769230769
 40
0.0769230769230769
 40
0.0769230769230769
 40
0.0769230769230769
 40
0.1538461538461539
 40
0.1538461538461539
 40
0.1538461538461539
 40
0.1538461538461539
 40
0.2307692307692308
 40
0.2307692307692308
 40
0.2307692307692308
 40
0.2307692307692308
 40
0.3076923076923077
 40
0.3076923076923077
 40
0.3076923076923077
 40
0.3076923076923077
 40
0.3846153846153846
 40
0.3846153846153846
 40
0.3846153846153846
 40
0.3846153846153846
 40
0.4615384615384616
 40
0.4615384615384616
 40
0.4615384615384616
 40
0.4615384615384616
 40
0.5384615384615386
 40
0.5384615384615386
 40
0.5384615384615386
 40
0.5384615384615386
 40
0.6153846153846154
 40
0.6153846153846154
 40
0.6153846153846154
 40
0.6153846153846154
 40
0.6923076923076923
 40
0.6923076923076923
 40
0.6923076923076923
 40
0.6923076923076923
 40
0.7692307692307692
 40
0.7692307692307692
 40
0.7692307692307692
 40
0.7692307692307692
 40
0.846153846153846
 40
0.846153846153846
 40
0.846153846153846
 40
0.846153846153846
 40
0.9230769230769229
 40
0.9230769230769229
 40
0.9230769230769229
 40
0.9230769230769229
 40
1.0
 40
1.0
 40
1.0
 40
1.0
 10
-5.8460900000000002
 20
-3.6380499999999998
 30
0.0
 10
-5.5890000000000004
 20
-3.5872299999999999
 30
0.0
 10
-5.3319099999999997
 20
-3.5364200000000001
 30
0.0
 10
-5.02698
 20
-3.4213300000000002
 30
0.0
 10
-5.02698
 20
-3.4213300000000002
 30
0.0
 10
-4.7220700000000004
 20
-3.3062200000000002
 30
0.0
 10
-4.3693200000000001
 20
-3.1268600000000002
 30
0.0
 10
-4.0300200000000004
 20
-2.9116200000000001
 30
0.0
 10
-4.0300200000000004
 20
-2.9116200000000001
 30
0.0
 10
-3.6907199999999998
 20
-2.69638
 30
0.0
 10
-3.3648600000000002
 20
-2.4452799999999999
 30
0.0
 10
-3.0704199999999999
 20
-2.1642700000000001
 30
0.0
 10
-3.0704199999999999
 20
-2.1642700000000001
 30
0.0
 10
-2.7759499999999999
 20
-1.8832599999999999
 30
0.0
 10
-2.5128699999999999
 20
-1.57236
 30
0.0
 10
-2.2752300000000001
 20
-1.25847
 30
0.0
 10
-2.2752300000000001
 20
-1.25847
 30
0.0
 10
-2.03755
 20
-0.94457
 30
0.0
 10
-1.82531
 20
-0.62769
 30
0.0
 10
-1.63696
 20
-0.34819
 30
0.0
 10
-1.63696
 20
-0.34819
 30
0.0
 10
-1.4486399999999999
 20
-0.06868
 30
0.0
 10
-1.2842100000000001
 20
0.17346
 30
0.0
 10
-1.11981
 20
0.41561
 30
0.0
 10
-1.11981
 20
0.41561
 30
0.0
 10
-1.30813
 20
0.03894
 30
0.0
 10
-1.49647
 20
-0.33772
 30
0.0
 10
-1.68927
 20
-0.69494
 30
0.0
 10
-1.68927
 20
-0.69494
 30
0.0
 10
-1.8821000000000001
 20
-1.05219
 30
0.0
 10
-2.0794000000000001
 20
-1.3899999999999999
 30
0.0
 10
-2.2737099999999999
 20
-1.6665099999999999
 30
0.0
 10
-2.2737099999999999
 20
-1.6665099999999999
 30
0.0
 10
-2.4680200000000001
 20
-1.9430499999999999
 30
0.0
 10
-2.6593599999999999
 20
-2.15828
 30
0.0
 10
-2.8372099999999998
 20
-2.3316699999999999
 30
0.0
 10
-2.8372099999999998
 20
-2.3316699999999999
 30
0.0
 10
-3.0150999999999999
 20
-2.5050699999999999
 30
0.0
 10
-3.1795300000000002
 20
-2.63659
 30
0.0
 10
-3.4052199999999999
 20
-2.7785799999999998
 30
0.0
 10
-3.4052199999999999
 20
-2.7785799999999998
 30
0.0
 10
-3.6309300000000002
 20
-2.9205999999999999
 30
0.0
 10
-3.9178999999999999
 20
-3.0730499999999998
 30
0.0
 10
-4.2033800000000001
 20
-3.2000899999999999
 30
0.0
 10
-4.2033800000000001
 20
-3.2000899999999999
 30
0.0
 10
-4.4889000000000001
 20
-3.3271500000000001
 30
0.0
 10
-4.7728799999999998
 20
-3.4287899999999998
 30
0.0
 10
-5.0464099999999998
 20
-3.49756
 30
0.0
 10
-5.0464099999999998
 20
-3.49756
 30
0.0
 10
-5.31996
 20
-3.5663100000000001
 30
0.0
 10
-5.5830200000000003
 20
-3.6021800000000002
 30
0.0
 10
-5.8460900000000002
 20
-3.6380499999999998
 30
0.0
  0
SPLINE
  5
45
100
AcDbEntity
  8
Default
100
AcDbSpline
210
0.0
220
0.0
230
1.0
 70
     1
 71
     3
 72
    56
 73
    52
 74
     0
 42
0.0000000001
 43
0.0000000001
 40
0.0
 40
0.0
 40
0.0
 40
0.0
 40
0.0769230769230769
 40
0.0769230769230769
 40
0.0769230769230769
 40
0.0769230769230769
 40
0.1538461538461539
 40
0.1538461538461539
 40
0.1538461538461539
 40
0.1538461538461539
 40
0.2307692307692308
 40
0.2307692307692308
 40
0.2307692307692308
 40
0.2307692307692308
 40
0.3076923076923077
 40
0.3076923076923077
 40
0.3076923076923077
 40
0.3076923076923077
 40
0.3846153846153846
 40
0.3846153846153846
 40
0.3846153846153846
 40
0.3846153846153846
 40
0.4615384615384616
 40
0.4615384615384616
 40
0.4615384615384616
 40
0.4615384615384616
 40
0.5384615384615386
 40
0.5384615384615386
 40
0.5384615384615386
 40
0.5384615384615386
 40
0.6153846153846154
 40
0.6153846153846154
 40
0.6153846153846154
 40
0.6153846153846154
 40
0.6923076923076923
 40
0.6923076923076923
 40
0.6923076923076923
 40
0.6923076923076923
 40
0.7692307692307692
 40
0.7692307692307692
 40
0.7692307692307692
 40
0.7692307692307692
 40
0.846153846153846
 40
0.846153846153846
 40
0.846153846153846
 40
0.846153846153846
 40
0.9230769230769229
 40
0.9230769230769229
 40
0.9230769230769229
 40
0.9230769230769229
 40
1.0
 40
1.0
 40
1.0
 40
1.0
 10
-5.3349000000000002
 20
-2.54393
 30
0.0
 10
-5.05389
 20
-2.4691800000000002
 30
0.0
 10
-4.7728799999999998
 20
-2.39445
 30
0.0
 10
-4.4575199999999997
 20
-2.2629199999999998
 30
0.0
 10
-4.4575199999999997
 20
-2.2629199999999998
 30
0.0
 10
-4.1421200000000002
 20
-2.13137
 30
0.0
 10
-3.79236
 20
-1.9430499999999999
 30
0.0
 10
-3.4470900000000002
 20
-1.6994199999999999
 30
0.0
 10
-3.4470900000000002
 20
-1.6994199999999999
 30
0.0
 10
-3.1017999999999999
 20
-1.45577
 30
0.0
 10
-2.7610000000000001
 20
-1.15683
 30
0.0
 10
-2.4769999999999999
 20
-0.86836
 30
0.0
 10
-2.4769999999999999
 20
-0.86836
 30
0.0
 10
-2.1930000000000001
 20
-0.57987
 30
0.0
 10
-1.9658100000000001
 20
-0.30185
 30
0.0
 10
-1.64893
 20
0.08826
 30
0.0
 10
-1.64893
 20
0.08826
 30
0.0
 10
-1.33205
 20
0.47839
 30
0.0
 10
-0.92548
 20
0.9806200000000001
 30
0.0
 10
-0.5189200000000001
 20
1.4828399999999999
 30
0.0
 10
-0.5189200000000001
 20
1.4828399999999999
 30
0.0
 10
-0.8627
 20
0.9567
 30
0.0
 10
-1.2064900000000001
 20
0.43055
 30
0.0
 10
-1.45872
 20
0.05949
 30
0.0
 10
-1.45872
 20
0.05949
 30
0.0
 10
-1.71095
 20
-0.31157
 30
0.0
 10
-1.8716299999999999
 20
-0.52756
 30
0.0
 10
-2.0240900000000002
 20
-0.72037
 30
0.0
 10
-2.0240900000000002
 20
-0.72037
 30
0.0
 10
-2.1765599999999998
 20
-0.91319
 30
0.0
 10
-2.3208000000000002
 20
-1.0828500000000001
 30
0.0
 10
-2.4751099999999999
 20
-1.2379199999999999
 30
0.0
 10
-2.4751099999999999
 20
-1.2379199999999999
 30
0.0
 10
-2.6294599999999999
 20
-1.39299
 30
0.0
 10
-2.7938800000000001
 20
-1.5335000000000001
 30
0.0
 10
-2.9881899999999999
 20
-1.6695
 30
0.0
 10
-2.9881899999999999
 20
-1.6695
 30
0.0
 10
-3.1825000000000001
 20
-1.8055300000000001
 30
0.0
 10
-3.4067099999999999
 20
-1.93706
 30
0.0
 10
-3.6279300000000001
 20
-2.0491600000000001
 30
0.0
 10
-3.6279300000000001
 20
-2.0491600000000001
 30
0.0
 10
-3.8491599999999999
 20
-2.16127
 30
0.0
 10
-4.06738
 20
-2.2539400000000001
 30
0.0
 10
-4.2602000000000002
 20
-2.3227099999999998
 30
0.0
 10
-4.2602000000000002
 20
-2.3227099999999998
 30
0.0
 10
-4.4530099999999999
 20
-2.3914499999999999
 30
0.0
 10
-4.6204299999999998
 20
-2.4363000000000001
 30
0.0
 10
-4.7953099999999997
 20
-2.4691800000000002
 30
0.0
 10
-4.7953099999999997
 20
-2.4691800000000002
 30
0.0
 10
-4.9701899999999997
 20
-2.5020699999999998
 30
0.0
 10
-5.1525499999999997
 20
-2.5230000000000001
 30
0.0
 10
-5.3349000000000002
 20
-2.54393
 30
0.0
  0
SPLINE
  5
46
100
AcDbEntity
  8
Default
100
AcDbSpline
210
0.0
220
0.0
230
1.0
 70
     1
 71
     3
 72
    48
 73
    44
 74
     0
 42
0.0000000001
 43
0.0000000001
 40
0.0
 40
0.0
 40
0.0
 40
0.0
 40
0.0909090909090909
 40
0.0909090909090909
 40
0.0909090909090909
 40
0.0909090909090909
 40
0.1818181818181818
 40
0.1818181818181818
 40
0.1818181818181818
 40
0.1818181818181818
 40
0.2727272727272727
 40
0.2727272727272727
 40
0.2727272727272727
 40
0.2727272727272727
 40
0.3636363636363637
 40
0.3636363636363637
 40
0.3636363636363637
 40
0.3636363636363637
 40
0.4545454545454546
 40
0.4545454545454546
 40
0.4545454545454546
 40
0.4545454545454546
 40
0.5454545454545455
 40
0.5454545454545455
 40
0.5454545454545455
 40
0.5454545454545455
 40
0.6363636363636365
 40
0.6363636363636365
 40
0.6363636363636365
 40
0.6363636363636365
 40
0.7272727272727274
 40
0.7272727272727274
 40
0.7272727272727274
 40
0.7272727272727274
 40
0.8181818181818183
 40
0.8181818181818183
 40
0.8181818181818183
 40
0.8181818181818183
 40
0.9090909090909093
 40
0.9090909090909093
 40
0.9090909090909093
 40
0.9090909090909093
 40
1.0
 40
1.0
 40
1.0
 40
1.0
 10
-4.3663299999999996
 20
-1.23455
 30
0.0
 10
-4.1271699999999996
 20
-1.1837200000000001
 30
0.0
 10
-3.88802
 20
-1.1329100000000001
 30
0.0
 10
-3.5741299999999998
 20
-0.98343
 30
0.0
 10
-3.5741299999999998
 20
-0.98343
 30
0.0
 10
-3.26024
 20
-0.83397
 30
0.0
 10
-2.8715999999999999
 20
-0.58583
 30
0.0
 10
-2.5203500000000001
 20
-0.30782
 30
0.0
 10
-2.5203500000000001
 20
-0.30782
 30
0.0
 10
-2.1690999999999998
 20
-0.02981
 30
0.0
 10
-1.8551899999999999
 20
0.2781
 30
0.0
 10
-1.5951299999999999
 20
0.56507
 30
0.0
 10
-1.5951299999999999
 20
0.56507
 30
0.0
 10
-1.33504
 20
0.85207
 30
0.0
 10
-1.12876
 20
1.1181300000000001
 30
0.0
 10
-0.91802
 20
1.4111
 30
0.0
 10
-0.91802
 20
1.4111
 30
0.0
 10
-0.7072500000000001
 20
1.7040599999999999
 30
0.0
 10
-0.49201
 20
2.02393
 30
0.0
 10
-0.27678
 20
2.3437999999999999
 30
0.0
 10
-0.27678
 20
2.3437999999999999
 30
0.0
 10
-0.52788
 20
1.8983699999999999
 30
0.0
 10
-0.77901
 20
1.45295
 30
0.0
 10
-0.9957200000000001
 20
1.11365
 30
0.0
 10
-0.9957200000000001
 20
1.11365
 30
0.0
 10
-1.2124699999999999
 20
0.77434
 30
0.0
 10
-1.39483
 20
0.54117
 30
0.0
 10
-1.57867
 20
0.33641
 30
0.0
 10
-1.57867
 20
0.33641
 30
0.0
 10
-1.7625200000000001
 20
0.13161
 30
0.0
 10
-1.9478800000000001
 20
-0.04476
 30
0.0
 10
-2.15862
 20
-0.2256
 30
0.0
 10
-2.15862
 20
-0.2256
 30
0.0
 10
-2.36937
 20
-0.40648
 30
0.0
 10
-2.60555
 20
-0.59182
 30
0.0
 10
-2.8730799999999999
 20
-0.75026
 30
0.0
 10
-2.8730799999999999
 20
-0.75026
 30
0.0
 10
-3.14066
 20
-0.9087
 30
0.0
 10
-3.4395899999999999
 20
-1.0402400000000001
 30
0.0
 10
-3.6937099999999998
 20
-1.1164499999999999
 30
0.0
 10
-3.6937099999999998
 20
-1.1164499999999999
 30
0.0
 10
-3.94781
 20
-1.1927000000000001
 30
0.0
 10
-4.1570600000000004
 20
-1.21363
 30
0.0
 10
-4.3663299999999996
 20
-1.23455
 30
0.0
  0
SPLINE
  5
47
100
AcDbEntity
  8
Default
100
AcDbSpline
210
0.0
220
0.0
230
1.0
 70
     1
 71
     3
 72
    48
 73
    44
 74
     0
 42
0.0000000001
 43
0.0000000001
 40
0.0
 40
0.0
 40
0.0
 40
0.0
 40
0.0909090909090909
 40
0.0909090909090909
 40
0.0909090909090909
 40
0.0909090909090909
 40
0.1818181818181818
 40
0.1818181818181818
 40
0.1818181818181818
 40
0.1818181818181818
 40
0.2727272727272727
 40
0.2727272727272727
 40
0.2727272727272727
 40
0.2727272727272727
 40
0.3636363636363637
 40
0.3636363636363637
 40
0.3636363636363637
 40
0.3636363636363637
 40
0.4545454545454546
 40
0.4545454545454546
 40
0.4545454545454546
 40
0.4545454545454546
 40
0.5454545454545455
 40
0.5454545454545455
 40
0.5454545454545455
 40
0.5454545454545455
 40
0.6363636363636365
 40
0.6363636363636365
 40
0.6363636363636365
 40
0.6363636363636365
 40
0.7272727272727274
 40
0.7272727272727274
 40
0.7272727272727274
 40
0.7272727272727274
 40
0.8181818181818183
 40
0.8181818181818183
 40
0.8181818181818183
 40
0.8181818181818183
 40
0.9090909090909093
 40
0.9090909090909093
 40
0.9090909090909093
 40
0.9090909090909093
 40
1.0
 40
1.0
 40
1.0
 40
1.0
 10
-3.8864999999999998
 20
-0.44983
 30
0.0
 10
-3.6070099999999998
 20
-0.34969
 30
0.0
 10
-3.3274900000000001
 20
-0.24952
 30
0.0
 10
-3.0352800000000002
 20
-0.09334
 30
0.0
 10
-3.0352800000000002
 20
-0.09334
 30
0.0
 10
-2.7430699999999999
 20
0.06286
 30
0.0
 10
-2.4381400000000002
 20
0.2751
 30
0.0
 10
-2.1616200000000001
 20
0.50828
 30
0.0
 10
-2.1616200000000001
 20
0.50828
 30
0.0
 10
-1.8850899999999999
 20
0.74147
 30
0.0
 10
-1.63696
 20
0.99556
 30
0.0
 10
-1.4321999999999999
 20
1.22275
 30
0.0
 10
-1.4321999999999999
 20
1.22275
 30
0.0
 10
-1.22742
 20
1.4499599999999999
 30
0.0
 10
-1.0659799999999999
 20
1.65025
 30
0.0
 10
-0.86421
 20
1.9282699999999999
 30
0.0
 10
-0.86421
 20
1.9282699999999999
 30
0.0
 10
-0.66242
 20
2.2062900000000001
 30
0.0
 10
-0.42027
 20
2.56203
 30
0.0
 10
-0.17812
 20
2.91777
 30
0.0
 10
-0.17812
 20
2.91777
 30
0.0
 10
-0.36348
 20
2.5709900000000001
 30
0.0
 10
-0.54881
 20
2.2242199999999999
 30
0.0
 10
-0.75657
 20
1.9028700000000001
 30
0.0
 10
-0.75657
 20
1.9028700000000001
 30
0.0
 10
-0.96434
 20
1.5814900000000001
 30
0.0
 10
-1.1945399999999999
 20
1.2855300000000001
 30
0.0
 10
-1.39781
 20
1.0463800000000001
 30
0.0
 10
-1.39781
 20
1.0463800000000001
 30
0.0
 10
-1.6010899999999999
 20
0.8072200000000001
 30
0.0
 10
-1.7774700000000001
 20
0.62486
 30
0.0
 10
-1.9732700000000001
 20
0.46195
 30
0.0
 10
-1.9732700000000001
 20
0.46195
 30
0.0
 10
-2.1690999999999998
 20
0.29902
 30
0.0
 10
-2.3843299999999998
 20
0.15553
 30
0.0
 10
-2.5950799999999998
 20
0.02996
 30
0.0
 10
-2.5950799999999998
 20
0.02996
 30
0.0
 10
-2.8058299999999998
 20
-0.09557
 30
0.0
 10
-3.0121099999999998
 20
-0.2032
 30
0.0
 10
-3.2265999999999999
 20
-0.28017
 30
0.0
 10
-3.2265999999999999
 20
-0.28017
 30
0.0
 10
-3.44109
 20
-0.35713
 30
0.0
 10
-3.6638000000000002
 20
-0.40351
 30
0.0
 10
-3.8864999999999998
 20
-0.44983
 30
0.0
  0
SPLINE
  5
48
100
AcDbEntity
  8
Default
100
AcDbSpline
210
0.0
220
0.0
230
1.0
 70
     1
 71
     3
 72
    44
 73
    40
 74
     0
 42
0.0000000001
 43
0.0000000001
 40
0.0
 40
0.0
 40
0.0
 40
0.0
 40
0.1
 40
0.1
 40
0.1
 40
0.1
 40
0.2
 40
0.2
 40
0.2
 40
0.2
 40
0.3
 40
0.3
 40
0.3
 40
0.3
 40
0.4
 40
0.4
 40
0.4
 40
0.4
 40
0.5
 40
0.5
 40
0.5
 40
0.5
 40
0.6
 40
0.6
 40
0.6
 40
0.6
 40
0.7
 40
0.7
 40
0.7
 40
0.7
 40
0.7999999999999999
 40
0.7999999999999999
 40
0.7999999999999999
 40
0.7999999999999999
 40
0.8999999999999999
 40
0.8999999999999999
 40
0.8999999999999999
 40
0.8999999999999999
 40
1.0
 40
1.0
 40
1.0
 40
1.0
 10
0.5243600000000001
 20
1.9233199999999999
 30
0.0
 10
0.49156
 20
1.7666999999999999
 30
0.0
 10
0.45872
 20
1.61008
 30
0.0
 10
0.38043
 20
1.42439
 30
0.0
 10
0.38043
 20
1.42439
 30
0.0
 10
0.30213
 20
1.23868
 30
0.0
 10
0.1783
 20
1.02389
 30
0.0
 10
0.04482
 20
0.82851
 30
0.0
 10
0.04482
 20
0.82851
 30
0.0
 10
-0.08867
 20
0.63311
 30
0.0
 10
-0.23186
 20
0.45709
 30
0.0
 10
-0.38025
 20
0.29601
 30
0.0
 10
-0.38025
 20
0.29601
 30
0.0
 10
-0.52868
 20
0.13492
 30
0.0
 10
-0.68233
 20
-0.01127
 30
0.0
 10
-0.81654
 20
-0.13506
 30
0.0
 10
-0.81654
 20
-0.13506
 30
0.0
 10
-0.95079
 20
-0.25884
 30
0.0
 10
-1.0656600000000001
 20
-0.36029
 30
0.0
 10
-1.1805099999999999
 20
-0.46172
 30
0.0
 10
-1.1805099999999999
 20
-0.46172
 30
0.0
 10
-0.918
 20
-0.25291
 30
0.0
 10
-0.65545
 20
-0.04406
 30
0.0
 10
-0.44814
 20
0.14461
 30
0.0
 10
-0.44814
 20
0.14461
 30
0.0
 10
-0.2408
 20
0.33328
 30
0.0
 10
-0.08867
 20
0.50185
 30
0.0
 10
0.03511
 20
0.65696
 30
0.0
 10
0.03511
 20
0.65696
 30
0.0
 10
0.15892
 20
0.81208
 30
0.0
 10
0.2544
 20
0.9538
 30
0.0
 10
0.32597
 20
1.0925
 30
0.0
 10
0.32597
 20
1.0925
 30
0.0
 10
0.39757
 20
1.23122
 30
0.0
 10
0.44532
 20
1.36696
 30
0.0
 10
0.47439
 20
1.5049399999999999
 30
0.0
 10
0.47439
 20
1.5049399999999999
 30
0.0
 10
0.50348
 20
1.64289
 30
0.0
 10
0.51394
 20
1.78312
 30
0.0
 10
0.5243600000000001
 20
1.9233199999999999
 30
0.0
  0
SPLINE
  5
49
100
AcDbEntity
  8
Default
100
AcDbSpline
210
0.0
220
0.0
230
1.0
 70
     1
 71
     3
 72
    52
 73
    48
 74
     0
 42
0.0000000001
 43
0.0000000001
 40
0.0
 40
0.0
 40
0.0
 40
0.0
 40
0.0833333333333333
 40
0.0833333333333333
 40
0.0833333333333333
 40
0.0833333333333333
 40
0.1666666666666667
 40
0.1666666666666667
 40
0.1666666666666667
 40
0.1666666666666667
 40
0.25
 40
0.25
 40
0.25
 40
0.25
 40
0.3333333333333333
 40
0.3333333333333333
 40
0.3333333333333333
 40
0.3333333333333333
 40
0.4166666666666666
 40
0.4166666666666666
 40
0.4166666666666666
 40
0.4166666666666666
 40
0.4999999999999999
 40
0.4999999999999999
 40
0.4999999999999999
 40
0.4999999999999999
 40
0.5833333333333333
 40
0.5833333333333333
 40
0.5833333333333333
 40
0.5833333333333333
 40
0.6666666666666666
 40
0.6666666666666666
 40
0.6666666666666666
 40
0.6666666666666666
 40
0.75
 40
0.75
 40
0.75
 40
0.75
 40
0.8333333333333334
 40
0.8333333333333334
 40
0.8333333333333334
 40
0.8333333333333334
 40
0.9166666666666667
 40
0.9166666666666667
 40
0.9166666666666667
 40
0.9166666666666667
 40
1.0
 40
1.0
 40
1.0
 40
1.0
 10
-0.86868
 20
-0.48122
 30
0.0
 10
-0.50995
 20
-0.21216
 30
0.0
 10
-0.15121
 20
0.05688
 30
0.0
 10
0.14772
 20
0.32294
 30
0.0
 10
0.14772
 20
0.32294
 30
0.0
 10
0.44665
 20
0.58899
 30
0.0
 10
0.68581
 20
0.85207
 30
0.0
 10
0.90703
 20
1.13906
 30
0.0
 10
0.90703
 20
1.13906
 30
0.0
 10
1.12825
 20
1.42604
 30
0.0
 10
1.3315300000000001
 20
1.7369300000000001
 30
0.0
 10
1.4884599999999999
 20
2.0089899999999998
 30
0.0
 10
1.4884599999999999
 20
2.0089899999999998
 30
0.0
 10
1.6454200000000001
 20
2.2810199999999998
 30
0.0
 10
1.7560199999999999
 20
2.5141900000000001
 30
0.0
 10
1.8322499999999999
 20
2.7219500000000001
 30
0.0
 10
1.8322499999999999
 20
2.7219500000000001
 30
0.0
 10
1.9085000000000001
 20
2.9297200000000001
 30
0.0
 10
1.95035
 20
3.1120800000000002
 30
0.0
 10
1.98024
 20
3.3317899999999998
 30
0.0
 10
1.98024
 20
3.3317899999999998
 30
0.0
 10
2.0101399999999998
 20
3.5515300000000001
 30
0.0
 10
2.02807
 20
3.8086199999999999
 30
0.0
 10
2.0460099999999999
 20
4.0657100000000002
 30
0.0
 10
2.0460099999999999
 20
4.0657100000000002
 30
0.0
 10
2.0519799999999999
 20
3.7010000000000001
 30
0.0
 10
2.05796
 20
3.33629
 30
0.0
 10
2.0101399999999998
 20
3.0149300000000001
 30
0.0
 10
2.0101399999999998
 20
3.0149300000000001
 30
0.0
 10
1.9622999999999999
 20
2.6935600000000002
 30
0.0
 10
1.86066
 20
2.41554
 30
0.0
 10
1.73661
 20
2.1644299999999999
 30
0.0
 10
1.73661
 20
2.1644299999999999
 30
0.0
 10
1.6125400000000001
 20
1.9133100000000001
 30
0.0
 10
1.4660500000000001
 20
1.6891099999999999
 30
0.0
 10
1.3150900000000001
 20
1.4738800000000001
 30
0.0
 10
1.3150900000000001
 20
1.4738800000000001
 30
0.0
 10
1.16412
 20
1.2586200000000001
 30
0.0
 10
1.00867
 20
1.05236
 30
0.0
 10
0.83678
 20
0.85955
 30
0.0
 10
0.83678
 20
0.85955
 30
0.0
 10
0.66488
 20
0.66672
 30
0.0
 10
0.47655
 20
0.48735
 30
0.0
 10
0.18956
 20
0.26615
 30
0.0
 10
0.18956
 20
0.26615
 30
0.0
 10
-0.09741
 20
0.04492
 30
0.0
 10
-0.48305
 20
-0.21814
 30
0.0
 10
-0.86868
 20
-0.48122
 30
0.0
  0
SPLINE
  5
4A
100
AcDbEntity
  8
Default
100
AcDbSpline
210
0.0
220
0.0
230
1.0
 70
     1
 71
     3
 72
    88
 73
    84
 74
     0
 42
0.0000000001
 43
0.0000000001
 40
0.0
 40
0.0
 40
0.0
 40
0.0
 40
0.0476190476190476
 40
0.0476190476190476
 40
0.0476190476190476
 40
0.0476190476190476
 40
0.0952380952380952
 40
0.0952380952380952
 40
0.0952380952380952
 40
0.0952380952380952
 40
0.1428571428571429
 40
0.1428571428571429
 40
0.1428571428571429
 40
0.1428571428571429
 40
0.1904761904761905
 40
0.1904761904761905
 40
0.1904761904761905
 40
0.1904761904761905
 40
0.2380952380952381
 40
0.2380952380952381
 40
0.2380952380952381
 40
0.2380952380952381
 40
0.2857142857142857
 40
0.2857142857142857
 40
0.2857142857142857
 40
0.2857142857142857
 40
0.3333333333333333
 40
0.3333333333333333
 40
0.3333333333333333
 40
0.3333333333333333
 40
0.3809523809523809
 40
0.3809523809523809
 40
0.3809523809523809
 40
0.3809523809523809
 40
0.4285714285714286
 40
0.4285714285714286
 40
0.4285714285714286
 40
0.4285714285714286
 40
0.4761904761904762
 40
0.4761904761904762
 40
0.4761904761904762
 40
0.4761904761904762
 40
0.5238095238095237
 40
0.5238095238095237
 40
0.5238095238095237
 40
0.5238095238095237
 40
0.5714285714285714
 40
0.5714285714285714
 40
0.5714285714285714
 40
0.5714285714285714
 40
0.6190476190476191
 40
0.6190476190476191
 40
0.6190476190476191
 40
0.6190476190476191
 40
0.6666666666666667
 40
0.6666666666666667
 40
0.6666666666666667
 40
0.6666666666666667
 40
0.7142857142857144
 40
0.7142857142857144
 40
0.7142857142857144
 40
0.7142857142857144
 40
0.7619047619047621
 40
0.7619047619047621
 40
0.7619047619047621
 40
0.7619047619047621
 40
0.8095238095238098
 40
0.8095238095238098
 40
0.8095238095238098
 40
0.8095238095238098
 40
0.8571428571428574
 40
0.8571428571428574
 40
0.8571428571428574
 40
0.8571428571428574
 40
0.9047619047619051
 40
0.9047619047619051
 40
0.9047619047619051
 40
0.9047619047619051
 40
0.9523809523809528
 40
0.9523809523809528
 40
0.9523809523809528
 40
0.9523809523809528
 40
1.0
 40
1.0
 40
1.0
 40
1.0
 10
-0.68036
 20
-0.63367
 30
0.0
 10
-0.31265
 20
-0.34669
 30
0.0
 10
0.05504
 20
-0.0597
 30
0.0
 10
0.35845
 20
0.21532
 30
0.0
 10
0.35845
 20
0.21532
 30
0.0
 10
0.6619
 20
0.49034
 30
0.0
 10
0.90106
 20
0.75342
 30
0.0
 10
1.14618
 20
1.02695
 30
0.0
 10
1.14618
 20
1.02695
 30
0.0
 10
1.3913199999999999
 20
1.3004800000000001
 30
0.0
 10
1.6424300000000001
 20
1.5844800000000001
 30
0.0
 10
1.9309000000000001
 20
1.9461999999999999
 30
0.0
 10
1.9309000000000001
 20
1.9461999999999999
 30
0.0
 10
2.2193900000000002
 20
2.3079299999999998
 30
0.0
 10
2.5452499999999998
 20
2.74736
 30
0.0
 10
2.7933599999999998
 20
3.1150699999999998
 30
0.0
 10
2.7933599999999998
 20
3.1150699999999998
 30
0.0
 10
3.0415000000000001
 20
3.4827699999999999
 30
0.0
 10
3.2118899999999999
 20
3.7787199999999999
 30
0.0
 10
3.3598499999999998
 20
4.0926200000000001
 30
0.0
 10
3.3598499999999998
 20
4.0926200000000001
 30
0.0
 10
3.5078399999999998
 20
4.4065099999999999
 30
0.0
 10
3.6334
 20
4.73834
 30
0.0
 10
3.7350400000000001
 20
5.0985500000000004
 30
0.0
 10
3.7350400000000001
 20
5.0985500000000004
 30
0.0
 10
3.8366699999999998
 20
5.4588000000000001
 30
0.0
 10
3.9144100000000002
 20
5.8474199999999996
 30
0.0
 10
3.9562499999999998
 20
6.2180999999999997
 30
0.0
 10
3.9562499999999998
 20
6.2180999999999997
 30
0.0
 10
3.9981
 20
6.5888
 30
0.0
 10
4.0040899999999997
 20
6.9415500000000003
 30
0.0
 10
3.97418
 20
7.2972900000000003
 30
0.0
 10
3.97418
 20
7.2972900000000003
 30
0.0
 10
3.9443000000000001
 20
7.6530399999999998
 30
0.0
 10
3.87852
 20
8.0117700000000003
 30
0.0
 10
3.8067799999999998
 20
8.3047299999999993
 30
0.0
 10
3.8067799999999998
 20
8.3047299999999993
 30
0.0
 10
3.7350400000000001
 20
8.5976900000000001
 30
0.0
 10
3.6573000000000002
 20
8.8248999999999995
 30
0.0
 10
3.57958
 20
9.0520899999999997
 30
0.0
 10
3.57958
 20
9.0520899999999997
 30
0.0
 10
3.66628
 20
8.8547799999999999
 30
0.0
 10
3.75298
 20
8.6574799999999996
 30
0.0
 10
3.8262
 20
8.4392499999999995
 30
0.0
 10
3.8262
 20
8.4392499999999995
 30
0.0
 10
3.8994499999999999
 20
8.2210199999999993
 30
0.0
 10
3.9592399999999999
 20
7.9818699999999998
 30
0.0
 10
4.0085600000000001
 20
7.7083500000000003
 30
0.0
 10
4.0085600000000001
 20
7.7083500000000003
 30
0.0
 10
4.0578900000000004
 20
7.4348099999999997
 30
0.0
 10
4.0967500000000001
 20
7.1268900000000004
 30
0.0
 10
4.1057300000000003
 20
6.8249700000000004
 30
0.0
 10
4.1057300000000003
 20
6.8249700000000004
 30
0.0
 10
4.1146900000000004
 20
6.5230300000000003
 30
0.0
 10
4.0937599999999996
 20
6.2270799999999999
 30
0.0
 10
4.0504300000000004
 20
5.9116900000000001
 30
0.0
 10
4.0504300000000004
 20
5.9116900000000001
 30
0.0
 10
4.0070800000000002
 20
5.5963099999999999
 30
0.0
 10
3.9413100000000001
 20
5.2614900000000002
 30
0.0
 10
3.8351899999999999
 20
4.9027599999999998
 30
0.0
 10
3.8351899999999999
 20
4.9027599999999998
 30
0.0
 10
3.72906
 20
4.5440300000000002
 30
0.0
 10
3.58257
 20
4.1613699999999998
 30
0.0
 10
3.40021
 20
3.78023
 30
0.0
 10
3.40021
 20
3.78023
 30
0.0
 10
3.21787
 20
3.39906
 30
0.0
 10
2.9996399999999999
 20
3.0194100000000001
 30
0.0
 10
2.77244
 20
2.6547000000000001
 30
0.0
 10
2.77244
 20
2.6547000000000001
 30
0.0
 10
2.5452499999999998
 20
2.2899799999999999
 30
0.0
 10
2.3090799999999998
 20
1.9402200000000001
 30
0.0
 10
2.0714199999999998
 20
1.6352899999999999
 30
0.0
 10
2.0714199999999998
 20
1.6352899999999999
 30
0.0
 10
1.83375
 20
1.3303799999999999
 30
0.0
 10
1.5946100000000001
 20
1.0703
 30
0.0
 10
1.33752
 20
0.82069
 30
0.0
 10
1.33752
 20
0.82069
 30
0.0
 10
1.0804100000000001
 20
0.57106
 30
0.0
 10
0.80538
 20
0.3319
 30
0.0
 10
0.4661
 20
0.09127
 30
0.0
 10
0.4661
 20
0.09127
 30
0.0
 10
0.12679
 20
-0.14938
 30
0.0
 10
-0.27678
 20
-0.39152
 30
0.0
 10
-0.68036
 20
-0.63367
 30
0.0
  0
SPLINE
  5
4B
100
AcDbEntity
  8
Default
100
AcDbSpline
210
0.0
220
0.0
230
1.0
 70
     1
 71
     3
 72
   124
 73
   120
 74
     0
 42
0.0000000001
 43
0.0000000001
 40
0.0
 40
0.0
 40
0.0
 40
0.0
 40
0.0333333333333333
 40
0.0333333333333333
 40
0.0333333333333333
 40
0.0333333333333333
 40
0.0666666666666667
 40
0.0666666666666667
 40
0.0666666666666667
 40
0.0666666666666667
 40
0.1
 40
0.1
 40
0.1
 40
0.1
 40
0.1333333333333333
 40
0.1333333333333333
 40
0.1333333333333333
 40
0.1333333333333333
 40
0.1666666666666667
 40
0.1666666666666667
 40
0.1666666666666667
 40
0.1666666666666667
 40
0.2
 40
0.2
 40
0.2
 40
0.2
 40
0.2333333333333333
 40
0.2333333333333333
 40
0.2333333333333333
 40
0.2333333333333333
 40
0.2666666666666667
 40
0.2666666666666667
 40
0.2666666666666667
 40
0.2666666666666667
 40
0.3
 40
0.3
 40
0.3
 40
0.3
 40
0.3333333333333333
 40
0.3333333333333333
 40
0.3333333333333333
 40
0.3333333333333333
 40
0.3666666666666666
 40
0.3666666666666666
 40
0.3666666666666666
 40
0.3666666666666666
 40
0.4
 40
0.4
 40
0.4
 40
0.4
 40
0.4333333333333333
 40
0.4333333333333333
 40
0.4333333333333333
 40
0.4333333333333333
 40
0.4666666666666666
 40
0.4666666666666666
 40
0.4666666666666666
 40
0.4666666666666666
 40
0.4999999999999999
 40
0.4999999999999999
 40
0.4999999999999999
 40
0.4999999999999999
 40
0.5333333333333333
 40
0.5333333333333333
 40
0.5333333333333333
 40
0.5333333333333333
 40
0.5666666666666667
 40
0.5666666666666667
 40
0.5666666666666667
 40
0.5666666666666667
 40
0.6
 40
0.6
 40
0.6
 40
0.6
 40
0.6333333333333333
 40
0.6333333333333333
 40
0.6333333333333333
 40
0.6333333333333333
 40
0.6666666666666666
 40
0.6666666666666666
 40
0.6666666666666666
 40
0.6666666666666666
 40
0.7
 40
0.7
 40
0.7
 40
0.7
 40
0.7333333333333333
 40
0.7333333333333333
 40
0.7333333333333333
 40
0.7333333333333333
 40
0.7666666666666666
 40
0.7666666666666666
 40
0.7666666666666666
 40
0.7666666666666666
 40
0.7999999999999999
 40
0.7999999999999999
 40
0.7999999999999999
 40
0.7999999999999999
 40
0.8333333333333333
 40
0.8333333333333333
 40
0.8333333333333333
 40
0.8333333333333333
 40
0.8666666666666666
 40
0.8666666666666666
 40
0.8666666666666666
 40
0.8666666666666666
 40
0.8999999999999999
 40
0.8999999999999999
 40
0.8999999999999999
 40
0.8999999999999999
 40
0.9333333333333332
 40
0.9333333333333332
 40
0.9333333333333332
 40
0.9333333333333332
 40
0.9666666666666666
 40
0.9666666666666666
 40
0.9666666666666666
 40
0.9666666666666666
 40
1.0
 40
1.0
 40
1.0
 40
1.0
 10
-0.36647
 20
-0.75923
 30
0.0
 10
0.12679
 20
-0.39751
 30
0.0
 10
0.62005
 20
-0.03578
 30
0.0
 10
1.1103099999999999
 20
0.36328
 30
0.0
 10
1.1103099999999999
 20
0.36328
 30
0.0
 10
1.6005799999999999
 20
0.76239
 30
0.0
 10
2.08786
 20
1.19885
 30
0.0
 10
2.5168200000000001
 20
1.6143799999999999
 30
0.0
 10
2.5168200000000001
 20
1.6143799999999999
 30
0.0
 10
2.9458199999999999
 20
2.0299100000000001
 30
0.0
 10
3.3165200000000001
 20
2.4245199999999998
 30
0.0
 10
3.6872099999999999
 20
2.86694
 30
0.0
 10
3.6872099999999999
 20
2.86694
 30
0.0
 10
4.0578900000000004
 20
3.30938
 30
0.0
 10
4.4285899999999998
 20
3.7996500000000002
 30
0.0
 10
4.8112300000000001
 20
4.3392400000000002
 30
0.0
 10
4.8112300000000001
 20
4.3392400000000002
 30
0.0
 10
5.1938800000000001
 20
4.8788400000000003
 30
0.0
 10
5.5884900000000002
 20
5.4677499999999997
 30
0.0
 10
5.9218099999999998
 20
6.0327700000000002
 30
0.0
 10
5.9218099999999998
 20
6.0327700000000002
 30
0.0
 10
6.2551199999999998
 20
6.5977600000000001
 30
0.0
 10
6.5271800000000004
 20
7.1388499999999997
 30
0.0
 10
6.7857500000000002
 20
7.7068399999999997
 30
0.0
 10
6.7857500000000002
 20
7.7068399999999997
 30
0.0
 10
7.0443499999999997
 20
8.2748500000000007
 30
0.0
 10
7.2894699999999997
 20
8.8697300000000006
 30
0.0
 10
7.46286
 20
9.4287500000000009
 30
0.0
 10
7.46286
 20
9.4287500000000009
 30
0.0
 10
7.63626
 20
9.9877800000000008
 30
0.0
 10
7.7378999999999998
 20
10.51094
 30
0.0
 10
7.7857200000000004
 20
11.01615
 30
0.0
 10
7.7857200000000004
 20
11.01615
 30
0.0
 10
7.8335600000000003
 20
11.521369999999999
 30
0.0
 10
7.8275699999999997
 20
12.00864
 30
0.0
 10
7.8006599999999997
 20
12.43463
 30
0.0
 10
7.8006599999999997
 20
12.43463
 30
0.0
 10
7.7737699999999998
 20
12.86063
 30
0.0
 10
7.72593
 20
13.225350000000001
 30
0.0
 10
7.6108599999999997
 20
13.744
 30
0.0
 10
7.6108599999999997
 20
13.744
 30
0.0
 10
7.4957500000000001
 20
14.26267
 30
0.0
 10
7.3133900000000001
 20
14.93529
 30
0.0
 10
7.13103
 20
15.477880000000001
 30
0.0
 10
7.13103
 20
15.477880000000001
 30
0.0
 10
6.9486699999999999
 20
16.02047
 30
0.0
 10
6.76633
 20
16.433009999999999
 30
0.0
 10
6.5899599999999996
 20
16.7469
 30
0.0
 10
6.5899599999999996
 20
16.7469
 30
0.0
 10
6.4135600000000004
 20
17.060790000000001
 30
0.0
 10
6.2431700000000001
 20
17.276019999999999
 30
0.0
 10
6.0458699999999999
 20
17.467359999999999
 30
0.0
 10
6.0458699999999999
 20
17.467359999999999
 30
0.0
 10
5.8485699999999996
 20
17.65868
 30
0.0
 10
5.6243600000000002
 20
17.826090000000001
 30
0.0
 10
5.4001599999999996
 20
17.993490000000001
 30
0.0
 10
5.4001599999999996
 20
17.993490000000001
 30
0.0
 10
5.7050700000000001
 20
17.796189999999999
 30
0.0
 10
6.0099999999999998
 20
17.598890000000001
 30
0.0
 10
6.2670899999999996
 20
17.316400000000002
 30
0.0
 10
6.2670899999999996
 20
17.316400000000002
 30
0.0
 10
6.5241800000000003
 20
17.03389
 30
0.0
 10
6.7334399999999999
 20
16.666180000000001
 30
0.0
 10
6.9068399999999999
 20
16.302980000000002
 30
0.0
 10
6.9068399999999999
 20
16.302980000000002
 30
0.0
 10
7.0802199999999997
 20
15.93975
 30
0.0
 10
7.2177300000000004
 20
15.581020000000001
 30
0.0
 10
7.3477699999999997
 20
15.159509999999999
 30
0.0
 10
7.3477699999999997
 20
15.159509999999999
 30
0.0
 10
7.4778200000000004
 20
14.73799
 30
0.0
 10
7.60039
 20
14.25371
 30
0.0
 10
7.6900599999999999
 20
13.84714
 30
0.0
 10
7.6900599999999999
 20
13.84714
 30
0.0
 10
7.7797400000000003
 20
13.440580000000001
 30
0.0
 10
7.8365499999999999
 20
13.111739999999999
 30
0.0
 10
7.8754099999999996
 20
12.750030000000001
 30
0.0
 10
7.8754099999999996
 20
12.750030000000001
 30
0.0
 10
7.9142700000000001
 20
12.388299999999999
 30
0.0
 10
7.9352
 20
11.9937
 30
0.0
 10
7.9337
 20
11.66038
 30
0.0
 10
7.9337
 20
11.66038
 30
0.0
 10
7.9322100000000004
 20
11.327059999999999
 30
0.0
 10
7.90829
 20
11.055009999999999
 30
0.0
 10
7.8559799999999997
 20
10.681330000000001
 30
0.0
 10
7.8559799999999997
 20
10.681330000000001
 30
0.0
 10
7.8036500000000002
 20
10.307650000000001
 30
0.0
 10
7.7229400000000004
 20
9.8323300000000007
 30
0.0
 10
7.5540399999999996
 20
9.2329699999999999
 30
0.0
 10
7.5540399999999996
 20
9.2329699999999999
 30
0.0
 10
7.3851300000000002
 20
8.6335599999999992
 30
0.0
 10
7.1280400000000004
 20
7.9101299999999997
 30
0.0
 10
6.8694699999999997
 20
7.2868399999999998
 30
0.0
 10
6.8694699999999997
 20
7.2868399999999998
 30
0.0
 10
6.6108700000000002
 20
6.6635299999999997
 30
0.0
 10
6.3507999999999996
 20
6.1403800000000004
 30
0.0
 10
6.0548500000000001
 20
5.6127500000000001
 30
0.0
 10
6.0548500000000001
 20
5.6127500000000001
 30
0.0
 10
5.7588800000000004
 20
5.0850999999999997
 30
0.0
 10
5.4270500000000004
 20
4.5529799999999998
 30
0.0
 10
5.10419
 20
4.08066
 30
0.0
 10
5.10419
 20
4.08066
 30
0.0
 10
4.7813400000000001
 20
3.60833
 30
0.0
 10
4.46746
 20
3.1957900000000001
 30
0.0
 10
4.11768
 20
2.7922099999999999
 30
0.0
 10
4.11768
 20
2.7922099999999999
 30
0.0
 10
3.7679200000000002
 20
2.38863
 30
0.0
 10
3.3822800000000002
 20
1.99403
 30
0.0
 10
3.0190700000000001
 20
1.6517500000000001
 30
0.0
 10
3.0190700000000001
 20
1.6517500000000001
 30
0.0
 10
2.65585
 20
1.30945
 30
0.0
 10
2.3150499999999998
 20
1.0194799999999999
 30
0.0
 10
1.99817
 20
0.77883
 30
0.0
 10
1.99817
 20
0.77883
 30
0.0
 10
1.68129
 20
0.53818
 30
0.0
 10
1.3883300000000001
 20
0.34684
 30
0.0
 10
0.99821
 20
0.09873
 30
0.0
 10
0.99821
 20
0.09873
 30
0.0
 10
0.60808
 20
-0.14938
 30
0.0
 10
0.12081
 20
-0.4543
 30
0.0
 10
-0.36647
 20
-0.75923
 30
0.0
  0
SPLINE
  5
4C
100
AcDbEntity
  8
Default
100
AcDbSpline
210
0.0
220
0.0
230
1.0
 70
     1
 71
     3
 72
    68
 73
    64
 74
     0
 42
0.0000000001
 43
0.0000000001
 40
0.0
 40
0.0
 40
0.0
 40
0.0
 40
0.0625
 40
0.0625
 40
0.0625
 40
0.0625
 40
0.125
 40
0.125
 40
0.125
 40
0.125
 40
0.1875
 40
0.1875
 40
0.1875
 40
0.1875
 40
0.25
 40
0.25
 40
0.25
 40
0.25
 40
0.3125
 40
0.3125
 40
0.3125
 40
0.3125
 40
0.375
 40
0.375
 40
0.375
 40
0.375
 40
0.4375
 40
0.4375
 40
0.4375
 40
0.4375
 40
0.5
 40
0.5
 40
0.5
 40
0.5
 40
0.5625
 40
0.5625
 40
0.5625
 40
0.5625
 40
0.625
 40
0.625
 40
0.625
 40
0.625
 40
0.6875
 40
0.6875
 40
0.6875
 40
0.6875
 40
0.75
 40
0.75
 40
0.75
 40
0.75
 40
0.8125
 40
0.8125
 40
0.8125
 40
0.8125
 40
0.875
 40
0.875
 40
0.875
 40
0.875
 40
0.9375
 40
0.9375
 40
0.9375
 40
0.9375
 40
1.0
 40
1.0
 40
1.0
 40
1.0
 10
2.3868100000000001
 20
1.74292
 30
0.0
 10
2.8023400000000001
 20
2.3378199999999998
 30
0.0
 10
3.21787
 20
2.9327100000000002
 30
0.0
 10
3.5392199999999998
 20
3.4453999999999998
 30
0.0
 10
3.5392199999999998
 20
3.4453999999999998
 30
0.0
 10
3.8605900000000002
 20
3.9580899999999999
 30
0.0
 10
4.08779
 20
4.3885800000000001
 30
0.0
 10
4.3090200000000003
 20
4.8728600000000002
 30
0.0
 10
4.3090200000000003
 20
4.8728600000000002
 30
0.0
 10
4.5302199999999999
 20
5.3571499999999999
 30
0.0
 10
4.7454700000000001
 20
5.8952499999999999
 30
0.0
 10
4.89642
 20
6.4049300000000002
 30
0.0
 10
4.89642
 20
6.4049300000000002
 30
0.0
 10
5.04739
 20
6.9146400000000003
 30
0.0
 10
5.1340899999999996
 20
7.39595
 30
0.0
 10
5.1684700000000001
 20
7.8607899999999997
 30
0.0
 10
5.1684700000000001
 20
7.8607899999999997
 30
0.0
 10
5.2028600000000003
 20
8.3256599999999992
 30
0.0
 10
5.1849100000000004
 20
8.77407
 30
0.0
 10
5.15801
 20
9.0790000000000006
 30
0.0
 10
5.15801
 20
9.0790000000000006
 30
0.0
 10
5.1311
 20
9.3839299999999994
 30
0.0
 10
5.0952299999999999
 20
9.5453399999999995
 30
0.0
 10
5.0354400000000004
 20
9.72471
 30
0.0
 10
5.0354400000000004
 20
9.72471
 30
0.0
 10
4.9756499999999999
 20
9.9040700000000008
 30
0.0
 10
4.8919499999999996
 20
10.101380000000001
 30
0.0
 10
4.7783499999999997
 20
10.28224
 30
0.0
 10
4.7783499999999997
 20
10.28224
 30
0.0
 10
4.6647600000000002
 20
10.463100000000001
 30
0.0
 10
4.5212599999999998
 20
10.62753
 30
0.0
 10
4.3777600000000003
 20
10.79195
 30
0.0
 10
4.3777600000000003
 20
10.79195
 30
0.0
 10
4.5601200000000004
 20
10.591659999999999
 30
0.0
 10
4.7424799999999996
 20
10.391360000000001
 30
0.0
 10
4.8769999999999998
 20
10.176130000000001
 30
0.0
 10
4.8769999999999998
 20
10.176130000000001
 30
0.0
 10
5.01152
 20
9.9608699999999999
 30
0.0
 10
5.0982200000000004
 20
9.7306899999999992
 30
0.0
 10
5.1639799999999996
 20
9.4466900000000003
 30
0.0
 10
5.1639799999999996
 20
9.4466900000000003
 30
0.0
 10
5.2297500000000001
 20
9.1626999999999992
 30
0.0
 10
5.2746000000000004
 20
8.8248999999999995
 30
0.0
 10
5.2805799999999996
 20
8.4302899999999994
 30
0.0
 10
5.2805799999999996
 20
8.4302899999999994
 30
0.0
 10
5.2865500000000001
 20
8.0356900000000007
 30
0.0
 10
5.2536699999999996
 20
7.5842700000000001
 30
0.0
 10
5.1968699999999997
 20
7.18668
 30
0.0
 10
5.1968699999999997
 20
7.18668
 30
0.0
 10
5.1400800000000002
 20
6.7890800000000002
 30
0.0
 10
5.0593599999999999
 20
6.4453100000000001
 30
0.0
 10
4.9397799999999998
 20
6.0880700000000001
 30
0.0
 10
4.9397799999999998
 20
6.0880700000000001
 30
0.0
 10
4.8202100000000003
 20
5.7308300000000001
 30
0.0
 10
4.6617699999999997
 20
5.3601400000000003
 30
0.0
 10
4.4644599999999999
 20
4.9595599999999997
 30
0.0
 10
4.4644599999999999
 20
4.9595599999999997
 30
0.0
 10
4.2671599999999996
 20
4.5589700000000004
 30
0.0
 10
4.0309999999999997
 20
4.1284900000000002
 30
0.0
 10
3.6782300000000001
 20
3.5874000000000001
 30
0.0
 10
3.6782300000000001
 20
3.5874000000000001
 30
0.0
 10
3.3254800000000002
 20
3.0463100000000001
 30
0.0
 10
2.8561399999999999
 20
2.3946100000000001
 30
0.0
 10
2.3868100000000001
 20
1.74292
 30
0.0
  0
SPLINE
  5
4D
100
AcDbEntity
  8
Default
100
AcDbSpline
210
0.0
220
0.0
230
1.0
 70
     1
 71
     3
 72
    36
 73
    32
 74
     0
 42
0.0000000001
 43
0.0000000001
 40
0.0
 40
0.0
 40
0.0
 40
0.0
 40
0.125
 40
0.125
 40
0.125
 40
0.125
 40
0.25
 40
0.25
 40
0.25
 40
0.25
 40
0.375
 40
0.375
 40
0.375
 40
0.375
 40
0.5
 40
0.5
 40
0.5
 40
0.5
 40
0.625
 40
0.625
 40
0.625
 40
0.625
 40
0.75
 40
0.75
 40
0.75
 40
0.75
 40
0.875
 40
0.875
 40
0.875
 40
0.875
 40
1.0
 40
1.0
 40
1.0
 40
1.0
 10
-0.54582
 20
-2.78606
 30
0.0
 10
-0.2439
 20
-2.6276199999999998
 30
0.0
 10
0.05803
 20
-2.4691800000000002
 30
0.0
 10
0.36145
 20
-2.3212100000000002
 30
0.0
 10
0.36145
 20
-2.3212100000000002
 30
0.0
 10
0.66488
 20
-2.1732300000000002
 30
0.0
 10
0.96981
 20
-2.0357099999999999
 30
0.0
 10
1.2448300000000001
 20
-1.9385699999999999
 30
0.0
 10
1.2448300000000001
 20
-1.9385699999999999
 30
0.0
 10
1.51986
 20
-1.8413999999999999
 30
0.0
 10
1.7649999999999999
 20
-1.78461
 30
0.0
 10
2.0086300000000001
 20
-1.76667
 30
0.0
 10
2.0086300000000001
 20
-1.76667
 30
0.0
 10
2.2522700000000002
 20
-1.74874
 30
0.0
 10
2.4944199999999999
 20
-1.76966
 30
0.0
 10
2.7365699999999999
 20
-1.7905899999999999
 30
0.0
 10
2.7365699999999999
 20
-1.7905899999999999
 30
0.0
 10
2.4615399999999998
 20
-1.75173
 30
0.0
 10
2.1865100000000002
 20
-1.7128699999999999
 30
0.0
 10
1.8666400000000001
 20
-1.7382599999999999
 30
0.0
 10
1.8666400000000001
 20
-1.7382599999999999
 30
0.0
 10
1.54677
 20
-1.7636799999999999
 30
0.0
 10
1.18205
 20
-1.85337
 30
0.0
 10
0.85771
 20
-1.9759199999999999
 30
0.0
 10
0.85771
 20
-1.9759199999999999
 30
0.0
 10
0.53335
 20
-2.09849
 30
0.0
 10
0.24935
 20
-2.2539400000000001
 30
0.0
 10
0.02216
 20
-2.39445
 30
0.0
 10
0.02216
 20
-2.39445
 30
0.0
 10
-0.20504
 20
-2.5349499999999998
 30
0.0
 10
-0.37543
 20
-2.6605099999999999
 30
0.0
 10
-0.54582
 20
-2.78606
 30
0.0
  0
SPLINE
  5
4E
100
AcDbEntity
  8
Default
100
AcDbSpline
210
0.0
220
0.0
230
1.0
 70
     1
 71
     3
 72
    48
 73
    44
 74
     0
 42
0.0000000001
 43
0.0000000001
 40
0.0
 40
0.0
 40
0.0
 40
0.0
 40
0.0909090909090909
 40
0.0909090909090909
 40
0.0909090909090909
 40
0.0909090909090909
 40
0.1818181818181818
 40
0.1818181818181818
 40
0.1818181818181818
 40
0.1818181818181818
 40
0.2727272727272727
 40
0.2727272727272727
 40
0.2727272727272727
 40
0.2727272727272727
 40
0.3636363636363637
 40
0.3636363636363637
 40
0.3636363636363637
 40
0.3636363636363637
 40
0.4545454545454546
 40
0.4545454545454546
 40
0.4545454545454546
 40
0.4545454545454546
 40
0.5454545454545455
 40
0.5454545454545455
 40
0.5454545454545455
 40
0.5454545454545455
 40
0.6363636363636365
 40
0.6363636363636365
 40
0.6363636363636365
 40
0.6363636363636365
 40
0.7272727272727274
 40
0.7272727272727274
 40
0.7272727272727274
 40
0.7272727272727274
 40
0.8181818181818183
 40
0.8181818181818183
 40
0.8181818181818183
 40
0.8181818181818183
 40
0.9090909090909093
 40
0.9090909090909093
 40
0.9090909090909093
 40
0.9090909090909093
 40
1.0
 40
1.0
 40
1.0
 40
1.0
 10
-0.16915
 20
-2.3017799999999999
 30
0.0
 10
0.24338
 20
-2.0476800000000002
 30
0.0
 10
0.65592
 20
-1.79358
 30
0.0
 10
1.00867
 20
-1.59626
 30
0.0
 10
1.00867
 20
-1.59626
 30
0.0
 10
1.3614200000000001
 20
-1.39896
 30
0.0
 10
1.6544000000000001
 20
-1.25847
 30
0.0
 10
1.93689
 20
-1.1523399999999999
 30
0.0
 10
1.93689
 20
-1.1523399999999999
 30
0.0
 10
2.2193900000000002
 20
-1.0462100000000001
 30
0.0
 10
2.4914299999999998
 20
-0.97447
 30
0.0
 10
2.71414
 20
-0.92962
 30
0.0
 10
2.71414
 20
-0.92962
 30
0.0
 10
2.9368599999999998
 20
-0.88478
 30
0.0
 10
3.1102400000000001
 20
-0.8668400000000001
 30
0.0
 10
3.27766
 20
-0.86984
 30
0.0
 10
3.27766
 20
-0.86984
 30
0.0
 10
3.4450599999999998
 20
-0.87283
 30
0.0
 10
3.60649
 20
-0.8967500000000001
 30
0.0
 10
3.7350400000000001
 20
-0.9356100000000001
 30
0.0
 10
3.7350400000000001
 20
-0.9356100000000001
 30
0.0
 10
3.8635799999999998
 20
-0.97447
 30
0.0
 10
3.9592399999999999
 20
-1.0282800000000001
 30
0.0
 10
4.0548999999999999
 20
-1.0820799999999999
 30
0.0
 10
4.0548999999999999
 20
-1.0820799999999999
 30
0.0
 10
3.9024399999999999
 20
-1.03725
 30
0.0
 10
3.7499899999999999
 20
-0.99241
 30
0.0
 10
3.5586500000000001
 20
-0.98494
 30
0.0
 10
3.5586500000000001
 20
-0.98494
 30
0.0
 10
3.3673299999999999
 20
-0.97746
 30
0.0
 10
3.1371500000000001
 20
-1.00735
 30
0.0
 10
2.8456899999999998
 20
-1.0731200000000001
 30
0.0
 10
2.8456899999999998
 20
-1.0731200000000001
 30
0.0
 10
2.5542099999999999
 20
-1.13889
 30
0.0
 10
2.20146
 20
-1.2405200000000001
 30
0.0
 10
1.8696299999999999
 20
-1.3675600000000001
 30
0.0
 10
1.8696299999999999
 20
-1.3675600000000001
 30
0.0
 10
1.53779
 20
-1.49464
 30
0.0
 10
1.2269000000000001
 20
-1.6470899999999999
 30
0.0
 10
0.8906
 20
-1.80701
 30
0.0
 10
0.8906
 20
-1.80701
 30
0.0
 10
0.55428
 20
-1.96696
 30
0.0
 10
0.19255
 20
-2.13436
 30
0.0
 10
-0.16915
 20
-2.3017799999999999
 30
0.0
  0
SPLINE
  5
4F
100
AcDbEntity
  8
Default
100
AcDbSpline
210
0.0
220
0.0
230
1.0
 70
     1
 71
     3
 72
    64
 73
    60
 74
     0
 42
0.0000000001
 43
0.0000000001
 40
0.0
 40
0.0
 40
0.0
 40
0.0
 40
0.0666666666666667
 40
0.0666666666666667
 40
0.0666666666666667
 40
0.0666666666666667
 40
0.1333333333333333
 40
0.1333333333333333
 40
0.1333333333333333
 40
0.1333333333333333
 40
0.2
 40
0.2
 40
0.2
 40
0.2
 40
0.2666666666666667
 40
0.2666666666666667
 40
0.2666666666666667
 40
0.2666666666666667
 40
0.3333333333333333
 40
0.3333333333333333
 40
0.3333333333333333
 40
0.3333333333333333
 40
0.4
 40
0.4
 40
0.4
 40
0.4
 40
0.4666666666666666
 40
0.4666666666666666
 40
0.4666666666666666
 40
0.4666666666666666
 40
0.5333333333333333
 40
0.5333333333333333
 40
0.5333333333333333
 40
0.5333333333333333
 40
0.6
 40
0.6
 40
0.6
 40
0.6
 40
0.6666666666666666
 40
0.6666666666666666
 40
0.6666666666666666
 40
0.6666666666666666
 40
0.7333333333333333
 40
0.7333333333333333
 40
0.7333333333333333
 40
0.7333333333333333
 40
0.7999999999999999
 40
0.7999999999999999
 40
0.7999999999999999
 40
0.7999999999999999
 40
0.8666666666666666
 40
0.8666666666666666
 40
0.8666666666666666
 40
0.8666666666666666
 40
0.9333333333333332
 40
0.9333333333333332
 40
0.9333333333333332
 40
0.9333333333333332
 40
1.0
 40
1.0
 40
1.0
 40
1.0
 10
0.34203
 20
-1.65605
 30
0.0
 10
0.5752
 20
-1.4766999999999999
 30
0.0
 10
0.80838
 20
-1.2973300000000001
 30
0.0
 10
1.07145
 20
-1.1254500000000001
 30
0.0
 10
1.07145
 20
-1.1254500000000001
 30
0.0
 10
1.33453
 20
-0.9535400000000001
 30
0.0
 10
1.6274900000000001
 20
-0.78912
 30
0.0
 10
1.8920399999999999
 20
-0.6650700000000001
 30
0.0
 10
1.8920399999999999
 20
-0.6650700000000001
 30
0.0
 10
2.1566100000000001
 20
-0.541
 30
0.0
 10
2.3927800000000001
 20
-0.4573
 30
0.0
 10
2.65435
 20
-0.38256
 30
0.0
 10
2.65435
 20
-0.38256
 30
0.0
 10
2.9159299999999999
 20
-0.30782
 30
0.0
 10
3.2029100000000001
 20
-0.24206
 30
0.0
 10
3.6288999999999998
 20
-0.1464
 30
0.0
 10
3.6288999999999998
 20
-0.1464
 30
0.0
 10
4.0548999999999999
 20
-0.05072
 30
0.0
 10
4.61991
 20
0.07481
 30
0.0
 10
5.10419
 20
0.22876
 30
0.0
 10
5.10419
 20
0.22876
 30
0.0
 10
5.5884900000000002
 20
0.38273
 30
0.0
 10
5.99207
 20
0.56507
 30
0.0
 10
6.3193999999999999
 20
0.73696
 30
0.0
 10
6.3193999999999999
 20
0.73696
 30
0.0
 10
6.6467499999999999
 20
0.90886
 30
0.0
 10
6.8978599999999997
 20
1.0703
 30
0.0
 10
7.1519599999999999
 20
1.28701
 30
0.0
 10
7.1519599999999999
 20
1.28701
 30
0.0
 10
7.4060600000000001
 20
1.50376
 30
0.0
 10
7.6631499999999999
 20
1.7758
 30
0.0
 10
7.9202399999999997
 20
2.0478499999999999
 30
0.0
 10
7.9202399999999997
 20
2.0478499999999999
 30
0.0
 10
7.66913
 20
1.7518899999999999
 30
0.0
 10
7.4180299999999999
 20
1.45594
 30
0.0
 10
7.1878299999999999
 20
1.22427
 30
0.0
 10
7.1878299999999999
 20
1.22427
 30
0.0
 10
6.9576500000000001
 20
0.99257
 30
0.0
 10
6.7484000000000002
 20
0.82516
 30
0.0
 10
6.4823300000000001
 20
0.66823
 30
0.0
 10
6.4823300000000001
 20
0.66823
 30
0.0
 10
6.2162600000000001
 20
0.51127
 30
0.0
 10
5.8934199999999999
 20
0.3648
 30
0.0
 10
5.4644399999999997
 20
0.2213
 30
0.0
 10
5.4644399999999997
 20
0.2213
 30
0.0
 10
5.0354400000000004
 20
0.0778
 30
0.0
 10
4.5003299999999999
 20
-0.06269
 30
0.0
 10
3.9966200000000001
 20
-0.19572
 30
0.0
 10
3.9966200000000001
 20
-0.19572
 30
0.0
 10
3.4929000000000001
 20
-0.32874
 30
0.0
 10
3.0205700000000002
 20
-0.4543
 30
0.0
 10
2.6020500000000002
 20
-0.58583
 30
0.0
 10
2.6020500000000002
 20
-0.58583
 30
0.0
 10
2.1835200000000001
 20
-0.71738
 30
0.0
 10
1.8188
 20
-0.85489
 30
0.0
 10
1.4511099999999999
 20
-1.03426
 30
0.0
 10
1.4511099999999999
 20
-1.03426
 30
0.0
 10
1.0833999999999999
 20
-1.21363
 30
0.0
 10
0.71272
 20
-1.43485
 30
0.0
 10
0.34203
 20
-1.65605
 30
0.0
  0
SPLINE
  5
50
100
AcDbEntity
  8
Default
100
AcDbSpline
210
0.0
220
0.0
230
1.0
 70
     1
 71
     3
 72
    64
 73
    60
 74
     0
 42
0.0000000001
 43
0.0000000001
 40
0.0
 40
0.0
 40
0.0
 40
0.0
 40
0.0666666666666667
 40
0.0666666666666667
 40
0.0666666666666667
 40
0.0666666666666667
 40
0.1333333333333333
 40
0.1333333333333333
 40
0.1333333333333333
 40
0.1333333333333333
 40
0.2
 40
0.2
 40
0.2
 40
0.2
 40
0.2666666666666667
 40
0.2666666666666667
 40
0.2666666666666667
 40
0.2666666666666667
 40
0.3333333333333333
 40
0.3333333333333333
 40
0.3333333333333333
 40
0.3333333333333333
 40
0.4
 40
0.4
 40
0.4
 40
0.4
 40
0.4666666666666666
 40
0.4666666666666666
 40
0.4666666666666666
 40
0.4666666666666666
 40
0.5333333333333333
 40
0.5333333333333333
 40
0.5333333333333333
 40
0.5333333333333333
 40
0.6
 40
0.6
 40
0.6
 40
0.6
 40
0.6666666666666666
 40
0.6666666666666666
 40
0.6666666666666666
 40
0.6666666666666666
 40
0.7333333333333333
 40
0.7333333333333333
 40
0.7333333333333333
 40
0.7333333333333333
 40
0.7999999999999999
 40
0.7999999999999999
 40
0.7999999999999999
 40
0.7999999999999999
 40
0.8666666666666666
 40
0.8666666666666666
 40
0.8666666666666666
 40
0.8666666666666666
 40
0.9333333333333332
 40
0.9333333333333332
 40
0.9333333333333332
 40
0.9333333333333332
 40
1.0
 40
1.0
 40
1.0
 40
1.0
 10
2.6379199999999998
 20
-0.257
 30
0.0
 10
2.9428399999999999
 20
-0.10155
 30
0.0
 10
3.24776
 20
0.05388
 30
0.0
 10
3.63639
 20
0.22278
 30
0.0
 10
3.63639
 20
0.22278
 30
0.0
 10
4.02501
 20
0.39169
 30
0.0
 10
4.4973400000000003
 20
0.57405
 30
0.0
 10
4.9666800000000002
 20
0.78779
 30
0.0
 10
4.9666800000000002
 20
0.78779
 30
0.0
 10
5.4360299999999997
 20
1.00153
 30
0.0
 10
5.9023700000000003
 20
1.2466699999999999
 30
0.0
 10
6.4001200000000003
 20
1.5321499999999999
 30
0.0
 10
6.4001200000000003
 20
1.5321499999999999
 30
0.0
 10
6.8978599999999997
 20
1.81765
 30
0.0
 10
7.42699
 20
2.14351
 30
0.0
 10
7.8679100000000002
 20
2.44991
 30
0.0
 10
7.8679100000000002
 20
2.44991
 30
0.0
 10
8.3088800000000003
 20
2.7563399999999998
 30
0.0
 10
8.6616300000000006
 20
3.04332
 30
0.0
 10
8.9665599999999994
 20
3.3273199999999998
 30
0.0
 10
8.9665599999999994
 20
3.3273199999999998
 30
0.0
 10
9.2714700000000008
 20
3.6113200000000001
 30
0.0
 10
9.5285600000000006
 20
3.8923299999999998
 30
0.0
 10
9.7632300000000001
 20
4.2211600000000002
 30
0.0
 10
9.7632300000000001
 20
4.2211600000000002
 30
0.0
 10
9.9979099999999992
 20
4.5499900000000002
 30
0.0
 10
10.21016
 20
4.92666
 30
0.0
 10
10.4224
 20
5.3033299999999999
 30
0.0
 10
10.4224
 20
5.3033299999999999
 30
0.0
 10
10.234080000000001
 20
4.9356400000000002
 30
0.0
 10
10.045730000000001
 20
4.5679400000000001
 30
0.0
 10
9.8424499999999995
 20
4.2495700000000003
 30
0.0
 10
9.8424499999999995
 20
4.2495700000000003
 30
0.0
 10
9.6391799999999996
 20
3.93119
 30
0.0
 10
9.4209499999999995
 20
3.6621299999999999
 30
0.0
 10
9.1608699999999992
 20
3.39459
 30
0.0
 10
9.1608699999999992
 20
3.39459
 30
0.0
 10
8.9007799999999992
 20
3.1270199999999999
 30
0.0
 10
8.5988500000000005
 20
2.86097
 30
0.0
 10
8.2685200000000005
 20
2.6068600000000002
 30
0.0
 10
8.2685200000000005
 20
2.6068600000000002
 30
0.0
 10
7.9381899999999996
 20
2.35276
 30
0.0
 10
7.5794600000000001
 20
2.11063
 30
0.0
 10
7.1968100000000002
 20
1.8744499999999999
 30
0.0
 10
7.1968100000000002
 20
1.8744499999999999
 30
0.0
 10
6.8141499999999997
 20
1.63828
 30
0.0
 10
6.4076000000000004
 20
1.4080999999999999
 30
0.0
 10
6.0473699999999999
 20
1.21976
 30
0.0
 10
6.0473699999999999
 20
1.21976
 30
0.0
 10
5.6871400000000003
 20
1.0314300000000001
 30
0.0
 10
5.3732499999999996
 20
0.88495
 30
0.0
 10
5.0249899999999998
 20
0.734
 30
0.0
 10
5.0249899999999998
 20
0.734
 30
0.0
 10
4.6767099999999999
 20
0.5830300000000001
 30
0.0
 10
4.29406
 20
0.42756
 30
0.0
 10
3.8904899999999998
 20
0.26166
 30
0.0
 10
3.8904899999999998
 20
0.26166
 30
0.0
 10
3.48691
 20
0.09574
 30
0.0
 10
3.0624099999999999
 20
-0.08063
 30
0.0
 10
2.6379199999999998
 20
-0.257
 30
0.0
  0
SPLINE
  5
51
100
AcDbEntity
  8
Default
100
AcDbSpline
210
0.0
220
0.0
230
1.0
 70
     1
 71
     3
 72
   116
 73
   112
 74
     0
 42
0.0000000001
 43
0.0000000001
 40
0.0
 40
0.0
 40
0.0
 40
0.0
 40
0.0357142857142857
 40
0.0357142857142857
 40
0.0357142857142857
 40
0.0357142857142857
 40
0.0714285714285714
 40
0.0714285714285714
 40
0.0714285714285714
 40
0.0714285714285714
 40
0.1071428571428571
 40
0.1071428571428571
 40
0.1071428571428571
 40
0.1071428571428571
 40
0.1428571428571429
 40
0.1428571428571429
 40
0.1428571428571429
 40
0.1428571428571429
 40
0.1785714285714286
 40
0.1785714285714286
 40
0.1785714285714286
 40
0.1785714285714286
 40
0.2142857142857143
 40
0.2142857142857143
 40
0.2142857142857143
 40
0.2142857142857143
 40
0.2499999999999999
 40
0.2499999999999999
 40
0.2499999999999999
 40
0.2499999999999999
 40
0.2857142857142856
 40
0.2857142857142856
 40
0.2857142857142856
 40
0.2857142857142856
 40
0.3214285714285713
 40
0.3214285714285713
 40
0.3214285714285713
 40
0.3214285714285713
 40
0.357142857142857
 40
0.357142857142857
 40
0.357142857142857
 40
0.357142857142857
 40
0.3928571428571427
 40
0.3928571428571427
 40
0.3928571428571427
 40
0.3928571428571427
 40
0.4285714285714284
 40
0.4285714285714284
 40
0.4285714285714284
 40
0.4285714285714284
 40
0.4642857142857141
 40
0.4642857142857141
 40
0.4642857142857141
 40
0.4642857142857141
 40
0.4999999999999998
 40
0.4999999999999998
 40
0.4999999999999998
 40
0.4999999999999998
 40
0.5357142857142856
 40
0.5357142857142856
 40
0.5357142857142856
 40
0.5357142857142856
 40
0.5714285714285713
 40
0.5714285714285713
 40
0.5714285714285713
 40
0.5714285714285713
 40
0.607142857142857
 40
0.607142857142857
 40
0.607142857142857
 40
0.607142857142857
 40
0.6428571428571427
 40
0.6428571428571427
 40
0.6428571428571427
 40
0.6428571428571427
 40
0.6785714285714284
 40
0.6785714285714284
 40
0.6785714285714284
 40
0.6785714285714284
 40
0.7142857142857141
 40
0.7142857142857141
 40
0.7142857142857141
 40
0.7142857142857141
 40
0.7499999999999998
 40
0.7499999999999998
 40
0.7499999999999998
 40
0.7499999999999998
 40
0.7857142857142855
 40
0.7857142857142855
 40
0.7857142857142855
 40
0.7857142857142855
 40
0.8214285714285712
 40
0.8214285714285712
 40
0.8214285714285712
 40
0.8214285714285712
 40
0.8571428571428569
 40
0.8571428571428569
 40
0.8571428571428569
 40
0.8571428571428569
 40
0.8928571428571426
 40
0.8928571428571426
 40
0.8928571428571426
 40
0.8928571428571426
 40
0.9285714285714283
 40
0.9285714285714283
 40
0.9285714285714283
 40
0.9285714285714283
 40
0.964285714285714
 40
0.964285714285714
 40
0.964285714285714
 40
0.964285714285714
 40
1.0
 40
1.0
 40
1.0
 40
1.0
 10
0.56623
 20
-1.01932
 30
0.0
 10
1.05352
 20
-0.72037
 30
0.0
 10
1.5407900000000001
 20
-0.42143
 30
0.0
 10
2.0101399999999998
 20
-0.12248
 30
0.0
 10
2.0101399999999998
 20
-0.12248
 30
0.0
 10
2.4794800000000001
 20
0.17645
 30
0.0
 10
2.9308800000000002
 20
0.4754
 30
0.0
 10
3.40021
 20
0.76239
 30
0.0
 10
3.40021
 20
0.76239
 30
0.0
 10
3.86957
 20
1.0493699999999999
 30
0.0
 10
4.35684
 20
1.3244
 30
0.0
 10
4.9397799999999998
 20
1.6621999999999999
 30
0.0
 10
4.9397799999999998
 20
1.6621999999999999
 30
0.0
 10
5.52271
 20
2.0000100000000001
 30
0.0
 10
6.2013199999999999
 20
2.4005999999999998
 30
0.0
 10
6.7618299999999998
 20
2.7652999999999999
 30
0.0
 10
6.7618299999999998
 20
2.7652999999999999
 30
0.0
 10
7.3223700000000003
 20
3.13002
 30
0.0
 10
7.7647899999999996
 20
3.45885
 30
0.0
 10
8.2326300000000003
 20
3.8399999999999999
 30
0.0
 10
8.2326300000000003
 20
3.8399999999999999
 30
0.0
 10
8.7004900000000003
 20
4.2211600000000002
 30
0.0
 10
9.19374
 20
4.65463
 30
0.0
 10
9.6272099999999998
 20
5.0836100000000002
 30
0.0
 10
9.6272099999999998
 20
5.0836100000000002
 30
0.0
 10
10.06068
 20
5.5125999999999999
 30
0.0
 10
10.434369999999999
 20
5.9370900000000004
 30
0.0
 10
10.793089999999999
 20
6.3795299999999999
 30
0.0
 10
10.793089999999999
 20
6.3795299999999999
 30
0.0
 10
11.151820000000001
 20
6.8219700000000003
 30
0.0
 10
11.495609999999999
 20
7.2823500000000001
 30
0.0
 10
11.813969999999999
 20
7.7830700000000004
 30
0.0
 10
11.813969999999999
 20
7.7830700000000004
 30
0.0
 10
12.13236
 20
8.2837999999999994
 30
0.0
 10
12.425330000000001
 20
8.8248999999999995
 30
0.0
 10
12.68242
 20
9.3600100000000008
 30
0.0
 10
12.68242
 20
9.3600100000000008
 30
0.0
 10
12.93951
 20
9.8951200000000004
 30
0.0
 10
13.160729999999999
 20
10.424239999999999
 30
0.0
 10
13.341570000000001
 20
10.907019999999999
 30
0.0
 10
13.341570000000001
 20
10.907019999999999
 30
0.0
 10
13.522449999999999
 20
11.38982
 30
0.0
 10
13.66296
 20
11.826280000000001
 30
0.0
 10
13.77655
 20
12.26573
 30
0.0
 10
13.77655
 20
12.26573
 30
0.0
 10
13.89015
 20
12.70518
 30
0.0
 10
13.976850000000001
 20
13.14762
 30
0.0
 10
14.03213
 20
13.555669999999999
 30
0.0
 10
14.03213
 20
13.555669999999999
 30
0.0
 10
14.08745
 20
13.96373
 30
0.0
 10
14.111370000000001
 20
14.33742
 30
0.0
 10
14.10989
 20
14.68568
 30
0.0
 10
14.10989
 20
14.68568
 30
0.0
 10
14.10838
 20
15.033939999999999
 30
0.0
 10
14.081480000000001
 20
15.356809999999999
 30
0.0
 10
14.05457
 20
15.67967
 30
0.0
 10
14.05457
 20
15.67967
 30
0.0
 10
14.111370000000001
 20
15.264139999999999
 30
0.0
 10
14.16817
 20
14.848610000000001
 30
0.0
 10
14.1607
 20
14.368819999999999
 30
0.0
 10
14.1607
 20
14.368819999999999
 30
0.0
 10
14.153219999999999
 20
13.88899
 30
0.0
 10
14.081480000000001
 20
13.34493
 30
0.0
 10
13.98283
 20
12.83372
 30
0.0
 10
13.98283
 20
12.83372
 30
0.0
 10
13.884180000000001
 20
12.32253
 30
0.0
 10
13.758620000000001
 20
11.84422
 30
0.0
 10
13.582240000000001
 20
11.313610000000001
 30
0.0
 10
13.582240000000001
 20
11.313610000000001
 30
0.0
 10
13.40587
 20
10.782970000000001
 30
0.0
 10
13.178660000000001
 20
10.20003
 30
0.0
 10
12.9171
 20
9.6215899999999994
 30
0.0
 10
12.9171
 20
9.6215899999999994
 30
0.0
 10
12.655519999999999
 20
9.0431299999999997
 30
0.0
 10
12.35955
 20
8.4691600000000005
 30
0.0
 10
12.026249999999999
 20
7.9086499999999997
 30
0.0
 10
12.026249999999999
 20
7.9086499999999997
 30
0.0
 10
11.692909999999999
 20
7.3481100000000001
 30
0.0
 10
11.322229999999999
 20
6.80105
 30
0.0
 10
10.94406
 20
6.2913500000000004
 30
0.0
 10
10.94406
 20
6.2913500000000004
 30
0.0
 10
10.565899999999999
 20
5.7816400000000003
 30
0.0
 10
10.180249999999999
 20
5.30931
 30
0.0
 10
9.8305000000000007
 20
4.9177
 30
0.0
 10
9.8305000000000007
 20
4.9177
 30
0.0
 10
9.4807400000000008
 20
4.5260899999999999
 30
0.0
 10
9.1668500000000002
 20
4.2151800000000001
 30
0.0
 10
8.7767300000000006
 20
3.8669199999999999
 30
0.0
 10
8.7767300000000006
 20
3.8669199999999999
 30
0.0
 10
8.3865999999999996
 20
3.51864
 30
0.0
 10
7.9202399999999997
 20
3.1330100000000001
 30
0.0
 10
7.5062199999999999
 20
2.8176199999999998
 30
0.0
 10
7.5062199999999999
 20
2.8176199999999998
 30
0.0
 10
7.0921700000000003
 20
2.50224
 30
0.0
 10
6.7304399999999998
 20
2.2570999999999999
 30
0.0
 10
6.3463099999999999
 20
2.0179399999999998
 30
0.0
 10
6.3463099999999999
 20
2.0179399999999998
 30
0.0
 10
5.9621599999999999
 20
1.7787900000000001
 30
0.0
 10
5.5556099999999997
 20
1.54562
 30
0.0
 10
5.0907600000000004
 20
1.3034699999999999
 30
0.0
 10
5.0907600000000004
 20
1.3034699999999999
 30
0.0
 10
4.6258999999999997
 20
1.06132
 30
0.0
 10
4.1027399999999998
 20
0.81021
 30
0.0
 10
3.54522
 20
0.52772
 30
0.0
 10
3.54522
 20
0.52772
 30
0.0
 10
2.98767
 20
0.24522
 30
0.0
 10
2.3957700000000002
 20
-0.06868
 30
0.0
 10
1.89354
 20
-0.33173
 30
0.0
 10
1.89354
 20
-0.33173
 30
0.0
 10
1.3913199999999999
 20
-0.59481
 30
0.0
 10
0.97878
 20
-0.8070500000000001
 30
0.0
 10
0.56623
 20
-1.01932
 30
0.0
  0
SPLINE
  5
52
100
AcDbEntity
  8
Default
100
AcDbSpline
210
0.0
220
0.0
230
1.0
 70
     1
 71
     3
 72
   100
 73
    96
 74
     0
 42
0.0000000001
 43
0.0000000001
 40
0.0
 40
0.0
 40
0.0
 40
0.0
 40
0.0416666666666667
 40
0.0416666666666667
 40
0.0416666666666667
 40
0.0416666666666667
 40
0.0833333333333333
 40
0.0833333333333333
 40
0.0833333333333333
 40
0.0833333333333333
 40
0.125
 40
0.125
 40
0.125
 40
0.125
 40
0.1666666666666667
 40
0.1666666666666667
 40
0.1666666666666667
 40
0.1666666666666667
 40
0.2083333333333333
 40
0.2083333333333333
 40
0.2083333333333333
 40
0.2083333333333333
 40
0.25
 40
0.25
 40
0.25
 40
0.25
 40
0.2916666666666666
 40
0.2916666666666666
 40
0.2916666666666666
 40
0.2916666666666666
 40
0.3333333333333333
 40
0.3333333333333333
 40
0.3333333333333333
 40
0.3333333333333333
 40
0.375
 40
0.375
 40
0.375
 40
0.375
 40
0.4166666666666667
 40
0.4166666666666667
 40
0.4166666666666667
 40
0.4166666666666667
 40
0.4583333333333334
 40
0.4583333333333334
 40
0.4583333333333334
 40
0.4583333333333334
 40
0.5
 40
0.5
 40
0.5
 40
0.5
 40
0.5416666666666666
 40
0.5416666666666666
 40
0.5416666666666666
 40
0.5416666666666666
 40
0.5833333333333333
 40
0.5833333333333333
 40
0.5833333333333333
 40
0.5833333333333333
 40
0.6249999999999999
 40
0.6249999999999999
 40
0.6249999999999999
 40
0.6249999999999999
 40
0.6666666666666665
 40
0.6666666666666665
 40
0.6666666666666665
 40
0.6666666666666665
 40
0.7083333333333332
 40
0.7083333333333332
 40
0.7083333333333332
 40
0.7083333333333332
 40
0.7499999999999998
 40
0.7499999999999998
 40
0.7499999999999998
 40
0.7499999999999998
 40
0.7916666666666664
 40
0.7916666666666664
 40
0.7916666666666664
 40
0.7916666666666664
 40
0.833333333333333
 40
0.833333333333333
 40
0.833333333333333
 40
0.833333333333333
 40
0.8749999999999997
 40
0.8749999999999997
 40
0.8749999999999997
 40
0.8749999999999997
 40
0.9166666666666663
 40
0.9166666666666663
 40
0.9166666666666663
 40
0.9166666666666663
 40
0.9583333333333329
 40
0.9583333333333329
 40
0.9583333333333329
 40
0.9583333333333329
 40
1.0
 40
1.0
 40
1.0
 40
1.0
 10
4.9875999999999996
 20
1.96713
 30
0.0
 10
5.5526200000000001
 20
2.3408099999999998
 30
0.0
 10
6.11761
 20
2.7144900000000001
 30
0.0
 10
6.6437600000000003
 20
3.1404700000000001
 30
0.0
 10
6.6437600000000003
 20
3.1404700000000001
 30
0.0
 10
7.1698899999999997
 20
3.5664699999999998
 30
0.0
 10
7.6571800000000003
 20
4.0447899999999999
 30
0.0
 10
8.11158
 20
4.5290699999999999
 30
0.0
 10
8.11158
 20
4.5290699999999999
 30
0.0
 10
8.5659700000000001
 20
5.0133599999999996
 30
0.0
 10
8.9874799999999997
 20
5.5036199999999997
 30
0.0
 10
9.3895499999999998
 20
6.0193000000000003
 30
0.0
 10
9.3895499999999998
 20
6.0193000000000003
 30
0.0
 10
9.7916299999999996
 20
6.53498
 30
0.0
 10
10.174289999999999
 20
7.0760699999999996
 30
0.0
 10
10.51806
 20
7.6201600000000003
 30
0.0
 10
10.51806
 20
7.6201600000000003
 30
0.0
 10
10.86185
 20
8.1642299999999999
 30
0.0
 10
11.166779999999999
 20
8.71129
 30
0.0
 10
11.44181
 20
9.2419100000000007
 30
0.0
 10
11.44181
 20
9.2419100000000007
 30
0.0
 10
11.71683
 20
9.7725500000000007
 30
0.0
 10
11.961959999999999
 20
10.28673
 30
0.0
 10
12.175700000000001
 20
10.796419999999999
 30
0.0
 10
12.175700000000001
 20
10.796419999999999
 30
0.0
 10
12.38946
 20
11.30613
 30
0.0
 10
12.571809999999999
 20
11.81134
 30
0.0
 10
12.70781
 20
12.252269999999999
 30
0.0
 10
12.70781
 20
12.252269999999999
 30
0.0
 10
12.84385
 20
12.69323
 30
0.0
 10
12.93352
 20
13.069900000000001
 30
0.0
 10
12.9963
 20
13.480930000000001
 30
0.0
 10
12.9963
 20
13.480930000000001
 30
0.0
 10
13.059089999999999
 20
13.89199
 30
0.0
 10
13.09496
 20
14.33742
 30
0.0
 10
13.10094
 20
14.75742
 30
0.0
 10
13.10094
 20
14.75742
 30
0.0
 10
13.106920000000001
 20
15.177440000000001
 30
0.0
 10
13.083
 20
15.572039999999999
 30
0.0
 10
13.03369
 20
15.94871
 30
0.0
 10
13.03369
 20
15.94871
 30
0.0
 10
12.984349999999999
 20
16.325379999999999
 30
0.0
 10
12.90962
 20
16.68412
 30
0.0
 10
12.83487
 20
17.042850000000001
 30
0.0
 10
12.83487
 20
17.042850000000001
 30
0.0
 10
12.903639999999999
 20
16.761839999999999
 30
0.0
 10
12.9724
 20
16.480830000000001
 30
0.0
 10
13.033670000000001
 20
16.137060000000002
 30
0.0
 10
13.033670000000001
 20
16.137060000000002
 30
0.0
 10
13.09496
 20
15.79327
 30
0.0
 10
13.14878
 20
15.386710000000001
 30
0.0
 10
13.16372
 20
14.930820000000001
 30
0.0
 10
13.16372
 20
14.930820000000001
 30
0.0
 10
13.178660000000001
 20
14.474930000000001
 30
0.0
 10
13.15474
 20
13.969709999999999
 30
0.0
 10
13.09348
 20
13.49738
 30
0.0
 10
13.09348
 20
13.49738
 30
0.0
 10
13.032170000000001
 20
13.02505
 30
0.0
 10
12.93352
 20
12.585599999999999
 30
0.0
 10
12.791539999999999
 20
12.10131
 30
0.0
 10
12.791539999999999
 20
12.10131
 30
0.0
 10
12.64954
 20
11.61703
 30
0.0
 10
12.46419
 20
11.087899999999999
 30
0.0
 10
12.22204
 20
10.53636
 30
0.0
 10
12.22204
 20
10.53636
 30
0.0
 10
11.97991
 20
9.9847900000000003
 30
0.0
 10
11.680960000000001
 20
9.4108199999999993
 30
0.0
 10
11.41043
 20
8.9086099999999995
 30
0.0
 10
11.41043
 20
8.9086099999999995
 30
0.0
 10
11.13987
 20
8.4063700000000008
 30
0.0
 10
10.89772
 20
7.9759000000000002
 30
0.0
 10
10.63616
 20
7.5573800000000002
 30
0.0
 10
10.63616
 20
7.5573800000000002
 30
0.0
 10
10.37458
 20
7.1388499999999997
 30
0.0
 10
10.09357
 20
6.7322800000000003
 30
0.0
 10
9.75427
 20
6.2793999999999999
 30
0.0
 10
9.75427
 20
6.2793999999999999
 30
0.0
 10
9.4149700000000003
 20
5.8264899999999997
 30
0.0
 10
9.0173699999999997
 20
5.3272500000000003
 30
0.0
 10
8.64818
 20
4.9087300000000003
 30
0.0
 10
8.64818
 20
4.9087300000000003
 30
0.0
 10
8.2789699999999993
 20
4.4901999999999997
 30
0.0
 10
7.9381899999999996
 20
4.1524000000000001
 30
0.0
 10
7.63178
 20
3.8729
 30
0.0
 10
7.63178
 20
3.8729
 30
0.0
 10
7.3253399999999997
 20
3.5933899999999999
 30
0.0
 10
7.0533099999999997
 20
3.37216
 30
0.0
 10
6.7872599999999998
 20
3.16289
 30
0.0
 10
6.7872599999999998
 20
3.16289
 30
0.0
 10
6.5211899999999998
 20
2.95364
 30
0.0
 10
6.2611100000000004
 20
2.7563399999999998
 30
0.0
 10
5.9621599999999999
 20
2.55904
 30
0.0
 10
5.9621599999999999
 20
2.55904
 30
0.0
 10
5.6632199999999999
 20
2.3617400000000002
 30
0.0
 10
5.3254099999999998
 20
2.1644299999999999
 30
0.0
 10
4.9875999999999996
 20
1.96713
 30
0.0
  0
SPLINE
  5
53
100
AcDbEntity
  8
Default
100
AcDbSpline
210
0.0
220
0.0
230
1.0
 70
     1
 71
     3
 72
   120
 73
   116
 74
     0
 42
0.0000000001
 43
0.0000000001
 40
0.0
 40
0.0
 40
0.0
 40
0.0
 40
0.0344827586206897
 40
0.0344827586206897
 40
0.0344827586206897
 40
0.0344827586206897
 40
0.0689655172413793
 40
0.0689655172413793
 40
0.0689655172413793
 40
0.0689655172413793
 40
0.103448275862069
 40
0.103448275862069
 40
0.103448275862069
 40
0.103448275862069
 40
0.1379310344827586
 40
0.1379310344827586
 40
0.1379310344827586
 40
0.1379310344827586
 40
0.1724137931034483
 40
0.1724137931034483
 40
0.1724137931034483
 40
0.1724137931034483
 40
0.206896551724138
 40
0.206896551724138
 40
0.206896551724138
 40
0.206896551724138
 40
0.2413793103448276
 40
0.2413793103448276
 40
0.2413793103448276
 40
0.2413793103448276
 40
0.2758620689655173
 40
0.2758620689655173
 40
0.2758620689655173
 40
0.2758620689655173
 40
0.310344827586207
 40
0.310344827586207
 40
0.310344827586207
 40
0.310344827586207
 40
0.3448275862068966
 40
0.3448275862068966
 40
0.3448275862068966
 40
0.3448275862068966
 40
0.3793103448275863
 40
0.3793103448275863
 40
0.3793103448275863
 40
0.3793103448275863
 40
0.413793103448276
 40
0.413793103448276
 40
0.413793103448276
 40
0.413793103448276
 40
0.4482758620689656
 40
0.4482758620689656
 40
0.4482758620689656
 40
0.4482758620689656
 40
0.4827586206896553
 40
0.4827586206896553
 40
0.4827586206896553
 40
0.4827586206896553
 40
0.517241379310345
 40
0.517241379310345
 40
0.517241379310345
 40
0.517241379310345
 40
0.5517241379310346
 40
0.5517241379310346
 40
0.5517241379310346
 40
0.5517241379310346
 40
0.5862068965517242
 40
0.5862068965517242
 40
0.5862068965517242
 40
0.5862068965517242
 40
0.6206896551724138
 40
0.6206896551724138
 40
0.6206896551724138
 40
0.6206896551724138
 40
0.6551724137931034
 40
0.6551724137931034
 40
0.6551724137931034
 40
0.6551724137931034
 40
0.689655172413793
 40
0.689655172413793
 40
0.689655172413793
 40
0.689655172413793
 40
0.7241379310344827
 40
0.7241379310344827
 40
0.7241379310344827
 40
0.7241379310344827
 40
0.7586206896551723
 40
0.7586206896551723
 40
0.7586206896551723
 40
0.7586206896551723
 40
0.7931034482758619
 40
0.7931034482758619
 40
0.7931034482758619
 40
0.7931034482758619
 40
0.8275862068965515
 40
0.8275862068965515
 40
0.8275862068965515
 40
0.8275862068965515
 40
0.8620689655172411
 40
0.8620689655172411
 40
0.8620689655172411
 40
0.8620689655172411
 40
0.8965517241379307
 40
0.8965517241379307
 40
0.8965517241379307
 40
0.8965517241379307
 40
0.9310344827586203
 40
0.9310344827586203
 40
0.9310344827586203
 40
0.9310344827586203
 40
0.9655172413793099
 40
0.9655172413793099
 40
0.9655172413793099
 40
0.9655172413793099
 40
1.0
 40
1.0
 40
1.0
 40
1.0
 10
0.30616
 20
-0.76819
 30
0.0
 10
0.632
 20
-0.53203
 30
0.0
 10
0.95786
 20
-0.29586
 30
0.0
 10
1.3718699999999999
 20
0.01801
 30
0.0
 10
1.3718699999999999
 20
0.01801
 30
0.0
 10
1.78593
 20
0.3319
 30
0.0
 10
2.28816
 20
0.72351
 30
0.0
 10
2.8008299999999999
 20
1.1181300000000001
 30
0.0
 10
2.8008299999999999
 20
1.1181300000000001
 30
0.0
 10
3.3135300000000001
 20
1.51274
 30
0.0
 10
3.8366699999999998
 20
1.9103300000000001
 30
0.0
 10
4.38523
 20
2.37967
 30
0.0
 10
4.38523
 20
2.37967
 30
0.0
 10
4.9337999999999997
 20
2.8490099999999998
 30
0.0
 10
5.5077699999999998
 20
3.3900999999999999
 30
0.0
 10
6.12507
 20
4.0193700000000003
 30
0.0
 10
6.12507
 20
4.0193700000000003
 30
0.0
 10
6.7424099999999996
 20
4.6486400000000003
 30
0.0
 10
7.4030699999999996
 20
5.3661099999999999
 30
0.0
 10
7.9695600000000004
 20
6.0342500000000001
 30
0.0
 10
7.9695600000000004
 20
6.0342500000000001
 30
0.0
 10
8.5360700000000005
 20
6.7023999999999999
 30
0.0
 10
9.0084099999999996
 20
7.3212099999999998
 30
0.0
 10
9.4164399999999997
 20
7.8891999999999998
 30
0.0
 10
9.4164399999999997
 20
7.8891999999999998
 30
0.0
 10
9.8245100000000001
 20
8.4571900000000007
 30
0.0
 10
10.1683
 20
8.9743600000000008
 30
0.0
 10
10.45079
 20
9.46462
 30
0.0
 10
10.45079
 20
9.46462
 30
0.0
 10
10.7333
 20
9.9549000000000003
 30
0.0
 10
10.95452
 20
10.41826
 30
0.0
 10
11.151820000000001
 20
10.87115
 30
0.0
 10
11.151820000000001
 20
10.87115
 30
0.0
 10
11.349119999999999
 20
11.324070000000001
 30
0.0
 10
11.52252
 20
11.766489999999999
 30
0.0
 10
11.661519999999999
 20
12.27319
 30
0.0
 10
11.661519999999999
 20
12.27319
 30
0.0
 10
11.80054
 20
12.779909999999999
 30
0.0
 10
11.90516
 20
13.35089
 30
0.0
 10
11.978400000000001
 20
13.93831
 30
0.0
 10
11.978400000000001
 20
13.93831
 30
0.0
 10
12.05165
 20
14.52575
 30
0.0
 10
12.093500000000001
 20
15.129619999999999
 30
0.0
 10
12.102460000000001
 20
15.69909
 30
0.0
 10
12.102460000000001
 20
15.69909
 30
0.0
 10
12.11144
 20
16.26859
 30
0.0
 10
12.08752
 20
16.80369
 30
0.0
 10
12.02027
 20
17.331320000000002
 30
0.0
 10
12.02027
 20
17.331320000000002
 30
0.0
 10
11.952999999999999
 20
17.858969999999999
 30
0.0
 10
11.8424
 20
18.37914
 30
0.0
 10
11.743740000000001
 20
18.775220000000001
 30
0.0
 10
11.743740000000001
 20
18.775220000000001
 30
0.0
 10
11.64508
 20
19.171340000000001
 30
0.0
 10
11.558389999999999
 20
19.443370000000002
 30
0.0
 10
11.46124
 20
19.70194
 30
0.0
 10
11.46124
 20
19.70194
 30
0.0
 10
11.36408
 20
19.960540000000002
 30
0.0
 10
11.256460000000001
 20
20.205680000000001
 30
0.0
 10
11.148849999999999
 20
20.450810000000001
 30
0.0
 10
11.148849999999999
 20
20.450810000000001
 30
0.0
 10
11.31026
 20
20.13692
 30
0.0
 10
11.471690000000001
 20
19.823029999999999
 30
0.0
 10
11.621169999999999
 20
19.408999999999999
 30
0.0
 10
11.621169999999999
 20
19.408999999999999
 30
0.0
 10
11.77064
 20
18.994959999999999
 30
0.0
 10
11.908149999999999
 20
18.480779999999999
 30
0.0
 10
12.009790000000001
 20
17.94717
 30
0.0
 10
12.009790000000001
 20
17.94717
 30
0.0
 10
12.11144
 20
17.413540000000001
 30
0.0
 10
12.177210000000001
 20
16.860489999999999
 30
0.0
 10
12.196619999999999
 20
16.274570000000001
 30
0.0
 10
12.196619999999999
 20
16.274570000000001
 30
0.0
 10
12.21607
 20
15.68863
 30
0.0
 10
12.189159999999999
 20
15.06983
 30
0.0
 10
12.136850000000001
 20
14.45997
 30
0.0
 10
12.136850000000001
 20
14.45997
 30
0.0
 10
12.084530000000001
 20
13.85013
 30
0.0
 10
12.0068
 20
13.249269999999999
 30
0.0
 10
11.87677
 20
12.661849999999999
 30
0.0
 10
11.87677
 20
12.661849999999999
 30
0.0
 10
11.74672
 20
12.07441
 30
0.0
 10
11.56438
 20
11.500439999999999
 30
0.0
 10
11.298310000000001
 20
10.84276
 30
0.0
 10
11.298310000000001
 20
10.84276
 30
0.0
 10
11.03224
 20
10.185079999999999
 30
0.0
 10
10.68249
 20
9.4437099999999994
 30
0.0
 10
10.32526
 20
8.7919999999999998
 30
0.0
 10
10.32526
 20
8.7919999999999998
 30
0.0
 10
9.9680099999999996
 20
8.1403099999999995
 30
0.0
 10
9.6032899999999994
 20
7.5782999999999996
 30
0.0
 10
9.1877600000000008
 20
6.9908900000000003
 30
0.0
 10
9.1877600000000008
 20
6.9908900000000003
 30
0.0
 10
8.7722300000000004
 20
6.4034500000000003
 30
0.0
 10
8.3058899999999998
 20
5.7906199999999997
 30
0.0
 10
7.8245800000000001
 20
5.2226100000000004
 30
0.0
 10
7.8245800000000001
 20
5.2226100000000004
 30
0.0
 10
7.3432899999999997
 20
4.65463
 30
0.0
 10
6.8470500000000003
 20
4.1314900000000003
 30
0.0
 10
6.3866699999999996
 20
3.6621299999999999
 30
0.0
 10
6.3866699999999996
 20
3.6621299999999999
 30
0.0
 10
5.9262899999999998
 20
3.1928000000000001
 30
0.0
 10
5.5017899999999997
 20
2.7772700000000001
 30
0.0
 10
4.9891199999999998
 20
2.34829
 30
0.0
 10
4.9891199999999998
 20
2.34829
 30
0.0
 10
4.4764099999999996
 20
1.9192899999999999
 30
0.0
 10
3.8755299999999999
 20
1.47685
 30
0.0
 10
3.3778100000000002
 20
1.13757
 30
0.0
 10
3.3778100000000002
 20
1.13757
 30
0.0
 10
2.8800599999999998
 20
0.79826
 30
0.0
 10
2.4854599999999998
 20
0.5621
 30
0.0
 10
1.99071
 20
0.26166
 30
0.0
 10
1.99071
 20
0.26166
 30
0.0
 10
1.49596
 20
-0.03877
 30
0.0
 10
0.90106
 20
-0.40349
 30
0.0
 10
0.30616
 20
-0.76819
 30
0.0
  0
SPLINE
  5
54
100
AcDbEntity
  8
Default
100
AcDbSpline
210
0.0
220
0.0
230
1.0
 70
     1
 71
     3
 72
    84
 73
    80
 74
     0
 42
0.0000000001
 43
0.0000000001
 40
0.0
 40
0.0
 40
0.0
 40
0.0
 40
0.05
 40
0.05
 40
0.05
 40
0.05
 40
0.1
 40
0.1
 40
0.1
 40
0.1
 40
0.15
 40
0.15
 40
0.15
 40
0.15
 40
0.2
 40
0.2
 40
0.2
 40
0.2
 40
0.25
 40
0.25
 40
0.25
 40
0.25
 40
0.3
 40
0.3
 40
0.3
 40
0.3
 40
0.35
 40
0.35
 40
0.35
 40
0.35
 40
0.4
 40
0.4
 40
0.4
 40
0.4
 40
0.45
 40
0.45
 40
0.45
 40
0.45
 40
0.4999999999999999
 40
0.4999999999999999
 40
0.4999999999999999
 40
0.4999999999999999
 40
0.5499999999999999
 40
0.5499999999999999
 40
0.5499999999999999
 40
0.5499999999999999
 40
0.6
 40
0.6
 40
0.6
 40
0.6
 40
0.65
 40
0.65
 40
0.65
 40
0.65
 40
0.7000000000000001
 40
0.7000000000000001
 40
0.7000000000000001
 40
0.7000000000000001
 40
0.7500000000000001
 40
0.7500000000000001
 40
0.7500000000000001
 40
0.7500000000000001
 40
0.8000000000000002
 40
0.8000000000000002
 40
0.8000000000000002
 40
0.8000000000000002
 40
0.8500000000000002
 40
0.8500000000000002
 40
0.8500000000000002
 40
0.8500000000000002
 40
0.9000000000000002
 40
0.9000000000000002
 40
0.9000000000000002
 40
0.9000000000000002
 40
0.9500000000000003
 40
0.9500000000000003
 40
0.9500000000000003
 40
0.9500000000000003
 40
1.0
 40
1.0
 40
1.0
 40
1.0
 10
6.46739
 20
4.7742100000000001
 30
0.0
 10
6.9666300000000003
 20
5.4767299999999999
 30
0.0
 10
7.4658499999999997
 20
6.1792400000000001
 30
0.0
 10
7.9023099999999999
 20
6.8832399999999998
 30
0.0
 10
7.9023099999999999
 20
6.8832399999999998
 30
0.0
 10
8.3387600000000006
 20
7.5872599999999997
 30
0.0
 10
8.7124400000000009
 20
8.2927800000000005
 30
0.0
 10
9.0173699999999997
 20
8.9369999999999994
 30
0.0
 10
9.0173699999999997
 20
8.9369999999999994
 30
0.0
 10
9.3223000000000003
 20
9.5812299999999997
 30
0.0
 10
9.5584600000000002
 20
10.164160000000001
 30
0.0
 10
9.7781699999999994
 20
10.83977
 30
0.0
 10
9.7781699999999994
 20
10.83977
 30
0.0
 10
9.9979099999999992
 20
11.51539
 30
0.0
 10
10.201180000000001
 20
12.283670000000001
 30
0.0
 10
10.334210000000001
 20
12.86961
 30
0.0
 10
10.334210000000001
 20
12.86961
 30
0.0
 10
10.46725
 20
13.45553
 30
0.0
 10
10.53003
 20
13.859109999999999
 30
0.0
 10
10.57037
 20
14.30303
 30
0.0
 10
10.57037
 20
14.30303
 30
0.0
 10
10.610749999999999
 20
14.746969999999999
 30
0.0
 10
10.628679999999999
 20
15.231260000000001
 30
0.0
 10
10.610749999999999
 20
15.723000000000001
 30
0.0
 10
10.610749999999999
 20
15.723000000000001
 30
0.0
 10
10.59281
 20
16.214780000000001
 30
0.0
 10
10.53899
 20
16.714020000000001
 30
0.0
 10
10.455299999999999
 20
17.15794
 30
0.0
 10
10.455299999999999
 20
17.15794
 30
0.0
 10
10.371589999999999
 20
17.601880000000001
 30
0.0
 10
10.25798
 20
17.990500000000001
 30
0.0
 10
10.04725
 20
18.485250000000001
 30
0.0
 10
10.04725
 20
18.485250000000001
 30
0.0
 10
9.8364799999999999
 20
18.98
 30
0.0
 10
9.5285600000000006
 20
19.580880000000001
 30
0.0
 10
9.2206600000000005
 20
20.181760000000001
 30
0.0
 10
9.2206600000000005
 20
20.181760000000001
 30
0.0
 10
9.4926899999999996
 20
19.68253
 30
0.0
 10
9.7647200000000005
 20
19.18329
 30
0.0
 10
9.9739900000000006
 20
18.74982
 30
0.0
 10
9.9739900000000006
 20
18.74982
 30
0.0
 10
10.183249999999999
 20
18.31635
 30
0.0
 10
10.329739999999999
 20
17.948640000000001
 30
0.0
 10
10.44183
 20
17.516690000000001
 30
0.0
 10
10.44183
 20
17.516690000000001
 30
0.0
 10
10.55395
 20
17.084700000000002
 30
0.0
 10
10.63167
 20
16.588460000000001
 30
0.0
 10
10.67501
 20
16.10567
 30
0.0
 10
10.67501
 20
16.10567
 30
0.0
 10
10.718360000000001
 20
15.622870000000001
 30
0.0
 10
10.72733
 20
15.15352
 30
0.0
 10
10.7064
 20
14.694660000000001
 30
0.0
 10
10.7064
 20
14.694660000000001
 30
0.0
 10
10.68548
 20
14.23578
 30
0.0
 10
10.634650000000001
 20
13.78735
 30
0.0
 10
10.52556
 20
13.234310000000001
 30
0.0
 10
10.52556
 20
13.234310000000001
 30
0.0
 10
10.41642
 20
12.68126
 30
0.0
 10
10.24902
 20
12.023580000000001
 30
0.0
 10
10.07414
 20
11.419729999999999
 30
0.0
 10
10.07414
 20
11.419729999999999
 30
0.0
 10
9.8992599999999999
 20
10.815849999999999
 30
0.0
 10
9.7169000000000008
 20
10.2658
 30
0.0
 10
9.5375399999999999
 20
9.8009500000000003
 30
0.0
 10
9.5375399999999999
 20
9.8009500000000003
 30
0.0
 10
9.3581699999999994
 20
9.3360900000000004
 30
0.0
 10
9.1817899999999995
 20
8.9564299999999992
 30
0.0
 10
8.9740400000000005
 20
8.5573499999999996
 30
0.0
 10
8.9740400000000005
 20
8.5573499999999996
 30
0.0
 10
8.7662600000000008
 20
8.1582399999999993
 30
0.0
 10
8.5271100000000004
 20
7.7397400000000003
 30
0.0
 10
8.2416300000000007
 20
7.27637
 30
0.0
 10
8.2416300000000007
 20
7.27637
 30
0.0
 10
7.9561299999999999
 20
6.8129999999999997
 30
0.0
 10
7.6242900000000002
 20
6.3048000000000002
 30
0.0
 10
7.3208700000000002
 20
5.8802899999999996
 30
0.0
 10
7.3208700000000002
 20
5.8802899999999996
 30
0.0
 10
7.0174399999999997
 20
5.4558
 30
0.0
 10
6.7424099999999996
 20
5.1150000000000002
 30
0.0
 10
6.46739
 20
4.7742100000000001
 30
0.0
  0
SPLINE
  5
55
100
AcDbEntity
  8
Default
100
AcDbSpline
210
0.0
220
0.0
230
1.0
 70
     1
 71
     3
 72
   108
 73
   104
 74
     0
 42
0.0000000001
 43
0.0000000001
 40
0.0
 40
0.0
 40
0.0
 40
0.0
 40
0.0384615384615385
 40
0.0384615384615385
 40
0.0384615384615385
 40
0.0384615384615385
 40
0.0769230769230769
 40
0.0769230769230769
 40
0.0769230769230769
 40
0.0769230769230769
 40
0.1153846153846154
 40
0.1153846153846154
 40
0.1153846153846154
 40
0.1153846153846154
 40
0.1538461538461539
 40
0.1538461538461539
 40
0.1538461538461539
 40
0.1538461538461539
 40
0.1923076923076923
 40
0.1923076923076923
 40
0.1923076923076923
 40
0.1923076923076923
 40
0.2307692307692308
 40
0.2307692307692308
 40
0.2307692307692308
 40
0.2307692307692308
 40
0.2692307692307693
 40
0.2692307692307693
 40
0.2692307692307693
 40
0.2692307692307693
 40
0.3076923076923077
 40
0.3076923076923077
 40
0.3076923076923077
 40
0.3076923076923077
 40
0.3461538461538462
 40
0.3461538461538462
 40
0.3461538461538462
 40
0.3461538461538462
 40
0.3846153846153846
 40
0.3846153846153846
 40
0.3846153846153846
 40
0.3846153846153846
 40
0.423076923076923
 40
0.423076923076923
 40
0.423076923076923
 40
0.423076923076923
 40
0.4615384615384615
 40
0.4615384615384615
 40
0.4615384615384615
 40
0.4615384615384615
 40
0.4999999999999999
 40
0.4999999999999999
 40
0.4999999999999999
 40
0.4999999999999999
 40
0.5384615384615383
 40
0.5384615384615383
 40
0.5384615384615383
 40
0.5384615384615383
 40
0.5769230769230768
 40
0.5769230769230768
 40
0.5769230769230768
 40
0.5769230769230768
 40
0.6153846153846152
 40
0.6153846153846152
 40
0.6153846153846152
 40
0.6153846153846152
 40
0.6538461538461536
 40
0.6538461538461536
 40
0.6538461538461536
 40
0.6538461538461536
 40
0.6923076923076921
 40
0.6923076923076921
 40
0.6923076923076921
 40
0.6923076923076921
 40
0.7307692307692305
 40
0.7307692307692305
 40
0.7307692307692305
 40
0.7307692307692305
 40
0.7692307692307689
 40
0.7692307692307689
 40
0.7692307692307689
 40
0.7692307692307689
 40
0.8076923076923074
 40
0.8076923076923074
 40
0.8076923076923074
 40
0.8076923076923074
 40
0.8461538461538458
 40
0.8461538461538458
 40
0.8461538461538458
 40
0.8461538461538458
 40
0.8846153846153843
 40
0.8846153846153843
 40
0.8846153846153843
 40
0.8846153846153843
 40
0.9230769230769227
 40
0.9230769230769227
 40
0.9230769230769227
 40
0.9230769230769227
 40
0.9615384615384611
 40
0.9615384615384611
 40
0.9615384615384611
 40
0.9615384615384611
 40
1.0
 40
1.0
 40
1.0
 40
1.0
 10
4.5122799999999996
 20
2.77427
 30
0.0
 10
4.8112300000000001
 20
3.1240299999999999
 30
0.0
 10
5.1101700000000001
 20
3.4738099999999998
 30
0.0
 10
5.4449899999999998
 20
3.93119
 30
0.0
 10
5.4449899999999998
 20
3.93119
 30
0.0
 10
5.7797999999999998
 20
4.3885800000000001
 30
0.0
 10
6.1505099999999997
 20
4.95357
 30
0.0
 10
6.4643899999999999
 20
5.4767299999999999
 30
0.0
 10
6.4643899999999999
 20
5.4767299999999999
 30
0.0
 10
6.7782799999999996
 20
5.9998699999999996
 30
0.0
 10
7.0353700000000003
 20
6.4811800000000002
 30
0.0
 10
7.2909699999999997
 20
7.01776
 30
0.0
 10
7.2909699999999997
 20
7.01776
 30
0.0
 10
7.5465600000000004
 20
7.5543899999999997
 30
0.0
 10
7.8006599999999997
 20
8.1462900000000005
 30
0.0
 10
8.0233799999999995
 20
8.7083100000000009
 30
0.0
 10
8.0233799999999995
 20
8.7083100000000009
 30
0.0
 10
8.2461000000000002
 20
9.2703100000000003
 30
0.0
 10
8.4374099999999999
 20
9.8024299999999993
 30
0.0
 10
8.6197700000000008
 20
10.382389999999999
 30
0.0
 10
8.6197700000000008
 20
10.382389999999999
 30
0.0
 10
8.80213
 20
10.962339999999999
 30
0.0
 10
8.9755199999999995
 20
11.590120000000001
 30
0.0
 10
9.1010799999999996
 20
12.17606
 30
0.0
 10
9.1010799999999996
 20
12.17606
 30
0.0
 10
9.2266200000000005
 20
12.761979999999999
 30
0.0
 10
9.3043600000000009
 20
13.30606
 30
0.0
 10
9.3432300000000001
 20
13.833679999999999
 30
0.0
 10
9.3432300000000001
 20
13.833679999999999
 30
0.0
 10
9.3820899999999998
 20
14.361319999999999
 30
0.0
 10
9.3820899999999998
 20
14.872529999999999
 30
0.0
 10
9.3507099999999994
 20
15.386710000000001
 30
0.0
 10
9.3507099999999994
 20
15.386710000000001
 30
0.0
 10
9.3193099999999998
 20
15.90089
 30
0.0
 10
9.2565299999999997
 20
16.41807
 30
0.0
 10
9.1444299999999998
 20
16.92774
 30
0.0
 10
9.1444299999999998
 20
16.92774
 30
0.0
 10
9.0323100000000007
 20
17.437449999999998
 30
0.0
 10
8.8708799999999997
 20
17.939689999999999
 30
0.0
 10
8.7049800000000008
 20
18.383610000000001
 30
0.0
 10
8.7049800000000008
 20
18.383610000000001
 30
0.0
 10
8.5390599999999992
 20
18.827539999999999
 30
0.0
 10
8.3686699999999998
 20
19.213190000000001
 30
0.0
 10
8.17136
 20
19.562950000000001
 30
0.0
 10
8.17136
 20
19.562950000000001
 30
0.0
 10
7.9740599999999997
 20
19.912710000000001
 30
0.0
 10
7.7498500000000003
 20
20.226610000000001
 30
0.0
 10
7.5256400000000001
 20
20.540500000000002
 30
0.0
 10
7.5256400000000001
 20
20.540500000000002
 30
0.0
 10
7.7737699999999998
 20
20.21763
 30
0.0
 10
8.0218799999999995
 20
19.894770000000001
 30
0.0
 10
8.2550699999999999
 20
19.486719999999998
 30
0.0
 10
8.2550699999999999
 20
19.486719999999998
 30
0.0
 10
8.4882399999999993
 20
19.07865
 30
0.0
 10
8.7064699999999995
 20
18.5854
 30
0.0
 10
8.8753700000000002
 20
18.141480000000001
 30
0.0
 10
8.8753700000000002
 20
18.141480000000001
 30
0.0
 10
9.0442800000000005
 20
17.69754
 30
0.0
 10
9.1638599999999997
 20
17.30293
 30
0.0
 10
9.2579999999999991
 20
16.876950000000001
 30
0.0
 10
9.2579999999999991
 20
16.876950000000001
 30
0.0
 10
9.3521800000000006
 20
16.450939999999999
 30
0.0
 10
9.4209499999999995
 20
15.99356
 30
0.0
 10
9.46129
 20
15.576549999999999
 30
0.0
 10
9.46129
 20
15.576549999999999
 30
0.0
 10
9.5016700000000007
 20
15.159509999999999
 30
0.0
 10
9.5136199999999995
 20
14.78284
 30
0.0
 10
9.5016700000000007
 20
14.36431
 30
0.0
 10
9.5016700000000007
 20
14.36431
 30
0.0
 10
9.4896999999999991
 20
13.945790000000001
 30
0.0
 10
9.45383
 20
13.485429999999999
 30
0.0
 10
9.3865800000000004
 20
12.992179999999999
 30
0.0
 10
9.3865800000000004
 20
12.992179999999999
 30
0.0
 10
9.3193099999999998
 20
12.498900000000001
 30
0.0
 10
9.2206600000000005
 20
11.972770000000001
 30
0.0
 10
9.1025700000000001
 20
11.467549999999999
 30
0.0
 10
9.1025700000000001
 20
11.467549999999999
 30
0.0
 10
8.9844899999999992
 20
10.962339999999999
 30
0.0
 10
8.8469800000000003
 20
10.47805
 30
0.0
 10
8.6332400000000007
 20
9.8681999999999999
 30
0.0
 10
8.6332400000000007
 20
9.8681999999999999
 30
0.0
 10
8.4194800000000001
 20
9.2583599999999997
 30
0.0
 10
8.1295099999999998
 20
8.5229599999999994
 30
0.0
 10
7.8799000000000001
 20
7.94001
 30
0.0
 10
7.8799000000000001
 20
7.94001
 30
0.0
 10
7.6302700000000003
 20
7.3570799999999998
 30
0.0
 10
7.4210200000000004
 20
6.9266100000000002
 30
0.0
 10
7.2102700000000004
 20
6.5230300000000003
 30
0.0
 10
7.2102700000000004
 20
6.5230300000000003
 30
0.0
 10
6.9995000000000003
 20
6.1194499999999996
 30
0.0
 10
6.7872599999999998
 20
5.7427799999999998
 30
0.0
 10
6.5735200000000003
 20
5.39452
 30
0.0
 10
6.5735200000000003
 20
5.39452
 30
0.0
 10
6.3597599999999996
 20
5.0462400000000001
 30
0.0
 10
6.14452
 20
4.7263799999999998
 30
0.0
 10
5.9292899999999999
 20
4.4214599999999997
 30
0.0
 10
5.9292899999999999
 20
4.4214599999999997
 30
0.0
 10
5.7140500000000003
 20
4.11653
 30
0.0
 10
5.4988099999999998
 20
3.8265600000000002
 30
0.0
 10
5.2626299999999997
 20
3.5545200000000001
 30
0.0
 10
5.2626299999999997
 20
3.5545200000000001
 30
0.0
 10
5.0264699999999998
 20
3.28247
 30
0.0
 10
4.76938
 20
3.0283699999999998
 30
0.0
 10
4.5122799999999996
 20
2.77427
 30
0.0
  0
SPLINE
  5
56
100
AcDbEntity
  8
Default
100
AcDbSpline
210
0.0
220
0.0
230
1.0
 70
     1
 71
     3
 72
    40
 73
    36
 74
     0
 42
0.0000000001
 43
0.0000000001
 40
0.0
 40
0.0
 40
0.0
 40
0.0
 40
0.1111111111111111
 40
0.1111111111111111
 40
0.1111111111111111
 40
0.1111111111111111
 40
0.2222222222222222
 40
0.2222222222222222
 40
0.2222222222222222
 40
0.2222222222222222
 40
0.3333333333333333
 40
0.3333333333333333
 40
0.3333333333333333
 40
0.3333333333333333
 40
0.4444444444444444
 40
0.4444444444444444
 40
0.4444444444444444
 40
0.4444444444444444
 40
0.5555555555555556
 40
0.5555555555555556
 40
0.5555555555555556
 40
0.5555555555555556
 40
0.6666666666666667
 40
0.6666666666666667
 40
0.6666666666666667
 40
0.6666666666666667
 40
0.7777777777777779
 40
0.7777777777777779
 40
0.7777777777777779
 40
0.7777777777777779
 40
0.8888888888888891
 40
0.8888888888888891
 40
0.8888888888888891
 40
0.8888888888888891
 40
1.0
 40
1.0
 40
1.0
 40
1.0
 10
9.2206600000000005
 20
2.6038800000000002
 30
0.0
 10
9.4747500000000002
 20
2.8549899999999999
 30
0.0
 10
9.7288499999999996
 20
3.1061000000000001
 30
0.0
 10
10.04274
 20
3.3048999999999999
 30
0.0
 10
10.04274
 20
3.3048999999999999
 30
0.0
 10
10.356629999999999
 20
3.5036900000000002
 30
0.0
 10
10.730320000000001
 20
3.6501800000000002
 30
0.0
 10
11.07709
 20
3.72342
 30
0.0
 10
11.07709
 20
3.72342
 30
0.0
 10
11.423870000000001
 20
3.7966500000000001
 30
0.0
 10
11.743740000000001
 20
3.7966500000000001
 30
0.0
 10
12.053129999999999
 20
3.75482
 30
0.0
 10
12.053129999999999
 20
3.75482
 30
0.0
 10
12.362539999999999
 20
3.7129599999999998
 30
0.0
 10
12.661490000000001
 20
3.6292599999999999
 30
0.0
 10
12.960430000000001
 20
3.54555
 30
0.0
 10
12.960430000000001
 20
3.54555
 30
0.0
 10
12.640560000000001
 20
3.5963799999999999
 30
0.0
 10
12.320690000000001
 20
3.6471900000000002
 30
0.0
 10
12.023260000000001
 20
3.6621299999999999
 30
0.0
 10
12.023260000000001
 20
3.6621299999999999
 30
0.0
 10
11.72579
 20
3.6770800000000001
 30
0.0
 10
11.45077
 20
3.6561699999999999
 30
0.0
 10
11.20265
 20
3.6113200000000001
 30
0.0
 10
11.20265
 20
3.6113200000000001
 30
0.0
 10
10.95452
 20
3.5664699999999998
 30
0.0
 10
10.7333
 20
3.4977299999999998
 30
0.0
 10
10.50761
 20
3.39758
 30
0.0
 10
10.50761
 20
3.39758
 30
0.0
 10
10.2819
 20
3.2974299999999999
 30
0.0
 10
10.05172
 20
3.1658900000000001
 30
0.0
 10
9.8364799999999999
 20
3.0283699999999998
 30
0.0
 10
9.8364799999999999
 20
3.0283699999999998
 30
0.0
 10
9.6212400000000002
 20
2.89086
 30
0.0
 10
9.4209499999999995
 20
2.74736
 30
0.0
 10
9.2206600000000005
 20
2.6038800000000002
 30
0.0
  0
SPLINE
  5
57
100
AcDbEntity
  8
Default
100
AcDbSpline
210
0.0
220
0.0
230
1.0
 70
     1
 71
     3
 72
    40
 73
    36
 74
     0
 42
0.0000000001
 43
0.0000000001
 40
0.0
 40
0.0
 40
0.0
 40
0.0
 40
0.1111111111111111
 40
0.1111111111111111
 40
0.1111111111111111
 40
0.1111111111111111
 40
0.2222222222222222
 40
0.2222222222222222
 40
0.2222222222222222
 40
0.2222222222222222
 40
0.3333333333333333
 40
0.3333333333333333
 40
0.3333333333333333
 40
0.3333333333333333
 40
0.4444444444444444
 40
0.4444444444444444
 40
0.4444444444444444
 40
0.4444444444444444
 40
0.5555555555555556
 40
0.5555555555555556
 40
0.5555555555555556
 40
0.5555555555555556
 40
0.6666666666666667
 40
0.6666666666666667
 40
0.6666666666666667
 40
0.6666666666666667
 40
0.7777777777777779
 40
0.7777777777777779
 40
0.7777777777777779
 40
0.7777777777777779
 40
0.8888888888888891
 40
0.8888888888888891
 40
0.8888888888888891
 40
0.8888888888888891
 40
1.0
 40
1.0
 40
1.0
 40
1.0
 10
7.4269699999999998
 20
0.81021
 30
0.0
 10
7.7857000000000003
 20
0.99257
 30
0.0
 10
8.1444500000000009
 20
1.17493
 30
0.0
 10
8.5271100000000004
 20
1.3154399999999999
 30
0.0
 10
8.5271100000000004
 20
1.3154399999999999
 30
0.0
 10
8.9097399999999993
 20
1.45594
 30
0.0
 10
9.3163099999999996
 20
1.5545899999999999
 30
0.0
 10
9.7258600000000008
 20
1.58596
 30
0.0
 10
9.7258600000000008
 20
1.58596
 30
0.0
 10
10.135429999999999
 20
1.6173599999999999
 30
0.0
 10
10.54796
 20
1.5814900000000001
 30
0.0
 10
10.89922
 20
1.5007699999999999
 30
0.0
 10
10.89922
 20
1.5007699999999999
 30
0.0
 10
11.25047
 20
1.42005
 30
0.0
 10
11.540459999999999
 20
1.29451
 30
0.0
 10
11.83043
 20
1.1689499999999999
 30
0.0
 10
11.83043
 20
1.1689499999999999
 30
0.0
 10
11.48963
 20
1.26461
 30
0.0
 10
11.148849999999999
 20
1.3602700000000001
 30
0.0
 10
10.833460000000001
 20
1.4140900000000001
 30
0.0
 10
10.833460000000001
 20
1.4140900000000001
 30
0.0
 10
10.51806
 20
1.4678899999999999
 30
0.0
 10
10.22809
 20
1.47984
 30
0.0
 10
9.9321400000000004
 20
1.4634199999999999
 30
0.0
 10
9.9321400000000004
 20
1.4634199999999999
 30
0.0
 10
9.6361899999999991
 20
1.4469700000000001
 30
0.0
 10
9.3342500000000008
 20
1.40212
 30
0.0
 10
9.0382999999999996
 20
1.33487
 30
0.0
 10
9.0382999999999996
 20
1.33487
 30
0.0
 10
8.7423400000000004
 20
1.2676000000000001
 30
0.0
 10
8.4523700000000002
 20
1.1779200000000001
 30
0.0
 10
8.1848299999999998
 20
1.0867500000000001
 30
0.0
 10
8.1848299999999998
 20
1.0867500000000001
 30
0.0
 10
7.9172700000000003
 20
0.99556
 30
0.0
 10
7.67211
 20
0.90288
 30
0.0
 10
7.4269699999999998
 20
0.81021
 30
0.0
  0
SPLINE
  5
58
100
AcDbEntity
  8
Default
100
AcDbSpline
210
0.0
220
0.0
230
1.0
 70
     1
 71
     3
 72
    40
 73
    36
 74
     0
 42
0.0000000001
 43
0.0000000001
 40
0.0
 40
0.0
 40
0.0
 40
0.0
 40
0.1111111111111111
 40
0.1111111111111111
 40
0.1111111111111111
 40
0.1111111111111111
 40
0.2222222222222222
 40
0.2222222222222222
 40
0.2222222222222222
 40
0.2222222222222222
 40
0.3333333333333333
 40
0.3333333333333333
 40
0.3333333333333333
 40
0.3333333333333333
 40
0.4444444444444444
 40
0.4444444444444444
 40
0.4444444444444444
 40
0.4444444444444444
 40
0.5555555555555556
 40
0.5555555555555556
 40
0.5555555555555556
 40
0.5555555555555556
 40
0.6666666666666667
 40
0.6666666666666667
 40
0.6666666666666667
 40
0.6666666666666667
 40
0.7777777777777779
 40
0.7777777777777779
 40
0.7777777777777779
 40
0.7777777777777779
 40
0.8888888888888891
 40
0.8888888888888891
 40
0.8888888888888891
 40
0.8888888888888891
 40
1.0
 40
1.0
 40
1.0
 40
1.0
 10
-3.11076
 20
-6.0684699999999996
 30
0.0
 10
-2.9582999999999999
 20
-5.6888100000000001
 30
0.0
 10
-2.8058299999999998
 20
-5.3091499999999998
 30
0.0
 10
-2.62798
 20
-4.9847999999999999
 30
0.0
 10
-2.62798
 20
-4.9847999999999999
 30
0.0
 10
-2.4500899999999999
 20
-4.6604400000000004
 30
0.0
 10
-2.24682
 20
-4.3913900000000003
 30
0.0
 10
-2.0255999999999998
 20
-4.1627200000000002
 30
0.0
 10
-2.0255999999999998
 20
-4.1627200000000002
 30
0.0
 10
-1.8043800000000001
 20
-3.9340199999999999
 30
0.0
 10
-1.5652200000000001
 20
-3.7456700000000001
 30
0.0
 10
-1.2722599999999999
 20
-3.5708000000000002
 30
0.0
 10
-1.2722599999999999
 20
-3.5708000000000002
 30
0.0
 10
-0.9793
 20
-3.3959199999999998
 30
0.0
 10
-0.63252
 20
-3.23448
 30
0.0
 10
-0.28575
 20
-3.0730499999999998
 30
0.0
 10
-0.28575
 20
-3.0730499999999998
 30
0.0
 10
-0.56377
 20
-3.23448
 30
0.0
 10
-0.84179
 20
-3.3959199999999998
 30
0.0
 10
-1.0943700000000001
 20
-3.56182
 30
0.0
 10
-1.0943700000000001
 20
-3.56182
 30
0.0
 10
-1.3469899999999999
 20
-3.7277399999999998
 30
0.0
 10
-1.5742
 20
-3.8981300000000001
 30
0.0
 10
-1.78345
 20
-4.1029
 30
0.0
 10
-1.78345
 20
-4.1029
 30
0.0
 10
-1.9926999999999999
 20
-4.30769
 30
0.0
 10
-2.18404
 20
-4.5468500000000001
 30
0.0
 10
-2.3499400000000001
 20
-4.7800200000000004
 30
0.0
 10
-2.3499400000000001
 20
-4.7800200000000004
 30
0.0
 10
-2.51586
 20
-5.0131899999999998
 30
0.0
 10
-2.6563699999999999
 20
-5.2404000000000002
 30
0.0
 10
-2.77894
 20
-5.4541199999999996
 30
0.0
 10
-2.77894
 20
-5.4541199999999996
 30
0.0
 10
-2.90151
 20
-5.6678800000000003
 30
0.0
 10
-3.0061300000000002
 20
-5.8681799999999997
 30
0.0
 10
-3.11076
 20
-6.0684699999999996
 30
0.0
  0
SPLINE
  5
59
100
AcDbEntity
  8
Default
100
AcDbSpline
210
0.0
220
0.0
230
1.0
 70
     1
 71
     3
 72
    48
 73
    44
 74
     0
 42
0.0000000001
 43
0.0000000001
 40
0.0
 40
0.0
 40
0.0
 40
0.0
 40
0.0909090909090909
 40
0.0909090909090909
 40
0.0909090909090909
 40
0.0909090909090909
 40
0.1818181818181818
 40
0.1818181818181818
 40
0.1818181818181818
 40
0.1818181818181818
 40
0.2727272727272727
 40
0.2727272727272727
 40
0.2727272727272727
 40
0.2727272727272727
 40
0.3636363636363637
 40
0.3636363636363637
 40
0.3636363636363637
 40
0.3636363636363637
 40
0.4545454545454546
 40
0.4545454545454546
 40
0.4545454545454546
 40
0.4545454545454546
 40
0.5454545454545455
 40
0.5454545454545455
 40
0.5454545454545455
 40
0.5454545454545455
 40
0.6363636363636365
 40
0.6363636363636365
 40
0.6363636363636365
 40
0.6363636363636365
 40
0.7272727272727274
 40
0.7272727272727274
 40
0.7272727272727274
 40
0.7272727272727274
 40
0.8181818181818183
 40
0.8181818181818183
 40
0.8181818181818183
 40
0.8181818181818183
 40
0.9090909090909093
 40
0.9090909090909093
 40
0.9090909090909093
 40
0.9090909090909093
 40
1.0
 40
1.0
 40
1.0
 40
1.0
 10
-3.20045
 20
-8.2657000000000007
 30
0.0
 10
-3.0778799999999999
 20
-7.7335900000000004
 30
0.0
 10
-2.9553099999999999
 20
-7.2014699999999996
 30
0.0
 10
-2.78193
 20
-6.7082100000000002
 30
0.0
 10
-2.78193
 20
-6.7082100000000002
 30
0.0
 10
-2.60853
 20
-6.2149400000000004
 30
0.0
 10
-2.3843299999999998
 20
-5.7605500000000003
 30
0.0
 10
-2.1407099999999999
 20
-5.37791
 30
0.0
 10
-2.1407099999999999
 20
-5.37791
 30
0.0
 10
-1.8970499999999999
 20
-4.99526
 30
0.0
 10
-1.6339900000000001
 20
-4.6843599999999999
 30
0.0
 10
-1.36493
 20
-4.4138299999999999
 30
0.0
 10
-1.36493
 20
-4.4138299999999999
 30
0.0
 10
-1.09589
 20
-4.1432700000000002
 30
0.0
 10
-0.82086
 20
-3.91309
 30
0.0
 10
-0.48305
 20
-3.7068099999999999
 30
0.0
 10
-0.48305
 20
-3.7068099999999999
 30
0.0
 10
-0.14525
 20
-3.5005299999999999
 30
0.0
 10
0.25533
 20
-3.31819
 30
0.0
 10
0.65592
 20
-3.1358299999999999
 30
0.0
 10
0.65592
 20
-3.1358299999999999
 30
0.0
 10
0.37491
 20
-3.2882899999999999
 30
0.0
 10
0.0939
 20
-3.44075
 30
0.0
 10
-0.17214
 20
-3.6186199999999999
 30
0.0
 10
-0.17214
 20
-3.6186199999999999
 30
0.0
 10
-0.43821
 20
-3.7964899999999999
 30
0.0
 10
-0.68931
 20
-3.9997699999999998
 30
0.0
 10
-0.91652
 20
-4.2135100000000003
 30
0.0
 10
-0.91652
 20
-4.2135100000000003
 30
0.0
 10
-1.14371
 20
-4.42727
 30
0.0
 10
-1.3469899999999999
 20
-4.6514699999999998
 30
0.0
 10
-1.5502800000000001
 20
-4.9040699999999999
 30
0.0
 10
-1.5502800000000001
 20
-4.9040699999999999
 30
0.0
 10
-1.7535700000000001
 20
-5.1566900000000002
 30
0.0
 10
-1.9568300000000001
 20
-5.4377000000000004
 30
0.0
 10
-2.1511399999999998
 20
-5.7605500000000003
 30
0.0
 10
-2.1511399999999998
 20
-5.7605500000000003
 30
0.0
 10
-2.3454700000000002
 20
-6.0834099999999998
 30
0.0
 10
-2.5308099999999998
 20
-6.4481299999999999
 30
0.0
 10
-2.7042099999999998
 20
-6.8726200000000004
 30
0.0
 10
-2.7042099999999998
 20
-6.8726200000000004
 30
0.0
 10
-2.8775900000000001
 20
-7.2971300000000001
 30
0.0
 10
-3.0390199999999998
 20
-7.7814100000000002
 30
0.0
 10
-3.20045
 20
-8.2657000000000007
 30
0.0
  0
SPLINE
  5
5A
100
AcDbEntity
  8
Default
100
AcDbSpline
210
0.0
220
0.0
230
1.0
 70
     1
 71
     3
 72
    48
 73
    44
 74
     0
 42
0.0000000001
 43
0.0000000001
 40
0.0
 40
0.0
 40
0.0
 40
0.0
 40
0.0909090909090909
 40
0.0909090909090909
 40
0.0909090909090909
 40
0.0909090909090909
 40
0.1818181818181818
 40
0.1818181818181818
 40
0.1818181818181818
 40
0.1818181818181818
 40
0.2727272727272727
 40
0.2727272727272727
 40
0.2727272727272727
 40
0.2727272727272727
 40
0.3636363636363637
 40
0.3636363636363637
 40
0.3636363636363637
 40
0.3636363636363637
 40
0.4545454545454546
 40
0.4545454545454546
 40
0.4545454545454546
 40
0.4545454545454546
 40
0.5454545454545455
 40
0.5454545454545455
 40
0.5454545454545455
 40
0.5454545454545455
 40
0.6363636363636365
 40
0.6363636363636365
 40
0.6363636363636365
 40
0.6363636363636365
 40
0.7272727272727274
 40
0.7272727272727274
 40
0.7272727272727274
 40
0.7272727272727274
 40
0.8181818181818183
 40
0.8181818181818183
 40
0.8181818181818183
 40
0.8181818181818183
 40
0.9090909090909093
 40
0.9090909090909093
 40
0.9090909090909093
 40
0.9090909090909093
 40
1.0
 40
1.0
 40
1.0
 40
1.0
 10
-8.0612600000000008
 20
-12.07724
 30
0.0
 10
-7.67563
 20
-12.03538
 30
0.0
 10
-7.2899900000000004
 20
-11.99353
 30
0.0
 10
-6.9103300000000001
 20
-11.866490000000001
 30
0.0
 10
-6.9103300000000001
 20
-11.866490000000001
 30
0.0
 10
-6.5306800000000003
 20
-11.73943
 30
0.0
 10
-6.1569900000000004
 20
-11.52717
 30
0.0
 10
-5.8281599999999996
 20
-11.25962
 30
0.0
 10
-5.8281599999999996
 20
-11.25962
 30
0.0
 10
-5.4993299999999996
 20
-10.99206
 30
0.0
 10
-5.2153299999999998
 20
-10.66921
 30
0.0
 10
-4.9791600000000003
 20
-10.31944
 30
0.0
 10
-4.9791600000000003
 20
-10.31944
 30
0.0
 10
-4.7430000000000003
 20
-9.9696800000000003
 30
0.0
 10
-4.5546600000000002
 20
-9.5930099999999996
 30
0.0
 10
-4.3693200000000001
 20
-9.1834600000000002
 30
0.0
 10
-4.3693200000000001
 20
-9.1834600000000002
 30
0.0
 10
-4.1839700000000004
 20
-8.7738999999999994
 30
0.0
 10
-4.0016100000000003
 20
-8.3314800000000009
 30
0.0
 10
-3.8192499999999998
 20
-7.88903
 30
0.0
 10
-3.8192499999999998
 20
-7.88903
 30
0.0
 10
-3.98068
 20
-8.3344699999999996
 30
0.0
 10
-4.1421200000000002
 20
-8.7798800000000004
 30
0.0
 10
-4.3035500000000004
 20
-9.1744900000000005
 30
0.0
 10
-4.3035500000000004
 20
-9.1744900000000005
 30
0.0
 10
-4.4649799999999997
 20
-9.5690899999999992
 30
0.0
 10
-4.6264099999999999
 20
-9.9128799999999995
 30
0.0
 10
-4.78932
 20
-10.21482
 30
0.0
 10
-4.78932
 20
-10.21482
 30
0.0
 10
-4.9522500000000003
 20
-10.51674
 30
0.0
 10
-5.1166799999999997
 20
-10.776820000000001
 30
0.0
 10
-5.3124599999999997
 20
-11.002520000000001
 30
0.0
 10
-5.3124599999999997
 20
-11.002520000000001
 30
0.0
 10
-5.5082899999999997
 20
-11.22824
 30
0.0
 10
-5.7354900000000004
 20
-11.419560000000001
 30
0.0
 10
-5.9910699999999997
 20
-11.58099
 30
0.0
 10
-5.9910699999999997
 20
-11.58099
 30
0.0
 10
-6.2466799999999996
 20
-11.742419999999999
 30
0.0
 10
-6.5306800000000003
 20
-11.873950000000001
 30
0.0
 10
-6.8804400000000001
 20
-11.95168
 30
0.0
 10
-6.8804400000000001
 20
-11.95168
 30
0.0
 10
-7.2302
 20
-12.029400000000001
 30
0.0
 10
-7.6457300000000004
 20
-12.053319999999999
 30
0.0
 10
-8.0612600000000008
 20
-12.07724
 30
0.0
  0
SPLINE
  5
5B
100
AcDbEntity
  8
Default
100
AcDbSpline
210
0.0
220
0.0
230
1.0
 70
     1
 71
     3
 72
    56
 73
    52
 74
     0
 42
0.0000000001
 43
0.0000000001
 40
0.0
 40
0.0
 40
0.0
 40
0.0
 40
0.0769230769230769
 40
0.0769230769230769
 40
0.0769230769230769
 40
0.0769230769230769
 40
0.1538461538461539
 40
0.1538461538461539
 40
0.1538461538461539
 40
0.1538461538461539
 40
0.2307692307692308
 40
0.2307692307692308
 40
0.2307692307692308
 40
0.2307692307692308
 40
0.3076923076923077
 40
0.3076923076923077
 40
0.3076923076923077
 40
0.3076923076923077
 40
0.3846153846153846
 40
0.3846153846153846
 40
0.3846153846153846
 40
0.3846153846153846
 40
0.4615384615384616
 40
0.4615384615384616
 40
0.4615384615384616
 40
0.4615384615384616
 40
0.5384615384615386
 40
0.5384615384615386
 40
0.5384615384615386
 40
0.5384615384615386
 40
0.6153846153846154
 40
0.6153846153846154
 40
0.6153846153846154
 40
0.6153846153846154
 40
0.6923076923076923
 40
0.6923076923076923
 40
0.6923076923076923
 40
0.6923076923076923
 40
0.7692307692307692
 40
0.7692307692307692
 40
0.7692307692307692
 40
0.7692307692307692
 40
0.846153846153846
 40
0.846153846153846
 40
0.846153846153846
 40
0.846153846153846
 40
0.9230769230769229
 40
0.9230769230769229
 40
0.9230769230769229
 40
0.9230769230769229
 40
1.0
 40
1.0
 40
1.0
 40
1.0
 10
-8.9850100000000008
 20
-14.18478
 30
0.0
 10
-8.6023599999999991
 20
-14.166840000000001
 30
0.0
 10
-8.2196999999999996
 20
-14.148910000000001
 30
0.0
 10
-7.8400400000000001
 20
-14.065200000000001
 30
0.0
 10
-7.8400400000000001
 20
-14.065200000000001
 30
0.0
 10
-7.4603999999999999
 20
-13.98151
 30
0.0
 10
-7.0837300000000001
 20
-13.83203
 30
0.0
 10
-6.7085600000000003
 20
-13.591390000000001
 30
0.0
 10
-6.7085600000000003
 20
-13.591390000000001
 30
0.0
 10
-6.3333700000000004
 20
-13.35073
 30
0.0
 10
-5.9596900000000002
 20
-13.0189
 30
0.0
 10
-5.5964799999999997
 20
-12.56602
 30
0.0
 10
-5.5964799999999997
 20
-12.56602
 30
0.0
 10
-5.2332599999999996
 20
-12.113110000000001
 30
0.0
 10
-4.8805100000000001
 20
-11.53914
 30
0.0
 10
-4.6039899999999996
 20
-11.02496
 30
0.0
 10
-4.6039899999999996
 20
-11.02496
 30
0.0
 10
-4.3274699999999999
 20
-10.510770000000001
 30
0.0
 10
-4.1271699999999996
 20
-10.056380000000001
 30
0.0
 10
-3.9552900000000002
 20
-9.61693
 30
0.0
 10
-3.9552900000000002
 20
-9.61693
 30
0.0
 10
-3.7833800000000002
 20
-9.1774799999999992
 30
0.0
 10
-3.6398899999999998
 20
-8.7529699999999995
 30
0.0
 10
-3.49641
 20
-8.3284800000000008
 30
0.0
 10
-3.49641
 20
-8.3284800000000008
 30
0.0
 10
-3.67577
 20
-8.9203899999999994
 30
0.0
 10
-3.85514
 20
-9.5122999999999998
 30
0.0
 10
-4.0643900000000004
 20
-10.10271
 30
0.0
 10
-4.0643900000000004
 20
-10.10271
 30
0.0
 10
-4.2736499999999999
 20
-10.69313
 30
0.0
 10
-4.5128000000000004
 20
-11.28205
 30
0.0
 10
-4.7175700000000003
 20
-11.70205
 30
0.0
 10
-4.7175700000000003
 20
-11.70205
 30
0.0
 10
-4.9223699999999999
 20
-12.122070000000001
 30
0.0
 10
-5.0927600000000002
 20
-12.373189999999999
 30
0.0
 10
-5.3064999999999998
 20
-12.62729
 30
0.0
 10
-5.3064999999999998
 20
-12.62729
 30
0.0
 10
-5.5202400000000003
 20
-12.88139
 30
0.0
 10
-5.7773500000000002
 20
-13.138479999999999
 30
0.0
 10
-6.0434000000000001
 20
-13.344760000000001
 30
0.0
 10
-6.0434000000000001
 20
-13.344760000000001
 30
0.0
 10
-6.3094599999999996
 20
-13.551019999999999
 30
0.0
 10
-6.5844899999999997
 20
-13.706469999999999
 30
0.0
 10
-6.87446
 20
-13.836499999999999
 30
0.0
 10
-6.87446
 20
-13.836499999999999
 30
0.0
 10
-7.1644399999999999
 20
-13.96655
 30
0.0
 10
-7.46936
 20
-14.07119
 30
0.0
 10
-7.8235999999999999
 20
-14.12499
 30
0.0
 10
-7.8235999999999999
 20
-14.12499
 30
0.0
 10
-8.1778499999999994
 20
-14.17881
 30
0.0
 10
-8.5814299999999992
 20
-14.181800000000001
 30
0.0
 10
-8.9850100000000008
 20
-14.18478
 30
0.0
  0
SPLINE
  5
5C
100
AcDbEntity
  8
Default
100
AcDbSpline
210
0.0
220
0.0
230
1.0
 70
     1
 71
     3
 72
   100
 73
    96
 74
     0
 42
0.0000000001
 43
0.0000000001
 40
0.0
 40
0.0
 40
0.0
 40
0.0
 40
0.0416666666666667
 40
0.0416666666666667
 40
0.0416666666666667
 40
0.0416666666666667
 40
0.0833333333333333
 40
0.0833333333333333
 40
0.0833333333333333
 40
0.0833333333333333
 40
0.125
 40
0.125
 40
0.125
 40
0.125
 40
0.1666666666666667
 40
0.1666666666666667
 40
0.1666666666666667
 40
0.1666666666666667
 40
0.2083333333333333
 40
0.2083333333333333
 40
0.2083333333333333
 40
0.2083333333333333
 40
0.25
 40
0.25
 40
0.25
 40
0.25
 40
0.2916666666666666
 40
0.2916666666666666
 40
0.2916666666666666
 40
0.2916666666666666
 40
0.3333333333333333
 40
0.3333333333333333
 40
0.3333333333333333
 40
0.3333333333333333
 40
0.375
 40
0.375
 40
0.375
 40
0.375
 40
0.4166666666666667
 40
0.4166666666666667
 40
0.4166666666666667
 40
0.4166666666666667
 40
0.4583333333333334
 40
0.4583333333333334
 40
0.4583333333333334
 40
0.4583333333333334
 40
0.5
 40
0.5
 40
0.5
 40
0.5
 40
0.5416666666666666
 40
0.5416666666666666
 40
0.5416666666666666
 40
0.5416666666666666
 40
0.5833333333333333
 40
0.5833333333333333
 40
0.5833333333333333
 40
0.5833333333333333
 40
0.6249999999999999
 40
0.6249999999999999
 40
0.6249999999999999
 40
0.6249999999999999
 40
0.6666666666666665
 40
0.6666666666666665
 40
0.6666666666666665
 40
0.6666666666666665
 40
0.7083333333333332
 40
0.7083333333333332
 40
0.7083333333333332
 40
0.7083333333333332
 40
0.7499999999999998
 40
0.7499999999999998
 40
0.7499999999999998
 40
0.7499999999999998
 40
0.7916666666666664
 40
0.7916666666666664
 40
0.7916666666666664
 40
0.7916666666666664
 40
0.833333333333333
 40
0.833333333333333
 40
0.833333333333333
 40
0.833333333333333
 40
0.8749999999999997
 40
0.8749999999999997
 40
0.8749999999999997
 40
0.8749999999999997
 40
0.9166666666666663
 40
0.9166666666666663
 40
0.9166666666666663
 40
0.9166666666666663
 40
0.9583333333333329
 40
0.9583333333333329
 40
0.9583333333333329
 40
0.9583333333333329
 40
1.0
 40
1.0
 40
1.0
 40
1.0
 10
-13.02074
 20
-11.449450000000001
 30
0.0
 10
-13.089510000000001
 20
-11.718500000000001
 30
0.0
 10
-13.158250000000001
 20
-11.987550000000001
 30
0.0
 10
-13.16723
 20
-12.282
 30
0.0
 10
-13.16723
 20
-12.282
 30
0.0
 10
-13.17619
 20
-12.57648
 30
0.0
 10
-13.12538
 20
-12.896330000000001
 30
0.0
 10
-12.98339
 20
-13.23564
 30
0.0
 10
-12.98339
 20
-13.23564
 30
0.0
 10
-12.84137
 20
-13.57494
 30
0.0
 10
-12.6082
 20
-13.933669999999999
 30
0.0
 10
-12.30626
 20
-14.25055
 30
0.0
 10
-12.30626
 20
-14.25055
 30
0.0
 10
-12.00433
 20
-14.56743
 30
0.0
 10
-11.63364
 20
-14.842460000000001
 30
0.0
 10
-11.2525
 20
-15.069660000000001
 30
0.0
 10
-11.2525
 20
-15.069660000000001
 30
0.0
 10
-10.87135
 20
-15.296849999999999
 30
0.0
 10
-10.47972
 20
-15.47622
 30
0.0
 10
-10.050739999999999
 20
-15.60027
 30
0.0
 10
-10.050739999999999
 20
-15.60027
 30
0.0
 10
-9.6217600000000001
 20
-15.724349999999999
 30
0.0
 10
-9.1554000000000002
 20
-15.793100000000001
 30
0.0
 10
-8.6576699999999995
 20
-15.730320000000001
 30
0.0
 10
-8.6576699999999995
 20
-15.730320000000001
 30
0.0
 10
-8.15991
 20
-15.66755
 30
0.0
 10
-7.6307900000000002
 20
-15.473229999999999
 30
0.0
 10
-7.1435199999999996
 20
-15.17131
 30
0.0
 10
-7.1435199999999996
 20
-15.17131
 30
0.0
 10
-6.6562299999999999
 20
-14.86937
 30
0.0
 10
-6.2108100000000004
 20
-14.459809999999999
 30
0.0
 10
-5.8102200000000002
 20
-14.015879999999999
 30
0.0
 10
-5.8102200000000002
 20
-14.015879999999999
 30
0.0
 10
-5.4096399999999996
 20
-13.571949999999999
 30
0.0
 10
-5.05389
 20
-13.093629999999999
 30
0.0
 10
-4.7609300000000001
 20
-12.62879
 30
0.0
 10
-4.7609300000000001
 20
-12.62879
 30
0.0
 10
-4.4679700000000002
 20
-12.163919999999999
 30
0.0
 10
-4.2377799999999999
 20
-11.71252
 30
0.0
 10
-4.0524399999999998
 20
-11.27159
 30
0.0
 10
-4.0524399999999998
 20
-11.27159
 30
0.0
 10
-3.8670900000000001
 20
-10.83065
 30
0.0
 10
-3.7265899999999998
 20
-10.40015
 30
0.0
 10
-3.5860799999999999
 20
-9.9696800000000003
 30
0.0
 10
-3.5860799999999999
 20
-9.9696800000000003
 30
0.0
 10
-3.6937099999999998
 20
-10.364280000000001
 30
0.0
 10
-3.80132
 20
-10.758889999999999
 30
0.0
 10
-3.9552700000000001
 20
-11.17741
 30
0.0
 10
-3.9552700000000001
 20
-11.17741
 30
0.0
 10
-4.1092399999999998
 20
-11.595929999999999
 30
0.0
 10
-4.3095299999999996
 20
-12.03838
 30
0.0
 10
-4.5053200000000002
 20
-12.41804
 30
0.0
 10
-4.5053200000000002
 20
-12.41804
 30
0.0
 10
-4.7011399999999997
 20
-12.79768
 30
0.0
 10
-4.8924599999999998
 20
-13.114560000000001
 30
0.0
 10
-5.1241399999999997
 20
-13.42995
 30
0.0
 10
-5.1241399999999997
 20
-13.42995
 30
0.0
 10
-5.3558300000000001
 20
-13.74535
 30
0.0
 10
-5.6278699999999997
 20
-14.059229999999999
 30
0.0
 10
-5.9312800000000001
 20
-14.36863
 30
0.0
 10
-5.9312800000000001
 20
-14.36863
 30
0.0
 10
-6.2347099999999998
 20
-14.67803
 30
0.0
 10
-6.5695499999999996
 20
-14.98296
 30
0.0
 10
-6.8849099999999996
 20
-15.214639999999999
 30
0.0
 10
-6.8849099999999996
 20
-15.214639999999999
 30
0.0
 10
-7.20031
 20
-15.44633
 30
0.0
 10
-7.49627
 20
-15.60477
 30
0.0
 10
-7.8116300000000001
 20
-15.724349999999999
 30
0.0
 10
-7.8116300000000001
 20
-15.724349999999999
 30
0.0
 10
-8.1270399999999992
 20
-15.84393
 30
0.0
 10
-8.4618500000000001
 20
-15.92464
 30
0.0
 10
-8.8803699999999992
 20
-15.918659999999999
 30
0.0
 10
-8.8803699999999992
 20
-15.918659999999999
 30
0.0
 10
-9.2988999999999997
 20
-15.91268
 30
0.0
 10
-9.8011300000000006
 20
-15.82001
 30
0.0
 10
-10.27793
 20
-15.65259
 30
0.0
 10
-10.27793
 20
-15.65259
 30
0.0
 10
-10.75474
 20
-15.485189999999999
 30
0.0
 10
-11.206160000000001
 20
-15.24305
 30
0.0
 10
-11.600759999999999
 20
-14.96503
 30
0.0
 10
-11.600759999999999
 20
-14.96503
 30
0.0
 10
-11.995369999999999
 20
-14.687010000000001
 30
0.0
 10
-12.33318
 20
-14.37312
 30
0.0
 10
-12.591749999999999
 20
-14.044269999999999
 30
0.0
 10
-12.591749999999999
 20
-14.044269999999999
 30
0.0
 10
-12.850350000000001
 20
-13.715439999999999
 30
0.0
 10
-13.029719999999999
 20
-13.371650000000001
 30
0.0
 10
-13.12538
 20
-13.06076
 30
0.0
 10
-13.12538
 20
-13.06076
 30
0.0
 10
-13.221030000000001
 20
-12.74986
 30
0.0
 10
-13.232989999999999
 20
-12.47184
 30
0.0
 10
-13.20162
 20
-12.208769999999999
 30
0.0
 10
-13.20162
 20
-12.208769999999999
 30
0.0
 10
-13.17022
 20
-11.945690000000001
 30
0.0
 10
-13.095470000000001
 20
-11.69758
 30
0.0
 10
-13.02074
 20
-11.449450000000001
 30
0.0
  0
SPLINE
  5
5D
100
AcDbEntity
  8
Default
100
AcDbSpline
210
0.0
220
0.0
230
1.0
 70
     1
 71
     3
 72
   100
 73
    96
 74
     0
 42
0.0000000001
 43
0.0000000001
 40
0.0
 40
0.0
 40
0.0
 40
0.0
 40
0.0416666666666667
 40
0.0416666666666667
 40
0.0416666666666667
 40
0.0416666666666667
 40
0.0833333333333333
 40
0.0833333333333333
 40
0.0833333333333333
 40
0.0833333333333333
 40
0.125
 40
0.125
 40
0.125
 40
0.125
 40
0.1666666666666667
 40
0.1666666666666667
 40
0.1666666666666667
 40
0.1666666666666667
 40
0.2083333333333333
 40
0.2083333333333333
 40
0.2083333333333333
 40
0.2083333333333333
 40
0.25
 40
0.25
 40
0.25
 40
0.25
 40
0.2916666666666666
 40
0.2916666666666666
 40
0.2916666666666666
 40
0.2916666666666666
 40
0.3333333333333333
 40
0.3333333333333333
 40
0.3333333333333333
 40
0.3333333333333333
 40
0.375
 40
0.375
 40
0.375
 40
0.375
 40
0.4166666666666667
 40
0.4166666666666667
 40
0.4166666666666667
 40
0.4166666666666667
 40
0.4583333333333334
 40
0.4583333333333334
 40
0.4583333333333334
 40
0.4583333333333334
 40
0.5
 40
0.5
 40
0.5
 40
0.5
 40
0.5416666666666666
 40
0.5416666666666666
 40
0.5416666666666666
 40
0.5416666666666666
 40
0.5833333333333333
 40
0.5833333333333333
 40
0.5833333333333333
 40
0.5833333333333333
 40
0.6249999999999999
 40
0.6249999999999999
 40
0.6249999999999999
 40
0.6249999999999999
 40
0.6666666666666665
 40
0.6666666666666665
 40
0.6666666666666665
 40
0.6666666666666665
 40
0.7083333333333332
 40
0.7083333333333332
 40
0.7083333333333332
 40
0.7083333333333332
 40
0.7499999999999998
 40
0.7499999999999998
 40
0.7499999999999998
 40
0.7499999999999998
 40
0.7916666666666664
 40
0.7916666666666664
 40
0.7916666666666664
 40
0.7916666666666664
 40
0.833333333333333
 40
0.833333333333333
 40
0.833333333333333
 40
0.833333333333333
 40
0.8749999999999997
 40
0.8749999999999997
 40
0.8749999999999997
 40
0.8749999999999997
 40
0.9166666666666663
 40
0.9166666666666663
 40
0.9166666666666663
 40
0.9166666666666663
 40
0.9583333333333329
 40
0.9583333333333329
 40
0.9583333333333329
 40
0.9583333333333329
 40
1.0
 40
1.0
 40
1.0
 40
1.0
 10
-6.5635599999999998
 20
-15.359629999999999
 30
0.0
 10
-6.0254599999999998
 20
-14.863390000000001
 30
0.0
 10
-5.4873599999999998
 20
-14.367139999999999
 30
0.0
 10
-5.0479099999999999
 20
-13.861929999999999
 30
0.0
 10
-5.0479099999999999
 20
-13.861929999999999
 30
0.0
 10
-4.60846
 20
-13.35671
 30
0.0
 10
-4.2676800000000004
 20
-12.84253
 30
0.0
 10
-3.9657399999999998
 20
-12.226699999999999
 30
0.0
 10
-3.9657399999999998
 20
-12.226699999999999
 30
0.0
 10
-3.6638000000000002
 20
-11.61088
 30
0.0
 10
-3.4007299999999998
 20
-10.893409999999999
 30
0.0
 10
-3.1585999999999999
 20
-10.11617
 30
0.0
 10
-3.1585999999999999
 20
-10.11617
 30
0.0
 10
-2.9164500000000002
 20
-9.3389100000000003
 30
0.0
 10
-2.69523
 20
-8.5018700000000003
 30
0.0
 10
-2.4082499999999998
 20
-7.7036800000000003
 30
0.0
 10
-2.4082499999999998
 20
-7.7036800000000003
 30
0.0
 10
-2.1212599999999999
 20
-6.9055200000000001
 30
0.0
 10
-1.76851
 20
-6.1461899999999998
 30
0.0
 10
-1.30653
 20
-5.4718400000000003
 30
0.0
 10
-1.30653
 20
-5.4718400000000003
 30
0.0
 10
-0.84454
 20
-4.7974600000000001
 30
0.0
 10
-0.27332
 20
-4.2080200000000003
 30
0.0
 10
0.28268
 20
-3.7177799999999999
 30
0.0
 10
0.28268
 20
-3.7177799999999999
 30
0.0
 10
0.83872
 20
-3.2275100000000001
 30
0.0
 10
1.37961
 20
-2.8363800000000001
 30
0.0
 10
1.9041300000000001
 20
-2.5242399999999998
 30
0.0
 10
1.9041300000000001
 20
-2.5242399999999998
 30
0.0
 10
2.4286500000000002
 20
-2.2120899999999999
 30
0.0
 10
2.9368599999999998
 20
-1.97892
 30
0.0
 10
3.4211399999999998
 20
-1.8085199999999999
 30
0.0
 10
3.4211399999999998
 20
-1.8085199999999999
 30
0.0
 10
3.90544
 20
-1.63812
 30
0.0
 10
4.3658099999999997
 20
-1.53051
 30
0.0
 10
4.85907
 20
-1.47072
 30
0.0
 10
4.85907
 20
-1.47072
 30
0.0
 10
5.3523199999999997
 20
-1.41093
 30
0.0
 10
5.8784599999999996
 20
-1.39896
 30
0.0
 10
6.3209
 20
-1.44381
 30
0.0
 10
6.3209
 20
-1.44381
 30
0.0
 10
6.7633400000000004
 20
-1.48865
 30
0.0
 10
7.1220699999999999
 20
-1.5903
 30
0.0
 10
7.4479100000000003
 20
-1.7367699999999999
 30
0.0
 10
7.4479100000000003
 20
-1.7367699999999999
 30
0.0
 10
7.7737699999999998
 20
-1.8832599999999999
 30
0.0
 10
8.0667299999999997
 20
-2.07457
 30
0.0
 10
8.3596900000000005
 20
-2.2659099999999999
 30
0.0
 10
8.3596900000000005
 20
-2.2659099999999999
 30
0.0
 10
7.9471499999999997
 20
-2.0626199999999999
 30
0.0
 10
7.5346099999999998
 20
-1.85934
 30
0.0
 10
7.0981500000000004
 20
-1.7367699999999999
 30
0.0
 10
7.0981500000000004
 20
-1.7367699999999999
 30
0.0
 10
6.6616999999999997
 20
-1.6142099999999999
 30
0.0
 10
6.2013199999999999
 20
-1.57236
 30
0.0
 10
5.7319800000000001
 20
-1.5843100000000001
 30
0.0
 10
5.7319800000000001
 20
-1.5843100000000001
 30
0.0
 10
5.2626299999999997
 20
-1.59626
 30
0.0
 10
4.7843400000000003
 20
-1.66204
 30
0.0
 10
4.2671599999999996
 20
-1.80254
 30
0.0
 10
4.2671599999999996
 20
-1.80254
 30
0.0
 10
3.7499899999999999
 20
-1.9430499999999999
 30
0.0
 10
3.1939500000000001
 20
-2.15828
 30
0.0
 10
2.7156400000000001
 20
-2.4034200000000001
 30
0.0
 10
2.7156400000000001
 20
-2.4034200000000001
 30
0.0
 10
2.23733
 20
-2.6485500000000002
 30
0.0
 10
1.83674
 20
-2.9235899999999999
 30
0.0
 10
1.4062699999999999
 20
-3.2852999999999999
 30
0.0
 10
1.4062699999999999
 20
-3.2852999999999999
 30
0.0
 10
0.9757900000000001
 20
-3.6470199999999999
 30
0.0
 10
0.51541
 20
-4.0954300000000003
 30
0.0
 10
0.10886
 20
-4.56778
 30
0.0
 10
0.10886
 20
-4.56778
 30
0.0
 10
-0.2977
 20
-5.0401100000000003
 30
0.0
 10
-0.65045
 20
-5.5363499999999997
 30
0.0
 10
-0.97631
 20
-6.0864000000000003
 30
0.0
 10
-0.97631
 20
-6.0864000000000003
 30
0.0
 10
-1.3021499999999999
 20
-6.6364599999999996
 30
0.0
 10
-1.6010899999999999
 20
-7.2403300000000002
 30
0.0
 10
-1.9090100000000001
 20
-7.9458299999999999
 30
0.0
 10
-1.9090100000000001
 20
-7.9458299999999999
 30
0.0
 10
-2.21692
 20
-8.6513500000000008
 30
0.0
 10
-2.5337999999999998
 20
-9.4584899999999994
 30
0.0
 10
-2.8327399999999998
 20
-10.211830000000001
 30
0.0
 10
-2.8327399999999998
 20
-10.211830000000001
 30
0.0
 10
-3.1316899999999999
 20
-10.965170000000001
 30
0.0
 10
-3.4127000000000001
 20
-11.6647
 30
0.0
 10
-3.7116400000000001
 20
-12.238670000000001
 30
0.0
 10
-3.7116400000000001
 20
-12.238670000000001
 30
0.0
 10
-4.0105899999999997
 20
-12.81264
 30
0.0
 10
-4.3274699999999999
 20
-13.261049999999999
 30
0.0
 10
-4.8057800000000004
 20
-13.760289999999999
 30
0.0
 10
-4.8057800000000004
 20
-13.760289999999999
 30
0.0
 10
-5.2840699999999998
 20
-14.25953
 30
0.0
 10
-5.9238200000000001
 20
-14.80958
 30
0.0
 10
-6.5635599999999998
 20
-15.359629999999999
 30
0.0
  0
SPLINE
  5
5E
100
AcDbEntity
  8
Default
100
AcDbSpline
210
0.0
220
0.0
230
1.0
 70
     1
 71
     3
 72
   116
 73
   112
 74
     0
 42
0.0000000001
 43
0.0000000001
 40
0.0
 40
0.0
 40
0.0
 40
0.0
 40
0.0357142857142857
 40
0.0357142857142857
 40
0.0357142857142857
 40
0.0357142857142857
 40
0.0714285714285714
 40
0.0714285714285714
 40
0.0714285714285714
 40
0.0714285714285714
 40
0.1071428571428571
 40
0.1071428571428571
 40
0.1071428571428571
 40
0.1071428571428571
 40
0.1428571428571429
 40
0.1428571428571429
 40
0.1428571428571429
 40
0.1428571428571429
 40
0.1785714285714286
 40
0.1785714285714286
 40
0.1785714285714286
 40
0.1785714285714286
 40
0.2142857142857143
 40
0.2142857142857143
 40
0.2142857142857143
 40
0.2142857142857143
 40
0.2499999999999999
 40
0.2499999999999999
 40
0.2499999999999999
 40
0.2499999999999999
 40
0.2857142857142856
 40
0.2857142857142856
 40
0.2857142857142856
 40
0.2857142857142856
 40
0.3214285714285713
 40
0.3214285714285713
 40
0.3214285714285713
 40
0.3214285714285713
 40
0.357142857142857
 40
0.357142857142857
 40
0.357142857142857
 40
0.357142857142857
 40
0.3928571428571427
 40
0.3928571428571427
 40
0.3928571428571427
 40
0.3928571428571427
 40
0.4285714285714284
 40
0.4285714285714284
 40
0.4285714285714284
 40
0.4285714285714284
 40
0.4642857142857141
 40
0.4642857142857141
 40
0.4642857142857141
 40
0.4642857142857141
 40
0.4999999999999998
 40
0.4999999999999998
 40
0.4999999999999998
 40
0.4999999999999998
 40
0.5357142857142856
 40
0.5357142857142856
 40
0.5357142857142856
 40
0.5357142857142856
 40
0.5714285714285713
 40
0.5714285714285713
 40
0.5714285714285713
 40
0.5714285714285713
 40
0.607142857142857
 40
0.607142857142857
 40
0.607142857142857
 40
0.607142857142857
 40
0.6428571428571427
 40
0.6428571428571427
 40
0.6428571428571427
 40
0.6428571428571427
 40
0.6785714285714284
 40
0.6785714285714284
 40
0.6785714285714284
 40
0.6785714285714284
 40
0.7142857142857141
 40
0.7142857142857141
 40
0.7142857142857141
 40
0.7142857142857141
 40
0.7499999999999998
 40
0.7499999999999998
 40
0.7499999999999998
 40
0.7499999999999998
 40
0.7857142857142855
 40
0.7857142857142855
 40
0.7857142857142855
 40
0.7857142857142855
 40
0.8214285714285712
 40
0.8214285714285712
 40
0.8214285714285712
 40
0.8214285714285712
 40
0.8571428571428569
 40
0.8571428571428569
 40
0.8571428571428569
 40
0.8571428571428569
 40
0.8928571428571426
 40
0.8928571428571426
 40
0.8928571428571426
 40
0.8928571428571426
 40
0.9285714285714283
 40
0.9285714285714283
 40
0.9285714285714283
 40
0.9285714285714283
 40
0.964285714285714
 40
0.964285714285714
 40
0.964285714285714
 40
0.964285714285714
 40
1.0
 40
1.0
 40
1.0
 40
1.0
 10
-14.886150000000001
 20
-11.19834
 30
0.0
 10
-14.814410000000001
 20
-11.82611
 30
0.0
 10
-14.742649999999999
 20
-12.45391
 30
0.0
 10
-14.495340000000001
 20
-13.101419999999999
 30
0.0
 10
-14.495340000000001
 20
-13.101419999999999
 30
0.0
 10
-14.247999999999999
 20
-13.748950000000001
 30
0.0
 10
-13.825060000000001
 20
-14.416219999999999
 30
0.0
 10
-13.282299999999999
 20
-15.00817
 30
0.0
 10
-13.282299999999999
 20
-15.00817
 30
0.0
 10
-12.73954
 20
-15.600149999999999
 30
0.0
 10
-12.076879999999999
 20
-16.116810000000001
 30
0.0
 10
-11.34371
 20
-16.521570000000001
 30
0.0
 10
-11.34371
 20
-16.521570000000001
 30
0.0
 10
-10.6105
 20
-16.92632
 30
0.0
 10
-9.8066999999999993
 20
-17.219180000000001
 30
0.0
 10
-9.04908
 20
-17.323740000000001
 30
0.0
 10
-9.04908
 20
-17.323740000000001
 30
0.0
 10
-8.2914600000000007
 20
-17.428329999999999
 30
0.0
 10
-7.5799799999999999
 20
-17.344619999999999
 30
0.0
 10
-6.8385899999999999
 20
-17.093509999999998
 30
0.0
 10
-6.8385899999999999
 20
-17.093509999999998
 30
0.0
 10
-6.0972
 20
-16.842390000000002
 30
0.0
 10
-5.3259299999999996
 20
-16.423870000000001
 30
0.0
 10
-4.5905300000000002
 20
-15.85289
 30
0.0
 10
-4.5905300000000002
 20
-15.85289
 30
0.0
 10
-3.85514
 20
-15.28191
 30
0.0
 10
-3.1556099999999998
 20
-14.55847
 30
0.0
 10
-2.5935899999999998
 20
-13.760289999999999
 30
0.0
 10
-2.5935899999999998
 20
-13.760289999999999
 30
0.0
 10
-2.0315799999999999
 20
-12.962109999999999
 30
0.0
 10
-1.6070800000000001
 20
-12.08919
 30
0.0
 10
-1.25732
 20
-11.17442
 30
0.0
 10
-1.25732
 20
-11.17442
 30
0.0
 10
-0.90754
 20
-10.259650000000001
 30
0.0
 10
-0.63252
 20
-9.3030399999999993
 30
0.0
 10
-0.36048
 20
-8.5706299999999995
 30
0.0
 10
-0.36048
 20
-8.5706299999999995
 30
0.0
 10
-0.08845
 20
-7.8382199999999997
 30
0.0
 10
0.1806
 20
-7.3300099999999997
 30
0.0
 10
0.51541
 20
-6.8247999999999998
 30
0.0
 10
0.51541
 20
-6.8247999999999998
 30
0.0
 10
0.85023
 20
-6.3195800000000002
 30
0.0
 10
1.25082
 20
-5.8173599999999999
 30
0.0
 10
1.6753100000000001
 20
-5.4048100000000003
 30
0.0
 10
1.6753100000000001
 20
-5.4048100000000003
 30
0.0
 10
2.0998100000000002
 20
-4.9922700000000004
 30
0.0
 10
2.5482200000000002
 20
-4.6694000000000004
 30
0.0
 10
2.9966499999999998
 20
-4.3465600000000002
 30
0.0
 10
2.9966499999999998
 20
-4.3465600000000002
 30
0.0
 10
2.56019
 20
-4.7411599999999998
 30
0.0
 10
2.1237300000000001
 20
-5.1357600000000003
 30
0.0
 10
1.7799400000000001
 20
-5.5184199999999999
 30
0.0
 10
1.7799400000000001
 20
-5.5184199999999999
 30
0.0
 10
1.4361699999999999
 20
-5.9010499999999997
 30
0.0
 10
1.1850400000000001
 20
-6.2717599999999996
 30
0.0
 10
0.96382
 20
-6.66038
 30
0.0
 10
0.96382
 20
-6.66038
 30
0.0
 10
0.74262
 20
-7.0490000000000004
 30
0.0
 10
0.55128
 20
-7.4555699999999998
 30
0.0
 10
0.36595
 20
-7.9996400000000003
 30
0.0
 10
0.36595
 20
-7.9996400000000003
 30
0.0
 10
0.1806
 20
-8.5437200000000004
 30
0.0
 10
0.00123
 20
-9.22532
 30
0.0
 10
-0.23193
 20
-9.9906100000000002
 30
0.0
 10
-0.23193
 20
-9.9906100000000002
 30
0.0
 10
-0.46512
 20
-10.7559
 30
0.0
 10
-0.7521
 20
-11.60491
 30
0.0
 10
-1.04206
 20
-12.268560000000001
 30
0.0
 10
-1.04206
 20
-12.268560000000001
 30
0.0
 10
-1.33205
 20
-12.932219999999999
 30
0.0
 10
-1.6250100000000001
 20
-13.41051
 30
0.0
 10
-2.01363
 20
-13.92769
 30
0.0
 10
-2.01363
 20
-13.92769
 30
0.0
 10
-2.4022700000000001
 20
-14.44486
 30
0.0
 10
-2.8865500000000002
 20
-15.0009
 30
0.0
 10
-3.4724900000000001
 20
-15.515079999999999
 30
0.0
 10
-3.4724900000000001
 20
-15.515079999999999
 30
0.0
 10
-4.0584100000000003
 20
-16.029260000000001
 30
0.0
 10
-4.7459899999999999
 20
-16.50159
 30
0.0
 10
-5.3887099999999997
 20
-16.827449999999999
 30
0.0
 10
-5.3887099999999997
 20
-16.827449999999999
 30
0.0
 10
-6.0314500000000004
 20
-17.153300000000002
 30
0.0
 10
-6.62934
 20
-17.33267
 30
0.0
 10
-7.2062799999999996
 20
-17.437290000000001
 30
0.0
 10
-7.2062799999999996
 20
-17.437290000000001
 30
0.0
 10
-7.7832400000000002
 20
-17.541920000000001
 30
0.0
 10
-8.3392800000000005
 20
-17.571809999999999
 30
0.0
 10
-8.9760299999999997
 20
-17.488119999999999
 30
0.0
 10
-8.9760299999999997
 20
-17.488119999999999
 30
0.0
 10
-9.6127800000000008
 20
-17.404409999999999
 30
0.0
 10
-10.330249999999999
 20
-17.20711
 30
0.0
 10
-10.97148
 20
-16.91863
 30
0.0
 10
-10.97148
 20
-16.91863
 30
0.0
 10
-11.612719999999999
 20
-16.630140000000001
 30
0.0
 10
-12.17773
 20
-16.25048
 30
0.0
 10
-12.65006
 20
-15.857390000000001
 30
0.0
 10
-12.65006
 20
-15.857390000000001
 30
0.0
 10
-13.12238
 20
-15.464270000000001
 30
0.0
 10
-13.502039999999999
 20
-15.057700000000001
 30
0.0
 10
-13.82938
 20
-14.58986
 30
0.0
 10
-13.82938
 20
-14.58986
 30
0.0
 10
-14.15673
 20
-14.122019999999999
 30
0.0
 10
-14.431760000000001
 20
-13.59287
 30
0.0
 10
-14.59069
 20
-13.184839999999999
 30
0.0
 10
-14.59069
 20
-13.184839999999999
 30
0.0
 10
-14.749639999999999
 20
-12.776809999999999
 30
0.0
 10
-14.79251
 20
-12.48981
 30
0.0
 10
-14.8224
 20
-12.178929999999999
 30
0.0
 10
-14.8224
 20
-12.178929999999999
 30
0.0
 10
-14.85229
 20
-11.868040000000001
 30
0.0
 10
-14.86924
 20
-11.53317
 30
0.0
 10
-14.886150000000001
 20
-11.19834
 30
0.0
  0
SPLINE
  5
5F
100
AcDbEntity
  8
Default
100
AcDbSpline
210
0.0
220
0.0
230
1.0
 70
     1
 71
     3
 72
    76
 73
    72
 74
     0
 42
0.0000000001
 43
0.0000000001
 40
0.0
 40
0.0
 40
0.0
 40
0.0
 40
0.0555555555555556
 40
0.0555555555555556
 40
0.0555555555555556
 40
0.0555555555555556
 40
0.1111111111111111
 40
0.1111111111111111
 40
0.1111111111111111
 40
0.1111111111111111
 40
0.1666666666666667
 40
0.1666666666666667
 40
0.1666666666666667
 40
0.1666666666666667
 40
0.2222222222222222
 40
0.2222222222222222
 40
0.2222222222222222
 40
0.2222222222222222
 40
0.2777777777777778
 40
0.2777777777777778
 40
0.2777777777777778
 40
0.2777777777777778
 40
0.3333333333333334
 40
0.3333333333333334
 40
0.3333333333333334
 40
0.3333333333333334
 40
0.388888888888889
 40
0.388888888888889
 40
0.388888888888889
 40
0.388888888888889
 40
0.4444444444444445
 40
0.4444444444444445
 40
0.4444444444444445
 40
0.4444444444444445
 40
0.5000000000000001
 40
0.5000000000000001
 40
0.5000000000000001
 40
0.5000000000000001
 40
0.5555555555555557
 40
0.5555555555555557
 40
0.5555555555555557
 40
0.5555555555555557
 40
0.6111111111111113
 40
0.6111111111111113
 40
0.6111111111111113
 40
0.6111111111111113
 40
0.6666666666666669
 40
0.6666666666666669
 40
0.6666666666666669
 40
0.6666666666666669
 40
0.7222222222222224
 40
0.7222222222222224
 40
0.7222222222222224
 40
0.7222222222222224
 40
0.777777777777778
 40
0.777777777777778
 40
0.777777777777778
 40
0.777777777777778
 40
0.8333333333333336
 40
0.8333333333333336
 40
0.8333333333333336
 40
0.8333333333333336
 40
0.8888888888888892
 40
0.8888888888888892
 40
0.8888888888888892
 40
0.8888888888888892
 40
0.9444444444444448
 40
0.9444444444444448
 40
0.9444444444444448
 40
0.9444444444444448
 40
1.0
 40
1.0
 40
1.0
 40
1.0
 10
4.3956999999999997
 20
-1.00136
 30
0.0
 10
4.9607099999999997
 20
-0.75026
 30
0.0
 10
5.5257100000000001
 20
-0.49915
 30
0.0
 10
6.0428800000000003
 20
-0.32278
 30
0.0
 10
6.0428800000000003
 20
-0.32278
 30
0.0
 10
6.5600500000000004
 20
-0.1464
 30
0.0
 10
7.0293900000000002
 20
-0.04476
 30
0.0
 10
7.5600100000000001
 20
-0.01785
 30
0.0
 10
7.5600100000000001
 20
-0.01785
 30
0.0
 10
8.0906500000000001
 20
0.00905
 30
0.0
 10
8.6825500000000009
 20
-0.03877
 30
0.0
 10
9.2012099999999997
 20
-0.19869
 30
0.0
 10
9.2012099999999997
 20
-0.19869
 30
0.0
 10
9.7198899999999995
 20
-0.35865
 30
0.0
 10
10.16531
 20
-0.63068
 30
0.0
 10
10.543480000000001
 20
-0.94307
 30
0.0
 10
10.543480000000001
 20
-0.94307
 30
0.0
 10
10.92164
 20
-1.2554799999999999
 30
0.0
 10
11.23254
 20
-1.60823
 30
0.0
 10
11.47616
 20
-1.9759199999999999
 30
0.0
 10
11.47616
 20
-1.9759199999999999
 30
0.0
 10
11.71983
 20
-2.3436300000000001
 30
0.0
 10
11.8962
 20
-2.72627
 30
0.0
 10
11.98737
 20
-3.0894900000000001
 30
0.0
 10
11.98737
 20
-3.0894900000000001
 30
0.0
 10
12.07856
 20
-3.4527100000000002
 30
0.0
 10
12.084530000000001
 20
-3.7964899999999999
 30
0.0
 10
12.02924
 20
-4.0894700000000004
 30
0.0
 10
12.02924
 20
-4.0894700000000004
 30
0.0
 10
11.97392
 20
-4.3824300000000003
 30
0.0
 10
11.857340000000001
 20
-4.6245700000000003
 30
0.0
 10
11.74075
 20
-4.8667100000000003
 30
0.0
 10
11.74075
 20
-4.8667100000000003
 30
0.0
 10
11.82147
 20
-4.60961
 30
0.0
 10
11.90218
 20
-4.3525200000000002
 30
0.0
 10
11.93506
 20
-4.0879700000000003
 30
0.0
 10
11.93506
 20
-4.0879700000000003
 30
0.0
 10
11.96794
 20
-3.8233999999999999
 30
0.0
 10
11.952999999999999
 20
-3.5513599999999999
 30
0.0
 10
11.879759999999999
 20
-3.2554099999999999
 30
0.0
 10
11.879759999999999
 20
-3.2554099999999999
 30
0.0
 10
11.806509999999999
 20
-2.95946
 30
0.0
 10
11.67498
 20
-2.6395900000000001
 30
0.0
 10
11.506080000000001
 20
-2.3421400000000001
 30
0.0
 10
11.506080000000001
 20
-2.3421400000000001
 30
0.0
 10
11.33717
 20
-2.0446900000000001
 30
0.0
 10
11.130890000000001
 20
-1.76966
 30
0.0
 10
10.89174
 20
-1.5200499999999999
 30
0.0
 10
10.89174
 20
-1.5200499999999999
 30
0.0
 10
10.6526
 20
-1.2704200000000001
 30
0.0
 10
10.380549999999999
 20
-1.0462100000000001
 30
0.0
 10
10.092079999999999
 20
-0.85489
 30
0.0
 10
10.092079999999999
 20
-0.85489
 30
0.0
 10
9.8035899999999998
 20
-0.66357
 30
0.0
 10
9.4986700000000006
 20
-0.50513
 30
0.0
 10
9.1922700000000006
 20
-0.38853
 30
0.0
 10
9.1922700000000006
 20
-0.38853
 30
0.0
 10
8.88584
 20
-0.27195
 30
0.0
 10
8.5779200000000007
 20
-0.19721
 30
0.0
 10
8.2655399999999997
 20
-0.16134
 30
0.0
 10
8.2655399999999997
 20
-0.16134
 30
0.0
 10
7.9531400000000003
 20
-0.12547
 30
0.0
 10
7.63626
 20
-0.12847
 30
0.0
 10
7.2939800000000004
 20
-0.16733
 30
0.0
 10
7.2939800000000004
 20
-0.16733
 30
0.0
 10
6.95167
 20
-0.20619
 30
0.0
 10
6.5839699999999999
 20
-0.28092
 30
0.0
 10
6.0966800000000001
 20
-0.4259
 30
0.0
 10
6.0966800000000001
 20
-0.4259
 30
0.0
 10
5.6094099999999996
 20
-0.57089
 30
0.0
 10
5.0025599999999999
 20
-0.78613
 30
0.0
 10
4.3956999999999997
 20
-1.00136
 30
0.0
  0
SPLINE
  5
60
100
AcDbEntity
  8
Default
100
AcDbSpline
210
0.0
220
0.0
230
1.0
 70
     1
 71
     3
 72
   112
 73
   108
 74
     0
 42
0.0000000001
 43
0.0000000001
 40
0.0
 40
0.0
 40
0.0
 40
0.0
 40
0.037037037037037
 40
0.037037037037037
 40
0.037037037037037
 40
0.037037037037037
 40
0.0740740740740741
 40
0.0740740740740741
 40
0.0740740740740741
 40
0.0740740740740741
 40
0.1111111111111111
 40
0.1111111111111111
 40
0.1111111111111111
 40
0.1111111111111111
 40
0.1481481481481481
 40
0.1481481481481481
 40
0.1481481481481481
 40
0.1481481481481481
 40
0.1851851851851852
 40
0.1851851851851852
 40
0.1851851851851852
 40
0.1851851851851852
 40
0.2222222222222222
 40
0.2222222222222222
 40
0.2222222222222222
 40
0.2222222222222222
 40
0.2592592592592592
 40
0.2592592592592592
 40
0.2592592592592592
 40
0.2592592592592592
 40
0.2962962962962963
 40
0.2962962962962963
 40
0.2962962962962963
 40
0.2962962962962963
 40
0.3333333333333333
 40
0.3333333333333333
 40
0.3333333333333333
 40
0.3333333333333333
 40
0.3703703703703704
 40
0.3703703703703704
 40
0.3703703703703704
 40
0.3703703703703704
 40
0.4074074074074074
 40
0.4074074074074074
 40
0.4074074074074074
 40
0.4074074074074074
 40
0.4444444444444444
 40
0.4444444444444444
 40
0.4444444444444444
 40
0.4444444444444444
 40
0.4814814814814815
 40
0.4814814814814815
 40
0.4814814814814815
 40
0.4814814814814815
 40
0.5185185185185185
 40
0.5185185185185185
 40
0.5185185185185185
 40
0.5185185185185185
 40
0.5555555555555556
 40
0.5555555555555556
 40
0.5555555555555556
 40
0.5555555555555556
 40
0.5925925925925926
 40
0.5925925925925926
 40
0.5925925925925926
 40
0.5925925925925926
 40
0.6296296296296295
 40
0.6296296296296295
 40
0.6296296296296295
 40
0.6296296296296295
 40
0.6666666666666665
 40
0.6666666666666665
 40
0.6666666666666665
 40
0.6666666666666665
 40
0.7037037037037035
 40
0.7037037037037035
 40
0.7037037037037035
 40
0.7037037037037035
 40
0.7407407407407405
 40
0.7407407407407405
 40
0.7407407407407405
 40
0.7407407407407405
 40
0.7777777777777775
 40
0.7777777777777775
 40
0.7777777777777775
 40
0.7777777777777775
 40
0.8148148148148144
 40
0.8148148148148144
 40
0.8148148148148144
 40
0.8148148148148144
 40
0.8518518518518514
 40
0.8518518518518514
 40
0.8518518518518514
 40
0.8518518518518514
 40
0.8888888888888884
 40
0.8888888888888884
 40
0.8888888888888884
 40
0.8888888888888884
 40
0.9259259259259254
 40
0.9259259259259254
 40
0.9259259259259254
 40
0.9259259259259254
 40
0.9629629629629624
 40
0.9629629629629624
 40
0.9629629629629624
 40
0.9629629629629624
 40
1.0
 40
1.0
 40
1.0
 40
1.0
 10
0.78752
 20
-8.27759
 30
0.0
 10
1.10537
 20
-7.5711199999999996
 30
0.0
 10
1.42323
 20
-6.8646099999999999
 30
0.0
 10
1.8542000000000001
 20
-6.2483300000000002
 30
0.0
 10
1.8542000000000001
 20
-6.2483300000000002
 30
0.0
 10
2.2851699999999999
 20
-5.6320100000000002
 30
0.0
 10
2.8292299999999999
 20
-5.1058599999999998
 30
0.0
 10
3.4450599999999998
 20
-4.7262199999999996
 30
0.0
 10
3.4450599999999998
 20
-4.7262199999999996
 30
0.0
 10
4.06088
 20
-4.3465600000000002
 30
0.0
 10
4.7484500000000001
 20
-4.1133699999999997
 30
0.0
 10
5.4061300000000001
 20
-4.0147199999999996
 30
0.0
 10
5.4061300000000001
 20
-4.0147199999999996
 30
0.0
 10
6.0638100000000001
 20
-3.9160699999999999
 30
0.0
 10
6.6915800000000001
 20
-3.9519500000000001
 30
0.0
 10
7.2805099999999996
 20
-4.09842
 30
0.0
 10
7.2805099999999996
 20
-4.09842
 30
0.0
 10
7.8694300000000004
 20
-4.24491
 30
0.0
 10
8.4194800000000001
 20
-4.5019999999999998
 30
0.0
 10
8.9067699999999999
 20
-4.8218800000000002
 30
0.0
 10
8.9067699999999999
 20
-4.8218800000000002
 30
0.0
 10
9.3940400000000004
 20
-5.14175
 30
0.0
 10
9.8185500000000001
 20
-5.5243799999999998
 30
0.0
 10
10.18923
 20
-5.9459
 30
0.0
 10
10.18923
 20
-5.9459
 30
0.0
 10
10.55992
 20
-6.3674099999999996
 30
0.0
 10
10.876799999999999
 20
-6.8277900000000002
 30
0.0
 10
11.0741
 20
-7.2373399999999997
 30
0.0
 10
11.0741
 20
-7.2373399999999997
 30
0.0
 10
11.2714
 20
-7.64689
 30
0.0
 10
11.349119999999999
 20
-8.0056200000000004
 30
0.0
 10
11.370050000000001
 20
-8.42713
 30
0.0
 10
11.370050000000001
 20
-8.42713
 30
0.0
 10
11.390980000000001
 20
-8.8486499999999992
 30
0.0
 10
11.35511
 20
-9.3329299999999993
 30
0.0
 10
11.21759
 20
-9.7843300000000006
 30
0.0
 10
11.21759
 20
-9.7843300000000006
 30
0.0
 10
11.080080000000001
 20
-10.235749999999999
 30
0.0
 10
10.84093
 20
-10.654249999999999
 30
0.0
 10
10.565899999999999
 20
-10.968159999999999
 30
0.0
 10
10.565899999999999
 20
-10.968159999999999
 30
0.0
 10
10.29087
 20
-11.28205
 30
0.0
 10
9.9799600000000002
 20
-11.491300000000001
 30
0.0
 10
9.6272099999999998
 20
-11.667669999999999
 30
0.0
 10
9.6272099999999998
 20
-11.667669999999999
 30
0.0
 10
9.2744599999999995
 20
-11.844049999999999
 30
0.0
 10
8.8798600000000008
 20
-11.987550000000001
 30
0.0
 10
8.5211199999999998
 20
-12.0593
 30
0.0
 10
8.5211199999999998
 20
-12.0593
 30
0.0
 10
8.1623900000000003
 20
-12.13104
 30
0.0
 10
7.8395200000000003
 20
-12.13104
 30
0.0
 10
7.51668
 20
-12.13104
 30
0.0
 10
7.51668
 20
-12.13104
 30
0.0
 10
7.9531400000000003
 20
-12.053319999999999
 30
0.0
 10
8.3895900000000001
 20
-11.9756
 30
0.0
 10
8.7752199999999991
 20
-11.85003
 30
0.0
 10
8.7752199999999991
 20
-11.85003
 30
0.0
 10
9.1608699999999992
 20
-11.72447
 30
0.0
 10
9.4956800000000001
 20
-11.55109
 30
0.0
 10
9.8125599999999995
 20
-11.31193
 30
0.0
 10
9.8125599999999995
 20
-11.31193
 30
0.0
 10
10.129440000000001
 20
-11.07278
 30
0.0
 10
10.42839
 20
-10.767860000000001
 30
0.0
 10
10.64662
 20
-10.39716
 30
0.0
 10
10.64662
 20
-10.39716
 30
0.0
 10
10.864839999999999
 20
-10.026479999999999
 30
0.0
 10
11.002359999999999
 20
-9.5900200000000009
 30
0.0
 10
11.05317
 20
-9.14161
 30
0.0
 10
11.05317
 20
-9.14161
 30
0.0
 10
11.103999999999999
 20
-8.6931799999999999
 30
0.0
 10
11.06813
 20
-8.2328200000000002
 30
0.0
 10
10.939579999999999
 20
-7.7843999999999998
 30
0.0
 10
10.939579999999999
 20
-7.7843999999999998
 30
0.0
 10
10.81104
 20
-7.3359899999999998
 30
0.0
 10
10.58982
 20
-6.8995300000000004
 30
0.0
 10
10.308809999999999
 20
-6.5288500000000003
 30
0.0
 10
10.308809999999999
 20
-6.5288500000000003
 30
0.0
 10
10.027799999999999
 20
-6.1581400000000004
 30
0.0
 10
9.6869999999999994
 20
-5.8532299999999999
 30
0.0
 10
9.3671299999999995
 20
-5.5871700000000004
 30
0.0
 10
9.3671299999999995
 20
-5.5871700000000004
 30
0.0
 10
9.0472699999999993
 20
-5.3211199999999996
 30
0.0
 10
8.7483299999999993
 20
-5.0939100000000002
 30
0.0
 10
8.3626799999999992
 20
-4.8846600000000002
 30
0.0
 10
8.3626799999999992
 20
-4.8846600000000002
 30
0.0
 10
7.9770500000000002
 20
-4.6753900000000002
 30
0.0
 10
7.5047100000000002
 20
-4.48407
 30
0.0
 10
7.0353700000000003
 20
-4.3734500000000001
 30
0.0
 10
7.0353700000000003
 20
-4.3734500000000001
 30
0.0
 10
6.5660400000000001
 20
-4.2628500000000003
 30
0.0
 10
6.0996800000000002
 20
-4.2329499999999998
 30
0.0
 10
5.6273499999999999
 20
-4.28078
 30
0.0
 10
5.6273499999999999
 20
-4.28078
 30
0.0
 10
5.1550200000000004
 20
-4.3286199999999999
 30
0.0
 10
4.6767099999999999
 20
-4.4541700000000004
 30
0.0
 10
4.2462299999999997
 20
-4.6305399999999999
 30
0.0
 10
4.2462299999999997
 20
-4.6305399999999999
 30
0.0
 10
3.8157399999999999
 20
-4.8069199999999999
 30
0.0
 10
3.4331100000000001
 20
-5.0341199999999997
 30
0.0
 10
3.0653999999999999
 20
-5.3211199999999996
 30
0.0
 10
3.0653999999999999
 20
-5.3211199999999996
 30
0.0
 10
2.6977000000000002
 20
-5.6080899999999998
 30
0.0
 10
2.3449499999999999
 20
-5.9548800000000002
 30
0.0
 10
1.9677899999999999
 20
-6.4575699999999996
 30
0.0
 10
1.9677899999999999
 20
-6.4575699999999996
 30
0.0
 10
1.59063
 20
-6.9602700000000004
 30
0.0
 10
1.1890700000000001
 20
-7.6189499999999999
 30
0.0
 10
0.78752
 20
-8.27759
 30
0.0
  0
SPLINE
  5
61
100
AcDbEntity
  8
Default
100
AcDbSpline
210
0.0
220
0.0
230
1.0
 70
     1
 71
     3
 72
    48
 73
    44
 74
     0
 42
0.0000000001
 43
0.0000000001
 40
0.0
 40
0.0
 40
0.0
 40
0.0
 40
0.0909090909090909
 40
0.0909090909090909
 40
0.0909090909090909
 40
0.0909090909090909
 40
0.1818181818181818
 40
0.1818181818181818
 40
0.1818181818181818
 40
0.1818181818181818
 40
0.2727272727272727
 40
0.2727272727272727
 40
0.2727272727272727
 40
0.2727272727272727
 40
0.3636363636363637
 40
0.3636363636363637
 40
0.3636363636363637
 40
0.3636363636363637
 40
0.4545454545454546
 40
0.4545454545454546
 40
0.4545454545454546
 40
0.4545454545454546
 40
0.5454545454545455
 40
0.5454545454545455
 40
0.5454545454545455
 40
0.5454545454545455
 40
0.6363636363636365
 40
0.6363636363636365
 40
0.6363636363636365
 40
0.6363636363636365
 40
0.7272727272727274
 40
0.7272727272727274
 40
0.7272727272727274
 40
0.7272727272727274
 40
0.8181818181818183
 40
0.8181818181818183
 40
0.8181818181818183
 40
0.8181818181818183
 40
0.9090909090909093
 40
0.9090909090909093
 40
0.9090909090909093
 40
0.9090909090909093
 40
1.0
 40
1.0
 40
1.0
 40
1.0
 10
1.08639
 20
-9.3598400000000002
 30
0.0
 10
1.27773
 20
-8.8486499999999992
 30
0.0
 10
1.46905
 20
-8.3374400000000009
 30
0.0
 10
1.7022200000000001
 20
-7.9204299999999996
 30
0.0
 10
1.7022200000000001
 20
-7.9204299999999996
 30
0.0
 10
1.9353899999999999
 20
-7.5033899999999996
 30
0.0
 10
2.2104200000000001
 20
-7.1805399999999997
 30
0.0
 10
2.4914299999999998
 20
-6.9144699999999997
 30
0.0
 10
2.4914299999999998
 20
-6.9144699999999997
 30
0.0
 10
2.77244
 20
-6.6484199999999998
 30
0.0
 10
3.0594299999999999
 20
-6.4391499999999997
 30
0.0
 10
3.4136600000000001
 20
-6.2837100000000001
 30
0.0
 10
3.4136600000000001
 20
-6.2837100000000001
 30
0.0
 10
3.7679200000000002
 20
-6.12826
 30
0.0
 10
4.1894400000000003
 20
-6.0266200000000003
 30
0.0
 10
4.6124299999999998
 20
-5.9922399999999998
 30
0.0
 10
4.6124299999999998
 20
-5.9922399999999998
 30
0.0
 10
5.0354400000000004
 20
-5.9578499999999996
 30
0.0
 10
5.4599500000000001
 20
-5.9907500000000002
 30
0.0
 10
5.8844399999999997
 20
-6.0236200000000002
 30
0.0
 10
5.8844399999999997
 20
-6.0236200000000002
 30
0.0
 10
5.4569599999999996
 20
-6.0326000000000004
 30
0.0
 10
5.0294600000000003
 20
-6.0415599999999996
 30
0.0
 10
4.6602699999999997
 20
-6.0864000000000003
 30
0.0
 10
4.6602699999999997
 20
-6.0864000000000003
 30
0.0
 10
4.29108
 20
-6.1312499999999996
 30
0.0
 10
3.9801700000000002
 20
-6.21197
 30
0.0
 10
3.6827399999999999
 20
-6.3345200000000004
 30
0.0
 10
3.6827399999999999
 20
-6.3345200000000004
 30
0.0
 10
3.3852699999999998
 20
-6.45709
 30
0.0
 10
3.10128
 20
-6.6215099999999998
 30
0.0
 10
2.8516699999999999
 20
-6.8083400000000003
 30
0.0
 10
2.8516699999999999
 20
-6.8083400000000003
 30
0.0
 10
2.6020500000000002
 20
-6.99519
 30
0.0
 10
2.3868100000000001
 20
-7.2044600000000001
 30
0.0
 10
2.1805300000000001
 20
-7.4570499999999997
 30
0.0
 10
2.1805300000000001
 20
-7.4570499999999997
 30
0.0
 10
1.9742500000000001
 20
-7.70967
 30
0.0
 10
1.77695
 20
-8.0056200000000004
 30
0.0
 10
1.5961000000000001
 20
-8.3299599999999998
 30
0.0
 10
1.5961000000000001
 20
-8.3299599999999998
 30
0.0
 10
1.4152400000000001
 20
-8.6543200000000002
 30
0.0
 10
1.25082
 20
-9.0070899999999998
 30
0.0
 10
1.08639
 20
-9.3598400000000002
 30
0.0
  0
SPLINE
  5
62
100
AcDbEntity
  8
Default
100
AcDbSpline
210
0.0
220
0.0
230
1.0
 70
     1
 71
     3
 72
   172
 73
   168
 74
     0
 42
0.0000000001
 43
0.0000000001
 40
0.0
 40
0.0
 40
0.0
 40
0.0
 40
0.0238095238095238
 40
0.0238095238095238
 40
0.0238095238095238
 40
0.0238095238095238
 40
0.0476190476190476
 40
0.0476190476190476
 40
0.0476190476190476
 40
0.0476190476190476
 40
0.0714285714285714
 40
0.0714285714285714
 40
0.0714285714285714
 40
0.0714285714285714
 40
0.0952380952380952
 40
0.0952380952380952
 40
0.0952380952380952
 40
0.0952380952380952
 40
0.119047619047619
 40
0.119047619047619
 40
0.119047619047619
 40
0.119047619047619
 40
0.1428571428571429
 40
0.1428571428571429
 40
0.1428571428571429
 40
0.1428571428571429
 40
0.1666666666666667
 40
0.1666666666666667
 40
0.1666666666666667
 40
0.1666666666666667
 40
0.1904761904761905
 40
0.1904761904761905
 40
0.1904761904761905
 40
0.1904761904761905
 40
0.2142857142857143
 40
0.2142857142857143
 40
0.2142857142857143
 40
0.2142857142857143
 40
0.2380952380952381
 40
0.2380952380952381
 40
0.2380952380952381
 40
0.2380952380952381
 40
0.2619047619047619
 40
0.2619047619047619
 40
0.2619047619047619
 40
0.2619047619047619
 40
0.2857142857142857
 40
0.2857142857142857
 40
0.2857142857142857
 40
0.2857142857142857
 40
0.3095238095238095
 40
0.3095238095238095
 40
0.3095238095238095
 40
0.3095238095238095
 40
0.3333333333333334
 40
0.3333333333333334
 40
0.3333333333333334
 40
0.3333333333333334
 40
0.3571428571428572
 40
0.3571428571428572
 40
0.3571428571428572
 40
0.3571428571428572
 40
0.380952380952381
 40
0.380952380952381
 40
0.380952380952381
 40
0.380952380952381
 40
0.4047619047619049
 40
0.4047619047619049
 40
0.4047619047619049
 40
0.4047619047619049
 40
0.4285714285714287
 40
0.4285714285714287
 40
0.4285714285714287
 40
0.4285714285714287
 40
0.4523809523809526
 40
0.4523809523809526
 40
0.4523809523809526
 40
0.4523809523809526
 40
0.4761904761904764
 40
0.4761904761904764
 40
0.4761904761904764
 40
0.4761904761904764
 40
0.5000000000000002
 40
0.5000000000000002
 40
0.5000000000000002
 40
0.5000000000000002
 40
0.5238095238095241
 40
0.5238095238095241
 40
0.5238095238095241
 40
0.5238095238095241
 40
0.5476190476190479
 40
0.5476190476190479
 40
0.5476190476190479
 40
0.5476190476190479
 40
0.5714285714285717
 40
0.5714285714285717
 40
0.5714285714285717
 40
0.5714285714285717
 40
0.5952380952380956
 40
0.5952380952380956
 40
0.5952380952380956
 40
0.5952380952380956
 40
0.6190476190476194
 40
0.6190476190476194
 40
0.6190476190476194
 40
0.6190476190476194
 40
0.6428571428571432
 40
0.6428571428571432
 40
0.6428571428571432
 40
0.6428571428571432
 40
0.6666666666666671
 40
0.6666666666666671
 40
0.6666666666666671
 40
0.6666666666666671
 40
0.6904761904761909
 40
0.6904761904761909
 40
0.6904761904761909
 40
0.6904761904761909
 40
0.7142857142857148
 40
0.7142857142857148
 40
0.7142857142857148
 40
0.7142857142857148
 40
0.7380952380952386
 40
0.7380952380952386
 40
0.7380952380952386
 40
0.7380952380952386
 40
0.7619047619047624
 40
0.7619047619047624
 40
0.7619047619047624
 40
0.7619047619047624
 40
0.7857142857142863
 40
0.7857142857142863
 40
0.7857142857142863
 40
0.7857142857142863
 40
0.8095238095238101
 40
0.8095238095238101
 40
0.8095238095238101
 40
0.8095238095238101
 40
0.8333333333333339
 40
0.8333333333333339
 40
0.8333333333333339
 40
0.8333333333333339
 40
0.8571428571428578
 40
0.8571428571428578
 40
0.8571428571428578
 40
0.8571428571428578
 40
0.8809523809523816
 40
0.8809523809523816
 40
0.8809523809523816
 40
0.8809523809523816
 40
0.9047619047619054
 40
0.9047619047619054
 40
0.9047619047619054
 40
0.9047619047619054
 40
0.9285714285714293
 40
0.9285714285714293
 40
0.9285714285714293
 40
0.9285714285714293
 40
0.9523809523809531
 40
0.9523809523809531
 40
0.9523809523809531
 40
0.9523809523809531
 40
0.9761904761904769
 40
0.9761904761904769
 40
0.9761904761904769
 40
0.9761904761904769
 40
1.0
 40
1.0
 40
1.0
 40
1.0
 10
3.66927
 20
-7.1894999999999998
 30
0.0
 10
3.3224900000000002
 20
-7.5721499999999997
 30
0.0
 10
2.9757199999999999
 20
-7.9548100000000002
 30
0.0
 10
2.6707900000000002
 20
-8.4121900000000007
 30
0.0
 10
2.6707900000000002
 20
-8.4121900000000007
 30
0.0
 10
2.3658800000000002
 20
-8.8695799999999991
 30
0.0
 10
2.1028099999999998
 20
-9.4016900000000003
 30
0.0
 10
1.9697800000000001
 20
-9.9009199999999993
 30
0.0
 10
1.9697800000000001
 20
-9.9009199999999993
 30
0.0
 10
1.83674
 20
-10.40015
 30
0.0
 10
1.83375
 20
-10.86652
 30
0.0
 10
1.9144600000000001
 20
-11.2925
 30
0.0
 10
1.9144600000000001
 20
-11.2925
 30
0.0
 10
1.99518
 20
-11.718500000000001
 30
0.0
 10
2.1596000000000002
 20
-12.10413
 30
0.0
 10
2.3853
 20
-12.3956
 30
0.0
 10
2.3853
 20
-12.3956
 30
0.0
 10
2.6110000000000002
 20
-12.68708
 30
0.0
 10
2.8980000000000001
 20
-12.88438
 30
0.0
 10
3.24925
 20
-13.003959999999999
 30
0.0
 10
3.24925
 20
-13.003959999999999
 30
0.0
 10
3.6005099999999999
 20
-13.12354
 30
0.0
 10
4.0160400000000003
 20
-13.16539
 30
0.0
 10
4.4390299999999998
 20
-13.126530000000001
 30
0.0
 10
4.4390299999999998
 20
-13.126530000000001
 30
0.0
 10
4.8620599999999996
 20
-13.087669999999999
 30
0.0
 10
5.2925300000000002
 20
-12.96809
 30
0.0
 10
5.7035799999999997
 20
-12.736409999999999
 30
0.0
 10
5.7035799999999997
 20
-12.736409999999999
 30
0.0
 10
6.1146399999999996
 20
-12.504720000000001
 30
0.0
 10
6.5062499999999996
 20
-12.16093
 30
0.0
 10
6.7902300000000002
 20
-11.79772
 30
0.0
 10
6.7902300000000002
 20
-11.79772
 30
0.0
 10
7.0742399999999996
 20
-11.4345
 30
0.0
 10
7.25061
 20
-11.05185
 30
0.0
 10
7.34178
 20
-10.706580000000001
 30
0.0
 10
7.34178
 20
-10.706580000000001
 30
0.0
 10
7.4329700000000001
 20
-10.36129
 30
0.0
 10
7.4389500000000002
 20
-10.05339
 30
0.0
 10
7.3881199999999998
 20
-9.7918299999999991
 30
0.0
 10
7.3881199999999998
 20
-9.7918299999999991
 30
0.0
 10
7.3373100000000004
 20
-9.5302299999999995
 30
0.0
 10
7.2296800000000001
 20
-9.3149899999999999
 30
0.0
 10
7.0727599999999997
 20
-9.1461000000000006
 30
0.0
 10
7.0727599999999997
 20
-9.1461000000000006
 30
0.0
 10
6.9157999999999999
 20
-8.9771900000000002
 30
0.0
 10
6.7095200000000004
 20
-8.8546200000000006
 30
0.0
 10
6.4703799999999996
 20
-8.8008100000000002
 30
0.0
 10
6.4703799999999996
 20
-8.8008100000000002
 30
0.0
 10
6.2312200000000004
 20
-8.7470099999999995
 30
0.0
 10
5.9591700000000003
 20
-8.7619500000000006
 30
0.0
 10
5.71854
 20
-8.8217400000000001
 30
0.0
 10
5.71854
 20
-8.8217400000000001
 30
0.0
 10
5.4778799999999999
 20
-8.8815299999999997
 30
0.0
 10
5.2686099999999998
 20
-8.9861599999999999
 30
0.0
 10
5.0638500000000004
 20
-9.1371099999999998
 30
0.0
 10
5.0638500000000004
 20
-9.1371099999999998
 30
0.0
 10
4.85907
 20
-9.2880800000000008
 30
0.0
 10
4.6587699999999996
 20
-9.4853799999999993
 30
0.0
 10
4.50929
 20
-9.7305200000000003
 30
0.0
 10
4.50929
 20
-9.7305200000000003
 30
0.0
 10
4.3598299999999997
 20
-9.9756599999999995
 30
0.0
 10
4.2611800000000004
 20
-10.26863
 30
0.0
 10
4.2267999999999999
 20
-10.548120000000001
 30
0.0
 10
4.2267999999999999
 20
-10.548120000000001
 30
0.0
 10
4.1924099999999997
 20
-10.82765
 30
0.0
 10
4.2223199999999999
 20
-11.0937
 30
0.0
 10
4.3000400000000001
 20
-11.316420000000001
 30
0.0
 10
4.3000400000000001
 20
-11.316420000000001
 30
0.0
 10
4.3777600000000003
 20
-11.53914
 30
0.0
 10
4.5033300000000001
 20
-11.718500000000001
 30
0.0
 10
4.62887
 20
-11.897869999999999
 30
0.0
 10
4.62887
 20
-11.897869999999999
 30
0.0
 10
4.4943499999999998
 20
-11.71252
 30
0.0
 10
4.3598299999999997
 20
-11.52717
 30
0.0
 10
4.2731300000000001
 20
-11.32987
 30
0.0
 10
4.2731300000000001
 20
-11.32987
 30
0.0
 10
4.1864499999999998
 20
-11.132569999999999
 30
0.0
 10
4.1475799999999996
 20
-10.923310000000001
 30
0.0
 10
4.1490600000000004
 20
-10.69313
 30
0.0
 10
4.1490600000000004
 20
-10.69313
 30
0.0
 10
4.1505799999999997
 20
-10.46294
 30
0.0
 10
4.1924099999999997
 20
-10.211830000000001
 30
0.0
 10
4.2671599999999996
 20
-9.9816299999999991
 30
0.0
 10
4.2671599999999996
 20
-9.9816299999999991
 30
0.0
 10
4.3418900000000002
 20
-9.7514500000000002
 30
0.0
 10
4.4495199999999997
 20
-9.5421999999999993
 30
0.0
 10
4.6228999999999996
 20
-9.3374199999999998
 30
0.0
 10
4.6228999999999996
 20
-9.3374199999999998
 30
0.0
 10
4.7962899999999999
 20
-9.1326300000000007
 30
0.0
 10
5.0354400000000004
 20
-8.9323399999999999
 30
0.0
 10
5.3044799999999999
 20
-8.8053000000000008
 30
0.0
 10
5.3044799999999999
 20
-8.8053000000000008
 30
0.0
 10
5.5735400000000004
 20
-8.6782400000000006
 30
0.0
 10
5.87249
 20
-8.6244399999999999
 30
0.0
 10
6.1355500000000003
 20
-8.6318999999999999
 30
0.0
 10
6.1355500000000003
 20
-8.6318999999999999
 30
0.0
 10
6.3986200000000002
 20
-8.6393799999999992
 30
0.0
 10
6.6258299999999997
 20
-8.7081400000000002
 30
0.0
 10
6.7887399999999998
 20
-8.7798800000000004
 30
0.0
 10
6.7887399999999998
 20
-8.7798800000000004
 30
0.0
 10
6.95167
 20
-8.8516200000000005
 30
0.0
 10
7.0503200000000001
 20
-8.9263700000000004
 30
0.0
 10
7.1534599999999999
 20
-9.0369799999999998
 30
0.0
 10
7.1534599999999999
 20
-9.0369799999999998
 30
0.0
 10
7.2565900000000001
 20
-9.1475899999999992
 30
0.0
 10
7.3642000000000003
 20
-9.2940699999999996
 30
0.0
 10
7.4329700000000001
 20
-9.4794199999999993
 30
0.0
 10
7.4329700000000001
 20
-9.4794199999999993
 30
0.0
 10
7.5017300000000002
 20
-9.6647499999999997
 30
0.0
 10
7.5316200000000002
 20
-9.8889600000000009
 30
0.0
 10
7.5331000000000001
 20
-10.110189999999999
 30
0.0
 10
7.5331000000000001
 20
-10.110189999999999
 30
0.0
 10
7.5346099999999998
 20
-10.33141
 30
0.0
 10
7.5076999999999998
 20
-10.54964
 30
0.0
 10
7.4255100000000001
 20
-10.81419
 30
0.0
 10
7.4255100000000001
 20
-10.81419
 30
0.0
 10
7.3432899999999997
 20
-11.078760000000001
 30
0.0
 10
7.2057599999999997
 20
-11.389659999999999
 30
0.0
 10
7.03986
 20
-11.66019
 30
0.0
 10
7.03986
 20
-11.66019
 30
0.0
 10
6.8739400000000002
 20
-11.93075
 30
0.0
 10
6.6796300000000004
 20
-12.16093
 30
0.0
 10
6.44496
 20
-12.377660000000001
 30
0.0
 10
6.44496
 20
-12.377660000000001
 30
0.0
 10
6.2103000000000002
 20
-12.59441
 30
0.0
 10
5.93527
 20
-12.79768
 30
0.0
 10
5.6512700000000002
 20
-12.945650000000001
 30
0.0
 10
5.6512700000000002
 20
-12.945650000000001
 30
0.0
 10
5.3672700000000004
 20
-13.093629999999999
 30
0.0
 10
5.0743
 20
-13.18632
 30
0.0
 10
4.76938
 20
-13.229649999999999
 30
0.0
 10
4.76938
 20
-13.229649999999999
 30
0.0
 10
4.4644599999999999
 20
-13.273
 30
0.0
 10
4.1475799999999996
 20
-13.26703
 30
0.0
 10
3.8202500000000001
 20
-13.23565
 30
0.0
 10
3.8202500000000001
 20
-13.23565
 30
0.0
 10
3.4929000000000001
 20
-13.20425
 30
0.0
 10
3.15509
 20
-13.147460000000001
 30
0.0
 10
2.8501599999999998
 20
-12.97406
 30
0.0
 10
2.8501599999999998
 20
-12.97406
 30
0.0
 10
2.5452499999999998
 20
-12.80067
 30
0.0
 10
2.2732000000000001
 20
-12.5107
 30
0.0
 10
2.0938300000000001
 20
-12.237170000000001
 30
0.0
 10
2.0938300000000001
 20
-12.237170000000001
 30
0.0
 10
1.9144600000000001
 20
-11.96363
 30
0.0
 10
1.82778
 20
-11.70654
 30
0.0
 10
1.77396
 20
-11.421060000000001
 30
0.0
 10
1.77396
 20
-11.421060000000001
 30
0.0
 10
1.7201500000000001
 20
-11.13556
 30
0.0
 10
1.69923
 20
-10.821669999999999
 30
0.0
 10
1.7201500000000001
 20
-10.52125
 30
0.0
 10
1.7201500000000001
 20
-10.52125
 30
0.0
 10
1.74108
 20
-10.220789999999999
 30
0.0
 10
1.80386
 20
-9.9338099999999994
 30
0.0
 10
1.9189499999999999
 20
-9.6288800000000005
 30
0.0
 10
1.9189499999999999
 20
-9.6288800000000005
 30
0.0
 10
2.0340400000000001
 20
-9.3239699999999992
 30
0.0
 10
2.20146
 20
-9.0011100000000006
 30
0.0
 10
2.3868100000000001
 20
-8.7036599999999993
 30
0.0
 10
2.3868100000000001
 20
-8.7036599999999993
 30
0.0
 10
2.5721400000000001
 20
-8.4062099999999997
 30
0.0
 10
2.7754300000000001
 20
-8.1341699999999992
 30
0.0
 10
2.99214
 20
-7.8860400000000004
 30
0.0
 10
2.99214
 20
-7.8860400000000004
 30
0.0
 10
3.2088899999999998
 20
-7.6379299999999999
 30
0.0
 10
3.4390700000000001
 20
-7.41371
 30
0.0
 10
3.66927
 20
-7.1894999999999998
 30
0.0
  0
SPLINE
  5
63
100
AcDbEntity
  8
Default
100
AcDbSpline
210
0.0
220
0.0
230
1.0
 70
     1
 71
     3
 72
    48
 73
    44
 74
     0
 42
0.0000000001
 43
0.0000000001
 40
0.0
 40
0.0
 40
0.0
 40
0.0
 40
0.0909090909090909
 40
0.0909090909090909
 40
0.0909090909090909
 40
0.0909090909090909
 40
0.1818181818181818
 40
0.1818181818181818
 40
0.1818181818181818
 40
0.1818181818181818
 40
0.2727272727272727
 40
0.2727272727272727
 40
0.2727272727272727
 40
0.2727272727272727
 40
0.3636363636363637
 40
0.3636363636363637
 40
0.3636363636363637
 40
0.3636363636363637
 40
0.4545454545454546
 40
0.4545454545454546
 40
0.4545454545454546
 40
0.4545454545454546
 40
0.5454545454545455
 40
0.5454545454545455
 40
0.5454545454545455
 40
0.5454545454545455
 40
0.6363636363636365
 40
0.6363636363636365
 40
0.6363636363636365
 40
0.6363636363636365
 40
0.7272727272727274
 40
0.7272727272727274
 40
0.7272727272727274
 40
0.7272727272727274
 40
0.8181818181818183
 40
0.8181818181818183
 40
0.8181818181818183
 40
0.8181818181818183
 40
0.9090909090909093
 40
0.9090909090909093
 40
0.9090909090909093
 40
0.9090909090909093
 40
1.0
 40
1.0
 40
1.0
 40
1.0
 10
0.78148
 20
-10.90239
 30
0.0
 10
0.62304
 20
-11.359769999999999
 30
0.0
 10
0.4646
 20
-11.817159999999999
 30
0.0
 10
0.3525
 20
-12.32386
 30
0.0
 10
0.3525
 20
-12.32386
 30
0.0
 10
0.24039
 20
-12.830579999999999
 30
0.0
 10
0.17462
 20
-13.386609999999999
 30
0.0
 10
0.17611
 20
-13.90826
 30
0.0
 10
0.17611
 20
-13.90826
 30
0.0
 10
0.17761
 20
-14.429919999999999
 30
0.0
 10
0.24637
 20
-14.91719
 30
0.0
 10
0.37192
 20
-15.29088
 30
0.0
 10
0.37192
 20
-15.29088
 30
0.0
 10
0.49748
 20
-15.66456
 30
0.0
 10
0.67984
 20
-15.92464
 30
0.0
 10
0.90852
 20
-16.175750000000001
 30
0.0
 10
0.90852
 20
-16.175750000000001
 30
0.0
 10
1.1372199999999999
 20
-16.426860000000001
 30
0.0
 10
1.41225
 20
-16.66901
 30
0.0
 10
1.6872799999999999
 20
-16.911149999999999
 30
0.0
 10
1.6872799999999999
 20
-16.911149999999999
 30
0.0
 10
1.40028
 20
-16.612210000000001
 30
0.0
 10
1.1133
 20
-16.31326
 30
0.0
 10
0.91153
 20
-16.038239999999998
 30
0.0
 10
0.91153
 20
-16.038239999999998
 30
0.0
 10
0.70972
 20
-15.763210000000001
 30
0.0
 10
0.59314
 20
-15.512090000000001
 30
0.0
 10
0.5094300000000001
 20
-15.234069999999999
 30
0.0
 10
0.5094300000000001
 20
-15.234069999999999
 30
0.0
 10
0.42574
 20
-14.956049999999999
 30
0.0
 10
0.37491
 20
-14.65114
 30
0.0
 10
0.34951
 20
-14.33426
 30
0.0
 10
0.34951
 20
-14.33426
 30
0.0
 10
0.3241
 20
-14.017379999999999
 30
0.0
 10
0.3241
 20
-13.68853
 30
0.0
 10
0.35548
 20
-13.31785
 30
0.0
 10
0.35548
 20
-13.31785
 30
0.0
 10
0.38686
 20
-12.94716
 30
0.0
 10
0.44964
 20
-12.53462
 30
0.0
 10
0.52587
 20
-12.12506
 30
0.0
 10
0.52587
 20
-12.12506
 30
0.0
 10
0.60211
 20
-11.71551
 30
0.0
 10
0.69179
 20
-11.30894
 30
0.0
 10
0.78148
 20
-10.90239
 30
0.0
  0
SPLINE
  5
64
100
AcDbEntity
  8
Default
100
AcDbSpline
210
0.0
220
0.0
230
1.0
 70
     1
 71
     3
 72
    32
 73
    28
 74
     0
 42
0.0000000001
 43
0.0000000001
 40
0.0
 40
0.0
 40
0.0
 40
0.0
 40
0.1428571428571429
 40
0.1428571428571429
 40
0.1428571428571429
 40
0.1428571428571429
 40
0.2857142857142857
 40
0.2857142857142857
 40
0.2857142857142857
 40
0.2857142857142857
 40
0.4285714285714286
 40
0.4285714285714286
 40
0.4285714285714286
 40
0.4285714285714286
 40
0.5714285714285714
 40
0.5714285714285714
 40
0.5714285714285714
 40
0.5714285714285714
 40
0.7142857142857142
 40
0.7142857142857142
 40
0.7142857142857142
 40
0.7142857142857142
 40
0.857142857142857
 40
0.857142857142857
 40
0.857142857142857
 40
0.857142857142857
 40
1.0
 40
1.0
 40
1.0
 40
1.0
 10
-0.96733
 20
-14.83051
 30
0.0
 10
-1.2094800000000001
 20
-15.183260000000001
 30
0.0
 10
-1.45163
 20
-15.536009999999999
 30
0.0
 10
-1.6100699999999999
 20
-15.900729999999999
 30
0.0
 10
-1.6100699999999999
 20
-15.900729999999999
 30
0.0
 10
-1.76851
 20
-16.265429999999999
 30
0.0
 10
-1.84324
 20
-16.642099999999999
 30
0.0
 10
-1.8581799999999999
 20
-17.009810000000002
 30
0.0
 10
-1.8581799999999999
 20
-17.009810000000002
 30
0.0
 10
-1.87313
 20
-17.377500000000001
 30
0.0
 10
-1.8283
 20
-17.736229999999999
 30
0.0
 10
-1.78345
 20
-18.09497
 30
0.0
 10
-1.78345
 20
-18.09497
 30
0.0
 10
-1.78644
 20
-17.709340000000001
 30
0.0
 10
-1.7894399999999999
 20
-17.323689999999999
 30
0.0
 10
-1.7445900000000001
 20
-16.990369999999999
 30
0.0
 10
-1.7445900000000001
 20
-16.990369999999999
 30
0.0
 10
-1.69974
 20
-16.657060000000001
 30
0.0
 10
-1.6070800000000001
 20
-16.376049999999999
 30
0.0
 10
-1.49498
 20
-16.095040000000001
 30
0.0
 10
-1.49498
 20
-16.095040000000001
 30
0.0
 10
-1.38286
 20
-15.814030000000001
 30
0.0
 10
-1.2513300000000001
 20
-15.53302
 30
0.0
 10
-1.1601600000000001
 20
-15.322279999999999
 30
0.0
 10
-1.1601600000000001
 20
-15.322279999999999
 30
0.0
 10
-1.06898
 20
-15.111520000000001
 30
0.0
 10
-1.01816
 20
-14.97101
 30
0.0
 10
-0.96733
 20
-14.83051
 30
0.0
  0
SPLINE
  5
65
100
AcDbEntity
  8
Default
100
AcDbSpline
210
0.0
220
0.0
230
1.0
 70
     1
 71
     3
 72
    32
 73
    28
 74
     0
 42
0.0000000001
 43
0.0000000001
 40
0.0
 40
0.0
 40
0.0
 40
0.0
 40
0.1428571428571429
 40
0.1428571428571429
 40
0.1428571428571429
 40
0.1428571428571429
 40
0.2857142857142857
 40
0.2857142857142857
 40
0.2857142857142857
 40
0.2857142857142857
 40
0.4285714285714286
 40
0.4285714285714286
 40
0.4285714285714286
 40
0.4285714285714286
 40
0.5714285714285714
 40
0.5714285714285714
 40
0.5714285714285714
 40
0.5714285714285714
 40
0.7142857142857142
 40
0.7142857142857142
 40
0.7142857142857142
 40
0.7142857142857142
 40
0.857142857142857
 40
0.857142857142857
 40
0.857142857142857
 40
0.857142857142857
 40
1.0
 40
1.0
 40
1.0
 40
1.0
 10
-5.0927600000000002
 20
-19.467120000000001
 30
0.0
 10
-4.9761699999999998
 20
-19.093440000000001
 30
0.0
 10
-4.8595800000000002
 20
-18.71977
 30
0.0
 10
-4.6772299999999998
 20
-18.371510000000001
 30
0.0
 10
-4.6772299999999998
 20
-18.371510000000001
 30
0.0
 10
-4.4948699999999997
 20
-18.023230000000002
 30
0.0
 10
-4.2467499999999996
 20
-17.70036
 30
0.0
 10
-3.9224100000000002
 20
-17.444769999999998
 30
0.0
 10
-3.9224100000000002
 20
-17.444769999999998
 30
0.0
 10
-3.5980300000000001
 20
-17.189170000000001
 30
0.0
 10
-3.19746
 20
-17.000830000000001
 30
0.0
 10
-2.7968700000000002
 20
-16.8125
 30
0.0
 10
-2.7968700000000002
 20
-16.8125
 30
0.0
 10
-3.1227100000000001
 20
-17.02176
 30
0.0
 10
-3.4485700000000001
 20
-17.231030000000001
 30
0.0
 10
-3.70566
 20
-17.441759999999999
 30
0.0
 10
-3.70566
 20
-17.441759999999999
 30
0.0
 10
-3.9627500000000002
 20
-17.652519999999999
 30
0.0
 10
-4.1510899999999999
 20
-17.864789999999999
 30
0.0
 10
-4.3155000000000001
 20
-18.083020000000001
 30
0.0
 10
-4.3155000000000001
 20
-18.083020000000001
 30
0.0
 10
-4.4799199999999999
 20
-18.30124
 30
0.0
 10
-4.6204299999999998
 20
-18.52544
 30
0.0
 10
-4.7459899999999999
 20
-18.75712
 30
0.0
 10
-4.7459899999999999
 20
-18.75712
 30
0.0
 10
-4.8715400000000004
 20
-18.988810000000001
 30
0.0
 10
-4.9821499999999999
 20
-19.227969999999999
 30
0.0
 10
-5.0927600000000002
 20
-19.467120000000001
 30
0.0
  0
SPLINE
  5
66
100
AcDbEntity
  8
Default
100
AcDbSpline
210
0.0
220
0.0
230
1.0
 70
     1
 71
     3
 72
    28
 73
    24
 74
     0
 42
0.0000000001
 43
0.0000000001
 40
0.0
 40
0.0
 40
0.0
 40
0.0
 40
0.1666666666666667
 40
0.1666666666666667
 40
0.1666666666666667
 40
0.1666666666666667
 40
0.3333333333333333
 40
0.3333333333333333
 40
0.3333333333333333
 40
0.3333333333333333
 40
0.5
 40
0.5
 40
0.5
 40
0.5
 40
0.6666666666666666
 40
0.6666666666666666
 40
0.6666666666666666
 40
0.6666666666666666
 40
0.8333333333333333
 40
0.8333333333333333
 40
0.8333333333333333
 40
0.8333333333333333
 40
1.0
 40
1.0
 40
1.0
 40
1.0
 10
-8.2854799999999997
 20
-18.785520000000002
 30
0.0
 10
-8.1180599999999998
 20
-18.624089999999999
 30
0.0
 10
-7.9506600000000001
 20
-18.462679999999999
 30
0.0
 10
-7.7369199999999996
 20
-18.331130000000002
 30
0.0
 10
-7.7369199999999996
 20
-18.331130000000002
 30
0.0
 10
-7.5231599999999998
 20
-18.1996
 30
0.0
 10
-7.2630999999999997
 20
-18.09796
 30
0.0
 10
-6.9820900000000004
 20
-18.051629999999999
 30
0.0
 10
-6.9820900000000004
 20
-18.051629999999999
 30
0.0
 10
-6.7010800000000001
 20
-18.005289999999999
 30
0.0
 10
-6.3991400000000001
 20
-18.014250000000001
 30
0.0
 10
-6.0972
 20
-18.023230000000002
 30
0.0
 10
-6.0972
 20
-18.023230000000002
 30
0.0
 10
-6.4290399999999996
 20
-18.077030000000001
 30
0.0
 10
-6.7608600000000001
 20
-18.130839999999999
 30
0.0
 10
-7.0343900000000001
 20
-18.202590000000001
 30
0.0
 10
-7.0343900000000001
 20
-18.202590000000001
 30
0.0
 10
-7.3079200000000002
 20
-18.274329999999999
 30
0.0
 10
-7.5231599999999998
 20
-18.36403
 30
0.0
 10
-7.7219600000000002
 20
-18.46416
 30
0.0
 10
-7.7219600000000002
 20
-18.46416
 30
0.0
 10
-7.9207599999999996
 20
-18.564299999999999
 30
0.0
 10
-8.1031200000000005
 20
-18.67492
 30
0.0
 10
-8.2854799999999997
 20
-18.785520000000002
 30
0.0
  0
SPLINE
  5
67
100
AcDbEntity
  8
Default
100
AcDbSpline
210
0.0
220
0.0
230
1.0
 70
     1
 71
     3
 72
    36
 73
    32
 74
     0
 42
0.0000000001
 43
0.0000000001
 40
0.0
 40
0.0
 40
0.0
 40
0.0
 40
0.125
 40
0.125
 40
0.125
 40
0.125
 40
0.25
 40
0.25
 40
0.25
 40
0.25
 40
0.375
 40
0.375
 40
0.375
 40
0.375
 40
0.5
 40
0.5
 40
0.5
 40
0.5
 40
0.625
 40
0.625
 40
0.625
 40
0.625
 40
0.75
 40
0.75
 40
0.75
 40
0.75
 40
0.875
 40
0.875
 40
0.875
 40
0.875
 40
1.0
 40
1.0
 40
1.0
 40
1.0
 10
-11.969139999999999
 20
-18.49945
 30
0.0
 10
-11.848319999999999
 20
-18.384609999999999
 30
0.0
 10
-11.727499999999999
 20
-18.269729999999999
 30
0.0
 10
-11.587300000000001
 20
-18.182480000000002
 30
0.0
 10
-11.587300000000001
 20
-18.182480000000002
 30
0.0
 10
-11.447100000000001
 20
-18.09524
 30
0.0
 10
-11.287470000000001
 20
-18.035550000000001
 30
0.0
 10
-11.12937
 20
-18.010200000000001
 30
0.0
 10
-11.12937
 20
-18.010200000000001
 30
0.0
 10
-10.971270000000001
 20
-17.984839999999998
 30
0.0
 10
-10.81465
 20
-17.9938
 30
0.0
 10
-10.653560000000001
 20
-18.025110000000002
 30
0.0
 10
-10.653560000000001
 20
-18.025110000000002
 30
0.0
 10
-10.492470000000001
 20
-18.056439999999998
 30
0.0
 10
-10.3269
 20
-18.110150000000001
 30
0.0
 10
-10.161339999999999
 20
-18.163830000000001
 30
0.0
 10
-10.161339999999999
 20
-18.163830000000001
 30
0.0
 10
-10.35225
 20
-18.126550000000002
 30
0.0
 10
-10.543189999999999
 20
-18.08925
 30
0.0
 10
-10.718450000000001
 20
-18.081060000000001
 30
0.0
 10
-10.718450000000001
 20
-18.081060000000001
 30
0.0
 10
-10.893700000000001
 20
-18.07283
 30
0.0
 10
-11.05331
 20
-18.09374
 30
0.0
 10
-11.205450000000001
 20
-18.136990000000001
 30
0.0
 10
-11.205450000000001
 20
-18.136990000000001
 30
0.0
 10
-11.35758
 20
-18.180240000000001
 30
0.0
 10
-11.502280000000001
 20
-18.245889999999999
 30
0.0
 10
-11.628299999999999
 20
-18.310020000000002
 30
0.0
 10
-11.628299999999999
 20
-18.310020000000002
 30
0.0
 10
-11.754339999999999
 20
-18.37416
 30
0.0
 10
-11.861750000000001
 20
-18.436800000000002
 30
0.0
 10
-11.969139999999999
 20
-18.49945
 30
0.0
  0
ENDSEC
  0
SECTION
  2
OBJECTS
  0
DICTIONARY
  5
19
100
AcDbDictionary
280
     0
281
     1
  3
ACAD_GROUP
350
1A
  3
ACAD_MLINESTYLE
350
1B
  3
ACAD_LAYOUT
350
1E
  3
ACAD_PLOTSETTINGS
350
22
  3
ACAD_PLOTSTYLENAME
350
1F
  3
ACAD_WIPEOUT_VARS
350
23
  0
DICTIONARY
  5
1A
102
{ACAD_REACTORS
330
19
102
}
100
AcDbDictionary
280
     0
281
     1
  0
DICTIONARY
  5
1B
102
{ACAD_REACTORS
330
19
102
}
100
AcDbDictionary
280
     0
281
     1
  3
Standard
350
1C
  0
MLINESTYLE
  5
1C
102
{ACAD_REACTORS
330
1B
102
}
100
AcDbMlineStyle
  2
Standard
 70
     0
  3

 62
     0
 51
90.0
 52
90.0
 71
     2
 49
0.5
 62
   256
  6
BYLAYER
 49
-0.5
 62
   256
  6
BYLAYER
  0
ACDBDICTIONARYWDFLT
  5
1F
102
{ACAD_REACTORS
330
19
102
}
100
AcDbDictionary
281
     1
  3
Normal
350
1D
100
AcDbDictionaryWithDefault
340
1D
  0
ACDBPLACEHOLDER
  5
1D
102
{ACAD_REACTORS
330
1F
102
}
  0
LAYOUT
  5
20
102
{ACAD_REACTORS
330
1E
102
}
100
AcDbPlotSettings
  1

  2

  4

  6

 40
0.0
 41
0.0
 42
0.0
 43
0.0
 44
0.0
 45
0.0
 46
0.0
 47
0.0
 48
0.0
 49
0.0
140
0.0
141
0.0
142
1.0
143
1.0
 70
  1024
 72
     0
 73
     0
 74
     0
  7

 75
     0
147
1.0
148
0.0
149
0.0
100
AcDbLayout
  1
Model
 70
     0
 71
     0
 10
0.0
 20
0.0
 11
0.0
 21
0.0
 12
0.0
 22
0.0
 32
0.0
 14
0.0
 24
0.0
 34
0.0
 15
0.0
 25
0.0
 35
0.0
146
0.0
 13
0.0
 23
0.0
 33
0.0
 16
0.0
 26
0.0
 36
0.0
 17
0.0
 27
0.0
 37
0.0
 76
     0
330
A
331
0
345
0
346
0
  0
LAYOUT
  5
21
102
{ACAD_REACTORS
330
1E
102
}
100
AcDbPlotSettings
  1

  2

  4

  6

 40
0.0
 41
0.0
 42
0.0
 43
0.0
 44
0.0
 45
0.0
 46
0.0
 47
0.0
 48
0.0
 49
0.0
140
0.0
141
0.0
142
1.0
143
1.0
 70
     0
 72
     0
 73
     0
 74
     0
  7

 75
     0
147
1.0
148
0.0
149
0.0
100
AcDbLayout
  1
Layout1
 70
     0
 71
     0
 10
0.0
 20
0.0
 11
0.0
 21
0.0
 12
0.0
 22
0.0
 32
0.0
 14
0.0
 24
0.0
 34
0.0
 15
0.0
 25
0.0
 35
0.0
146
0.0
 13
0.0
 23
0.0
 33
0.0
 16
0.0
 26
0.0
 36
0.0
 17
0.0
 27
0.0
 37
0.0
 76
     0
330
B
331
0
345
0
346
0
  0
DICTIONARY
  5
1E
102
{ACAD_REACTORS
330
19
102
}
100
AcDbDictionary
280
     0
281
     1
  3
Layout1
350
21
  3
Model
350
20
  0
DICTIONARY
  5
22
102
{ACAD_REACTORS
330
19
102
}
100
AcDbDictionary
280
     0
281
     1
  0
WIPEOUTVARIABLES
  5
23
100
AcDbWipeoutVariables
 70
     1
  0
ENDSEC
  0
EOF
