0
SECTION
2
ENTITIES
0
LINE
8
1
62
3
10
-0.190175
20
-1.72882
30
0.0
11
-0.184943
21
-1.717012
31
0.0
0
LINE
8
1
62
3
10
-0.184943
20
-1.717012
30
0.0
11
-0.171355
21
-1.714709
31
0.0
0
LINE
8
1
62
3
10
-0.171355
20
-1.714709
30
0.0
11
-0.154804
21
-1.722006
31
0.0
0
LINE
8
1
62
3
10
-0.154804
20
-1.722006
30
0.0
11
-0.148069
21
-1.732705
31
0.0
0
LINE
8
1
62
3
10
-0.148069
20
-1.732705
30
0.0
11
-0.151802
21
-1.742373
31
0.0
0
LINE
8
1
62
3
10
-0.151802
20
-1.742373
30
0.0
11
-0.166657
21
-1.746581
31
0.0
0
LINE
8
1
62
3
10
-0.166657
20
-1.746581
30
0.0
11
-0.183616
21
-1.741627
31
0.0
0
LINE
8
1
62
3
10
-0.183616
20
-1.741627
30
0.0
11
-0.190175
21
-1.72882
31
0.0
0
LINE
8
1
62
3
10
-0.009358
20
-1.738114
30
0.0
11
-0.000864
21
-1.722926
31
0.0
0
LINE
8
1
62
3
10
-0.000864
20
-1.722926
30
0.0
11
0.018071
21
-1.704137
31
0.0
0
LINE
8
1
62
3
10
0.018071
20
-1.704137
30
0.0
11
0.038375
21
-1.689482
31
0.0
0
LINE
8
1
62
3
10
0.038375
20
-1.689482
30
0.0
11
0.050973
21
-1.686692
31
0.0
0
LINE
8
1
62
3
10
0.050973
20
-1.686692
30
0.0
11
0.05818
21
-1.72024
31
0.0
0
LINE
8
1
62
3
10
0.05818
20
-1.72024
30
0.0
11
0.051729
21
-1.741564
31
0.0
0
LINE
8
1
62
3
10
0.051729
20
-1.741564
30
0.0
11
0.024313
21
-1.746581
31
0.0
0
LINE
8
1
62
3
10
0.024313
20
-1.746581
30
0.0
11
0.000452
21
-1.744094
31
0.0
0
LINE
8
1
62
3
10
0.000452
20
-1.744094
30
0.0
11
-0.009358
21
-1.738114
31
0.0
0
LINE
8
1
62
3
10
0.193647
20
-1.724003
30
0.0
11
0.196748
21
-1.71603
31
0.0
0
LINE
8
1
62
3
10
0.196748
20
-1.71603
30
0.0
11
0.204205
21
-1.712714
31
0.0
0
LINE
8
1
62
3
10
0.204205
20
-1.712714
30
0.0
11
0.215795
21
-1.701284
31
0.0
0
LINE
8
1
62
3
10
0.215795
20
-1.701284
30
0.0
11
0.228833
21
-1.673804
31
0.0
0
LINE
8
1
62
3
10
0.228833
20
-1.673804
30
0.0
11
0.241484
21
-1.648001
31
0.0
0
LINE
8
1
62
3
10
0.241484
20
-1.648001
30
0.0
11
0.252142
21
-1.640604
31
0.0
0
LINE
8
1
62
3
10
0.252142
20
-1.640604
30
0.0
11
0.259554
21
-1.654791
31
0.0
0
LINE
8
1
62
3
10
0.259554
20
-1.654791
30
0.0
11
0.261007
21
-1.678683
31
0.0
0
LINE
8
1
62
3
10
0.261007
20
-1.678683
30
0.0
11
0.256951
21
-1.703821
31
0.0
0
LINE
8
1
62
3
10
0.256951
20
-1.703821
30
0.0
11
0.247833
21
-1.721745
31
0.0
0
LINE
8
1
62
3
10
0.247833
20
-1.721745
30
0.0
11
0.232446
21
-1.731229
31
0.0
0
LINE
8
1
62
3
10
0.232446
20
-1.731229
30
0.0
11
0.214588
21
-1.734921
31
0.0
0
LINE
8
1
62
3
10
0.214588
20
-1.734921
30
0.0
11
0.199807
21
-1.732589
31
0.0
0
LINE
8
1
62
3
10
0.199807
20
-1.732589
30
0.0
11
0.193647
21
-1.724003
31
0.0
0
LINE
8
1
62
3
10
-0.423451
20
-1.706311
30
0.0
11
-0.424489
21
-1.690059
31
0.0
0
LINE
8
1
62
3
10
-0.424489
20
-1.690059
30
0.0
11
-0.417452
21
-1.675831
31
0.0
0
LINE
8
1
62
3
10
-0.417452
20
-1.675831
30
0.0
11
-0.404664
21
-1.643389
31
0.0
0
LINE
8
1
62
3
10
-0.404664
20
-1.643389
30
0.0
11
-0.393771
21
-1.617735
31
0.0
0
LINE
8
1
62
3
10
-0.393771
20
-1.617735
30
0.0
11
-0.384271
21
-1.611611
31
0.0
0
LINE
8
1
62
3
10
-0.384271
20
-1.611611
30
0.0
11
-0.375729
21
-1.613709
31
0.0
0
LINE
8
1
62
3
10
-0.375729
20
-1.613709
30
0.0
11
-0.355007
21
-1.671284
31
0.0
0
LINE
8
1
62
3
10
-0.355007
20
-1.671284
30
0.0
11
-0.339141
21
-1.724003
31
0.0
0
LINE
8
1
62
3
10
-0.339141
20
-1.724003
30
0.0
11
-0.377901
21
-1.724003
31
0.0
0
LINE
8
1
62
3
10
-0.377901
20
-1.724003
30
0.0
11
-0.408341
21
-1.719398
31
0.0
0
LINE
8
1
62
3
10
-0.408341
20
-1.719398
30
0.0
11
-0.423451
21
-1.706311
31
0.0
0
LINE
8
1
62
3
10
0.314742
20
-1.698603
30
0.0
11
0.319454
21
-1.658335
31
0.0
0
LINE
8
1
62
3
10
0.319454
20
-1.658335
30
0.0
11
0.324119
21
-1.61653
31
0.0
0
LINE
8
1
62
3
10
0.324119
20
-1.61653
30
0.0
11
0.321748
21
-1.552752
31
0.0
0
LINE
8
1
62
3
10
0.321748
20
-1.552752
30
0.0
11
0.318713
21
-1.485903
31
0.0
0
LINE
8
1
62
3
10
0.318713
20
-1.485903
30
0.0
11
0.324234
21
-1.477179
31
0.0
0
LINE
8
1
62
3
10
0.324234
20
-1.477179
30
0.0
11
0.335851
21
-1.477432
31
0.0
0
LINE
8
1
62
3
10
0.335851
20
-1.477432
30
0.0
11
0.347184
21
-1.482666
31
0.0
0
LINE
8
1
62
3
10
0.347184
20
-1.482666
30
0.0
11
0.354166
21
-1.496575
31
0.0
0
LINE
8
1
62
3
10
0.354166
20
-1.496575
30
0.0
11
0.360683
21
-1.571688
31
0.0
0
LINE
8
1
62
3
10
0.360683
20
-1.571688
30
0.0
11
0.357646
21
-1.687276
31
0.0
0
LINE
8
1
62
3
10
0.357646
20
-1.687276
30
0.0
11
0.349208
21
-1.70382
31
0.0
0
LINE
8
1
62
3
10
0.349208
20
-1.70382
30
0.0
11
0.3367
21
-1.711894
31
0.0
0
LINE
8
1
62
3
10
0.3367
20
-1.711894
30
0.0
11
0.32394
21
-1.710491
31
0.0
0
LINE
8
1
62
3
10
0.32394
20
-1.710491
30
0.0
11
0.314742
21
-1.698603
31
0.0
0
LINE
8
1
62
3
10
-0.612167
20
-1.66973
30
0.0
11
-0.607869
21
-1.556149
31
0.0
0
LINE
8
1
62
3
10
-0.607869
20
-1.556149
30
0.0
11
-0.591706
21
-1.444438
31
0.0
0
LINE
8
1
62
3
10
-0.591706
20
-1.444438
30
0.0
11
-0.587172
21
-1.459998
31
0.0
0
LINE
8
1
62
3
10
-0.587172
20
-1.459998
30
0.0
11
-0.585287
21
-1.506425
31
0.0
0
LINE
8
1
62
3
10
-0.585287
20
-1.506425
30
0.0
11
-0.581498
21
-1.56098
31
0.0
0
LINE
8
1
62
3
10
-0.581498
20
-1.56098
30
0.0
11
-0.576262
21
-1.574693
31
0.0
0
LINE
8
1
62
3
10
-0.576262
20
-1.574693
30
0.0
11
-0.568353
21
-1.58133
31
0.0
0
LINE
8
1
62
3
10
-0.568353
20
-1.58133
30
0.0
11
-0.555695
21
-1.597677
31
0.0
0
LINE
8
1
62
3
10
-0.555695
20
-1.597677
30
0.0
11
-0.55142
21
-1.633338
31
0.0
0
LINE
8
1
62
3
10
-0.55142
20
-1.633338
30
0.0
11
-0.555951
21
-1.671364
31
0.0
0
LINE
8
1
62
3
10
-0.555951
20
-1.671364
30
0.0
11
-0.564267
21
-1.677464
31
0.0
0
LINE
8
1
62
3
10
-0.564267
20
-1.677464
30
0.0
11
-0.578976
21
-1.678848
31
0.0
0
LINE
8
1
62
3
10
-0.578976
20
-1.678848
30
0.0
11
-0.600093
21
-1.676169
31
0.0
0
LINE
8
1
62
3
10
-0.600093
20
-1.676169
30
0.0
11
-0.612167
21
-1.66973
31
0.0
0
LINE
8
1
62
3
10
1.620523
20
-1.084242
30
0.0
11
1.34843
21
-0.801313
31
0.0
0
LINE
8
1
62
3
10
1.34843
20
-0.801313
30
0.0
11
1.345113
21
-0.781381
31
0.0
0
LINE
8
1
62
3
10
1.345113
20
-0.781381
30
0.0
11
1.341797
21
-0.761449
31
0.0
0
LINE
8
1
62
3
10
1.341797
20
-0.761449
30
0.0
11
1.333825
21
-0.753159
31
0.0
0
LINE
8
1
62
3
10
1.333825
20
-0.753159
30
0.0
11
1.325852
21
-0.74719
31
0.0
0
LINE
8
1
62
3
10
1.325852
20
-0.74719
30
0.0
11
1.322536
21
-0.732839
31
0.0
0
LINE
8
1
62
3
10
1.322536
20
-0.732839
30
0.0
11
1.31315
21
-0.701794
31
0.0
0
LINE
8
1
62
3
10
1.31315
20
-0.701794
30
0.0
11
1.290119
21
-0.643092
31
0.0
0
LINE
8
1
62
3
10
1.290119
20
-0.643092
30
0.0
11
1.277299
21
-0.609208
31
0.0
0
LINE
8
1
62
3
10
1.277299
20
-0.609208
30
0.0
11
1.265638
21
-0.595114
31
0.0
0
LINE
8
1
62
3
10
1.265638
20
-0.595114
30
0.0
11
1.257985
21
-0.589126
31
0.0
0
LINE
8
1
62
3
10
1.257985
20
-0.589126
30
0.0
11
1.254802
21
-0.574728
31
0.0
0
LINE
8
1
62
3
10
1.254802
20
-0.574728
30
0.0
11
1.230544
21
-0.482363
31
0.0
0
LINE
8
1
62
3
10
1.230544
20
-0.482363
30
0.0
11
1.198099
21
-0.403203
31
0.0
0
LINE
8
1
62
3
10
1.198099
20
-0.403203
30
0.0
11
1.165778
21
-0.349581
31
0.0
0
LINE
8
1
62
3
10
1.165778
20
-0.349581
30
0.0
11
1.132645
21
-0.301603
31
0.0
0
LINE
8
1
62
3
10
1.132645
20
-0.301603
30
0.0
11
1.119173
21
-0.286681
31
0.0
0
LINE
8
1
62
3
10
1.119173
20
-0.286681
30
0.0
11
1.099154
21
-0.250803
31
0.0
0
LINE
8
1
62
3
10
1.099154
20
-0.250803
30
0.0
11
1.078282
21
-0.214926
31
0.0
0
LINE
8
1
62
3
10
1.078282
20
-0.214926
30
0.0
11
1.062759
21
-0.200003
31
0.0
0
LINE
8
1
62
3
10
1.062759
20
-0.200003
30
0.0
11
1.051259
21
-0.192542
31
0.0
0
LINE
8
1
62
3
10
1.051259
20
-0.192542
30
0.0
11
1.040061
21
-0.174603
31
0.0
0
LINE
8
1
62
3
10
1.040061
20
-0.174603
30
0.0
11
1.016014
21
-0.128623
31
0.0
0
LINE
8
1
62
3
10
1.016014
20
-0.128623
30
0.0
11
0.993911
21
-0.098403
31
0.0
0
LINE
8
1
62
3
10
0.993911
20
-0.098403
30
0.0
11
0.966936
21
-0.053248
31
0.0
0
LINE
8
1
62
3
10
0.966936
20
-0.053248
30
0.0
11
0.939157
21
-0.008092
31
0.0
0
LINE
8
1
62
3
10
0.939157
20
-0.008092
30
0.0
11
0.913611
21
0.104797
31
0.0
0
LINE
8
1
62
3
10
0.913611
20
0.104797
30
0.0
11
0.898018
21
0.181434
31
0.0
0
LINE
8
1
62
3
10
0.898018
20
0.181434
30
0.0
11
0.892385
21
0.192376
31
0.0
0
LINE
8
1
62
3
10
0.892385
20
0.192376
30
0.0
11
0.887697
21
0.186641
31
0.0
0
LINE
8
1
62
3
10
0.887697
20
0.186641
30
0.0
11
0.879074
21
0.168703
31
0.0
0
LINE
8
1
62
3
10
0.879074
20
0.168703
30
0.0
11
0.869663
21
0.161241
31
0.0
0
LINE
8
1
62
3
10
0.869663
20
0.161241
30
0.0
11
0.862621
21
0.156463
31
0.0
0
LINE
8
1
62
3
10
0.862621
20
0.156463
30
0.0
11
0.859691
21
0.144974
31
0.0
0
LINE
8
1
62
3
10
0.859691
20
0.144974
30
0.0
11
0.850049
21
0.122748
31
0.0
0
LINE
8
1
62
3
10
0.850049
20
0.122748
30
0.0
11
0.84663
21
0.133358
31
0.0
0
LINE
8
1
62
3
10
0.84663
20
0.133358
30
0.0
11
0.851951
21
0.167237
31
0.0
0
LINE
8
1
62
3
10
0.851951
20
0.167237
30
0.0
11
0.862861
21
0.202867
31
0.0
0
LINE
8
1
62
3
10
0.862861
20
0.202867
30
0.0
11
0.872882
21
0.217686
31
0.0
0
LINE
8
1
62
3
10
0.872882
20
0.217686
30
0.0
11
0.880661
21
0.243819
31
0.0
0
LINE
8
1
62
3
10
0.880661
20
0.243819
30
0.0
11
0.88229
21
0.301683
31
0.0
0
LINE
8
1
62
3
10
0.88229
20
0.301683
30
0.0
11
0.878374
21
0.360473
31
0.0
0
LINE
8
1
62
3
10
0.878374
20
0.360473
30
0.0
11
0.869517
21
0.389388
31
0.0
0
LINE
8
1
62
3
10
0.869517
20
0.389388
30
0.0
11
0.857749
21
0.432055
31
0.0
0
LINE
8
1
62
3
10
0.857749
20
0.432055
30
0.0
11
0.847722
21
0.542658
31
0.0
0
LINE
8
1
62
3
10
0.847722
20
0.542658
30
0.0
11
0.831138
21
0.71544
31
0.0
0
LINE
8
1
62
3
10
0.831138
20
0.71544
30
0.0
11
0.827268
21
0.729517
31
0.0
0
LINE
8
1
62
3
10
0.827268
20
0.729517
30
0.0
11
0.831595
21
0.734713
31
0.0
0
LINE
8
1
62
3
10
0.831595
20
0.734713
30
0.0
11
0.889235
21
0.720653
31
0.0
0
LINE
8
1
62
3
10
0.889235
20
0.720653
30
0.0
11
0.902192
21
0.71862
31
0.0
0
LINE
8
1
62
3
10
0.902192
20
0.71862
30
0.0
11
0.910209
21
0.723714
31
0.0
0
LINE
8
1
62
3
10
0.910209
20
0.723714
30
0.0
11
0.91917
21
0.767364
31
0.0
0
LINE
8
1
62
3
10
0.91917
20
0.767364
30
0.0
11
0.927074
21
0.806389
31
0.0
0
LINE
8
1
62
3
10
0.927074
20
0.806389
30
0.0
11
0.937603
21
0.825034
31
0.0
0
LINE
8
1
62
3
10
0.937603
20
0.825034
30
0.0
11
0.946385
21
0.831822
31
0.0
0
LINE
8
1
62
3
10
0.946385
20
0.831822
30
0.0
11
0.950087
21
0.842338
31
0.0
0
LINE
8
1
62
3
10
0.950087
20
0.842338
30
0.0
11
0.965045
21
0.86627
31
0.0
0
LINE
8
1
62
3
10
0.965045
20
0.86627
30
0.0
11
1.000887
21
0.905316
31
0.0
0
LINE
8
1
62
3
10
1.000887
20
0.905316
30
0.0
11
1.051602
21
0.963266
31
0.0
0
LINE
8
1
62
3
10
1.051602
20
0.963266
30
0.0
11
1.07418
21
0.977312
31
0.0
0
LINE
8
1
62
3
10
1.07418
20
0.977312
30
0.0
11
1.09119
21
0.988981
31
0.0
0
LINE
8
1
62
3
10
1.09119
20
0.988981
30
0.0
11
1.096758
21
1.012496
31
0.0
0
LINE
8
1
62
3
10
1.096758
20
1.012496
30
0.0
11
1.10119
21
1.034006
31
0.0
0
LINE
8
1
62
3
10
1.10119
20
1.034006
30
0.0
11
1.113462
21
1.041775
31
0.0
0
LINE
8
1
62
3
10
1.113462
20
1.041775
30
0.0
11
1.132438
21
1.055868
31
0.0
0
LINE
8
1
62
3
10
1.132438
20
1.055868
30
0.0
11
1.154604
21
1.089752
31
0.0
0
LINE
8
1
62
3
10
1.154604
20
1.089752
30
0.0
11
1.196855
21
1.16498
31
0.0
0
LINE
8
1
62
3
10
1.196855
20
1.16498
30
0.0
11
1.233217
21
1.245607
31
0.0
0
LINE
8
1
62
3
10
1.233217
20
1.245607
30
0.0
11
1.254802
21
1.320741
31
0.0
0
LINE
8
1
62
3
10
1.254802
20
1.320741
30
0.0
11
1.261435
21
1.337646
31
0.0
0
LINE
8
1
62
3
10
1.261435
20
1.337646
30
0.0
11
1.27738
21
1.357864
31
0.0
0
LINE
8
1
62
3
10
1.27738
20
1.357864
30
0.0
11
1.294277
21
1.377801
31
0.0
0
LINE
8
1
62
3
10
1.294277
20
1.377801
30
0.0
11
1.297424
21
1.393724
31
0.0
0
LINE
8
1
62
3
10
1.297424
20
1.393724
30
0.0
11
1.28566
21
1.40996
31
0.0
0
LINE
8
1
62
3
10
1.28566
20
1.40996
30
0.0
11
1.257826
21
1.430834
31
0.0
0
LINE
8
1
62
3
10
1.257826
20
1.430834
30
0.0
11
1.230952
21
1.446737
31
0.0
0
LINE
8
1
62
3
10
1.230952
20
1.446737
30
0.0
11
1.200069
21
1.455308
31
0.0
0
LINE
8
1
62
3
10
1.200069
20
1.455308
30
0.0
11
1.065915
21
1.459464
31
0.0
0
LINE
8
1
62
3
10
1.065915
20
1.459464
30
0.0
11
0.956403
21
1.462498
31
0.0
0
LINE
8
1
62
3
10
0.956403
20
1.462498
30
0.0
11
0.916136
21
1.470752
31
0.0
0
LINE
8
1
62
3
10
0.916136
20
1.470752
30
0.0
11
0.901409
21
1.478725
31
0.0
0
LINE
8
1
62
3
10
0.901409
20
1.478725
30
0.0
11
0.866002
21
1.482041
31
0.0
0
LINE
8
1
62
3
10
0.866002
20
1.482041
30
0.0
11
0.828545
21
1.485357
31
0.0
0
LINE
8
1
62
3
10
0.828545
20
1.485357
30
0.0
11
0.808891
21
1.49333
31
0.0
0
LINE
8
1
62
3
10
0.808891
20
1.49333
30
0.0
11
0.797527
21
1.501303
31
0.0
0
LINE
8
1
62
3
10
0.797527
20
1.501303
30
0.0
11
0.780003
21
1.504619
31
0.0
0
LINE
8
1
62
3
10
0.780003
20
1.504619
30
0.0
11
0.764528
21
1.507807
31
0.0
0
LINE
8
1
62
3
10
0.764528
20
1.507807
30
0.0
11
0.758091
21
1.515473
31
0.0
0
LINE
8
1
62
3
10
0.758091
20
1.515473
30
0.0
11
0.743998
21
1.526691
31
0.0
0
LINE
8
1
62
3
10
0.743998
20
1.526691
30
0.0
11
0.710113
21
1.53842
31
0.0
0
LINE
8
1
62
3
10
0.710113
20
1.53842
30
0.0
11
0.614499
21
1.573344
31
0.0
0
LINE
8
1
62
3
10
0.614499
20
1.573344
30
0.0
11
0.560815
21
1.593194
31
0.0
0
LINE
8
1
62
3
10
0.560815
20
1.593194
30
0.0
11
0.498639
21
1.608861
31
0.0
0
LINE
8
1
62
3
10
0.498639
20
1.608861
30
0.0
11
0.435414
21
1.615865
31
0.0
0
LINE
8
1
62
3
10
0.435414
20
1.615865
30
0.0
11
0.390209
21
1.602374
31
0.0
0
LINE
8
1
62
3
10
0.390209
20
1.602374
30
0.0
11
0.365833
21
1.592076
31
0.0
0
LINE
8
1
62
3
10
0.365833
20
1.592076
30
0.0
11
0.34453
21
1.589929
31
0.0
0
LINE
8
1
62
3
10
0.34453
20
1.589929
30
0.0
11
0.269001
21
1.614193
31
0.0
0
LINE
8
1
62
3
10
0.269001
20
1.614193
30
0.0
11
0.218121
21
1.631913
31
0.0
0
LINE
8
1
62
3
10
0.218121
20
1.631913
30
0.0
11
0.164953
21
1.641134
31
0.0
0
LINE
8
1
62
3
10
0.164953
20
1.641134
30
0.0
11
-0.069409
21
1.64517
31
0.0
0
LINE
8
1
62
3
10
-0.069409
20
1.64517
30
0.0
11
-0.261431
21
1.642123
31
0.0
0
LINE
8
1
62
3
10
-0.261431
20
1.642123
30
0.0
11
-0.334698
21
1.63357
31
0.0
0
LINE
8
1
62
3
10
-0.334698
20
1.63357
30
0.0
11
-0.36629
21
1.625086
31
0.0
0
LINE
8
1
62
3
10
-0.36629
20
1.625086
30
0.0
11
-0.431182
21
1.620957
31
0.0
0
LINE
8
1
62
3
10
-0.431182
20
1.620957
30
0.0
11
-0.506371
21
1.615371
31
0.0
0
LINE
8
1
62
3
10
-0.506371
20
1.615371
30
0.0
11
-0.561004
21
1.602803
31
0.0
0
LINE
8
1
62
3
10
-0.561004
20
1.602803
30
0.0
11
-0.67842
21
1.553925
31
0.0
0
LINE
8
1
62
3
10
-0.67842
20
1.553925
30
0.0
11
-0.732236
21
1.528922
31
0.0
0
LINE
8
1
62
3
10
-0.732236
20
1.528922
30
0.0
11
-0.75462
21
1.513396
31
0.0
0
LINE
8
1
62
3
10
-0.75462
20
1.513396
30
0.0
11
-0.760159
21
1.507197
31
0.0
0
LINE
8
1
62
3
10
-0.760159
20
1.507197
30
0.0
11
-0.773475
21
1.504619
31
0.0
0
LINE
8
1
62
3
10
-0.773475
20
1.504619
30
0.0
11
-0.866608
21
1.471994
31
0.0
0
LINE
8
1
62
3
10
-0.866608
20
1.471994
30
0.0
11
-1.025553
21
1.413072
31
0.0
0
LINE
8
1
62
3
10
-1.025553
20
1.413072
30
0.0
11
-1.088678
21
1.390736
31
0.0
0
LINE
8
1
62
3
10
-1.088678
20
1.390736
30
0.0
11
-1.121552
21
1.373962
31
0.0
0
LINE
8
1
62
3
10
-1.121552
20
1.373962
30
0.0
11
-1.155419
21
1.353675
31
0.0
0
LINE
8
1
62
3
10
-1.155419
20
1.353675
30
0.0
11
-1.19099
21
1.337672
31
0.0
0
LINE
8
1
62
3
10
-1.19099
20
1.337672
30
0.0
11
-1.214192
21
1.315944
31
0.0
0
LINE
8
1
62
3
10
-1.214192
20
1.315944
30
0.0
11
-1.22693
21
1.285737
31
0.0
0
LINE
8
1
62
3
10
-1.22693
20
1.285737
30
0.0
11
-1.231111
21
1.244297
31
0.0
0
LINE
8
1
62
3
10
-1.231111
20
1.244297
30
0.0
11
-1.221285
21
1.156069
31
0.0
0
LINE
8
1
62
3
10
-1.221285
20
1.156069
30
0.0
11
-1.192163
21
1.078582
31
0.0
0
LINE
8
1
62
3
10
-1.192163
20
1.078582
30
0.0
11
-1.147354
21
1.018547
31
0.0
0
LINE
8
1
62
3
10
-1.147354
20
1.018547
30
0.0
11
-1.120194
21
0.99717
31
0.0
0
LINE
8
1
62
3
10
-1.120194
20
0.99717
30
0.0
11
-1.090464
21
0.982674
31
0.0
0
LINE
8
1
62
3
10
-1.090464
20
0.982674
30
0.0
11
-1.068539
21
0.972025
31
0.0
0
LINE
8
1
62
3
10
-1.068539
20
0.972025
30
0.0
11
-1.05942
21
0.961648
31
0.0
0
LINE
8
1
62
3
10
-1.05942
20
0.961648
30
0.0
11
-1.055275
21
0.95445
31
0.0
0
LINE
8
1
62
3
10
-1.055275
20
0.95445
30
0.0
11
-1.045309
21
0.951445
31
0.0
0
LINE
8
1
62
3
10
-1.045309
20
0.951445
30
0.0
11
-1.023087
21
0.937993
31
0.0
0
LINE
8
1
62
3
10
-1.023087
20
0.937993
30
0.0
11
-0.989886
21
0.907188
31
0.0
0
LINE
8
1
62
3
10
-0.989886
20
0.907188
30
0.0
11
-0.959702
21
0.873313
31
0.0
0
LINE
8
1
62
3
10
-0.959702
20
0.873313
30
0.0
11
-0.946531
21
0.850649
31
0.0
0
LINE
8
1
62
3
10
-0.946531
20
0.850649
30
0.0
11
-0.926405
21
0.825104
31
0.0
0
LINE
8
1
62
3
10
-0.926405
20
0.825104
30
0.0
11
-0.905668
21
0.79396
31
0.0
0
LINE
8
1
62
3
10
-0.905668
20
0.79396
30
0.0
11
-0.884074
21
0.739797
31
0.0
0
LINE
8
1
62
3
10
-0.884074
20
0.739797
30
0.0
11
-0.866381
21
0.694726
31
0.0
0
LINE
8
1
62
3
10
-0.866381
20
0.694726
30
0.0
11
-0.848317
21
0.671692
31
0.0
0
LINE
8
1
62
3
10
-0.848317
20
0.671692
30
0.0
11
-0.829334
21
0.670335
31
0.0
0
LINE
8
1
62
3
10
-0.829334
20
0.670335
30
0.0
11
-0.808882
21
0.690292
31
0.0
0
LINE
8
1
62
3
10
-0.808882
20
0.690292
30
0.0
11
-0.801303
21
0.69588
31
0.0
0
LINE
8
1
62
3
10
-0.801303
20
0.69588
30
0.0
11
-0.796787
21
0.681908
31
0.0
0
LINE
8
1
62
3
10
-0.796787
20
0.681908
30
0.0
11
-0.793922
21
0.571217
31
0.0
0
LINE
8
1
62
3
10
-0.793922
20
0.571217
30
0.0
11
-0.790473
21
0.461764
31
0.0
0
LINE
8
1
62
3
10
-0.790473
20
0.461764
30
0.0
11
-0.786062
21
0.434242
31
0.0
0
LINE
8
1
62
3
10
-0.786062
20
0.434242
30
0.0
11
-0.779622
21
0.422384
31
0.0
0
LINE
8
1
62
3
10
-0.779622
20
0.422384
30
0.0
11
-0.764539
21
0.374025
31
0.0
0
LINE
8
1
62
3
10
-0.764539
20
0.374025
30
0.0
11
-0.747796
21
0.2593
31
0.0
0
LINE
8
1
62
3
10
-0.747796
20
0.2593
30
0.0
11
-0.735853
21
0.117893
31
0.0
0
LINE
8
1
62
3
10
-0.735853
20
0.117893
30
0.0
11
-0.74595
21
0.025839
31
0.0
0
LINE
8
1
62
3
10
-0.74595
20
0.025839
30
0.0
11
-0.755407
21
-0.053127
31
0.0
0
LINE
8
1
62
3
10
-0.755407
20
-0.053127
30
0.0
11
-0.710701
21
-0.013616
31
0.0
0
LINE
8
1
62
3
10
-0.710701
20
-0.013616
30
0.0
11
-0.668182
21
0.022742
31
0.0
0
LINE
8
1
62
3
10
-0.668182
20
0.022742
30
0.0
11
-0.656903
21
0.025507
31
0.0
0
LINE
8
1
62
3
10
-0.656903
20
0.025507
30
0.0
11
-0.65302
21
0.017595
31
0.0
0
LINE
8
1
62
3
10
-0.65302
20
0.017595
30
0.0
11
-0.690434
21
-0.024739
31
0.0
0
LINE
8
1
62
3
10
-0.690434
20
-0.024739
30
0.0
11
-0.718027
21
-0.055531
31
0.0
0
LINE
8
1
62
3
10
-0.718027
20
-0.055531
30
0.0
11
-0.742216
21
-0.09235
31
0.0
0
LINE
8
1
62
3
10
-0.742216
20
-0.09235
30
0.0
11
-0.759383
21
-0.128787
31
0.0
0
LINE
8
1
62
3
10
-0.759383
20
-0.128787
30
0.0
11
-0.765909
21
-0.158435
31
0.0
0
LINE
8
1
62
3
10
-0.765909
20
-0.158435
30
0.0
11
-0.770054
21
-0.172191
31
0.0
0
LINE
8
1
62
3
10
-0.770054
20
-0.172191
30
0.0
11
-0.78002
21
-0.181238
31
0.0
0
LINE
8
1
62
3
10
-0.78002
20
-0.181238
30
0.0
11
-0.787206
21
-0.1857
31
0.0
0
LINE
8
1
62
3
10
-0.787206
20
-0.1857
30
0.0
11
-0.781247
21
-0.187823
31
0.0
0
LINE
8
1
62
3
10
-0.781247
20
-0.187823
30
0.0
11
-0.755479
21
-0.171872
31
0.0
0
LINE
8
1
62
3
10
-0.755479
20
-0.171872
30
0.0
11
-0.71162
21
-0.13227
31
0.0
0
LINE
8
1
62
3
10
-0.71162
20
-0.13227
30
0.0
11
-0.666299
21
-0.092406
31
0.0
0
LINE
8
1
62
3
10
-0.666299
20
-0.092406
30
0.0
11
-0.637016
21
-0.075825
31
0.0
0
LINE
8
1
62
3
10
-0.637016
20
-0.075825
30
0.0
11
-0.6244
21
-0.073175
31
0.0
0
LINE
8
1
62
3
10
-0.6244
20
-0.073175
30
0.0
11
-0.619153
21
-0.066804
31
0.0
0
LINE
8
1
62
3
10
-0.619153
20
-0.066804
30
0.0
11
-0.584377
21
-0.045493
31
0.0
0
LINE
8
1
62
3
10
-0.584377
20
-0.045493
30
0.0
11
-0.534379
21
-0.03067
31
0.0
0
LINE
8
1
62
3
10
-0.534379
20
-0.03067
30
0.0
11
-0.534581
21
-0.037302
31
0.0
0
LINE
8
1
62
3
10
-0.534581
20
-0.037302
30
0.0
11
-0.548819
21
-0.053248
31
0.0
0
LINE
8
1
62
3
10
-0.548819
20
-0.053248
30
0.0
11
-0.581021
21
-0.075825
31
0.0
0
LINE
8
1
62
3
10
-0.581021
20
-0.075825
30
0.0
11
-0.605399
21
-0.08231
31
0.0
0
LINE
8
1
62
3
10
-0.605399
20
-0.08231
30
0.0
11
-0.636843
21
-0.097532
31
0.0
0
LINE
8
1
62
3
10
-0.636843
20
-0.097532
30
0.0
11
-0.66402
21
-0.115144
31
0.0
0
LINE
8
1
62
3
10
-0.66402
20
-0.115144
30
0.0
11
-0.675598
21
-0.128798
31
0.0
0
LINE
8
1
62
3
10
-0.675598
20
-0.128798
30
0.0
11
-0.678746
21
-0.139223
31
0.0
0
LINE
8
1
62
3
10
-0.678746
20
-0.139223
30
0.0
11
-0.686314
21
-0.143559
31
0.0
0
LINE
8
1
62
3
10
-0.686314
20
-0.143559
30
0.0
11
-0.704923
21
-0.154792
31
0.0
0
LINE
8
1
62
3
10
-0.704923
20
-0.154792
30
0.0
11
-0.731562
21
-0.180706
31
0.0
0
LINE
8
1
62
3
10
-0.731562
20
-0.180706
30
0.0
11
-0.755464
21
-0.209615
31
0.0
0
LINE
8
1
62
3
10
-0.755464
20
-0.209615
30
0.0
11
-0.765857
21
-0.22984
31
0.0
0
LINE
8
1
62
3
10
-0.765857
20
-0.22984
30
0.0
11
-0.770208
21
-0.240608
31
0.0
0
LINE
8
1
62
3
10
-0.770208
20
-0.240608
30
0.0
11
-0.780595
21
-0.248379
31
0.0
0
LINE
8
1
62
3
10
-0.780595
20
-0.248379
30
0.0
11
-0.797288
21
-0.270955
31
0.0
0
LINE
8
1
62
3
10
-0.797288
20
-0.270955
30
0.0
11
-0.816799
21
-0.31732
31
0.0
0
LINE
8
1
62
3
10
-0.816799
20
-0.31732
30
0.0
11
-0.846218
21
-0.380625
31
0.0
0
LINE
8
1
62
3
10
-0.846218
20
-0.380625
30
0.0
11
-0.858833
21
-0.403244
31
0.0
0
LINE
8
1
62
3
10
-0.858833
20
-0.403244
30
0.0
11
-0.877349
21
-0.455213
31
0.0
0
LINE
8
1
62
3
10
-0.877349
20
-0.455213
30
0.0
11
-0.901375
21
-0.55186
31
0.0
0
LINE
8
1
62
3
10
-0.901375
20
-0.55186
30
0.0
11
-0.904065
21
-0.566463
31
0.0
0
LINE
8
1
62
3
10
-0.904065
20
-0.566463
30
0.0
11
-0.91053
21
-0.572536
31
0.0
0
LINE
8
1
62
3
10
-0.91053
20
-0.572536
30
0.0
11
-0.919179
21
-0.584737
31
0.0
0
LINE
8
1
62
3
10
-0.919179
20
-0.584737
30
0.0
11
-0.930217
21
-0.617772
31
0.0
0
LINE
8
1
62
3
10
-0.930217
20
-0.617772
30
0.0
11
-0.953433
21
-0.724936
31
0.0
0
LINE
8
1
62
3
10
-0.953433
20
-0.724936
30
0.0
11
-0.961998
21
-0.758884
31
0.0
0
LINE
8
1
62
3
10
-0.961998
20
-0.758884
30
0.0
11
-0.971855
21
-0.777094
31
0.0
0
LINE
8
1
62
3
10
-0.971855
20
-0.777094
30
0.0
11
-0.979663
21
-0.818081
31
0.0
0
LINE
8
1
62
3
10
-0.979663
20
-0.818081
30
0.0
11
-0.982131
21
-0.900053
31
0.0
0
LINE
8
1
62
3
10
-0.982131
20
-0.900053
30
0.0
11
-0.97934
21
-0.981999
31
0.0
0
LINE
8
1
62
3
10
-0.97934
20
-0.981999
30
0.0
11
-0.971371
21
-1.022904
31
0.0
0
LINE
8
1
62
3
10
-0.971371
20
-1.022904
30
0.0
11
-0.96145
21
-1.039336
31
0.0
0
LINE
8
1
62
3
10
-0.96145
20
-1.039336
30
0.0
11
-0.952644
21
-1.069248
31
0.0
0
LINE
8
1
62
3
10
-0.952644
20
-1.069248
30
0.0
11
-0.931561
21
-1.138983
31
0.0
0
LINE
8
1
62
3
10
-0.931561
20
-1.138983
30
0.0
11
-0.919786
21
-1.162074
31
0.0
0
LINE
8
1
62
3
10
-0.919786
20
-1.162074
30
0.0
11
-0.909909
21
-1.170848
31
0.0
0
LINE
8
1
62
3
10
-0.909909
20
-1.170848
30
0.0
11
-0.903882
21
-1.175308
31
0.0
0
LINE
8
1
62
3
10
-0.903882
20
-1.175308
30
0.0
11
-0.901375
21
-1.186031
31
0.0
0
LINE
8
1
62
3
10
-0.901375
20
-1.186031
30
0.0
11
-0.895572
21
-1.202012
31
0.0
0
LINE
8
1
62
3
10
-0.895572
20
-1.202012
30
0.0
11
-0.88162
21
-1.219113
31
0.0
0
LINE
8
1
62
3
10
-0.88162
20
-1.219113
30
0.0
11
-0.87078
21
-1.227691
31
0.0
0
LINE
8
1
62
3
10
-0.87078
20
-1.227691
30
0.0
11
-0.865342
21
-1.226202
31
0.0
0
LINE
8
1
62
3
10
-0.865342
20
-1.226202
30
0.0
11
-0.865776
21
-1.181351
31
0.0
0
LINE
8
1
62
3
10
-0.865776
20
-1.181351
30
0.0
11
-0.86449
21
-1.137848
31
0.0
0
LINE
8
1
62
3
10
-0.86449
20
-1.137848
30
0.0
11
-0.860151
21
-1.127992
31
0.0
0
LINE
8
1
62
3
10
-0.860151
20
-1.127992
30
0.0
11
-0.853709
21
-1.125976
31
0.0
0
LINE
8
1
62
3
10
-0.853709
20
-1.125976
30
0.0
11
-0.835599
21
-1.145187
31
0.0
0
LINE
8
1
62
3
10
-0.835599
20
-1.145187
30
0.0
11
-0.812324
21
-1.194931
31
0.0
0
LINE
8
1
62
3
10
-0.812324
20
-1.194931
30
0.0
11
-0.769177
21
-1.277947
31
0.0
0
LINE
8
1
62
3
10
-0.769177
20
-1.277947
30
0.0
11
-0.749405
21
-1.300164
31
0.0
0
LINE
8
1
62
3
10
-0.749405
20
-1.300164
30
0.0
11
-0.735797
21
-1.302543
31
0.0
0
LINE
8
1
62
3
10
-0.735797
20
-1.302543
30
0.0
11
-0.723962
21
-1.250802
31
0.0
0
LINE
8
1
62
3
10
-0.723962
20
-1.250802
30
0.0
11
-0.71648
21
-1.218253
31
0.0
0
LINE
8
1
62
3
10
-0.71648
20
-1.218253
30
0.0
11
-0.707172
21
-1.204714
31
0.0
0
LINE
8
1
62
3
10
-0.707172
20
-1.204714
30
0.0
11
-0.688542
21
-1.199229
31
0.0
0
LINE
8
1
62
3
10
-0.688542
20
-1.199229
30
0.0
11
-0.676984
21
-1.184068
31
0.0
0
LINE
8
1
62
3
10
-0.676984
20
-1.184068
30
0.0
11
-0.673275
21
-1.161172
31
0.0
0
LINE
8
1
62
3
10
-0.673275
20
-1.161172
30
0.0
11
-0.678196
21
-1.132484
31
0.0
0
LINE
8
1
62
3
10
-0.678196
20
-1.132484
30
0.0
11
-0.685007
21
-1.098273
31
0.0
0
LINE
8
1
62
3
10
-0.685007
20
-1.098273
30
0.0
11
-0.679008
21
-1.079432
31
0.0
0
LINE
8
1
62
3
10
-0.679008
20
-1.079432
30
0.0
11
-0.668255
21
-1.077343
31
0.0
0
LINE
8
1
62
3
10
-0.668255
20
-1.077343
30
0.0
11
-0.659881
21
-1.096643
31
0.0
0
LINE
8
1
62
3
10
-0.659881
20
-1.096643
30
0.0
11
-0.649906
21
-1.122679
31
0.0
0
LINE
8
1
62
3
10
-0.649906
20
-1.122679
30
0.0
11
-0.645205
21
-1.12466
31
0.0
0
LINE
8
1
62
3
10
-0.645205
20
-1.12466
30
0.0
11
-0.640751
21
-1.119397
31
0.0
0
LINE
8
1
62
3
10
-0.640751
20
-1.119397
30
0.0
11
-0.626235
21
-1.027627
31
0.0
0
LINE
8
1
62
3
10
-0.626235
20
-1.027627
30
0.0
11
-0.613281
21
-0.924145
31
0.0
0
LINE
8
1
62
3
10
-0.613281
20
-0.924145
30
0.0
11
-0.604394
21
-0.921904
31
0.0
0
LINE
8
1
62
3
10
-0.604394
20
-0.921904
30
0.0
11
-0.597602
21
-0.934003
31
0.0
0
LINE
8
1
62
3
10
-0.597602
20
-0.934003
30
0.0
11
-0.591737
21
-0.996407
31
0.0
0
LINE
8
1
62
3
10
-0.591737
20
-0.996407
30
0.0
11
-0.587879
21
-1.040198
31
0.0
0
LINE
8
1
62
3
10
-0.587879
20
-1.040198
30
0.0
11
-0.578354
21
-1.057806
31
0.0
0
LINE
8
1
62
3
10
-0.578354
20
-1.057806
30
0.0
11
-0.566234
21
-1.048108
31
0.0
0
LINE
8
1
62
3
10
-0.566234
20
-1.048108
30
0.0
11
-0.554592
21
-1.009981
31
0.0
0
LINE
8
1
62
3
10
-0.554592
20
-1.009981
30
0.0
11
-0.541772
21
-0.970946
31
0.0
0
LINE
8
1
62
3
10
-0.541772
20
-0.970946
30
0.0
11
-0.532271
21
-0.962236
31
0.0
0
LINE
8
1
62
3
10
-0.532271
20
-0.962236
30
0.0
11
-0.519007
21
-0.958258
31
0.0
0
LINE
8
1
62
3
10
-0.519007
20
-0.958258
30
0.0
11
-0.498841
21
-0.959744
31
0.0
0
LINE
8
1
62
3
10
-0.498841
20
-0.959744
30
0.0
11
-0.501058
21
-0.980835
31
0.0
0
LINE
8
1
62
3
10
-0.501058
20
-0.980835
30
0.0
11
-0.519045
21
-1.010922
31
0.0
0
LINE
8
1
62
3
10
-0.519045
20
-1.010922
30
0.0
11
-0.525964
21
-1.025127
31
0.0
0
LINE
8
1
62
3
10
-0.525964
20
-1.025127
30
0.0
11
-0.528842
21
-1.053997
31
0.0
0
LINE
8
1
62
3
10
-0.528842
20
-1.053997
30
0.0
11
-0.531811
21
-1.085929
31
0.0
0
LINE
8
1
62
3
10
-0.531811
20
-1.085929
30
0.0
11
-0.539848
21
-1.112347
31
0.0
0
LINE
8
1
62
3
10
-0.539848
20
-1.112347
30
0.0
11
-0.551655
21
-1.13034
31
0.0
0
LINE
8
1
62
3
10
-0.551655
20
-1.13034
30
0.0
11
-0.565928
21
-1.136996
31
0.0
0
LINE
8
1
62
3
10
-0.565928
20
-1.136996
30
0.0
11
-0.58186
21
-1.153355
31
0.0
0
LINE
8
1
62
3
10
-0.58186
20
-1.153355
30
0.0
11
-0.603386
21
-1.19142
31
0.0
0
LINE
8
1
62
3
10
-0.603386
20
-1.19142
30
0.0
11
-0.622312
21
-1.234711
31
0.0
0
LINE
8
1
62
3
10
-0.622312
20
-1.234711
30
0.0
11
-0.630442
21
-1.266744
31
0.0
0
LINE
8
1
62
3
10
-0.630442
20
-1.266744
30
0.0
11
-0.633932
21
-1.278579
31
0.0
0
LINE
8
1
62
3
10
-0.633932
20
-1.278579
30
0.0
11
-0.642324
21
-1.285816
31
0.0
0
LINE
8
1
62
3
10
-0.642324
20
-1.285816
30
0.0
11
-0.656792
21
-1.316614
31
0.0
0
LINE
8
1
62
3
10
-0.656792
20
-1.316614
30
0.0
11
-0.674892
21
-1.385101
31
0.0
0
LINE
8
1
62
3
10
-0.674892
20
-1.385101
30
0.0
11
-0.6932
21
-1.453657
31
0.0
0
LINE
8
1
62
3
10
-0.6932
20
-1.453657
30
0.0
11
-0.708166
21
-1.484622
31
0.0
0
LINE
8
1
62
3
10
-0.708166
20
-1.484622
30
0.0
11
-0.717056
21
-1.493777
31
0.0
0
LINE
8
1
62
3
10
-0.717056
20
-1.493777
30
0.0
11
-0.720753
21
-1.509894
31
0.0
0
LINE
8
1
62
3
10
-0.720753
20
-1.509894
30
0.0
11
-0.7264
21
-1.527939
31
0.0
0
LINE
8
1
62
3
10
-0.7264
20
-1.527939
30
0.0
11
-0.739976
21
-1.541727
31
0.0
0
LINE
8
1
62
3
10
-0.739976
20
-1.541727
30
0.0
11
-0.926192
21
-1.71576
31
0.0
0
LINE
8
1
62
3
10
0.611336
20
-1.526407
30
0.0
11
0.633913
21
-1.478596
31
0.0
0
LINE
8
1
62
3
10
0.633913
20
-1.478596
30
0.0
11
0.650597
21
-1.431952
31
0.0
0
LINE
8
1
62
3
10
0.650597
20
-1.431952
30
0.0
11
0.656491
21
-1.377037
31
0.0
0
LINE
8
1
62
3
10
0.656491
20
-1.377037
30
0.0
11
0.659807
21
-1.335062
31
0.0
0
LINE
8
1
62
3
10
0.659807
20
-1.335062
30
0.0
11
0.66778
21
-1.317603
31
0.0
0
LINE
8
1
62
3
10
0.66778
20
-1.317603
30
0.0
11
0.675866
21
-1.300394
31
0.0
0
LINE
8
1
62
3
10
0.675866
20
-1.300394
30
0.0
11
0.678848
21
-1.262149
31
0.0
0
LINE
8
1
62
3
10
0.678848
20
-1.262149
30
0.0
11
0.676549
21
-1.222938
31
0.0
0
LINE
8
1
62
3
10
0.676549
20
-1.222938
30
0.0
11
0.668793
21
-1.202833
31
0.0
0
LINE
8
1
62
3
10
0.668793
20
-1.202833
30
0.0
11
0.659818
21
-1.172166
31
0.0
0
LINE
8
1
62
3
10
0.659818
20
-1.172166
30
0.0
11
0.655007
21
-1.109454
31
0.0
0
LINE
8
1
62
3
10
0.655007
20
-1.109454
30
0.0
11
0.655475
21
-1.046893
31
0.0
0
LINE
8
1
62
3
10
0.655475
20
-1.046893
30
0.0
11
0.662339
21
-1.01668
31
0.0
0
LINE
8
1
62
3
10
0.662339
20
-1.01668
30
0.0
11
0.678086
21
-1.034871
31
0.0
0
LINE
8
1
62
3
10
0.678086
20
-1.034871
30
0.0
11
0.70038
21
-1.08354
31
0.0
0
LINE
8
1
62
3
10
0.70038
20
-1.08354
30
0.0
11
0.737029
21
-1.1602
31
0.0
0
LINE
8
1
62
3
10
0.737029
20
-1.1602
30
0.0
11
0.746038
21
-1.190236
31
0.0
0
LINE
8
1
62
3
10
0.746038
20
-1.190236
30
0.0
11
0.754087
21
-1.253624
31
0.0
0
LINE
8
1
62
3
10
0.754087
20
-1.253624
30
0.0
11
0.75719
21
-1.325293
31
0.0
0
LINE
8
1
62
3
10
0.75719
20
-1.325293
30
0.0
11
0.752559
21
-1.334796
31
0.0
0
LINE
8
1
62
3
10
0.752559
20
-1.334796
30
0.0
11
0.742839
21
-1.333619
31
0.0
0
LINE
8
1
62
3
10
0.742839
20
-1.333619
30
0.0
11
0.729673
21
-1.320465
31
0.0
0
LINE
8
1
62
3
10
0.729673
20
-1.320465
30
0.0
11
0.724225
21
-1.298796
31
0.0
0
LINE
8
1
62
3
10
0.724225
20
-1.298796
30
0.0
11
0.721277
21
-1.274312
31
0.0
0
LINE
8
1
62
3
10
0.721277
20
-1.274312
30
0.0
11
0.714695
21
-1.278066
31
0.0
0
LINE
8
1
62
3
10
0.714695
20
-1.278066
30
0.0
11
0.707867
21
-1.302844
31
0.0
0
LINE
8
1
62
3
10
0.707867
20
-1.302844
30
0.0
11
0.704184
21
-1.341435
31
0.0
0
LINE
8
1
62
3
10
0.704184
20
-1.341435
30
0.0
11
0.699118
21
-1.386418
31
0.0
0
LINE
8
1
62
3
10
0.699118
20
-1.386418
30
0.0
11
0.688135
21
-1.409527
31
0.0
0
LINE
8
1
62
3
10
0.688135
20
-1.409527
30
0.0
11
0.681377
21
-1.416807
31
0.0
0
LINE
8
1
62
3
10
0.681377
20
-1.416807
30
0.0
11
0.694237
21
-1.41903
31
0.0
0
LINE
8
1
62
3
10
0.694237
20
-1.41903
30
0.0
11
0.71067
21
-1.41252
31
0.0
0
LINE
8
1
62
3
10
0.71067
20
-1.41252
30
0.0
11
0.720954
21
-1.396625
31
0.0
0
LINE
8
1
62
3
10
0.720954
20
-1.396625
30
0.0
11
0.731252
21
-1.38068
31
0.0
0
LINE
8
1
62
3
10
0.731252
20
-1.38068
30
0.0
11
0.747722
21
-1.374048
31
0.0
0
LINE
8
1
62
3
10
0.747722
20
-1.374048
30
0.0
11
0.76504
21
-1.368394
31
0.0
0
LINE
8
1
62
3
10
0.76504
20
-1.368394
30
0.0
11
0.77909
21
-1.352919
31
0.0
0
LINE
8
1
62
3
10
0.77909
20
-1.352919
30
0.0
11
0.788515
21
-1.329849
31
0.0
0
LINE
8
1
62
3
10
0.788515
20
-1.329849
30
0.0
11
0.791958
21
-1.301412
31
0.0
0
LINE
8
1
62
3
10
0.791958
20
-1.301412
30
0.0
11
0.795274
21
-1.280956
31
0.0
0
LINE
8
1
62
3
10
0.795274
20
-1.280956
30
0.0
11
0.803247
21
-1.272448
31
0.0
0
LINE
8
1
62
3
10
0.803247
20
-1.272448
30
0.0
11
0.81122
21
-1.264157
31
0.0
0
LINE
8
1
62
3
10
0.81122
20
-1.264157
30
0.0
11
0.814536
21
-1.244225
31
0.0
0
LINE
8
1
62
3
10
0.814536
20
-1.244225
30
0.0
11
0.81122
21
-1.224293
31
0.0
0
LINE
8
1
62
3
10
0.81122
20
-1.224293
30
0.0
11
0.803247
21
-1.216003
31
0.0
0
LINE
8
1
62
3
10
0.803247
20
-1.216003
30
0.0
11
0.792715
21
-1.211015
31
0.0
0
LINE
8
1
62
3
10
0.792715
20
-1.211015
30
0.0
11
0.792552
21
-1.199573
31
0.0
0
LINE
8
1
62
3
10
0.792552
20
-1.199573
30
0.0
11
0.800949
21
-1.18696
31
0.0
0
LINE
8
1
62
3
10
0.800949
20
-1.18696
30
0.0
11
0.816099
21
-1.178457
31
0.0
0
LINE
8
1
62
3
10
0.816099
20
-1.178457
30
0.0
11
0.829247
21
-1.173105
31
0.0
0
LINE
8
1
62
3
10
0.829247
20
-1.173105
30
0.0
11
0.835558
21
-1.161698
31
0.0
0
LINE
8
1
62
3
10
0.835558
20
-1.161698
30
0.0
11
0.832763
21
-1.095296
31
0.0
0
LINE
8
1
62
3
10
0.832763
20
-1.095296
30
0.0
11
0.816584
21
-0.959925
31
0.0
0
LINE
8
1
62
3
10
0.816584
20
-0.959925
30
0.0
11
0.8095
21
-0.931129
31
0.0
0
LINE
8
1
62
3
10
0.8095
20
-0.931129
30
0.0
11
0.802061
21
-0.922492
31
0.0
0
LINE
8
1
62
3
10
0.802061
20
-0.922492
30
0.0
11
0.794926
21
-0.918933
31
0.0
0
LINE
8
1
62
3
10
0.794926
20
-0.918933
30
0.0
11
0.791958
21
-0.910375
31
0.0
0
LINE
8
1
62
3
10
0.791958
20
-0.910375
30
0.0
11
0.798153
21
-0.898633
31
0.0
0
LINE
8
1
62
3
10
0.798153
20
-0.898633
30
0.0
11
0.813005
21
-0.904216
31
0.0
0
LINE
8
1
62
3
10
0.813005
20
-0.904216
30
0.0
11
0.830908
21
-0.922964
31
0.0
0
LINE
8
1
62
3
10
0.830908
20
-0.922964
30
0.0
11
0.846261
21
-0.950714
31
0.0
0
LINE
8
1
62
3
10
0.846261
20
-0.950714
30
0.0
11
0.874512
21
-1.004831
31
0.0
0
LINE
8
1
62
3
10
0.874512
20
-1.004831
30
0.0
11
0.888335
21
-1.019143
31
0.0
0
LINE
8
1
62
3
10
0.888335
20
-1.019143
30
0.0
11
0.901218
21
-1.023975
31
0.0
0
LINE
8
1
62
3
10
0.901218
20
-1.023975
30
0.0
11
0.908647
21
-0.990179
31
0.0
0
LINE
8
1
62
3
10
0.908647
20
-0.990179
30
0.0
11
0.913484
21
-0.909089
31
0.0
0
LINE
8
1
62
3
10
0.913484
20
-0.909089
30
0.0
11
0.91169
21
-0.808921
31
0.0
0
LINE
8
1
62
3
10
0.91169
20
-0.808921
30
0.0
11
0.89784
21
-0.745517
31
0.0
0
LINE
8
1
62
3
10
0.89784
20
-0.745517
30
0.0
11
0.882081
21
-0.71105
31
0.0
0
LINE
8
1
62
3
10
0.882081
20
-0.71105
30
0.0
11
0.870367
21
-0.696714
31
0.0
0
LINE
8
1
62
3
10
0.870367
20
-0.696714
30
0.0
11
0.856732
21
-0.67433
31
0.0
0
LINE
8
1
62
3
10
0.856732
20
-0.67433
30
0.0
11
0.836358
21
-0.620514
31
0.0
0
LINE
8
1
62
3
10
0.836358
20
-0.620514
30
0.0
11
0.803813
21
-0.53867
31
0.0
0
LINE
8
1
62
3
10
0.803813
20
-0.53867
30
0.0
11
0.788997
21
-0.5143
31
0.0
0
LINE
8
1
62
3
10
0.788997
20
-0.5143
30
0.0
11
0.774133
21
-0.470391
31
0.0
0
LINE
8
1
62
3
10
0.774133
20
-0.470391
30
0.0
11
0.762678
21
-0.419413
31
0.0
0
LINE
8
1
62
3
10
0.762678
20
-0.419413
30
0.0
11
0.758091
21
-0.373832
31
0.0
0
LINE
8
1
62
3
10
0.758091
20
-0.373832
30
0.0
11
0.751369
21
-0.31977
31
0.0
0
LINE
8
1
62
3
10
0.751369
20
-0.31977
30
0.0
11
0.721116
21
-0.275432
31
0.0
0
LINE
8
1
62
3
10
0.721116
20
-0.275432
30
0.0
11
0.690704
21
-0.246079
31
0.0
0
LINE
8
1
62
3
10
0.690704
20
-0.246079
30
0.0
11
0.669509
21
-0.23387
31
0.0
0
LINE
8
1
62
3
10
0.669509
20
-0.23387
30
0.0
11
0.637945
21
-0.216936
31
0.0
0
LINE
8
1
62
3
10
0.637945
20
-0.216936
30
0.0
11
0.618997
21
-0.204977
31
0.0
0
LINE
8
1
62
3
10
0.618997
20
-0.204977
30
0.0
11
0.59722
21
-0.200003
31
0.0
0
LINE
8
1
62
3
10
0.59722
20
-0.200003
30
0.0
11
0.534644
21
-0.185584
31
0.0
0
LINE
8
1
62
3
10
0.534644
20
-0.185584
30
0.0
11
0.507602
21
-0.172178
31
0.0
0
LINE
8
1
62
3
10
0.507602
20
-0.172178
30
0.0
11
0.493695
21
-0.158748
31
0.0
0
LINE
8
1
62
3
10
0.493695
20
-0.158748
30
0.0
11
0.494316
21
-0.15313
31
0.0
0
LINE
8
1
62
3
10
0.494316
20
-0.15313
30
0.0
11
0.500568
21
-0.150156
31
0.0
0
LINE
8
1
62
3
10
0.500568
20
-0.150156
30
0.0
11
0.523928
21
-0.15106
31
0.0
0
LINE
8
1
62
3
10
0.523928
20
-0.15106
30
0.0
11
0.551704
21
-0.159302
31
0.0
0
LINE
8
1
62
3
10
0.551704
20
-0.159302
30
0.0
11
0.571825
21
-0.172722
31
0.0
0
LINE
8
1
62
3
10
0.571825
20
-0.172722
30
0.0
11
0.598865
21
-0.186492
31
0.0
0
LINE
8
1
62
3
10
0.598865
20
-0.186492
30
0.0
11
0.648025
21
-0.199842
31
0.0
0
LINE
8
1
62
3
10
0.648025
20
-0.199842
30
0.0
11
0.693868
21
-0.212693
31
0.0
0
LINE
8
1
62
3
10
0.693868
20
-0.212693
30
0.0
11
0.712936
21
-0.225263
31
0.0
0
LINE
8
1
62
3
10
0.712936
20
-0.225263
30
0.0
11
0.714839
21
-0.232096
31
0.0
0
LINE
8
1
62
3
10
0.714839
20
-0.232096
30
0.0
11
0.719416
21
-0.231153
31
0.0
0
LINE
8
1
62
3
10
0.719416
20
-0.231153
30
0.0
11
0.718351
21
-0.207881
31
0.0
0
LINE
8
1
62
3
10
0.718351
20
-0.207881
30
0.0
11
0.705028
21
-0.166606
31
0.0
0
LINE
8
1
62
3
10
0.705028
20
-0.166606
30
0.0
11
0.687151
21
-0.127239
31
0.0
0
LINE
8
1
62
3
10
0.687151
20
-0.127239
30
0.0
11
0.672423
21
-0.109692
31
0.0
0
LINE
8
1
62
3
10
0.672423
20
-0.109692
30
0.0
11
0.630594
21
-0.082636
31
0.0
0
LINE
8
1
62
3
10
0.630594
20
-0.082636
30
0.0
11
0.586613
21
-0.049661
31
0.0
0
LINE
8
1
62
3
10
0.586613
20
-0.049661
30
0.0
11
0.580159
21
-0.044983
31
0.0
0
LINE
8
1
62
3
10
0.580159
20
-0.044983
30
0.0
11
0.590774
21
-0.04285
31
0.0
0
LINE
8
1
62
3
10
0.590774
20
-0.04285
30
0.0
11
0.609131
21
-0.047195
31
0.0
0
LINE
8
1
62
3
10
0.609131
20
-0.047195
30
0.0
11
0.626656
21
-0.058892
31
0.0
0
LINE
8
1
62
3
10
0.626656
20
-0.058892
30
0.0
11
0.642656
21
-0.070035
31
0.0
0
LINE
8
1
62
3
10
0.642656
20
-0.070035
30
0.0
11
0.659805
21
-0.075295
31
0.0
0
LINE
8
1
62
3
10
0.659805
20
-0.075295
30
0.0
11
0.673483
21
-0.074066
31
0.0
0
LINE
8
1
62
3
10
0.673483
20
-0.074066
30
0.0
11
0.679069
21
-0.065744
31
0.0
0
LINE
8
1
62
3
10
0.679069
20
-0.065744
30
0.0
11
0.662136
21
-0.049165
31
0.0
0
LINE
8
1
62
3
10
0.662136
20
-0.049165
30
0.0
11
0.650176
21
-0.039738
31
0.0
0
LINE
8
1
62
3
10
0.650176
20
-0.039738
30
0.0
11
0.645202
21
-0.026196
31
0.0
0
LINE
8
1
62
3
10
0.645202
20
-0.026196
30
0.0
11
0.631938
21
-0.008712
31
0.0
0
LINE
8
1
62
3
10
0.631938
20
-0.008712
30
0.0
11
0.600047
21
0.010197
31
0.0
0
LINE
8
1
62
3
10
0.600047
20
0.010197
30
0.0
11
0.568156
21
0.026945
31
0.0
0
LINE
8
1
62
3
10
0.568156
20
0.026945
30
0.0
11
0.554891
21
0.039236
31
0.0
0
LINE
8
1
62
3
10
0.554891
20
0.039236
30
0.0
11
0.549872
21
0.045675
31
0.0
0
LINE
8
1
62
3
10
0.549872
20
0.045675
30
0.0
11
0.537805
21
0.048352
31
0.0
0
LINE
8
1
62
3
10
0.537805
20
0.048352
30
0.0
11
0.509078
21
0.056776
31
0.0
0
LINE
8
1
62
3
10
0.509078
20
0.056776
30
0.0
11
0.476351
21
0.076257
31
0.0
0
LINE
8
1
62
3
10
0.476351
20
0.076257
30
0.0
11
0.451677
21
0.098115
31
0.0
0
LINE
8
1
62
3
10
0.451677
20
0.098115
30
0.0
11
0.447111
21
0.113668
31
0.0
0
LINE
8
1
62
3
10
0.447111
20
0.113668
30
0.0
11
0.480578
21
0.103005
31
0.0
0
LINE
8
1
62
3
10
0.480578
20
0.103005
30
0.0
11
0.509736
21
0.081511
31
0.0
0
LINE
8
1
62
3
10
0.509736
20
0.081511
30
0.0
11
0.543602
21
0.061333
31
0.0
0
LINE
8
1
62
3
10
0.543602
20
0.061333
30
0.0
11
0.567521
21
0.049893
31
0.0
0
LINE
8
1
62
3
10
0.567521
20
0.049893
30
0.0
11
0.577469
21
0.038967
31
0.0
0
LINE
8
1
62
3
10
0.577469
20
0.038967
30
0.0
11
0.586053
21
0.029868
31
0.0
0
LINE
8
1
62
3
10
0.586053
20
0.029868
30
0.0
11
0.60669
21
0.022821
31
0.0
0
LINE
8
1
62
3
10
0.60669
20
0.022821
30
0.0
11
0.630598
21
0.023315
31
0.0
0
LINE
8
1
62
3
10
0.630598
20
0.023315
30
0.0
11
0.629394
21
0.052549
31
0.0
0
LINE
8
1
62
3
10
0.629394
20
0.052549
30
0.0
11
0.628142
21
0.095729
31
0.0
0
LINE
8
1
62
3
10
0.628142
20
0.095729
30
0.0
11
0.634281
21
0.149952
31
0.0
0
LINE
8
1
62
3
10
0.634281
20
0.149952
30
0.0
11
0.65248
21
0.259346
31
0.0
0
LINE
8
1
62
3
10
0.65248
20
0.259346
30
0.0
11
0.662221
21
0.294903
31
0.0
0
LINE
8
1
62
3
10
0.662221
20
0.294903
30
0.0
11
0.676293
21
0.31318
31
0.0
0
LINE
8
1
62
3
10
0.676293
20
0.31318
30
0.0
11
0.684875
21
0.313337
31
0.0
0
LINE
8
1
62
3
10
0.684875
20
0.313337
30
0.0
11
0.688899
21
0.302132
31
0.0
0
LINE
8
1
62
3
10
0.688899
20
0.302132
30
0.0
11
0.685261
21
0.226365
31
0.0
0
LINE
8
1
62
3
10
0.685261
20
0.226365
30
0.0
11
0.676533
21
0.159334
31
0.0
0
LINE
8
1
62
3
10
0.676533
20
0.159334
30
0.0
11
0.666852
21
0.129256
31
0.0
0
LINE
8
1
62
3
10
0.666852
20
0.129256
30
0.0
11
0.659627
21
0.115184
31
0.0
0
LINE
8
1
62
3
10
0.659627
20
0.115184
30
0.0
11
0.656709
21
0.088203
31
0.0
0
LINE
8
1
62
3
10
0.656709
20
0.088203
30
0.0
11
0.658389
21
0.061052
31
0.0
0
LINE
8
1
62
3
10
0.658389
20
0.061052
30
0.0
11
0.664958
21
0.046471
31
0.0
0
LINE
8
1
62
3
10
0.664958
20
0.046471
30
0.0
11
0.700884
21
-0.064536
31
0.0
0
LINE
8
1
62
3
10
0.700884
20
-0.064536
30
0.0
11
0.724646
21
-0.14466
31
0.0
0
LINE
8
1
62
3
10
0.724646
20
-0.14466
30
0.0
11
0.743217
21
-0.186698
31
0.0
0
LINE
8
1
62
3
10
0.743217
20
-0.186698
30
0.0
11
0.753839
21
-0.204458
31
0.0
0
LINE
8
1
62
3
10
0.753839
20
-0.204458
30
0.0
11
0.758491
21
-0.226209
31
0.0
0
LINE
8
1
62
3
10
0.758491
20
-0.226209
30
0.0
11
0.775025
21
-0.279025
31
0.0
0
LINE
8
1
62
3
10
0.775025
20
-0.279025
30
0.0
11
0.786536
21
-0.311393
31
0.0
0
LINE
8
1
62
3
10
0.786536
20
-0.311393
30
0.0
11
0.791558
21
-0.349581
31
0.0
0
LINE
8
1
62
3
10
0.791558
20
-0.349581
30
0.0
11
0.795156
21
-0.379479
31
0.0
0
LINE
8
1
62
3
10
0.795156
20
-0.379479
30
0.0
11
0.803247
21
-0.391914
31
0.0
0
LINE
8
1
62
3
10
0.803247
20
-0.391914
30
0.0
11
0.81122
21
-0.404736
31
0.0
0
LINE
8
1
62
3
10
0.81122
20
-0.404736
30
0.0
11
0.814536
21
-0.435564
31
0.0
0
LINE
8
1
62
3
10
0.814536
20
-0.435564
30
0.0
11
0.821282
21
-0.480369
31
0.0
0
LINE
8
1
62
3
10
0.821282
20
-0.480369
30
0.0
11
0.837754
21
-0.534595
31
0.0
0
LINE
8
1
62
3
10
0.837754
20
-0.534595
30
0.0
11
0.858302
21
-0.582634
31
0.0
0
LINE
8
1
62
3
10
0.858302
20
-0.582634
30
0.0
11
0.877277
21
-0.608882
31
0.0
0
LINE
8
1
62
3
10
0.877277
20
-0.608882
30
0.0
11
0.890796
21
-0.634892
31
0.0
0
LINE
8
1
62
3
10
0.890796
20
-0.634892
30
0.0
11
0.904972
21
-0.686017
31
0.0
0
LINE
8
1
62
3
10
0.904972
20
-0.686017
30
0.0
11
0.920163
21
-0.739604
31
0.0
0
LINE
8
1
62
3
10
0.920163
20
-0.739604
30
0.0
11
0.936121
21
-0.771532
31
0.0
0
LINE
8
1
62
3
10
0.936121
20
-0.771532
30
0.0
11
0.94325
21
-0.789111
31
0.0
0
LINE
8
1
62
3
10
0.94325
20
-0.789111
30
0.0
11
0.948323
21
-0.822043
31
0.0
0
LINE
8
1
62
3
10
0.948323
20
-0.822043
30
0.0
11
0.952323
21
-0.913039
31
0.0
0
LINE
8
1
62
3
10
0.952323
20
-0.913039
30
0.0
11
0.948158
21
-1.00266
31
0.0
0
LINE
8
1
62
3
10
0.948158
20
-1.00266
30
0.0
11
0.943027
21
-1.033874
31
0.0
0
LINE
8
1
62
3
10
0.943027
20
-1.033874
30
0.0
11
0.935868
21
-1.049047
31
0.0
0
LINE
8
1
62
3
10
0.935868
20
-1.049047
30
0.0
11
0.929086
21
-1.058872
31
0.0
0
LINE
8
1
62
3
10
0.929086
20
-1.058872
30
0.0
11
0.941536
21
-1.070015
31
0.0
0
LINE
8
1
62
3
10
0.941536
20
-1.070015
30
0.0
11
0.95712
21
-1.084162
31
0.0
0
LINE
8
1
62
3
10
0.95712
20
-1.084162
30
0.0
11
0.960746
21
-1.098619
31
0.0
0
LINE
8
1
62
3
10
0.960746
20
-1.098619
30
0.0
11
0.952979
21
-1.109871
31
0.0
0
LINE
8
1
62
3
10
0.952979
20
-1.109871
30
0.0
11
0.934386
21
-1.114403
31
0.0
0
LINE
8
1
62
3
10
0.934386
20
-1.114403
30
0.0
11
0.912884
21
-1.108593
31
0.0
0
LINE
8
1
62
3
10
0.912884
20
-1.108593
30
0.0
11
0.901576
21
-1.091825
31
0.0
0
LINE
8
1
62
3
10
0.901576
20
-1.091825
30
0.0
11
0.892121
21
-1.07588
31
0.0
0
LINE
8
1
62
3
10
0.892121
20
-1.07588
30
0.0
11
0.877681
21
-1.069248
31
0.0
0
LINE
8
1
62
3
10
0.877681
20
-1.069248
30
0.0
11
0.86914
21
-1.071723
31
0.0
0
LINE
8
1
62
3
10
0.86914
20
-1.071723
30
0.0
11
0.863313
21
-1.079847
31
0.0
0
LINE
8
1
62
3
10
0.863313
20
-1.079847
30
0.0
11
0.858093
21
-1.117225
31
0.0
0
LINE
8
1
62
3
10
0.858093
20
-1.117225
30
0.0
11
0.853909
21
-1.195086
31
0.0
0
LINE
8
1
62
3
10
0.853909
20
-1.195086
30
0.0
11
0.844638
21
-1.244225
31
0.0
0
LINE
8
1
62
3
10
0.844638
20
-1.244225
30
0.0
11
0.818491
21
-1.334088
31
0.0
0
LINE
8
1
62
3
10
0.818491
20
-1.334088
30
0.0
11
0.801086
21
-1.362759
31
0.0
0
LINE
8
1
62
3
10
0.801086
20
-1.362759
30
0.0
11
0.791941
21
-1.368562
31
0.0
0
LINE
8
1
62
3
10
0.791941
20
-1.368562
30
0.0
11
0.783769
21
-1.382514
31
0.0
0
LINE
8
1
62
3
10
0.783769
20
-1.382514
30
0.0
11
0.761011
21
-1.417031
31
0.0
0
LINE
8
1
62
3
10
0.761011
20
-1.417031
30
0.0
11
0.746335
21
-1.426943
31
0.0
0
LINE
8
1
62
3
10
0.746335
20
-1.426943
30
0.0
11
0.731072
21
-1.430492
31
0.0
0
LINE
8
1
62
3
10
0.731072
20
-1.430492
30
0.0
11
0.715275
21
-1.437124
31
0.0
0
LINE
8
1
62
3
10
0.715275
20
-1.437124
30
0.0
11
0.701647
21
-1.45307
31
0.0
0
LINE
8
1
62
3
10
0.701647
20
-1.45307
30
0.0
11
0.688184
21
-1.469015
31
0.0
0
LINE
8
1
62
3
10
0.688184
20
-1.469015
30
0.0
11
0.672785
21
-1.475648
31
0.0
0
LINE
8
1
62
3
10
0.672785
20
-1.475648
30
0.0
11
0.657158
21
-1.483938
31
0.0
0
LINE
8
1
62
3
10
0.657158
20
-1.483938
30
0.0
11
0.643148
21
-1.50387
31
0.0
0
LINE
8
1
62
3
10
0.643148
20
-1.50387
30
0.0
11
0.62306
21
-1.530534
31
0.0
0
LINE
8
1
62
3
10
0.62306
20
-1.530534
30
0.0
11
0.614738
21
-1.533321
31
0.0
0
LINE
8
1
62
3
10
0.614738
20
-1.533321
30
0.0
11
0.611336
21
-1.526407
31
0.0
0
LINE
8
1
62
3
10
-0.092129
20
-1.46962
30
0.0
11
-0.111153
21
-1.408739
31
0.0
0
LINE
8
1
62
3
10
-0.111153
20
-1.408739
30
0.0
11
-0.116166
21
-1.393996
31
0.0
0
LINE
8
1
62
3
10
-0.116166
20
-1.393996
30
0.0
11
-0.128084
21
-1.381992
31
0.0
0
LINE
8
1
62
3
10
-0.128084
20
-1.381992
30
0.0
11
-0.142222
21
-1.375969
31
0.0
0
LINE
8
1
62
3
10
-0.142222
20
-1.375969
30
0.0
11
-0.1539
21
-1.379164
31
0.0
0
LINE
8
1
62
3
10
-0.1539
20
-1.379164
30
0.0
11
-0.160751
21
-1.426475
31
0.0
0
LINE
8
1
62
3
10
-0.160751
20
-1.426475
30
0.0
11
-0.165853
21
-1.454328
31
0.0
0
LINE
8
1
62
3
10
-0.165853
20
-1.454328
30
0.0
11
-0.175912
21
-1.472149
31
0.0
0
LINE
8
1
62
3
10
-0.175912
20
-1.472149
30
0.0
11
-0.185746
21
-1.474645
31
0.0
0
LINE
8
1
62
3
10
-0.185746
20
-1.474645
30
0.0
11
-0.190175
21
-1.456526
31
0.0
0
LINE
8
1
62
3
10
-0.190175
20
-1.456526
30
0.0
11
-0.200124
21
-1.430801
31
0.0
0
LINE
8
1
62
3
10
-0.200124
20
-1.430801
30
0.0
11
-0.224042
21
-1.398444
31
0.0
0
LINE
8
1
62
3
10
-0.224042
20
-1.398444
30
0.0
11
-0.24796
21
-1.367488
31
0.0
0
LINE
8
1
62
3
10
-0.24796
20
-1.367488
30
0.0
11
-0.257909
21
-1.345129
31
0.0
0
LINE
8
1
62
3
10
-0.257909
20
-1.345129
30
0.0
11
-0.261739
21
-1.332174
31
0.0
0
LINE
8
1
62
3
10
-0.261739
20
-1.332174
30
0.0
11
-0.270672
21
-1.329442
31
0.0
0
LINE
8
1
62
3
10
-0.270672
20
-1.329442
30
0.0
11
-0.280873
21
-1.336139
31
0.0
0
LINE
8
1
62
3
10
-0.280873
20
-1.336139
30
0.0
11
-0.288505
21
-1.35147
31
0.0
0
LINE
8
1
62
3
10
-0.288505
20
-1.35147
30
0.0
11
-0.296789
21
-1.367415
31
0.0
0
LINE
8
1
62
3
10
-0.296789
20
-1.367415
30
0.0
11
-0.308417
21
-1.374048
31
0.0
0
LINE
8
1
62
3
10
-0.308417
20
-1.374048
30
0.0
11
-0.320168
21
-1.354875
31
0.0
0
LINE
8
1
62
3
10
-0.320168
20
-1.354875
30
0.0
11
-0.329118
21
-1.308901
31
0.0
0
LINE
8
1
62
3
10
-0.329118
20
-1.308901
30
0.0
11
-0.333066
21
-1.253436
31
0.0
0
LINE
8
1
62
3
10
-0.333066
20
-1.253436
30
0.0
11
-0.329809
21
-1.205794
31
0.0
0
LINE
8
1
62
3
10
-0.329809
20
-1.205794
30
0.0
11
-0.319914
21
-1.17798
31
0.0
0
LINE
8
1
62
3
10
-0.319914
20
-1.17798
30
0.0
11
-0.307279
21
-1.165759
31
0.0
0
LINE
8
1
62
3
10
-0.307279
20
-1.165759
30
0.0
11
-0.296401
21
-1.170552
31
0.0
0
LINE
8
1
62
3
10
-0.296401
20
-1.170552
30
0.0
11
-0.291775
21
-1.19378
31
0.0
0
LINE
8
1
62
3
10
-0.291775
20
-1.19378
30
0.0
11
-0.288459
21
-1.217448
31
0.0
0
LINE
8
1
62
3
10
-0.288459
20
-1.217448
30
0.0
11
-0.280487
21
-1.227292
31
0.0
0
LINE
8
1
62
3
10
-0.280487
20
-1.227292
30
0.0
11
-0.272514
21
-1.219002
31
0.0
0
LINE
8
1
62
3
10
-0.272514
20
-1.219002
30
0.0
11
-0.269198
21
-1.19907
31
0.0
0
LINE
8
1
62
3
10
-0.269198
20
-1.19907
30
0.0
11
-0.264764
21
-1.178613
31
0.0
0
LINE
8
1
62
3
10
-0.264764
20
-1.178613
30
0.0
11
-0.253085
21
-1.170848
31
0.0
0
LINE
8
1
62
3
10
-0.253085
20
-1.170848
30
0.0
11
-0.245009
21
-1.175718
31
0.0
0
LINE
8
1
62
3
10
-0.245009
20
-1.175718
30
0.0
11
-0.237553
21
-1.190892
31
0.0
0
LINE
8
1
62
3
10
-0.237553
20
-1.190892
30
0.0
11
-0.223314
21
-1.255514
31
0.0
0
LINE
8
1
62
3
10
-0.223314
20
-1.255514
30
0.0
11
-0.208261
21
-1.324163
31
0.0
0
LINE
8
1
62
3
10
-0.208261
20
-1.324163
30
0.0
11
-0.199808
21
-1.33682
31
0.0
0
LINE
8
1
62
3
10
-0.199808
20
-1.33682
30
0.0
11
-0.188627
21
-1.340181
31
0.0
0
LINE
8
1
62
3
10
-0.188627
20
-1.340181
30
0.0
11
-0.173112
21
-1.3344
31
0.0
0
LINE
8
1
62
3
10
-0.173112
20
-1.3344
30
0.0
11
-0.167598
21
-1.318134
31
0.0
0
LINE
8
1
62
3
10
-0.167598
20
-1.318134
30
0.0
11
-0.154812
21
-1.268025
31
0.0
0
LINE
8
1
62
3
10
-0.154812
20
-1.268025
30
0.0
11
-0.141671
21
-1.248202
31
0.0
0
LINE
8
1
62
3
10
-0.141671
20
-1.248202
30
0.0
11
-0.127405
21
-1.254583
31
0.0
0
LINE
8
1
62
3
10
-0.127405
20
-1.254583
30
0.0
11
-0.114991
21
-1.27782
31
0.0
0
LINE
8
1
62
3
10
-0.114991
20
-1.27782
30
0.0
11
-0.105674
21
-1.313159
31
0.0
0
LINE
8
1
62
3
10
-0.105674
20
-1.313159
30
0.0
11
-0.090724
21
-1.390483
31
0.0
0
LINE
8
1
62
3
10
-0.090724
20
-1.390483
30
0.0
11
-0.084444
21
-1.404339
31
0.0
0
LINE
8
1
62
3
10
-0.084444
20
-1.404339
30
0.0
11
-0.077072
21
-1.407914
31
0.0
0
LINE
8
1
62
3
10
-0.077072
20
-1.407914
30
0.0
11
-0.069251
21
-1.398242
31
0.0
0
LINE
8
1
62
3
10
-0.069251
20
-1.398242
30
0.0
11
-0.065998
21
-1.374988
31
0.0
0
LINE
8
1
62
3
10
-0.065998
20
-1.374988
30
0.0
11
-0.063511
21
-1.350629
31
0.0
0
LINE
8
1
62
3
10
-0.063511
20
-1.350629
30
0.0
11
-0.057531
21
-1.338299
31
0.0
0
LINE
8
1
62
3
10
-0.057531
20
-1.338299
30
0.0
11
-0.029887
21
-1.295025
31
0.0
0
LINE
8
1
62
3
10
-0.029887
20
-1.295025
30
0.0
11
-0.012418
21
-1.265042
31
0.0
0
LINE
8
1
62
3
10
-0.012418
20
-1.265042
30
0.0
11
-0.00317
21
-1.280914
31
0.0
0
LINE
8
1
62
3
10
-0.00317
20
-1.280914
30
0.0
11
0.004874
21
-1.298853
31
0.0
0
LINE
8
1
62
3
10
0.004874
20
-1.298853
30
0.0
11
0.013626
21
-1.306314
31
0.0
0
LINE
8
1
62
3
10
0.013626
20
-1.306314
30
0.0
11
0.021203
21
-1.316836
31
0.0
0
LINE
8
1
62
3
10
0.021203
20
-1.316836
30
0.0
11
0.02642
21
-1.342134
31
0.0
0
LINE
8
1
62
3
10
0.02642
20
-1.342134
30
0.0
11
0.03323
21
-1.370144
31
0.0
0
LINE
8
1
62
3
10
0.03323
20
-1.370144
30
0.0
11
0.044277
21
-1.381978
31
0.0
0
LINE
8
1
62
3
10
0.044277
20
-1.381978
30
0.0
11
0.056085
21
-1.376647
31
0.0
0
LINE
8
1
62
3
10
0.056085
20
-1.376647
30
0.0
11
0.06518
21
-1.353162
31
0.0
0
LINE
8
1
62
3
10
0.06518
20
-1.353162
30
0.0
11
0.0746
21
-1.327302
31
0.0
0
LINE
8
1
62
3
10
0.0746
20
-1.327302
30
0.0
11
0.087669
21
-1.313035
31
0.0
0
LINE
8
1
62
3
10
0.087669
20
-1.313035
30
0.0
11
0.098734
21
-1.302052
31
0.0
0
LINE
8
1
62
3
10
0.098734
20
-1.302052
30
0.0
11
0.103336
21
-1.284091
31
0.0
0
LINE
8
1
62
3
10
0.103336
20
-1.284091
30
0.0
11
0.105658
21
-1.267803
31
0.0
0
LINE
8
1
62
3
10
0.105658
20
-1.267803
30
0.0
11
0.113075
21
-1.262319
31
0.0
0
LINE
8
1
62
3
10
0.113075
20
-1.262319
30
0.0
11
0.145891
21
-1.283736
31
0.0
0
LINE
8
1
62
3
10
0.145891
20
-1.283736
30
0.0
11
0.176108
21
-1.306314
31
0.0
0
LINE
8
1
62
3
10
0.176108
20
-1.306314
30
0.0
11
0.189456
21
-1.260257
31
0.0
0
LINE
8
1
62
3
10
0.189456
20
-1.260257
30
0.0
11
0.199452
21
-1.224155
31
0.0
0
LINE
8
1
62
3
10
0.199452
20
-1.224155
30
0.0
11
0.206982
21
-1.218833
31
0.0
0
LINE
8
1
62
3
10
0.206982
20
-1.218833
30
0.0
11
0.217812
21
-1.219689
31
0.0
0
LINE
8
1
62
3
10
0.217812
20
-1.219689
30
0.0
11
0.234408
21
-1.218203
31
0.0
0
LINE
8
1
62
3
10
0.234408
20
-1.218203
30
0.0
11
0.238802
21
-1.197347
31
0.0
0
LINE
8
1
62
3
10
0.238802
20
-1.197347
30
0.0
11
0.242062
21
-1.179565
31
0.0
0
LINE
8
1
62
3
10
0.242062
20
-1.179565
30
0.0
11
0.250091
21
-1.176492
31
0.0
0
LINE
8
1
62
3
10
0.250091
20
-1.176492
30
0.0
11
0.258064
21
-1.18758
31
0.0
0
LINE
8
1
62
3
10
0.258064
20
-1.18758
30
0.0
11
0.26138
21
-1.20444
31
0.0
0
LINE
8
1
62
3
10
0.26138
20
-1.20444
30
0.0
11
0.264171
21
-1.220356
31
0.0
0
LINE
8
1
62
3
10
0.264171
20
-1.220356
30
0.0
11
0.27088
21
-1.229174
31
0.0
0
LINE
8
1
62
3
10
0.27088
20
-1.229174
30
0.0
11
0.279715
21
-1.242735
31
0.0
0
LINE
8
1
62
3
10
0.279715
20
-1.242735
30
0.0
11
0.287617
21
-1.270055
31
0.0
0
LINE
8
1
62
3
10
0.287617
20
-1.270055
30
0.0
11
0.289401
21
-1.30077
31
0.0
0
LINE
8
1
62
3
10
0.289401
20
-1.30077
30
0.0
11
0.276485
21
-1.314223
31
0.0
0
LINE
8
1
62
3
10
0.276485
20
-1.314223
30
0.0
11
0.259343
21
-1.313981
31
0.0
0
LINE
8
1
62
3
10
0.259343
20
-1.313981
30
0.0
11
0.244149
21
-1.302172
31
0.0
0
LINE
8
1
62
3
10
0.244149
20
-1.302172
30
0.0
11
0.231296
21
-1.289011
31
0.0
0
LINE
8
1
62
3
10
0.231296
20
-1.289011
30
0.0
11
0.223204
21
-1.301261
31
0.0
0
LINE
8
1
62
3
10
0.223204
20
-1.301261
30
0.0
11
0.216225
21
-1.341104
31
0.0
0
LINE
8
1
62
3
10
0.216225
20
-1.341104
30
0.0
11
0.213132
21
-1.356398
31
0.0
0
LINE
8
1
62
3
10
0.213132
20
-1.356398
30
0.0
11
0.205696
21
-1.362759
31
0.0
0
LINE
8
1
62
3
10
0.205696
20
-1.362759
30
0.0
11
0.196156
21
-1.369391
31
0.0
0
LINE
8
1
62
3
10
0.196156
20
-1.369391
30
0.0
11
0.188002
21
-1.385336
31
0.0
0
LINE
8
1
62
3
10
0.188002
20
-1.385336
30
0.0
11
0.180006
21
-1.400955
31
0.0
0
LINE
8
1
62
3
10
0.180006
20
-1.400955
30
0.0
11
0.170703
21
-1.407299
31
0.0
0
LINE
8
1
62
3
10
0.170703
20
-1.407299
30
0.0
11
0.162994
21
-1.403871
31
0.0
0
LINE
8
1
62
3
10
0.162994
20
-1.403871
30
0.0
11
0.15978
21
-1.390175
31
0.0
0
LINE
8
1
62
3
10
0.15978
20
-1.390175
30
0.0
11
0.154505
21
-1.372371
31
0.0
0
LINE
8
1
62
3
10
0.154505
20
-1.372371
30
0.0
11
0.141822
21
-1.354477
31
0.0
0
LINE
8
1
62
3
10
0.141822
20
-1.354477
30
0.0
11
0.125292
21
-1.342672
31
0.0
0
LINE
8
1
62
3
10
0.125292
20
-1.342672
30
0.0
11
0.113773
21
-1.352461
31
0.0
0
LINE
8
1
62
3
10
0.113773
20
-1.352461
30
0.0
11
0.103508
21
-1.393406
31
0.0
0
LINE
8
1
62
3
10
0.103508
20
-1.393406
30
0.0
11
0.096754
21
-1.414614
31
0.0
0
LINE
8
1
62
3
10
0.096754
20
-1.414614
30
0.0
11
0.080758
21
-1.430492
31
0.0
0
LINE
8
1
62
3
10
0.080758
20
-1.430492
30
0.0
11
0.064812
21
-1.443883
31
0.0
0
LINE
8
1
62
3
10
0.064812
20
-1.443883
30
0.0
11
0.05818
21
-1.459111
31
0.0
0
LINE
8
1
62
3
10
0.05818
20
-1.459111
30
0.0
11
0.053206
21
-1.47079
31
0.0
0
LINE
8
1
62
3
10
0.053206
20
-1.47079
30
0.0
11
0.041247
21
-1.475648
31
0.0
0
LINE
8
1
62
3
10
0.041247
20
-1.475648
30
0.0
11
0.029288
21
-1.472369
31
0.0
0
LINE
8
1
62
3
10
0.029288
20
-1.472369
30
0.0
11
0.024313
21
-1.464488
31
0.0
0
LINE
8
1
62
3
10
0.024313
20
-1.464488
30
0.0
11
0.018403
21
-1.448505
31
0.0
0
LINE
8
1
62
3
10
0.018403
20
-1.448505
30
0.0
11
0.004621
21
-1.430735
31
0.0
0
LINE
8
1
62
3
10
0.004621
20
-1.430735
30
0.0
11
-0.011107
21
-1.417421
31
0.0
0
LINE
8
1
62
3
10
-0.011107
20
-1.417421
30
0.0
11
-0.022856
21
-1.414803
31
0.0
0
LINE
8
1
62
3
10
-0.022856
20
-1.414803
30
0.0
11
-0.029406
21
-1.426675
31
0.0
0
LINE
8
1
62
3
10
-0.029406
20
-1.426675
30
0.0
11
-0.032131
21
-1.447168
31
0.0
0
LINE
8
1
62
3
10
-0.032131
20
-1.447168
30
0.0
11
-0.037499
21
-1.488788
31
0.0
0
LINE
8
1
62
3
10
-0.037499
20
-1.488788
30
0.0
11
-0.051444
21
-1.50721
31
0.0
0
LINE
8
1
62
3
10
-0.051444
20
-1.50721
30
0.0
11
-0.070733
21
-1.501224
31
0.0
0
LINE
8
1
62
3
10
-0.070733
20
-1.501224
30
0.0
11
-0.092129
21
-1.46962
31
0.0
0
LINE
8
1
62
3
10
0.588758
20
-1.420144
30
0.0
11
0.592074
21
-1.411507
31
0.0
0
LINE
8
1
62
3
10
0.592074
20
-1.411507
30
0.0
11
0.600047
21
-1.407914
31
0.0
0
LINE
8
1
62
3
10
0.600047
20
-1.407914
30
0.0
11
0.609778
21
-1.394201
31
0.0
0
LINE
8
1
62
3
10
0.609778
20
-1.394201
30
0.0
11
0.611459
21
-1.36348
31
0.0
0
LINE
8
1
62
3
10
0.611459
20
-1.36348
30
0.0
11
0.606022
21
-1.331378
31
0.0
0
LINE
8
1
62
3
10
0.606022
20
-1.331378
30
0.0
11
0.594402
21
-1.313521
31
0.0
0
LINE
8
1
62
3
10
0.594402
20
-1.313521
30
0.0
11
0.581941
21
-1.298154
31
0.0
0
LINE
8
1
62
3
10
0.581941
20
-1.298154
30
0.0
11
0.577469
21
-1.266942
31
0.0
0
LINE
8
1
62
3
10
0.577469
20
-1.266942
30
0.0
11
0.573158
21
-1.234066
31
0.0
0
LINE
8
1
62
3
10
0.573158
20
-1.234066
30
0.0
11
0.564682
21
-1.231114
31
0.0
0
LINE
8
1
62
3
10
0.564682
20
-1.231114
30
0.0
11
0.549247
21
-1.233945
31
0.0
0
LINE
8
1
62
3
10
0.549247
20
-1.233945
30
0.0
11
0.533785
21
-1.236779
31
0.0
0
LINE
8
1
62
3
10
0.533785
20
-1.236779
30
0.0
11
0.525311
21
-1.233765
31
0.0
0
LINE
8
1
62
3
10
0.525311
20
-1.233765
30
0.0
11
0.521025
21
-1.200294
31
0.0
0
LINE
8
1
62
3
10
0.521025
20
-1.200294
30
0.0
11
0.516294
21
-1.166555
31
0.0
0
LINE
8
1
62
3
10
0.516294
20
-1.166555
30
0.0
11
0.507957
21
-1.160909
31
0.0
0
LINE
8
1
62
3
10
0.507957
20
-1.160909
30
0.0
11
0.493484
21
-1.159559
31
0.0
0
LINE
8
1
62
3
10
0.493484
20
-1.159559
30
0.0
11
0.479115
21
-1.158068
31
0.0
0
LINE
8
1
62
3
10
0.479115
20
-1.158068
30
0.0
11
0.470251
21
-1.152129
31
0.0
0
LINE
8
1
62
3
10
0.470251
20
-1.152129
30
0.0
11
0.462439
21
-1.118098
31
0.0
0
LINE
8
1
62
3
10
0.462439
20
-1.118098
30
0.0
11
0.456058
21
-1.090982
31
0.0
0
LINE
8
1
62
3
10
0.456058
20
-1.090982
30
0.0
11
0.44531
21
-1.073015
31
0.0
0
LINE
8
1
62
3
10
0.44531
20
-1.073015
30
0.0
11
0.435196
21
-1.069375
31
0.0
0
LINE
8
1
62
3
10
0.435196
20
-1.069375
30
0.0
11
0.430713
21
-1.08524
31
0.0
0
LINE
8
1
62
3
10
0.430713
20
-1.08524
30
0.0
11
0.424326
21
-1.098058
31
0.0
0
LINE
8
1
62
3
10
0.424326
20
-1.098058
30
0.0
11
0.408136
21
-1.103114
31
0.0
0
LINE
8
1
62
3
10
0.408136
20
-1.103114
30
0.0
11
0.39219
21
-1.098336
31
0.0
0
LINE
8
1
62
3
10
0.39219
20
-1.098336
30
0.0
11
0.385558
21
-1.086847
31
0.0
0
LINE
8
1
62
3
10
0.385558
20
-1.086847
30
0.0
11
0.381436
21
-1.069566
31
0.0
0
LINE
8
1
62
3
10
0.381436
20
-1.069566
30
0.0
11
0.370424
21
-1.063646
31
0.0
0
LINE
8
1
62
3
10
0.370424
20
-1.063646
30
0.0
11
0.35455
21
-1.069122
31
0.0
0
LINE
8
1
62
3
10
0.35455
20
-1.069122
30
0.0
11
0.335844
21
-1.086028
31
0.0
0
LINE
8
1
62
3
10
0.335844
20
-1.086028
30
0.0
11
0.311211
21
-1.108588
31
0.0
0
LINE
8
1
62
3
10
0.311211
20
-1.108588
30
0.0
11
0.302471
21
-1.107149
31
0.0
0
LINE
8
1
62
3
10
0.302471
20
-1.107149
30
0.0
11
0.292106
21
-1.098361
31
0.0
0
LINE
8
1
62
3
10
0.292106
20
-1.098361
30
0.0
11
0.263569
21
-1.080536
31
0.0
0
LINE
8
1
62
3
10
0.263569
20
-1.080536
30
0.0
11
0.239303
21
-1.064206
31
0.0
0
LINE
8
1
62
3
10
0.239303
20
-1.064206
30
0.0
11
0.230805
21
-1.056324
31
0.0
0
LINE
8
1
62
3
10
0.230805
20
-1.056324
30
0.0
11
0.220888
21
-1.054059
31
0.0
0
LINE
8
1
62
3
10
0.220888
20
-1.054059
30
0.0
11
0.184298
21
-1.067028
31
0.0
0
LINE
8
1
62
3
10
0.184298
20
-1.067028
30
0.0
11
0.137004
21
-1.093891
31
0.0
0
LINE
8
1
62
3
10
0.137004
20
-1.093891
30
0.0
11
0.111137
21
-1.10927
31
0.0
0
LINE
8
1
62
3
10
0.111137
20
-1.10927
30
0.0
11
0.065462
21
-1.123116
31
0.0
0
LINE
8
1
62
3
10
0.065462
20
-1.123116
30
0.0
11
0.013586
21
-1.132225
31
0.0
0
LINE
8
1
62
3
10
0.013586
20
-1.132225
30
0.0
11
-0.030886
21
-1.133398
31
0.0
0
LINE
8
1
62
3
10
-0.030886
20
-1.133398
30
0.0
11
-0.119809
21
-1.118582
31
0.0
0
LINE
8
1
62
3
10
-0.119809
20
-1.118582
30
0.0
11
-0.146622
21
-1.109003
31
0.0
0
LINE
8
1
62
3
10
-0.146622
20
-1.109003
30
0.0
11
-0.161953
21
-1.097899
31
0.0
0
LINE
8
1
62
3
10
-0.161953
20
-1.097899
30
0.0
11
-0.215575
21
-1.068717
31
0.0
0
LINE
8
1
62
3
10
-0.215575
20
-1.068717
30
0.0
11
-0.245473
21
-1.053608
31
0.0
0
LINE
8
1
62
3
10
-0.245473
20
-1.053608
30
0.0
11
-0.257909
21
-1.038758
31
0.0
0
LINE
8
1
62
3
10
-0.257909
20
-1.038758
30
0.0
11
-0.259597
21
-1.028286
31
0.0
0
LINE
8
1
62
3
10
-0.259597
20
-1.028286
30
0.0
11
-0.264705
21
-1.02479
31
0.0
0
LINE
8
1
62
3
10
-0.264705
20
-1.02479
30
0.0
11
-0.285444
21
-1.038726
31
0.0
0
LINE
8
1
62
3
10
-0.285444
20
-1.038726
30
0.0
11
-0.34759
21
-1.06904
31
0.0
0
LINE
8
1
62
3
10
-0.34759
20
-1.06904
30
0.0
11
-0.387484
21
-1.07878
31
0.0
0
LINE
8
1
62
3
10
-0.387484
20
-1.07878
30
0.0
11
-0.397556
21
-1.076792
31
0.0
0
LINE
8
1
62
3
10
-0.397556
20
-1.076792
30
0.0
11
-0.404015
21
-1.070299
31
0.0
0
LINE
8
1
62
3
10
-0.404015
20
-1.070299
30
0.0
11
-0.415919
21
-1.061685
31
0.0
0
LINE
8
1
62
3
10
-0.415919
20
-1.061685
30
0.0
11
-0.437018
21
-1.070923
31
0.0
0
LINE
8
1
62
3
10
-0.437018
20
-1.070923
30
0.0
11
-0.461109
21
-1.094541
31
0.0
0
LINE
8
1
62
3
10
-0.461109
20
-1.094541
30
0.0
11
-0.472398
21
-1.103114
31
0.0
0
LINE
8
1
62
3
10
-0.472398
20
-1.103114
30
0.0
11
-0.480534
21
-1.085095
31
0.0
0
LINE
8
1
62
3
10
-0.480534
20
-1.085095
30
0.0
11
-0.483246
21
-1.043774
31
0.0
0
LINE
8
1
62
3
10
-0.483246
20
-1.043774
30
0.0
11
-0.480534
21
-0.998257
31
0.0
0
LINE
8
1
62
3
10
-0.480534
20
-0.998257
30
0.0
11
-0.472398
21
-0.967648
31
0.0
0
LINE
8
1
62
3
10
-0.472398
20
-0.967648
30
0.0
11
-0.463775
21
-0.962266
31
0.0
0
LINE
8
1
62
3
10
-0.463775
20
-0.962266
30
0.0
11
-0.461282
21
-0.987403
31
0.0
0
LINE
8
1
62
3
10
-0.461282
20
-0.987403
30
0.0
11
-0.457191
21
-1.012613
31
0.0
0
LINE
8
1
62
3
10
-0.457191
20
-1.012613
30
0.0
11
-0.445806
21
-1.023514
31
0.0
0
LINE
8
1
62
3
10
-0.445806
20
-1.023514
30
0.0
11
-0.428005
21
-1.019887
31
0.0
0
LINE
8
1
62
3
10
-0.428005
20
-1.019887
30
0.0
11
-0.404664
21
-1.001514
31
0.0
0
LINE
8
1
62
3
10
-0.404664
20
-1.001514
30
0.0
11
-0.382283
21
-0.98419
31
0.0
0
LINE
8
1
62
3
10
-0.382283
20
-0.98419
30
0.0
11
-0.364085
21
-0.978744
31
0.0
0
LINE
8
1
62
3
10
-0.364085
20
-0.978744
30
0.0
11
-0.3536
21
-0.985067
31
0.0
0
LINE
8
1
62
3
10
-0.3536
20
-0.985067
30
0.0
11
-0.354352
21
-1.003051
31
0.0
0
LINE
8
1
62
3
10
-0.354352
20
-1.003051
30
0.0
11
-0.355611
21
-1.02201
31
0.0
0
LINE
8
1
62
3
10
-0.355611
20
-1.02201
30
0.0
11
-0.329713
21
-1.019069
31
0.0
0
LINE
8
1
62
3
10
-0.329713
20
-1.019069
30
0.0
11
-0.29853
21
-1.006978
31
0.0
0
LINE
8
1
62
3
10
-0.29853
20
-1.006978
30
0.0
11
-0.27796
21
-0.988456
31
0.0
0
LINE
8
1
62
3
10
-0.27796
20
-0.988456
30
0.0
11
-0.267302
21
-0.962508
31
0.0
0
LINE
8
1
62
3
10
-0.267302
20
-0.962508
30
0.0
11
-0.265858
21
-0.928136
31
0.0
0
LINE
8
1
62
3
10
-0.265858
20
-0.928136
30
0.0
11
-0.27226
21
-0.860165
31
0.0
0
LINE
8
1
62
3
10
-0.27226
20
-0.860165
30
0.0
11
-0.281093
21
-0.84347
31
0.0
0
LINE
8
1
62
3
10
-0.281093
20
-0.84347
30
0.0
11
-0.291004
21
-0.804971
31
0.0
0
LINE
8
1
62
3
10
-0.291004
20
-0.804971
30
0.0
11
-0.292919
21
-0.727759
31
0.0
0
LINE
8
1
62
3
10
-0.292919
20
-0.727759
30
0.0
11
-0.289031
21
-0.706103
31
0.0
0
LINE
8
1
62
3
10
-0.289031
20
-0.706103
30
0.0
11
-0.281435
21
-0.697505
31
0.0
0
LINE
8
1
62
3
10
-0.281435
20
-0.697505
30
0.0
11
-0.273141
21
-0.702622
31
0.0
0
LINE
8
1
62
3
10
-0.273141
20
-0.702622
30
0.0
11
-0.267161
21
-0.722114
31
0.0
0
LINE
8
1
62
3
10
-0.267161
20
-0.722114
30
0.0
11
-0.257909
21
-0.74187
31
0.0
0
LINE
8
1
62
3
10
-0.257909
20
-0.74187
30
0.0
11
-0.238153
21
-0.751122
31
0.0
0
LINE
8
1
62
3
10
-0.238153
20
-0.751122
30
0.0
11
-0.220214
21
-0.756755
31
0.0
0
LINE
8
1
62
3
10
-0.220214
20
-0.756755
30
0.0
11
-0.212753
21
-0.765233
31
0.0
0
LINE
8
1
62
3
10
-0.212753
20
-0.765233
30
0.0
11
-0.203634
21
-0.772389
31
0.0
0
LINE
8
1
62
3
10
-0.203634
20
-0.772389
30
0.0
11
-0.181709
21
-0.774845
31
0.0
0
LINE
8
1
62
3
10
-0.181709
20
-0.774845
30
0.0
11
-0.150664
21
-0.773954
31
0.0
0
LINE
8
1
62
3
10
-0.150664
20
-0.773954
30
0.0
11
-0.181709
21
-0.762616
31
0.0
0
LINE
8
1
62
3
10
-0.181709
20
-0.762616
30
0.0
11
-0.204403
21
-0.748507
31
0.0
0
LINE
8
1
62
3
10
-0.204403
20
-0.748507
30
0.0
11
-0.212753
21
-0.72964
31
0.0
0
LINE
8
1
62
3
10
-0.212753
20
-0.72964
30
0.0
11
-0.216069
21
-0.714359
31
0.0
0
LINE
8
1
62
3
10
-0.216069
20
-0.714359
30
0.0
11
-0.224042
21
-0.708003
31
0.0
0
LINE
8
1
62
3
10
-0.224042
20
-0.708003
30
0.0
11
-0.232015
21
-0.702157
31
0.0
0
LINE
8
1
62
3
10
-0.232015
20
-0.702157
30
0.0
11
-0.235331
21
-0.688102
31
0.0
0
LINE
8
1
62
3
10
-0.235331
20
-0.688102
30
0.0
11
-0.242792
21
-0.670774
31
0.0
0
LINE
8
1
62
3
10
-0.242792
20
-0.670774
30
0.0
11
-0.260731
21
-0.657058
31
0.0
0
LINE
8
1
62
3
10
-0.260731
20
-0.657058
30
0.0
11
-0.273504
21
-0.649161
31
0.0
0
LINE
8
1
62
3
10
-0.273504
20
-0.649161
30
0.0
11
-0.281816
21
-0.637216
31
0.0
0
LINE
8
1
62
3
10
-0.281816
20
-0.637216
30
0.0
11
-0.289639
21
-0.590642
31
0.0
0
LINE
8
1
62
3
10
-0.289639
20
-0.590642
30
0.0
11
-0.288622
21
-0.54433
31
0.0
0
LINE
8
1
62
3
10
-0.288622
20
-0.54433
30
0.0
11
-0.278765
21
-0.503333
31
0.0
0
LINE
8
1
62
3
10
-0.278765
20
-0.503333
30
0.0
11
-0.259315
21
-0.465624
31
0.0
0
LINE
8
1
62
3
10
-0.259315
20
-0.465624
30
0.0
11
-0.229516
21
-0.429178
31
0.0
0
LINE
8
1
62
3
10
-0.229516
20
-0.429178
30
0.0
11
-0.207788
21
-0.409092
31
0.0
0
LINE
8
1
62
3
10
-0.207788
20
-0.409092
30
0.0
11
-0.184612
21
-0.397301
31
0.0
0
LINE
8
1
62
3
10
-0.184612
20
-0.397301
30
0.0
11
-0.092484
21
-0.385351
31
0.0
0
LINE
8
1
62
3
10
-0.092484
20
-0.385351
30
0.0
11
0.002139
21
-0.382309
31
0.0
0
LINE
8
1
62
3
10
0.002139
20
-0.382309
30
0.0
11
0.086162
21
-0.385827
31
0.0
0
LINE
8
1
62
3
10
0.086162
20
-0.385827
30
0.0
11
0.155494
21
-0.39907
31
0.0
0
LINE
8
1
62
3
10
0.155494
20
-0.39907
30
0.0
11
0.177494
21
-0.411315
31
0.0
0
LINE
8
1
62
3
10
0.177494
20
-0.411315
30
0.0
11
0.199119
21
-0.4305
31
0.0
0
LINE
8
1
62
3
10
0.199119
20
-0.4305
30
0.0
11
0.229522
21
-0.471806
31
0.0
0
LINE
8
1
62
3
10
0.229522
20
-0.471806
30
0.0
11
0.247984
21
-0.522582
31
0.0
0
LINE
8
1
62
3
10
0.247984
20
-0.522582
30
0.0
11
0.258111
21
-0.579603
31
0.0
0
LINE
8
1
62
3
10
0.258111
20
-0.579603
30
0.0
11
0.257882
21
-0.620571
31
0.0
0
LINE
8
1
62
3
10
0.257882
20
-0.620571
30
0.0
11
0.246251
21
-0.651844
31
0.0
0
LINE
8
1
62
3
10
0.246251
20
-0.651844
30
0.0
11
0.222175
21
-0.679781
31
0.0
0
LINE
8
1
62
3
10
0.222175
20
-0.679781
30
0.0
11
0.178491
21
-0.733938
31
0.0
0
LINE
8
1
62
3
10
0.178491
20
-0.733938
30
0.0
11
0.163467
21
-0.751752
31
0.0
0
LINE
8
1
62
3
10
0.163467
20
-0.751752
30
0.0
11
0.137351
21
-0.766087
31
0.0
0
LINE
8
1
62
3
10
0.137351
20
-0.766087
30
0.0
11
0.113328
21
-0.777142
31
0.0
0
LINE
8
1
62
3
10
0.113328
20
-0.777142
30
0.0
11
0.103336
21
-0.78707
31
0.0
0
LINE
8
1
62
3
10
0.103336
20
-0.78707
30
0.0
11
0.086755
21
-0.795795
31
0.0
0
LINE
8
1
62
3
10
0.086755
20
-0.795795
30
0.0
11
0.046891
21
-0.803959
31
0.0
0
LINE
8
1
62
3
10
0.046891
20
-0.803959
30
0.0
11
-0.000146
21
-0.815014
31
0.0
0
LINE
8
1
62
3
10
-0.000146
20
-0.815014
30
0.0
11
-0.007789
21
-0.824378
31
0.0
0
LINE
8
1
62
3
10
-0.007789
20
-0.824378
30
0.0
11
-0.009553
21
-0.839239
31
0.0
0
LINE
8
1
62
3
10
-0.009553
20
-0.839239
30
0.0
11
-0.004579
21
-0.860582
31
0.0
0
LINE
8
1
62
3
10
-0.004579
20
-0.860582
30
0.0
11
0.00738
21
-0.873254
31
0.0
0
LINE
8
1
62
3
10
0.00738
20
-0.873254
30
0.0
11
0.024313
21
-0.889833
31
0.0
0
LINE
8
1
62
3
10
0.024313
20
-0.889833
30
0.0
11
0.031537
21
-0.90653
31
0.0
0
LINE
8
1
62
3
10
0.031537
20
-0.90653
30
0.0
11
0.051125
21
-0.924683
31
0.0
0
LINE
8
1
62
3
10
0.051125
20
-0.924683
30
0.0
11
0.114895
21
-0.956196
31
0.0
0
LINE
8
1
62
3
10
0.114895
20
-0.956196
30
0.0
11
0.153703
21
-0.970754
31
0.0
0
LINE
8
1
62
3
10
0.153703
20
-0.970754
30
0.0
11
0.131902
21
-0.97667
31
0.0
0
LINE
8
1
62
3
10
0.131902
20
-0.97667
30
0.0
11
0.095857
21
-0.975585
31
0.0
0
LINE
8
1
62
3
10
0.095857
20
-0.975585
30
0.0
11
0.05627
21
-0.967017
31
0.0
0
LINE
8
1
62
3
10
0.05627
20
-0.967017
30
0.0
11
0.023031
21
-0.960035
31
0.0
0
LINE
8
1
62
3
10
0.023031
20
-0.960035
30
0.0
11
-0.020515
21
-0.958885
31
0.0
0
LINE
8
1
62
3
10
-0.020515
20
-0.958885
30
0.0
11
-0.159131
21
-0.974828
31
0.0
0
LINE
8
1
62
3
10
-0.159131
20
-0.974828
30
0.0
11
-0.190497
21
-0.976222
31
0.0
0
LINE
8
1
62
3
10
-0.190497
20
-0.976222
30
0.0
11
-0.201026
21
-0.970066
31
0.0
0
LINE
8
1
62
3
10
-0.201026
20
-0.970066
30
0.0
11
-0.190675
21
-0.960329
31
0.0
0
LINE
8
1
62
3
10
-0.190675
20
-0.960329
30
0.0
11
-0.159398
21
-0.95098
31
0.0
0
LINE
8
1
62
3
10
-0.159398
20
-0.95098
30
0.0
11
-0.115822
21
-0.932886
31
0.0
0
LINE
8
1
62
3
10
-0.115822
20
-0.932886
30
0.0
11
-0.069087
21
-0.893449
31
0.0
0
LINE
8
1
62
3
10
-0.069087
20
-0.893449
30
0.0
11
-0.03192
21
-0.851838
31
0.0
0
LINE
8
1
62
3
10
-0.03192
20
-0.851838
30
0.0
11
-0.022082
21
-0.826906
31
0.0
0
LINE
8
1
62
3
10
-0.022082
20
-0.826906
30
0.0
11
-0.027823
21
-0.818914
31
0.0
0
LINE
8
1
62
3
10
-0.027823
20
-0.818914
30
0.0
11
-0.040888
21
-0.812956
31
0.0
0
LINE
8
1
62
3
10
-0.040888
20
-0.812956
30
0.0
11
-0.089652
21
-0.804289
31
0.0
0
LINE
8
1
62
3
10
-0.089652
20
-0.804289
30
0.0
11
-0.120624
21
-0.801912
31
0.0
0
LINE
8
1
62
3
10
-0.120624
20
-0.801912
30
0.0
11
-0.12682
21
-0.802713
31
0.0
0
LINE
8
1
62
3
10
-0.12682
20
-0.802713
30
0.0
11
-0.125264
21
-0.804818
31
0.0
0
LINE
8
1
62
3
10
-0.125264
20
-0.804818
30
0.0
11
-0.113081
21
-0.823402
31
0.0
0
LINE
8
1
62
3
10
-0.113081
20
-0.823402
30
0.0
11
-0.11095
21
-0.854722
31
0.0
0
LINE
8
1
62
3
10
-0.11095
20
-0.854722
30
0.0
11
-0.117961
21
-0.88695
31
0.0
0
LINE
8
1
62
3
10
-0.117961
20
-0.88695
30
0.0
11
-0.133208
21
-0.908256
31
0.0
0
LINE
8
1
62
3
10
-0.133208
20
-0.908256
30
0.0
11
-0.151246
21
-0.915477
31
0.0
0
LINE
8
1
62
3
10
-0.151246
20
-0.915477
30
0.0
11
-0.162096
21
-0.910972
31
0.0
0
LINE
8
1
62
3
10
-0.162096
20
-0.910972
30
0.0
11
-0.172124
21
-0.901169
31
0.0
0
LINE
8
1
62
3
10
-0.172124
20
-0.901169
30
0.0
11
-0.183349
21
-0.903815
31
0.0
0
LINE
8
1
62
3
10
-0.183349
20
-0.903815
30
0.0
11
-0.213296
21
-0.94938
31
0.0
0
LINE
8
1
62
3
10
-0.213296
20
-0.94938
30
0.0
11
-0.23199
21
-0.995284
31
0.0
0
LINE
8
1
62
3
10
-0.23199
20
-0.995284
30
0.0
11
-0.228251
21
-1.007323
31
0.0
0
LINE
8
1
62
3
10
-0.228251
20
-1.007323
30
0.0
11
-0.216131
21
-1.020714
31
0.0
0
LINE
8
1
62
3
10
-0.216131
20
-1.020714
30
0.0
11
-0.180071
21
-1.047193
31
0.0
0
LINE
8
1
62
3
10
-0.180071
20
-1.047193
30
0.0
11
-0.132308
21
-1.065853
31
0.0
0
LINE
8
1
62
3
10
-0.132308
20
-1.065853
30
0.0
11
-0.0721
21
-1.0769
31
0.0
0
LINE
8
1
62
3
10
-0.0721
20
-1.0769
30
0.0
11
0.001298
21
-1.080536
31
0.0
0
LINE
8
1
62
3
10
0.001298
20
-1.080536
30
0.0
11
0.07447
21
-1.07722
31
0.0
0
LINE
8
1
62
3
10
0.07447
20
-1.07722
30
0.0
11
0.10898
21
-1.069248
31
0.0
0
LINE
8
1
62
3
10
0.10898
20
-1.069248
30
0.0
11
0.119963
21
-1.061275
31
0.0
0
LINE
8
1
62
3
10
0.119963
20
-1.061275
30
0.0
11
0.13657
21
-1.057959
31
0.0
0
LINE
8
1
62
3
10
0.13657
20
-1.057959
30
0.0
11
0.159186
21
-1.048958
31
0.0
0
LINE
8
1
62
3
10
0.159186
20
-1.048958
30
0.0
11
0.177859
21
-1.027444
31
0.0
0
LINE
8
1
62
3
10
0.177859
20
-1.027444
30
0.0
11
0.187636
21
-1.001651
31
0.0
0
LINE
8
1
62
3
10
0.187636
20
-1.001651
30
0.0
11
0.183566
21
-0.979811
31
0.0
0
LINE
8
1
62
3
10
0.183566
20
-0.979811
30
0.0
11
0.163984
21
-0.943028
31
0.0
0
LINE
8
1
62
3
10
0.163984
20
-0.943028
30
0.0
11
0.155274
21
-0.928706
31
0.0
0
LINE
8
1
62
3
10
0.155274
20
-0.928706
30
0.0
11
0.141962
21
-0.918653
31
0.0
0
LINE
8
1
62
3
10
0.141962
20
-0.918653
30
0.0
11
0.127066
21
-0.914399
31
0.0
0
LINE
8
1
62
3
10
0.127066
20
-0.914399
30
0.0
11
0.113606
21
-0.917477
31
0.0
0
LINE
8
1
62
3
10
0.113606
20
-0.917477
30
0.0
11
0.106352
21
-0.918448
31
0.0
0
LINE
8
1
62
3
10
0.106352
20
-0.918448
30
0.0
11
0.103336
21
-0.911869
31
0.0
0
LINE
8
1
62
3
10
0.103336
20
-0.911869
30
0.0
11
0.098361
21
-0.903426
31
0.0
0
LINE
8
1
62
3
10
0.098361
20
-0.903426
30
0.0
11
0.086402
21
-0.899914
31
0.0
0
LINE
8
1
62
3
10
0.086402
20
-0.899914
30
0.0
11
0.07354
21
-0.890714
31
0.0
0
LINE
8
1
62
3
10
0.07354
20
-0.890714
30
0.0
11
0.069469
21
-0.861649
31
0.0
0
LINE
8
1
62
3
10
0.069469
20
-0.861649
30
0.0
11
0.07076
21
-0.840269
31
0.0
0
LINE
8
1
62
3
10
0.07076
20
-0.840269
30
0.0
11
0.077144
21
-0.826899
31
0.0
0
LINE
8
1
62
3
10
0.077144
20
-0.826899
30
0.0
11
0.120269
21
-0.808385
31
0.0
0
LINE
8
1
62
3
10
0.120269
20
-0.808385
30
0.0
11
0.156146
21
-0.795423
31
0.0
0
LINE
8
1
62
3
10
0.156146
20
-0.795423
30
0.0
11
0.171069
21
-0.785322
31
0.0
0
LINE
8
1
62
3
10
0.171069
20
-0.785322
30
0.0
11
0.194293
21
-0.769887
31
0.0
0
LINE
8
1
62
3
10
0.194293
20
-0.769887
30
0.0
11
0.213915
21
-0.756214
31
0.0
0
LINE
8
1
62
3
10
0.213915
20
-0.756214
30
0.0
11
0.228476
21
-0.733694
31
0.0
0
LINE
8
1
62
3
10
0.228476
20
-0.733694
30
0.0
11
0.244413
21
-0.709851
31
0.0
0
LINE
8
1
62
3
10
0.244413
20
-0.709851
30
0.0
11
0.250633
21
-0.751617
31
0.0
0
LINE
8
1
62
3
10
0.250633
20
-0.751617
30
0.0
11
0.244325
21
-0.809603
31
0.0
0
LINE
8
1
62
3
10
0.244325
20
-0.809603
30
0.0
11
0.236547
21
-0.860403
31
0.0
0
LINE
8
1
62
3
10
0.236547
20
-0.860403
30
0.0
11
0.22599
21
-0.939249
31
0.0
0
LINE
8
1
62
3
10
0.22599
20
-0.939249
30
0.0
11
0.220542
21
-0.972239
31
0.0
0
LINE
8
1
62
3
10
0.220542
20
-0.972239
30
0.0
11
0.222022
21
-0.992976
31
0.0
0
LINE
8
1
62
3
10
0.222022
20
-0.992976
30
0.0
11
0.233317
21
-1.009987
31
0.0
0
LINE
8
1
62
3
10
0.233317
20
-1.009987
30
0.0
11
0.25731
21
-1.031799
31
0.0
0
LINE
8
1
62
3
10
0.25731
20
-1.031799
30
0.0
11
0.289554
21
-1.055819
31
0.0
0
LINE
8
1
62
3
10
0.289554
20
-1.055819
30
0.0
11
0.308121
21
-1.062623
31
0.0
0
LINE
8
1
62
3
10
0.308121
20
-1.062623
30
0.0
11
0.324288
21
-1.018052
31
0.0
0
LINE
8
1
62
3
10
0.324288
20
-1.018052
30
0.0
11
0.337614
21
-0.978936
31
0.0
0
LINE
8
1
62
3
10
0.337614
20
-0.978936
30
0.0
11
0.377217
21
-1.014111
31
0.0
0
LINE
8
1
62
3
10
0.377217
20
-1.014111
30
0.0
11
0.400708
21
-1.034062
31
0.0
0
LINE
8
1
62
3
10
0.400708
20
-1.034062
30
0.0
11
0.417265
21
-1.037265
31
0.0
0
LINE
8
1
62
3
10
0.417265
20
-1.037265
30
0.0
11
0.427129
21
-1.023626
31
0.0
0
LINE
8
1
62
3
10
0.427129
20
-1.023626
30
0.0
11
0.430541
21
-0.993048
31
0.0
0
LINE
8
1
62
3
10
0.430541
20
-0.993048
30
0.0
11
0.43405
21
-0.972313
31
0.0
0
LINE
8
1
62
3
10
0.43405
20
-0.972313
30
0.0
11
0.442126
21
-0.968746
31
0.0
0
LINE
8
1
62
3
10
0.442126
20
-0.968746
30
0.0
11
0.451693
21
-0.980857
31
0.0
0
LINE
8
1
62
3
10
0.451693
20
-0.980857
30
0.0
11
0.45968
21
-1.007159
31
0.0
0
LINE
8
1
62
3
10
0.45968
20
-1.007159
30
0.0
11
0.472538
21
-1.040073
31
0.0
0
LINE
8
1
62
3
10
0.472538
20
-1.040073
30
0.0
11
0.480765
21
-1.045949
31
0.0
0
LINE
8
1
62
3
10
0.480765
20
-1.045949
30
0.0
11
0.489185
21
-1.045242
31
0.0
0
LINE
8
1
62
3
10
0.489185
20
-1.045242
30
0.0
11
0.503593
21
-1.025493
31
0.0
0
LINE
8
1
62
3
10
0.503593
20
-1.025493
30
0.0
11
0.509736
21
-0.983658
31
0.0
0
LINE
8
1
62
3
10
0.509736
20
-0.983658
30
0.0
11
0.515752
21
-0.957805
31
0.0
0
LINE
8
1
62
3
10
0.515752
20
-0.957805
30
0.0
11
0.538764
21
-0.972486
31
0.0
0
LINE
8
1
62
3
10
0.538764
20
-0.972486
30
0.0
11
0.549661
21
-0.991809
31
0.0
0
LINE
8
1
62
3
10
0.549661
20
-0.991809
30
0.0
11
0.554481
21
-1.016451
31
0.0
0
LINE
8
1
62
3
10
0.554481
20
-1.016451
30
0.0
11
0.552651
21
-1.037656
31
0.0
0
LINE
8
1
62
3
10
0.552651
20
-1.037656
30
0.0
11
0.543602
21
-1.04667
31
0.0
0
LINE
8
1
62
3
10
0.543602
20
-1.04667
30
0.0
11
0.533959
21
-1.056075
31
0.0
0
LINE
8
1
62
3
10
0.533959
20
-1.056075
30
0.0
11
0.532793
21
-1.077897
31
0.0
0
LINE
8
1
62
3
10
0.532793
20
-1.077897
30
0.0
11
0.539055
21
-1.102548
31
0.0
0
LINE
8
1
62
3
10
0.539055
20
-1.102548
30
0.0
11
0.551692
21
-1.120439
31
0.0
0
LINE
8
1
62
3
10
0.551692
20
-1.120439
30
0.0
11
0.569798
21
-1.128515
31
0.0
0
LINE
8
1
62
3
10
0.569798
20
-1.128515
30
0.0
11
0.583846
21
-1.117137
31
0.0
0
LINE
8
1
62
3
10
0.583846
20
-1.117137
30
0.0
11
0.600229
21
-1.103202
31
0.0
0
LINE
8
1
62
3
10
0.600229
20
-1.103202
30
0.0
11
0.61154
21
-1.110909
31
0.0
0
LINE
8
1
62
3
10
0.61154
20
-1.110909
30
0.0
11
0.616817
21
-1.138226
31
0.0
0
LINE
8
1
62
3
10
0.616817
20
-1.138226
30
0.0
11
0.615096
21
-1.183119
31
0.0
0
LINE
8
1
62
3
10
0.615096
20
-1.183119
30
0.0
11
0.613624
21
-1.244465
31
0.0
0
LINE
8
1
62
3
10
0.613624
20
-1.244465
30
0.0
11
0.622376
21
-1.294273
31
0.0
0
LINE
8
1
62
3
10
0.622376
20
-1.294273
30
0.0
11
0.629399
21
-1.334302
31
0.0
0
LINE
8
1
62
3
10
0.629399
20
-1.334302
30
0.0
11
0.627544
21
-1.376036
31
0.0
0
LINE
8
1
62
3
10
0.627544
20
-1.376036
30
0.0
11
0.618174
21
-1.410255
31
0.0
0
LINE
8
1
62
3
10
0.618174
20
-1.410255
30
0.0
11
0.602651
21
-1.427742
31
0.0
0
LINE
8
1
62
3
10
0.602651
20
-1.427742
30
0.0
11
0.592839
21
-1.427421
31
0.0
0
LINE
8
1
62
3
10
0.592839
20
-1.427421
30
0.0
11
0.588758
21
-1.420144
31
0.0
0
LINE
8
1
62
3
10
-0.100059
20
-0.648736
30
0.0
11
-0.104119
21
-0.641053
31
0.0
0
LINE
8
1
62
3
10
-0.104119
20
-0.641053
30
0.0
11
-0.114535
21
-0.641016
31
0.0
0
LINE
8
1
62
3
10
-0.114535
20
-0.641016
30
0.0
11
-0.140594
21
-0.660025
31
0.0
0
LINE
8
1
62
3
10
-0.140594
20
-0.660025
30
0.0
11
-0.15416
21
-0.682582
31
0.0
0
LINE
8
1
62
3
10
-0.15416
20
-0.682582
30
0.0
11
-0.155731
21
-0.695794
31
0.0
0
LINE
8
1
62
3
10
-0.155731
20
-0.695794
30
0.0
11
-0.146656
21
-0.697063
31
0.0
0
LINE
8
1
62
3
10
-0.146656
20
-0.697063
30
0.0
11
-0.128282
21
-0.683788
31
0.0
0
LINE
8
1
62
3
10
-0.128282
20
-0.683788
30
0.0
11
-0.100059
21
-0.648736
31
0.0
0
LINE
8
1
62
3
10
0.112571
20
-0.679781
30
0.0
11
0.099047
21
-0.659849
31
0.0
0
LINE
8
1
62
3
10
0.099047
20
-0.659849
30
0.0
11
0.08459
21
-0.651559
31
0.0
0
LINE
8
1
62
3
10
0.08459
20
-0.651559
30
0.0
11
0.073579
21
-0.652987
31
0.0
0
LINE
8
1
62
3
10
0.073579
20
-0.652987
30
0.0
11
0.070513
21
-0.658179
31
0.0
0
LINE
8
1
62
3
10
0.070513
20
-0.658179
30
0.0
11
0.088911
21
-0.685296
31
0.0
0
LINE
8
1
62
3
10
0.088911
20
-0.685296
30
0.0
11
0.106101
21
-0.702429
31
0.0
0
LINE
8
1
62
3
10
0.106101
20
-0.702429
30
0.0
11
0.116605
21
-0.707027
31
0.0
0
LINE
8
1
62
3
10
0.116605
20
-0.707027
30
0.0
11
0.119176
21
-0.699381
31
0.0
0
LINE
8
1
62
3
10
0.119176
20
-0.699381
30
0.0
11
0.112571
21
-0.679781
31
0.0
0
LINE
8
1
62
3
10
-0.183725
20
-0.646721
30
0.0
11
-0.172335
21
-0.626804
31
0.0
0
LINE
8
1
62
3
10
-0.172335
20
-0.626804
30
0.0
11
-0.167598
21
-0.601565
31
0.0
0
LINE
8
1
62
3
10
-0.167598
20
-0.601565
30
0.0
11
-0.162032
21
-0.578262
31
0.0
0
LINE
8
1
62
3
10
-0.162032
20
-0.578262
30
0.0
11
-0.139375
21
-0.572536
31
0.0
0
LINE
8
1
62
3
10
-0.139375
20
-0.572536
30
0.0
11
-0.119444
21
-0.56922
31
0.0
0
LINE
8
1
62
3
10
-0.119444
20
-0.56922
30
0.0
11
-0.111153
21
-0.561248
31
0.0
0
LINE
8
1
62
3
10
-0.111153
20
-0.561248
30
0.0
11
-0.117063
21
-0.552839
31
0.0
0
LINE
8
1
62
3
10
-0.117063
20
-0.552839
30
0.0
11
-0.131686
21
-0.550739
31
0.0
0
LINE
8
1
62
3
10
-0.131686
20
-0.550739
30
0.0
11
-0.150364
21
-0.554688
31
0.0
0
LINE
8
1
62
3
10
-0.150364
20
-0.554688
30
0.0
11
-0.16844
21
-0.564429
31
0.0
0
LINE
8
1
62
3
10
-0.16844
20
-0.564429
30
0.0
11
-0.195883
21
-0.608569
31
0.0
0
LINE
8
1
62
3
10
-0.195883
20
-0.608569
30
0.0
11
-0.212753
21
-0.658888
31
0.0
0
LINE
8
1
62
3
10
-0.212753
20
-0.658888
30
0.0
11
-0.210354
21
-0.662846
31
0.0
0
LINE
8
1
62
3
10
-0.210354
20
-0.662846
30
0.0
11
-0.203937
21
-0.661811
31
0.0
0
LINE
8
1
62
3
10
-0.203937
20
-0.661811
30
0.0
11
-0.183725
21
-0.646721
31
0.0
0
LINE
8
1
62
3
10
0.173327
20
-0.649301
30
0.0
11
0.163759
21
-0.631246
31
0.0
0
LINE
8
1
62
3
10
0.163759
20
-0.631246
30
0.0
11
0.15978
21
-0.606861
31
0.0
0
LINE
8
1
62
3
10
0.15978
20
-0.606861
30
0.0
11
0.153263
21
-0.581985
31
0.0
0
LINE
8
1
62
3
10
0.153263
20
-0.581985
30
0.0
11
0.136496
21
-0.563426
31
0.0
0
LINE
8
1
62
3
10
0.136496
20
-0.563426
30
0.0
11
0.114536
21
-0.555399
31
0.0
0
LINE
8
1
62
3
10
0.114536
20
-0.555399
30
0.0
11
0.092771
21
-0.556066
31
0.0
0
LINE
8
1
62
3
10
0.092771
20
-0.556066
30
0.0
11
0.076113
21
-0.564293
31
0.0
0
LINE
8
1
62
3
10
0.076113
20
-0.564293
30
0.0
11
0.069469
21
-0.578942
31
0.0
0
LINE
8
1
62
3
10
0.069469
20
-0.578942
30
0.0
11
0.074252
21
-0.590386
31
0.0
0
LINE
8
1
62
3
10
0.074252
20
-0.590386
30
0.0
11
0.085365
21
-0.594721
31
0.0
0
LINE
8
1
62
3
10
0.085365
20
-0.594721
30
0.0
11
0.097958
21
-0.591682
31
0.0
0
LINE
8
1
62
3
10
0.097958
20
-0.591682
30
0.0
11
0.10718
21
-0.581003
31
0.0
0
LINE
8
1
62
3
10
0.10718
20
-0.581003
30
0.0
11
0.115207
21
-0.575033
31
0.0
0
LINE
8
1
62
3
10
0.115207
20
-0.575033
30
0.0
11
0.125037
21
-0.583642
31
0.0
0
LINE
8
1
62
3
10
0.125037
20
-0.583642
30
0.0
11
0.133401
21
-0.601984
31
0.0
0
LINE
8
1
62
3
10
0.133401
20
-0.601984
30
0.0
11
0.137029
21
-0.625218
31
0.0
0
LINE
8
1
62
3
10
0.137029
20
-0.625218
30
0.0
11
0.146784
21
-0.651268
31
0.0
0
LINE
8
1
62
3
10
0.146784
20
-0.651268
30
0.0
11
0.176149
21
-0.661956
31
0.0
0
LINE
8
1
62
3
10
0.176149
20
-0.661956
30
0.0
11
0.179744
21
-0.658606
31
0.0
0
LINE
8
1
62
3
10
0.179744
20
-0.658606
30
0.0
11
0.173327
21
-0.649301
31
0.0
0
LINE
8
1
62
3
10
0.711107
20
-0.862624
30
0.0
11
0.702963
21
-0.796608
31
0.0
0
LINE
8
1
62
3
10
0.702963
20
-0.796608
30
0.0
11
0.692015
21
-0.761589
31
0.0
0
LINE
8
1
62
3
10
0.692015
20
-0.761589
30
0.0
11
0.682872
21
-0.746338
31
0.0
0
LINE
8
1
62
3
10
0.682872
20
-0.746338
30
0.0
11
0.679069
21
-0.727851
31
0.0
0
LINE
8
1
62
3
10
0.679069
20
-0.727851
30
0.0
11
0.67232
21
-0.705922
31
0.0
0
LINE
8
1
62
3
10
0.67232
20
-0.705922
30
0.0
11
0.656092
21
-0.682396
31
0.0
0
LINE
8
1
62
3
10
0.656092
20
-0.682396
30
0.0
11
0.633115
21
-0.657733
31
0.0
0
LINE
8
1
62
3
10
0.633115
20
-0.657733
30
0.0
11
0.640101
21
-0.725202
31
0.0
0
LINE
8
1
62
3
10
0.640101
20
-0.725202
30
0.0
11
0.650745
21
-0.804982
31
0.0
0
LINE
8
1
62
3
10
0.650745
20
-0.804982
30
0.0
11
0.645325
21
-0.831982
31
0.0
0
LINE
8
1
62
3
10
0.645325
20
-0.831982
30
0.0
11
0.640493
21
-0.833816
31
0.0
0
LINE
8
1
62
3
10
0.640493
20
-0.833816
30
0.0
11
0.634815
21
-0.825519
31
0.0
0
LINE
8
1
62
3
10
0.634815
20
-0.825519
30
0.0
11
0.621668
21
-0.780158
31
0.0
0
LINE
8
1
62
3
10
0.621668
20
-0.780158
30
0.0
11
0.59923
21
-0.708003
31
0.0
0
LINE
8
1
62
3
10
0.59923
20
-0.708003
30
0.0
11
0.574416
21
-0.651987
31
0.0
0
LINE
8
1
62
3
10
0.574416
20
-0.651987
30
0.0
11
0.558747
21
-0.61518
31
0.0
0
LINE
8
1
62
3
10
0.558747
20
-0.61518
30
0.0
11
0.544886
21
-0.597424
31
0.0
0
LINE
8
1
62
3
10
0.544886
20
-0.597424
30
0.0
11
0.536164
21
-0.603314
31
0.0
0
LINE
8
1
62
3
10
0.536164
20
-0.603314
30
0.0
11
0.532511
21
-0.621497
31
0.0
0
LINE
8
1
62
3
10
0.532511
20
-0.621497
30
0.0
11
0.534401
21
-0.641649
31
0.0
0
LINE
8
1
62
3
10
0.534401
20
-0.641649
30
0.0
11
0.542311
21
-0.65344
31
0.0
0
LINE
8
1
62
3
10
0.542311
20
-0.65344
30
0.0
11
0.55176
21
-0.686772
31
0.0
0
LINE
8
1
62
3
10
0.55176
20
-0.686772
30
0.0
11
0.560442
21
-0.761625
31
0.0
0
LINE
8
1
62
3
10
0.560442
20
-0.761625
30
0.0
11
0.564031
21
-0.846853
31
0.0
0
LINE
8
1
62
3
10
0.564031
20
-0.846853
30
0.0
11
0.56017
21
-0.862113
31
0.0
0
LINE
8
1
62
3
10
0.56017
20
-0.862113
30
0.0
11
0.55198
21
-0.866048
31
0.0
0
LINE
8
1
62
3
10
0.55198
20
-0.866048
30
0.0
11
0.537886
21
-0.853852
31
0.0
0
LINE
8
1
62
3
10
0.537886
20
-0.853852
30
0.0
11
0.528737
21
-0.817567
31
0.0
0
LINE
8
1
62
3
10
0.528737
20
-0.817567
30
0.0
11
0.518934
21
-0.773527
31
0.0
0
LINE
8
1
62
3
10
0.518934
20
-0.773527
30
0.0
11
0.504695
21
-0.735723
31
0.0
0
LINE
8
1
62
3
10
0.504695
20
-0.735723
30
0.0
11
0.487227
21
-0.682603
31
0.0
0
LINE
8
1
62
3
10
0.487227
20
-0.682603
30
0.0
11
0.483862
21
-0.668651
31
0.0
0
LINE
8
1
62
3
10
0.483862
20
-0.668651
30
0.0
11
0.475869
21
-0.662848
31
0.0
0
LINE
8
1
62
3
10
0.475869
20
-0.662848
30
0.0
11
0.467896
21
-0.656215
31
0.0
0
LINE
8
1
62
3
10
0.467896
20
-0.656215
30
0.0
11
0.46458
21
-0.64027
31
0.0
0
LINE
8
1
62
3
10
0.46458
20
-0.64027
30
0.0
11
0.461264
21
-0.624324
31
0.0
0
LINE
8
1
62
3
10
0.461264
20
-0.624324
30
0.0
11
0.453291
21
-0.617692
31
0.0
0
LINE
8
1
62
3
10
0.453291
20
-0.617692
30
0.0
11
0.445318
21
-0.629298
31
0.0
0
LINE
8
1
62
3
10
0.445318
20
-0.629298
30
0.0
11
0.442002
21
-0.657203
31
0.0
0
LINE
8
1
62
3
10
0.442002
20
-0.657203
30
0.0
11
0.438686
21
-0.685108
31
0.0
0
LINE
8
1
62
3
10
0.438686
20
-0.685108
30
0.0
11
0.430713
21
-0.696714
31
0.0
0
LINE
8
1
62
3
10
0.430713
20
-0.696714
30
0.0
11
0.422741
21
-0.688424
31
0.0
0
LINE
8
1
62
3
10
0.422741
20
-0.688424
30
0.0
11
0.419425
21
-0.668492
31
0.0
0
LINE
8
1
62
3
10
0.419425
20
-0.668492
30
0.0
11
0.416108
21
-0.64856
31
0.0
0
LINE
8
1
62
3
10
0.416108
20
-0.64856
30
0.0
11
0.408136
21
-0.64027
31
0.0
0
LINE
8
1
62
3
10
0.408136
20
-0.64027
30
0.0
11
0.400089
21
-0.636125
31
0.0
0
LINE
8
1
62
3
10
0.400089
20
-0.636125
30
0.0
11
0.396596
21
-0.626159
31
0.0
0
LINE
8
1
62
3
10
0.396596
20
-0.626159
30
0.0
11
0.374269
21
-0.583825
31
0.0
0
LINE
8
1
62
3
10
0.374269
20
-0.583825
30
0.0
11
0.352193
21
-0.555603
31
0.0
0
LINE
8
1
62
3
10
0.352193
20
-0.555603
30
0.0
11
0.351942
21
-0.597936
31
0.0
0
LINE
8
1
62
3
10
0.351942
20
-0.597936
30
0.0
11
0.346877
21
-0.635398
31
0.0
0
LINE
8
1
62
3
10
0.346877
20
-0.635398
30
0.0
11
0.341512
21
-0.642013
31
0.0
0
LINE
8
1
62
3
10
0.341512
20
-0.642013
30
0.0
11
0.334903
21
-0.640982
31
0.0
0
LINE
8
1
62
3
10
0.334903
20
-0.640982
30
0.0
11
0.319886
21
-0.617281
31
0.0
0
LINE
8
1
62
3
10
0.319886
20
-0.617281
30
0.0
11
0.30569
21
-0.566892
31
0.0
0
LINE
8
1
62
3
10
0.30569
20
-0.566892
30
0.0
11
0.291371
21
-0.514517
31
0.0
0
LINE
8
1
62
3
10
0.291371
20
-0.514517
30
0.0
11
0.27745
21
-0.493514
31
0.0
0
LINE
8
1
62
3
10
0.27745
20
-0.493514
30
0.0
11
0.265607
21
-0.48926
31
0.0
0
LINE
8
1
62
3
10
0.265607
20
-0.48926
30
0.0
11
0.258237
21
-0.477171
31
0.0
0
LINE
8
1
62
3
10
0.258237
20
-0.477171
30
0.0
11
0.258214
21
-0.433532
31
0.0
0
LINE
8
1
62
3
10
0.258214
20
-0.433532
30
0.0
11
0.258967
21
-0.411518
31
0.0
0
LINE
8
1
62
3
10
0.258967
20
-0.411518
30
0.0
11
0.251407
21
-0.403203
31
0.0
0
LINE
8
1
62
3
10
0.251407
20
-0.403203
30
0.0
11
0.242606
21
-0.395742
31
0.0
0
LINE
8
1
62
3
10
0.242606
20
-0.395742
30
0.0
11
0.239146
21
-0.377803
31
0.0
0
LINE
8
1
62
3
10
0.239146
20
-0.377803
30
0.0
11
0.241418
21
-0.360689
31
0.0
0
LINE
8
1
62
3
10
0.241418
20
-0.360689
30
0.0
11
0.249882
21
-0.37017
31
0.0
0
LINE
8
1
62
3
10
0.249882
20
-0.37017
30
0.0
11
0.270726
21
-0.387173
31
0.0
0
LINE
8
1
62
3
10
0.270726
20
-0.387173
30
0.0
11
0.306243
21
-0.403107
31
0.0
0
LINE
8
1
62
3
10
0.306243
20
-0.403107
30
0.0
11
0.342797
21
-0.420946
31
0.0
0
LINE
8
1
62
3
10
0.342797
20
-0.420946
30
0.0
11
0.358819
21
-0.444607
31
0.0
0
LINE
8
1
62
3
10
0.358819
20
-0.444607
30
0.0
11
0.366798
21
-0.463202
31
0.0
0
LINE
8
1
62
3
10
0.366798
20
-0.463202
30
0.0
11
0.376701
21
-0.470936
31
0.0
0
LINE
8
1
62
3
10
0.376701
20
-0.470936
30
0.0
11
0.382753
21
-0.465962
31
0.0
0
LINE
8
1
62
3
10
0.382753
20
-0.465962
30
0.0
11
0.381475
21
-0.454003
31
0.0
0
LINE
8
1
62
3
10
0.381475
20
-0.454003
30
0.0
11
0.379229
21
-0.443164
31
0.0
0
LINE
8
1
62
3
10
0.379229
20
-0.443164
30
0.0
11
0.382457
21
-0.437989
31
0.0
0
LINE
8
1
62
3
10
0.382457
20
-0.437989
30
0.0
11
0.402592
21
-0.445709
31
0.0
0
LINE
8
1
62
3
10
0.402592
20
-0.445709
30
0.0
11
0.442103
21
-0.496259
31
0.0
0
LINE
8
1
62
3
10
0.442103
20
-0.496259
30
0.0
11
0.467344
21
-0.528428
31
0.0
0
LINE
8
1
62
3
10
0.467344
20
-0.528428
30
0.0
11
0.484702
21
-0.538419
31
0.0
0
LINE
8
1
62
3
10
0.484702
20
-0.538419
30
0.0
11
0.493057
21
-0.526325
31
0.0
0
LINE
8
1
62
3
10
0.493057
20
-0.526325
30
0.0
11
0.491288
21
-0.492235
31
0.0
0
LINE
8
1
62
3
10
0.491288
20
-0.492235
30
0.0
11
0.488229
21
-0.453994
31
0.0
0
LINE
8
1
62
3
10
0.488229
20
-0.453994
30
0.0
11
0.494587
21
-0.45241
31
0.0
0
LINE
8
1
62
3
10
0.494587
20
-0.45241
30
0.0
11
0.508088
21
-0.458766
31
0.0
0
LINE
8
1
62
3
10
0.508088
20
-0.458766
30
0.0
11
0.532313
21
-0.481307
31
0.0
0
LINE
8
1
62
3
10
0.532313
20
-0.481307
30
0.0
11
0.540604
21
-0.489654
31
0.0
0
LINE
8
1
62
3
10
0.540604
20
-0.489654
30
0.0
11
0.560536
21
-0.496277
31
0.0
0
LINE
8
1
62
3
10
0.560536
20
-0.496277
30
0.0
11
0.583519
21
-0.495722
31
0.0
0
LINE
8
1
62
3
10
0.583519
20
-0.495722
30
0.0
11
0.588758
21
-0.475015
31
0.0
0
LINE
8
1
62
3
10
0.588758
20
-0.475015
30
0.0
11
0.590846
21
-0.455218
31
0.0
0
LINE
8
1
62
3
10
0.590846
20
-0.455218
30
0.0
11
0.598859
21
-0.450728
31
0.0
0
LINE
8
1
62
3
10
0.598859
20
-0.450728
30
0.0
11
0.643151
21
-0.490692
31
0.0
0
LINE
8
1
62
3
10
0.643151
20
-0.490692
30
0.0
11
0.676474
21
-0.532255
31
0.0
0
LINE
8
1
62
3
10
0.676474
20
-0.532255
30
0.0
11
0.698415
21
-0.570705
31
0.0
0
LINE
8
1
62
3
10
0.698415
20
-0.570705
30
0.0
11
0.706852
21
-0.601222
31
0.0
0
LINE
8
1
62
3
10
0.706852
20
-0.601222
30
0.0
11
0.699661
21
-0.618987
31
0.0
0
LINE
8
1
62
3
10
0.699661
20
-0.618987
30
0.0
11
0.690458
21
-0.630906
31
0.0
0
LINE
8
1
62
3
10
0.690458
20
-0.630906
30
0.0
11
0.698612
21
-0.650721
31
0.0
0
LINE
8
1
62
3
10
0.698612
20
-0.650721
30
0.0
11
0.720239
21
-0.721476
31
0.0
0
LINE
8
1
62
3
10
0.720239
20
-0.721476
30
0.0
11
0.730478
21
-0.760388
31
0.0
0
LINE
8
1
62
3
10
0.730478
20
-0.760388
30
0.0
11
0.744244
21
-0.78608
31
0.0
0
LINE
8
1
62
3
10
0.744244
20
-0.78608
30
0.0
11
0.753464
21
-0.809446
31
0.0
0
LINE
8
1
62
3
10
0.753464
20
-0.809446
30
0.0
11
0.754951
21
-0.844444
31
0.0
0
LINE
8
1
62
3
10
0.754951
20
-0.844444
30
0.0
11
0.749442
21
-0.878419
31
0.0
0
LINE
8
1
62
3
10
0.749442
20
-0.878419
30
0.0
11
0.737675
21
-0.898719
31
0.0
0
LINE
8
1
62
3
10
0.737675
20
-0.898719
30
0.0
11
0.722045
21
-0.928136
31
0.0
0
LINE
8
1
62
3
10
0.722045
20
-0.928136
30
0.0
11
0.719699
21
-0.929952
31
0.0
0
LINE
8
1
62
3
10
0.719699
20
-0.929952
30
0.0
11
0.716855
21
-0.918206
31
0.0
0
LINE
8
1
62
3
10
0.716855
20
-0.918206
30
0.0
11
0.711107
21
-0.862624
31
0.0
0
LINE
8
1
62
3
10
-0.792551
20
-0.806781
30
0.0
11
-0.784329
21
-0.77097
31
0.0
0
LINE
8
1
62
3
10
-0.784329
20
-0.77097
30
0.0
11
-0.775084
21
-0.752245
31
0.0
0
LINE
8
1
62
3
10
-0.775084
20
-0.752245
30
0.0
11
-0.766038
21
-0.734618
31
0.0
0
LINE
8
1
62
3
10
-0.766038
20
-0.734618
30
0.0
11
-0.758298
21
-0.701445
31
0.0
0
LINE
8
1
62
3
10
-0.758298
20
-0.701445
30
0.0
11
-0.740063
21
-0.642707
31
0.0
0
LINE
8
1
62
3
10
-0.740063
20
-0.642707
30
0.0
11
-0.734837
21
-0.625342
31
0.0
0
LINE
8
1
62
3
10
-0.734837
20
-0.625342
30
0.0
11
-0.742714
21
-0.601911
31
0.0
0
LINE
8
1
62
3
10
-0.742714
20
-0.601911
30
0.0
11
-0.750639
21
-0.573882
31
0.0
0
LINE
8
1
62
3
10
-0.750639
20
-0.573882
30
0.0
11
-0.738482
21
-0.540207
31
0.0
0
LINE
8
1
62
3
10
-0.738482
20
-0.540207
30
0.0
11
-0.72242
21
-0.515203
31
0.0
0
LINE
8
1
62
3
10
-0.72242
20
-0.515203
30
0.0
11
-0.709512
21
-0.504803
31
0.0
0
LINE
8
1
62
3
10
-0.709512
20
-0.504803
30
0.0
11
-0.694421
21
-0.491564
31
0.0
0
LINE
8
1
62
3
10
-0.694421
20
-0.491564
30
0.0
11
-0.673113
21
-0.459734
31
0.0
0
LINE
8
1
62
3
10
-0.673113
20
-0.459734
30
0.0
11
-0.652432
21
-0.429719
31
0.0
0
LINE
8
1
62
3
10
-0.652432
20
-0.429719
30
0.0
11
-0.635244
21
-0.416362
31
0.0
0
LINE
8
1
62
3
10
-0.635244
20
-0.416362
30
0.0
11
-0.623501
21
-0.420301
31
0.0
0
LINE
8
1
62
3
10
-0.623501
20
-0.420301
30
0.0
11
-0.619153
21
-0.442169
31
0.0
0
LINE
8
1
62
3
10
-0.619153
20
-0.442169
30
0.0
11
-0.618425
21
-0.457496
31
0.0
0
LINE
8
1
62
3
10
-0.618425
20
-0.457496
30
0.0
11
-0.614185
21
-0.463971
31
0.0
0
LINE
8
1
62
3
10
-0.614185
20
-0.463971
30
0.0
11
-0.582837
21
-0.454577
31
0.0
0
LINE
8
1
62
3
10
-0.582837
20
-0.454577
30
0.0
11
-0.555974
21
-0.440148
31
0.0
0
LINE
8
1
62
3
10
-0.555974
20
-0.440148
30
0.0
11
-0.542385
21
-0.4269
31
0.0
0
LINE
8
1
62
3
10
-0.542385
20
-0.4269
30
0.0
11
-0.534495
21
-0.417872
31
0.0
0
LINE
8
1
62
3
10
-0.534495
20
-0.417872
30
0.0
11
-0.522328
21
-0.41478
31
0.0
0
LINE
8
1
62
3
10
-0.522328
20
-0.41478
30
0.0
11
-0.511159
21
-0.41767
31
0.0
0
LINE
8
1
62
3
10
-0.511159
20
-0.41767
30
0.0
11
-0.506264
21
-0.426587
31
0.0
0
LINE
8
1
62
3
10
-0.506264
20
-0.426587
30
0.0
11
-0.523198
21
-0.455616
31
0.0
0
LINE
8
1
62
3
10
-0.523198
20
-0.455616
30
0.0
11
-0.534913
21
-0.473554
31
0.0
0
LINE
8
1
62
3
10
-0.534913
20
-0.473554
30
0.0
11
-0.539649
21
-0.4934
31
0.0
0
LINE
8
1
62
3
10
-0.539649
20
-0.4934
30
0.0
11
-0.537065
21
-0.509472
31
0.0
0
LINE
8
1
62
3
10
-0.537065
20
-0.509472
30
0.0
11
-0.526821
21
-0.516092
31
0.0
0
LINE
8
1
62
3
10
-0.526821
20
-0.516092
30
0.0
11
-0.506757
21
-0.50393
31
0.0
0
LINE
8
1
62
3
10
-0.506757
20
-0.50393
30
0.0
11
-0.477104
21
-0.476017
31
0.0
0
LINE
8
1
62
3
10
-0.477104
20
-0.476017
30
0.0
11
-0.450237
21
-0.445208
31
0.0
0
LINE
8
1
62
3
10
-0.450237
20
-0.445208
30
0.0
11
-0.438531
21
-0.424362
31
0.0
0
LINE
8
1
62
3
10
-0.438531
20
-0.424362
30
0.0
11
-0.434828
21
-0.417391
31
0.0
0
LINE
8
1
62
3
10
-0.434828
20
-0.417391
30
0.0
11
-0.425926
21
-0.414492
31
0.0
0
LINE
8
1
62
3
10
-0.425926
20
-0.414492
30
0.0
11
-0.418694
21
-0.421047
31
0.0
0
LINE
8
1
62
3
10
-0.418694
20
-0.421047
30
0.0
11
-0.419224
21
-0.43707
31
0.0
0
LINE
8
1
62
3
10
-0.419224
20
-0.43707
30
0.0
11
-0.420388
21
-0.453015
31
0.0
0
LINE
8
1
62
3
10
-0.420388
20
-0.453015
30
0.0
11
-0.414896
21
-0.459648
31
0.0
0
LINE
8
1
62
3
10
-0.414896
20
-0.459648
30
0.0
11
-0.40767
21
-0.452846
31
0.0
0
LINE
8
1
62
3
10
-0.40767
20
-0.452846
30
0.0
11
-0.404664
21
-0.436494
31
0.0
0
LINE
8
1
62
3
10
-0.404664
20
-0.436494
30
0.0
11
-0.395014
21
-0.414963
31
0.0
0
LINE
8
1
62
3
10
-0.395014
20
-0.414963
30
0.0
11
-0.365153
21
-0.396831
31
0.0
0
LINE
8
1
62
3
10
-0.365153
20
-0.396831
30
0.0
11
-0.337249
21
-0.382287
31
0.0
0
LINE
8
1
62
3
10
-0.337249
20
-0.382287
30
0.0
11
-0.325642
21
-0.370502
31
0.0
0
LINE
8
1
62
3
10
-0.325642
20
-0.370502
30
0.0
11
-0.31901
21
-0.361831
31
0.0
0
LINE
8
1
62
3
10
-0.31901
20
-0.361831
30
0.0
11
-0.303064
21
-0.354777
31
0.0
0
LINE
8
1
62
3
10
-0.303064
20
-0.354777
30
0.0
11
-0.286129
21
-0.354518
31
0.0
0
LINE
8
1
62
3
10
-0.286129
20
-0.354518
30
0.0
11
-0.280487
21
-0.365555
31
0.0
0
LINE
8
1
62
3
10
-0.280487
20
-0.365555
30
0.0
11
-0.284898
21
-0.381128
31
0.0
0
LINE
8
1
62
3
10
-0.284898
20
-0.381128
30
0.0
11
-0.295846
21
-0.39707
31
0.0
0
LINE
8
1
62
3
10
-0.295846
20
-0.39707
30
0.0
11
-0.309899
21
-0.409488
31
0.0
0
LINE
8
1
62
3
10
-0.309899
20
-0.409488
30
0.0
11
-0.323628
21
-0.414492
31
0.0
0
LINE
8
1
62
3
10
-0.323628
20
-0.414492
30
0.0
11
-0.333242
21
-0.419507
31
0.0
0
LINE
8
1
62
3
10
-0.333242
20
-0.419507
30
0.0
11
-0.341067
21
-0.431565
31
0.0
0
LINE
8
1
62
3
10
-0.341067
20
-0.431565
30
0.0
11
-0.340519
21
-0.443679
31
0.0
0
LINE
8
1
62
3
10
-0.340519
20
-0.443679
30
0.0
11
-0.319697
21
-0.44163
31
0.0
0
LINE
8
1
62
3
10
-0.319697
20
-0.44163
30
0.0
11
-0.301168
21
-0.440326
31
0.0
0
LINE
8
1
62
3
10
-0.301168
20
-0.440326
30
0.0
11
-0.292281
21
-0.446089
31
0.0
0
LINE
8
1
62
3
10
-0.292281
20
-0.446089
30
0.0
11
-0.294245
21
-0.456154
31
0.0
0
LINE
8
1
62
3
10
-0.294245
20
-0.456154
30
0.0
11
-0.30827
21
-0.467756
31
0.0
0
LINE
8
1
62
3
10
-0.30827
20
-0.467756
30
0.0
11
-0.324566
21
-0.492455
31
0.0
0
LINE
8
1
62
3
10
-0.324566
20
-0.492455
30
0.0
11
-0.340584
21
-0.538873
31
0.0
0
LINE
8
1
62
3
10
-0.340584
20
-0.538873
30
0.0
11
-0.357096
21
-0.585652
31
0.0
0
LINE
8
1
62
3
10
-0.357096
20
-0.585652
30
0.0
11
-0.37489
21
-0.604409
31
0.0
0
LINE
8
1
62
3
10
-0.37489
20
-0.604409
30
0.0
11
-0.38796
21
-0.600144
31
0.0
0
LINE
8
1
62
3
10
-0.38796
20
-0.600144
30
0.0
11
-0.393515
21
-0.585845
31
0.0
0
LINE
8
1
62
3
10
-0.393515
20
-0.585845
30
0.0
11
-0.390852
21
-0.569085
31
0.0
0
LINE
8
1
62
3
10
-0.390852
20
-0.569085
30
0.0
11
-0.379264
21
-0.557435
31
0.0
0
LINE
8
1
62
3
10
-0.379264
20
-0.557435
30
0.0
11
-0.374104
21
-0.553035
31
0.0
0
LINE
8
1
62
3
10
-0.374104
20
-0.553035
30
0.0
11
-0.384269
21
-0.55085
31
0.0
0
LINE
8
1
62
3
10
-0.384269
20
-0.55085
30
0.0
11
-0.403478
21
-0.557467
31
0.0
0
LINE
8
1
62
3
10
-0.403478
20
-0.557467
30
0.0
11
-0.420939
21
-0.576106
31
0.0
0
LINE
8
1
62
3
10
-0.420939
20
-0.576106
30
0.0
11
-0.43363
21
-0.602277
31
0.0
0
LINE
8
1
62
3
10
-0.43363
20
-0.602277
30
0.0
11
-0.438531
21
-0.631493
31
0.0
0
LINE
8
1
62
3
10
-0.438531
20
-0.631493
30
0.0
11
-0.443252
21
-0.662848
31
0.0
0
LINE
8
1
62
3
10
-0.443252
20
-0.662848
30
0.0
11
-0.46583
21
-0.6697
31
0.0
0
LINE
8
1
62
3
10
-0.46583
20
-0.6697
30
0.0
11
-0.474567
21
-0.671338
31
0.0
0
LINE
8
1
62
3
10
-0.474567
20
-0.671338
30
0.0
11
-0.480047
21
-0.667424
31
0.0
0
LINE
8
1
62
3
10
-0.480047
20
-0.667424
30
0.0
11
-0.4837
21
-0.638655
31
0.0
0
LINE
8
1
62
3
10
-0.4837
20
-0.638655
30
0.0
11
-0.483714
21
-0.600759
31
0.0
0
LINE
8
1
62
3
10
-0.483714
20
-0.600759
30
0.0
11
-0.511057
21
-0.632551
31
0.0
0
LINE
8
1
62
3
10
-0.511057
20
-0.632551
30
0.0
11
-0.532579
21
-0.668093
31
0.0
0
LINE
8
1
62
3
10
-0.532579
20
-0.668093
30
0.0
11
-0.545927
21
-0.708898
31
0.0
0
LINE
8
1
62
3
10
-0.545927
20
-0.708898
30
0.0
11
-0.557315
21
-0.744369
31
0.0
0
LINE
8
1
62
3
10
-0.557315
20
-0.744369
30
0.0
11
-0.575015
21
-0.764992
31
0.0
0
LINE
8
1
62
3
10
-0.575015
20
-0.764992
30
0.0
11
-0.591495
21
-0.78356
31
0.0
0
LINE
8
1
62
3
10
-0.591495
20
-0.78356
30
0.0
11
-0.596575
21
-0.817902
31
0.0
0
LINE
8
1
62
3
10
-0.596575
20
-0.817902
30
0.0
11
-0.599398
21
-0.84699
31
0.0
0
LINE
8
1
62
3
10
-0.599398
20
-0.84699
30
0.0
11
-0.603221
21
-0.850373
31
0.0
0
LINE
8
1
62
3
10
-0.603221
20
-0.850373
30
0.0
11
-0.608915
21
-0.846934
31
0.0
0
LINE
8
1
62
3
10
-0.608915
20
-0.846934
30
0.0
11
-0.615658
21
-0.823396
31
0.0
0
LINE
8
1
62
3
10
-0.615658
20
-0.823396
30
0.0
11
-0.609538
21
-0.774121
31
0.0
0
LINE
8
1
62
3
10
-0.609538
20
-0.774121
30
0.0
11
-0.590712
21
-0.643961
31
0.0
0
LINE
8
1
62
3
10
-0.590712
20
-0.643961
30
0.0
11
-0.588523
21
-0.572536
31
0.0
0
LINE
8
1
62
3
10
-0.588523
20
-0.572536
30
0.0
11
-0.612209
21
-0.628698
31
0.0
0
LINE
8
1
62
3
10
-0.612209
20
-0.628698
30
0.0
11
-0.630442
21
-0.701658
31
0.0
0
LINE
8
1
62
3
10
-0.630442
20
-0.701658
30
0.0
11
-0.633608
21
-0.714112
31
0.0
0
LINE
8
1
62
3
10
-0.633608
20
-0.714112
30
0.0
11
-0.64122
21
-0.719292
31
0.0
0
LINE
8
1
62
3
10
-0.64122
20
-0.719292
30
0.0
11
-0.651008
21
-0.730898
31
0.0
0
LINE
8
1
62
3
10
-0.651008
20
-0.730898
30
0.0
11
-0.659409
21
-0.758803
31
0.0
0
LINE
8
1
62
3
10
-0.659409
20
-0.758803
30
0.0
11
-0.668811
21
-0.791932
31
0.0
0
LINE
8
1
62
3
10
-0.668811
20
-0.791932
30
0.0
11
-0.677158
21
-0.796668
31
0.0
0
LINE
8
1
62
3
10
-0.677158
20
-0.796668
30
0.0
11
-0.681877
21
-0.776121
31
0.0
0
LINE
8
1
62
3
10
-0.681877
20
-0.776121
30
0.0
11
-0.680398
21
-0.733403
31
0.0
0
LINE
8
1
62
3
10
-0.680398
20
-0.733403
30
0.0
11
-0.668752
21
-0.652784
31
0.0
0
LINE
8
1
62
3
10
-0.668752
20
-0.652784
30
0.0
11
-0.668081
21
-0.64288
31
0.0
0
LINE
8
1
62
3
10
-0.668081
20
-0.64288
30
0.0
11
-0.680984
21
-0.651344
31
0.0
0
LINE
8
1
62
3
10
-0.680984
20
-0.651344
30
0.0
11
-0.693125
21
-0.665989
31
0.0
0
LINE
8
1
62
3
10
-0.693125
20
-0.665989
30
0.0
11
-0.698175
21
-0.681163
31
0.0
0
LINE
8
1
62
3
10
-0.698175
20
-0.681163
30
0.0
11
-0.701041
21
-0.692146
31
0.0
0
LINE
8
1
62
3
10
-0.701041
20
-0.692146
30
0.0
11
-0.707931
21
-0.696714
31
0.0
0
LINE
8
1
62
3
10
-0.707931
20
-0.696714
30
0.0
11
-0.720966
21
-0.711397
31
0.0
0
LINE
8
1
62
3
10
-0.720966
20
-0.711397
30
0.0
11
-0.736377
21
-0.746484
31
0.0
0
LINE
8
1
62
3
10
-0.736377
20
-0.746484
30
0.0
11
-0.749238
21
-0.78853
31
0.0
0
LINE
8
1
62
3
10
-0.749238
20
-0.78853
30
0.0
11
-0.75462
21
-0.824092
31
0.0
0
LINE
8
1
62
3
10
-0.75462
20
-0.824092
30
0.0
11
-0.759532
21
-0.848126
31
0.0
0
LINE
8
1
62
3
10
-0.759532
20
-0.848126
30
0.0
11
-0.777331
21
-0.854759
31
0.0
0
LINE
8
1
62
3
10
-0.777331
20
-0.854759
30
0.0
11
-0.789247
21
-0.853313
31
0.0
0
LINE
8
1
62
3
10
-0.789247
20
-0.853313
30
0.0
11
-0.795098
21
-0.846905
31
0.0
0
LINE
8
1
62
3
10
-0.795098
20
-0.846905
30
0.0
11
-0.792551
21
-0.806781
31
0.0
0
LINE
8
1
62
3
10
0.181021
20
-0.304715
30
0.0
11
0.181021
21
-0.287492
31
0.0
0
LINE
8
1
62
3
10
0.181021
20
-0.287492
30
0.0
11
0.172017
21
-0.281512
31
0.0
0
LINE
8
1
62
3
10
0.172017
20
-0.281512
30
0.0
11
0.148491
21
-0.279025
31
0.0
0
LINE
8
1
62
3
10
0.148491
20
-0.279025
30
0.0
11
0.124573
21
-0.275709
31
0.0
0
LINE
8
1
62
3
10
0.124573
20
-0.275709
30
0.0
11
0.114625
21
-0.267736
31
0.0
0
LINE
8
1
62
3
10
0.114625
20
-0.267736
30
0.0
11
0.107992
21
-0.259764
31
0.0
0
LINE
8
1
62
3
10
0.107992
20
-0.259764
30
0.0
11
0.092047
21
-0.256448
31
0.0
0
LINE
8
1
62
3
10
0.092047
20
-0.256448
30
0.0
11
0.076101
21
-0.259764
31
0.0
0
LINE
8
1
62
3
10
0.076101
20
-0.259764
30
0.0
11
0.069469
21
-0.267736
31
0.0
0
LINE
8
1
62
3
10
0.069469
20
-0.267736
30
0.0
11
0.062837
21
-0.275709
31
0.0
0
LINE
8
1
62
3
10
0.062837
20
-0.275709
30
0.0
11
0.046891
21
-0.279025
31
0.0
0
LINE
8
1
62
3
10
0.046891
20
-0.279025
30
0.0
11
0.029958
21
-0.273381
31
0.0
0
LINE
8
1
62
3
10
0.029958
20
-0.273381
30
0.0
11
0.024313
21
-0.256448
31
0.0
0
LINE
8
1
62
3
10
0.024313
20
-0.256448
30
0.0
11
0.019375
21
-0.240455
31
0.0
0
LINE
8
1
62
3
10
0.019375
20
-0.240455
30
0.0
11
0.00738
21
-0.23387
31
0.0
0
LINE
8
1
62
3
10
0.00738
20
-0.23387
30
0.0
11
-0.004614
21
-0.240455
31
0.0
0
LINE
8
1
62
3
10
-0.004614
20
-0.240455
30
0.0
11
-0.009553
21
-0.256448
31
0.0
0
LINE
8
1
62
3
10
-0.009553
20
-0.256448
30
0.0
11
-0.012668
21
-0.271937
31
0.0
0
LINE
8
1
62
3
10
-0.012668
20
-0.271937
30
0.0
11
-0.021286
21
-0.27814
31
0.0
0
LINE
8
1
62
3
10
-0.021286
20
-0.27814
30
0.0
11
-0.034318
21
-0.274909
31
0.0
0
LINE
8
1
62
3
10
-0.034318
20
-0.274909
30
0.0
11
-0.050677
21
-0.262092
31
0.0
0
LINE
8
1
62
3
10
-0.050677
20
-0.262092
30
0.0
11
-0.066535
21
-0.249284
31
0.0
0
LINE
8
1
62
3
10
-0.066535
20
-0.249284
30
0.0
11
-0.078459
21
-0.246136
31
0.0
0
LINE
8
1
62
3
10
-0.078459
20
-0.246136
30
0.0
11
-0.085966
21
-0.252568
31
0.0
0
LINE
8
1
62
3
10
-0.085966
20
-0.252568
30
0.0
11
-0.088575
21
-0.268497
31
0.0
0
LINE
8
1
62
3
10
-0.088575
20
-0.268497
30
0.0
11
-0.093514
21
-0.285762
31
0.0
0
LINE
8
1
62
3
10
-0.093514
20
-0.285762
30
0.0
11
-0.113975
21
-0.283938
31
0.0
0
LINE
8
1
62
3
10
-0.113975
20
-0.283938
30
0.0
11
-0.143138
21
-0.266244
31
0.0
0
LINE
8
1
62
3
10
-0.143138
20
-0.266244
30
0.0
11
-0.149515
21
-0.258103
31
0.0
0
LINE
8
1
62
3
10
-0.149515
20
-0.258103
30
0.0
11
-0.157639
21
-0.256862
31
0.0
0
LINE
8
1
62
3
10
-0.157639
20
-0.256862
30
0.0
11
-0.164628
21
-0.261812
31
0.0
0
LINE
8
1
62
3
10
-0.164628
20
-0.261812
30
0.0
11
-0.167598
21
-0.272247
31
0.0
0
LINE
8
1
62
3
10
-0.167598
20
-0.272247
30
0.0
11
-0.170783
21
-0.279654
31
0.0
0
LINE
8
1
62
3
10
-0.170783
20
-0.279654
30
0.0
11
-0.181501
21
-0.284046
31
0.0
0
LINE
8
1
62
3
10
-0.181501
20
-0.284046
30
0.0
11
-0.232509
21
-0.285171
31
0.0
0
LINE
8
1
62
3
10
-0.232509
20
-0.285171
30
0.0
11
-0.276248
21
-0.279164
31
0.0
0
LINE
8
1
62
3
10
-0.276248
20
-0.279164
30
0.0
11
-0.297625
21
-0.268099
31
0.0
0
LINE
8
1
62
3
10
-0.297625
20
-0.268099
30
0.0
11
-0.299167
21
-0.261684
31
0.0
0
LINE
8
1
62
3
10
-0.299167
20
-0.261684
30
0.0
11
-0.294206
21
-0.255223
31
0.0
0
LINE
8
1
62
3
10
-0.294206
20
-0.255223
30
0.0
11
-0.263553
21
-0.243783
31
0.0
0
LINE
8
1
62
3
10
-0.263553
20
-0.243783
30
0.0
11
-0.244017
21
-0.238276
31
0.0
0
LINE
8
1
62
3
10
-0.244017
20
-0.238276
30
0.0
11
-0.244604
21
-0.235205
31
0.0
0
LINE
8
1
62
3
10
-0.244604
20
-0.235205
30
0.0
11
-0.273916
21
-0.21902
31
0.0
0
LINE
8
1
62
3
10
-0.273916
20
-0.21902
30
0.0
11
-0.291775
21
-0.195165
31
0.0
0
LINE
8
1
62
3
10
-0.291775
20
-0.195165
30
0.0
11
-0.218752
21
-0.188714
31
0.0
0
LINE
8
1
62
3
10
-0.218752
20
-0.188714
30
0.0
11
-0.161719
21
-0.185515
31
0.0
0
LINE
8
1
62
3
10
-0.161719
20
-0.185515
30
0.0
11
-0.152072
21
-0.180665
31
0.0
0
LINE
8
1
62
3
10
-0.152072
20
-0.180665
30
0.0
11
-0.151801
21
-0.172891
31
0.0
0
LINE
8
1
62
3
10
-0.151801
20
-0.172891
30
0.0
11
-0.167466
21
-0.159581
31
0.0
0
LINE
8
1
62
3
10
-0.167466
20
-0.159581
30
0.0
11
-0.196602
21
-0.149801
31
0.0
0
LINE
8
1
62
3
10
-0.196602
20
-0.149801
30
0.0
11
-0.224604
21
-0.14
31
0.0
0
LINE
8
1
62
3
10
-0.224604
20
-0.14
30
0.0
11
-0.235331
21
-0.126114
31
0.0
0
LINE
8
1
62
3
10
-0.235331
20
-0.126114
30
0.0
11
-0.232024
21
-0.118255
31
0.0
0
LINE
8
1
62
3
10
-0.232024
20
-0.118255
30
0.0
11
-0.220868
21
-0.113198
31
0.0
0
LINE
8
1
62
3
10
-0.220868
20
-0.113198
30
0.0
11
-0.167598
21
-0.109692
31
0.0
0
LINE
8
1
62
3
10
-0.167598
20
-0.109692
30
0.0
11
-0.113975
21
-0.106164
31
0.0
0
LINE
8
1
62
3
10
-0.113975
20
-0.106164
30
0.0
11
-0.103039
21
-0.100961
31
0.0
0
LINE
8
1
62
3
10
-0.103039
20
-0.100961
30
0.0
11
-0.099864
21
-0.092759
31
0.0
0
LINE
8
1
62
3
10
-0.099864
20
-0.092759
30
0.0
11
-0.096222
21
-0.080784
31
0.0
0
LINE
8
1
62
3
10
-0.096222
20
-0.080784
30
0.0
11
-0.085224
21
-0.076682
31
0.0
0
LINE
8
1
62
3
10
-0.085224
20
-0.076682
30
0.0
11
-0.040729
21
-0.092091
31
0.0
0
LINE
8
1
62
3
10
-0.040729
20
-0.092091
30
0.0
11
-0.02277
21
-0.100231
31
0.0
0
LINE
8
1
62
3
10
-0.02277
20
-0.100231
30
0.0
11
-0.009292
21
-0.10084
31
0.0
0
LINE
8
1
62
3
10
-0.009292
20
-0.10084
30
0.0
11
0.024689
21
-0.073713
31
0.0
0
LINE
8
1
62
3
10
0.024689
20
-0.073713
30
0.0
11
0.049284
21
-0.052606
31
0.0
0
LINE
8
1
62
3
10
0.049284
20
-0.052606
30
0.0
11
0.064267
21
-0.047041
31
0.0
0
LINE
8
1
62
3
10
0.064267
20
-0.047041
30
0.0
11
0.068353
21
-0.056739
31
0.0
0
LINE
8
1
62
3
10
0.068353
20
-0.056739
30
0.0
11
0.060256
21
-0.081422
31
0.0
0
LINE
8
1
62
3
10
0.060256
20
-0.081422
30
0.0
11
0.053764
21
-0.097697
31
0.0
0
LINE
8
1
62
3
10
0.053764
20
-0.097697
30
0.0
11
0.05616
21
-0.106097
31
0.0
0
LINE
8
1
62
3
10
0.05616
20
-0.106097
30
0.0
11
0.103578
21
-0.109692
31
0.0
0
LINE
8
1
62
3
10
0.103578
20
-0.109692
30
0.0
11
0.149933
21
-0.113648
31
0.0
0
LINE
8
1
62
3
10
0.149933
20
-0.113648
30
0.0
11
0.157844
21
-0.120492
31
0.0
0
LINE
8
1
62
3
10
0.157844
20
-0.120492
30
0.0
11
0.15978
21
-0.13227
31
0.0
0
LINE
8
1
62
3
10
0.15978
20
-0.13227
30
0.0
11
0.166257
21
-0.149846
31
0.0
0
LINE
8
1
62
3
10
0.166257
20
-0.149846
30
0.0
11
0.189015
21
-0.154848
31
0.0
0
LINE
8
1
62
3
10
0.189015
20
-0.154848
30
0.0
11
0.2119
21
-0.161082
31
0.0
0
LINE
8
1
62
3
10
0.2119
20
-0.161082
30
0.0
11
0.235149
21
-0.176657
31
0.0
0
LINE
8
1
62
3
10
0.235149
20
-0.176657
30
0.0
11
0.253329
21
-0.196875
31
0.0
0
LINE
8
1
62
3
10
0.253329
20
-0.196875
30
0.0
11
0.261005
21
-0.217043
31
0.0
0
LINE
8
1
62
3
10
0.261005
20
-0.217043
30
0.0
11
0.267902
21
-0.229233
31
0.0
0
LINE
8
1
62
3
10
0.267902
20
-0.229233
30
0.0
11
0.283958
21
-0.242539
31
0.0
0
LINE
8
1
62
3
10
0.283958
20
-0.242539
30
0.0
11
0.301518
21
-0.258051
31
0.0
0
LINE
8
1
62
3
10
0.301518
20
-0.258051
30
0.0
11
0.306418
21
-0.272201
31
0.0
0
LINE
8
1
62
3
10
0.306418
20
-0.272201
30
0.0
11
0.29904
21
-0.2814
31
0.0
0
LINE
8
1
62
3
10
0.29904
20
-0.2814
30
0.0
11
0.279762
21
-0.282065
31
0.0
0
LINE
8
1
62
3
10
0.279762
20
-0.282065
30
0.0
11
0.25048
21
-0.283815
31
0.0
0
LINE
8
1
62
3
10
0.25048
20
-0.283815
30
0.0
11
0.217673
21
-0.29521
31
0.0
0
LINE
8
1
62
3
10
0.217673
20
-0.29521
30
0.0
11
0.192339
21
-0.305535
31
0.0
0
LINE
8
1
62
3
10
0.192339
20
-0.305535
30
0.0
11
0.181021
21
-0.304715
31
0.0
0
LINE
8
1
62
3
10
-0.630442
20
0.387019
30
0.0
11
-0.635206
21
0.402965
31
0.0
0
LINE
8
1
62
3
10
-0.635206
20
0.402965
30
0.0
11
-0.64666
21
0.409597
31
0.0
0
LINE
8
1
62
3
10
-0.64666
20
0.409597
30
0.0
11
-0.658154
21
0.418026
31
0.0
0
LINE
8
1
62
3
10
-0.658154
20
0.418026
30
0.0
11
-0.665465
21
0.441717
31
0.0
0
LINE
8
1
62
3
10
-0.665465
20
0.441717
30
0.0
11
-0.665945
21
0.525308
31
0.0
0
LINE
8
1
62
3
10
-0.665945
20
0.525308
30
0.0
11
-0.658121
21
0.555146
31
0.0
0
LINE
8
1
62
3
10
-0.658121
20
0.555146
30
0.0
11
-0.643479
21
0.5678
31
0.0
0
LINE
8
1
62
3
10
-0.643479
20
0.5678
30
0.0
11
-0.624398
21
0.562737
31
0.0
0
LINE
8
1
62
3
10
-0.624398
20
0.562737
30
0.0
11
-0.603258
21
0.539419
31
0.0
0
LINE
8
1
62
3
10
-0.603258
20
0.539419
30
0.0
11
-0.582237
21
0.518734
31
0.0
0
LINE
8
1
62
3
10
-0.582237
20
0.518734
30
0.0
11
-0.556804
21
0.511197
31
0.0
0
LINE
8
1
62
3
10
-0.556804
20
0.511197
30
0.0
11
-0.537056
21
0.50792
31
0.0
0
LINE
8
1
62
3
10
-0.537056
20
0.50792
30
0.0
11
-0.528842
21
0.500041
31
0.0
0
LINE
8
1
62
3
10
-0.528842
20
0.500041
30
0.0
11
-0.514756
21
0.48991
31
0.0
0
LINE
8
1
62
3
10
-0.514756
20
0.48991
30
0.0
11
-0.48089
21
0.481218
31
0.0
0
LINE
8
1
62
3
10
-0.48089
20
0.481218
30
0.0
11
-0.451161
21
0.474423
31
0.0
0
LINE
8
1
62
3
10
-0.451161
20
0.474423
30
0.0
11
-0.445338
21
0.471283
31
0.0
0
LINE
8
1
62
3
10
-0.445338
20
0.471283
30
0.0
11
-0.447023
21
0.468855
31
0.0
0
LINE
8
1
62
3
10
-0.447023
20
0.468855
30
0.0
11
-0.456971
21
0.461196
31
0.0
0
LINE
8
1
62
3
10
-0.456971
20
0.461196
30
0.0
11
-0.461109
21
0.449375
31
0.0
0
LINE
8
1
62
3
10
-0.461109
20
0.449375
30
0.0
11
-0.466083
21
0.437025
31
0.0
0
LINE
8
1
62
3
10
-0.466083
20
0.437025
30
0.0
11
-0.478042
21
0.428092
31
0.0
0
LINE
8
1
62
3
10
-0.478042
20
0.428092
30
0.0
11
-0.490001
21
0.418425
31
0.0
0
LINE
8
1
62
3
10
-0.490001
20
0.418425
30
0.0
11
-0.494975
21
0.404307
31
0.0
0
LINE
8
1
62
3
10
-0.494975
20
0.404307
30
0.0
11
-0.501437
21
0.39203
31
0.0
0
LINE
8
1
62
3
10
-0.501437
20
0.39203
30
0.0
11
-0.517271
21
0.387019
31
0.0
0
LINE
8
1
62
3
10
-0.517271
20
0.387019
30
0.0
11
-0.528505
21
0.388373
31
0.0
0
LINE
8
1
62
3
10
-0.528505
20
0.388373
30
0.0
11
-0.534368
21
0.393686
31
0.0
0
LINE
8
1
62
3
10
-0.534368
20
0.393686
30
0.0
11
-0.533254
21
0.423708
31
0.0
0
LINE
8
1
62
3
10
-0.533254
20
0.423708
30
0.0
11
-0.530882
21
0.448901
31
0.0
0
LINE
8
1
62
3
10
-0.530882
20
0.448901
30
0.0
11
-0.539008
21
0.443464
31
0.0
0
LINE
8
1
62
3
10
-0.539008
20
0.443464
30
0.0
11
-0.551247
21
0.40113
31
0.0
0
LINE
8
1
62
3
10
-0.551247
20
0.40113
30
0.0
11
-0.556095
21
0.382815
31
0.0
0
LINE
8
1
62
3
10
-0.556095
20
0.382815
30
0.0
11
-0.568353
21
0.37573
31
0.0
0
LINE
8
1
62
3
10
-0.568353
20
0.37573
30
0.0
11
-0.581364
21
0.385637
31
0.0
0
LINE
8
1
62
3
10
-0.581364
20
0.385637
30
0.0
11
-0.585459
21
0.418064
31
0.0
0
LINE
8
1
62
3
10
-0.585459
20
0.418064
30
0.0
11
-0.588013
21
0.447295
31
0.0
0
LINE
8
1
62
3
10
-0.588013
20
0.447295
30
0.0
11
-0.591423
21
0.449237
31
0.0
0
LINE
8
1
62
3
10
-0.591423
20
0.449237
30
0.0
11
-0.596575
21
0.443464
31
0.0
0
LINE
8
1
62
3
10
-0.596575
20
0.443464
30
0.0
11
-0.607692
21
0.395486
31
0.0
0
LINE
8
1
62
3
10
-0.607692
20
0.395486
30
0.0
11
-0.61113
21
0.373561
31
0.0
0
LINE
8
1
62
3
10
-0.61113
20
0.373561
30
0.0
11
-0.619153
21
0.364441
31
0.0
0
LINE
8
1
62
3
10
-0.619153
20
0.364441
30
0.0
11
-0.627126
21
0.371074
31
0.0
0
LINE
8
1
62
3
10
-0.627126
20
0.371074
30
0.0
11
-0.630442
21
0.387019
31
0.0
0
LINE
8
1
62
3
10
0.532313
20
0.398308
30
0.0
11
0.53563
21
0.414254
31
0.0
0
LINE
8
1
62
3
10
0.53563
20
0.414254
30
0.0
11
0.543602
21
0.420886
31
0.0
0
LINE
8
1
62
3
10
0.543602
20
0.420886
30
0.0
11
0.551575
21
0.42586
31
0.0
0
LINE
8
1
62
3
10
0.551575
20
0.42586
30
0.0
11
0.554891
21
0.437819
31
0.0
0
LINE
8
1
62
3
10
0.554891
20
0.437819
30
0.0
11
0.549778
21
0.453123
31
0.0
0
LINE
8
1
62
3
10
0.549778
20
0.453123
30
0.0
11
0.537964
21
0.453892
31
0.0
0
LINE
8
1
62
3
10
0.537964
20
0.453892
30
0.0
11
0.524735
21
0.442391
31
0.0
0
LINE
8
1
62
3
10
0.524735
20
0.442391
30
0.0
11
0.51538
21
0.420886
31
0.0
0
LINE
8
1
62
3
10
0.51538
20
0.420886
30
0.0
11
0.506677
21
0.395417
31
0.0
0
LINE
8
1
62
3
10
0.506677
20
0.395417
30
0.0
11
0.497453
21
0.388192
31
0.0
0
LINE
8
1
62
3
10
0.497453
20
0.388192
30
0.0
11
0.490136
21
0.398725
31
0.0
0
LINE
8
1
62
3
10
0.490136
20
0.398725
30
0.0
11
0.487158
21
0.42653
31
0.0
0
LINE
8
1
62
3
10
0.487158
20
0.42653
30
0.0
11
0.483202
21
0.456196
31
0.0
0
LINE
8
1
62
3
10
0.483202
20
0.456196
30
0.0
11
0.471281
21
0.466041
31
0.0
0
LINE
8
1
62
3
10
0.471281
20
0.466041
30
0.0
11
0.460987
21
0.460255
31
0.0
0
LINE
8
1
62
3
10
0.460987
20
0.460255
30
0.0
11
0.461309
21
0.443464
31
0.0
0
LINE
8
1
62
3
10
0.461309
20
0.443464
30
0.0
11
0.462045
21
0.426521
31
0.0
0
LINE
8
1
62
3
10
0.462045
20
0.426521
30
0.0
11
0.454593
21
0.421556
31
0.0
0
LINE
8
1
62
3
10
0.454593
20
0.421556
30
0.0
11
0.442537
21
0.42825
31
0.0
0
LINE
8
1
62
3
10
0.442537
20
0.42825
30
0.0
11
0.429463
21
0.446286
31
0.0
0
LINE
8
1
62
3
10
0.429463
20
0.446286
30
0.0
11
0.400843
21
0.480713
31
0.0
0
LINE
8
1
62
3
10
0.400843
20
0.480713
30
0.0
11
0.387041
21
0.492517
31
0.0
0
LINE
8
1
62
3
10
0.387041
20
0.492517
30
0.0
11
0.390314
21
0.501806
31
0.0
0
LINE
8
1
62
3
10
0.390314
20
0.501806
30
0.0
11
0.449339
21
0.51369
31
0.0
0
LINE
8
1
62
3
10
0.449339
20
0.51369
30
0.0
11
0.498216
21
0.522061
31
0.0
0
LINE
8
1
62
3
10
0.498216
20
0.522061
30
0.0
11
0.525764
21
0.534844
31
0.0
0
LINE
8
1
62
3
10
0.525764
20
0.534844
30
0.0
11
0.561805
21
0.563618
31
0.0
0
LINE
8
1
62
3
10
0.561805
20
0.563618
30
0.0
11
0.598637
21
0.57893
31
0.0
0
LINE
8
1
62
3
10
0.598637
20
0.57893
30
0.0
11
0.608981
21
0.56676
31
0.0
0
LINE
8
1
62
3
10
0.608981
20
0.56676
30
0.0
11
0.616305
21
0.536599
31
0.0
0
LINE
8
1
62
3
10
0.616305
20
0.536599
30
0.0
11
0.619194
21
0.49797
31
0.0
0
LINE
8
1
62
3
10
0.619194
20
0.49797
30
0.0
11
0.616235
21
0.460397
31
0.0
0
LINE
8
1
62
3
10
0.616235
20
0.460397
30
0.0
11
0.605814
21
0.430328
31
0.0
0
LINE
8
1
62
3
10
0.605814
20
0.430328
30
0.0
11
0.588818
21
0.420886
31
0.0
0
LINE
8
1
62
3
10
0.588818
20
0.420886
30
0.0
11
0.572955
21
0.414254
31
0.0
0
LINE
8
1
62
3
10
0.572955
20
0.414254
30
0.0
11
0.562909
21
0.398308
31
0.0
0
LINE
8
1
62
3
10
0.562909
20
0.398308
30
0.0
11
0.555113
21
0.382362
31
0.0
0
LINE
8
1
62
3
10
0.555113
20
0.382362
30
0.0
11
0.544659
21
0.37573
31
0.0
0
LINE
8
1
62
3
10
0.544659
20
0.37573
30
0.0
11
0.53594
21
0.382362
31
0.0
0
LINE
8
1
62
3
10
0.53594
20
0.382362
30
0.0
11
0.532313
21
0.398308
31
0.0
0
LINE
8
1
62
3
10
-0.511187
20
0.520467
30
0.0
11
-0.532465
21
0.529
31
0.0
0
LINE
8
1
62
3
10
-0.532465
20
0.529
30
0.0
11
-0.55284
21
0.544776
31
0.0
0
LINE
8
1
62
3
10
-0.55284
20
0.544776
30
0.0
11
-0.587613
21
0.591944
31
0.0
0
LINE
8
1
62
3
10
-0.587613
20
0.591944
30
0.0
11
-0.608964
21
0.649739
31
0.0
0
LINE
8
1
62
3
10
-0.608964
20
0.649739
30
0.0
11
-0.612564
21
0.6788
31
0.0
0
LINE
8
1
62
3
10
-0.612564
20
0.6788
30
0.0
11
-0.610355
21
0.70593
31
0.0
0
LINE
8
1
62
3
10
-0.610355
20
0.70593
30
0.0
11
-0.599199
21
0.721426
31
0.0
0
LINE
8
1
62
3
10
-0.599199
20
0.721426
30
0.0
11
-0.579857
21
0.725882
31
0.0
0
LINE
8
1
62
3
10
-0.579857
20
0.725882
30
0.0
11
-0.560213
21
0.719657
31
0.0
0
LINE
8
1
62
3
10
-0.560213
20
0.719657
30
0.0
11
-0.548149
21
0.703108
31
0.0
0
LINE
8
1
62
3
10
-0.548149
20
0.703108
30
0.0
11
-0.537444
21
0.686831
31
0.0
0
LINE
8
1
62
3
10
-0.537444
20
0.686831
30
0.0
11
-0.519136
21
0.68053
31
0.0
0
LINE
8
1
62
3
10
-0.519136
20
0.68053
30
0.0
11
-0.507068
21
0.682228
31
0.0
0
LINE
8
1
62
3
10
-0.507068
20
0.682228
30
0.0
11
-0.500391
21
0.689323
31
0.0
0
LINE
8
1
62
3
10
-0.500391
20
0.689323
30
0.0
11
-0.498323
21
0.731715
31
0.0
0
LINE
8
1
62
3
10
-0.498323
20
0.731715
30
0.0
11
-0.50062
21
0.7829
31
0.0
0
LINE
8
1
62
3
10
-0.50062
20
0.7829
30
0.0
11
-0.562709
21
0.780693
31
0.0
0
LINE
8
1
62
3
10
-0.562709
20
0.780693
30
0.0
11
-0.615448
21
0.776352
31
0.0
0
LINE
8
1
62
3
10
-0.615448
20
0.776352
30
0.0
11
-0.65443
21
0.767468
31
0.0
0
LINE
8
1
62
3
10
-0.65443
20
0.767468
30
0.0
11
-0.680132
21
0.753876
31
0.0
0
LINE
8
1
62
3
10
-0.680132
20
0.753876
30
0.0
11
-0.693028
21
0.73541
31
0.0
0
LINE
8
1
62
3
10
-0.693028
20
0.73541
30
0.0
11
-0.702536
21
0.719401
31
0.0
0
LINE
8
1
62
3
10
-0.702536
20
0.719401
30
0.0
11
-0.71377
21
0.718674
31
0.0
0
LINE
8
1
62
3
10
-0.71377
20
0.718674
30
0.0
11
-0.723839
21
0.731577
31
0.0
0
LINE
8
1
62
3
10
-0.723839
20
0.731577
30
0.0
11
-0.72985
21
0.756456
31
0.0
0
LINE
8
1
62
3
10
-0.72985
20
0.756456
30
0.0
11
-0.726091
21
0.789519
31
0.0
0
LINE
8
1
62
3
10
-0.726091
20
0.789519
30
0.0
11
-0.705597
21
0.818838
31
0.0
0
LINE
8
1
62
3
10
-0.705597
20
0.818838
30
0.0
11
-0.684421
21
0.844695
31
0.0
0
LINE
8
1
62
3
10
-0.684421
20
0.844695
30
0.0
11
-0.67241
21
0.867958
31
0.0
0
LINE
8
1
62
3
10
-0.67241
20
0.867958
30
0.0
11
-0.668037
21
0.874204
31
0.0
0
LINE
8
1
62
3
10
-0.668037
20
0.874204
30
0.0
11
-0.665618
21
0.853694
31
0.0
0
LINE
8
1
62
3
10
-0.665618
20
0.853694
30
0.0
11
-0.664309
21
0.818013
31
0.0
0
LINE
8
1
62
3
10
-0.664309
20
0.818013
30
0.0
11
-0.580788
21
0.821275
31
0.0
0
LINE
8
1
62
3
10
-0.580788
20
0.821275
30
0.0
11
-0.484965
21
0.83214
31
0.0
0
LINE
8
1
62
3
10
-0.484965
20
0.83214
30
0.0
11
-0.476783
21
0.86723
31
0.0
0
LINE
8
1
62
3
10
-0.476783
20
0.86723
30
0.0
11
-0.475291
21
0.934947
31
0.0
0
LINE
8
1
62
3
10
-0.475291
20
0.934947
30
0.0
11
-0.479727
21
1.000801
31
0.0
0
LINE
8
1
62
3
10
-0.479727
20
1.000801
30
0.0
11
-0.489331
21
1.030302
31
0.0
0
LINE
8
1
62
3
10
-0.489331
20
1.030302
30
0.0
11
-0.5147
21
1.019953
31
0.0
0
LINE
8
1
62
3
10
-0.5147
20
1.019953
30
0.0
11
-0.53793
21
0.990975
31
0.0
0
LINE
8
1
62
3
10
-0.53793
20
0.990975
30
0.0
11
-0.548888
21
0.976183
31
0.0
0
LINE
8
1
62
3
10
-0.548888
20
0.976183
30
0.0
11
-0.551077
21
0.998384
31
0.0
0
LINE
8
1
62
3
10
-0.551077
20
0.998384
30
0.0
11
-0.555734
21
1.021298
31
0.0
0
LINE
8
1
62
3
10
-0.555734
20
1.021298
30
0.0
11
-0.573587
21
1.022575
31
0.0
0
LINE
8
1
62
3
10
-0.573587
20
1.022575
30
0.0
11
-0.593415
21
1.009054
31
0.0
0
LINE
8
1
62
3
10
-0.593415
20
1.009054
30
0.0
11
-0.609959
21
0.984687
31
0.0
0
LINE
8
1
62
3
10
-0.609959
20
0.984687
30
0.0
11
-0.622887
21
0.963774
31
0.0
0
LINE
8
1
62
3
10
-0.622887
20
0.963774
30
0.0
11
-0.633154
21
0.96614
31
0.0
0
LINE
8
1
62
3
10
-0.633154
20
0.96614
30
0.0
11
-0.642308
21
0.970243
31
0.0
0
LINE
8
1
62
3
10
-0.642308
20
0.970243
30
0.0
11
-0.653882
21
0.960126
31
0.0
0
LINE
8
1
62
3
10
-0.653882
20
0.960126
30
0.0
11
-0.681116
21
0.901511
31
0.0
0
LINE
8
1
62
3
10
-0.681116
20
0.901511
30
0.0
11
-0.692587
21
0.878432
31
0.0
0
LINE
8
1
62
3
10
-0.692587
20
0.878432
30
0.0
11
-0.705626
21
0.865073
31
0.0
0
LINE
8
1
62
3
10
-0.705626
20
0.865073
30
0.0
11
-0.716319
21
0.863843
31
0.0
0
LINE
8
1
62
3
10
-0.716319
20
0.863843
30
0.0
11
-0.720753
21
0.877145
31
0.0
0
LINE
8
1
62
3
10
-0.720753
20
0.877145
30
0.0
11
-0.71812
21
0.889769
31
0.0
0
LINE
8
1
62
3
10
-0.71812
20
0.889769
30
0.0
11
-0.711788
21
0.895019
31
0.0
0
LINE
8
1
62
3
10
-0.711788
20
0.895019
30
0.0
11
-0.699608
21
0.913694
31
0.0
0
LINE
8
1
62
3
10
-0.699608
20
0.913694
30
0.0
11
-0.683816
21
0.957488
31
0.0
0
LINE
8
1
62
3
10
-0.683816
20
0.957488
30
0.0
11
-0.664309
21
1.04706
31
0.0
0
LINE
8
1
62
3
10
-0.664309
20
1.04706
30
0.0
11
-0.659335
21
1.071081
31
0.0
0
LINE
8
1
62
3
10
-0.659335
20
1.071081
30
0.0
11
-0.647375
21
1.090962
31
0.0
0
LINE
8
1
62
3
10
-0.647375
20
1.090962
30
0.0
11
-0.635771
21
1.122536
31
0.0
0
LINE
8
1
62
3
10
-0.635771
20
1.122536
30
0.0
11
-0.630327
21
1.173751
31
0.0
0
LINE
8
1
62
3
10
-0.630327
20
1.173751
30
0.0
11
-0.631899
21
1.222545
31
0.0
0
LINE
8
1
62
3
10
-0.631899
20
1.222545
30
0.0
11
-0.64134
21
1.246856
31
0.0
0
LINE
8
1
62
3
10
-0.64134
20
1.246856
30
0.0
11
-0.651129
21
1.267752
31
0.0
0
LINE
8
1
62
3
10
-0.651129
20
1.267752
30
0.0
11
-0.659361
21
1.312708
31
0.0
0
LINE
8
1
62
3
10
-0.659361
20
1.312708
30
0.0
11
-0.662427
21
1.348059
31
0.0
0
LINE
8
1
62
3
10
-0.662427
20
1.348059
30
0.0
11
-0.660073
21
1.371886
31
0.0
0
LINE
8
1
62
3
10
-0.660073
20
1.371886
30
0.0
11
-0.650046
21
1.39223
31
0.0
0
LINE
8
1
62
3
10
-0.650046
20
1.39223
30
0.0
11
-0.630093
21
1.41713
31
0.0
0
LINE
8
1
62
3
10
-0.630093
20
1.41713
30
0.0
11
-0.600669
21
1.447038
31
0.0
0
LINE
8
1
62
3
10
-0.600669
20
1.447038
30
0.0
11
-0.581028
21
1.459496
31
0.0
0
LINE
8
1
62
3
10
-0.581028
20
1.459496
30
0.0
11
-0.565853
21
1.468809
31
0.0
0
LINE
8
1
62
3
10
-0.565853
20
1.468809
30
0.0
11
-0.547167
21
1.491155
31
0.0
0
LINE
8
1
62
3
10
-0.547167
20
1.491155
30
0.0
11
-0.509172
21
1.531116
31
0.0
0
LINE
8
1
62
3
10
-0.509172
20
1.531116
30
0.0
11
-0.463271
21
1.554442
31
0.0
0
LINE
8
1
62
3
10
-0.463271
20
1.554442
30
0.0
11
-0.415853
21
1.559207
31
0.0
0
LINE
8
1
62
3
10
-0.415853
20
1.559207
30
0.0
11
-0.37331
21
1.54349
31
0.0
0
LINE
8
1
62
3
10
-0.37331
20
1.54349
30
0.0
11
-0.360074
21
1.531507
31
0.0
0
LINE
8
1
62
3
10
-0.360074
20
1.531507
30
0.0
11
-0.352484
21
1.514712
31
0.0
0
LINE
8
1
62
3
10
-0.352484
20
1.514712
30
0.0
11
-0.34822
21
1.442421
31
0.0
0
LINE
8
1
62
3
10
-0.34822
20
1.442421
30
0.0
11
-0.350891
21
1.381342
31
0.0
0
LINE
8
1
62
3
10
-0.350891
20
1.381342
30
0.0
11
-0.359681
21
1.338095
31
0.0
0
LINE
8
1
62
3
10
-0.359681
20
1.338095
30
0.0
11
-0.375751
21
1.30931
31
0.0
0
LINE
8
1
62
3
10
-0.375751
20
1.30931
30
0.0
11
-0.400265
21
1.291617
31
0.0
0
LINE
8
1
62
3
10
-0.400265
20
1.291617
30
0.0
11
-0.419318
21
1.279634
31
0.0
0
LINE
8
1
62
3
10
-0.419318
20
1.279634
30
0.0
11
-0.427242
21
1.268084
31
0.0
0
LINE
8
1
62
3
10
-0.427242
20
1.268084
30
0.0
11
-0.43719
21
1.255001
31
0.0
0
LINE
8
1
62
3
10
-0.43719
20
1.255001
30
0.0
11
-0.461109
21
1.23933
31
0.0
0
LINE
8
1
62
3
10
-0.461109
20
1.23933
30
0.0
11
-0.485027
21
1.222237
31
0.0
0
LINE
8
1
62
3
10
-0.485027
20
1.222237
30
0.0
11
-0.494975
21
1.205735
31
0.0
0
LINE
8
1
62
3
10
-0.494975
20
1.205735
30
0.0
11
-0.499126
21
1.191724
31
0.0
0
LINE
8
1
62
3
10
-0.499126
20
1.191724
30
0.0
11
-0.509105
21
1.180625
31
0.0
0
LINE
8
1
62
3
10
-0.509105
20
1.180625
30
0.0
11
-0.532868
21
1.149472
31
0.0
0
LINE
8
1
62
3
10
-0.532868
20
1.149472
30
0.0
11
-0.556169
21
1.09414
31
0.0
0
LINE
8
1
62
3
10
-0.556169
20
1.09414
30
0.0
11
-0.557564
21
1.079013
31
0.0
0
LINE
8
1
62
3
10
-0.557564
20
1.079013
30
0.0
11
-0.543081
21
1.081187
31
0.0
0
LINE
8
1
62
3
10
-0.543081
20
1.081187
30
0.0
11
-0.41208
21
1.092681
31
0.0
0
LINE
8
1
62
3
10
-0.41208
20
1.092681
30
0.0
11
-0.316418
21
1.091811
31
0.0
0
LINE
8
1
62
3
10
-0.316418
20
1.091811
30
0.0
11
-0.294446
21
1.08577
31
0.0
0
LINE
8
1
62
3
10
-0.294446
20
1.08577
30
0.0
11
-0.279436
21
1.07459
31
0.0
0
LINE
8
1
62
3
10
-0.279436
20
1.07459
30
0.0
11
-0.247439
21
1.053064
31
0.0
0
LINE
8
1
62
3
10
-0.247439
20
1.053064
30
0.0
11
-0.231519
21
1.043748
31
0.0
0
LINE
8
1
62
3
10
-0.231519
20
1.043748
30
0.0
11
-0.212609
21
1.021509
31
0.0
0
LINE
8
1
62
3
10
-0.212609
20
1.021509
30
0.0
11
-0.196799
21
0.994911
31
0.0
0
LINE
8
1
62
3
10
-0.196799
20
0.994911
30
0.0
11
-0.190175
21
0.972519
31
0.0
0
LINE
8
1
62
3
10
-0.190175
20
0.972519
30
0.0
11
-0.186859
21
0.957649
31
0.0
0
LINE
8
1
62
3
10
-0.186859
20
0.957649
30
0.0
11
-0.178887
21
0.951464
31
0.0
0
LINE
8
1
62
3
10
-0.178887
20
0.951464
30
0.0
11
-0.170914
21
0.946489
31
0.0
0
LINE
8
1
62
3
10
-0.170914
20
0.946489
30
0.0
11
-0.167598
21
0.93453
31
0.0
0
LINE
8
1
62
3
10
-0.167598
20
0.93453
30
0.0
11
-0.170536
21
0.919384
31
0.0
0
LINE
8
1
62
3
10
-0.170536
20
0.919384
30
0.0
11
-0.178514
21
0.920218
31
0.0
0
LINE
8
1
62
3
10
-0.178514
20
0.920218
30
0.0
11
-0.204578
21
0.965617
31
0.0
0
LINE
8
1
62
3
10
-0.204578
20
0.965617
30
0.0
11
-0.229702
21
1.007297
31
0.0
0
LINE
8
1
62
3
10
-0.229702
20
1.007297
30
0.0
11
-0.267544
21
1.033308
31
0.0
0
LINE
8
1
62
3
10
-0.267544
20
1.033308
30
0.0
11
-0.313998
21
1.050672
31
0.0
0
LINE
8
1
62
3
10
-0.313998
20
1.050672
30
0.0
11
-0.340609
21
1.052094
31
0.0
0
LINE
8
1
62
3
10
-0.340609
20
1.052094
30
0.0
11
-0.345797
21
1.047092
31
0.0
0
LINE
8
1
62
3
10
-0.345797
20
1.047092
30
0.0
11
-0.345212
21
1.038423
31
0.0
0
LINE
8
1
62
3
10
-0.345212
20
1.038423
30
0.0
11
-0.325642
21
1.010509
31
0.0
0
LINE
8
1
62
3
10
-0.325642
20
1.010509
30
0.0
11
-0.309697
21
0.984964
31
0.0
0
LINE
8
1
62
3
10
-0.309697
20
0.984964
30
0.0
11
-0.303064
21
0.95758
31
0.0
0
LINE
8
1
62
3
10
-0.303064
20
0.95758
30
0.0
11
-0.308107
21
0.935295
31
0.0
0
LINE
8
1
62
3
10
-0.308107
20
0.935295
30
0.0
11
-0.325642
21
0.928886
31
0.0
0
LINE
8
1
62
3
10
-0.325642
20
0.928886
30
0.0
11
-0.343367
21
0.93561
31
0.0
0
LINE
8
1
62
3
10
-0.343367
20
0.93561
30
0.0
11
-0.348393
21
0.95993
31
0.0
0
LINE
8
1
62
3
10
-0.348393
20
0.95993
30
0.0
11
-0.350231
21
0.983237
31
0.0
0
LINE
8
1
62
3
10
-0.350231
20
0.983237
30
0.0
11
-0.356693
21
1.000355
31
0.0
0
LINE
8
1
62
3
10
-0.356693
20
1.000355
30
0.0
11
-0.391012
21
1.028046
31
0.0
0
LINE
8
1
62
3
10
-0.391012
20
1.028046
30
0.0
11
-0.413405
21
1.037008
31
0.0
0
LINE
8
1
62
3
10
-0.413405
20
1.037008
30
0.0
11
-0.428076
21
1.033415
31
0.0
0
LINE
8
1
62
3
10
-0.428076
20
1.033415
30
0.0
11
-0.436095
21
1.016292
31
0.0
0
LINE
8
1
62
3
10
-0.436095
20
1.016292
30
0.0
11
-0.438531
21
0.984664
31
0.0
0
LINE
8
1
62
3
10
-0.438531
20
0.984664
30
0.0
11
-0.441847
21
0.953243
31
0.0
0
LINE
8
1
62
3
10
-0.441847
20
0.953243
30
0.0
11
-0.44982
21
0.940175
31
0.0
0
LINE
8
1
62
3
10
-0.44982
20
0.940175
30
0.0
11
-0.457793
21
0.933542
31
0.0
0
LINE
8
1
62
3
10
-0.457793
20
0.933542
30
0.0
11
-0.461109
21
0.917597
31
0.0
0
LINE
8
1
62
3
10
-0.461109
20
0.917597
30
0.0
11
-0.457793
21
0.901651
31
0.0
0
LINE
8
1
62
3
10
-0.457793
20
0.901651
30
0.0
11
-0.44982
21
0.895019
31
0.0
0
LINE
8
1
62
3
10
-0.44982
20
0.895019
30
0.0
11
-0.440709
21
0.887742
31
0.0
0
LINE
8
1
62
3
10
-0.440709
20
0.887742
30
0.0
11
-0.439002
21
0.870305
31
0.0
0
LINE
8
1
62
3
10
-0.439002
20
0.870305
30
0.0
11
-0.444115
21
0.849299
31
0.0
0
LINE
8
1
62
3
10
-0.444115
20
0.849299
30
0.0
11
-0.455464
21
0.831318
31
0.0
0
LINE
8
1
62
3
10
-0.455464
20
0.831318
30
0.0
11
-0.467474
21
0.814749
31
0.0
0
LINE
8
1
62
3
10
-0.467474
20
0.814749
30
0.0
11
-0.471843
21
0.798828
31
0.0
0
LINE
8
1
62
3
10
-0.471843
20
0.798828
30
0.0
11
-0.468454
21
0.786855
31
0.0
0
LINE
8
1
62
3
10
-0.468454
20
0.786855
30
0.0
11
-0.457192
21
0.78213
31
0.0
0
LINE
8
1
62
3
10
-0.457192
20
0.78213
30
0.0
11
-0.438805
21
0.788762
31
0.0
0
LINE
8
1
62
3
10
-0.438805
20
0.788762
30
0.0
11
-0.415953
21
0.804708
31
0.0
0
LINE
8
1
62
3
10
-0.415953
20
0.804708
30
0.0
11
-0.381676
21
0.827286
31
0.0
0
LINE
8
1
62
3
10
-0.381676
20
0.827286
30
0.0
11
-0.367527
21
0.849864
31
0.0
0
LINE
8
1
62
3
10
-0.367527
20
0.849864
30
0.0
11
-0.357676
21
0.871486
31
0.0
0
LINE
8
1
62
3
10
-0.357676
20
0.871486
30
0.0
11
-0.347715
21
0.873036
31
0.0
0
LINE
8
1
62
3
10
-0.347715
20
0.873036
30
0.0
11
-0.341369
21
0.857671
31
0.0
0
LINE
8
1
62
3
10
-0.341369
20
0.857671
30
0.0
11
-0.342363
21
0.828546
31
0.0
0
LINE
8
1
62
3
10
-0.342363
20
0.828546
30
0.0
11
-0.349779
21
0.78465
31
0.0
0
LINE
8
1
62
3
10
-0.349779
20
0.78465
30
0.0
11
-0.30154
21
0.78005
31
0.0
0
LINE
8
1
62
3
10
-0.30154
20
0.78005
30
0.0
11
-0.259083
21
0.781061
31
0.0
0
LINE
8
1
62
3
10
-0.259083
20
0.781061
30
0.0
11
-0.231877
21
0.796873
31
0.0
0
LINE
8
1
62
3
10
-0.231877
20
0.796873
30
0.0
11
-0.214347
21
0.810489
31
0.0
0
LINE
8
1
62
3
10
-0.214347
20
0.810489
30
0.0
11
-0.218576
21
0.780457
31
0.0
0
LINE
8
1
62
3
10
-0.218576
20
0.780457
30
0.0
11
-0.23168
21
0.734152
31
0.0
0
LINE
8
1
62
3
10
-0.23168
20
0.734152
30
0.0
11
-0.24137
21
0.726789
31
0.0
0
LINE
8
1
62
3
10
-0.24137
20
0.726789
30
0.0
11
-0.254752
21
0.726256
31
0.0
0
LINE
8
1
62
3
10
-0.254752
20
0.726256
30
0.0
11
-0.267779
21
0.731788
31
0.0
0
LINE
8
1
62
3
10
-0.267779
20
0.731788
30
0.0
11
-0.276404
21
0.742619
31
0.0
0
LINE
8
1
62
3
10
-0.276404
20
0.742619
30
0.0
11
-0.288425
21
0.754578
31
0.0
0
LINE
8
1
62
3
10
-0.288425
20
0.754578
30
0.0
11
-0.308202
21
0.759552
31
0.0
0
LINE
8
1
62
3
10
-0.308202
20
0.759552
30
0.0
11
-0.33158
21
0.748361
31
0.0
0
LINE
8
1
62
3
10
-0.33158
20
0.748361
30
0.0
11
-0.351147
21
0.718184
31
0.0
0
LINE
8
1
62
3
10
-0.351147
20
0.718184
30
0.0
11
-0.364635
21
0.674119
31
0.0
0
LINE
8
1
62
3
10
-0.364635
20
0.674119
30
0.0
11
-0.369774
21
0.621264
31
0.0
0
LINE
8
1
62
3
10
-0.369774
20
0.621264
30
0.0
11
-0.367143
21
0.586422
31
0.0
0
LINE
8
1
62
3
10
-0.367143
20
0.586422
30
0.0
11
-0.35986
21
0.569853
31
0.0
0
LINE
8
1
62
3
10
-0.35986
20
0.569853
30
0.0
11
-0.349322
21
0.57264
31
0.0
0
LINE
8
1
62
3
10
-0.349322
20
0.57264
30
0.0
11
-0.336931
21
0.595864
31
0.0
0
LINE
8
1
62
3
10
-0.336931
20
0.595864
30
0.0
11
-0.3212
21
0.624086
31
0.0
0
LINE
8
1
62
3
10
-0.3212
20
0.624086
30
0.0
11
-0.298343
21
0.630938
31
0.0
0
LINE
8
1
62
3
10
-0.298343
20
0.630938
30
0.0
11
-0.283117
21
0.632903
31
0.0
0
LINE
8
1
62
3
10
-0.283117
20
0.632903
30
0.0
11
-0.282626
21
0.62236
31
0.0
0
LINE
8
1
62
3
10
-0.282626
20
0.62236
30
0.0
11
-0.323221
21
0.570161
31
0.0
0
LINE
8
1
62
3
10
-0.323221
20
0.570161
30
0.0
11
-0.369198
21
0.532462
31
0.0
0
LINE
8
1
62
3
10
-0.369198
20
0.532462
30
0.0
11
-0.427643
21
0.520834
31
0.0
0
LINE
8
1
62
3
10
-0.427643
20
0.520834
30
0.0
11
-0.511187
21
0.520467
31
0.0
0
LINE
8
1
62
3
10
-0.370798
20
0.759552
30
0.0
11
-0.374674
21
0.780445
31
0.0
0
LINE
8
1
62
3
10
-0.374674
20
0.780445
30
0.0
11
-0.397384
21
0.775552
31
0.0
0
LINE
8
1
62
3
10
-0.397384
20
0.775552
30
0.0
11
-0.407456
21
0.766226
31
0.0
0
LINE
8
1
62
3
10
-0.407456
20
0.766226
30
0.0
11
-0.408059
21
0.753331
31
0.0
0
LINE
8
1
62
3
10
-0.408059
20
0.753331
30
0.0
11
-0.400609
21
0.741903
31
0.0
0
LINE
8
1
62
3
10
-0.400609
20
0.741903
30
0.0
11
-0.386523
21
0.736975
31
0.0
0
LINE
8
1
62
3
10
-0.386523
20
0.736975
30
0.0
11
-0.375417
21
0.743607
31
0.0
0
LINE
8
1
62
3
10
-0.375417
20
0.743607
30
0.0
11
-0.370798
21
0.759552
31
0.0
0
LINE
8
1
62
3
10
-0.020842
20
0.53729
30
0.0
11
-0.027474
21
0.554865
31
0.0
0
LINE
8
1
62
3
10
-0.027474
20
0.554865
30
0.0
11
-0.04342
21
0.57633
31
0.0
0
LINE
8
1
62
3
10
-0.04342
20
0.57633
30
0.0
11
-0.059378
21
0.597729
31
0.0
0
LINE
8
1
62
3
10
-0.059378
20
0.597729
30
0.0
11
-0.06604
21
0.615147
31
0.0
0
LINE
8
1
62
3
10
-0.06604
20
0.615147
30
0.0
11
-0.089226
21
0.667692
31
0.0
0
LINE
8
1
62
3
10
-0.089226
20
0.667692
30
0.0
11
-0.107667
21
0.710358
31
0.0
0
LINE
8
1
62
3
10
-0.107667
20
0.710358
30
0.0
11
-0.093446
21
0.704394
31
0.0
0
LINE
8
1
62
3
10
-0.093446
20
0.704394
30
0.0
11
-0.068336
21
0.681281
31
0.0
0
LINE
8
1
62
3
10
-0.068336
20
0.681281
30
0.0
11
-0.021756
21
0.621264
31
0.0
0
LINE
8
1
62
3
10
-0.021756
20
0.621264
30
0.0
11
-0.006383
21
0.598649
31
0.0
0
LINE
8
1
62
3
10
-0.006383
20
0.598649
30
0.0
11
0.008331
21
0.59182
31
0.0
0
LINE
8
1
62
3
10
0.008331
20
0.59182
30
0.0
11
0.022492
21
0.600786
31
0.0
0
LINE
8
1
62
3
10
0.022492
20
0.600786
30
0.0
11
0.036211
21
0.625555
31
0.0
0
LINE
8
1
62
3
10
0.036211
20
0.625555
30
0.0
11
0.055915
21
0.660766
31
0.0
0
LINE
8
1
62
3
10
0.055915
20
0.660766
30
0.0
11
0.082736
21
0.695804
31
0.0
0
LINE
8
1
62
3
10
0.082736
20
0.695804
30
0.0
11
0.109105
21
0.720763
31
0.0
0
LINE
8
1
62
3
10
0.109105
20
0.720763
30
0.0
11
0.113551
21
0.718785
31
0.0
0
LINE
8
1
62
3
10
0.113551
20
0.718785
30
0.0
11
0.114625
21
0.708116
31
0.0
0
LINE
8
1
62
3
10
0.114625
20
0.708116
30
0.0
11
0.107992
21
0.687373
31
0.0
0
LINE
8
1
62
3
10
0.107992
20
0.687373
30
0.0
11
0.092047
21
0.669241
31
0.0
0
LINE
8
1
62
3
10
0.092047
20
0.669241
30
0.0
11
0.076028
21
0.652677
31
0.0
0
LINE
8
1
62
3
10
0.076028
20
0.652677
30
0.0
11
0.069221
21
0.635705
31
0.0
0
LINE
8
1
62
3
10
0.069221
20
0.635705
30
0.0
11
0.047195
21
0.570464
31
0.0
0
LINE
8
1
62
3
10
0.047195
20
0.570464
30
0.0
11
0.025098
21
0.533819
31
0.0
0
LINE
8
1
62
3
10
0.025098
20
0.533819
30
0.0
11
0.002288
21
0.522486
31
0.0
0
LINE
8
1
62
3
10
0.002288
20
0.522486
30
0.0
11
-0.014048
21
0.526835
31
0.0
0
LINE
8
1
62
3
10
-0.014048
20
0.526835
30
0.0
11
-0.020842
21
0.53729
31
0.0
0
LINE
8
1
62
3
10
0.385558
20
0.545064
30
0.0
11
0.378097
21
0.553042
31
0.0
0
LINE
8
1
62
3
10
0.378097
20
0.553042
30
0.0
11
0.360158
21
0.556371
31
0.0
0
LINE
8
1
62
3
10
0.360158
20
0.556371
30
0.0
11
0.33236
21
0.568974
31
0.0
0
LINE
8
1
62
3
10
0.33236
20
0.568974
30
0.0
11
0.295702
21
0.598419
31
0.0
0
LINE
8
1
62
3
10
0.295702
20
0.598419
30
0.0
11
0.263756
21
0.632199
31
0.0
0
LINE
8
1
62
3
10
0.263756
20
0.632199
30
0.0
11
0.250091
21
0.657807
31
0.0
0
LINE
8
1
62
3
10
0.250091
20
0.657807
30
0.0
11
0.255792
21
0.668152
31
0.0
0
LINE
8
1
62
3
10
0.255792
20
0.668152
30
0.0
11
0.268776
21
0.668743
31
0.0
0
LINE
8
1
62
3
10
0.268776
20
0.668743
30
0.0
11
0.282864
21
0.661174
31
0.0
0
LINE
8
1
62
3
10
0.282864
20
0.661174
30
0.0
11
0.291878
21
0.647037
31
0.0
0
LINE
8
1
62
3
10
0.291878
20
0.647037
30
0.0
11
0.301444
21
0.631273
31
0.0
0
LINE
8
1
62
3
10
0.301444
20
0.631273
30
0.0
11
0.317777
21
0.619175
31
0.0
0
LINE
8
1
62
3
10
0.317777
20
0.619175
30
0.0
11
0.335386
21
0.613601
31
0.0
0
LINE
8
1
62
3
10
0.335386
20
0.613601
30
0.0
11
0.348779
21
0.617411
31
0.0
0
LINE
8
1
62
3
10
0.348779
20
0.617411
30
0.0
11
0.349625
21
0.622125
31
0.0
0
LINE
8
1
62
3
10
0.349625
20
0.622125
30
0.0
11
0.342284
21
0.624086
31
0.0
0
LINE
8
1
62
3
10
0.342284
20
0.624086
30
0.0
11
0.332675
21
0.63768
31
0.0
0
LINE
8
1
62
3
10
0.332675
20
0.63768
30
0.0
11
0.329113
21
0.674355
31
0.0
0
LINE
8
1
62
3
10
0.329113
20
0.674355
30
0.0
11
0.325121
21
0.718619
31
0.0
0
LINE
8
1
62
3
10
0.325121
20
0.718619
30
0.0
11
0.315523
21
0.754452
31
0.0
0
LINE
8
1
62
3
10
0.315523
20
0.754452
30
0.0
11
0.306966
21
0.7702
31
0.0
0
LINE
8
1
62
3
10
0.306966
20
0.7702
30
0.0
11
0.297149
21
0.778285
31
0.0
0
LINE
8
1
62
3
10
0.297149
20
0.778285
30
0.0
11
0.259078
21
0.777427
31
0.0
0
LINE
8
1
62
3
10
0.259078
20
0.777427
30
0.0
11
0.224731
21
0.775483
31
0.0
0
LINE
8
1
62
3
10
0.224731
20
0.775483
30
0.0
11
0.218075
21
0.779889
31
0.0
0
LINE
8
1
62
3
10
0.218075
20
0.779889
30
0.0
11
0.216225
21
0.788448
31
0.0
0
LINE
8
1
62
3
10
0.216225
20
0.788448
30
0.0
11
0.21125
21
0.806045
31
0.0
0
LINE
8
1
62
3
10
0.21125
20
0.806045
30
0.0
11
0.199291
21
0.823254
31
0.0
0
LINE
8
1
62
3
10
0.199291
20
0.823254
30
0.0
11
0.182358
21
0.85596
31
0.0
0
LINE
8
1
62
3
10
0.182358
20
0.85596
30
0.0
11
0.187236
21
0.866361
31
0.0
0
LINE
8
1
62
3
10
0.187236
20
0.866361
30
0.0
11
0.198477
21
0.865151
31
0.0
0
LINE
8
1
62
3
10
0.198477
20
0.865151
30
0.0
11
0.210994
21
0.854803
31
0.0
0
LINE
8
1
62
3
10
0.210994
20
0.854803
30
0.0
11
0.2197
21
0.837794
31
0.0
0
LINE
8
1
62
3
10
0.2197
20
0.837794
30
0.0
11
0.232974
21
0.820732
31
0.0
0
LINE
8
1
62
3
10
0.232974
20
0.820732
30
0.0
11
0.265968
21
0.815997
31
0.0
0
LINE
8
1
62
3
10
0.265968
20
0.815997
30
0.0
11
0.288691
21
0.816851
31
0.0
0
LINE
8
1
62
3
10
0.288691
20
0.816851
30
0.0
11
0.300816
21
0.821568
31
0.0
0
LINE
8
1
62
3
10
0.300816
20
0.821568
30
0.0
11
0.305658
21
0.833377
31
0.0
0
LINE
8
1
62
3
10
0.305658
20
0.833377
30
0.0
11
0.306536
21
0.855508
31
0.0
0
LINE
8
1
62
3
10
0.306536
20
0.855508
30
0.0
11
0.312986
21
0.895019
31
0.0
0
LINE
8
1
62
3
10
0.312986
20
0.895019
30
0.0
11
0.335788
21
0.878468
31
0.0
0
LINE
8
1
62
3
10
0.335788
20
0.878468
30
0.0
11
0.351691
21
0.854737
31
0.0
0
LINE
8
1
62
3
10
0.351691
20
0.854737
30
0.0
11
0.358195
21
0.842619
31
0.0
0
LINE
8
1
62
3
10
0.358195
20
0.842619
30
0.0
11
0.374386
21
0.830197
31
0.0
0
LINE
8
1
62
3
10
0.374386
20
0.830197
30
0.0
11
0.415893
21
0.816356
31
0.0
0
LINE
8
1
62
3
10
0.415893
20
0.816356
30
0.0
11
0.428884
21
0.817459
31
0.0
0
LINE
8
1
62
3
10
0.428884
20
0.817459
30
0.0
11
0.435568
21
0.823035
31
0.0
0
LINE
8
1
62
3
10
0.435568
20
0.823035
30
0.0
11
0.434853
21
0.85833
31
0.0
0
LINE
8
1
62
3
10
0.434853
20
0.85833
30
0.0
11
0.432592
21
0.891081
31
0.0
0
LINE
8
1
62
3
10
0.432592
20
0.891081
30
0.0
11
0.446445
21
0.879307
31
0.0
0
LINE
8
1
62
3
10
0.446445
20
0.879307
30
0.0
11
0.466995
21
0.849731
31
0.0
0
LINE
8
1
62
3
10
0.466995
20
0.849731
30
0.0
11
0.492002
21
0.841537
31
0.0
0
LINE
8
1
62
3
10
0.492002
20
0.841537
30
0.0
11
0.54759
21
0.833376
31
0.0
0
LINE
8
1
62
3
10
0.54759
20
0.833376
30
0.0
11
0.624955
21
0.825239
31
0.0
0
LINE
8
1
62
3
10
0.624955
20
0.825239
30
0.0
11
0.617153
21
0.871418
31
0.0
0
LINE
8
1
62
3
10
0.617153
20
0.871418
30
0.0
11
0.614879
21
0.904868
31
0.0
0
LINE
8
1
62
3
10
0.614879
20
0.904868
30
0.0
11
0.62051
21
0.917256
31
0.0
0
LINE
8
1
62
3
10
0.62051
20
0.917256
30
0.0
11
0.630542
21
0.907903
31
0.0
0
LINE
8
1
62
3
10
0.630542
20
0.907903
30
0.0
11
0.641477
21
0.876132
31
0.0
0
LINE
8
1
62
3
10
0.641477
20
0.876132
30
0.0
11
0.65169
21
0.848016
31
0.0
0
LINE
8
1
62
3
10
0.65169
20
0.848016
30
0.0
11
0.664105
21
0.831522
31
0.0
0
LINE
8
1
62
3
10
0.664105
20
0.831522
30
0.0
11
0.674704
21
0.829825
31
0.0
0
LINE
8
1
62
3
10
0.674704
20
0.829825
30
0.0
11
0.679469
21
0.846101
31
0.0
0
LINE
8
1
62
3
10
0.679469
20
0.846101
30
0.0
11
0.682961
21
0.857171
31
0.0
0
LINE
8
1
62
3
10
0.682961
20
0.857171
30
0.0
11
0.695985
21
0.838575
31
0.0
0
LINE
8
1
62
3
10
0.695985
20
0.838575
30
0.0
11
0.703878
21
0.813711
31
0.0
0
LINE
8
1
62
3
10
0.703878
20
0.813711
30
0.0
11
0.706111
21
0.781505
31
0.0
0
LINE
8
1
62
3
10
0.706111
20
0.781505
30
0.0
11
0.7028
21
0.748991
31
0.0
0
LINE
8
1
62
3
10
0.7028
20
0.748991
30
0.0
11
0.694063
21
0.723202
31
0.0
0
LINE
8
1
62
3
10
0.694063
20
0.723202
30
0.0
11
0.680708
21
0.727107
31
0.0
0
LINE
8
1
62
3
10
0.680708
20
0.727107
30
0.0
11
0.655086
21
0.747908
31
0.0
0
LINE
8
1
62
3
10
0.655086
20
0.747908
30
0.0
11
0.61475
21
0.775239
31
0.0
0
LINE
8
1
62
3
10
0.61475
20
0.775239
30
0.0
11
0.559071
21
0.788446
31
0.0
0
LINE
8
1
62
3
10
0.559071
20
0.788446
30
0.0
11
0.493012
21
0.789262
31
0.0
0
LINE
8
1
62
3
10
0.493012
20
0.789262
30
0.0
11
0.490095
21
0.786062
31
0.0
0
LINE
8
1
62
3
10
0.490095
20
0.786062
30
0.0
11
0.493137
21
0.781734
31
0.0
0
LINE
8
1
62
3
10
0.493137
20
0.781734
30
0.0
11
0.518141
21
0.770155
31
0.0
0
LINE
8
1
62
3
10
0.518141
20
0.770155
30
0.0
11
0.548715
21
0.75186
31
0.0
0
LINE
8
1
62
3
10
0.548715
20
0.75186
30
0.0
11
0.569703
21
0.723767
31
0.0
0
LINE
8
1
62
3
10
0.569703
20
0.723767
30
0.0
11
0.579209
21
0.689738
31
0.0
0
LINE
8
1
62
3
10
0.579209
20
0.689738
30
0.0
11
0.575338
21
0.653635
31
0.0
0
LINE
8
1
62
3
10
0.575338
20
0.653635
30
0.0
11
0.558547
21
0.59961
31
0.0
0
LINE
8
1
62
3
10
0.558547
20
0.59961
30
0.0
11
0.544814
21
0.582321
31
0.0
0
LINE
8
1
62
3
10
0.544814
20
0.582321
30
0.0
11
0.51995
21
0.567196
31
0.0
0
LINE
8
1
62
3
10
0.51995
20
0.567196
30
0.0
11
0.49679
21
0.554689
31
0.0
0
LINE
8
1
62
3
10
0.49679
20
0.554689
30
0.0
11
0.487158
21
0.543694
31
0.0
0
LINE
8
1
62
3
10
0.487158
20
0.543694
30
0.0
11
0.472235
21
0.536688
31
0.0
0
LINE
8
1
62
3
10
0.472235
20
0.536688
30
0.0
11
0.436358
21
0.533775
31
0.0
0
LINE
8
1
62
3
10
0.436358
20
0.533775
30
0.0
11
0.40048
21
0.537091
31
0.0
0
LINE
8
1
62
3
10
0.40048
20
0.537091
30
0.0
11
0.385558
21
0.545064
31
0.0
0
LINE
8
1
62
3
10
0.428478
20
0.739144
30
0.0
11
0.422134
21
0.757844
31
0.0
0
LINE
8
1
62
3
10
0.422134
20
0.757844
30
0.0
11
0.398109
21
0.775833
31
0.0
0
LINE
8
1
62
3
10
0.398109
20
0.775833
30
0.0
11
0.3679
21
0.789693
31
0.0
0
LINE
8
1
62
3
10
0.3679
20
0.789693
30
0.0
11
0.353301
21
0.790021
31
0.0
0
LINE
8
1
62
3
10
0.353301
20
0.790021
30
0.0
11
0.352328
21
0.77494
31
0.0
0
LINE
8
1
62
3
10
0.352328
20
0.77494
30
0.0
11
0.362998
21
0.742571
31
0.0
0
LINE
8
1
62
3
10
0.362998
20
0.742571
30
0.0
11
0.377424
21
0.720281
31
0.0
0
LINE
8
1
62
3
10
0.377424
20
0.720281
30
0.0
11
0.399572
21
0.716436
31
0.0
0
LINE
8
1
62
3
10
0.399572
20
0.716436
30
0.0
11
0.418485
21
0.724594
31
0.0
0
LINE
8
1
62
3
10
0.418485
20
0.724594
30
0.0
11
0.428478
21
0.739144
31
0.0
0
LINE
8
1
62
3
10
0.738509
20
0.855956
30
0.0
11
0.705257
21
0.919757
31
0.0
0
LINE
8
1
62
3
10
0.705257
20
0.919757
30
0.0
11
0.681751
21
0.964049
31
0.0
0
LINE
8
1
62
3
10
0.681751
20
0.964049
30
0.0
11
0.652359
21
1.002235
31
0.0
0
LINE
8
1
62
3
10
0.652359
20
1.002235
30
0.0
11
0.618775
21
1.036072
31
0.0
0
LINE
8
1
62
3
10
0.618775
20
1.036072
30
0.0
11
0.626918
21
1.003629
31
0.0
0
LINE
8
1
62
3
10
0.626918
20
1.003629
30
0.0
11
0.630111
21
0.978545
31
0.0
0
LINE
8
1
62
3
10
0.630111
20
0.978545
30
0.0
11
0.61663
21
0.978258
31
0.0
0
LINE
8
1
62
3
10
0.61663
20
0.978258
30
0.0
11
0.593479
21
0.98533
31
0.0
0
LINE
8
1
62
3
10
0.593479
20
0.98533
30
0.0
11
0.588758
21
1.000881
31
0.0
0
LINE
8
1
62
3
10
0.588758
20
1.000881
30
0.0
11
0.583784
21
1.015992
31
0.0
0
LINE
8
1
62
3
10
0.583784
20
1.015992
30
0.0
11
0.571825
21
1.030486
31
0.0
0
LINE
8
1
62
3
10
0.571825
20
1.030486
30
0.0
11
0.557988
21
1.036555
31
0.0
0
LINE
8
1
62
3
10
0.557988
20
1.036555
30
0.0
11
0.554891
21
1.014935
31
0.0
0
LINE
8
1
62
3
10
0.554891
20
1.014935
30
0.0
11
0.550455
21
0.993087
31
0.0
0
LINE
8
1
62
3
10
0.550455
20
0.993087
30
0.0
11
0.537958
21
0.98533
31
0.0
0
LINE
8
1
62
3
10
0.537958
20
0.98533
30
0.0
11
0.525999
21
0.990188
31
0.0
0
LINE
8
1
62
3
10
0.525999
20
0.990188
30
0.0
11
0.521025
21
1.001866
31
0.0
0
LINE
8
1
62
3
10
0.521025
20
1.001866
30
0.0
11
0.515752
21
1.014197
31
0.0
0
LINE
8
1
62
3
10
0.515752
20
1.014197
30
0.0
11
0.502792
21
1.027239
31
0.0
0
LINE
8
1
62
3
10
0.502792
20
1.027239
30
0.0
11
0.470967
21
1.041775
31
0.0
0
LINE
8
1
62
3
10
0.470967
20
1.041775
30
0.0
11
0.46458
21
0.996619
31
0.0
0
LINE
8
1
62
3
10
0.46458
20
0.996619
30
0.0
11
0.461768
21
0.963509
31
0.0
0
LINE
8
1
62
3
10
0.461768
20
0.963509
30
0.0
11
0.454626
21
0.953067
31
0.0
0
LINE
8
1
62
3
10
0.454626
20
0.953067
30
0.0
11
0.445099
21
0.965106
31
0.0
0
LINE
8
1
62
3
10
0.445099
20
0.965106
30
0.0
11
0.435127
21
0.999441
31
0.0
0
LINE
8
1
62
3
10
0.435127
20
0.999441
30
0.0
11
0.422262
21
1.03733
31
0.0
0
LINE
8
1
62
3
10
0.422262
20
1.03733
30
0.0
11
0.402478
21
1.050119
31
0.0
0
LINE
8
1
62
3
10
0.402478
20
1.050119
30
0.0
11
0.379407
21
1.046459
31
0.0
0
LINE
8
1
62
3
10
0.379407
20
1.046459
30
0.0
11
0.356176
21
1.031819
31
0.0
0
LINE
8
1
62
3
10
0.356176
20
1.031819
30
0.0
11
0.335593
21
1.008622
31
0.0
0
LINE
8
1
62
3
10
0.335593
20
1.008622
30
0.0
11
0.320467
21
0.979294
31
0.0
0
LINE
8
1
62
3
10
0.320467
20
0.979294
30
0.0
11
0.308318
21
0.945819
31
0.0
0
LINE
8
1
62
3
10
0.308318
20
0.945819
30
0.0
11
0.307427
21
0.991539
31
0.0
0
LINE
8
1
62
3
10
0.307427
20
0.991539
30
0.0
11
0.310488
21
1.027519
31
0.0
0
LINE
8
1
62
3
10
0.310488
20
1.027519
30
0.0
11
0.319099
21
1.049822
31
0.0
0
LINE
8
1
62
3
10
0.319099
20
1.049822
30
0.0
11
0.327157
21
1.063317
31
0.0
0
LINE
8
1
62
3
10
0.327157
20
1.063317
30
0.0
11
0.323491
21
1.073646
31
0.0
0
LINE
8
1
62
3
10
0.323491
20
1.073646
30
0.0
11
0.309916
21
1.079143
31
0.0
0
LINE
8
1
62
3
10
0.309916
20
1.079143
30
0.0
11
0.288245
21
1.078145
31
0.0
0
LINE
8
1
62
3
10
0.288245
20
1.078145
30
0.0
11
0.243803
21
1.058873
31
0.0
0
LINE
8
1
62
3
10
0.243803
20
1.058873
30
0.0
11
0.184959
21
1.005086
31
0.0
0
LINE
8
1
62
3
10
0.184959
20
1.005086
30
0.0
11
0.143155
21
0.974214
31
0.0
0
LINE
8
1
62
3
10
0.143155
20
0.974214
30
0.0
11
0.137326
21
0.976432
31
0.0
0
LINE
8
1
62
3
10
0.137326
20
0.976432
30
0.0
11
0.142865
21
0.982681
31
0.0
0
LINE
8
1
62
3
10
0.142865
20
0.982681
30
0.0
11
0.170172
21
1.022019
31
0.0
0
LINE
8
1
62
3
10
0.170172
20
1.022019
30
0.0
11
0.18434
21
1.043944
31
0.0
0
LINE
8
1
62
3
10
0.18434
20
1.043944
30
0.0
11
0.195935
21
1.053064
31
0.0
0
LINE
8
1
62
3
10
0.195935
20
1.053064
30
0.0
11
0.241385
21
1.089573
31
0.0
0
LINE
8
1
62
3
10
0.241385
20
1.089573
30
0.0
11
0.263395
21
1.110356
31
0.0
0
LINE
8
1
62
3
10
0.263395
20
1.110356
30
0.0
11
0.284298
21
1.120853
31
0.0
0
LINE
8
1
62
3
10
0.284298
20
1.120853
30
0.0
11
0.367728
21
1.122809
31
0.0
0
LINE
8
1
62
3
10
0.367728
20
1.122809
30
0.0
11
0.435885
21
1.116733
31
0.0
0
LINE
8
1
62
3
10
0.435885
20
1.116733
30
0.0
11
0.467126
21
1.106056
31
0.0
0
LINE
8
1
62
3
10
0.467126
20
1.106056
30
0.0
11
0.476201
21
1.098993
31
0.0
0
LINE
8
1
62
3
10
0.476201
20
1.098993
30
0.0
11
0.486133
21
1.108517
31
0.0
0
LINE
8
1
62
3
10
0.486133
20
1.108517
30
0.0
11
0.497952
21
1.118114
31
0.0
0
LINE
8
1
62
3
10
0.497952
20
1.118114
30
0.0
11
0.515162
21
1.105694
31
0.0
0
LINE
8
1
62
3
10
0.515162
20
1.105694
30
0.0
11
0.543602
21
1.08693
31
0.0
0
LINE
8
1
62
3
10
0.543602
20
1.08693
30
0.0
11
0.571018
21
1.069191
31
0.0
0
LINE
8
1
62
3
10
0.571018
20
1.069191
30
0.0
11
0.58546
21
1.05779
31
0.0
0
LINE
8
1
62
3
10
0.58546
20
1.05779
30
0.0
11
0.588758
21
1.067812
31
0.0
0
LINE
8
1
62
3
10
0.588758
20
1.067812
30
0.0
11
0.569953
21
1.12851
31
0.0
0
LINE
8
1
62
3
10
0.569953
20
1.12851
30
0.0
11
0.537119
21
1.185337
31
0.0
0
LINE
8
1
62
3
10
0.537119
20
1.185337
30
0.0
11
0.520649
21
1.214737
31
0.0
0
LINE
8
1
62
3
10
0.520649
20
1.214737
30
0.0
11
0.514002
21
1.232227
31
0.0
0
LINE
8
1
62
3
10
0.514002
20
1.232227
30
0.0
11
0.49878
21
1.253433
31
0.0
0
LINE
8
1
62
3
10
0.49878
20
1.253433
30
0.0
11
0.480935
21
1.271316
31
0.0
0
LINE
8
1
62
3
10
0.480935
20
1.271316
30
0.0
11
0.46642
21
1.278841
31
0.0
0
LINE
8
1
62
3
10
0.46642
20
1.278841
30
0.0
11
0.453778
21
1.288982
31
0.0
0
LINE
8
1
62
3
10
0.453778
20
1.288982
30
0.0
11
0.438212
21
1.313006
31
0.0
0
LINE
8
1
62
3
10
0.438212
20
1.313006
30
0.0
11
0.419425
21
1.364302
31
0.0
0
LINE
8
1
62
3
10
0.419425
20
1.364302
30
0.0
11
0.416141
21
1.375477
31
0.0
0
LINE
8
1
62
3
10
0.416141
20
1.375477
30
0.0
11
0.408246
21
1.382323
31
0.0
0
LINE
8
1
62
3
10
0.408246
20
1.382323
30
0.0
11
0.398256
21
1.405064
31
0.0
0
LINE
8
1
62
3
10
0.398256
20
1.405064
30
0.0
11
0.389933
21
1.454455
31
0.0
0
LINE
8
1
62
3
10
0.389933
20
1.454455
30
0.0
11
0.388628
21
1.50407
31
0.0
0
LINE
8
1
62
3
10
0.388628
20
1.50407
30
0.0
11
0.397704
21
1.537054
31
0.0
0
LINE
8
1
62
3
10
0.397704
20
1.537054
30
0.0
11
0.418308
21
1.555392
31
0.0
0
LINE
8
1
62
3
10
0.418308
20
1.555392
30
0.0
11
0.451586
21
1.561064
31
0.0
0
LINE
8
1
62
3
10
0.451586
20
1.561064
30
0.0
11
0.47945
21
1.556265
31
0.0
0
LINE
8
1
62
3
10
0.47945
20
1.556265
30
0.0
11
0.505506
21
1.543982
31
0.0
0
LINE
8
1
62
3
10
0.505506
20
1.543982
30
0.0
11
0.524783
21
1.527379
31
0.0
0
LINE
8
1
62
3
10
0.524783
20
1.527379
30
0.0
11
0.532313
21
1.509623
31
0.0
0
LINE
8
1
62
3
10
0.532313
20
1.509623
30
0.0
11
0.535683
21
1.498116
31
0.0
0
LINE
8
1
62
3
10
0.535683
20
1.498116
30
0.0
11
0.543785
21
1.49333
31
0.0
0
LINE
8
1
62
3
10
0.543785
20
1.49333
30
0.0
11
0.557636
21
1.480895
31
0.0
0
LINE
8
1
62
3
10
0.557636
20
1.480895
30
0.0
11
0.574829
21
1.450997
31
0.0
0
LINE
8
1
62
3
10
0.574829
20
1.450997
30
0.0
11
0.601081
21
1.403019
31
0.0
0
LINE
8
1
62
3
10
0.601081
20
1.403019
30
0.0
11
0.614674
21
1.369143
31
0.0
0
LINE
8
1
62
3
10
0.614674
20
1.369143
30
0.0
11
0.633173
21
1.301454
31
0.0
0
LINE
8
1
62
3
10
0.633173
20
1.301454
30
0.0
11
0.656491
21
1.179295
31
0.0
0
LINE
8
1
62
3
10
0.656491
20
1.179295
30
0.0
11
0.659807
21
1.153926
31
0.0
0
LINE
8
1
62
3
10
0.659807
20
1.153926
30
0.0
11
0.66778
21
1.143375
31
0.0
0
LINE
8
1
62
3
10
0.66778
20
1.143375
30
0.0
11
0.675776
21
1.135913
31
0.0
0
LINE
8
1
62
3
10
0.675776
20
1.135913
30
0.0
11
0.679148
21
1.117975
31
0.0
0
LINE
8
1
62
3
10
0.679148
20
1.117975
30
0.0
11
0.686677
21
1.062747
31
0.0
0
LINE
8
1
62
3
10
0.686677
20
1.062747
30
0.0
11
0.704398
21
0.989641
31
0.0
0
LINE
8
1
62
3
10
0.704398
20
0.989641
30
0.0
11
0.725366
21
0.923632
31
0.0
0
LINE
8
1
62
3
10
0.725366
20
0.923632
30
0.0
11
0.742635
21
0.88969
31
0.0
0
LINE
8
1
62
3
10
0.742635
20
0.88969
30
0.0
11
0.754095
21
0.875183
31
0.0
0
LINE
8
1
62
3
10
0.754095
20
0.875183
30
0.0
11
0.756497
21
0.858695
31
0.0
0
LINE
8
1
62
3
10
0.756497
20
0.858695
30
0.0
11
0.750586
21
0.847016
31
0.0
0
LINE
8
1
62
3
10
0.750586
20
0.847016
30
0.0
11
0.738509
21
0.855956
31
0.0
0
LINE
8
1
62
3
10
-0.262176
20
1.461241
30
0.0
11
-0.270807
21
1.522656
31
0.0
0
LINE
8
1
62
3
10
-0.270807
20
1.522656
30
0.0
11
-0.280805
21
1.554608
31
0.0
0
LINE
8
1
62
3
10
-0.280805
20
1.554608
30
0.0
11
-0.291416
21
1.583077
31
0.0
0
LINE
8
1
62
3
10
-0.291416
20
1.583077
30
0.0
11
-0.288358
21
1.593703
31
0.0
0
LINE
8
1
62
3
10
-0.288358
20
1.593703
30
0.0
11
-0.276061
21
1.580819
31
0.0
0
LINE
8
1
62
3
10
-0.276061
20
1.580819
30
0.0
11
-0.257702
21
1.567976
31
0.0
0
LINE
8
1
62
3
10
-0.257702
20
1.567976
30
0.0
11
-0.232804
21
1.561564
31
0.0
0
LINE
8
1
62
3
10
-0.232804
20
1.561564
30
0.0
11
-0.210886
21
1.562663
31
0.0
0
LINE
8
1
62
3
10
-0.210886
20
1.562663
30
0.0
11
-0.201464
21
1.572352
31
0.0
0
LINE
8
1
62
3
10
-0.201464
20
1.572352
30
0.0
11
-0.167598
21
1.580563
31
0.0
0
LINE
8
1
62
3
10
-0.167598
20
1.580563
30
0.0
11
-0.077287
21
1.583641
31
0.0
0
LINE
8
1
62
3
10
-0.077287
20
1.583641
30
0.0
11
0.013025
21
1.580563
31
0.0
0
LINE
8
1
62
3
10
0.013025
20
1.580563
30
0.0
11
0.046891
21
1.572352
31
0.0
0
LINE
8
1
62
3
10
0.046891
20
1.572352
30
0.0
11
0.061752
21
1.56438
31
0.0
0
LINE
8
1
62
3
10
0.061752
20
1.56438
30
0.0
11
0.097482
21
1.561064
31
0.0
0
LINE
8
1
62
3
10
0.097482
20
1.561064
30
0.0
11
0.224927
21
1.547884
31
0.0
0
LINE
8
1
62
3
10
0.224927
20
1.547884
30
0.0
11
0.301781
21
1.534705
31
0.0
0
LINE
8
1
62
3
10
0.301781
20
1.534705
30
0.0
11
0.300695
21
1.46604
31
0.0
0
LINE
8
1
62
3
10
0.300695
20
1.46604
30
0.0
11
0.299609
21
1.397375
31
0.0
0
LINE
8
1
62
3
10
0.299609
20
1.397375
30
0.0
11
0.24945
21
1.401175
31
0.0
0
LINE
8
1
62
3
10
0.24945
20
1.401175
30
0.0
11
0.21292
21
1.406888
31
0.0
0
LINE
8
1
62
3
10
0.21292
20
1.406888
30
0.0
11
0.195528
21
1.415287
31
0.0
0
LINE
8
1
62
3
10
0.195528
20
1.415287
30
0.0
11
0.14558
21
1.42277
31
0.0
0
LINE
8
1
62
3
10
0.14558
20
1.42277
30
0.0
11
0.040384
21
1.425399
31
0.0
0
LINE
8
1
62
3
10
0.040384
20
1.425399
30
0.0
11
-0.063911
21
1.423087
31
0.0
0
LINE
8
1
62
3
10
-0.063911
20
1.423087
30
0.0
11
-0.111153
21
1.415751
31
0.0
0
LINE
8
1
62
3
10
-0.111153
20
1.415751
30
0.0
11
-0.125247
21
1.406557
31
0.0
0
LINE
8
1
62
3
10
-0.125247
20
1.406557
30
0.0
11
-0.159131
21
1.398278
31
0.0
0
LINE
8
1
62
3
10
-0.159131
20
1.398278
30
0.0
11
-0.230814
21
1.384748
31
0.0
0
LINE
8
1
62
3
10
-0.230814
20
1.384748
30
0.0
11
-0.243987
21
1.383648
31
0.0
0
LINE
8
1
62
3
10
-0.243987
20
1.383648
30
0.0
11
-0.252074
21
1.392294
31
0.0
0
LINE
8
1
62
3
10
-0.252074
20
1.392294
30
0.0
11
-0.262176
21
1.461241
31
0.0
0
CIRCLE
8
1
62
3
10
-0.000067
20
0.00028
30
0.0
40
2.0
0
ARC
8
1
62
3
10
-0.000067
20
0.00028
30
0.0
40
1.95
50
326.209025
51
601.644832
0
ENDSEC
0
EOF
