  0
SECTION
  2
HEADER
  9
$ACADVER
  1
AC1009
  9
$DWGCODEPAGE
  3
ansi_1252
  9
$INSBASE
 10
0.0
 20
0.0
 30
0.0
  9
$EXTMIN
 10
-0.0390936838624245
 20
0.0104634511379356
 30
0.0
  9
$EXTMAX
 10
22.05941279087755
 20
7.063768412577113
 30
0.3258839617209643
  9
$LIMMIN
 10
0.0
 20
0.0
  9
$LIMMAX
 10
12.0
 20
9.0
  9
$ORTHOMODE
 70
     0
  9
$REGENMODE
 70
     1
  9
$FILLMODE
 70
     1
  9
$QTEXTMODE
 70
     0
  9
$MIRRTEXT
 70
     1
  9
$DRAGMODE
 70
     2
  9
$LTSCALE
 40
1.0
  9
$OSMODE
 70
    37
  9
$ATTMODE
 70
     1
  9
$TEXTSIZE
 40
0.2
  9
$TRACEWID
 40
0.05
  9
$TEXTSTYLE
  7
STANDARD
  9
$CLAYER
  8
0
  9
$CELTYPE
  6
BYBLOCK
  9
$CECOLOR
 62
   256
  9
$DIMSCALE
 40
1.0
  9
$DIMASZ
 40
0.18
  9
$DIMEXO
 40
0.0625
  9
$DIMDLI
 40
0.38
  9
$DIMRND
 40
0.0
  9
$DIMDLE
 40
0.0
  9
$DIMEXE
 40
0.18
  9
$DIMTP
 40
0.0
  9
$DIMTM
 40
0.0
  9
$DIMTXT
 40
0.18
  9
$DIMCEN
 40
0.09
  9
$DIMTSZ
 40
0.0
  9
$DIMTOL
 70
     0
  9
$DIMLIM
 70
     0
  9
$DIMTIH
 70
     1
  9
$DIMTOH
 70
     1
  9
$DIMSE1
 70
     0
  9
$DIMSE2
 70
     0
  9
$DIMTAD
 70
     0
  9
$DIMZIN
 70
     0
  9
$DIMBLK
  1

  9
$DIMASO
 70
     1
  9
$DIMSHO
 70
     1
  9
$DIMPOST
  1

  9
$DIMAPOST
  1

  9
$DIMALT
 70
     0
  9
$DIMALTD
 70
     2
  9
$DIMALTF
 40
25.4
  9
$DIMLFAC
 40
1.0
  9
$DIMTOFL
 70
     0
  9
$DIMTVP
 40
0.0
  9
$DIMTIX
 70
     0
  9
$DIMSOXD
 70
     0
  9
$DIMSAH
 70
     0
  9
$DIMBLK1
  1

  9
$DIMBLK2
  1

  9
$DIMSTYLE
  2
STANDARD
  9
$DIMCLRD
 70
     0
  9
$DIMCLRE
 70
     0
  9
$DIMCLRT
 70
     0
  9
$DIMTFAC
 40
1.0
  9
$DIMGAP
 40
0.09
  9
$LUNITS
 70
     2
  9
$LUPREC
 70
     4
  9
$SKETCHINC
 40
0.1
  9
$FILLETRAD
 40
0.5
  9
$AUNITS
 70
     0
  9
$AUPREC
 70
     0
  9
$MENU
  1
.
  9
$ELEVATION
 40
0.0
  9
$PELEVATION
 40
0.0
  9
$THICKNESS
 40
0.0
  9
$LIMCHECK
 70
     0
  9
$CHAMFERA
 40
0.5
  9
$CHAMFERB
 40
0.5
  9
$SKPOLY
 70
     0
  9
$TDCREATE
 40
2453353.508792488
  9
$TDUPDATE
 40
4881453.859576296
  9
$TDINDWG
 40
4881704.058228148
  9
$TDUSRTIMER
 40
4881704.058228148
  9
$USRTIMER
 70
     1
  9
$ANGBASE
 50
0.0
  9
$ANGDIR
 70
     0
  9
$PDMODE
 70
     0
  9
$PDSIZE
 40
0.0
  9
$PLINEWID
 40
0.0
  9
$COORDS
 70
     1
  9
$SPLFRAME
 70
     0
  9
$SPLINETYPE
 70
     6
  9
$SPLINESEGS
 70
     8
  9
$ATTDIA
 70
     0
  9
$ATTREQ
 70
     1
  9
$HANDLING
 70
     1
  9
$HANDSEED
  5
1A0
  9
$SURFTAB1
 70
     6
  9
$SURFTAB2
 70
     6
  9
$SURFTYPE
 70
     6
  9
$SURFU
 70
     6
  9
$SURFV
 70
     6
  9
$UCSNAME
  2

  9
$UCSORG
 10
0.0
 20
0.0
 30
0.0
  9
$UCSXDIR
 10
1.0
 20
0.0
 30
0.0
  9
$UCSYDIR
 10
0.0
 20
1.0
 30
0.0
  9
$PUCSNAME
  2

  9
$PUCSORG
 10
0.0
 20
0.0
 30
0.0
  9
$PUCSXDIR
 10
1.0
 20
0.0
 30
0.0
  9
$PUCSYDIR
 10
0.0
 20
1.0
 30
0.0
  9
$USERI1
 70
     0
  9
$USERI2
 70
     0
  9
$USERI3
 70
     0
  9
$USERI4
 70
     0
  9
$USERI5
 70
     0
  9
$USERR1
 40
0.0
  9
$USERR2
 40
0.0
  9
$USERR3
 40
0.0
  9
$USERR4
 40
0.0
  9
$USERR5
 40
0.0
  9
$WORLDVIEW
 70
     1
  9
$SHADEDGE
 70
     3
  9
$SHADEDIF
 70
    70
  9
$TILEMODE
 70
     1
  9
$MAXACTVP
 70
    64
  9
$PLIMCHECK
 70
     0
  9
$PEXTMIN
 10
0.0
 20
0.0
 30
0.0
  9
$PEXTMAX
 10
0.0
 20
0.0
 30
0.0
  9
$PLIMMIN
 10
0.0
 20
0.0
  9
$PLIMMAX
 10
0.0
 20
0.0
  9
$UNITMODE
 70
     0
  9
$VISRETAIN
 70
     1
  9
$PLINEGEN
 70
     0
  9
$PSLTSCALE
 70
     1
  0
ENDSEC
  0
SECTION
  2
TABLES
  0
TABLE
  2
VPORT
 70
     1
  0
VPORT
  2
*ACTIVE
 70
     0
 10
0.0
 20
0.0
 11
1.0
 21
1.0
 12
10.074583978052
 22
3.002795051620804
 13
0.0
 23
0.0
 14
0.5
 24
0.5
 15
0.5
 25
0.5
 16
0.0
 26
0.0
 36
1.0
 17
0.0
 27
0.0
 37
0.0
 40
12.60998003435991
 41
1.0
 42
50.0
 43
0.0
 44
0.0
 50
0.0
 51
0.0
 71
    16
 72
   100
 73
     1
 74
     3
 75
     0
 76
     0
 77
     0
 78
     0
  0
ENDTAB
  0
TABLE
  2
LTYPE
 70
     1
  0
LTYPE
  2
CONTINUOUS
 70
     0
  3
Solid line
 72
    65
 73
     0
 40
0.0
  0
ENDTAB
  0
TABLE
  2
LAYER
 70
     1
  0
LAYER
  2
0
 70
     0
 62
     7
  6
CONTINUOUS
  0
ENDTAB
  0
TABLE
  2
STYLE
 70
     1
  0
STYLE
  2
STANDARD
 70
     0
 40
0.0
 41
1.0
 50
0.0
 71
     0
 42
0.2
  3
txt
  4

  0
ENDTAB
  0
TABLE
  2
VIEW
 70
     0
  0
ENDTAB
  0
TABLE
  2
UCS
 70
     0
  0
ENDTAB
  0
TABLE
  2
APPID
 70
     1
  0
APPID
  2
ACAD
 70
     0
  0
ENDTAB
  0
TABLE
  2
DIMSTYLE
 70
     1
  0
DIMSTYLE
  2
STANDARD
 70
     0
  3

  4

  5

  6

  7

 40
1.0
 41
0.18
 42
0.0625
 43
0.38
 44
0.18
 45
0.0
 46
0.0
 47
0.0
 48
0.0
140
0.18
141
0.09
142
0.0
143
25.4
144
1.0
145
0.0
146
1.0
147
0.09
 71
     0
 72
     0
 73
     1
 74
     1
 75
     0
 76
     0
 77
     0
 78
     0
170
     0
171
     2
172
     0
173
     0
174
     0
175
     0
176
     0
177
     0
178
     0
  0
ENDTAB
  0
ENDSEC
  0
SECTION
  2
BLOCKS
  0
BLOCK
  8
0
  2
$MODEL_SPACE
 70
     0
 10
0.0
 20
0.0
 30
0.0
  3
$MODEL_SPACE
  1

  0
ENDBLK
  5
21
  8
0
  0
BLOCK
 67
     1
  8
0
  2
$PAPER_SPACE
 70
     0
 10
0.0
 20
0.0
 30
0.0
  3
$PAPER_SPACE
  1

  0
ENDBLK
  5
76
 67
     1
  8
0
  0
ENDSEC
  0
SECTION
  2
ENTITIES
  0
LINE
  5
23
  8
0
 62
     4
 10
3.205763778485194
 20
4.354479634896475
 30
0.3258839617209643
 11
3.684640936740117
 21
4.548880596517474
 31
0.3258839617209643
  0
LINE
  5
24
  8
0
 62
     4
 10
3.684640936740117
 20
4.548880596517474
 30
0.3258839617209643
 11
4.671633151140234
 21
3.105803346490021
 31
0.3258839617209643
  0
LINE
  5
25
  8
0
 62
     4
 10
4.671633151140234
 20
3.105803346490021
 30
0.3258839617209643
 11
4.451315797417559
 21
4.860113503740422
 31
0.3258839617209643
  0
LINE
  5
26
  8
0
 62
     4
 10
4.451315797417559
 20
4.860113503740422
 30
0.3258839617209643
 11
5.005680956819898
 21
5.085158942261046
 31
0.3258839617209643
  0
LINE
  5
E6
  8
0
 62
     4
 10
5.005680956819898
 20
5.085158942261046
 30
0.3258839617209643
 11
6.064541215579303
 21
3.641030451862207
 31
0.3258839617209643
  0
LINE
  5
28
  8
0
 62
     4
 10
6.064541215579303
 20
3.641030451862207
 30
0.3258839617209643
 11
5.76056096829406
 21
5.391603711257378
 31
0.3258839617209643
  0
LINE
  5
29
  8
0
 62
     4
 10
5.76056096829406
 20
5.391603711257378
 30
0.3258839617209643
 11
6.230002126405555
 21
5.582174113265921
 31
0.3258839617209643
  0
LINE
  5
2A
  8
0
 62
     4
 10
6.230002126405555
 20
5.582174113265921
 30
0.3258839617209643
 11
6.608893222619591
 21
3.05142579645905
 31
0.3258839617209643
  0
LINE
  5
2B
  8
0
 62
     4
 10
6.608893222619591
 20
3.05142579645905
 30
0.3258839617209643
 11
6.113502913137669
 21
2.850321294227307
 31
0.3258839617209643
  0
LINE
  5
2C
  8
0
 62
     4
 10
6.113502913137669
 20
2.850321294227307
 30
0.3258839617209643
 11
4.954421842690267
 21
4.385650213402432
 31
0.3258839617209643
  0
LINE
  5
2D
  8
0
 62
     4
 10
4.954421842690267
 20
4.385650213402432
 30
0.3258839617209643
 11
5.195852050165395
 21
2.477799433205096
 31
0.3258839617209643
  0
LINE
  5
2E
  8
0
 62
     4
 10
5.195852050165395
 20
2.477799433205096
 30
0.3258839617209643
 11
4.688666891480191
 21
2.271906792746734
 31
0.3258839617209643
  0
LINE
  5
2F
  8
0
 62
     4
 10
4.688666891480191
 20
2.271906792746734
 30
0.3258839617209643
 11
3.205763778485194
 21
4.354479634896475
 31
0.3258839617209643
  0
LINE
  5
30
  8
0
 62
     4
 10
7.402115283323589
 20
3.335105932069901
 30
0.3258839617209643
 11
6.817890873656606
 21
5.752933886126925
 31
0.3258839617209643
  0
LINE
  5
31
  8
0
 62
     4
 10
6.817890873656606
 20
5.752933886126925
 30
0.3258839617209643
 11
7.305415195309248
 21
5.870739091963827
 31
0.3258839617209643
  0
LINE
  5
32
  8
0
 62
     4
 10
7.305415195309248
 20
5.870739091963827
 30
0.3258839617209643
 11
7.889641452630375
 21
3.452904853710905
 31
0.3258839617209643
  0
LINE
  5
33
  8
0
 62
     4
 10
7.889641452630375
 20
3.452904853710905
 30
0.3258839617209643
 11
7.402115283323589
 21
3.335105932069901
 31
0.3258839617209643
  0
LINE
  5
34
  8
0
 62
     4
 10
8.365317675918202
 20
3.53601879326644
 30
0.3258839617209643
 11
8.078398171294417
 21
6.006826427210005
 31
0.3258839617209643
  0
LINE
  5
35
  8
0
 62
     4
 10
8.078398171294417
 20
6.006826427210005
 30
0.3258839617209643
 11
8.563962806771931
 21
6.063207859057492
 31
0.3258839617209643
  0
LINE
  5
36
  8
0
 62
     4
 10
8.563962806771931
 20
6.063207859057492
 30
0.3258839617209643
 11
9.772965356966965
 21
4.524790922163657
 31
0.3258839617209643
  0
LINE
  5
37
  8
0
 62
     4
 10
9.772965356966965
 20
4.524790922163657
 30
0.3258839617209643
 11
9.580609852885793
 21
6.1812665454373
 31
0.3258839617209643
  0
LINE
  5
38
  8
0
 62
     4
 10
9.580609852885793
 20
6.1812665454373
 30
0.3258839617209643
 11
10.04341039571558
 21
6.235012021444661
 31
0.3258839617209643
  0
LINE
  5
39
  8
0
 62
     4
 10
10.04341039571558
 20
6.235012021444661
 30
0.3258839617209643
 11
10.33033295580153
 21
3.764198593616829
 31
0.3258839617209643
  0
LINE
  5
3A
  8
0
 62
     4
 10
10.33033295580153
 20
3.764198593616829
 30
0.3258839617209643
 11
9.829595112719693
 21
3.706053982273037
 31
0.3258839617209643
  0
LINE
  5
3B
  8
0
 62
     4
 10
9.829595112719693
 20
3.706053982273037
 30
0.3258839617209643
 11
8.639875729903961
 21
5.210832024347337
 31
0.3258839617209643
  0
LINE
  5
3C
  8
0
 62
     4
 10
8.639875729903961
 20
5.210832024347337
 30
0.3258839617209643
 11
8.828121274210155
 21
3.589758475389544
 31
0.3258839617209643
  0
LINE
  5
3D
  8
0
 62
     4
 10
8.828121274210155
 20
3.589758475389544
 30
0.3258839617209643
 11
8.365317675918202
 21
3.53601879326644
 31
0.3258839617209643
  0
LINE
  5
3E
  8
0
 62
     4
 10
10.86990493153689
 20
3.781123491734679
 30
0.3258839617209643
 11
11.01998478341957
 21
6.26399861686987
 31
0.3258839617209643
  0
LINE
  5
3F
  8
0
 62
     4
 10
11.01998478341957
 20
6.26399861686987
 30
0.3258839617209643
 11
11.50792018200317
 21
6.234504596836032
 31
0.3258839617209643
  0
LINE
  5
40
  8
0
 62
     4
 10
11.50792018200317
 20
6.234504596836032
 30
0.3258839617209643
 11
12.42891706831415
 21
4.508181599540624
 31
0.3258839617209643
  0
LINE
  5
41
  8
0
 62
     4
 10
12.42891706831415
 20
4.508181599540624
 30
0.3258839617209643
 11
12.5295357738295
 21
6.172758872126153
 31
0.3258839617209643
  0
LINE
  5
42
  8
0
 62
     4
 10
12.5295357738295
 20
6.172758872126153
 30
0.3258839617209643
 11
12.99459575556351
 21
6.144642468634363
 31
0.3258839617209643
  0
LINE
  5
43
  8
0
 62
     4
 10
12.99459575556351
 20
6.144642468634363
 30
0.3258839617209643
 11
12.84451835523899
 21
3.661761304459088
 31
0.3258839617209643
  0
LINE
  5
44
  8
0
 62
     4
 10
12.84451835523899
 20
3.661761304459088
 30
0.3258839617209643
 11
12.34133488108964
 21
3.692176974313373
 31
0.3258839617209643
  0
LINE
  5
45
  8
0
 62
     4
 10
12.34133488108964
 20
3.692176974313373
 30
0.3258839617209643
 11
11.43343351113154
 21
5.382004511334998
 31
0.3258839617209643
  0
LINE
  5
46
  8
0
 62
     4
 10
11.43343351113154
 20
5.382004511334998
 30
0.3258839617209643
 11
11.33496974450297
 21
3.75300904948941
 31
0.3258839617209643
  0
LINE
  5
47
  8
0
 62
     4
 10
11.33496974450297
 20
3.75300904948941
 30
0.3258839617209643
 11
10.86990493153689
 21
3.781123491734679
 31
0.3258839617209643
  0
LINE
  5
48
  8
0
 62
     4
 10
13.37802224498833
 20
3.58581861933984
 30
0.3258839617209643
 11
13.94388972928893
 21
6.008011972757164
 31
0.3258839617209643
  0
LINE
  5
49
  8
0
 62
     4
 10
13.94388972928893
 20
6.008011972757164
 30
0.3258839617209643
 11
15.73636117243884
 21
5.589261107781802
 31
0.3258839617209643
  0
LINE
  5
4A
  8
0
 62
     4
 10
15.73636117243884
 20
5.589261107781802
 30
0.3258839617209643
 11
15.64079268482627
 21
5.180188822485494
 31
0.3258839617209643
  0
LINE
  5
4B
  8
0
 62
     4
 10
15.64079268482627
 20
5.180188822485494
 30
0.3258839617209643
 11
14.33672672466179
 21
5.484845599879737
 31
0.3258839617209643
  0
LINE
  5
4C
  8
0
 62
     4
 10
14.33672672466179
 20
5.484845599879737
 30
0.3258839617209643
 11
14.21104354631635
 21
4.946856965401434
 31
0.3258839617209643
  0
LINE
  5
4D
  8
0
 62
     4
 10
14.21104354631635
 20
4.946856965401434
 30
0.3258839617209643
 11
15.4233762306917
 21
4.663633628986961
 31
0.3258839617209643
  0
LINE
  5
4E
  8
0
 62
     4
 10
15.4233762306917
 20
4.663633628986961
 30
0.3258839617209643
 11
15.32781378211922
 21
4.254563795248824
 31
0.3258839617209643
  0
LINE
  5
4F
  8
0
 62
     4
 10
15.32781378211922
 20
4.254563795248824
 30
0.3258839617209643
 11
14.11547505870377
 21
4.537784680105137
 31
0.3258839617209643
  0
LINE
  5
50
  8
0
 62
     4
 10
14.11547505870377
 20
4.537784680105137
 30
0.3258839617209643
 11
13.9619926281044
 21
3.880788326456777
 31
0.3258839617209643
  0
LINE
  5
51
  8
0
 62
     4
 10
13.9619926281044
 20
3.880788326456777
 30
0.3258839617209643
 11
15.31316482131207
 21
3.565133724906712
 31
0.3258839617209643
  0
LINE
  5
52
  8
0
 62
     4
 10
15.31316482131207
 20
3.565133724906712
 30
0.3258839617209643
 11
15.21760237273958
 21
3.156063891168568
 31
0.3258839617209643
  0
LINE
  5
53
  8
0
 62
     4
 10
15.21760237273958
 20
3.156063891168568
 30
0.3258839617209643
 11
13.37802224498833
 21
3.58581861933984
 31
0.3258839617209643
  0
LINE
  5
54
  8
0
 62
     4
 10
16.59457817737614
 20
5.307590522290678
 30
0.3258839617209643
 11
17.56831692359467
 21
4.89747332338068
 31
0.3258839617209643
  0
LINE
  5
55
  8
0
 62
     4
 10
17.56831692359467
 20
4.89747332338068
 30
0.3258839617209643
 11
17.65747729254451
 21
4.859921000119233
 31
0.3258839617209643
  0
LINE
  5
56
  8
0
 62
     4
 10
17.65747729254451
 20
4.859921000119233
 30
0.3258839617209643
 11
17.73762602019392
 21
4.820637772035052
 31
0.3258839617209643
  0
LINE
  5
57
  8
0
 62
     4
 10
17.73762602019392
 20
4.820637772035052
 30
0.3258839617209643
 11
17.81307340797444
 21
4.783335969905444
 31
0.3258839617209643
  0
LINE
  5
58
  8
0
 62
     4
 10
17.81307340797444
 20
4.783335969905444
 30
0.3258839617209643
 11
17.87815589435467
 21
4.747636813083791
 31
0.3258839617209643
  0
LINE
  5
E7
  8
0
 62
     4
 10
17.87815589435467
 20
4.747636813083791
 30
0.3258839617209643
 11
17.93854553146425
 21
4.713915494734767
 31
0.3258839617209643
  0
LINE
  5
E8
  8
0
 62
     4
 10
17.93854553146425
 20
4.713915494734767
 30
0.3258839617209643
 11
17.99225844179047
 21
4.67747671402957
 31
0.3258839617209643
  0
LINE
  5
5B
  8
0
 62
     4
 10
17.99225844179047
 20
4.67747671402957
 30
0.3258839617209643
 11
18.03893509773074
 21
4.644005916812407
 31
0.3258839617209643
  0
LINE
  5
5C
  8
0
 62
     4
 10
18.03893509773074
 20
4.644005916812407
 30
0.3258839617209643
 11
18.077590257386
 21
4.611147619887792
 31
0.3258839617209643
  0
LINE
  5
5D
  8
0
 62
     4
 10
18.077590257386
 20
4.611147619887792
 30
0.3258839617209643
 11
18.10957227773984
 21
4.57558035120525
 31
0.3258839617209643
  0
LINE
  5
E9
  8
0
 62
     4
 10
18.10957227773984
 20
4.57558035120525
 30
0.3258839617209643
 11
18.13920730549646
 21
4.540994736939851
 31
0.3258839617209643
  0
LINE
  5
5F
  8
0
 62
     4
 10
18.13920730549646
 20
4.540994736939851
 30
0.3258839617209643
 11
18.16686808226238
 21
4.501724764002045
 31
0.3258839617209643
  0
LINE
  5
60
  8
0
 62
     4
 10
18.16686808226238
 20
4.501724764002045
 30
0.3258839617209643
 11
18.19119417297384
 21
4.461087001326032
 31
0.3258839617209643
  0
LINE
  5
61
  8
0
 62
     4
 10
18.19119417297384
 20
4.461087001326032
 30
0.3258839617209643
 11
18.20983726939927
 21
4.420083672007355
 31
0.3258839617209643
  0
LINE
  5
62
  8
0
 62
     4
 10
18.20983726939927
 20
4.420083672007355
 30
0.3258839617209643
 11
18.22650252735207
 21
4.374387493418034
 31
0.3258839617209643
  0
LINE
  5
63
  8
0
 62
     4
 10
18.22650252735207
 20
4.374387493418034
 30
0.3258839617209643
 11
18.2398342351742
 21
4.327338054728816
 31
0.3258839617209643
  0
LINE
  5
64
  8
0
 62
     4
 10
18.2398342351742
 20
4.327338054728816
 30
0.3258839617209643
 11
18.24983125694186
 21
4.278920826301384
 31
0.3258839617209643
  0
LINE
  5
65
  8
0
 62
     4
 10
18.24983125694186
 20
4.278920826301384
 30
0.3258839617209643
 11
18.25649472857886
 21
4.229150337774069
 31
0.3258839617209643
  0
LINE
  5
66
  8
0
 62
     4
 10
18.25649472857886
 20
4.229150337774069
 30
0.3258839617209643
 11
18.25982465008519
 21
4.178026589146857
 31
0.3258839617209643
  0
LINE
  5
67
  8
0
 62
     4
 10
18.25982465008519
 20
4.178026589146857
 30
0.3258839617209643
 11
18.25846417387902
 21
4.128874639952187
 31
0.3258839617209643
  0
LINE
  5
68
  8
0
 62
     4
 10
18.25846417387902
 20
4.128874639952187
 30
0.3258839617209643
 11
18.25376656006026
 21
4.078360940059376
 31
0.3258839617209643
  0
LINE
  5
69
  8
0
 62
     4
 10
18.25376656006026
 20
4.078360940059376
 30
0.3258839617209643
 11
18.2457293570707
 21
4.026491528508547
 31
0.3258839617209643
  0
LINE
  5
6A
  8
0
 62
     4
 10
18.2457293570707
 20
4.026491528508547
 30
0.3258839617209643
 11
18.23300534385061
 21
3.976602406988487
 31
0.3258839617209643
  0
LINE
  5
EA
  8
0
 62
     4
 10
18.23300534385061
 20
3.976602406988487
 30
0.3258839617209643
 11
18.21793188647515
 21
3.927700978925657
 31
0.3258839617209643
  0
LINE
  5
EB
  8
0
 62
     4
 10
18.21793188647515
 20
3.927700978925657
 30
0.3258839617209643
 11
18.19853963706991
 21
3.875090807567489
 31
0.3258839617209643
  0
LINE
  5
6D
  8
0
 62
     4
 10
18.19853963706991
 20
3.875090807567489
 30
0.3258839617209643
 11
18.16950871643339
 21
3.812729371025377
 31
0.3258839617209643
  0
LINE
  5
6E
  8
0
 62
     4
 10
18.16950871643339
 20
3.812729371025377
 30
0.3258839617209643
 11
18.13776523655699
 21
3.75703258318644
 31
0.3258839617209643
  0
LINE
  5
6F
  8
0
 62
     4
 10
18.13776523655699
 20
3.75703258318644
 30
0.3258839617209643
 11
18.10132890740995
 21
3.703313633820127
 31
0.3258839617209643
  0
LINE
  5
70
  8
0
 62
     4
 10
18.10132890740995
 20
3.703313633820127
 30
0.3258839617209643
 11
18.06217511590674
 21
3.656271411237199
 31
0.3258839617209643
  0
LINE
  5
71
  8
0
 62
     4
 10
18.06217511590674
 20
3.656271411237199
 30
0.3258839617209643
 11
18.01931503266633
 21
3.613541941643938
 31
0.3258839617209643
  0
LINE
  5
72
  8
0
 62
     4
 10
18.01931503266633
 20
3.613541941643938
 30
0.3258839617209643
 11
17.9727497936125
 21
3.575139754678691
 31
0.3258839617209643
  0
LINE
  5
EC
  8
0
 62
     4
 10
17.9727497936125
 20
3.575139754678691
 30
0.3258839617209643
 11
17.92013844518814
 21
3.542048956316709
 31
0.3258839617209643
  0
LINE
  5
ED
  8
0
 62
     4
 10
17.92013844518814
 20
3.542048956316709
 30
0.3258839617209643
 11
17.86715549108104
 21
3.514638700682642
 31
0.3258839617209643
  0
LINE
  5
EE
  8
0
 62
     4
 10
17.86715549108104
 20
3.514638700682642
 30
0.3258839617209643
 11
17.81046983271868
 21
3.491549688636468
 31
0.3258839617209643
  0
LINE
  5
EF
  8
0
 62
     4
 10
17.81046983271868
 20
3.491549688636468
 30
0.3258839617209643
 11
17.75007297950283
 21
3.472785507660156
 31
0.3258839617209643
  0
LINE
  5
77
  8
0
 62
     4
 10
17.75007297950283
 20
3.472785507660156
 30
0.3258839617209643
 11
17.68696960608719
 21
3.460688426945183
 31
0.3258839617209643
  0
LINE
  5
78
  8
0
 62
     4
 10
17.68696960608719
 20
3.460688426945183
 30
0.3258839617209643
 11
17.62114518283344
 21
3.455259582415334
 31
0.3258839617209643
  0
LINE
  5
79
  8
0
 62
     4
 10
17.62114518283344
 20
3.455259582415334
 30
0.3258839617209643
 11
17.5502563046263
 21
3.457489119085995
 31
0.3258839617209643
  0
LINE
  5
7A
  8
0
 62
     4
 10
17.5502563046263
 20
3.457489119085995
 30
0.3258839617209643
 11
17.47801171476113
 21
3.463058244927428
 31
0.3258839617209643
  0
LINE
  5
7B
  8
0
 62
     4
 10
17.47801171476113
 20
3.463058244927428
 30
0.3258839617209643
 11
17.40304852661598
 21
3.475289567913897
 31
0.3258839617209643
  0
LINE
  5
7C
  8
0
 62
     4
 10
17.40304852661598
 20
3.475289567913897
 30
0.3258839617209643
 11
17.32438018265744
 21
3.491848173528361
 31
0.3258839617209643
  0
LINE
  5
7D
  8
0
 62
     4
 10
17.32438018265744
 20
3.491848173528361
 30
0.3258839617209643
 11
17.35303110443875
 21
3.454921605705838
 31
0.3258839617209643
  0
LINE
  5
7E
  8
0
 62
     4
 10
17.35303110443875
 20
3.454921605705838
 30
0.3258839617209643
 11
17.3759954444521
 21
3.417620980642436
 31
0.3258839617209643
  0
LINE
  5
7F
  8
0
 62
     4
 10
17.3759954444521
 20
3.417620980642436
 30
0.3258839617209643
 11
17.4013092286208
 21
3.379332662121769
 31
0.3258839617209643
  0
LINE
  5
80
  8
0
 62
     4
 10
17.4013092286208
 20
3.379332662121769
 30
0.3258839617209643
 11
17.42193016351886
 21
3.343022182073749
 31
0.3258839617209643
  0
LINE
  5
81
  8
0
 62
     4
 10
17.42193016351886
 20
3.343022182073749
 30
0.3258839617209643
 11
17.44255109841692
 21
3.30671170202573
 31
0.3258839617209643
  0
LINE
  5
82
  8
0
 62
     4
 10
17.44255109841692
 20
3.30671170202573
 30
0.3258839617209643
 11
17.45983244414421
 21
3.269045510319664
 31
0.3258839617209643
  0
LINE
  5
83
  8
0
 62
     4
 10
17.45983244414421
 20
3.269045510319664
 30
0.3258839617209643
 11
17.47712228046975
 21
3.231375731131664
 31
0.3258839617209643
  0
LINE
  5
84
  8
0
 62
     4
 10
17.47712228046975
 20
3.231375731131664
 30
0.3258839617209643
 11
17.48971322848454
 21
3.19568133885813
 31
0.3258839617209643
  0
LINE
  5
85
  8
0
 62
     4
 10
17.48971322848454
 20
3.19568133885813
 30
0.3258839617209643
 11
17.50366347563931
 21
3.156655848012086
 31
0.3258839617209643
  0
LINE
  5
86
  8
0
 62
     4
 10
17.50366347563931
 20
3.156655848012086
 30
0.3258839617209643
 11
17.51798532847683
 21
3.111949814438155
 31
0.3258839617209643
  0
LINE
  5
87
  8
0
 62
     4
 10
17.51798532847683
 20
3.111949814438155
 30
0.3258839617209643
 11
17.53169109353985
 21
3.05921379398097
 31
0.3258839617209643
  0
LINE
  5
88
  8
0
 62
     4
 10
17.53169109353985
 20
3.05921379398097
 30
0.3258839617209643
 11
17.543410529532
 21
3.001788511735068
 31
0.3258839617209643
  0
LINE
  5
89
  8
0
 62
     4
 10
17.543410529532
 20
3.001788511735068
 30
0.3258839617209643
 11
17.55785346692041
 21
2.937688954263955
 31
0.3258839617209643
  0
LINE
  5
8A
  8
0
 62
     4
 10
17.55785346692041
 20
2.937688954263955
 30
0.3258839617209643
 11
17.57032460487628
 21
2.868898999080333
 31
0.3258839617209643
  0
LINE
  5
8B
  8
0
 62
     4
 10
17.57032460487628
 20
2.868898999080333
 30
0.3258839617209643
 11
17.58550226303193
 21
2.793441943635379
 31
0.3258839617209643
  0
LINE
  5
8C
  8
0
 62
     4
 10
17.58550226303193
 20
2.793441943635379
 30
0.3258839617209643
 11
17.59871057331318
 21
2.713288451437833
 31
0.3258839617209643
  0
LINE
  5
8D
  8
0
 62
     4
 10
17.59871057331318
 20
2.713288451437833
 30
0.3258839617209643
 11
17.68917147405473
 21
2.147534370788332
 31
0.3258839617209643
  0
LINE
  5
8E
  8
0
 62
     4
 10
17.68917147405473
 20
2.147534370788332
 30
0.3258839617209643
 11
17.13543786327319
 21
2.38075966424757
 31
0.3258839617209643
  0
LINE
  5
8F
  8
0
 62
     4
 10
17.13543786327319
 20
2.38075966424757
 30
0.3258839617209643
 11
17.01274673403593
 21
3.020865609815832
 31
0.3258839617209643
  0
LINE
  5
90
  8
0
 62
     4
 10
17.01274673403593
 20
3.020865609815832
 30
0.3258839617209643
 11
16.99484802604218
 21
3.102990901445917
 31
0.3258839617209643
  0
LINE
  5
91
  8
0
 62
     4
 10
16.99484802604218
 20
3.102990901445917
 30
0.3258839617209643
 11
16.98102362798642
 21
3.175114406760205
 31
0.3258839617209643
  0
LINE
  5
F0
  8
0
 62
     4
 10
16.98102362798642
 20
3.175114406760205
 30
0.3258839617209643
 11
16.96522139145803
 21
3.242545062803849
 31
0.3258839617209643
  0
LINE
  5
F1
  8
0
 62
     4
 10
16.96522139145803
 20
3.242545062803849
 30
0.3258839617209643
 11
16.95448360988303
 21
3.302317337646965
 31
0.3258839617209643
  0
LINE
  5
94
  8
0
 62
     4
 10
16.95448360988303
 20
3.302317337646965
 30
0.3258839617209643
 11
16.93979619040287
 21
3.352706365506936
 31
0.3258839617209643
  0
LINE
  5
95
  8
0
 62
     4
 10
16.93979619040287
 20
3.352706365506936
 30
0.3258839617209643
 11
16.93016473527785
 21
3.395440599648328
 31
0.3258839617209643
  0
LINE
  5
96
  8
0
 62
     4
 10
16.93016473527785
 20
3.395440599648328
 30
0.3258839617209643
 11
16.91856393227845
 21
3.433478397037131
 31
0.3258839617209643
  0
LINE
  5
F2
  8
0
 62
     4
 10
16.91856393227845
 20
3.433478397037131
 30
0.3258839617209643
 11
16.91004125516155
 21
3.459168551436711
 31
0.3258839617209643
  0
LINE
  5
F3
  8
0
 62
     4
 10
16.91004125516155
 20
3.459168551436711
 30
0.3258839617209643
 11
16.90053692362751
 21
3.482511713239063
 31
0.3258839617209643
  0
LINE
  5
99
  8
0
 62
     4
 10
16.90053692362751
 20
3.482511713239063
 30
0.3258839617209643
 11
16.88868559949625
 21
3.506836529458564
 31
0.3258839617209643
  0
LINE
  5
9A
  8
0
 62
     4
 10
16.88868559949625
 20
3.506836529458564
 30
0.3258839617209643
 11
16.87819112294682
 21
3.527836286145643
 31
0.3258839617209643
  0
LINE
  5
9B
  8
0
 62
     4
 10
16.87819112294682
 20
3.527836286145643
 30
0.3258839617209643
 11
16.86670291390007
 21
3.546484147119205
 31
0.3258839617209643
  0
LINE
  5
9C
  8
0
 62
     4
 10
16.86670291390007
 20
3.546484147119205
 30
0.3258839617209643
 11
16.85287733877813
 21
3.5661246046663
 31
0.3258839617209643
  0
LINE
  5
9D
  8
0
 62
     4
 10
16.85287733877813
 20
3.5661246046663
 30
0.3258839617209643
 11
16.84040143627411
 21
3.582423021484484
 31
0.3258839617209643
  0
LINE
  5
9E
  8
0
 62
     4
 10
16.84040143627411
 20
3.582423021484484
 30
0.3258839617209643
 11
16.82558816769494
 21
3.5997140348762
 31
0.3258839617209643
  0
LINE
  5
9F
  8
0
 62
     4
 10
16.82558816769494
 20
3.5997140348762
 30
0.3258839617209643
 11
16.80977871506027
 21
3.614659191594505
 31
0.3258839617209643
  0
LINE
  5
A0
  8
0
 62
     4
 10
16.80977871506027
 20
3.614659191594505
 30
0.3258839617209643
 11
16.79397530146569
 21
3.629606799870953
 31
0.3258839617209643
  0
LINE
  5
A1
  8
0
 62
     4
 10
16.79397530146569
 20
3.629606799870953
 30
0.3258839617209643
 11
16.77248530610313
 21
3.64418035090651
 31
0.3258839617209643
  0
LINE
  5
A2
  8
0
 62
     4
 10
16.77248530610313
 20
3.64418035090651
 30
0.3258839617209643
 11
16.75100134978068
 21
3.658756353500223
 31
0.3258839617209643
  0
LINE
  5
A3
  8
0
 62
     4
 10
16.75100134978068
 20
3.658756353500223
 30
0.3258839617209643
 11
16.72383081169022
 21
3.672958298853033
 31
0.3258839617209643
  0
LINE
  5
A4
  8
0
 62
     4
 10
16.72383081169022
 20
3.672958298853033
 30
0.3258839617209643
 11
16.6943168684845
 21
3.688150389221246
 31
0.3258839617209643
  0
LINE
  5
A5
  8
0
 62
     4
 10
16.6943168684845
 20
3.688150389221246
 30
0.3258839617209643
 11
16.66245706860535
 21
3.704338663644943
 31
0.3258839617209643
  0
LINE
  5
A6
  8
0
 62
     4
 10
16.66245706860535
 20
3.704338663644943
 30
0.3258839617209643
 11
16.62590328353175
 21
3.722490246902925
 31
0.3258839617209643
  0
LINE
  5
A7
  8
0
 62
     4
 10
16.62590328353175
 20
3.722490246902925
 30
0.3258839617209643
 11
16.58836294092471
 21
3.738306915643875
 31
0.3258839617209643
  0
LINE
  5
A8
  8
0
 62
     4
 10
16.58836294092471
 20
3.738306915643875
 30
0.3258839617209643
 11
16.49450972270423
 21
3.777837077377949
 31
0.3258839617209643
  0
LINE
  5
A9
  8
0
 62
     4
 10
16.49450972270423
 20
3.777837077377949
 30
0.3258839617209643
 11
16.09130769362927
 21
2.820523871568586
 31
0.3258839617209643
  0
LINE
  5
AA
  8
0
 62
     4
 10
16.09130769362927
 20
2.820523871568586
 30
0.3258839617209643
 11
15.62907785691284
 21
3.015206696750976
 31
0.3258839617209643
  0
LINE
  5
AB
  8
0
 62
     4
 10
15.62907785691284
 20
3.015206696750976
 30
0.3258839617209643
 11
16.59457817737614
 21
5.307590522290678
 31
0.3258839617209643
  0
LINE
  5
AC
  8
0
 62
     4
 10
16.99124007224081
 20
3.999582435050542
 30
0.3258839617209643
 11
16.64867469269532
 21
4.143864251718558
 31
0.3258839617209643
  0
LINE
  5
AD
  8
0
 62
     4
 10
16.64867469269532
 20
4.143864251718558
 30
0.3258839617209643
 11
16.89375248735198
 21
4.725756094047771
 31
0.3258839617209643
  0
LINE
  5
AE
  8
0
 62
     4
 10
16.89375248735198
 20
4.725756094047771
 30
0.3258839617209643
 11
17.25509285146202
 21
4.573571414087489
 31
0.3258839617209643
  0
LINE
  5
AF
  8
0
 62
     4
 10
17.25509285146202
 20
4.573571414087489
 30
0.3258839617209643
 11
17.32313483073204
 21
4.544912099133704
 31
0.3258839617209643
  0
LINE
  5
B0
  8
0
 62
     4
 10
17.32313483073204
 20
4.544912099133704
 30
0.3258839617209643
 11
17.38179111146076
 21
4.520208461125176
 31
0.3258839617209643
  0
LINE
  5
B1
  8
0
 62
     4
 10
17.38179111146076
 20
4.520208461125176
 30
0.3258839617209643
 11
17.43576303351705
 21
4.497479074107329
 31
0.3258839617209643
  0
LINE
  5
B2
  8
0
 62
     4
 10
17.43576303351705
 20
4.497479074107329
 30
0.3258839617209643
 11
17.47935552453472
 21
4.476353468321232
 31
0.3258839617209643
  0
LINE
  5
B3
  8
0
 62
     4
 10
17.47935552453472
 20
4.476353468321232
 30
0.3258839617209643
 11
17.51924285973899
 21
4.459555145163144
 31
0.3258839617209643
  0
LINE
  5
B4
  8
0
 62
     4
 10
17.51924285973899
 20
4.459555145163144
 30
0.3258839617209643
 11
17.5487568029447
 21
4.444363054794934
 31
0.3258839617209643
  0
LINE
  5
B5
  8
0
 62
     4
 10
17.5487568029447
 20
4.444363054794934
 30
0.3258839617209643
 11
17.57358034843793
 21
4.431142763859274
 31
0.3258839617209643
  0
LINE
  5
B6
  8
0
 62
     4
 10
17.57358034843793
 20
4.431142763859274
 30
0.3258839617209643
 11
17.58999984980701
 21
4.424225142466092
 31
0.3258839617209643
  0
LINE
  5
B7
  8
0
 62
     4
 10
17.58999984980701
 20
4.424225142466092
 30
0.3258839617209643
 11
17.61519254942483
 21
4.405330347842615
 31
0.3258839617209643
  0
LINE
  5
B8
  8
0
 62
     4
 10
17.61519254942483
 20
4.405330347842615
 30
0.3258839617209643
 11
17.63803825644542
 21
4.387417207636304
 31
0.3258839617209643
  0
LINE
  5
B9
  8
0
 62
     4
 10
17.63803825644542
 20
4.387417207636304
 30
0.3258839617209643
 11
17.65853810679258
 21
4.370500251485456
 31
0.3258839617209643
  0
LINE
  5
BA
  8
0
 62
     4
 10
17.65853810679258
 20
4.370500251485456
 30
0.3258839617209643
 11
17.67706257022527
 21
4.348884407023892
 31
0.3258839617209643
  0
LINE
  5
BB
  8
0
 62
     4
 10
17.67706257022527
 20
4.348884407023892
 30
0.3258839617209643
 11
17.69323758950259
 21
4.328256256019554
 31
0.3258839617209643
  0
LINE
  5
BC
  8
0
 62
     4
 10
17.69323758950259
 20
4.328256256019554
 30
0.3258839617209643
 11
17.70607905864924
 21
4.306274844915325
 31
0.3258839617209643
  0
LINE
  5
BD
  8
0
 62
     4
 10
17.70607905864924
 20
4.306274844915325
 30
0.3258839617209643
 11
17.7189144887558
 21
4.284290982252944
 31
0.3258839617209643
  0
LINE
  5
BE
  8
0
 62
     4
 10
17.7189144887558
 20
4.284290982252944
 30
0.3258839617209643
 11
17.7274371658727
 21
4.258600827853368
 31
0.3258839617209643
  0
LINE
  5
BF
  8
0
 62
     4
 10
17.7274371658727
 20
4.258600827853368
 30
0.3258839617209643
 11
17.73360794727605
 21
4.233904405951126
 31
0.3258839617209643
  0
LINE
  5
C0
  8
0
 62
     4
 10
17.73360794727605
 20
4.233904405951126
 30
0.3258839617209643
 11
17.7374317360822
 21
4.210189638466037
 31
0.3258839617209643
  0
LINE
  5
C1
  8
0
 62
     4
 10
17.7374317360822
 20
4.210189638466037
 30
0.3258839617209643
 11
17.74027141891305
 21
4.184133917423811
 31
0.3258839617209643
  0
LINE
  5
C2
  8
0
 62
     4
 10
17.74027141891305
 20
4.184133917423811
 30
0.3258839617209643
 11
17.73743055901602
 21
4.15770659069884
 31
0.3258839617209643
  0
LINE
  5
C3
  8
0
 62
     4
 10
17.73743055901602
 20
4.15770659069884
 30
0.3258839617209643
 11
17.73458366007888
 21
4.131276812415731
 31
0.3258839617209643
  0
LINE
  5
C4
  8
0
 62
     4
 10
17.73458366007888
 20
4.131276812415731
 30
0.3258839617209643
 11
17.72840566256924
 21
4.103487734992633
 31
0.3258839617209643
  0
LINE
  5
C5
  8
0
 62
     4
 10
17.72840566256924
 20
4.103487734992633
 30
0.3258839617209643
 11
17.72223370409969
 21
4.075701109127678
 31
0.3258839617209643
  0
LINE
  5
C6
  8
0
 62
     4
 10
17.72223370409969
 20
4.075701109127678
 30
0.3258839617209643
 11
17.71037271230398
 21
4.047546465061938
 31
0.3258839617209643
  0
LINE
  5
C7
  8
0
 62
     4
 10
17.71037271230398
 20
4.047546465061938
 30
0.3258839617209643
 11
17.69950186552369
 21
4.021735226111474
 31
0.3258839617209643
  0
LINE
  5
C8
  8
0
 62
     4
 10
17.69950186552369
 20
4.021735226111474
 30
0.3258839617209643
 11
17.68726926804527
 21
3.999261124773618
 31
0.3258839617209643
  0
LINE
  5
C9
  8
0
 62
     4
 10
17.68726926804527
 20
3.999261124773618
 30
0.3258839617209643
 11
17.6726957170097
 21
3.97777112941106
 31
0.3258839617209643
  0
LINE
  5
CA
  8
0
 62
     4
 10
17.6726957170097
 20
3.97777112941106
 30
0.3258839617209643
 11
17.658119714416
 21
3.956287173088597
 31
0.3258839617209643
  0
LINE
  5
CB
  8
0
 62
     4
 10
17.658119714416
 20
3.956287173088597
 30
0.3258839617209643
 11
17.6421904517224
 21
3.938136766896793
 31
0.3258839617209643
  0
LINE
  5
CC
  8
0
 62
     4
 10
17.6421904517224
 20
3.938136766896793
 30
0.3258839617209643
 11
17.6272452950041
 21
3.92232731426213
 31
0.3258839617209643
  0
LINE
  5
CD
  8
0
 62
     4
 10
17.6272452950041
 20
3.92232731426213
 30
0.3258839617209643
 11
17.60995428161238
 21
3.907514045682941
 31
0.3258839617209643
  0
LINE
  5
CE
  8
0
 62
     4
 10
17.60995428161238
 20
3.907514045682941
 30
0.3258839617209643
 11
17.59031627562344
 21
3.893682431520904
 31
0.3258839617209643
  0
LINE
  5
CF
  8
0
 62
     4
 10
17.59031627562344
 20
3.893682431520904
 30
0.3258839617209643
 11
17.57166596309173
 21
3.882200261514239
 31
0.3258839617209643
  0
LINE
  5
D0
  8
0
 62
     4
 10
17.57166596309173
 20
3.882200261514239
 30
0.3258839617209643
 11
17.55165635142005
 21
3.874049190080086
 31
0.3258839617209643
  0
LINE
  5
D1
  8
0
 62
     4
 10
17.55165635142005
 20
3.874049190080086
 30
0.3258839617209643
 11
17.53165277878843
 21
3.86590057020409
 31
0.3258839617209643
  0
LINE
  5
D2
  8
0
 62
     4
 10
17.53165277878843
 20
3.86590057020409
 30
0.3258839617209643
 11
17.50929976200148
 21
3.858739643785334
 31
0.3258839617209643
  0
LINE
  5
D3
  8
0
 62
     4
 10
17.50929976200148
 20
3.858739643785334
 30
0.3258839617209643
 11
17.48792839963166
 21
3.853925709963797
 31
0.3258839617209643
  0
LINE
  5
D4
  8
0
 62
     4
 10
17.48792839963166
 20
3.853925709963797
 30
0.3258839617209643
 11
17.46520981620204
 21
3.85244777783107
 31
0.3258839617209643
  0
LINE
  5
D5
  8
0
 62
     4
 10
17.46520981620204
 20
3.85244777783107
 30
0.3258839617209643
 11
17.44248519373233
 21
3.850967394140202
 31
0.3258839617209643
  0
LINE
  5
D6
  8
0
 62
     4
 10
17.44248519373233
 20
3.850967394140202
 30
0.3258839617209643
 11
17.42074826471987
 21
3.851836454604698
 31
0.3258839617209643
  0
LINE
  5
D7
  8
0
 62
     4
 10
17.42074826471987
 20
3.851836454604698
 30
0.3258839617209643
 11
17.39197149383954
 21
3.855665007958979
 31
0.3258839617209643
  0
LINE
  5
D8
  8
0
 62
     4
 10
17.39197149383954
 20
3.855665007958979
 30
0.3258839617209643
 11
17.35714861358866
 21
3.864804949916557
 31
0.3258839617209643
  0
LINE
  5
D9
  8
0
 62
     4
 10
17.35714861358866
 20
3.864804949916557
 30
0.3258839617209643
 11
17.31528098835362
 21
3.876916462844093
 31
0.3258839617209643
  0
LINE
  5
DA
  8
0
 62
     4
 10
17.31528098835362
 20
3.876916462844093
 30
0.3258839617209643
 11
17.2663795602908
 21
3.891989920219558
 31
0.3258839617209643
  0
LINE
  5
DB
  8
0
 62
     4
 10
17.2663795602908
 20
3.891989920219558
 30
0.3258839617209643
 11
17.20907653966197
 21
3.913360008097421
 31
0.3258839617209643
  0
LINE
  5
DC
  8
0
 62
     4
 10
17.20907653966197
 20
3.913360008097421
 30
0.3258839617209643
 11
17.14473971620537
 21
3.937692040423201
 31
0.3258839617209643
  0
LINE
  5
DD
  8
0
 62
     4
 10
17.14473971620537
 20
3.937692040423201
 30
0.3258839617209643
 11
17.07101474264933
 21
3.965985788734344
 31
0.3258839617209643
  0
LINE
  5
DE
  8
0
 62
     4
 10
17.07101474264933
 20
3.965985788734344
 30
0.3258839617209643
 11
16.99124007224081
 21
3.999582435050542
 31
0.3258839617209643
  0
LINE
  5
124
  8
0
  6
BYBLOCK
 62
     4
 10
20.89251710427964
 20
4.413948523287768
 30
0.0
 11
20.46050461273262
 21
2.502551619130035
 31
0.0
  0
LINE
  5
125
  8
0
  6
BYBLOCK
 62
     4
 10
20.46050461273262
 20
2.502551619130035
 30
0.0
 11
22.05941279087755
 21
2.454426131798247
 31
0.0
  0
LINE
  5
126
  8
0
  6
BYBLOCK
 62
     4
 10
22.05941279087755
 20
2.454426131798247
 30
0.0
 11
20.57957842981795
 21
1.500213958166238
 31
0.0
  0
LINE
  5
127
  8
0
  6
BYBLOCK
 62
     4
 10
20.57957842981795
 20
1.500213958166238
 30
0.0
 11
21.82020576614506
 21
0.1873599213517316
 31
0.0
  0
ARC
  5
128
  8
0
  6
BYBLOCK
 62
     4
 10
20.16223576947045
 20
7.770472489648231
 30
0.0
 40
7.762245856279578
 50
248.0615883238328
 51
282.3330599053813
  0
LINE
  5
129
  8
0
  6
BYBLOCK
 62
     4
 10
17.26218519388543
 20
0.5703219778617914
 30
0.0
 11
16.95553211595568
 21
1.662996420950289
 31
0.0
  0
ARC
  5
12B
  8
0
  6
BYBLOCK
 62
     4
 10
11.06244203376439
 20
-12.49391980460342
 30
0.0
 40
19.55777050906547
 50
59.82668494648576
 51
120.5057346441557
  0
LINE
  5
12C
  8
0
  6
BYBLOCK
 62
     4
 10
1.134436611569539
 20
4.356631985238375
 30
0.0
 11
1.559838167814623
 21
2.507238978487504
 31
0.0
  0
LINE
  5
12D
  8
0
  6
BYBLOCK
 62
     4
 10
1.559838167814623
 20
2.507238978487504
 30
0.0
 11
-0.0390936838624245
 21
2.45990655448135
 31
0.0
  0
LINE
  5
12E
  8
0
  6
BYBLOCK
 62
     4
 10
-0.0390936838624245
 20
2.45990655448135
 30
0.0
 11
1.440267206555022
 21
1.504960501353981
 31
0.0
  0
LINE
  5
12F
  8
0
  6
BYBLOCK
 62
     4
 10
1.440267206555022
 20
1.504960501353981
 30
0.0
 11
0.1989888480949255
 21
0.1927219763742905
 31
0.0
  0
ARC
  5
130
  8
0
  6
BYBLOCK
 62
     4
 10
1.860719859678026
 20
7.77501125986068
 30
0.0
 40
7.762245856279555
 50
257.6385214244601
 51
291.9099930060085
  0
LINE
  5
131
  8
0
  6
BYBLOCK
 62
     4
 10
4.757198808611414
 20
0.5734232105679951
 30
0.0
 11
5.091573743913553
 21
1.671106333592277
 31
0.0
  0
ARC
  5
132
  8
0
  6
BYBLOCK
 62
     4
 10
11.01528963833113
 20
-10.42128445666447
 30
0.0
 40
13.46537504201277
 50
63.82275791118098
 51
116.0989101055708
  0
ENDSEC
  0
EOF
