  0
SECTION
  2
HEADER
  9
$ACADVER
  1
AC1009
  9
$LIMMIN
 10
0.000000
 20
0.000000
  9
$LIMMAX
 10
8.878678
 20
9.533074
  0
ENDSEC
  0
SECTION
  2
TABLES
  0
TABLE
  2
LTYPE
 70
     4
  0
LTYPE
  2
CONTINUOUS
 70
     0
  3
Solid line
 72
     65
 73
     0
 40
0.000000
  0
LTYPE
  2
HIDDEN
 70
     0
  3
 _ _ _ _ _ _ _ _ _ _ _
 72
     65
 73
     2
 40
0.375000
 49
0.250000
 49
-0.125000
  0
LTYPE
  2
DASHED
 70
     0
  3
 ___ ___ ___ ___ ___ ___ ___ 
 72
     65
 73
     2
 40
0.750000
 49
0.500000
 49
-0.250000
  0
LTYPE
  2
CENTER
 70
     0
  3
___ _ ___ _ ___ _ ___
 72
     65
 73
     4
 40
2.000000
 49
1.250000
 49
-0.250000
 49
0.250000
 49
-0.250000
  0
LTYPE
  2
BORDER
 70
     0
  3
___ ___ . ___ ___ . ___ ___
 72
     65
 73
     6
 40
1.750000
 49
0.500000
 49
-0.250000
 49
0.500000
 49
-0.250000
 49
0.000000
 49
-0.250000
  0
LTYPE
  2
DOT
 70
     0
  3
.................
 72
     65
 73
     2
 40
0.250000
 49
0.000000
 49
-0.250000
  0
LTYPE
  2
DASHDOT
 70
     0
  3
__ . __ . __ . __
 72
     65
 73
     4
 40
1.000000
 49
0.500000
 49
-0.250000
 49
0.000000
 49
-0.250000
  0
LTYPE
  2
DIVIDE
 70
     0
  3
___ .. ___ .. ___ .. ___
 72
     65
 73
     6
 40
1.250000
 49
0.500000
 49
-0.250000
 49
0.000000
 49
-0.250000
 49
0.000000
 49
-0.250000
  0
ENDTAB
  0
TABLE
  2
LAYER
 70
     8
  0
LAYER
  2
BLACK
 70
     0
 62
     1
  6
CONTINUOUS
  0
LAYER
  2
WHITE
 70
     0
 62
     7
  6
CONTINUOUS
  0
LAYER
  2
RED
 70
     0
 62
     1
  6
CONTINUOUS
  0
LAYER
  2
YELLOW
 70
     0
 62
     2
  6
CONTINUOUS
  0
LAYER
  2
GREEN
 70
     0
 62
     3
  6
CONTINUOUS
  0
LAYER
  2
CYAN
 70
     0
 62
     4
  6
CONTINUOUS
  0
LAYER
  2
BLUE
 70
     0
 62
     5
  6
CONTINUOUS
  0
LAYER
  2
MAGENTA
 70
     0
 62
     6
  6
CONTINUOUS
  0
ENDTAB
  0
TABLE
  2
APPID
 70
     1
  0
APPID
  2
TC_BEND_DATA
 70
     0
  0
ENDTAB
  0
ENDSEC
  0
SECTION
  2
BLOCKS
  0
ENDSEC
  0
SECTION
  2
ENTITIES
  0
ARC
  8
WHITE
 10
4.440534
 20
9.169217
 30
0.000000
 40
0.363858
 50
-51.045332
 51
232.995011
  6
CONTINUOUS
  0
ARC
  8
WHITE
 10
4.197459
 20
8.846703
 30
0.000000
 40
0.040000
 50
-64.464148
 51
52.995010
  6
CONTINUOUS
  0
ARC
  8
WHITE
 10
4.455202
 20
8.307201
 30
0.000000
 40
0.557908
 50
115.535851
 51
144.219869
  6
CONTINUOUS
  0
ARC
  8
WHITE
 10
3.953914
 20
8.668477
 30
0.000000
 40
0.060000
 50
-131.501536
 51
-35.780131
  6
CONTINUOUS
  0
ARC
  8
WHITE
 10
3.548414
 20
8.210168
 30
0.000000
 40
0.551946
 50
48.498464
 51
157.648719
  6
CONTINUOUS
  0
ARC
  8
WHITE
 10
2.982444
 20
8.442881
 30
0.000000
 40
0.060000
 50
-120.008154
 51
-22.351280
  6
CONTINUOUS
  0
ARC
  8
WHITE
 10
2.692354
 20
7.940595
 30
0.000000
 40
0.520037
 50
59.991846
 51
172.849872
  6
CONTINUOUS
  0
ARC
  8
WHITE
 10
2.116827
 20
8.012792
 30
0.000000
 40
0.060000
 50
-104.704831
 51
-7.150128
  6
CONTINUOUS
  0
ARC
  8
WHITE
 10
1.960529
 20
7.417225
 30
0.000000
 40
0.555735
 50
75.295169
 51
184.204854
  6
CONTINUOUS
  0
ARC
  8
WHITE
 10
1.346452
 20
7.372077
 30
0.000000
 40
0.060000
 50
-91.767508
 51
4.204855
  6
CONTINUOUS
  0
ARC
  8
WHITE
 10
1.327643
 20
6.762561
 30
0.000000
 40
0.549807
 50
88.232492
 51
197.833452
  6
CONTINUOUS
  0
ARC
  8
WHITE
 10
0.747137
 20
6.575807
 30
0.000000
 40
0.060000
 50
-78.231723
 51
17.833451
  6
CONTINUOUS
  0
ARC
  8
WHITE
 10
0.871758
 20
5.977626
 30
0.000000
 40
0.551025
 50
101.768277
 51
211.041838
  6
CONTINUOUS
  0
ARC
  8
WHITE
 10
0.348237
 20
5.662542
 30
0.000000
 40
0.060000
 50
-65.266698
 51
31.041839
  6
CONTINUOUS
  0
ARC
  8
WHITE
 10
0.601164
 20
5.113482
 30
0.000000
 40
0.544515
 50
114.733302
 51
224.770583
  6
CONTINUOUS
  0
ARC
  8
WHITE
 10
0.171999
 20
4.687740
 30
0.000000
 40
0.060000
 50
-51.727810
 51
44.770583
  6
CONTINUOUS
  0
ARC
  8
WHITE
 10
0.549557
 20
4.209191
 30
0.000000
 40
0.549557
 50
128.272190
 51
237.803367
  6
CONTINUOUS
  0
ARC
  8
WHITE
 10
0.224769
 20
3.693368
 30
0.000000
 40
0.060000
 50
-39.468845
 51
57.803367
  6
CONTINUOUS
  0
ARC
  8
WHITE
 10
0.679916
 20
3.318589
 30
0.000000
 40
0.529592
 50
140.531155
 51
252.282473
  6
CONTINUOUS
  0
ARC
  8
WHITE
 10
0.500489
 20
2.756963
 30
0.000000
 40
0.060000
 50
-24.194820
 51
72.282473
  6
CONTINUOUS
  0
ARC
  8
WHITE
 10
1.075445
 20
2.498630
 30
0.000000
 40
0.570326
 50
155.805181
 51
263.905531
  6
CONTINUOUS
  0
ARC
  8
WHITE
 10
1.008525
 20
1.871866
 30
0.000000
 40
0.060000
 50
-11.090568
 51
83.905530
  6
CONTINUOUS
  0
ARC
  8
WHITE
 10
1.618707
 20
1.752258
 30
0.000000
 40
0.561794
 50
168.909432
 51
277.573030
  6
CONTINUOUS
  0
ARC
  8
WHITE
 10
1.700653
 20
1.135887
 30
0.000000
 40
0.060000
 50
0.807530
 51
97.573029
  6
CONTINUOUS
  0
ARC
  8
WHITE
 10
2.284545
 20
1.144117
 30
0.000000
 40
0.523950
 50
-179.192470
 51
-67.525473
  6
CONTINUOUS
  0
ARC
  8
WHITE
 10
2.507773
 20
0.604518
 30
0.000000
 40
0.060000
 50
15.546332
 51
112.474527
  6
CONTINUOUS
  0
ARC
  8
WHITE
 10
3.109955
 20
0.772042
 30
0.000000
 40
0.565050
 50
-164.453668
 51
-55.528820
  6
CONTINUOUS
  0
ARC
  8
WHITE
 10
3.463728
 20
0.256744
 30
0.000000
 40
0.060000
 50
28.042786
 51
124.471179
  6
CONTINUOUS
  0
ARC
  8
WHITE
 10
3.991325
 20
0.537778
 30
0.000000
 40
0.537778
 50
-151.957214
 51
-37.827320
  6
CONTINUOUS
  0
ARC
  8
WHITE
 10
4.439792
 20
0.189569
 30
0.000000
 40
0.030000
 50
37.930068
 51
142.172679
  6
CONTINUOUS
  0
ARC
  8
WHITE
 10
4.886637
 20
0.537805
 30
0.000000
 40
0.536514
 50
-142.069932
 51
-28.342964
  6
CONTINUOUS
  0
ARC
  8
WHITE
 10
5.411642
 20
0.254611
 30
0.000000
 40
0.060000
 50
54.759837
 51
151.657036
  6
CONTINUOUS
  0
ARC
  8
WHITE
 10
5.759630
 20
0.747182
 30
0.000000
 40
0.543094
 50
-125.240163
 51
-15.246085
  6
CONTINUOUS
  0
ARC
  8
WHITE
 10
6.341498
 20
0.588589
 30
0.000000
 40
0.060000
 50
67.841335
 51
164.753915
  6
CONTINUOUS
  0
ARC
  8
WHITE
 10
6.569711
 20
1.148963
 30
0.000000
 40
0.545062
 50
-112.158665
 51
-1.499227
  6
CONTINUOUS
  0
ARC
  8
WHITE
 10
7.174566
 20
1.133133
 30
0.000000
 40
0.060000
 50
82.838777
 51
178.500773
  6
CONTINUOUS
  0
ARC
  8
WHITE
 10
7.253703
 20
1.762999
 30
0.000000
 40
0.574818
 50
-97.161223
 51
10.306099
  6
CONTINUOUS
  0
ARC
  8
WHITE
 10
7.878280
 20
1.876572
 30
0.000000
 40
0.060000
 50
94.014132
 51
190.306100
  6
CONTINUOUS
  0
ARC
  8
WHITE
 10
7.837567
 20
2.456735
 30
0.000000
 40
0.521590
 50
-85.985869
 51
25.713796
  6
CONTINUOUS
  0
ARC
  8
WHITE
 10
8.361563
 20
2.709073
 30
0.000000
 40
0.060000
 50
108.357711
 51
205.713796
  6
CONTINUOUS
  0
ARC
  8
WHITE
 10
8.171251
 20
3.282585
 30
0.000000
 40
0.544264
 50
-71.642289
 51
37.930705
  6
CONTINUOUS
  0
ARC
  8
WHITE
 10
8.647867
 20
3.654031
 30
0.000000
 40
0.060000
 50
121.679535
 51
217.930705
  6
CONTINUOUS
  0
ARC
  8
WHITE
 10
8.326228
 20
4.175225
 30
0.000000
 40
0.552450
 50
-58.320465
 51
51.167578
  6
CONTINUOUS
  0
ARC
  8
WHITE
 10
8.710262
 20
4.652314
 30
0.000000
 40
0.060000
 50
135.290433
 51
231.167577
  6
CONTINUOUS
  0
ARC
  8
WHITE
 10
8.272524
 20
5.085636
 30
0.000000
 40
0.555941
 50
-44.709566
 51
64.119735
  6
CONTINUOUS
  0
ARC
  8
WHITE
 10
8.541377
 20
5.639803
 30
0.000000
 40
0.060000
 50
146.658228
 51
244.119735
  6
CONTINUOUS
  0
ARC
  8
WHITE
 10
8.058975
 20
5.957186
 30
0.000000
 40
0.517445
 50
-33.341772
 51
79.330097
  6
CONTINUOUS
  0
ARC
  8
WHITE
 10
8.165890
 20
6.524647
 30
0.000000
 40
0.060000
 50
161.677291
 51
259.330097
  6
CONTINUOUS
  0
ARC
  8
WHITE
 10
7.581252
 20
6.718254
 30
0.000000
 40
0.555862
 50
-18.322710
 51
91.052946
  6
CONTINUOUS
  0
ARC
  8
WHITE
 10
7.569934
 20
7.334012
 30
0.000000
 40
0.060000
 50
175.346179
 51
271.052946
  6
CONTINUOUS
  0
ARC
  8
WHITE
 10
6.951206
 20
7.384379
 30
0.000000
 40
0.560775
 50
-4.653821
 51
103.846969
  6
CONTINUOUS
  0
ARC
  8
WHITE
 10
6.802637
 20
7.987113
 30
0.000000
 40
0.060000
 50
-173.325017
 51
-76.153031
  6
CONTINUOUS
  0
ARC
  8
WHITE
 10
6.235613
 20
7.920754
 30
0.000000
 40
0.510894
 50
6.674983
 51
119.143670
  6
CONTINUOUS
  0
ARC
  8
WHITE
 10
5.957587
 20
8.419373
 30
0.000000
 40
0.060000
 50
-157.432778
 51
-60.856330
  6
CONTINUOUS
  0
ARC
  8
WHITE
 10
5.369309
 20
8.174891
 30
0.000000
 40
0.577057
 50
22.567223
 51
129.952598
  6
CONTINUOUS
  0
ARC
  8
WHITE
 10
4.960220
 20
8.663244
 30
0.000000
 40
0.060000
 50
-144.815784
 51
-50.047402
  6
CONTINUOUS
  0
ARC
  8
WHITE
 10
4.455202
 20
8.307201
 30
0.000000
 40
0.557908
 50
35.184217
 51
66.413827
  6
CONTINUOUS
  0
ARC
  8
WHITE
 10
4.694442
 20
8.855159
 30
0.000000
 40
0.040000
 50
128.954667
 51
246.413827
  6
CONTINUOUS
  0
ARC
  8
WHITE
 10
5.612490
 20
3.714635
 30
0.000000
 40
0.502461
 50
-98.336368
 51
-52.671677
  6
CONTINUOUS
  0
ARC
  8
WHITE
 10
5.158521
 20
2.736878
 30
0.000000
 40
0.613380
 50
51.585596
 51
82.743214
  6
CONTINUOUS
  0
ARC
  8
WHITE
 10
5.021852
 20
3.548081
 30
0.000000
 40
0.294893
 50
-43.431979
 51
-24.403972
  6
CONTINUOUS
  0
ARC
  8
WHITE
 10
4.663626
 20
3.653012
 30
0.000000
 40
0.666534
 50
-19.890582
 51
10.619655
  6
CONTINUOUS
  0
ARC
  8
WHITE
 10
4.210083
 20
3.552225
 30
0.000000
 40
1.130989
 50
11.403809
 51
35.593323
  6
CONTINUOUS
  0
ARC
  8
WHITE
 10
6.205988
 20
4.948445
 30
0.000000
 40
1.304923
 50
-157.836500
 51
-145.561988
  6
CONTINUOUS
  0
ARC
  8
WHITE
 10
4.770961
 20
4.476800
 30
0.000000
 40
0.227461
 50
-5.205770
 51
37.984851
  6
CONTINUOUS
  0
ARC
  8
WHITE
 10
4.552388
 20
4.410206
 30
0.000000
 40
0.448290
 50
27.440665
 51
59.463020
  6
CONTINUOUS
  0
ARC
  8
WHITE
 10
4.902996
 20
4.853012
 30
0.000000
 40
0.135286
 50
167.905243
 51
204.775140
  6
CONTINUOUS
  0
ARC
  8
WHITE
 10
4.884099
 20
5.254587
 30
0.000000
 40
0.390071
 50
-106.898649
 51
-78.826162
  6
CONTINUOUS
  0
ARC
  8
WHITE
 10
4.962389
 20
4.911055
 30
0.000000
 40
0.039238
 50
-93.945187
 51
26.565052
  6
CONTINUOUS
  0
ARC
  8
WHITE
 10
4.695122
 20
4.843564
 30
0.000000
 40
0.314093
 50
15.708638
 51
43.781125
  6
CONTINUOUS
  0
ARC
  8
WHITE
 10
4.359689
 20
4.668760
 30
0.000000
 40
0.685447
 50
34.894964
 51
51.155168
  6
CONTINUOUS
  0
ARC
  8
WHITE
 10
4.334177
 20
5.226241
 30
0.000000
 40
0.456045
 50
-2.969112
 51
37.677161
  6
CONTINUOUS
  0
ARC
  8
WHITE
 10
4.911500
 20
5.778052
 30
0.000000
 40
0.348407
 50
-161.171947
 51
-128.392867
  6
CONTINUOUS
  0
ARC
  8
WHITE
 10
3.888298
 20
5.617317
 30
0.000000
 40
0.695118
 50
3.983886
 51
21.624646
  6
CONTINUOUS
  0
ARC
  8
WHITE
 10
4.457924
 20
5.875114
 30
0.000000
 40
0.076585
 50
-1.218876
 51
166.968843
  6
CONTINUOUS
  0
ARC
  8
WHITE
 10
4.914020
 20
5.617761
 30
0.000000
 40
0.597552
 50
152.640163
 51
177.222861
  6
CONTINUOUS
  0
ARC
  8
WHITE
 10
4.269401
 20
5.653537
 30
0.000000
 40
0.048254
 50
165.510237
 51
351.869897
  6
CONTINUOUS
  0
ARC
  8
WHITE
 10
4.879374
 20
6.005768
 30
0.000000
 40
0.739563
 50
-162.143777
 51
-152.616493
  6
CONTINUOUS
  0
ARC
  8
WHITE
 10
4.199059
 20
5.660886
 30
0.000000
 40
0.120449
 50
101.309932
 51
131.820170
  6
CONTINUOUS
  0
ARC
  8
WHITE
 10
4.326618
 20
5.684508
 30
0.000000
 40
0.218143
 50
162.349876
 51
197.650124
  6
CONTINUOUS
  0
ARC
  8
WHITE
 10
3.374006
 20
5.431599
 30
0.000000
 40
0.767801
 50
-21.085505
 51
14.078441
  6
CONTINUOUS
  0
ARC
  8
WHITE
 10
10.589814
 20
4.083848
 30
0.000000
 40
6.587152
 50
170.638142
 51
175.359323
  6
CONTINUOUS
  0
ARC
  8
WHITE
 10
4.378695
 20
4.317912
 30
0.000000
 40
0.463633
 50
139.860814
 51
188.636839
  6
CONTINUOUS
  0
ARC
  8
WHITE
 10
4.383699
 20
4.280739
 30
0.000000
 40
0.464514
 50
-175.994016
 51
-137.148598
  6
CONTINUOUS
  0
ARC
  8
WHITE
 10
0.129032
 20
4.038586
 30
0.000000
 40
3.914816
 50
-10.580764
 51
-1.079629
  6
CONTINUOUS
  0
ARC
  8
WHITE
 10
4.251211
 20
1.678062
 30
0.000000
 40
1.664377
 50
99.472918
 51
114.512189
  6
CONTINUOUS
  0
ARC
  8
WHITE
 10
3.308693
 20
3.334906
 30
0.000000
 40
0.289478
 50
-155.094584
 51
-29.483484
  6
CONTINUOUS
  0
ARC
  8
WHITE
 10
4.440534
 20
4.420439
 30
0.000000
 40
1.844520
 50
-36.816929
 51
220.889944
  6
CONTINUOUS
  0
CIRCLE
  8
WHITE
 10
4.440534
 20
9.169217
 30
0.000000
 40
0.114065
  6
CONTINUOUS
  0
ARC
  8
WHITE
 10
4.036246
 20
0.926044
 30
0.000000
 40
0.484000
 50
-151.957214
 51
-42.945740
  6
CONTINUOUS
  0
ARC
  8
WHITE
 10
3.561409
 20
0.673114
 30
0.000000
 40
0.054000
 50
28.042786
 51
124.471180
  6
CONTINUOUS
  0
ARC
  8
WHITE
 10
3.243013
 20
1.136882
 30
0.000000
 40
0.508545
 50
-164.453668
 51
-55.528820
  6
CONTINUOUS
  0
ARC
  8
WHITE
 10
2.701049
 20
0.986110
 30
0.000000
 40
0.054000
 50
15.546333
 51
112.474527
  6
CONTINUOUS
  0
ARC
  8
WHITE
 10
2.500144
 20
1.471749
 30
0.000000
 40
0.471555
 50
-179.192470
 51
-67.525473
  6
CONTINUOUS
  0
ARC
  8
WHITE
 10
1.974641
 20
1.464342
 30
0.000000
 40
0.054000
 50
0.807529
 51
97.573029
  6
CONTINUOUS
  0
ARC
  8
WHITE
 10
1.900889
 20
2.019076
 30
0.000000
 40
0.505615
 50
168.909432
 51
277.573030
  6
CONTINUOUS
  0
ARC
  8
WHITE
 10
1.351726
 20
2.126724
 30
0.000000
 40
0.054000
 50
-11.090568
 51
83.905531
  6
CONTINUOUS
  0
ARC
  8
WHITE
 10
1.411954
 20
2.690811
 30
0.000000
 40
0.513293
 50
155.805181
 51
263.905531
  6
CONTINUOUS
  0
ARC
  8
WHITE
 10
0.894494
 20
2.923311
 30
0.000000
 40
0.054000
 50
-24.194819
 51
72.282473
  6
CONTINUOUS
  0
ARC
  8
WHITE
 10
1.055978
 20
3.428774
 30
0.000000
 40
0.476633
 50
140.531155
 51
252.282473
  6
CONTINUOUS
  0
ARC
  8
WHITE
 10
0.646345
 20
3.766076
 30
0.000000
 40
0.054000
 50
-39.468845
 51
57.803367
  6
CONTINUOUS
  0
ARC
  8
WHITE
 10
0.938655
 20
4.230316
 30
0.000000
 40
0.494601
 50
128.272190
 51
237.803367
  6
CONTINUOUS
  0
ARC
  8
WHITE
 10
0.598852
 20
4.661010
 30
0.000000
 40
0.054000
 50
-51.727810
 51
44.770582
  6
CONTINUOUS
  0
ARC
  8
WHITE
 10
0.985101
 20
5.044178
 30
0.000000
 40
0.490064
 50
114.733302
 51
224.770583
  6
CONTINUOUS
  0
ARC
  8
WHITE
 10
0.757467
 20
5.538332
 30
0.000000
 40
0.054000
 50
-65.266698
 51
31.041839
  6
CONTINUOUS
  0
ARC
  8
WHITE
 10
1.228636
 20
5.821907
 30
0.000000
 40
0.495922
 50
101.768277
 51
211.041838
  6
CONTINUOUS
  0
ARC
  8
WHITE
 10
1.116477
 20
6.360270
 30
0.000000
 40
0.054000
 50
-78.231723
 51
17.833452
  6
CONTINUOUS
  0
ARC
  8
WHITE
 10
1.638932
 20
6.528349
 30
0.000000
 40
0.494826
 50
88.232492
 51
197.833451
  6
CONTINUOUS
  0
ARC
  8
WHITE
 10
1.655860
 20
7.076914
 30
0.000000
 40
0.054000
 50
-91.767508
 51
4.204854
  6
CONTINUOUS
  0
ARC
  8
WHITE
 10
2.208530
 20
7.117546
 30
0.000000
 40
0.500162
 50
75.295169
 51
184.204854
  6
CONTINUOUS
  0
ARC
  8
WHITE
 10
2.349198
 20
7.653557
 30
0.000000
 40
0.054000
 50
-104.704831
 51
-7.150128
  6
CONTINUOUS
  0
ARC
  8
WHITE
 10
2.867172
 20
7.588580
 30
0.000000
 40
0.468033
 50
59.991846
 51
172.849872
  6
CONTINUOUS
  0
ARC
  8
WHITE
 10
3.128253
 20
8.040637
 30
0.000000
 40
0.054000
 50
-120.008154
 51
-22.351281
  6
CONTINUOUS
  0
ARC
  8
WHITE
 10
3.637626
 20
7.831195
 30
0.000000
 40
0.496751
 50
48.498464
 51
157.648719
  6
CONTINUOUS
  0
ARC
  8
WHITE
 10
4.002576
 20
8.243673
 30
0.000000
 40
0.054000
 50
-131.501536
 51
-35.780131
  6
CONTINUOUS
  0
ARC
  8
WHITE
 10
4.453735
 20
7.918525
 30
0.000000
 40
0.502117
 50
97.230957
 51
144.219869
  6
CONTINUOUS
  0
ARC
  8
WHITE
 10
4.076675
 20
1.275484
 30
0.000000
 40
0.435600
 50
-151.957214
 51
-43.902503
  6
CONTINUOUS
  0
ARC
  8
WHITE
 10
3.649321
 20
1.047846
 30
0.000000
 40
0.048600
 50
28.042785
 51
124.471180
  6
CONTINUOUS
  0
ARC
  8
WHITE
 10
3.362765
 20
1.465238
 30
0.000000
 40
0.457691
 50
-164.453668
 51
-55.528820
  6
CONTINUOUS
  0
ARC
  8
WHITE
 10
2.874998
 20
1.329543
 30
0.000000
 40
0.048600
 50
15.546331
 51
112.474526
  6
CONTINUOUS
  0
ARC
  8
WHITE
 10
2.694183
 20
1.766618
 30
0.000000
 40
0.424400
 50
-179.192470
 51
-67.525473
  6
CONTINUOUS
  0
ARC
  8
WHITE
 10
2.221230
 20
1.759952
 30
0.000000
 40
0.048600
 50
0.807529
 51
97.573029
  6
CONTINUOUS
  0
ARC
  8
WHITE
 10
2.154854
 20
2.259212
 30
0.000000
 40
0.455053
 50
168.909432
 51
277.573030
  6
CONTINUOUS
  0
ARC
  8
WHITE
 10
1.660607
 20
2.356095
 30
0.000000
 40
0.048600
 50
-11.090568
 51
83.905531
  6
CONTINUOUS
  0
ARC
  8
WHITE
 10
1.714812
 20
2.863774
 30
0.000000
 40
0.461964
 50
155.805181
 51
263.905531
  6
CONTINUOUS
  0
ARC
  8
WHITE
 10
1.249098
 20
3.073023
 30
0.000000
 40
0.048600
 50
-24.194819
 51
72.282473
  6
CONTINUOUS
  0
ARC
  8
WHITE
 10
1.394434
 20
3.527941
 30
0.000000
 40
0.428969
 50
140.531155
 51
252.282473
  6
CONTINUOUS
  0
ARC
  8
WHITE
 10
1.025764
 20
3.831512
 30
0.000000
 40
0.048600
 50
-39.468846
 51
57.803367
  6
CONTINUOUS
  0
ARC
  8
WHITE
 10
1.288843
 20
4.249328
 30
0.000000
 40
0.445141
 50
128.272190
 51
237.803367
  6
CONTINUOUS
  0
ARC
  8
WHITE
 10
0.983020
 20
4.636953
 30
0.000000
 40
0.048600
 50
-51.727809
 51
44.770583
  6
CONTINUOUS
  0
ARC
  8
WHITE
 10
1.330644
 20
4.981804
 30
0.000000
 40
0.441058
 50
114.733302
 51
224.770583
  6
CONTINUOUS
  0
ARC
  8
WHITE
 10
1.125774
 20
5.426543
 30
0.000000
 40
0.048600
 50
-65.266698
 51
31.041838
  6
CONTINUOUS
  0
ARC
  8
WHITE
 10
1.549825
 20
5.681760
 30
0.000000
 40
0.446330
 50
101.768277
 51
211.041839
  6
CONTINUOUS
  0
ARC
  8
WHITE
 10
1.448882
 20
6.166287
 30
0.000000
 40
0.048600
 50
-78.231723
 51
17.833451
  6
CONTINUOUS
  0
ARC
  8
WHITE
 10
1.919092
 20
6.317558
 30
0.000000
 40
0.445343
 50
88.232492
 51
197.833452
  6
CONTINUOUS
  0
ARC
  8
WHITE
 10
1.934327
 20
6.811266
 30
0.000000
 40
0.048600
 50
-91.767509
 51
4.204854
  6
CONTINUOUS
  0
ARC
  8
WHITE
 10
2.431730
 20
6.847836
 30
0.000000
 40
0.450145
 50
75.295169
 51
184.204854
  6
CONTINUOUS
  0
ARC
  8
WHITE
 10
2.558332
 20
7.330245
 30
0.000000
 40
0.048600
 50
-104.704830
 51
-7.150127
  6
CONTINUOUS
  0
ARC
  8
WHITE
 10
3.024508
 20
7.271766
 30
0.000000
 40
0.421230
 50
59.991846
 51
172.849872
  6
CONTINUOUS
  0
ARC
  8
WHITE
 10
3.259481
 20
7.678617
 30
0.000000
 40
0.048600
 50
-120.008154
 51
-22.351282
  6
CONTINUOUS
  0
ARC
  8
WHITE
 10
3.717917
 20
7.490119
 30
0.000000
 40
0.447076
 50
48.498464
 51
157.648719
  6
CONTINUOUS
  0
ARC
  8
WHITE
 10
4.046372
 20
7.861350
 30
0.000000
 40
0.048600
 50
-131.501536
 51
-35.780131
  6
CONTINUOUS
  0
ARC
  8
WHITE
 10
4.452415
 20
7.568716
 30
0.000000
 40
0.451905
 50
97.870441
 51
144.219869
  6
CONTINUOUS
  0
ARC
  8
WHITE
 10
4.113061
 20
1.589979
 30
0.000000
 40
0.392040
 50
-151.957214
 51
-44.946476
  6
CONTINUOUS
  0
ARC
  8
WHITE
 10
3.728443
 20
1.385106
 30
0.000000
 40
0.043740
 50
28.042785
 51
124.471179
  6
CONTINUOUS
  0
ARC
  8
WHITE
 10
3.470542
 20
1.760758
 30
0.000000
 40
0.411922
 50
-164.453668
 51
-55.528820
  6
CONTINUOUS
  0
ARC
  8
WHITE
 10
3.031551
 20
1.638633
 30
0.000000
 40
0.043740
 50
15.546331
 51
112.474528
  6
CONTINUOUS
  0
ARC
  8
WHITE
 10
2.868818
 20
2.032000
 30
0.000000
 40
0.381960
 50
-179.192470
 51
-67.525473
  6
CONTINUOUS
  0
ARC
  8
WHITE
 10
2.443161
 20
2.026001
 30
0.000000
 40
0.043740
 50
0.807530
 51
97.573030
  6
CONTINUOUS
  0
ARC
  8
WHITE
 10
2.383422
 20
2.475335
 30
0.000000
 40
0.409548
 50
168.909432
 51
277.573030
  6
CONTINUOUS
  0
ARC
  8
WHITE
 10
1.938599
 20
2.562530
 30
0.000000
 40
0.043740
 50
-11.090568
 51
83.905531
  6
CONTINUOUS
  0
ARC
  8
WHITE
 10
1.987385
 20
3.019440
 30
0.000000
 40
0.415768
 50
155.805181
 51
263.905531
  6
CONTINUOUS
  0
ARC
  8
WHITE
 10
1.568241
 20
3.207765
 30
0.000000
 40
0.043740
 50
-24.194819
 51
72.282473
  6
CONTINUOUS
  0
ARC
  8
WHITE
 10
1.699044
 20
3.617191
 30
0.000000
 40
0.386072
 50
140.531155
 51
252.282473
  6
CONTINUOUS
  0
ARC
  8
WHITE
 10
1.367241
 20
3.890405
 30
0.000000
 40
0.043740
 50
-39.468845
 51
57.803367
  6
CONTINUOUS
  0
ARC
  8
WHITE
 10
1.604012
 20
4.266439
 30
0.000000
 40
0.400627
 50
128.272190
 51
237.803367
  6
CONTINUOUS
  0
ARC
  8
WHITE
 10
1.328772
 20
4.615301
 30
0.000000
 40
0.043740
 50
-51.727809
 51
44.770584
  6
CONTINUOUS
  0
ARC
  8
WHITE
 10
1.641633
 20
4.925667
 30
0.000000
 40
0.396952
 50
114.733302
 51
224.770583
  6
CONTINUOUS
  0
ARC
  8
WHITE
 10
1.457250
 20
5.325932
 30
0.000000
 40
0.043740
 50
-65.266698
 51
31.041838
  6
CONTINUOUS
  0
ARC
  8
WHITE
 10
1.838896
 20
5.555628
 30
0.000000
 40
0.401697
 50
101.768277
 51
211.041839
  6
CONTINUOUS
  0
ARC
  8
WHITE
 10
1.748048
 20
5.991702
 30
0.000000
 40
0.043740
 50
-78.231723
 51
17.833452
  6
CONTINUOUS
  0
ARC
  8
WHITE
 10
2.171236
 20
6.127846
 30
0.000000
 40
0.400809
 50
88.232492
 51
197.833452
  6
CONTINUOUS
  0
ARC
  8
WHITE
 10
2.184948
 20
6.572183
 30
0.000000
 40
0.043740
 50
-91.767509
 51
4.204854
  6
CONTINUOUS
  0
ARC
  8
WHITE
 10
2.632611
 20
6.605096
 30
0.000000
 40
0.405131
 50
75.295169
 51
184.204854
  6
CONTINUOUS
  0
ARC
  8
WHITE
 10
2.746552
 20
7.039265
 30
0.000000
 40
0.043740
 50
-104.704830
 51
-7.150128
  6
CONTINUOUS
  0
ARC
  8
WHITE
 10
3.166111
 20
6.986633
 30
0.000000
 40
0.379107
 50
59.991846
 51
172.849872
  6
CONTINUOUS
  0
ARC
  8
WHITE
 10
3.377586
 20
7.352799
 30
0.000000
 40
0.043740
 50
-120.008155
 51
-22.351281
  6
CONTINUOUS
  0
ARC
  8
WHITE
 10
3.790179
 20
7.183151
 30
0.000000
 40
0.402369
 50
48.498464
 51
157.648719
  6
CONTINUOUS
  0
ARC
  8
WHITE
 10
4.085788
 20
7.517259
 30
0.000000
 40
0.043740
 50
-131.501535
 51
-35.780131
  6
CONTINUOUS
  0
ARC
  8
WHITE
 10
4.451227
 20
7.253889
 30
0.000000
 40
0.406715
 50
98.582142
 51
144.219869
  6
CONTINUOUS
  0
ARC
  8
WHITE
 10
4.145808
 20
1.873025
 30
0.000000
 40
0.352836
 50
-151.957214
 51
-46.084546
  6
CONTINUOUS
  0
ARC
  8
WHITE
 10
3.799652
 20
1.688639
 30
0.000000
 40
0.039366
 50
28.042784
 51
124.471180
  6
CONTINUOUS
  0
ARC
  8
WHITE
 10
3.567541
 20
2.026726
 30
0.000000
 40
0.370729
 50
-164.453668
 51
-55.528820
  6
CONTINUOUS
  0
ARC
  8
WHITE
 10
3.172450
 20
1.916813
 30
0.000000
 40
0.039366
 50
15.546332
 51
112.474527
  6
CONTINUOUS
  0
ARC
  8
WHITE
 10
3.025990
 20
2.270844
 30
0.000000
 40
0.343764
 50
-179.192470
 51
-67.525473
  6
CONTINUOUS
  0
ARC
  8
WHITE
 10
2.642898
 20
2.265445
 30
0.000000
 40
0.039366
 50
0.807530
 51
97.573030
  6
CONTINUOUS
  0
ARC
  8
WHITE
 10
2.589133
 20
2.669845
 30
0.000000
 40
0.368593
 50
168.909432
 51
277.573030
  6
CONTINUOUS
  0
ARC
  8
WHITE
 10
2.188793
 20
2.748321
 30
0.000000
 40
0.039366
 50
-11.090569
 51
83.905531
  6
CONTINUOUS
  0
ARC
  8
WHITE
 10
2.232699
 20
3.159540
 30
0.000000
 40
0.374191
 50
155.805181
 51
263.905530
  6
CONTINUOUS
  0
ARC
  8
WHITE
 10
1.855471
 20
3.329032
 30
0.000000
 40
0.039366
 50
-24.194820
 51
72.282473
  6
CONTINUOUS
  0
ARC
  8
WHITE
 10
1.973193
 20
3.697516
 30
0.000000
 40
0.347465
 50
140.531155
 51
252.282473
  6
CONTINUOUS
  0
ARC
  8
WHITE
 10
1.674571
 20
3.943408
 30
0.000000
 40
0.039366
 50
-39.468844
 51
57.803367
  6
CONTINUOUS
  0
ARC
  8
WHITE
 10
1.887664
 20
4.281839
 30
0.000000
 40
0.360564
 50
128.272190
 51
237.803367
  6
CONTINUOUS
  0
ARC
  8
WHITE
 10
1.639948
 20
4.595815
 30
0.000000
 40
0.039366
 50
-51.727810
 51
44.770584
  6
CONTINUOUS
  0
ARC
  8
WHITE
 10
1.921523
 20
4.875145
 30
0.000000
 40
0.357257
 50
114.733302
 51
224.770583
  6
CONTINUOUS
  0
ARC
  8
WHITE
 10
1.755578
 20
5.235383
 30
0.000000
 40
0.039366
 50
-65.266698
 51
31.041839
  6
CONTINUOUS
  0
ARC
  8
WHITE
 10
2.099060
 20
5.442109
 30
0.000000
 40
0.361527
 50
101.768277
 51
211.041838
  6
CONTINUOUS
  0
ARC
  8
WHITE
 10
2.017296
 20
5.834576
 30
0.000000
 40
0.039366
 50
-78.231723
 51
17.833451
  6
CONTINUOUS
  0
ARC
  8
WHITE
 10
2.398166
 20
5.957105
 30
0.000000
 40
0.360728
 50
88.232491
 51
197.833452
  6
CONTINUOUS
  0
ARC
  8
WHITE
 10
2.410507
 20
6.357009
 30
0.000000
 40
0.039366
 50
-91.767509
 51
4.204854
  6
CONTINUOUS
  0
ARC
  8
WHITE
 10
2.813403
 20
6.386630
 30
0.000000
 40
0.364618
 50
75.295169
 51
184.204854
  6
CONTINUOUS
  0
ARC
  8
WHITE
 10
2.915950
 20
6.777382
 30
0.000000
 40
0.039366
 50
-104.704831
 51
-7.150127
  6
CONTINUOUS
  0
ARC
  8
WHITE
 10
3.293553
 20
6.730014
 30
0.000000
 40
0.341196
 50
59.991846
 51
172.849872
  6
CONTINUOUS
  0
ARC
  8
WHITE
 10
3.483881
 20
7.059563
 30
0.000000
 40
0.039366
 50
-120.008155
 51
-22.351281
  6
CONTINUOUS
  0
ARC
  8
WHITE
 10
3.855214
 20
6.906880
 30
0.000000
 40
0.362132
 50
48.498464
 51
157.648719
  6
CONTINUOUS
  0
ARC
  8
WHITE
 10
4.121263
 20
7.207577
 30
0.000000
 40
0.039366
 50
-131.501536
 51
-35.780130
  6
CONTINUOUS
  0
ARC
  8
WHITE
 10
4.450158
 20
6.970544
 30
0.000000
 40
0.366043
 50
99.374493
 51
144.219869
  6
CONTINUOUS
  0
ARC
  8
WHITE
 10
4.175281
 20
2.127767
 30
0.000000
 40
0.317553
 50
-151.957214
 51
-47.324080
  6
CONTINUOUS
  0
ARC
  8
WHITE
 10
3.863740
 20
1.961819
 30
0.000000
 40
0.035429
 50
28.042785
 51
124.471180
  6
CONTINUOUS
  0
ARC
  8
WHITE
 10
3.654841
 20
2.266097
 30
0.000000
 40
0.333656
 50
-164.453668
 51
-55.528820
  6
CONTINUOUS
  0
ARC
  8
WHITE
 10
3.299258
 20
2.167176
 30
0.000000
 40
0.035429
 50
15.546332
 51
112.474528
  6
CONTINUOUS
  0
ARC
  8
WHITE
 10
3.167444
 20
2.485804
 30
0.000000
 40
0.309387
 50
-179.192470
 51
-67.525473
  6
CONTINUOUS
  0
ARC
  8
WHITE
 10
2.822662
 20
2.480944
 30
0.000000
 40
0.035429
 50
0.807529
 51
97.573030
  6
CONTINUOUS
  0
ARC
  8
WHITE
 10
2.774273
 20
2.844905
 30
0.000000
 40
0.331734
 50
168.909432
 51
277.573030
  6
CONTINUOUS
  0
ARC
  8
WHITE
 10
2.413967
 20
2.915532
 30
0.000000
 40
0.035429
 50
-11.090569
 51
83.905530
  6
CONTINUOUS
  0
ARC
  8
WHITE
 10
2.453483
 20
3.285630
 30
0.000000
 40
0.336772
 50
155.805181
 51
263.905531
  6
CONTINUOUS
  0
ARC
  8
WHITE
 10
2.113977
 20
3.438173
 30
0.000000
 40
0.035429
 50
-24.194820
 51
72.282474
  6
CONTINUOUS
  0
ARC
  8
WHITE
 10
2.219927
 20
3.769808
 30
0.000000
 40
0.312719
 50
140.531155
 51
252.282474
  6
CONTINUOUS
  0
ARC
  8
WHITE
 10
1.951167
 20
3.991111
 30
0.000000
 40
0.035429
 50
-39.468845
 51
57.803366
  6
CONTINUOUS
  0
ARC
  8
WHITE
 10
2.142951
 20
4.295699
 30
0.000000
 40
0.324508
 50
128.272190
 51
237.803367
  6
CONTINUOUS
  0
ARC
  8
WHITE
 10
1.920007
 20
4.578278
 30
0.000000
 40
0.035429
 50
-51.727810
 51
44.770584
  6
CONTINUOUS
  0
ARC
  8
WHITE
 10
2.173424
 20
4.829674
 30
0.000000
 40
0.321531
 50
114.733302
 51
224.770583
  6
CONTINUOUS
  0
ARC
  8
WHITE
 10
2.024074
 20
5.153889
 30
0.000000
 40
0.035429
 50
-65.266698
 51
31.041839
  6
CONTINUOUS
  0
ARC
  8
WHITE
 10
2.333208
 20
5.339942
 30
0.000000
 40
0.325375
 50
101.768277
 51
211.041839
  6
CONTINUOUS
  0
ARC
  8
WHITE
 10
2.259620
 20
5.693162
 30
0.000000
 40
0.035429
 50
-78.231722
 51
17.833451
  6
CONTINUOUS
  0
ARC
  8
WHITE
 10
2.602403
 20
5.803439
 30
0.000000
 40
0.324655
 50
88.232491
 51
197.833452
  6
CONTINUOUS
  0
ARC
  8
WHITE
 10
2.613509
 20
6.163352
 30
0.000000
 40
0.035429
 50
-91.767507
 51
4.204854
  6
CONTINUOUS
  0
ARC
  8
WHITE
 10
2.976116
 20
6.190011
 30
0.000000
 40
0.328156
 50
75.295169
 51
184.204854
  6
CONTINUOUS
  0
ARC
  8
WHITE
 10
3.068409
 20
6.541688
 30
0.000000
 40
0.035429
 50
-104.704831
 51
-7.150127
  6
CONTINUOUS
  0
ARC
  8
WHITE
 10
3.408251
 20
6.499056
 30
0.000000
 40
0.307077
 50
59.991846
 51
172.849872
  6
CONTINUOUS
  0
ARC
  8
WHITE
 10
3.579546
 20
6.795651
 30
0.000000
 40
0.035429
 50
-120.008153
 51
-22.351280
  6
CONTINUOUS
  0
ARC
  8
WHITE
 10
3.913746
 20
6.658236
 30
0.000000
 40
0.325919
 50
48.498464
 51
157.648719
  6
CONTINUOUS
  0
ARC
  8
WHITE
 10
4.153190
 20
6.928863
 30
0.000000
 40
0.035429
 50
-131.501536
 51
-35.780130
  6
CONTINUOUS
  0
ARC
  8
WHITE
 10
4.449196
 20
6.715533
 30
0.000000
 40
0.329439
 50
100.257017
 51
144.219869
  6
CONTINUOUS
  0
ARC
  8
WHITE
 10
4.201806
 20
2.357034
 30
0.000000
 40
0.285797
 50
-151.957215
 51
-48.672984
  6
CONTINUOUS
  0
ARC
  8
WHITE
 10
3.921420
 20
2.207681
 30
0.000000
 40
0.031886
 50
28.042788
 51
124.471178
  6
CONTINUOUS
  0
ARC
  8
WHITE
 10
3.733410
 20
2.481532
 30
0.000000
 40
0.300291
 50
-164.453668
 51
-55.528820
  6
CONTINUOUS
  0
ARC
  8
WHITE
 10
3.413386
 20
2.392502
 30
0.000000
 40
0.031886
 50
15.546332
 51
112.474526
  6
CONTINUOUS
  0
ARC
  8
WHITE
 10
3.294753
 20
2.679267
 30
0.000000
 40
0.278449
 50
-179.192470
 51
-67.525473
  6
CONTINUOUS
  0
ARC
  8
WHITE
 10
2.984449
 20
2.674893
 30
0.000000
 40
0.031886
 50
0.807531
 51
97.573030
  6
CONTINUOUS
  0
ARC
  8
WHITE
 10
2.940899
 20
3.002458
 30
0.000000
 40
0.298560
 50
168.909432
 51
277.573030
  6
CONTINUOUS
  0
ARC
  8
WHITE
 10
2.616624
 20
3.066023
 30
0.000000
 40
0.031886
 50
-11.090568
 51
83.905532
  6
CONTINUOUS
  0
ARC
  8
WHITE
 10
2.652188
 20
3.399111
 30
0.000000
 40
0.303095
 50
155.805181
 51
263.905530
  6
CONTINUOUS
  0
ARC
  8
WHITE
 10
2.346633
 20
3.536400
 30
0.000000
 40
0.031886
 50
-24.194818
 51
72.282473
  6
CONTINUOUS
  0
ARC
  8
WHITE
 10
2.441988
 20
3.834871
 30
0.000000
 40
0.281447
 50
140.531155
 51
252.282473
  6
CONTINUOUS
  0
ARC
  8
WHITE
 10
2.200104
 20
4.034044
 30
0.000000
 40
0.031886
 50
-39.468846
 51
57.803368
  6
CONTINUOUS
  0
ARC
  8
WHITE
 10
2.372710
 20
4.308173
 30
0.000000
 40
0.292057
 50
128.272190
 51
237.803367
  6
CONTINUOUS
  0
ARC
  8
WHITE
 10
2.172059
 20
4.562494
 30
0.000000
 40
0.031886
 50
-51.727810
 51
44.770584
  6
CONTINUOUS
  0
ARC
  8
WHITE
 10
2.400135
 20
4.788751
 30
0.000000
 40
0.289378
 50
114.733302
 51
224.770583
  6
CONTINUOUS
  0
ARC
  8
WHITE
 10
2.265720
 20
5.080544
 30
0.000000
 40
0.031886
 50
-65.266696
 51
31.041838
  6
CONTINUOUS
  0
ARC
  8
WHITE
 10
2.543940
 20
5.247992
 30
0.000000
 40
0.292837
 50
101.768277
 51
211.041838
  6
CONTINUOUS
  0
ARC
  8
WHITE
 10
2.477712
 20
5.565890
 30
0.000000
 40
0.031886
 50
-78.231724
 51
17.833452
  6
CONTINUOUS
  0
ARC
  8
WHITE
 10
2.786216
 20
5.665139
 30
0.000000
 40
0.292190
 50
88.232492
 51
197.833451
  6
CONTINUOUS
  0
ARC
  8
WHITE
 10
2.796212
 20
5.989061
 30
0.000000
 40
0.031886
 50
-91.767508
 51
4.204854
  6
CONTINUOUS
  0
ARC
  8
WHITE
 10
3.122558
 20
6.013054
 30
0.000000
 40
0.295340
 50
75.295169
 51
184.204854
  6
CONTINUOUS
  0
ARC
  8
WHITE
 10
3.205621
 20
6.329563
 30
0.000000
 40
0.031886
 50
-104.704831
 51
-7.150127
  6
CONTINUOUS
  0
ARC
  8
WHITE
 10
3.511479
 20
6.291194
 30
0.000000
 40
0.276369
 50
59.991846
 51
172.849872
  6
CONTINUOUS
  0
ARC
  8
WHITE
 10
3.665645
 20
6.558130
 30
0.000000
 40
0.031886
 50
-120.008155
 51
-22.351282
  6
CONTINUOUS
  0
ARC
  8
WHITE
 10
3.966425
 20
6.434456
 30
0.000000
 40
0.293327
 50
48.498464
 51
157.648719
  6
CONTINUOUS
  0
ARC
  8
WHITE
 10
4.181924
 20
6.678021
 30
0.000000
 40
0.031886
 50
-131.501535
 51
-35.780131
  6
CONTINUOUS
  0
ARC
  8
WHITE
 10
4.448329
 20
6.486024
 30
0.000000
 40
0.296495
 50
101.240503
 51
144.219869
  6
CONTINUOUS
  0
ARC
  8
WHITE
 10
4.447550
 20
6.279465
 30
0.000000
 40
0.266846
 50
102.337228
 51
144.219869
  6
CONTINUOUS
  0
ARC
  8
WHITE
 10
4.207785
 20
6.452263
 30
0.000000
 40
0.028698
 50
-131.501536
 51
-35.780129
  6
CONTINUOUS
  0
ARC
  8
WHITE
 10
4.013836
 20
6.233054
 30
0.000000
 40
0.263994
 50
48.498464
 51
157.648719
  6
CONTINUOUS
  0
ARC
  8
WHITE
 10
3.743134
 20
6.344361
 30
0.000000
 40
0.028698
 50
-120.008155
 51
-22.351281
  6
CONTINUOUS
  0
ARC
  8
WHITE
 10
3.604385
 20
6.104119
 30
0.000000
 40
0.248732
 50
59.991846
 51
172.849872
  6
CONTINUOUS
  0
ARC
  8
WHITE
 10
3.329112
 20
6.138651
 30
0.000000
 40
0.028698
 50
-104.704829
 51
-7.150128
  6
CONTINUOUS
  0
ARC
  8
WHITE
 10
3.254356
 20
5.853792
 30
0.000000
 40
0.265806
 50
75.295169
 51
184.204854
  6
CONTINUOUS
  0
ARC
  8
WHITE
 10
2.960644
 20
5.832199
 30
0.000000
 40
0.028698
 50
-91.767509
 51
4.204854
  6
CONTINUOUS
  0
ARC
  8
WHITE
 10
2.951648
 20
5.540669
 30
0.000000
 40
0.262971
 50
88.232492
 51
197.833452
  6
CONTINUOUS
  0
ARC
  8
WHITE
 10
2.673994
 20
5.451345
 30
0.000000
 40
0.028698
 50
-78.231722
 51
17.833451
  6
CONTINUOUS
  0
ARC
  8
WHITE
 10
2.733600
 20
5.165237
 30
0.000000
 40
0.263553
 50
101.768277
 51
211.041839
  6
CONTINUOUS
  0
ARC
  8
WHITE
 10
2.483201
 20
5.014533
 30
0.000000
 40
0.028698
 50
-65.266697
 51
31.041837
  6
CONTINUOUS
  0
ARC
  8
WHITE
 10
2.604175
 20
4.751919
 30
0.000000
 40
0.260440
 50
114.733302
 51
224.770583
  6
CONTINUOUS
  0
ARC
  8
WHITE
 10
2.398907
 20
4.548288
 30
0.000000
 40
0.028698
 50
-51.727809
 51
44.770582
  6
CONTINUOUS
  0
ARC
  8
WHITE
 10
2.579492
 20
4.319400
 30
0.000000
 40
0.262851
 50
128.272190
 51
237.803368
  6
CONTINUOUS
  0
ARC
  8
WHITE
 10
2.424147
 20
4.072683
 30
0.000000
 40
0.028698
 50
-39.468844
 51
57.803367
  6
CONTINUOUS
  0
ARC
  8
WHITE
 10
2.641842
 20
3.893428
 30
0.000000
 40
0.253302
 50
140.531155
 51
252.282474
  6
CONTINUOUS
  0
ARC
  8
WHITE
 10
2.556023
 20
3.624804
 30
0.000000
 40
0.028698
 50
-24.194821
 51
72.282473
  6
CONTINUOUS
  0
ARC
  8
WHITE
 10
2.831023
 20
3.501244
 30
0.000000
 40
0.272785
 50
155.805181
 51
263.905531
  6
CONTINUOUS
  0
ARC
  8
WHITE
 10
2.799015
 20
3.201465
 30
0.000000
 40
0.028698
 50
-11.090569
 51
83.905531
  6
CONTINUOUS
  0
ARC
  8
WHITE
 10
3.090863
 20
3.144256
 30
0.000000
 40
0.268704
 50
168.909432
 51
277.573030
  6
CONTINUOUS
  0
ARC
  8
WHITE
 10
3.130057
 20
2.849448
 30
0.000000
 40
0.028698
 50
0.807532
 51
97.573030
  6
CONTINUOUS
  0
ARC
  8
WHITE
 10
3.409331
 20
2.853384
 30
0.000000
 40
0.250604
 50
-179.192470
 51
-67.525473
  6
CONTINUOUS
  0
ARC
  8
WHITE
 10
3.516101
 20
2.595296
 30
0.000000
 40
0.028698
 50
15.546332
 51
112.474526
  6
CONTINUOUS
  0
ARC
  8
WHITE
 10
3.804122
 20
2.675422
 30
0.000000
 40
0.270262
 50
-164.453668
 51
-55.528820
  6
CONTINUOUS
  0
ARC
  8
WHITE
 10
3.973331
 20
2.428957
 30
0.000000
 40
0.028698
 50
28.042785
 51
124.471181
  6
CONTINUOUS
  0
ARC
  8
WHITE
 10
4.225679
 20
2.563374
 30
0.000000
 40
0.257218
 50
-151.957214
 51
-50.139765
  6
CONTINUOUS
  0
ARC
  8
WHITE
 10
4.841579
 20
4.479784
 30
0.000000
 40
1.243606
 50
-92.395006
 51
-79.714622
  6
CONTINUOUS
  0
ARC
  8
WHITE
 10
5.606933
 20
0.690808
 30
0.000000
 40
2.674408
 50
107.794799
 51
118.602382
  6
CONTINUOUS
  0
ARC
  8
WHITE
 10
4.992760
 20
1.446713
 30
0.000000
 40
1.725865
 50
112.704319
 51
124.516601
  6
CONTINUOUS
  0
ARC
  8
WHITE
 10
3.915595
 20
3.213642
 30
0.000000
 40
0.358869
 50
-110.820893
 51
-73.950995
  6
CONTINUOUS
  0
ARC
  8
WHITE
 10
3.908981
 20
3.001044
 30
0.000000
 40
0.172383
 50
167.334936
 51
225.444144
  6
CONTINUOUS
  0
ARC
  8
WHITE
 10
4.095122
 20
2.741201
 30
0.000000
 40
0.462751
 50
117.349876
 51
139.969741
  6
CONTINUOUS
  0
ARC
  8
WHITE
 10
4.085673
 20
2.769548
 30
0.000000
 40
0.433257
 50
108.434949
 51
117.962232
  6
CONTINUOUS
  0
ARC
  8
WHITE
 10
4.830699
 20
1.516004
 30
0.000000
 40
1.883817
 50
104.330889
 51
117.918550
  6
CONTINUOUS
  0
ARC
  8
WHITE
 10
4.550170
 20
2.658976
 30
0.000000
 40
0.707062
 50
83.163721
 51
105.231302
  6
CONTINUOUS
  0
ARC
  8
WHITE
 10
4.011083
 20
4.028731
 30
0.000000
 40
0.091244
 50
-17.958861
 51
48.536241
  6
CONTINUOUS
  0
ARC
  8
WHITE
 10
4.262631
 20
4.676017
 30
0.000000
 40
0.180548
 50
78.614796
 51
162.543658
  6
CONTINUOUS
  0
ARC
  8
WHITE
 10
4.227406
 20
5.199075
 30
0.000000
 40
0.142091
 50
-153.860932
 51
-76.541316
  6
CONTINUOUS
  0
ARC
  8
WHITE
 10
4.024256
 20
4.064036
 30
0.000000
 40
0.104899
 50
-7.765166
 51
35.837652
  6
CONTINUOUS
  0
ARC
  8
WHITE
 10
4.085673
 20
4.097107
 30
0.000000
 40
0.099662
 50
-5.440332
 51
58.570434
  6
CONTINUOUS
  0
ARC
  8
WHITE
 10
6.957065
 20
2.650388
 30
0.000000
 40
2.893754
 50
158.727430
 51
165.416731
  6
CONTINUOUS
  0
ARC
  8
WHITE
 10
4.194335
 20
4.597894
 30
0.000000
 40
0.048180
 50
-78.690068
 51
11.309933
  6
CONTINUOUS
  0
ARC
  8
WHITE
 10
4.180162
 20
3.950650
 30
0.000000
 40
0.074699
 50
-55.304847
 51
18.434949
  6
CONTINUOUS
  0
ARC
  8
WHITE
 10
4.251028
 20
4.749075
 30
0.000000
 40
0.066813
 50
-81.869898
 51
-8.130102
  6
CONTINUOUS
  0
ARC
  8
WHITE
 10
4.448928
 20
4.127028
 30
0.000000
 40
0.180114
 50
98.885815
 51
141.627060
  6
CONTINUOUS
  0
ARC
  8
WHITE
 10
6.769138
 20
3.695532
 30
0.000000
 40
2.454812
 50
172.368923
 51
182.757781
  6
CONTINUOUS
  0
ARC
  8
WHITE
 10
4.503784
 20
3.577422
 30
0.000000
 40
0.142224
 50
168.503437
 51
212.106256
  6
CONTINUOUS
  0
ARC
  8
WHITE
 10
4.321894
 20
3.430965
 30
0.000000
 40
0.080454
 50
-49.763641
 51
49.763642
  6
CONTINUOUS
  0
ARC
  8
WHITE
 10
5.008024
 20
3.575605
 30
0.000000
 40
0.644540
 50
143.898997
 51
169.703822
  6
CONTINUOUS
  0
ARC
  8
WHITE
 10
4.542265
 20
3.943640
 30
0.000000
 40
0.056254
 50
45.439040
 51
167.959450
  6
CONTINUOUS
  0
ARC
  8
WHITE
 10
4.478137
 20
6.036814
 30
0.000000
 40
0.172779
 50
-121.309822
 51
-73.188879
  6
CONTINUOUS
  0
ARC
  8
WHITE
 10
4.939527
 20
5.384209
 30
0.000000
 40
0.660510
 50
-145.872886
 51
-117.120050
  6
CONTINUOUS
  0
ARC
  8
WHITE
 10
4.306146
 20
4.584351
 30
0.000000
 40
0.257905
 50
31.923797
 51
63.528825
  6
CONTINUOUS
  0
ARC
  8
WHITE
 10
5.205359
 20
5.141201
 30
0.000000
 40
0.814533
 50
150.461218
 51
159.988501
  6
CONTINUOUS
  0
ARC
  8
WHITE
 10
4.163309
 20
4.972917
 30
0.000000
 40
0.503665
 50
-19.382015
 51
21.586165
  6
CONTINUOUS
  0
ARC
  8
WHITE
 10
4.594559
 20
5.060178
 30
0.000000
 40
0.104819
 50
69.277111
 51
188.665932
  6
CONTINUOUS
  0
ARC
  8
WHITE
 10
4.453735
 20
7.918525
 30
0.000000
 40
0.502117
 50
35.184217
 51
85.797167
  6
CONTINUOUS
  0
ARC
  8
WHITE
 10
4.908252
 20
8.238964
 30
0.000000
 40
0.054000
 50
-144.815783
 51
-50.047401
  6
CONTINUOUS
  0
ARC
  8
WHITE
 10
5.276432
 20
7.799446
 30
0.000000
 40
0.519352
 50
22.567223
 51
129.952598
  6
CONTINUOUS
  0
ARC
  8
WHITE
 10
5.805882
 20
8.019480
 30
0.000000
 40
0.054000
 50
-157.432778
 51
-60.856329
  6
CONTINUOUS
  0
ARC
  8
WHITE
 10
6.056105
 20
7.570722
 30
0.000000
 40
0.459804
 50
6.674983
 51
119.143670
  6
CONTINUOUS
  0
ARC
  8
WHITE
 10
6.566426
 20
7.630445
 30
0.000000
 40
0.054000
 50
-173.325016
 51
-76.153031
  6
CONTINUOUS
  0
ARC
  8
WHITE
 10
6.700139
 20
7.087985
 30
0.000000
 40
0.504697
 50
-4.653821
 51
103.846969
  6
CONTINUOUS
  0
ARC
  8
WHITE
 10
7.256994
 20
7.042655
 30
0.000000
 40
0.054000
 50
175.346179
 51
271.052946
  6
CONTINUOUS
  0
ARC
  8
WHITE
 10
7.267180
 20
6.488473
 30
0.000000
 40
0.500276
 50
-18.322710
 51
91.052946
  6
CONTINUOUS
  0
ARC
  8
WHITE
 10
7.793354
 20
6.314226
 30
0.000000
 40
0.054000
 50
161.677290
 51
259.330097
  6
CONTINUOUS
  0
ARC
  8
WHITE
 10
7.697131
 20
5.803511
 30
0.000000
 40
0.465700
 50
-33.341772
 51
79.330097
  6
CONTINUOUS
  0
ARC
  8
WHITE
 10
8.131293
 20
5.517867
 30
0.000000
 40
0.054000
 50
146.658228
 51
244.119735
  6
CONTINUOUS
  0
ARC
  8
WHITE
 10
7.889325
 20
5.019117
 30
0.000000
 40
0.500347
 50
-44.709566
 51
64.119735
  6
CONTINUOUS
  0
ARC
  8
WHITE
 10
8.283289
 20
4.629126
 30
0.000000
 40
0.054000
 50
135.290433
 51
231.167578
  6
CONTINUOUS
  0
ARC
  8
WHITE
 10
7.937659
 20
4.199747
 30
0.000000
 40
0.497205
 50
-58.320465
 51
51.167578
  6
CONTINUOUS
  0
ARC
  8
WHITE
 10
8.227134
 20
3.730672
 30
0.000000
 40
0.054000
 50
121.679534
 51
217.930704
  6
CONTINUOUS
  0
ARC
  8
WHITE
 10
7.798180
 20
3.396371
 30
0.000000
 40
0.489837
 50
-71.642289
 51
37.930705
  6
CONTINUOUS
  0
ARC
  8
WHITE
 10
7.969460
 20
2.880210
 30
0.000000
 40
0.054000
 50
108.357711
 51
205.713796
  6
CONTINUOUS
  0
ARC
  8
WHITE
 10
7.497863
 20
2.653106
 30
0.000000
 40
0.469431
 50
-85.985869
 51
25.713796
  6
CONTINUOUS
  0
ARC
  8
WHITE
 10
7.534505
 20
2.130959
 30
0.000000
 40
0.054000
 50
94.014131
 51
190.306099
  6
CONTINUOUS
  0
ARC
  8
WHITE
 10
6.972387
 20
2.028743
 30
0.000000
 40
0.517336
 50
-97.161223
 51
10.306100
  6
CONTINUOUS
  0
ARC
  8
WHITE
 10
6.901163
 20
1.461863
 30
0.000000
 40
0.054000
 50
82.838778
 51
178.500773
  6
CONTINUOUS
  0
ARC
  8
WHITE
 10
6.356793
 20
1.476111
 30
0.000000
 40
0.490556
 50
-112.158665
 51
-1.499227
  6
CONTINUOUS
  0
ARC
  8
WHITE
 10
6.151402
 20
0.971774
 30
0.000000
 40
0.054000
 50
67.841335
 51
164.753915
  6
CONTINUOUS
  0
ARC
  8
WHITE
 10
5.627721
 20
1.114508
 30
0.000000
 40
0.488784
 50
-125.240163
 51
-15.246085
  6
CONTINUOUS
  0
ARC
  8
WHITE
 10
5.314531
 20
0.671194
 30
0.000000
 40
0.054000
 50
54.759837
 51
151.657037
  6
CONTINUOUS
  0
ARC
  8
WHITE
 10
4.842027
 20
0.926068
 30
0.000000
 40
0.482863
 50
-136.713503
 51
-28.342964
  6
CONTINUOUS
  0
ARC
  8
WHITE
 10
4.452415
 20
7.568716
 30
0.000000
 40
0.451905
 50
35.184217
 51
85.161249
  6
CONTINUOUS
  0
ARC
  8
WHITE
 10
4.861480
 20
7.857111
 30
0.000000
 40
0.048600
 50
-144.815783
 51
-50.047402
  6
CONTINUOUS
  0
ARC
  8
WHITE
 10
5.192842
 20
7.461545
 30
0.000000
 40
0.467416
 50
22.567223
 51
129.952598
  6
CONTINUOUS
  0
ARC
  8
WHITE
 10
5.669347
 20
7.659575
 30
0.000000
 40
0.048600
 50
-157.432777
 51
-60.856330
  6
CONTINUOUS
  0
ARC
  8
WHITE
 10
5.894548
 20
7.255694
 30
0.000000
 40
0.413824
 50
6.674983
 51
119.143670
  6
CONTINUOUS
  0
ARC
  8
WHITE
 10
6.353837
 20
7.309445
 30
0.000000
 40
0.048600
 50
-173.325017
 51
-76.153031
  6
CONTINUOUS
  0
ARC
  8
WHITE
 10
6.474179
 20
6.821230
 30
0.000000
 40
0.454227
 50
-4.653821
 51
103.846969
  6
CONTINUOUS
  0
ARC
  8
WHITE
 10
6.975348
 20
6.780433
 30
0.000000
 40
0.048600
 50
175.346178
 51
271.052946
  6
CONTINUOUS
  0
ARC
  8
WHITE
 10
6.984515
 20
6.281669
 30
0.000000
 40
0.450248
 50
-18.322710
 51
91.052946
  6
CONTINUOUS
  0
ARC
  8
WHITE
 10
7.458072
 20
6.124847
 30
0.000000
 40
0.048600
 50
161.677290
 51
259.330097
  6
CONTINUOUS
  0
ARC
  8
WHITE
 10
7.371472
 20
5.665204
 30
0.000000
 40
0.419130
 50
-33.341772
 51
79.330097
  6
CONTINUOUS
  0
ARC
  8
WHITE
 10
7.762217
 20
5.408124
 30
0.000000
 40
0.048600
 50
146.658229
 51
244.119736
  6
CONTINUOUS
  0
ARC
  8
WHITE
 10
7.544446
 20
4.959249
 30
0.000000
 40
0.450312
 50
-44.709566
 51
64.119735
  6
CONTINUOUS
  0
ARC
  8
WHITE
 10
7.899014
 20
4.608258
 30
0.000000
 40
0.048600
 50
135.290433
 51
231.167578
  6
CONTINUOUS
  0
ARC
  8
WHITE
 10
7.587946
 20
4.221816
 30
0.000000
 40
0.447485
 50
-58.320465
 51
51.167578
  6
CONTINUOUS
  0
ARC
  8
WHITE
 10
7.848474
 20
3.799649
 30
0.000000
 40
0.048600
 50
121.679535
 51
217.930705
  6
CONTINUOUS
  0
ARC
  8
WHITE
 10
7.462415
 20
3.498778
 30
0.000000
 40
0.440854
 50
-71.642289
 51
37.930705
  6
CONTINUOUS
  0
ARC
  8
WHITE
 10
7.616568
 20
3.034233
 30
0.000000
 40
0.048600
 50
108.357711
 51
205.713796
  6
CONTINUOUS
  0
ARC
  8
WHITE
 10
7.192131
 20
2.829839
 30
0.000000
 40
0.422488
 50
-85.985869
 51
25.713796
  6
CONTINUOUS
  0
ARC
  8
WHITE
 10
7.225108
 20
2.359907
 30
0.000000
 40
0.048600
 50
94.014131
 51
190.306099
  6
CONTINUOUS
  0
ARC
  8
WHITE
 10
6.719201
 20
2.267912
 30
0.000000
 40
0.465603
 50
-97.161223
 51
10.306100
  6
CONTINUOUS
  0
ARC
  8
WHITE
 10
6.655100
 20
1.757721
 30
0.000000
 40
0.048600
 50
82.838777
 51
178.500772
  6
CONTINUOUS
  0
ARC
  8
WHITE
 10
6.165168
 20
1.770543
 30
0.000000
 40
0.441500
 50
-112.158665
 51
-1.499227
  6
CONTINUOUS
  0
ARC
  8
WHITE
 10
5.980315
 20
1.316641
 30
0.000000
 40
0.048600
 50
67.841335
 51
164.753915
  6
CONTINUOUS
  0
ARC
  8
WHITE
 10
5.509002
 20
1.445101
 30
0.000000
 40
0.439906
 50
-125.240163
 51
-15.246085
  6
CONTINUOUS
  0
ARC
  8
WHITE
 10
5.227132
 20
1.046118
 30
0.000000
 40
0.048600
 50
54.759837
 51
151.657036
  6
CONTINUOUS
  0
ARC
  8
WHITE
 10
4.801878
 20
1.275505
 30
0.000000
 40
0.434577
 50
-135.760427
 51
-28.342964
  6
CONTINUOUS
  0
ARC
  8
WHITE
 10
4.451227
 20
7.253889
 30
0.000000
 40
0.406715
 50
35.184217
 51
84.453969
  6
CONTINUOUS
  0
ARC
  8
WHITE
 10
4.819386
 20
7.513444
 30
0.000000
 40
0.043740
 50
-144.815783
 51
-50.047402
  6
CONTINUOUS
  0
ARC
  8
WHITE
 10
5.117611
 20
7.157435
 30
0.000000
 40
0.420675
 50
22.567223
 51
129.952598
  6
CONTINUOUS
  0
ARC
  8
WHITE
 10
5.546466
 20
7.335662
 30
0.000000
 40
0.043740
 50
-157.432778
 51
-60.856330
  6
CONTINUOUS
  0
ARC
  8
WHITE
 10
5.749146
 20
6.972168
 30
0.000000
 40
0.372441
 50
6.674983
 51
119.143670
  6
CONTINUOUS
  0
ARC
  8
WHITE
 10
6.162507
 20
7.020544
 30
0.000000
 40
0.043740
 50
-173.325017
 51
-76.153031
  6
CONTINUOUS
  0
ARC
  8
WHITE
 10
6.270814
 20
6.581151
 30
0.000000
 40
0.408805
 50
-4.653821
 51
103.846969
  6
CONTINUOUS
  0
ARC
  8
WHITE
 10
6.721867
 20
6.544434
 30
0.000000
 40
0.043740
 50
175.346180
 51
271.052945
  6
CONTINUOUS
  0
ARC
  8
WHITE
 10
6.730117
 20
6.095546
 30
0.000000
 40
0.405223
 50
-18.322710
 51
91.052946
  6
CONTINUOUS
  0
ARC
  8
WHITE
 10
7.156318
 20
5.954406
 30
0.000000
 40
0.043740
 50
161.677290
 51
259.330097
  6
CONTINUOUS
  0
ARC
  8
WHITE
 10
7.078378
 20
5.540727
 30
0.000000
 40
0.377217
 50
-33.341772
 51
79.330097
  6
CONTINUOUS
  0
ARC
  8
WHITE
 10
7.430049
 20
5.309356
 30
0.000000
 40
0.043740
 50
146.658227
 51
244.119736
  6
CONTINUOUS
  0
ARC
  8
WHITE
 10
7.234055
 20
4.905368
 30
0.000000
 40
0.405281
 50
-44.709566
 51
64.119735
  6
CONTINUOUS
  0
ARC
  8
WHITE
 10
7.553166
 20
4.589476
 30
0.000000
 40
0.043740
 50
135.290434
 51
231.167578
  6
CONTINUOUS
  0
ARC
  8
WHITE
 10
7.273205
 20
4.241678
 30
0.000000
 40
0.402736
 50
-58.320465
 51
51.167578
  6
CONTINUOUS
  0
ARC
  8
WHITE
 10
7.507680
 20
3.861728
 30
0.000000
 40
0.043740
 50
121.679534
 51
217.930705
  6
CONTINUOUS
  0
ARC
  8
WHITE
 10
7.160227
 20
3.590944
 30
0.000000
 40
0.396768
 50
-71.642289
 51
37.930704
  6
CONTINUOUS
  0
ARC
  8
WHITE
 10
7.298964
 20
3.172853
 30
0.000000
 40
0.043740
 50
108.357710
 51
205.713796
  6
CONTINUOUS
  0
ARC
  8
WHITE
 10
6.916971
 20
2.988899
 30
0.000000
 40
0.380239
 50
-85.985869
 51
25.713796
  6
CONTINUOUS
  0
ARC
  8
WHITE
 10
6.946651
 20
2.565960
 30
0.000000
 40
0.043740
 50
94.014132
 51
190.306099
  6
CONTINUOUS
  0
ARC
  8
WHITE
 10
6.491335
 20
2.483165
 30
0.000000
 40
0.419042
 50
-97.161223
 51
10.306100
  6
CONTINUOUS
  0
ARC
  8
WHITE
 10
6.433643
 20
2.023993
 30
0.000000
 40
0.043740
 50
82.838777
 51
178.500773
  6
CONTINUOUS
  0
ARC
  8
WHITE
 10
5.992704
 20
2.035533
 30
0.000000
 40
0.397350
 50
-112.158665
 51
-1.499227
  6
CONTINUOUS
  0
ARC
  8
WHITE
 10
5.826337
 20
1.627021
 30
0.000000
 40
0.043740
 50
67.841335
 51
164.753916
  6
CONTINUOUS
  0
ARC
  8
WHITE
 10
5.402155
 20
1.742635
 30
0.000000
 40
0.395915
 50
-125.240163
 51
-15.246085
  6
CONTINUOUS
  0
ARC
  8
WHITE
 10
5.148472
 20
1.383550
 30
0.000000
 40
0.043740
 50
54.759836
 51
151.657036
  6
CONTINUOUS
  0
ARC
  8
WHITE
 10
4.765743
 20
1.589999
 30
0.000000
 40
0.391119
 50
-134.720186
 51
-28.342964
  6
CONTINUOUS
  0
ARC
  8
WHITE
 10
4.450158
 20
6.970544
 30
0.000000
 40
0.366043
 50
35.184217
 51
83.667102
  6
CONTINUOUS
  0
ARC
  8
WHITE
 10
4.781500
 20
7.204143
 30
0.000000
 40
0.039366
 50
-144.815783
 51
-50.047403
  6
CONTINUOUS
  0
ARC
  8
WHITE
 10
5.049903
 20
6.883735
 30
0.000000
 40
0.378607
 50
22.567223
 51
129.952598
  6
CONTINUOUS
  0
ARC
  8
WHITE
 10
5.435872
 20
7.044140
 30
0.000000
 40
0.039366
 50
-157.432778
 51
-60.856330
  6
CONTINUOUS
  0
ARC
  8
WHITE
 10
5.618285
 20
6.716995
 30
0.000000
 40
0.335197
 50
6.674983
 51
119.143670
  6
CONTINUOUS
  0
ARC
  8
WHITE
 10
5.990310
 20
6.760534
 30
0.000000
 40
0.039366
 50
-173.325017
 51
-76.153030
  6
CONTINUOUS
  0
ARC
  8
WHITE
 10
6.087786
 20
6.365080
 30
0.000000
 40
0.367924
 50
-4.653821
 51
103.846969
  6
CONTINUOUS
  0
ARC
  8
WHITE
 10
6.493734
 20
6.332034
 30
0.000000
 40
0.039366
 50
175.346179
 51
271.052946
  6
CONTINUOUS
  0
ARC
  8
WHITE
 10
6.501159
 20
5.928036
 30
0.000000
 40
0.364701
 50
-18.322710
 51
91.052946
  6
CONTINUOUS
  0
ARC
  8
WHITE
 10
6.884740
 20
5.801010
 30
0.000000
 40
0.039366
 50
161.677290
 51
259.330097
  6
CONTINUOUS
  0
ARC
  8
WHITE
 10
6.814594
 20
5.428698
 30
0.000000
 40
0.339496
 50
-33.341772
 51
79.330097
  6
CONTINUOUS
  0
ARC
  8
WHITE
 10
7.131097
 20
5.220464
 30
0.000000
 40
0.039366
 50
146.658229
 51
244.119735
  6
CONTINUOUS
  0
ARC
  8
WHITE
 10
6.954703
 20
4.856875
 30
0.000000
 40
0.364753
 50
-44.709566
 51
64.119735
  6
CONTINUOUS
  0
ARC
  8
WHITE
 10
7.241903
 20
4.572572
 30
0.000000
 40
0.039366
 50
135.290433
 51
231.167578
  6
CONTINUOUS
  0
ARC
  8
WHITE
 10
6.989938
 20
4.259554
 30
0.000000
 40
0.362463
 50
-58.320465
 51
51.167578
  6
CONTINUOUS
  0
ARC
  8
WHITE
 10
7.200965
 20
3.917599
 30
0.000000
 40
0.039366
 50
121.679535
 51
217.930704
  6
CONTINUOUS
  0
ARC
  8
WHITE
 10
6.888258
 20
3.673893
 30
0.000000
 40
0.357091
 50
-71.642289
 51
37.930705
  6
CONTINUOUS
  0
ARC
  8
WHITE
 10
7.013121
 20
3.297612
 30
0.000000
 40
0.039366
 50
108.357711
 51
205.713795
  6
CONTINUOUS
  0
ARC
  8
WHITE
 10
6.669327
 20
3.132053
 30
0.000000
 40
0.342215
 50
-85.985868
 51
25.713796
  6
CONTINUOUS
  0
ARC
  8
WHITE
 10
6.696039
 20
2.751408
 30
0.000000
 40
0.039366
 50
94.014132
 51
190.306101
  6
CONTINUOUS
  0
ARC
  8
WHITE
 10
6.286255
 20
2.676892
 30
0.000000
 40
0.377138
 50
-97.161223
 51
10.306099
  6
CONTINUOUS
  0
ARC
  8
WHITE
 10
6.234332
 20
2.263637
 30
0.000000
 40
0.039366
 50
82.838776
 51
178.500773
  6
CONTINUOUS
  0
ARC
  8
WHITE
 10
5.837487
 20
2.274024
 30
0.000000
 40
0.357615
 50
-112.158665
 51
-1.499227
  6
CONTINUOUS
  0
ARC
  8
WHITE
 10
5.687757
 20
1.906362
 30
0.000000
 40
0.039366
 50
67.841335
 51
164.753916
  6
CONTINUOUS
  0
ARC
  8
WHITE
 10
5.305993
 20
2.010415
 30
0.000000
 40
0.356324
 50
-125.240163
 51
-15.246085
  6
CONTINUOUS
  0
ARC
  8
WHITE
 10
5.077678
 20
1.687239
 30
0.000000
 40
0.039366
 50
54.759836
 51
151.657037
  6
CONTINUOUS
  0
ARC
  8
WHITE
 10
4.733222
 20
1.873043
 30
0.000000
 40
0.352007
 50
-133.585861
 51
-28.342964
  6
CONTINUOUS
  0
ARC
  8
WHITE
 10
4.449196
 20
6.715533
 30
0.000000
 40
0.329439
 50
35.184217
 51
82.791390
  6
CONTINUOUS
  0
ARC
  8
WHITE
 10
4.747404
 20
6.925773
 30
0.000000
 40
0.035429
 50
-144.815783
 51
-50.047402
  6
CONTINUOUS
  0
ARC
  8
WHITE
 10
4.988967
 20
6.637406
 30
0.000000
 40
0.340747
 50
22.567223
 51
129.952598
  6
CONTINUOUS
  0
ARC
  8
WHITE
 10
5.336339
 20
6.781770
 30
0.000000
 40
0.035429
 50
-157.432777
 51
-60.856330
  6
CONTINUOUS
  0
ARC
  8
WHITE
 10
5.500510
 20
6.487340
 30
0.000000
 40
0.301678
 50
6.674983
 51
119.143670
  6
CONTINUOUS
  0
ARC
  8
WHITE
 10
5.835332
 20
6.526524
 30
0.000000
 40
0.035429
 50
-173.325015
 51
-76.153031
  6
CONTINUOUS
  0
ARC
  8
WHITE
 10
5.923061
 20
6.170616
 30
0.000000
 40
0.331132
 50
-4.653821
 51
103.846969
  6
CONTINUOUS
  0
ARC
  8
WHITE
 10
6.288414
 20
6.140875
 30
0.000000
 40
0.035429
 50
175.346179
 51
271.052945
  6
CONTINUOUS
  0
ARC
  8
WHITE
 10
6.295096
 20
5.777276
 30
0.000000
 40
0.328231
 50
-18.322710
 51
91.052946
  6
CONTINUOUS
  0
ARC
  8
WHITE
 10
6.640319
 20
5.662953
 30
0.000000
 40
0.035429
 50
161.677289
 51
259.330096
  6
CONTINUOUS
  0
ARC
  8
WHITE
 10
6.577188
 20
5.327873
 30
0.000000
 40
0.305546
 50
-33.341772
 51
79.330097
  6
CONTINUOUS
  0
ARC
  8
WHITE
 10
6.862041
 20
5.140461
 30
0.000000
 40
0.035429
 50
146.658228
 51
244.119735
  6
CONTINUOUS
  0
ARC
  8
WHITE
 10
6.703286
 20
4.813231
 30
0.000000
 40
0.328278
 50
-44.709566
 51
64.119735
  6
CONTINUOUS
  0
ARC
  8
WHITE
 10
6.961766
 20
4.557359
 30
0.000000
 40
0.035429
 50
135.290433
 51
231.167578
  6
CONTINUOUS
  0
ARC
  8
WHITE
 10
6.734998
 20
4.275643
 30
0.000000
 40
0.326216
 50
-58.320465
 51
51.167578
  6
CONTINUOUS
  0
ARC
  8
WHITE
 10
6.924922
 20
3.967883
 30
0.000000
 40
0.035429
 50
121.679534
 51
217.930704
  6
CONTINUOUS
  0
ARC
  8
WHITE
 10
6.643485
 20
3.748548
 30
0.000000
 40
0.321382
 50
-71.642289
 51
37.930705
  6
CONTINUOUS
  0
ARC
  8
WHITE
 10
6.755863
 20
3.409895
 30
0.000000
 40
0.035429
 50
108.357709
 51
205.713797
  6
CONTINUOUS
  0
ARC
  8
WHITE
 10
6.446448
 20
3.260892
 30
0.000000
 40
0.307994
 50
-85.985869
 51
25.713796
  6
CONTINUOUS
  0
ARC
  8
WHITE
 10
6.470488
 20
2.918311
 30
0.000000
 40
0.035429
 50
94.014131
 51
190.306099
  6
CONTINUOUS
  0
ARC
  8
WHITE
 10
6.101683
 20
2.851247
 30
0.000000
 40
0.339424
 50
-97.161223
 51
10.306099
  6
CONTINUOUS
  0
ARC
  8
WHITE
 10
6.054953
 20
2.479317
 30
0.000000
 40
0.035429
 50
82.838777
 51
178.500774
  6
CONTINUOUS
  0
ARC
  8
WHITE
 10
5.697792
 20
2.488665
 30
0.000000
 40
0.321854
 50
-112.158665
 51
-1.499227
  6
CONTINUOUS
  0
ARC
  8
WHITE
 10
5.563035
 20
2.157770
 30
0.000000
 40
0.035429
 50
67.841336
 51
164.753916
  6
CONTINUOUS
  0
ARC
  8
WHITE
 10
5.219447
 20
2.251417
 30
0.000000
 40
0.320691
 50
-125.240163
 51
-15.246085
  6
CONTINUOUS
  0
ARC
  8
WHITE
 10
5.013964
 20
1.960559
 30
0.000000
 40
0.035429
 50
54.759837
 51
151.657036
  6
CONTINUOUS
  0
ARC
  8
WHITE
 10
4.703954
 20
2.127782
 30
0.000000
 40
0.316806
 50
-132.350046
 51
-28.342964
  6
CONTINUOUS
  0
ARC
  8
WHITE
 10
4.448329
 20
6.486024
 30
0.000000
 40
0.296495
 50
35.184217
 51
81.816378
  6
CONTINUOUS
  0
ARC
  8
WHITE
 10
4.716717
 20
6.675240
 30
0.000000
 40
0.031886
 50
-144.815785
 51
-50.047403
  6
CONTINUOUS
  0
ARC
  8
WHITE
 10
4.934123
 20
6.415709
 30
0.000000
 40
0.306672
 50
22.567223
 51
129.952598
  6
CONTINUOUS
  0
ARC
  8
WHITE
 10
5.246758
 20
6.545636
 30
0.000000
 40
0.031886
 50
-157.432777
 51
-60.856329
  6
CONTINUOUS
  0
ARC
  8
WHITE
 10
5.394513
 20
6.280650
 30
0.000000
 40
0.271510
 50
6.674984
 51
119.143670
  6
CONTINUOUS
  0
ARC
  8
WHITE
 10
5.695852
 20
6.315916
 30
0.000000
 40
0.031886
 50
-173.325017
 51
-76.153031
  6
CONTINUOUS
  0
ARC
  8
WHITE
 10
5.774808
 20
5.995598
 30
0.000000
 40
0.298019
 50
-4.653821
 51
103.846969
  6
CONTINUOUS
  0
ARC
  8
WHITE
 10
6.103626
 20
5.968831
 30
0.000000
 40
0.031886
 50
175.346181
 51
271.052945
  6
CONTINUOUS
  0
ARC
  8
WHITE
 10
6.109640
 20
5.641592
 30
0.000000
 40
0.295408
 50
-18.322710
 51
91.052946
  6
CONTINUOUS
  0
ARC
  8
WHITE
 10
6.420341
 20
5.538701
 30
0.000000
 40
0.031886
 50
161.677289
 51
259.330097
  6
CONTINUOUS
  0
ARC
  8
WHITE
 10
6.363522
 20
5.237129
 30
0.000000
 40
0.274991
 50
-33.341772
 51
79.330097
  6
CONTINUOUS
  0
ARC
  8
WHITE
 10
6.619890
 20
5.068459
 30
0.000000
 40
0.031886
 50
146.658227
 51
244.119735
  6
CONTINUOUS
  0
ARC
  8
WHITE
 10
6.477011
 20
4.773952
 30
0.000000
 40
0.295450
 50
-44.709567
 51
64.119735
  6
CONTINUOUS
  0
ARC
  8
WHITE
 10
6.709643
 20
4.543667
 30
0.000000
 40
0.031886
 50
135.290434
 51
231.167578
  6
CONTINUOUS
  0
ARC
  8
WHITE
 10
6.505551
 20
4.290122
 30
0.000000
 40
0.293595
 50
-58.320465
 51
51.167578
  6
CONTINUOUS
  0
ARC
  8
WHITE
 10
6.676484
 20
4.013138
 30
0.000000
 40
0.031886
 50
121.679534
 51
217.930705
  6
CONTINUOUS
  0
ARC
  8
WHITE
 10
6.423190
 20
3.815737
 30
0.000000
 40
0.289244
 50
-71.642289
 51
37.930705
  6
CONTINUOUS
  0
ARC
  8
WHITE
 10
6.524330
 20
3.510949
 30
0.000000
 40
0.031886
 50
108.357711
 51
205.713796
  6
CONTINUOUS
  0
ARC
  8
WHITE
 10
6.245857
 20
3.376846
 30
0.000000
 40
0.277194
 50
-85.985869
 51
25.713796
  6
CONTINUOUS
  0
ARC
  8
WHITE
 10
6.267493
 20
3.068524
 30
0.000000
 40
0.031886
 50
94.014131
 51
190.306101
  6
CONTINUOUS
  0
ARC
  8
WHITE
 10
5.935568
 20
3.008166
 30
0.000000
 40
0.305482
 50
-97.161223
 51
10.306100
  6
CONTINUOUS
  0
ARC
  8
WHITE
 10
5.893511
 20
2.673430
 30
0.000000
 40
0.031886
 50
82.838777
 51
178.500773
  6
CONTINUOUS
  0
ARC
  8
WHITE
 10
5.572066
 20
2.681843
 30
0.000000
 40
0.289668
 50
-112.158665
 51
-1.499227
  6
CONTINUOUS
  0
ARC
  8
WHITE
 10
5.450785
 20
2.384037
 30
0.000000
 40
0.031886
 50
67.841335
 51
164.753915
  6
CONTINUOUS
  0
ARC
  8
WHITE
 10
5.141556
 20
2.468320
 30
0.000000
 40
0.288622
 50
-125.240163
 51
-15.246085
  6
CONTINUOUS
  0
ARC
  8
WHITE
 10
4.956621
 20
2.206547
 30
0.000000
 40
0.031886
 50
54.759837
 51
151.657037
  6
CONTINUOUS
  0
ARC
  8
WHITE
 10
4.677612
 20
2.357048
 30
0.000000
 40
0.285126
 50
-131.004794
 51
-28.342964
  6
CONTINUOUS
  0
ARC
  8
WHITE
 10
4.653904
 20
2.563387
 30
0.000000
 40
0.256613
 50
-129.541548
 51
-28.342964
  6
CONTINUOUS
  0
ARC
  8
WHITE
 10
4.905012
 20
2.427936
 30
0.000000
 40
0.028698
 50
54.759835
 51
151.657037
  6
CONTINUOUS
  0
ARC
  8
WHITE
 10
5.071454
 20
2.663532
 30
0.000000
 40
0.259760
 50
-125.240163
 51
-15.246085
  6
CONTINUOUS
  0
ARC
  8
WHITE
 10
5.349759
 20
2.587677
 30
0.000000
 40
0.028698
 50
67.841335
 51
164.753915
  6
CONTINUOUS
  0
ARC
  8
WHITE
 10
5.458913
 20
2.855702
 30
0.000000
 40
0.260701
 50
-112.158665
 51
-1.499227
  6
CONTINUOUS
  0
ARC
  8
WHITE
 10
5.748213
 20
2.848131
 30
0.000000
 40
0.028698
 50
82.838777
 51
178.500773
  6
CONTINUOUS
  0
ARC
  8
WHITE
 10
5.786064
 20
3.149394
 30
0.000000
 40
0.274934
 50
-97.161223
 51
10.306099
  6
CONTINUOUS
  0
ARC
  8
WHITE
 10
6.084797
 20
3.203715
 30
0.000000
 40
0.028698
 50
94.014131
 51
190.306100
  6
CONTINUOUS
  0
ARC
  8
WHITE
 10
6.065324
 20
3.481206
 30
0.000000
 40
0.249475
 50
-85.985868
 51
25.713796
  6
CONTINUOUS
  0
ARC
  8
WHITE
 10
6.315950
 20
3.601898
 30
0.000000
 40
0.028698
 50
108.357713
 51
205.713796
  6
CONTINUOUS
  0
ARC
  8
WHITE
 10
6.224925
 20
3.876207
 30
0.000000
 40
0.260320
 50
-71.642289
 51
37.930704
  6
CONTINUOUS
  0
ARC
  8
WHITE
 10
6.452889
 20
4.053869
 30
0.000000
 40
0.028698
 50
121.679535
 51
217.930704
  6
CONTINUOUS
  0
ARC
  8
WHITE
 10
6.299050
 20
4.303154
 30
0.000000
 40
0.264235
 50
-58.320465
 51
51.167578
  6
CONTINUOUS
  0
ARC
  8
WHITE
 10
6.482732
 20
4.531344
 30
0.000000
 40
0.028698
 50
135.290433
 51
231.167579
  6
CONTINUOUS
  0
ARC
  8
WHITE
 10
6.273363
 20
4.738601
 30
0.000000
 40
0.265905
 50
-44.709566
 51
64.119735
  6
CONTINUOUS
  0
ARC
  8
WHITE
 10
6.401955
 20
5.003657
 30
0.000000
 40
0.028698
 50
146.658228
 51
244.119737
  6
CONTINUOUS
  0
ARC
  8
WHITE
 10
6.171223
 20
5.155460
 30
0.000000
 40
0.247492
 50
-33.341772
 51
79.330097
  6
CONTINUOUS
  0
ARC
  8
WHITE
 10
6.222360
 20
5.426875
 30
0.000000
 40
0.028698
 50
161.677290
 51
259.330098
  6
CONTINUOUS
  0
ARC
  8
WHITE
 10
5.942730
 20
5.519477
 30
0.000000
 40
0.265867
 50
-18.322710
 51
91.052946
  6
CONTINUOUS
  0
ARC
  8
WHITE
 10
5.937317
 20
5.813992
 30
0.000000
 40
0.028698
 50
175.346180
 51
271.052946
  6
CONTINUOUS
  0
ARC
  8
WHITE
 10
5.641381
 20
5.838082
 30
0.000000
 40
0.268217
 50
-4.653821
 51
103.846969
  6
CONTINUOUS
  0
ARC
  8
WHITE
 10
5.570320
 20
6.126368
 30
0.000000
 40
0.028698
 50
-173.325017
 51
-76.153031
  6
CONTINUOUS
  0
ARC
  8
WHITE
 10
5.299115
 20
6.094629
 30
0.000000
 40
0.244359
 50
6.674984
 51
119.143670
  6
CONTINUOUS
  0
ARC
  8
WHITE
 10
5.166136
 20
6.333117
 30
0.000000
 40
0.028698
 50
-157.432776
 51
-60.856331
  6
CONTINUOUS
  0
ARC
  8
WHITE
 10
4.884764
 20
6.216182
 30
0.000000
 40
0.276005
 50
22.567223
 51
129.952598
  6
CONTINUOUS
  0
ARC
  8
WHITE
 10
4.689099
 20
6.449760
 30
0.000000
 40
0.028698
 50
-144.815786
 51
-50.047402
  6
CONTINUOUS
  0
ARC
  8
WHITE
 10
4.447550
 20
6.279465
 30
0.000000
 40
0.266846
 50
35.184217
 51
80.730212
  6
CONTINUOUS
  0
ARC
  8
WHITE
 10
3.844729
 20
3.086083
 30
0.000000
 40
1.162819
 50
28.647616
 51
51.267481
  6
CONTINUOUS
  0
ARC
  8
WHITE
 10
4.817957
 20
4.489233
 30
0.000000
 40
0.166431
 50
55.407711
 51
124.592289
  6
CONTINUOUS
  0
ARC
  8
WHITE
 10
3.367563
 20
5.311280
 30
0.000000
 40
1.438038
 50
-14.264512
 51
-5.467102
  6
CONTINUOUS
  0
ARC
  8
WHITE
 10
4.904748
 20
4.281677
 30
0.000000
 40
0.080777
 50
23.920435
 51
163.232234
  6
CONTINUOUS
  0
ARC
  8
WHITE
 10
5.237703
 20
3.545805
 30
0.000000
 40
0.034952
 50
-81.027373
 51
64.767168
  6
CONTINUOUS
  0
ARC
  8
WHITE
 10
5.460477
 20
3.662461
 30
0.000000
 40
0.194792
 50
165.963756
 51
202.833654
  6
CONTINUOUS
  0
ENDSEC
  0
EOF
