  0
SECTION
  2
HEADER
  9
$ACADVER
  1
AC1006
  9
$DWGCODEPAGE
  3
ansi_1252
  9
$INSBASE
 10
0.0
 20
0.0
 30
0.0
  9
$EXTMIN
 10
-0.0031081190257358
 20
-0.0344676360106441
  9
$EXTMAX
 10
10.20342593142023
 20
10.92625494245586
  9
$LIMMIN
 10
0.0
 20
0.0
  9
$LIMMAX
 10
8.878678
 20
9.533074
  9
$ORTHOMODE
 70
     0
  9
$REGENMODE
 70
     1
  9
$FILLMODE
 70
     1
  9
$QTEXTMODE
 70
     0
  9
$MIRRTEXT
 70
     1
  9
$DRAGMODE
 70
     2
  9
$LTSCALE
 40
1.0
  9
$OSMODE
 70
    37
  9
$ATTMODE
 70
     1
  9
$TEXTSIZE
 40
0.2
  9
$TRACEWID
 40
0.05
  9
$TEXTSTYLE
  7
STANDARD
  9
$CLAYER
  8
3
  9
$CELTYPE
  6
BYBLOCK
  9
$CECOLOR
 62
   256
  9
$DIMSCALE
 40
1.0
  9
$DIMASZ
 40
0.18
  9
$DIMEXO
 40
0.0625
  9
$DIMDLI
 40
0.38
  9
$DIMRND
 40
0.0
  9
$DIMDLE
 40
0.0
  9
$DIMEXE
 40
0.18
  9
$DIMTP
 40
0.0
  9
$DIMTM
 40
0.0
  9
$DIMTXT
 40
0.18
  9
$DIMCEN
 40
0.09
  9
$DIMTSZ
 40
0.0
  9
$DIMTOL
 70
     0
  9
$DIMLIM
 70
     0
  9
$DIMTIH
 70
     1
  9
$DIMTOH
 70
     1
  9
$DIMSE1
 70
     0
  9
$DIMSE2
 70
     0
  9
$DIMTAD
 70
     0
  9
$DIMZIN
 70
     0
  9
$DIMBLK
  1

  9
$DIMASO
 70
     1
  9
$DIMSHO
 70
     1
  9
$DIMPOST
  1

  9
$DIMAPOST
  1

  9
$DIMALT
 70
     0
  9
$DIMALTD
 70
     2
  9
$DIMALTF
 40
25.4
  9
$DIMLFAC
 40
1.0
  9
$DIMTOFL
 70
     0
  9
$DIMTVP
 40
0.0
  9
$DIMTIX
 70
     0
  9
$DIMSOXD
 70
     0
  9
$DIMSAH
 70
     0
  9
$DIMBLK1
  1

  9
$DIMBLK2
  1

  9
$LUNITS
 70
     2
  9
$LUPREC
 70
     4
  9
$SKETCHINC
 40
0.1
  9
$FILLETRAD
 40
0.5
  9
$AUNITS
 70
     0
  9
$AUPREC
 70
     0
  9
$MENU
  1
.
  9
$ELEVATION
 40
0.0
  9
$THICKNESS
 40
0.0
  9
$LIMCHECK
 70
     0
  9
$CHAMFERA
 40
0.5
  9
$CHAMFERB
 40
0.5
  9
$SKPOLY
 70
     0
  9
$TDCREATE
 40
2454567.561978391
  9
$TDUPDATE
 40
2454568.711238599
  9
$TDINDWG
 40
0.0627777894
  9
$TDUSRTIMER
 40
0.0627662153
  9
$USRTIMER
 70
     1
  9
$ANGBASE
 50
0.0
  9
$ANGDIR
 70
     0
  9
$PDMODE
 70
     0
  9
$PDSIZE
 40
0.0
  9
$PLINEWID
 40
0.0
  9
$COORDS
 70
     1
  9
$SPLFRAME
 70
     0
  9
$SPLINETYPE
 70
     6
  9
$SPLINESEGS
 70
     8
  9
$ATTDIA
 70
     0
  9
$ATTREQ
 70
     1
  9
$HANDLING
 70
     1
  9
$HANDSEED
  5
574
  9
$SURFTAB1
 70
     6
  9
$SURFTAB2
 70
     6
  9
$SURFTYPE
 70
     6
  9
$SURFU
 70
     6
  9
$SURFV
 70
     6
  9
$UCSNAME
  2

  9
$UCSORG
 10
0.0
 20
0.0
 30
0.0
  9
$UCSXDIR
 10
1.0
 20
0.0
 30
0.0
  9
$UCSYDIR
 10
0.0
 20
1.0
 30
0.0
  9
$USERI1
 70
     0
  9
$USERI2
 70
     0
  9
$USERI3
 70
     0
  9
$USERI4
 70
     0
  9
$USERI5
 70
     0
  9
$USERR1
 40
0.0
  9
$USERR2
 40
0.0
  9
$USERR3
 40
0.0
  9
$USERR4
 40
0.0
  9
$USERR5
 40
0.0
  9
$WORLDVIEW
 70
     1
  0
ENDSEC
  0
SECTION
  2
TABLES
  0
TABLE
  2
VPORT
 70
     1
  0
VPORT
  2
*ACTIVE
 70
     0
 10
0.0
 20
0.0
 11
1.0
 21
1.0
 12
5.123370281123268
 22
5.350106892821493
 13
0.0
 23
0.0
 14
0.5
 24
0.5
 15
0.5
 25
0.5
 16
0.0
 26
0.0
 36
1.0
 17
0.0
 27
0.0
 37
0.0
 40
11.89375743355047
 41
1.972972972850329
 42
50.0
 43
0.0
 44
0.0
 50
0.0
 51
0.0
 71
     0
 72
   100
 73
     1
 74
     3
 75
     0
 76
     0
 77
     0
 78
     0
  0
ENDTAB
  0
TABLE
  2
LTYPE
 70
     8
  0
LTYPE
  2
CONTINUOUS
 70
     0
  3
Solid line
 72
    65
 73
     0
 40
0.0
  0
LTYPE
  2
HIDDEN
 70
     0
  3
 _ _ _ _ _ _ _ _ _ _ _
 72
    65
 73
     2
 40
0.375
 49
0.25
 49
-0.125
  0
LTYPE
  2
DASHED
 70
     0
  3
 ___ ___ ___ ___ ___ ___ ___ 
 72
    65
 73
     2
 40
0.75
 49
0.5
 49
-0.25
  0
LTYPE
  2
CENTER
 70
     0
  3
___ _ ___ _ ___ _ ___
 72
    65
 73
     4
 40
2.0
 49
1.25
 49
-0.25
 49
0.25
 49
-0.25
  0
LTYPE
  2
BORDER
 70
     0
  3
___ ___ . ___ ___ . ___ ___
 72
    65
 73
     6
 40
1.75
 49
0.5
 49
-0.25
 49
0.5
 49
-0.25
 49
0.0
 49
-0.25
  0
LTYPE
  2
DOT
 70
     0
  3
.................
 72
    65
 73
     2
 40
0.25
 49
0.0
 49
-0.25
  0
LTYPE
  2
DASHDOT
 70
     0
  3
__ . __ . __ . __
 72
    65
 73
     4
 40
1.0
 49
0.5
 49
-0.25
 49
0.0
 49
-0.25
  0
LTYPE
  2
DIVIDE
 70
     0
  3
___ .. ___ .. ___ .. ___
 72
    65
 73
     6
 40
1.25
 49
0.5
 49
-0.25
 49
0.0
 49
-0.25
 49
0.0
 49
-0.25
  0
ENDTAB
  0
TABLE
  2
LAYER
 70
    12
  0
LAYER
  2
0
 70
     0
 62
     7
  6
CONTINUOUS
  0
LAYER
  2
BLACK
 70
     0
 62
     1
  6
CONTINUOUS
  0
LAYER
  2
WHITE
 70
     0
 62
     7
  6
CONTINUOUS
  0
LAYER
  2
RED
 70
     0
 62
     1
  6
CONTINUOUS
  0
LAYER
  2
YELLOW
 70
     0
 62
     2
  6
CONTINUOUS
  0
LAYER
  2
GREEN
 70
     0
 62
     3
  6
CONTINUOUS
  0
LAYER
  2
CYAN
 70
     0
 62
     4
  6
CONTINUOUS
  0
LAYER
  2
BLUE
 70
     0
 62
     5
  6
CONTINUOUS
  0
LAYER
  2
MAGENTA
 70
     0
 62
     6
  6
CONTINUOUS
  0
LAYER
  2
1
 70
     0
 62
     7
  6
CONTINUOUS
  0
LAYER
  2
2
 70
     0
 62
     7
  6
CONTINUOUS
  0
LAYER
  2
3
 70
     0
 62
     7
  6
CONTINUOUS
  0
ENDTAB
  0
TABLE
  2
STYLE
 70
     1
  0
STYLE
  2
STANDARD
 70
     0
 40
0.0
 41
1.0
 50
0.0
 71
     0
 42
0.2
  3
txt
  4

  0
ENDTAB
  0
TABLE
  2
VIEW
 70
     0
  0
ENDTAB
  0
TABLE
  2
UCS
 70
     0
  0
ENDTAB
  0
ENDSEC
  0
SECTION
  2
BLOCKS
  0
ENDSEC
  0
SECTION
  2
ENTITIES
  0
CIRCLE
  5
335
  8
1
  6
CONTINUOUS
 62
     1
 10
5.012937433325416
 20
10.32470587524107
 30
0.0
 40
0.1047746962047915
  0
ARC
  5
336
  8
1
  6
BYBLOCK
 62
     1
 10
4.008150687805716
 20
5.394731527916345
 30
0.0
 40
1.377103732100997
 50
347.2132815408251
 51
53.5288110988844
  0
ARC
  5
337
  8
1
  6
BYBLOCK
 62
     1
 10
0.0201560950231177
 20
6.034730772330079
 30
0.0
 40
4.829243135618857
 50
350.3049387777311
 51
5.554167617158876
  0
ARC
  5
338
  8
1
  6
CONTINUOUS
 62
     1
 10
5.022130009627938
 20
4.940172478768551
 30
0.0
 40
2.098545133344522
 50
322.0107718850335
 51
200.0796316285476
  0
ARC
  5
339
  8
1
  6
BYBLOCK
 62
     1
 10
1.624422057062306
 20
7.077563561889524
 30
0.0
 40
4.223596764516472
 50
331.926881916078
 51
353.3650688113994
  0
ARC
  5
33A
  8
1
  6
BYBLOCK
 62
     1
 10
5.075634992429
 20
5.631933534070009
 30
0.0
 40
1.212733738964449
 50
309.7419472711926
 51
52.15195562235434
  0
ARC
  5
33B
  8
1
  6
BYBLOCK
 62
     1
 10
5.256165123254624
 20
4.278902093315265
 30
0.0
 40
0.7284472633241456
 50
358.9154630655833
 51
35.25984363023781
  0
LINE
  5
33C
  8
1
  6
BYBLOCK
 62
     1
 10
5.984481890163515
 20
4.265114327585588
 30
0.0
 11
6.686640313684977
 21
3.810821514521259
 31
0.0
  0
ARC
  5
33D
  8
1
  6
BYBLOCK
 62
     1
 10
6.4467949268491
 20
3.781058094603958
 30
0.0
 40
0.2648239676232087
 50
301.7957305768963
 51
329.960994037041
  0
LINE
  5
33E
  8
1
  6
BYBLOCK
 62
     1
 10
5.760644466330126
 20
4.097910468818478
 30
0.0
 11
6.059284020606688
 21
3.242998249060836
 31
0.0
  0
ARC
  5
33F
  8
1
  6
BYBLOCK
 62
     1
 10
5.055768556927125
 20
4.987388678227924
 30
0.0
 40
2.109445940061698
 50
209.1356292311401
 51
308.6118504645426
  0
LINE
  5
340
  8
1
  6
BYBLOCK
 62
     1
 10
3.797098945745483
 20
4.233925292810862
 30
0.0
 11
3.213231596955349
 21
3.960344509177369
 31
0.0
  0
LINE
  5
341
  8
1
  6
BYBLOCK
 62
     1
 10
3.389637715129482
 20
4.759681719412153
 30
0.0
 11
3.051142083774375
 21
4.219687730266926
 31
0.0
  0
ARC
  5
342
  8
1
  6
BYBLOCK
 62
     1
 10
3.485994861081596
 20
4.880848727224374
 30
0.0
 40
0.1548100234422949
 50
54.02354157659154
 51
231.506790460259
  0
ARC
  5
343
  8
1
  6
BYBLOCK
 62
     1
 10
3.068942933988617
 20
4.258348744443059
 30
0.0
 40
0.9040112326764922
 50
33.43084502376563
 51
55.81028157339613
  0
LINE
  5
344
  8
1
  6
BYBLOCK
 62
     1
 10
4.188130288030194
 20
5.209860659689507
 30
0.0
 11
3.823386767075549
 21
4.756395741745894
 31
0.0
  0
ARC
  5
345
  8
1
  6
BYBLOCK
 62
     1
 10
4.420510952950289
 20
5.313434625703116
 30
0.0
 40
0.254417648492578
 50
355.1650725816746
 51
204.0229245183631
  0
ARC
  5
346
  8
1
  6
BYBLOCK
 62
     1
 10
5.717035779936722
 20
5.272331699957464
 30
0.0
 40
1.175230592555764
 50
195.9180388055034
 51
272.1265336641675
  0
LINE
  5
347
  8
1
  6
BYBLOCK
 62
     1
 10
4.303929005212293
 20
5.074288435683404
 30
0.0
 11
3.889106320400709
 21
4.674246300089441
 31
0.0
  0
ARC
  5
348
  8
1
  6
BYBLOCK
 62
     1
 10
3.926305731738567
 20
4.30105849090606
 30
0.0
 40
0.1456065240061429
 50
207.4554638580507
 51
23.35997235984538
  0
ARC
  5
349
  8
1
  6
BYBLOCK
 62
     1
 10
3.457025631753758
 20
4.236198146958816
 30
0.0
 40
0.6152884737769564
 50
11.49292099312626
 51
45.39293625560137
  0
ARC
  5
34A
  8
1
  6
BYBLOCK
 62
     1
 10
4.437442468600914
 20
5.286817929127269
 30
0.0
 40
0.2509873114114148
 50
237.8624908881548
 51
273.0685989507644
  0
ARC
  5
34B
  8
1
  6
BYBLOCK
 62
     1
 10
4.487416670948837
 20
4.943461445454436
 30
0.0
 40
0.0996681270642481
 50
3.767604921584275
 51
111.5061604215278
  0
ARC
  5
34C
  8
1
  6
BYBLOCK
 62
     1
 10
4.825487819384554
 20
5.404978893280933
 30
0.0
 40
0.1889650076176114
 50
216.7218205341321
 51
256.2045532726145
  0
ARC
  5
34D
  8
1
  6
BYBLOCK
 62
     1
 10
6.156493021991669
 20
3.87233144252989
 30
0.0
 40
0.5337036838296852
 50
323.6472207525441
 51
353.3818926133291
  0
ARC
  5
34F
  8
2
  6
CONTINUOUS
 62
     6
 10
2.227507733672328
 20
1.621413535664865
 30
0.0
 40
0.0609974576274261
 50
0.8075289999997854
 51
97.5730289999998
  0
ARC
  5
350
  8
2
  6
CONTINUOUS
 62
     6
 10
2.650600784349288
 20
8.612642789545058
 30
0.0
 40
0.0609974576274261
 50
255.2951689999996
 51
352.8498719999996
  0
ARC
  5
351
  8
2
  6
CONTINUOUS
 62
     6
 10
2.506050364762872
 20
1.955329432873077
 30
0.0
 40
0.0548977118646838
 50
0.807528999999896
 51
97.5730289999999
  0
ARC
  5
352
  8
2
  6
CONTINUOUS
 62
     6
 10
2.181969742805808
 20
7.661205575055013
 30
0.0
 40
0.0548977118646832
 50
268.2324909999999
 51
4.204853999999899
  0
ARC
  5
353
  8
2
  6
CONTINUOUS
 62
     6
 10
2.743827491254968
 20
7.702514408859365
 30
0.0
 40
0.5084759363647727
 50
75.29516900000002
 51
184.204854
  0
ARC
  5
354
  8
2
  6
CONTINUOUS
 62
     6
 10
2.88683490107992
 20
8.247435196573976
 30
0.0
 40
0.0548977118646838
 50
255.2951700000006
 51
352.8498730000005
  0
ARC
  5
355
  8
2
  6
CONTINUOUS
 62
     6
 10
3.413419175282198
 20
8.18137833871112
 30
0.0
 40
0.4758140569703842
 50
59.991846
 51
172.849872
  0
ARC
  5
356
  8
2
  6
CONTINUOUS
 62
     6
 10
3.678840575487554
 20
8.640950128214378
 30
0.0
 40
0.0548977118646837
 50
239.9918459999996
 51
337.6487179999996
  0
ARC
  5
357
  8
2
  6
CONTINUOUS
 62
     6
 10
4.208571866670388
 20
1.531909932839556
 30
0.0
 40
0.0494079406782151
 50
28.04278499999992
 51
124.4711789999999
  0
ARC
  5
358
  8
2
  6
CONTINUOUS
 62
     6
 10
3.421374825172383
 20
1.818289607652675
 30
0.0
 40
0.0494079406782152
 50
15.54633100000009
 51
112.4745280000001
  0
ARC
  5
359
  8
2
  6
CONTINUOUS
 62
     6
 10
3.23755446828194
 20
2.262630106069856
 30
0.0
 40
0.4314553502846612
 50
180.8075300000001
 51
292.4745270000001
  0
ARC
  5
35A
  8
2
  6
CONTINUOUS
 62
     6
 10
2.756739749368656
 20
2.255853740360468
 30
0.0
 40
0.0494079406782151
 50
0.8075300000003034
 51
97.5730300000003
  0
ARC
  5
35B
  8
2
  6
CONTINUOUS
 62
     6
 10
2.689259617494492
 20
2.763413585278281
 30
0.0
 40
0.4626182736369838
 50
168.909432
 51
277.57303
  0
ARC
  5
35C
  8
2
  6
CONTINUOUS
 62
     6
 10
2.186795319453666
 20
2.861907535608345
 30
0.0
 40
0.0494079406782153
 50
348.9094319999995
 51
83.90553099999953
  0
ARC
  5
35D
  8
2
  6
CONTINUOUS
 62
     6
 10
2.465066850732534
 20
7.391141590574682
 30
0.0
 40
0.049407940678215
 50
268.2324909999997
 51
4.204853999999695
  0
ARC
  5
35E
  8
2
  6
CONTINUOUS
 62
     6
 10
2.970739163211543
 20
7.428319540998597
 30
0.0
 40
0.4576289075195704
 50
75.29516900000003
 51
184.204854
  0
ARC
  5
35F
  8
2
  6
CONTINUOUS
 62
     6
 10
3.09944492838796
 20
7.918749266566042
 30
0.0
 40
0.0494079406782147
 50
255.2951699999999
 51
352.8498719999997
  0
ARC
  5
360
  8
2
  6
CONTINUOUS
 62
     6
 10
3.57337145291954
 20
7.859297077865177
 30
0.0
 40
0.428232651273345
 50
59.99184600000005
 51
172.849872
  0
ARC
  5
361
  8
2
  6
CONTINUOUS
 62
     6
 10
3.812249922396576
 20
8.272911801376365
 30
0.0
 40
0.0494079406782164
 50
239.9918450000002
 51
337.6487190000003
  0
ARC
  5
362
  8
2
  6
CONTINUOUS
 62
     6
 10
4.278307774894217
 20
8.081280381161964
 30
0.0
 40
0.4545090005201818
 50
48.498464
 51
157.648719
  0
ARC
  5
363
  8
2
  6
CONTINUOUS
 62
     6
 10
4.612222542519881
 20
8.458682947328336
 30
0.0
 40
0.0494079406782147
 50
228.4984650000002
 51
324.2198690000001
  0
ARC
  5
364
  8
2
  6
CONTINUOUS
 62
     6
 10
5.050276998268918
 20
8.133915425178978
 30
0.0
 40
0.4959097963640932
 50
106.6372302309665
 51
143.3702673687678
  0
ARC
  5
365
  8
2
  6
CONTINUOUS
 62
     6
 10
4.679264885037569
 20
2.081995537932769
 30
0.0
 40
0.3973933179196769
 50
207.9591928067439
 51
299.3367882834993
  0
ARC
  5
366
  8
2
  6
CONTINUOUS
 62
     6
 10
4.289008310377636
 20
1.874775512580769
 30
0.0
 40
0.0444671466103939
 50
28.04278399999983
 51
124.4711799999998
  0
ARC
  5
367
  8
2
  6
CONTINUOUS
 62
     6
 10
4.026819775426533
 20
2.256672687708244
 30
0.0
 40
0.4187690086807055
 50
195.546332
 51
304.47118
  0
ARC
  5
368
  8
2
  6
CONTINUOUS
 62
     6
 10
3.58053187669547
 20
2.132516881037812
 30
0.0
 40
0.0444671466103942
 50
15.54633199999956
 51
112.4745269999995
  0
ARC
  5
369
  8
2
  6
CONTINUOUS
 62
     6
 10
3.415093216619307
 20
2.532424120321059
 30
0.0
 40
0.3883098152561952
 50
180.80753
 51
292.474527
  0
ARC
  5
36A
  8
2
  6
CONTINUOUS
 62
     6
 10
2.982359178889567
 20
2.526325504140865
 30
0.0
 40
0.0444671466103933
 50
0.8075299999996224
 51
97.57302999999963
  0
ARC
  5
36B
  8
2
  6
CONTINUOUS
 62
     6
 10
2.921627173161075
 20
2.983128686817367
 30
0.0
 40
0.4163562203567761
 50
168.909432
 51
277.57303
  0
ARC
  5
36C
  8
2
  6
CONTINUOUS
 62
     6
 10
2.469410095632115
 20
3.071773806905699
 30
0.0
 40
0.0444671466103939
 50
348.9094309999999
 51
83.90553099999988
  0
ARC
  5
36D
  8
2
  6
CONTINUOUS
 62
     6
 10
2.519005547013408
 20
3.536279612981487
 30
0.0
 40
0.4226796234641521
 50
155.8051809999999
 51
263.9055299999999
  0
ARC
  5
36E
  8
2
  6
CONTINUOUS
 62
     6
 10
2.092895381348987
 20
3.727734818318297
 30
0.0
 40
0.0444671466103935
 50
335.80518
 51
72.28247299999991
  0
ARC
  5
36F
  8
2
  6
CONTINUOUS
 62
     6
 10
2.275690077285251
 20
6.557953595608146
 30
0.0
 40
0.0444671466103941
 50
281.7682770000002
 51
17.83345100000025
  0
ARC
  5
370
  8
2
  6
CONTINUOUS
 62
     6
 10
2.705914182591877
 20
6.696360215712422
 30
0.0
 40
0.4074720536115958
 50
88.23249100000002
 51
197.8334520000001
  0
ARC
  5
371
  8
2
  6
CONTINUOUS
 62
     6
 10
2.719854360824841
 20
7.148084795250166
 30
0.0
 40
0.044467146610394
 50
268.2324909999999
 51
4.204853999999848
  0
ARC
  5
372
  8
2
  6
CONTINUOUS
 62
     6
 10
3.174958651348165
 20
7.181544159923907
 30
0.0
 40
0.4118661297258678
 50
75.29516899999997
 51
184.204854
  0
ARC
  5
373
  8
2
  6
CONTINUOUS
 62
     6
 10
3.290793952965196
 20
7.622930799976353
 30
0.0
 40
0.0444671466103945
 50
255.2951690000002
 51
352.8498730000001
  0
ARC
  5
374
  8
2
  6
CONTINUOUS
 62
     6
 10
3.717327712085363
 20
7.569424733811612
 30
0.0
 40
0.385409047271247
 50
59.99184600000008
 51
172.8498720000001
  0
ARC
  5
375
  8
2
  6
CONTINUOUS
 62
     6
 10
3.932318899405969
 20
7.941677533138662
 30
0.0
 40
0.044467146610394
 50
239.9918450000008
 51
337.6487190000007
  0
ARC
  5
376
  8
2
  6
CONTINUOUS
 62
     6
 10
4.351770175946062
 20
7.769209480862211
 30
0.0
 40
0.4090579875099097
 50
48.49846399999998
 51
157.6487190000001
  0
ARC
  5
377
  8
2
  6
CONTINUOUS
 62
     6
 10
4.652294483433452
 20
8.108871564495436
 30
0.0
 40
0.0444671466103928
 50
228.4984639999986
 51
324.2198699999986
  0
ARC
  5
378
  8
2
  6
CONTINUOUS
 62
     6
 10
4.921896517166252
 20
7.950864455089799
 30
0.0
 40
0.2682556409069498
 50
94.60256320928707
 51
150.521373099456
  0
ARC
  5
379
  8
2
  6
CONTINUOUS
 62
     6
 10
4.704583635076018
 20
2.358703806116184
 30
0.0
 40
0.3453711091807324
 50
206.9513721669557
 51
299.3689790326712
  0
ARC
  5
37A
  8
2
  6
CONTINUOUS
 62
     6
 10
4.361400996755904
 20
2.183354873222626
 30
0.0
 40
0.0400199801163351
 50
28.04278499999966
 51
124.4711799999996
  0
ARC
  5
37B
  8
2
  6
CONTINUOUS
 62
     6
 10
4.125432331924205
 20
2.527061991962589
 30
0.0
 40
0.37689199485438
 50
195.546332
 51
304.47118
  0
ARC
  5
37C
  8
2
  6
CONTINUOUS
 62
     6
 10
3.723771980525445
 20
2.415322556666985
 30
0.0
 40
0.0400199801163355
 50
15.54633200000051
 51
112.4745280000005
  0
ARC
  5
37D
  8
2
  6
CONTINUOUS
 62
     6
 10
3.574877186456898
 20
2.775239184980161
 30
0.0
 40
0.3494781559810459
 50
180.80753
 51
292.474527
  0
ARC
  5
37E
  8
2
  6
CONTINUOUS
 62
     6
 10
3.185417456166171
 20
2.769749413793693
 30
0.0
 40
0.0400199801163354
 50
0.8075290000002912
 51
97.5730300000003
  0
ARC
  5
37F
  8
2
  6
CONTINUOUS
 62
     6
 10
3.130758086219254
 20
3.180873407785094
 30
0.0
 40
0.3747209371958629
 50
168.9094320000001
 51
277.5730300000001
  0
ARC
  5
380
  8
2
  6
CONTINUOUS
 62
     6
 10
2.723762716443191
 20
3.260652434449024
 30
0.0
 40
0.0400199801163349
 50
348.9094309999988
 51
83.90552999999889
  0
ARC
  5
381
  8
2
  6
CONTINUOUS
 62
     6
 10
2.768399300435883
 20
3.678708676541527
 30
0.0
 40
0.3804117740759916
 50
155.805181
 51
263.905531
  0
ARC
  5
382
  8
2
  6
CONTINUOUS
 62
     6
 10
2.384899247671865
 20
3.851018587261165
 30
0.0
 40
0.0400199801163353
 50
335.8051799999997
 51
72.2824739999998
  0
ARC
  5
383
  8
2
  6
CONTINUOUS
 62
     6
 10
2.504578518701973
 20
4.225627695784712
 30
0.0
 40
0.3532419250331679
 50
140.5311550000002
 51
252.282474
  0
ARC
  5
384
  8
2
  6
CONTINUOUS
 62
     6
 10
2.200991912925176
 20
4.475607702549939
 30
0.0
 40
0.0400199801163351
 50
320.5311549999998
 51
57.80336599999969
  0
ARC
  5
385
  8
2
  6
CONTINUOUS
 62
     6
 10
2.417627772436625
 20
4.819664991879985
 30
0.0
 40
0.3665585736992742
 50
128.27219
 51
237.8033670000001
  0
ARC
  5
386
  8
2
  6
CONTINUOUS
 62
     6
 10
2.165794120709053
 20
5.138861298896661
 30
0.0
 40
0.0400199801163347
 50
308.2721900000003
 51
44.77058400000023
  0
ARC
  5
387
  8
2
  6
CONTINUOUS
 62
     6
 10
2.452049541441821
 20
5.422833833298593
 30
0.0
 40
0.3631958064519249
 50
114.7333020000001
 51
224.7705830000001
  0
ARC
  5
388
  8
2
  6
CONTINUOUS
 62
     6
 10
2.283346387800042
 20
5.789061439311112
 30
0.0
 40
0.0400199801163343
 50
294.733302
 51
31.04183899999992
  0
ARC
  5
389
  8
2
  6
CONTINUOUS
 62
     6
 10
2.632538759396278
 20
5.999223661236213
 30
0.0
 40
0.3675379217689587
 50
101.768277
 51
211.041839
  0
ARC
  5
38A
  8
2
  6
CONTINUOUS
 62
     6
 10
2.549415038805777
 20
6.3982148090725
 30
0.0
 40
0.0400199801163341
 50
281.7682779999999
 51
17.83345099999989
  0
ARC
  5
38B
  8
2
  6
CONTINUOUS
 62
     6
 10
2.936616733581741
 20
6.522781783790642
 30
0.0
 40
0.3667246223339271
 50
88.23249100000004
 51
197.833452
  0
ARC
  5
38C
  8
2
  6
CONTINUOUS
 62
     6
 10
2.949161877367115
 20
6.929333227625083
 30
0.0
 40
0.0400199801163341
 50
268.2324929999994
 51
4.204853999999441
  0
ARC
  5
38D
  8
2
  6
CONTINUOUS
 62
     6
 10
3.358756416587635
 20
6.959446768789705
 30
0.0
 40
0.3706792908367713
 50
75.29516900000006
 51
184.204854
  0
ARC
  5
38E
  8
2
  6
CONTINUOUS
 62
     6
 10
3.463008978750747
 20
7.356694970753415
 30
0.0
 40
0.0400199801163347
 50
255.2951690000007
 51
352.8498730000007
  0
ARC
  5
38F
  8
2
  6
CONTINUOUS
 62
     6
 10
3.846888571251113
 20
7.308538607539113
 30
0.0
 40
0.3468688202936506
 50
59.99184600000005
 51
172.849872
  0
ARC
  5
390
  8
2
  6
CONTINUOUS
 62
     6
 10
4.04038041392315
 20
7.64356714355775
 30
0.0
 40
0.0400199801163353
 50
239.9918469999993
 51
337.6487199999993
  0
ARC
  5
391
  8
2
  6
CONTINUOUS
 62
     6
 10
4.417886901683998
 20
7.48834555763418
 30
0.0
 40
0.3681524146754273
 50
48.49846399999991
 51
157.648719
  0
ARC
  5
392
  8
2
  6
CONTINUOUS
 62
     6
 10
4.688358665464395
 20
7.794041094029318
 30
0.0
 40
0.0400199801163355
 50
228.4984639999998
 51
324.2198699999999
  0
ARC
  5
393
  8
2
  6
CONTINUOUS
 62
     6
 10
4.92298641669103
 20
7.657253805413113
 30
0.0
 40
0.2317877380765738
 50
94.94378407412715
 51
150.7126518464331
  0
ARC
  5
394
  8
2
  6
CONTINUOUS
 62
     6
 10
4.737564272127315
 20
2.621962602024777
 30
0.0
 40
0.3141432972295193
 50
207.2735272694937
 51
296.2701307905343
  0
ARC
  5
395
  8
2
  6
CONTINUOUS
 62
     6
 10
4.426555318162384
 20
2.461076297800298
 30
0.0
 40
0.0360178691464468
 50
28.04278799999989
 51
124.4711779999998
  0
ARC
  5
396
  8
2
  6
CONTINUOUS
 62
     6
 10
4.214182503189562
 20
2.770413608332303
 30
0.0
 40
0.3392034731184704
 50
195.5463319999998
 51
304.4711799999999
  0
ARC
  5
397
  8
2
  6
CONTINUOUS
 62
     6
 10
3.852688977638462
 20
2.669846874025455
 30
0.0
 40
0.0360178691464461
 50
15.54633200000043
 51
112.4745260000005
  0
ARC
  5
398
  8
2
  6
CONTINUOUS
 62
     6
 10
3.71868321114375
 20
2.993771613590805
 30
0.0
 40
0.3145311310907262
 50
180.80753
 51
292.474527
  0
ARC
  5
399
  8
2
  6
CONTINUOUS
 62
     6
 10
3.368169227965586
 20
2.988830819522983
 30
0.0
 40
0.0360178691464458
 50
0.8075310000002724
 51
97.57303000000029
  0
ARC
  5
39A
  8
2
  6
CONTINUOUS
 62
     6
 10
3.318975907971615
 20
3.358842527073499
 30
0.0
 40
0.3372481657267473
 50
168.909432
 51
277.57303
  0
ARC
  5
39B
  8
2
  6
CONTINUOUS
 62
     6
 10
2.952680527006178
 20
3.43064444177882
 30
0.0
 40
0.0360178691464466
 50
348.9094319999991
 51
83.9055319999992
  0
ARC
  5
39C
  8
2
  6
CONTINUOUS
 62
     6
 10
2.992853000766581
 20
3.806894833745563
 30
0.0
 40
0.3423708225849023
 50
155.8051810000001
 51
263.9055300000001
  0
ARC
  5
39D
  8
2
  6
CONTINUOUS
 62
     6
 10
2.647703405111985
 20
3.961974092268002
 30
0.0
 40
0.0360178691464469
 50
335.8051820000002
 51
72.28247300000027
  0
ARC
  5
39E
  8
2
  6
CONTINUOUS
 62
     6
 10
2.755414749039082
 20
4.299121725147919
 30
0.0
 40
0.3179176195715971
 50
140.531155
 51
252.2824730000001
  0
ARC
  5
39F
  8
2
  6
CONTINUOUS
 62
     6
 10
2.482186803839964
 20
4.524104070111387
 30
0.0
 40
0.0360178691464463
 50
320.5311540000005
 51
57.80336800000041
  0
ARC
  5
3A0
  8
2
  6
CONTINUOUS
 62
     6
 10
2.677159529233288
 20
4.833755404591921
 30
0.0
 40
0.3299024904128375
 50
128.27219
 51
237.8033670000001
  0
ARC
  5
3A1
  8
2
  6
CONTINUOUS
 62
     6
 10
2.450507661262906
 20
5.121031967948673
 30
0.0
 40
0.0360178691464461
 50
308.2721899999997
 51
44.77058399999973
  0
ARC
  5
3A2
  8
2
  6
CONTINUOUS
 62
     6
 10
2.708138330630181
 20
5.376607926659943
 30
0.0
 40
0.3268763387649871
 50
114.733302
 51
224.770583
  0
ARC
  5
3A3
  8
2
  6
CONTINUOUS
 62
     6
 10
2.556305492352579
 20
5.706212207279935
 30
0.0
 40
0.0360178691464471
 50
294.7333039999995
 51
31.04183799999948
  0
ARC
  5
3A4
  8
2
  6
CONTINUOUS
 62
     6
 10
2.870577949039662
 20
5.895358545887292
 30
0.0
 40
0.3307835648007878
 50
101.768277
 51
211.041838
  0
ARC
  5
3A5
  8
2
  6
CONTINUOUS
 62
     6
 10
2.79576795600727
 20
6.254450578939949
 30
0.0
 40
0.0360178691464469
 50
281.7682760000008
 51
17.83345200000073
  0
ARC
  5
3A6
  8
2
  6
CONTINUOUS
 62
     6
 10
3.144248690597853
 20
6.366560517311513
 30
0.0
 40
0.3300527248918081
 50
88.23249200000001
 51
197.833451
  0
ARC
  5
3A7
  8
2
  6
CONTINUOUS
 62
     6
 10
3.155539997754219
 20
6.732457155637274
 30
0.0
 40
0.0360178691464458
 50
268.2324919999999
 51
4.20485399999995
  0
ARC
  5
3A8
  8
2
  6
CONTINUOUS
 62
     6
 10
3.524174744177923
 20
6.759559229727178
 30
0.0
 40
0.3336109099200746
 50
75.29516900000004
 51
184.204854
  0
ARC
  5
3A9
  8
2
  6
CONTINUOUS
 62
     6
 10
3.61800125941694
 20
7.117082272619753
 30
0.0
 40
0.0360178691464473
 50
255.295169
 51
352.8498730000001
  0
ARC
  5
3AA
  8
2
  6
CONTINUOUS
 62
     6
 10
3.963493118583779
 20
7.073741319810368
 30
0.0
 40
0.3121815993895213
 50
59.99184600000011
 51
172.8498720000001
  0
ARC
  5
3AB
  8
2
  6
CONTINUOUS
 62
     6
 10
4.137636341779886
 20
7.375267567018418
 30
0.0
 40
0.0360178691464457
 50
239.9918450000014
 51
337.6487180000013
  0
ARC
  5
3AC
  8
2
  6
CONTINUOUS
 62
     6
 10
4.47739218076465
 20
7.235567574895931
 30
0.0
 40
0.3313370602496302
 50
48.49846399999994
 51
157.648719
  0
ARC
  5
3AD
  8
2
  6
CONTINUOUS
 62
     6
 10
4.720816090417477
 20
7.51069434835934
 30
0.0
 40
0.0360178691464457
 50
228.4984650000009
 51
324.2198690000009
  0
ARC
  5
3AE
  8
2
  6
CONTINUOUS
 62
     6
 10
4.923221749266141
 20
7.397133889163844
 30
0.0
 40
0.1963403629012181
 50
95.90823724721034
 51
151.8925292081393
  0
ARC
  5
3AF
  8
2
  6
CONTINUOUS
 62
     6
 10
4.939165138605083
 20
7.144004555438989
 30
0.0
 40
0.1873872668302613
 50
100.3024631435658
 51
150.3418515807842
  0
ARC
  5
3B0
  8
2
  6
CONTINUOUS
 62
     6
 10
4.750028224708272
 20
7.255682051339849
 30
0.0
 40
0.0324167599813319
 50
228.4984639999992
 51
324.2198709999993
  0
ARC
  5
3B1
  8
2
  6
CONTINUOUS
 62
     6
 10
4.530946818978982
 20
7.008067390431507
 30
0.0
 40
0.2982030153499019
 50
48.49846399999988
 51
157.648719
  0
ARC
  5
3B2
  8
2
  6
CONTINUOUS
 62
     6
 10
4.225166563892694
 20
7.133797835174765
 30
0.0
 40
0.0324167599813316
 50
239.9918449999977
 51
337.6487189999977
  0
ARC
  5
3B3
  8
2
  6
CONTINUOUS
 62
     6
 10
4.068438114849216
 20
6.862424664520541
 30
0.0
 40
0.2809633264923131
 50
59.99184600000003
 51
172.8498720000001
  0
ARC
  5
3B4
  8
2
  6
CONTINUOUS
 62
     6
 10
3.757494537933023
 20
6.901431409090731
 30
0.0
 40
0.0324167599813304
 50
255.2951709999998
 51
352.8498719999997
  0
ARC
  5
3B5
  8
2
  6
CONTINUOUS
 62
     6
 10
3.673051464925692
 20
6.57965965386312
 30
0.0
 40
0.300249818928067
 50
75.29516900000004
 51
184.204854
  0
ARC
  5
3B6
  8
2
  6
CONTINUOUS
 62
     6
 10
3.341279515394829
 20
6.555268577889991
 30
0.0
 40
0.0324167599813318
 50
268.2324910000002
 51
4.204854000000154
  0
ARC
  5
3B7
  8
2
  6
CONTINUOUS
 62
     6
 10
3.331117790787119
 20
6.225961377480295
 30
0.0
 40
0.2970474524026287
 50
88.23249199999994
 51
197.833452
  0
ARC
  5
3B8
  8
2
  6
CONTINUOUS
 62
     6
 10
3.017484677822575
 20
6.125062545904143
 30
0.0
 40
0.0324167599813317
 50
281.7682780000006
 51
17.8334510000006
  0
ARC
  5
3B9
  8
2
  6
CONTINUOUS
 62
     6
 10
3.084814575217767
 20
5.801879942073261
 30
0.0
 40
0.2977048694459448
 50
101.7682770000002
 51
211.0418390000002
  0
ARC
  5
3BA
  8
2
  6
CONTINUOUS
 62
     6
 10
2.801968234616843
 20
5.631647333660601
 30
0.0
 40
0.032416759981331
 50
294.7333029999998
 51
31.04183699999981
  0
ARC
  5
3BB
  8
2
  6
CONTINUOUS
 62
     6
 10
2.938618353857959
 20
5.335003142227843
 30
0.0
 40
0.2941884789719789
 50
114.7333019999999
 51
224.770583
  0
ARC
  5
3BC
  8
2
  6
CONTINUOUS
 62
     6
 10
2.706751203260431
 20
5.104985118262466
 30
0.0
 40
0.0324167599813312
 50
308.2721910000002
 51
44.77058200000018
  0
ARC
  5
3BD
  8
2
  6
CONTINUOUS
 62
     6
 10
2.910736867809482
 20
4.846437227865682
 30
0.0
 40
0.2969119024967882
 50
128.2721900000001
 51
237.8033680000001
  0
ARC
  5
3BE
  8
2
  6
CONTINUOUS
 62
     6
 10
2.735261866788509
 20
4.567750010208908
 30
0.0
 40
0.0324167599813307
 50
320.531156
 51
57.80336699999997
  0
ARC
  5
3BF
  8
2
  6
CONTINUOUS
 62
     6
 10
2.981166339718186
 20
4.365266690449571
 30
0.0
 40
0.286125518739672
 50
140.531155
 51
252.2824739999998
  0
ARC
  5
3C0
  8
2
  6
CONTINUOUS
 62
     6
 10
2.884226694975073
 20
4.061833707899391
 30
0.0
 40
0.0324167599813309
 50
335.8051790000006
 51
72.28247300000058
  0
ARC
  5
3C1
  8
2
  6
CONTINUOUS
 62
     6
 10
3.194861895855484
 20
3.92226248818745
 30
0.0
 40
0.3081331755351378
 50
155.8051809999999
 51
263.9055309999999
  0
ARC
  5
3C2
  8
2
  6
CONTINUOUS
 62
     6
 10
3.158706217638102
 20
3.583637361333892
 30
0.0
 40
0.0324167599813309
 50
348.9094310000006
 51
83.90553100000055
  0
ARC
  5
3C3
  8
2
  6
CONTINUOUS
 62
     6
 10
3.48837262529827
 20
3.519015073307828
 30
0.0
 40
0.3035233491540729
 50
168.909432
 51
277.5730299999999
  0
ARC
  5
3C4
  8
2
  6
CONTINUOUS
 62
     6
 10
3.532645483710295
 20
3.186005101303639
 30
0.0
 40
0.032416759981331
 50
0.807531999999546
 51
97.57302999999955
  0
ARC
  5
3C5
  8
2
  6
CONTINUOUS
 62
     6
 10
3.848108520403661
 20
3.190451138215149
 30
0.0
 40
0.283077905023398
 50
180.8075300000001
 51
292.4745270000001
  0
ARC
  5
3C6
  8
2
  6
CONTINUOUS
 62
     6
 10
3.968714049123667
 20
2.898919437397609
 30
0.0
 40
0.0324167599813311
 50
15.54633199999979
 51
112.4745259999998
  0
ARC
  5
3C7
  8
2
  6
CONTINUOUS
 62
     6
 10
4.294057544370128
 20
2.989428368691222
 30
0.0
 40
0.3052832387648792
 50
195.5463320000001
 51
304.4711800000001
  0
ARC
  5
3C8
  8
2
  6
CONTINUOUS
 62
     6
 10
4.485193077845668
 20
2.711025805836712
 30
0.0
 40
0.0324167599813299
 50
28.0427850000003
 51
124.4711810000003
  0
ARC
  5
3C9
  8
2
  6
CONTINUOUS
 62
     6
 10
4.768358819790055
 20
2.860317581473775
 30
0.0
 40
0.287695300093573
 50
207.771961205052
 51
292.1018292519191
  0
ARC
  5
3CA
  8
2
  6
CONTINUOUS
 62
     6
 10
7.414307936852902
 20
8.586535877680518
 30
0.0
 40
0.0609974576274267
 50
186.6749839999977
 51
283.8469689999978
  0
ARC
  5
3CB
  8
2
  6
CONTINUOUS
 62
     6
 10
7.565347808181347
 20
7.973782528336564
 30
0.0
 40
0.5700969235590584
 50
355.3461789999999
 51
103.8469689999999
  0
ARC
  5
3CC
  8
2
  6
CONTINUOUS
 62
     6
 10
8.194361498313206
 20
7.922578551405985
 30
0.0
 40
0.0609974576274268
 50
175.3461789999991
 51
271.052945999999
  0
ARC
  5
3CD
  8
2
  6
CONTINUOUS
 62
     6
 10
7.792421010442379
 20
1.618613300526747
 30
0.0
 40
0.0609974576274265
 50
82.8387780000001
 51
178.5007730000001
  0
ARC
  5
3CE
  8
2
  6
CONTINUOUS
 62
     6
 10
6.400983153687091
 20
8.619440617322871
 30
0.0
 40
0.0548977118646844
 50
202.5672230000014
 51
299.1436700000014
  0
ARC
  5
3CF
  8
2
  6
CONTINUOUS
 62
     6
 10
6.655366273226979
 20
8.16322368798912
 30
0.0
 40
0.4674483686150369
 50
6.674983000000042
 51
119.1436700000001
  0
ARC
  5
3D0
  8
2
  6
CONTINUOUS
 62
     6
 10
7.174171112416664
 20
8.22393987956193
 30
0.0
 40
0.0548977118646835
 50
186.6749830000001
 51
283.846969
  0
ARC
  5
3D1
  8
2
  6
CONTINUOUS
 62
     6
 10
7.310107335487029
 20
7.672460735569822
 30
0.0
 40
0.5130868923283873
 50
355.3461789999999
 51
103.8469689999999
  0
ARC
  5
3D2
  8
2
  6
CONTINUOUS
 62
     6
 10
7.876219091814427
 20
7.626377156332302
 30
0.0
 40
0.054897711864683
 50
175.3461779999995
 51
271.0529459999995
  0
ARC
  5
3D3
  8
2
  6
CONTINUOUS
 62
     6
 10
8.15834362916676
 20
2.633028130852012
 30
0.0
 40
0.0548977118646833
 50
94.01413100000138
 51
190.3060990000014
  0
ARC
  5
3D4
  8
2
  6
CONTINUOUS
 62
     6
 10
7.586879910723829
 20
2.5291121842884
 30
0.0
 40
0.5259370234018986
 50
262.8387769999999
 51
10.30609999999997
  0
ARC
  5
3D5
  8
2
  6
CONTINUOUS
 62
     6
 10
7.514472539772428
 20
1.952809334207026
 30
0.0
 40
0.0548977118646835
 50
82.83877699999975
 51
178.5007719999998
  0
ARC
  5
3D6
  8
2
  6
CONTINUOUS
 62
     6
 10
5.056942026274689
 20
8.196027890950216
 30
0.0
 40
0.4133710649006422
 50
33.78673135354489
 51
76.8152763561623
  0
ARC
  5
3D7
  8
2
  6
CONTINUOUS
 62
     6
 10
5.440882041048853
 20
8.454373589905213
 30
0.0
 40
0.0494079406782145
 50
215.1842169999997
 51
309.9525979999998
  0
ARC
  5
3D8
  8
2
  6
CONTINUOUS
 62
     6
 10
5.777751796621802
 20
8.052232036340726
 30
0.0
 40
0.4751871386558805
 50
22.56722300000002
 51
129.952598
  0
ARC
  5
3D9
  8
2
  6
CONTINUOUS
 62
     6
 10
6.262178920525686
 20
8.253554145240047
 30
0.0
 40
0.0494079406782155
 50
202.5672220000015
 51
299.1436700000015
  0
ARC
  5
3DA
  8
2
  6
CONTINUOUS
 62
     6
 10
6.491122711487294
 20
7.842957666298868
 30
0.0
 40
0.4207028540040046
 50
6.674982999999787
 51
119.1436699999998
  0
ARC
  5
3DB
  8
2
  6
CONTINUOUS
 62
     6
 10
6.958048083382304
 20
7.897602351672652
 30
0.0
 40
0.0494079406782156
 50
186.6749829999994
 51
283.8469689999994
  0
ARC
  5
3DC
  8
2
  6
CONTINUOUS
 62
     6
 10
7.080389780479591
 20
7.401271686871029
 30
0.0
 40
0.4617789938033333
 50
355.3461789999999
 51
103.8469689999999
  0
ARC
  5
3DD
  8
2
  6
CONTINUOUS
 62
     6
 10
7.589891377798545
 20
7.359796804432024
 30
0.0
 40
0.0494079406782162
 50
175.3461799999989
 51
271.052944999999
  0
ARC
  5
3DE
  8
2
  6
CONTINUOUS
 62
     6
 10
7.599210433824957
 20
6.852740753330911
 30
0.0
 40
0.4577328291140454
 50
341.67729
 51
91.05294599999998
  0
ARC
  5
3DF
  8
2
  6
CONTINUOUS
 62
     6
 10
8.08063964564471
 20
6.693311472413598
 30
0.0
 40
0.0494079406782168
 50
161.6772899999999
 51
259.3300970000001
  0
ARC
  5
3E0
  8
2
  6
CONTINUOUS
 62
     6
 10
8.2417700778803
 20
3.551317745451745
 30
0.0
 40
0.0494079406782154
 50
108.3577100000005
 51
205.7137960000005
  0
ARC
  5
3E1
  8
2
  6
CONTINUOUS
 62
     6
 10
7.810277451371534
 20
3.343526517296271
 30
0.0
 40
0.4295113387184239
 50
274.014131
 51
25.71379599999992
  0
ARC
  5
3E2
  8
2
  6
CONTINUOUS
 62
     6
 10
7.843803461415645
 20
2.865782003750235
 30
0.0
 40
0.0494079406782151
 50
94.01413200000049
 51
190.3060990000004
  0
ARC
  5
3E3
  8
2
  6
CONTINUOUS
 62
     6
 10
7.329486453691771
 20
2.772258216634258
 30
0.0
 40
0.4733425303539243
 50
262.8387769999999
 51
10.30609999999992
  0
ARC
  5
3E4
  8
2
  6
CONTINUOUS
 62
     6
 10
7.264318577294707
 20
2.253585538602767
 30
0.0
 40
0.049407940678215
 50
82.83877700000005
 51
178.5007730000001
  0
ARC
  5
3E5
  8
2
  6
CONTINUOUS
 62
     6
 10
6.766241577872861
 20
2.266620921214257
 30
0.0
 40
0.4488396257084776
 50
247.841335
 51
358.5007729999999
  0
ARC
  5
3E6
  8
2
  6
CONTINUOUS
 62
     6
 10
6.578316318000601
 20
1.805172895097681
 30
0.0
 40
0.0494079406782154
 50
67.84133499999919
 51
164.7539159999992
  0
ARC
  5
3E7
  8
2
  6
CONTINUOUS
 62
     6
 10
5.812611843655875
 20
1.530152302393847
 30
0.0
 40
0.0494079406782149
 50
54.75983600000043
 51
151.6570360000004
  0
ARC
  5
3E8
  8
2
  6
CONTINUOUS
 62
     6
 10
5.113668419176242
 20
7.937694608245423
 30
0.0
 40
0.2856809106786095
 50
29.73077231968765
 51
82.44515541026429
  0
ARC
  5
3E9
  8
2
  6
CONTINUOUS
 62
     6
 10
5.398086676610471
 20
8.104992578023353
 30
0.0
 40
0.0444671466103937
 50
215.1842169999997
 51
309.9525969999997
  0
ARC
  5
3EA
  8
2
  6
CONTINUOUS
 62
     6
 10
5.701270021417398
 20
7.743065292773568
 30
0.0
 40
0.4276678599990181
 50
22.56722299999985
 51
129.9525979999999
  0
ARC
  5
3EB
  8
2
  6
CONTINUOUS
 62
     6
 10
6.137253868139621
 20
7.92425598149074
 30
0.0
 40
0.0444671466103939
 50
202.5672220000008
 51
299.1436700000007
  0
ARC
  5
3EC
  8
2
  6
CONTINUOUS
 62
     6
 10
6.343304409587616
 20
7.554718698610659
 30
0.0
 40
0.3786326815618578
 50
6.674983000000026
 51
119.14367
  0
ARC
  5
3ED
  8
2
  6
CONTINUOUS
 62
     6
 10
6.763537357251379
 20
7.603899593196595
 30
0.0
 40
0.0444671466103944
 50
186.6749829999993
 51
283.8469699999994
  0
ARC
  5
3EE
  8
2
  6
CONTINUOUS
 62
     6
 10
6.873644545764176
 20
7.157201656000368
 30
0.0
 40
0.4156005296317236
 50
355.3461790000001
 51
103.8469690000001
  0
ARC
  5
3EF
  8
2
  6
CONTINUOUS
 62
     6
 10
7.332196322225996
 20
7.119873471097482
 30
0.0
 40
0.0444671466103934
 50
175.3461789999991
 51
271.0529459999992
  0
ARC
  5
3F0
  8
2
  6
CONTINUOUS
 62
     6
 10
7.340583472649769
 20
6.663524380605538
 30
0.0
 40
0.4119598850774059
 50
341.6772900000003
 51
91.05294600000019
  0
ARC
  5
3F1
  8
2
  6
CONTINUOUS
 62
     6
 10
7.773869876245801
 20
6.520038027779957
 30
0.0
 40
0.0444671466103939
 50
161.6772899999995
 51
259.3300969999996
  0
ARC
  5
3F2
  8
2
  6
CONTINUOUS
 62
     6
 10
7.694634178787773
 20
6.099480889924729
 30
0.0
 40
0.3834887569385291
 50
326.6582279999997
 51
79.3300969999997
  0
ARC
  5
3F3
  8
2
  6
CONTINUOUS
 62
     6
 10
8.052150444185056
 20
5.864263397487887
 30
0.0
 40
0.0444671466103938
 50
146.6582290000001
 51
244.1197350000001
  0
ARC
  5
3F4
  8
2
  6
CONTINUOUS
 62
     6
 10
7.852898860097424
 20
5.453559608204587
 30
0.0
 40
0.4120186233699364
 50
315.2904339999999
 51
64.11973499999988
  0
ARC
  5
3F5
  8
2
  6
CONTINUOUS
 62
     6
 10
8.177314968071437
 20
5.132415900874029
 30
0.0
 40
0.0444671466103933
 50
135.2904329999997
 51
231.1675779999998
  0
ARC
  5
3F6
  8
2
  6
CONTINUOUS
 62
     6
 10
7.892699701199319
 20
4.778836230658811
 30
0.0
 40
0.4094318793335143
 50
301.679535
 51
51.16757800000006
  0
ARC
  5
3F7
  8
2
  6
CONTINUOUS
 62
     6
 10
8.131072117694558
 20
4.392569830233136
 30
0.0
 40
0.0444671466103942
 50
121.6795350000015
 51
217.9307040000014
  0
ARC
  5
3F8
  8
2
  6
CONTINUOUS
 62
     6
 10
7.777843747651973
 20
4.117283785630367
 30
0.0
 40
0.4033637618821345
 50
288.3577110000001
 51
37.93070500000005
  0
ARC
  5
3F9
  8
2
  6
CONTINUOUS
 62
     6
 10
7.918886813424812
 20
3.692243334639524
 30
0.0
 40
0.0444671466103943
 50
108.3577110000001
 51
205.7137950000001
  0
ARC
  5
3FA
  8
2
  6
CONTINUOUS
 62
     6
 10
7.530543110692157
 20
3.505230777466578
 30
0.0
 40
0.3865600918883266
 50
274.0141319999997
 51
25.71379599999972
  0
ARC
  5
3FB
  8
2
  6
CONTINUOUS
 62
     6
 10
7.560716519731858
 20
3.0752608282334
 30
0.0
 40
0.0444671466103939
 50
94.01413200000161
 51
190.3061010000016
  0
ARC
  5
3FC
  8
2
  6
CONTINUOUS
 62
     6
 10
7.09783166461339
 20
2.991088855037746
 30
0.0
 40
0.4260085032350413
 50
262.8387769999999
 51
10.30609899999989
  0
ARC
  5
3FD
  8
2
  6
CONTINUOUS
 62
     6
 10
7.039180349939524
 20
2.524283218892895
 30
0.0
 40
0.0444671466103936
 50
82.8387760000006
 51
178.5007730000006
  0
ARC
  5
3FE
  8
2
  6
CONTINUOUS
 62
     6
 10
6.590911163418117
 20
2.536016192825785
 30
0.0
 40
0.4039556631376294
 50
247.841335
 51
358.500773
  0
ARC
  5
3FF
  8
2
  6
CONTINUOUS
 62
     6
 10
6.42177876840785
 20
2.120711613821808
 30
0.0
 40
0.0444671466103937
 50
67.84133500000148
 51
164.7539160000015
  0
ARC
  5
400
  8
2
  6
CONTINUOUS
 62
     6
 10
5.990544816302723
 20
2.238248066757115
 30
0.0
 40
0.4024973720673142
 50
234.759837
 51
344.7539150000001
  0
ARC
  5
401
  8
2
  6
CONTINUOUS
 62
     6
 10
5.732644176706319
 20
1.873194097012651
 30
0.0
 40
0.0444671466103938
 50
54.75983600000001
 51
151.6570369999999
  0
ARC
  5
402
  8
2
  6
CONTINUOUS
 62
     6
 10
5.344342317066846
 20
2.081961732253145
 30
0.0
 40
0.3963979112237206
 50
238.6355790877736
 51
331.7444810093403
  0
ARC
  5
403
  8
2
  6
CONTINUOUS
 62
     6
 10
5.090580766428681
 20
7.629045853675801
 30
0.0
 40
0.2738550878952387
 50
30.36716675414821
 51
77.20527502284679
  0
ARC
  5
404
  8
2
  6
CONTINUOUS
 62
     6
 10
5.359572430031495
 20
7.79055068395397
 30
0.0
 40
0.0400199801163344
 50
215.1842169999994
 51
309.9525979999996
  0
ARC
  5
405
  8
2
  6
CONTINUOUS
 62
     6
 10
5.632437779232492
 20
7.464816353145674
 30
0.0
 40
0.3849018647069
 50
22.56722299999998
 51
129.952598
  0
ARC
  5
406
  8
2
  6
CONTINUOUS
 62
     6
 10
6.024823128324239
 20
7.627887408199854
 30
0.0
 40
0.0400199801163336
 50
202.5672229999988
 51
299.1436699999988
  0
ARC
  5
407
  8
2
  6
CONTINUOUS
 62
     6
 10
6.21026782491965
 20
7.295304418399057
 30
0.0
 40
0.3407702041134575
 50
6.67498299999997
 51
119.14367
  0
ARC
  5
408
  8
2
  6
CONTINUOUS
 62
     6
 10
6.588476913025763
 20
7.339565980985595
 30
0.0
 40
0.0400199801163353
 50
186.6749849999991
 51
283.8469689999992
  0
ARC
  5
409
  8
2
  6
CONTINUOUS
 62
     6
 10
6.687574060436808
 20
6.937538515258521
 30
0.0
 40
0.3740409285015723
 50
355.346179
 51
103.846969
  0
ARC
  5
40A
  8
2
  6
CONTINUOUS
 62
     6
 10
7.10027043333594
 20
6.903943600678942
 30
0.0
 40
0.0400199801163349
 50
175.3461790000001
 51
271.0529450000002
  0
ARC
  5
40B
  8
2
  6
CONTINUOUS
 62
     6
 10
7.107818303926059
 20
6.493228515570154
 30
0.0
 40
0.3707640095279211
 50
341.67729
 51
91.05294599999998
  0
ARC
  5
40C
  8
2
  6
CONTINUOUS
 62
     6
 10
7.497776180120741
 20
6.36409124986015
 30
0.0
 40
0.0400199801163352
 50
161.6772889999997
 51
259.3300959999997
  0
ARC
  5
40D
  8
2
  6
CONTINUOUS
 62
     6
 10
7.426464504241537
 20
5.985590729456485
 30
0.0
 40
0.3451394294116586
 50
326.658228
 51
79.3300969999999
  0
ARC
  5
40E
  8
2
  6
CONTINUOUS
 62
     6
 10
7.748229481973857
 20
5.773893404847758
 30
0.0
 40
0.0400199801163353
 50
146.6582279999986
 51
244.1197349999985
  0
ARC
  5
40F
  8
2
  6
CONTINUOUS
 62
     6
 10
7.568902604461968
 20
5.404260107451043
 30
0.0
 40
0.3708170999077064
 50
315.2904339999999
 51
64.11973499999992
  0
ARC
  5
410
  8
2
  6
CONTINUOUS
 62
     6
 10
7.860877101638581
 20
5.115231561561323
 30
0.0
 40
0.0400199801163348
 50
135.290433
 51
231.167578
  0
ARC
  5
411
  8
2
  6
CONTINUOUS
 62
     6
 10
7.604723926244948
 20
4.797010084284139
 30
0.0
 40
0.3684879006923791
 50
301.6795349999999
 51
51.16757799999991
  0
ARC
  5
412
  8
2
  6
CONTINUOUS
 62
     6
 10
7.819258762215896
 20
4.449369759109757
 30
0.0
 40
0.0400199801163344
 50
121.6795340000006
 51
217.9307040000006
  0
ARC
  5
413
  8
2
  6
CONTINUOUS
 62
     6
 10
7.501352438469788
 20
4.201612770800284
 30
0.0
 40
0.3630274986521758
 50
288.3577109999999
 51
37.93070499999995
  0
ARC
  5
414
  8
2
  6
CONTINUOUS
 62
     6
 10
7.628292666122656
 20
3.81907625195027
 30
0.0
 40
0.0400199801163345
 50
108.3577090000002
 51
205.7137970000002
  0
ARC
  5
415
  8
2
  6
CONTINUOUS
 62
     6
 10
7.278782881830248
 20
3.650765063452874
 30
0.0
 40
0.3479046474907689
 50
274.014131
 51
25.71379599999987
  0
ARC
  5
416
  8
2
  6
CONTINUOUS
 62
     6
 10
7.305938046299937
 20
3.263791544351739
 30
0.0
 40
0.040019980116335
 50
94.0141309999998
 51
190.3060989999998
  0
ARC
  5
417
  8
2
  6
CONTINUOUS
 62
     6
 10
6.889342354442849
 20
3.18803722030867
 30
0.0
 40
0.3834074269950281
 50
262.8387769999999
 51
10.30609899999979
  0
ARC
  5
418
  8
2
  6
CONTINUOUS
 62
     6
 10
6.836556961944151
 20
2.76791158298703
 30
0.0
 40
0.0400199801163347
 50
82.83877699999931
 51
178.5007739999993
  0
ARC
  5
419
  8
2
  6
CONTINUOUS
 62
     6
 10
6.43311412928361
 20
2.778470920651866
 30
0.0
 40
0.3635606616151411
 50
247.8413350000002
 51
358.500773
  0
ARC
  5
41A
  8
2
  6
CONTINUOUS
 62
     6
 10
6.28089497377437
 20
2.404697703214326
 30
0.0
 40
0.0400199801163345
 50
67.84133600000075
 51
164.7539160000008
  0
ARC
  5
41B
  8
2
  6
CONTINUOUS
 62
     6
 10
5.892783965046737
 20
2.510479720148318
 30
0.0
 40
0.3622469571110537
 50
234.759837
 51
344.753915
  0
ARC
  5
41C
  8
2
  6
CONTINUOUS
 62
     6
 10
5.660673954201249
 20
2.181931599211319
 30
0.0
 40
0.0400199801163345
 50
54.75983700000168
 51
151.6570360000017
  0
ARC
  5
41D
  8
2
  6
CONTINUOUS
 62
     6
 10
5.310985396904803
 20
2.370136109971972
 30
0.0
 40
0.3570980614756411
 50
241.0301746582093
 51
331.7165668024837
  0
ARC
  5
41E
  8
2
  6
CONTINUOUS
 62
     6
 10
5.085578160074132
 20
7.364680578927201
 30
0.0
 40
0.2428322794400388
 50
30.19142694740294
 51
73.6665956507784
  0
ARC
  5
41F
  8
2
  6
CONTINUOUS
 62
     6
 10
5.324908930360886
 20
7.507552979291527
 30
0.0
 40
0.0360178691464468
 50
215.1842149999999
 51
309.9525970000001
  0
ARC
  5
420
  8
2
  6
CONTINUOUS
 62
     6
 10
5.570486953934001
 20
7.214391290856276
 30
0.0
 40
0.3464113393614448
 50
22.56722299999993
 51
129.9525979999999
  0
ARC
  5
421
  8
2
  6
CONTINUOUS
 62
     6
 10
5.923633994033084
 20
7.36115456265551
 30
0.0
 40
0.0360178691464473
 50
202.5672229999993
 51
299.1436709999993
  0
ARC
  5
422
  8
2
  6
CONTINUOUS
 62
     6
 10
6.090535463509756
 20
7.06183100141734
 30
0.0
 40
0.3066929577856021
 50
6.674983999999812
 51
119.1436699999998
  0
ARC
  5
423
  8
2
  6
CONTINUOUS
 62
     6
 10
6.430922739139219
 20
7.101666859578245
 30
0.0
 40
0.0360178691464467
 50
186.6749830000009
 51
283.8469690000007
  0
ARC
  5
424
  8
2
  6
CONTINUOUS
 62
     6
 10
6.520110058850905
 20
6.739841236757839
 30
0.0
 40
0.3366370615679243
 50
355.3461789999998
 51
103.8469689999999
  0
ARC
  5
425
  8
2
  6
CONTINUOUS
 62
     6
 10
6.891537133334887
 20
6.709605700677961
 30
0.0
 40
0.0360178691464455
 50
175.3461809999995
 51
271.0529449999997
  0
ARC
  5
426
  8
2
  6
CONTINUOUS
 62
     6
 10
6.898330442782504
 20
6.339962237038309
 30
0.0
 40
0.3336877215333831
 50
341.6772899999999
 51
91.05294599999972
  0
ARC
  5
427
  8
2
  6
CONTINUOUS
 62
     6
 10
7.249292870232484
 20
6.223738359024539
 30
0.0
 40
0.0360178691464472
 50
161.6772889999993
 51
259.3300969999992
  0
ARC
  5
428
  8
2
  6
CONTINUOUS
 62
     6
 10
7.185111119400396
 20
5.88308789066124
 30
0.0
 40
0.3106250346374723
 50
326.658228
 51
79.33009699999995
  0
ARC
  5
429
  8
2
  6
CONTINUOUS
 62
     6
 10
7.474699938234249
 20
5.692561202179426
 30
0.0
 40
0.0360178691464473
 50
146.6582269999991
 51
244.1197349999992
  0
ARC
  5
42A
  8
2
  6
CONTINUOUS
 62
     6
 10
7.313306313264822
 20
5.359891234522382
 30
0.0
 40
0.3337351640004264
 50
315.290433
 51
64.11973499999998
  0
ARC
  5
42B
  8
2
  6
CONTINUOUS
 62
     6
 10
7.576083360723774
 20
5.099765317305126
 30
0.0
 40
0.0360178691464465
 50
135.2904339999999
 51
231.1675779999999
  0
ARC
  5
42C
  8
2
  6
CONTINUOUS
 62
     6
 10
7.345544599203465
 20
4.81336531000613
 30
0.0
 40
0.3316397883726696
 50
301.6795350000002
 51
51.16757800000022
  0
ARC
  5
42D
  8
2
  6
CONTINUOUS
 62
     6
 10
7.538627532992889
 20
4.500489017349185
 30
0.0
 40
0.0360178691464459
 50
121.6795340000008
 51
217.9307050000008
  0
ARC
  5
42E
  8
2
  6
CONTINUOUS
 62
     6
 10
7.252511050913605
 20
4.277508292661935
 30
0.0
 40
0.3267249747034676
 50
288.3577109999999
 51
37.9307049999999
  0
ARC
  5
42F
  8
2
  6
CONTINUOUS
 62
     6
 10
7.366757029884678
 20
3.933225086822158
 30
0.0
 40
0.0360178691464467
 50
108.3577110000014
 51
205.7137960000014
  0
ARC
  5
430
  8
2
  6
CONTINUOUS
 62
     6
 10
7.052198788812784
 20
3.781744678299737
 30
0.0
 40
0.3131135049921622
 50
274.0141309999999
 51
25.71379599999982
  0
ARC
  5
431
  8
2
  6
CONTINUOUS
 62
     6
 10
7.076638436835506
 20
3.433469527733009
 30
0.0
 40
0.0360178691464463
 50
94.01413100000163
 51
190.3061010000017
  0
ARC
  5
432
  8
2
  6
CONTINUOUS
 62
     6
 10
6.701701749372851
 20
3.365290184261228
 30
0.0
 40
0.3450671361285447
 50
262.838777
 51
10.30610000000002
  0
ARC
  5
433
  8
2
  6
CONTINUOUS
 62
     6
 10
6.654194896124022
 20
2.987178240254299
 30
0.0
 40
0.0360178691464463
 50
82.83877700000014
 51
178.5007730000002
  0
ARC
  5
434
  8
2
  6
CONTINUOUS
 62
     6
 10
6.291096233771283
 20
2.996681418236143
 30
0.0
 40
0.3272039177040981
 50
247.8413349999998
 51
358.5007729999996
  0
ARC
  5
435
  8
2
  6
CONTINUOUS
 62
     6
 10
6.154099332687728
 20
2.660284957751082
 30
0.0
 40
0.0360178691464463
 50
67.84133500000033
 51
164.7539150000003
  0
ARC
  5
436
  8
2
  6
CONTINUOUS
 62
     6
 10
5.804799650749369
 20
2.755489563699459
 30
0.0
 40
0.3260223743582034
 50
234.759837
 51
344.7539150000001
  0
ARC
  5
437
  8
2
  6
CONTINUOUS
 62
     6
 10
5.595900302113665
 20
2.459795351190122
 30
0.0
 40
0.036017869146447
 50
54.75983699999912
 51
151.6570369999992
  0
ARC
  5
438
  8
2
  6
CONTINUOUS
 62
     6
 10
5.285964634812175
 20
2.622600663733305
 30
0.0
 40
0.3140784535200887
 50
241.8990443313701
 51
332.3599571882389
  0
ARC
  5
439
  8
2
  6
CONTINUOUS
 62
     6
 10
5.259767978744674
 20
2.854980752398669
 30
0.0
 40
0.2810338928083601
 50
244.3294668596292
 51
332.5111829800676
  0
ARC
  5
43A
  8
2
  6
CONTINUOUS
 62
     6
 10
5.537603676360076
 20
2.709872502054534
 30
0.0
 40
0.0324167599813306
 50
54.75983500000114
 51
151.6570370000011
  0
ARC
  5
43B
  8
2
  6
CONTINUOUS
 62
     6
 10
5.725613654923484
 20
2.975997632187702
 30
0.0
 40
0.2934203628388931
 50
234.7598369999999
 51
344.7539149999999
  0
ARC
  5
43C
  8
2
  6
CONTINUOUS
 62
     6
 10
6.039982126127204
 20
2.890313147959398
 30
0.0
 40
0.0324167599813302
 50
67.841335000001
 51
164.753915000001
  0
ARC
  5
43D
  8
2
  6
CONTINUOUS
 62
     6
 10
6.163280579643205
 20
3.193069510562933
 30
0.0
 40
0.2944833000171787
 50
247.841335
 51
358.5007729999999
  0
ARC
  5
43E
  8
2
  6
CONTINUOUS
 62
     6
 10
6.490068810969397
 20
3.184517441087058
 30
0.0
 40
0.032416759981331
 50
82.83877700000063
 51
178.5007730000007
  0
ARC
  5
43F
  8
2
  6
CONTINUOUS
 62
     6
 10
6.532824640018577
 20
3.524818868442823
 30
0.0
 40
0.3105606484321994
 50
262.8387770000001
 51
10.30609900000004
  0
ARC
  5
440
  8
2
  6
CONTINUOUS
 62
     6
 10
6.870268223526242
 20
3.586178922068368
 30
0.0
 40
0.0324167599813307
 50
94.01413099999937
 51
190.3060999999994
  0
ARC
  5
441
  8
2
  6
CONTINUOUS
 62
     6
 10
6.848271862556263
 20
3.899627913077481
 30
0.0
 40
0.2818026063259657
 50
274.014132
 51
25.71379599999992
  0
ARC
  5
442
  8
2
  6
CONTINUOUS
 62
     6
 10
7.131374618395732
 20
4.035959490039875
 30
0.0
 40
0.0324167599813318
 50
108.3577130000019
 51
205.713796000002
  0
ARC
  5
443
  8
2
  6
CONTINUOUS
 62
     6
 10
7.028554366904316
 20
4.345814149379165
 30
0.0
 40
0.2940529290661407
 50
288.3577110000001
 51
37.93070400000002
  0
ARC
  5
444
  8
2
  6
CONTINUOUS
 62
     6
 10
7.28605852302614
 20
4.546498044138494
 30
0.0
 40
0.0324167599813316
 50
121.6795350000004
 51
217.9307040000004
  0
ARC
  5
445
  8
2
  6
CONTINUOUS
 62
     6
 10
7.112284673323445
 20
4.828086029780216
 30
0.0
 40
0.2984752447441291
 50
301.6795349999999
 51
51.16757799999996
  0
ARC
  5
446
  8
2
  6
CONTINUOUS
 62
     6
 10
7.319768655025684
 20
5.085845471558037
 30
0.0
 40
0.0324167599813317
 50
135.2904330000003
 51
231.1675790000002
  0
ARC
  5
447
  8
2
  6
CONTINUOUS
 62
     6
 10
7.083269086396117
 20
5.319959361844842
 30
0.0
 40
0.3003616476003847
 50
315.2904340000002
 51
64.11973500000013
  0
ARC
  5
448
  8
2
  6
CONTINUOUS
 62
     6
 10
7.228524365492895
 20
5.619361993861418
 30
0.0
 40
0.0324167599813318
 50
146.6582280000008
 51
244.1197370000007
  0
ARC
  5
449
  8
2
  6
CONTINUOUS
 62
     6
 10
6.96789352487639
 20
5.79083601349505
 30
0.0
 40
0.27956264413198
 50
326.6582279999999
 51
79.3300969999999
  0
ARC
  5
44A
  8
2
  6
CONTINUOUS
 62
     6
 10
7.025656987667014
 20
6.097421660938529
 30
0.0
 40
0.032416759981331
 50
161.6772900000008
 51
259.3300980000009
  0
ARC
  5
44B
  8
2
  6
CONTINUOUS
 62
     6
 10
6.709791819586324
 20
6.202023264109176
 30
0.0
 40
0.3003187234635354
 50
341.67729
 51
91.05294599999998
  0
ARC
  5
44C
  8
2
  6
CONTINUOUS
 62
     6
 10
6.70367738925045
 20
6.534702268426609
 30
0.0
 40
0.032416759981332
 50
175.3461800000003
 51
271.0529460000004
  0
ARC
  5
44D
  8
2
  6
CONTINUOUS
 62
     6
 10
6.369393248131375
 20
6.561913912023734
 30
0.0
 40
0.3029732424528782
 50
355.3461789999999
 51
103.8469689999999
  0
ARC
  5
44E
  8
2
  6
CONTINUOUS
 62
     6
 10
6.289123982641327
 20
6.887556746645589
 30
0.0
 40
0.0324167599813306
 50
186.674983000001
 51
283.8469690000011
  0
ARC
  5
44F
  8
2
  6
CONTINUOUS
 62
     6
 10
5.982775547533067
 20
6.851704926133794
 30
0.0
 40
0.276023662007041
 50
6.674984000000076
 51
119.1436700000001
  0
ARC
  5
450
  8
2
  6
CONTINUOUS
 62
     6
 10
5.832564789795335
 20
7.121096808997677
 30
0.0
 40
0.0324167599813314
 50
202.567224
 51
299.1436690000001
  0
ARC
  5
451
  8
2
  6
CONTINUOUS
 62
     6
 10
5.514731888914889
 20
6.989009073670582
 30
0.0
 40
0.3117704313418094
 50
22.56722300000007
 51
129.9525980000001
  0
ARC
  5
452
  8
2
  6
CONTINUOUS
 62
     6
 10
5.293712119532104
 20
7.252854706220564
 30
0.0
 40
0.0324167599813309
 50
215.1842140000009
 51
309.952598000001
  0
ARC
  5
453
  8
2
  6
CONTINUOUS
 62
     6
 10
5.107158247339042
 20
7.151956782410151
 30
0.0
 40
0.1799417555948647
 50
27.18842853602036
 51
74.95438244295657
  0
ARC
  5
454
  8
2
  6
CONTINUOUS
 62
     6
 10
4.518227719481113
 20
9.279227524827764
 30
0.0
 40
0.060997457627427
 50
228.4984640000005
 51
324.2198690000005
  0
ARC
  5
455
  8
2
  6
CONTINUOUS
 62
     6
 10
5.041427694568291
 20
8.89711331757208
 30
0.0
 40
0.5868851101798904
 50
102.5828844317632
 51
143.8201652041133
  0
ARC
  5
456
  8
2
  6
CONTINUOUS
 62
     6
 10
4.567698916782054
 20
8.847362136077942
 30
0.0
 40
0.0548977118646846
 50
228.4984640000004
 51
324.2198690000005
  0
ARC
  5
457
  8
2
  6
CONTINUOUS
 62
     6
 10
5.040898964879462
 20
8.501012698084088
 30
0.0
 40
0.5315131599793601
 50
104.4472444357062
 51
143.7550040325622
  0
ARC
  5
458
  8
2
  6
CONTINUOUS
 62
     6
 10
5.029920421472927
 20
8.914233423075808
 30
0.0
 40
0.5641720490495643
 50
35.11556765348861
 51
77.30859213768139
  0
ARC
  5
459
  8
2
  6
CONTINUOUS
 62
     6
 10
5.541263523817721
 20
9.273908320606143
 30
0.0
 40
0.0609974576274257
 50
215.1842169999992
 51
309.9525989999992
  0
ARC
  5
45A
  8
2
  6
CONTINUOUS
 62
     6
 10
5.957153226581902
 20
8.777436457985939
 30
0.0
 40
0.5866509558096129
 50
22.56722299999997
 51
129.952598
  0
ARC
  5
45B
  8
2
  6
CONTINUOUS
 62
     6
 10
5.03530723407706
 20
8.526635532824116
 30
0.0
 40
0.4974953071535143
 50
34.85304031151311
 51
76.52568183578224
  0
ARC
  5
45C
  8
2
  6
CONTINUOUS
 62
     6
 10
5.488430688851981
 20
8.84257383565419
 30
0.0
 40
0.0548977118646827
 50
215.1842169999993
 51
309.9525979999992
  0
ARC
  5
45D
  8
2
  6
CONTINUOUS
 62
     6
 10
5.862731421339743
 20
8.395749385212515
 30
0.0
 40
0.5279849565626121
 50
22.56722300000001
 51
129.9525980000001
  0
ARC
  5
45E
  8
2
  6
CONTINUOUS
 62
     6
 10
6.837858241040202
 20
8.519073819127135
 30
0.0
 40
0.5193865742022423
 50
6.674983000000009
 51
119.14367
  0
ARC
  5
45F
  8
2
  6
CONTINUOUS
 62
     6
 10
8.205867426153816
 20
7.296584235426683
 30
0.0
 40
0.5651030391114494
 50
341.6772900000001
 51
91.05294600000003
  0
ARC
  5
460
  8
2
  6
CONTINUOUS
 62
     6
 10
7.886573975037956
 20
7.062982046034421
 30
0.0
 40
0.5085922833672863
 50
341.6772900000001
 51
91.05294600000003
  0
ARC
  5
461
  8
2
  6
CONTINUOUS
 62
     6
 10
8.32367384931825
 20
6.366633940177175
 30
0.0
 40
0.4734419336182054
 50
326.658228
 51
79.33009700000001
  0
ARC
  5
462
  8
2
  6
CONTINUOUS
 62
     6
 10
8.80022439411036
 20
7.099757865071014
 30
0.0
 40
0.0609974576274276
 50
161.6772900000001
 51
259.3300970000003
  0
ARC
  5
463
  8
2
  6
CONTINUOUS
 62
     6
 10
8.999150658423979
 20
3.220753319665395
 30
0.0
 40
0.0609974576274261
 50
108.3577109999987
 51
205.7137959999987
  0
ARC
  5
464
  8
2
  6
CONTINUOUS
 62
     6
 10
8.421495698031865
 20
6.885838651589083
 30
0.0
 40
0.0548977118646845
 50
161.6772899999999
 51
259.330097
  0
ARC
  5
465
  8
2
  6
CONTINUOUS
 62
     6
 10
8.765052582292855
 20
6.07624085856868
 30
0.0
 40
0.0548977118646824
 50
146.6582289999987
 51
244.1197359999986
  0
ARC
  5
466
  8
2
  6
CONTINUOUS
 62
     6
 10
8.519062261089482
 20
5.5691994920407
 30
0.0
 40
0.5086645766503991
 50
315.2904339999999
 51
64.11973499999992
  0
ARC
  5
467
  8
2
  6
CONTINUOUS
 62
     6
 10
8.919576086201356
 20
5.172726183705368
 30
0.0
 40
0.0548977118646828
 50
135.2904329999997
 51
231.1675779999997
  0
ARC
  5
468
  8
2
  6
CONTINUOUS
 62
     6
 10
8.568199101956019
 20
4.73620804443763
 30
0.0
 40
0.5054712467853485
 50
301.679535
 51
51.16757800000001
  0
ARC
  5
469
  8
2
  6
CONTINUOUS
 62
     6
 10
8.86248698419228
 20
4.259335568619156
 30
0.0
 40
0.0548977118646831
 50
121.6795349999999
 51
217.9307049999999
  0
ARC
  5
46A
  8
2
  6
CONTINUOUS
 62
     6
 10
8.426401475040679
 20
3.919476937622465
 30
0.0
 40
0.49798098490521
 50
288.3577110000001
 51
37.93070500000005
  0
ARC
  5
46B
  8
2
  6
CONTINUOUS
 62
     6
 10
8.600530013663652
 20
3.394735012557045
 30
0.0
 40
0.0548977118646841
 50
108.3577110000004
 51
205.7137960000004
  0
ARC
  5
46C
  8
2
  6
CONTINUOUS
 62
     6
 10
8.121093385459728
 20
3.163855117107042
 30
0.0
 40
0.477235071816593
 50
274.0141310000001
 51
25.71379600000003
  0
ARC
  5
46D
  8
2
  6
CONTINUOUS
 62
     6
 10
7.992599981802458
 20
6.226026893268117
 30
0.0
 40
0.4260977402563852
 50
326.658228
 51
79.33009699999995
  0
ARC
  5
46E
  8
2
  6
CONTINUOUS
 62
     6
 10
8.389841406270877
 20
5.96467424940302
 30
0.0
 40
0.0494079406782145
 50
146.6582269999995
 51
244.1197359999994
  0
ARC
  5
46F
  8
2
  6
CONTINUOUS
 62
     6
 10
8.168450004229584
 20
5.508336454736565
 30
0.0
 40
0.4577983449018703
 50
315.2904340000001
 51
64.11973499999998
  0
ARC
  5
470
  8
2
  6
CONTINUOUS
 62
     6
 10
8.528912220913762
 20
5.15151036427651
 30
0.0
 40
0.0494079406782146
 50
135.2904339999981
 51
231.1675779999981
  0
ARC
  5
471
  8
2
  6
CONTINUOUS
 62
     6
 10
8.21267316100947
 20
4.758643813019037
 30
0.0
 40
0.4549235573155381
 50
301.6795349999999
 51
51.16757799999996
  0
ARC
  5
472
  8
2
  6
CONTINUOUS
 62
     6
 10
8.477532029105594
 20
4.329458923657175
 30
0.0
 40
0.0494079406782156
 50
121.6795340000025
 51
217.9307050000025
  0
ARC
  5
473
  8
2
  6
CONTINUOUS
 62
     6
 10
8.085055183827407
 20
4.023586042801897
 30
0.0
 40
0.44818220866516
 50
288.3577110000001
 51
37.93070400000012
  0
ARC
  5
474
  8
2
  6
CONTINUOUS
 62
     6
 10
8.69153257253103
 20
6.522863113734147
 30
0.0
 40
0.5260465929091178
 50
326.6582279999998
 51
79.33009699999985
  0
ARC
  5
475
  8
2
  6
CONTINUOUS
 62
     6
 10
8.908631560887429
 20
5.636825340063639
 30
0.0
 40
0.5651832394724039
 50
315.290434
 51
64.11973499999998
  0
ARC
  5
476
  8
2
  6
CONTINUOUS
 62
     6
 10
8.96322880379417
 20
4.71127928717134
 30
0.0
 40
0.5616340911045258
 50
301.6795349999998
 51
51.16757799999986
  0
ARC
  5
477
  8
2
  6
CONTINUOUS
 62
     6
 10
8.805675759490175
 20
3.803799777562246
 30
0.0
 40
0.553311326886029
 50
288.3577110000001
 51
37.930705
  0
ARC
  5
478
  8
2
  6
CONTINUOUS
 62
     6
 10
8.466442917225438
 20
2.964220604535414
 30
0.0
 40
0.5302610653981533
 50
274.0141310000001
 51
25.71379600000013
  0
ARC
  5
479
  8
2
  6
CONTINUOUS
 62
     6
 10
7.872874397887857
 20
2.258951055708883
 30
0.0
 40
0.5843737173915211
 50
262.8387769999999
 51
10.30609999999992
  0
ARC
  5
47A
  8
2
  6
CONTINUOUS
 62
     6
 10
7.17751015843049
 20
1.634707592679998
 30
0.0
 40
0.5541234967385128
 50
247.8413350000001
 51
358.500773
  0
ARC
  5
47B
  8
2
  6
CONTINUOUS
 62
     6
 10
6.961053902544277
 20
1.967292841645893
 30
0.0
 40
0.4987106952316416
 50
247.841335
 51
358.5007729999999
  0
ARC
  5
47C
  8
2
  6
CONTINUOUS
 62
     6
 10
2.431073193513278
 20
2.519284816115093
 30
0.0
 40
0.5140199275135768
 50
168.9094320000001
 51
277.57303
  0
ARC
  5
47D
  8
2
  6
CONTINUOUS
 62
     6
 10
3.244535288432634
 20
1.46914693768858
 30
0.0
 40
0.0548977118646833
 50
15.54633099999986
 51
112.4745259999999
  0
ARC
  5
47E
  8
2
  6
CONTINUOUS
 62
     6
 10
3.917251397789447
 20
1.956239876407294
 30
0.0
 40
0.4652999026074933
 50
195.546332
 51
304.47118
  0
ARC
  5
47F
  8
2
  6
CONTINUOUS
 62
     6
 10
6.752247179677561
 20
1.45457306364582
 30
0.0
 40
0.0548977118646834
 50
67.84133500000058
 51
164.7539150000006
  0
ARC
  5
480
  8
2
  6
CONTINUOUS
 62
     6
 10
6.099167733346585
 20
1.935768451878001
 30
0.0
 40
0.447218674751156
 50
234.7598369999999
 51
344.7539149999999
  0
ARC
  5
481
  8
2
  6
CONTINUOUS
 62
     6
 10
5.385891291197551
 20
1.755369557339041
 30
0.0
 40
0.4331011367095025
 50
235.0888802921788
 51
332.2347122909866
  0
ARC
  5
482
  8
2
  6
CONTINUOUS
 62
     6
 10
3.048045533676464
 20
1.08121101425599
 30
0.0
 40
0.0609974576274258
 50
15.5463330000002
 51
112.4745270000002
  0
ARC
  5
483
  8
2
  6
CONTINUOUS
 62
     6
 10
4.598879223482205
 20
1.403718645289437
 30
0.0
 40
0.4873089984450599
 50
207.758464391051
 51
304.367509621173
  0
ARC
  5
484
  8
2
  6
CONTINUOUS
 62
     6
 10
4.119197036255625
 20
1.150946922479819
 30
0.0
 40
0.0548977118646833
 50
28.04278500000038
 51
124.4711800000004
  0
ARC
  5
485
  8
2
  6
CONTINUOUS
 62
     6
 10
3.795508379442945
 20
1.622425641628461
 30
0.0
 40
0.5169997662769318
 50
195.546332
 51
304.47118
  0
ARC
  5
486
  8
2
  6
CONTINUOUS
 62
     6
 10
4.638978234404848
 20
1.757588618145432
 30
0.0
 40
0.4365776169132887
 50
207.6276194354508
 51
302.5643605384897
  0
ARC
  5
487
  8
2
  6
CONTINUOUS
 62
     6
 10
3.660238610076286
 20
1.251520434281958
 30
0.0
 40
0.5744435572062857
 50
195.546332
 51
304.47118
  0
ARC
  5
488
  8
2
  6
CONTINUOUS
 62
     6
 10
2.821106751738722
 20
1.629780353602761
 30
0.0
 40
0.5326602987314994
 50
180.80753
 51
292.474527
  0
ARC
  5
489
  8
2
  6
CONTINUOUS
 62
     6
 10
3.040289819897392
 20
1.962859230142419
 30
0.0
 40
0.4793948336496228
 50
180.80753
 51
292.474527
  0
ARC
  5
48A
  8
2
  6
CONTINUOUS
 62
     6
 10
5.423068125236177
 20
1.40528271543472
 30
0.0
 40
0.4878249389911857
 50
234.2454791830356
 51
331.8394948569524
  0
ARC
  5
48B
  8
2
  6
CONTINUOUS
 62
     6
 10
6.219860239922837
 20
1.599679237846174
 30
0.0
 40
0.4969101406490835
 50
234.759837
 51
344.7539150000001
  0
ARC
  5
48C
  8
2
  6
CONTINUOUS
 62
     6
 10
6.353963150516734
 20
1.226247154338328
 30
0.0
 40
0.5521218764622935
 50
234.759837
 51
344.7539150000001
  0
ARC
  5
48D
  8
2
  6
CONTINUOUS
 62
     6
 10
5.467287507740354
 20
1.012183010834646
 30
0.0
 40
0.5441306476994879
 50
232.7628082314725
 51
331.7272445422818
  0
ARC
  5
48E
  8
2
  6
CONTINUOUS
 62
     6
 10
4.554071215226237
 20
1.010199911393025
 30
0.0
 40
0.5433019547832173
 50
207.8570689756157
 51
306.0715424752038
  0
ARC
  5
48F
  8
2
  6
CONTINUOUS
 62
     6
 10
2.144198761543847
 20
2.248031381211025
 30
0.0
 40
0.5711338803387235
 50
168.909432
 51
277.57303
  0
ARC
  5
490
  8
2
  6
CONTINUOUS
 62
     6
 10
1.934009429637577
 20
3.202187500895685
 30
0.0
 40
0.5218264725073387
 50
155.805181
 51
263.905531
  0
ARC
  5
491
  8
2
  6
CONTINUOUS
 62
     6
 10
2.2419031336724
 20
3.378025097914776
 30
0.0
 40
0.4696442770896244
 50
155.8051810000001
 51
263.9055310000001
  0
ARC
  5
492
  8
2
  6
CONTINUOUS
 62
     6
 10
1.591906318116706
 20
3.00681151453249
 30
0.0
 40
0.5798068151473046
 50
155.805181
 51
263.905531
  0
ARC
  5
493
  8
2
  6
CONTINUOUS
 62
     6
 10
1.189802040776324
 20
3.840401640886348
 30
0.0
 40
0.538396318913575
 50
140.531155
 51
252.282473
  0
ARC
  5
494
  8
2
  6
CONTINUOUS
 62
     6
 10
1.572116031864253
 20
3.952418953488921
 30
0.0
 40
0.4845558963144334
 50
140.531155
 51
252.282473
  0
ARC
  5
495
  8
2
  6
CONTINUOUS
 62
     6
 10
1.916198172010369
 20
4.053234195956472
 30
0.0
 40
0.4361001937247347
 50
140.531155
 51
252.2824730000002
  0
ARC
  5
496
  8
2
  6
CONTINUOUS
 62
     6
 10
2.225872098141874
 20
4.143967914177269
 30
0.0
 40
0.3924904002687711
 50
140.531155
 51
252.2824730000001
  0
ARC
  5
497
  8
2
  6
CONTINUOUS
 62
     6
 10
2.129260032337871
 20
4.804008977755611
 30
0.0
 40
0.4072868020736175
 50
128.27219
 51
237.8033670000001
  0
ARC
  5
498
  8
2
  6
CONTINUOUS
 62
     6
 10
1.808851683246488
 20
4.78661340650631
 30
0.0
 40
0.4525412677204231
 50
128.27219
 51
237.8033670000001
  0
ARC
  5
499
  8
2
  6
CONTINUOUS
 62
     6
 10
1.452842280969113
 20
4.767285119516256
 30
0.0
 40
0.5028235052912987
 50
128.27219
 51
237.803367
  0
ARC
  5
49A
  8
2
  6
CONTINUOUS
 62
     6
 10
1.057276027420351
 20
4.745809496101207
 30
0.0
 40
0.5586926581478258
 50
128.27219
 51
237.803367
  0
ARC
  5
49B
  8
2
  6
CONTINUOUS
 62
     6
 10
1.10974061847523
 20
5.665133808315509
 30
0.0
 40
0.553567742124573
 50
114.733302
 51
224.770583
  0
ARC
  5
49C
  8
2
  6
CONTINUOUS
 62
     6
 10
1.500059961085484
 20
5.594677226425637
 30
0.0
 40
0.4982114197451369
 50
114.733302
 51
224.770583
  0
ARC
  5
49D
  8
2
  6
CONTINUOUS
 62
     6
 10
2.167506567852816
 20
5.474197081368533
 30
0.0
 40
0.4035512725852103
 50
114.733302
 51
224.770583
  0
ARC
  5
49E
  8
2
  6
CONTINUOUS
 62
     6
 10
1.851347708309477
 20
5.531265850891733
 30
0.0
 40
0.448390051854113
 50
114.733302
 51
224.770583
  0
ARC
  5
49F
  8
2
  6
CONTINUOUS
 62
     6
 10
2.074172550605013
 20
6.24285880282564
 30
0.0
 40
0.4537499210474858
 50
101.768277
 51
211.041839
  0
ARC
  5
4A0
  8
2
  6
CONTINUOUS
 62
     6
 10
2.368049264793563
 20
6.114629721484756
 30
0.0
 40
0.4083745900679716
 50
101.768277
 51
211.041838
  0
ARC
  5
4A1
  8
2
  6
CONTINUOUS
 62
     6
 10
2.449578014825362
 20
6.889226269652502
 30
0.0
 40
0.4527468517442788
 50
88.23249200000002
 51
197.833452
  0
ARC
  5
4A2
  8
2
  6
CONTINUOUS
 62
     6
 10
2.164760552677033
 20
7.103521634123137
 30
0.0
 40
0.5030516809661265
 50
88.23249199999995
 51
197.833452
  0
ARC
  5
4A3
  8
2
  6
CONTINUOUS
 62
     6
 10
1.747642993682463
 20
6.385335308852723
 30
0.0
 40
0.5041665789416504
 50
101.768277
 51
211.041839
  0
ARC
  5
4A4
  8
2
  6
CONTINUOUS
 62
     6
 10
1.384833504462178
 20
6.543642914299222
 30
0.0
 40
0.5601848366946005
 50
101.768277
 51
211.041838
  0
ARC
  5
4A5
  8
2
  6
CONTINUOUS
 62
     6
 10
1.848296705845557
 20
7.341627469136893
 30
0.0
 40
0.5589468142212743
 50
88.23249200000001
 51
197.833451
  0
ARC
  5
4A6
  8
2
  6
CONTINUOUS
 62
     6
 10
2.49170466639494
 20
8.007174118057385
 30
0.0
 40
0.5649742667009011
 50
75.29516899999996
 51
184.204854
  0
ARC
  5
4A7
  8
2
  6
CONTINUOUS
 62
     6
 10
3.235695175406851
 20
8.539245904281035
 30
0.0
 40
0.5286819089951306
 50
59.99184599999989
 51
172.8498719999999
  0
ARC
  5
4A8
  8
2
  6
CONTINUOUS
 62
     6
 10
4.105986568349093
 20
8.813299574323219
 30
0.0
 40
0.561121260627437
 50
48.49846400000007
 51
157.6487190000001
  0
ARC
  5
4A9
  8
2
  6
CONTINUOUS
 62
     6
 10
4.196681880763235
 20
8.428026076957812
 30
0.0
 40
0.5050092475229482
 50
48.49846400000001
 51
157.648719
  0
ARC
  5
4AA
  8
2
  6
CONTINUOUS
 62
     6
 10
3.530607716792519
 20
9.04988160247884
 30
0.0
 40
0.0609974576274266
 50
239.9918460000003
 51
337.6487190000004
  0
ARC
  5
4AB
  8
2
  6
CONTINUOUS
 62
     6
 10
6.555210706967843
 20
9.02598302449692
 30
0.0
 40
0.0609974576274255
 50
202.5672219999981
 51
299.1436709999981
  0
ARC
  5
4AC
  8
2
  6
CONTINUOUS
 62
     6
 10
9.181954391020632
 20
6.20020463620584
 30
0.0
 40
0.0609974576274252
 50
146.6582280000002
 51
244.1197350000002
  0
ARC
  5
4AD
  8
2
  6
CONTINUOUS
 62
     6
 10
9.353646420086157
 20
5.196298312330723
 30
0.0
 40
0.0609974576274271
 50
135.2904330000009
 51
231.1675780000009
  0
ARC
  5
4AE
  8
2
  6
CONTINUOUS
 62
     6
 10
9.290214712066376
 20
4.181420353160509
 30
0.0
 40
0.0609974576274257
 50
121.679534
 51
217.930704
  0
ARC
  5
4AF
  8
2
  6
CONTINUOUS
 62
     6
 10
8.507833080973294
 20
2.374412465502309
 30
0.0
 40
0.060997457627426
 50
94.01413100000065
 51
190.3060990000007
  0
ARC
  5
4B0
  8
2
  6
CONTINUOUS
 62
     6
 10
4.019893175238173
 20
0.7276561948568443
 30
0.0
 40
0.0609974576274269
 50
28.04278599999972
 51
124.4711799999997
  0
ARC
  5
4B1
  8
2
  6
CONTINUOUS
 62
     6
 10
6.945504069179478
 20
1.065017318838457
 30
0.0
 40
0.0609974576274267
 50
67.84133499999967
 51
164.7539149999997
  0
ARC
  5
4B2
  8
2
  6
CONTINUOUS
 62
     6
 10
6.000189192103148
 20
0.7254873963634247
 30
0.0
 40
0.0609974576274265
 50
54.75983699999959
 51
151.6570369999996
  0
ARC
  5
4B3
  8
2
  6
CONTINUOUS
 62
     6
 10
5.901464806933159
 20
1.148995003835741
 30
0.0
 40
0.0548977118646834
 50
54.75983700000017
 51
151.6570360000002
  0
ARC
  5
4B4
  8
2
  6
CONTINUOUS
 62
     6
 10
1.52387382037625
 20
2.369628683408751
 30
0.0
 40
0.0609974576274262
 50
348.9094319999998
 51
83.90553099999988
  0
ARC
  5
4B5
  8
2
  6
CONTINUOUS
 62
     6
 10
1.258140655387466
 20
7.151768363941334
 30
0.0
 40
0.0609974576274257
 50
281.768277
 51
17.83345199999997
  0
ARC
  5
4B6
  8
2
  6
CONTINUOUS
 62
     6
 10
1.872780407587677
 20
2.628722162176535
 30
0.0
 40
0.0548977118646836
 50
348.9094319999996
 51
83.90553099999963
  0
ARC
  5
4B7
  8
2
  6
CONTINUOUS
 62
     6
 10
1.407947022572778
 20
3.438551519619412
 30
0.0
 40
0.0548977118646834
 50
335.8051810000002
 51
72.28247300000022
  0
ARC
  5
4B8
  8
2
  6
CONTINUOUS
 62
     6
 10
1.15567283365123
 20
4.295327457366984
 30
0.0
 40
0.0548977118646833
 50
320.5311539999999
 51
57.80336699999977
  0
ARC
  5
4B9
  8
2
  6
CONTINUOUS
 62
     6
 10
1.268642384342321
 20
6.097046639532375
 30
0.0
 40
0.0548977118646834
 50
294.7333020000002
 51
31.0418380000002
  0
ARC
  5
4BA
  8
2
  6
CONTINUOUS
 62
     6
 10
1.633619542473477
 20
6.932648552405389
 30
0.0
 40
0.0548977118646838
 50
281.7682770000001
 51
17.83345100000004
  0
ARC
  5
4BB
  8
2
  6
CONTINUOUS
 62
     6
 10
1.768445385898513
 20
3.590753731390425
 30
0.0
 40
0.0494079406782152
 50
335.8051810000002
 51
72.28247300000017
  0
ARC
  5
4BC
  8
2
  6
CONTINUOUS
 62
     6
 10
1.541399293618649
 20
4.361851962404984
 30
0.0
 40
0.0494079406782155
 50
320.5311549999998
 51
57.80336699999967
  0
ARC
  5
4BD
  8
2
  6
CONTINUOUS
 62
     6
 10
1.4979453825544
 20
5.180681833595552
 30
0.0
 40
0.0494079406782158
 50
308.2721909999994
 51
44.77058399999937
  0
ARC
  5
4BE
  8
2
  6
CONTINUOUS
 62
     6
 10
1.64307188924063
 20
5.983398209729543
 30
0.0
 40
0.0494079406782151
 50
294.733302
 51
31.04183799999994
  0
ARC
  5
4BF
  8
2
  6
CONTINUOUS
 62
     6
 10
1.971552235224709
 20
6.735440383148275
 30
0.0
 40
0.0494079406782145
 50
281.768277
 51
17.83345199999997
  0
ARC
  5
4C0
  8
2
  6
CONTINUOUS
 62
     6
 10
1.88855389829711
 20
4.4217232262314
 30
0.0
 40
0.0444671466103943
 50
320.5311559999989
 51
57.80336699999891
  0
ARC
  5
4C1
  8
2
  6
CONTINUOUS
 62
     6
 10
1.849444361714992
 20
5.158670788052442
 30
0.0
 40
0.0444671466103936
 50
308.2721899999997
 51
44.77058399999968
  0
ARC
  5
4C2
  8
2
  6
CONTINUOUS
 62
     6
 10
1.980057991816089
 20
5.881115639531287
 30
0.0
 40
0.0444671466103937
 50
294.7333019999998
 51
31.04183899999977
  0
ARC
  5
4C3
  8
2
  6
CONTINUOUS
 62
     6
 10
1.007392532489152
 20
3.269439457095019
 30
0.0
 40
0.0609974576274262
 50
335.805181
 51
72.28247300000001
  0
ARC
  5
4C4
  8
2
  6
CONTINUOUS
 62
     6
 10
0.7270877526227042
 20
4.221412093713127
 30
0.0
 40
0.0609974576274258
 50
320.5311550000005
 51
57.80336700000043
  0
ARC
  5
4C5
  8
2
  6
CONTINUOUS
 62
     6
 10
0.673440488639383
 20
5.232313922312072
 30
0.0
 40
0.0609974576274262
 50
308.2721899999999
 51
44.77058199999987
  0
ARC
  5
4C6
  8
2
  6
CONTINUOUS
 62
     6
 10
0.8526092245944608
 20
6.223321543064086
 30
0.0
 40
0.060997457627426
 50
294.7333020000001
 51
31.04183900000002
  0
ARC
  5
4C7
  8
2
  6
CONTINUOUS
 62
     6
 10
1.107389957191476
 20
5.205139554939053
 30
0.0
 40
0.054897711864684
 50
308.2721909999998
 51
44.7705829999998
  0
ARC
  5
4C8
  8
2
  6
CONTINUOUS
 62
     6
 10
1.867418279229206
 20
7.961276919940394
 30
0.0
 40
0.0609974576274258
 50
268.2324919999998
 51
4.204853999999798
  0
ARC
  5
4CA
  8
3
  6
CONTINUOUS
 62
     2
 10
5.012937433325416
 20
10.32470587524107
 30
0.0
 40
0.4110076469888866
 50
308.9546680000001
 51
232.9950110000001
  0
ARC
  5
4CB
  8
3
  6
CONTINUOUS
 62
     2
 10
4.738364155310848
 20
9.960399689143815
 30
0.0
 40
0.0451833019462426
 50
295.5358520000003
 51
52.99501000000038
  0
ARC
  5
4CC
  8
3
  6
CONTINUOUS
 62
     2
 10
5.029506150149103
 20
9.350987644978785
 30
0.0
 40
0.6302031405555943
 50
115.535851
 51
144.219869
  0
ARC
  5
4CD
  8
3
  6
CONTINUOUS
 62
     2
 10
4.463259973498413
 20
9.759078709827046
 30
0.0
 40
0.0677749529193634
 50
228.4984640000012
 51
324.2198690000012
  0
ARC
  5
4CE
  8
3
  6
CONTINUOUS
 62
     2
 10
4.00521425001839
 20
9.241380861535044
 30
0.0
 40
0.6234685694005077
 50
48.49846400000007
 51
157.6487190000001
  0
ARC
  5
4CF
  8
3
  6
CONTINUOUS
 62
     2
 10
3.365904414955531
 20
9.504249405180438
 30
0.0
 40
0.0677749529193644
 50
239.9918460000011
 51
337.648720000001
  0
ARC
  5
4D0
  8
3
  6
CONTINUOUS
 62
     2
 10
3.0382238134159
 20
8.93687590514619
 30
0.0
 40
0.5874247198554416
 50
59.99184600000007
 51
172.849872
  0
ARC
  5
4D1
  8
3
  6
CONTINUOUS
 62
     2
 10
2.388118557935535
 20
9.01842837641151
 30
0.0
 40
0.0677749529193629
 50
255.2951690000004
 51
352.8498720000003
  0
ARC
  5
4D2
  8
3
  6
CONTINUOUS
 62
     2
 10
2.211567064745693
 20
8.345686286656079
 30
0.0
 40
0.6277485576773637
 50
75.29516899999997
 51
184.204854
  0
ARC
  5
4D3
  8
3
  6
CONTINUOUS
 62
     2
 10
1.517916402014638
 20
8.294687893749355
 30
0.0
 40
0.0677749529193604
 50
268.2324920000001
 51
4.204855000000081
  0
ARC
  5
4D4
  8
3
  6
CONTINUOUS
 62
     2
 10
1.496670083856967
 20
7.60618925702272
 30
0.0
 40
0.6210523923289317
 50
88.23249199999998
 51
197.833452
  0
ARC
  5
4D5
  8
3
  6
CONTINUOUS
 62
     2
 10
0.840940636866844
 20
7.395235197731011
 30
0.0
 40
0.0677749529193628
 50
281.7682769999999
 51
17.83345099999984
  0
ARC
  5
4D6
  8
3
  6
CONTINUOUS
 62
     2
 10
0.9817103436629083
 20
6.719540379193391
 30
0.0
 40
0.6224282238731945
 50
101.768277
 51
211.041838
  0
ARC
  5
4D7
  8
3
  6
CONTINUOUS
 62
     2
 10
0.3903501582079496
 20
6.363626991432652
 30
0.0
 40
0.0677749529193628
 50
294.7333019999998
 51
31.04183899999977
  0
ARC
  5
4D8
  8
3
  6
CONTINUOUS
 62
     2
 10
0.6760520834918757
 20
5.743418397267567
 30
0.0
 40
0.6150746414814434
 50
114.733302
 51
224.770583
  0
ARC
  5
4D9
  8
3
  6
CONTINUOUS
 62
     2
 10
0.1912747889979064
 20
5.262507663837647
 30
0.0
 40
0.0677749529193625
 50
308.2721899999999
 51
44.77058299999985
  0
ARC
  5
4DA
  8
3
  6
CONTINUOUS
 62
     2
 10
0.6177577169033834
 20
4.721947064760847
 30
0.0
 40
0.6207699966917676
 50
128.27219
 51
237.803367
  0
ARC
  5
4DB
  8
3
  6
CONTINUOUS
 62
     2
 10
0.2508828600904856
 20
4.139282405765443
 30
0.0
 40
0.0677749529193623
 50
320.5311550000001
 51
57.80336700000002
  0
ARC
  5
4DC
  8
3
  6
CONTINUOUS
 62
     2
 10
0.7650089683636361
 20
3.715938587762682
 30
0.0
 40
0.5982178811078491
 50
140.531155
 51
252.2824730000001
  0
ARC
  5
4DD
  8
3
  6
CONTINUOUS
 62
     2
 10
0.5623313604059289
 20
3.081535659291185
 30
0.0
 40
0.0677749529193624
 50
335.8051799999998
 51
72.28247299999987
  0
ARC
  5
4DE
  8
3
  6
CONTINUOUS
 62
     2
 10
1.211791624251011
 20
2.789727210749224
 30
0.0
 40
0.6442302966448045
 50
155.805181
 51
263.905531
  0
ARC
  5
4DF
  8
3
  6
CONTINUOUS
 62
     2
 10
1.136199960094949
 20
2.08174553422337
 30
0.0
 40
0.0677749529193622
 50
348.9094320000001
 51
83.90553000000006
  0
ARC
  5
4E0
  8
3
  6
CONTINUOUS
 62
     2
 10
1.825450898798988
 20
1.946638424743718
 30
0.0
 40
0.6345926983396709
 50
168.909432
 51
277.57303
  0
ARC
  5
4E1
  8
3
  6
CONTINUOUS
 62
     2
 10
1.918015670331157
 20
1.250396499646046
 30
0.0
 40
0.0677749529193626
 50
0.8075300000002171
 51
97.57302900000023
  0
ARC
  5
4E2
  8
3
  6
CONTINUOUS
 62
     2
 10
2.577569883831029
 20
1.259692964021485
 30
0.0
 40
0.5918447763683323
 50
180.80753
 51
292.474527
  0
ARC
  5
4E3
  8
3
  6
CONTINUOUS
 62
     2
 10
2.829724337002419
 20
0.6501713503492346
 30
0.0
 40
0.0677749529193628
 50
15.54633199999994
 51
112.474527
  0
ARC
  5
4E4
  8
3
  6
CONTINUOUS
 62
     2
 10
3.509938615317211
 20
0.839403537230289
 30
0.0
 40
0.6382706191180959
 50
195.546332
 51
304.47118
  0
ARC
  5
4E5
  8
3
  6
CONTINUOUS
 62
     2
 10
3.909554422302904
 20
0.257331909072929
 30
0.0
 40
0.067774952919362
 50
28.04278600000019
 51
124.4711790000002
  0
ARC
  5
4E6
  8
3
  6
CONTINUOUS
 62
     2
 10
4.505518786226185
 20
0.5747830110519304
 30
0.0
 40
0.6074646438511484
 50
208.0427859999999
 51
322.17268
  0
ARC
  5
4E7
  8
3
  6
CONTINUOUS
 62
     2
 10
5.012099283074313
 20
0.1814522013669596
 30
0.0
 40
0.0338874764596812
 50
37.93006799999998
 51
142.1726789999999
  0
ARC
  5
4E8
  8
3
  6
CONTINUOUS
 62
     2
 10
5.516847597028521
 20
0.5748135097807442
 30
0.0
 40
0.6060368515096464
 50
217.930068
 51
331.657036
  0
ARC
  5
4E9
  8
3
  6
CONTINUOUS
 62
     2
 10
6.109884082985685
 20
0.2549225094966456
 30
0.0
 40
0.0677749529193624
 50
54.75983700000018
 51
151.6570360000001
  0
ARC
  5
4EA
  8
3
  6
CONTINUOUS
 62
     2
 10
6.502965254927402
 20
0.8113221150707
 30
0.0
 40
0.613469504679803
 50
234.759837
 51
344.7539150000001
  0
ARC
  5
4EB
  8
3
  6
CONTINUOUS
 62
     2
 10
7.160233193348795
 20
0.6321782299316926
 30
0.0
 40
0.0677749529193624
 50
67.84133499999987
 51
164.7539149999998
  0
ARC
  5
4EC
  8
3
  6
CONTINUOUS
 62
     2
 10
7.418018615525236
 20
1.265166921052272
 30
0.0
 40
0.6156925231355581
 50
247.8413350000001
 51
358.500773
  0
ARC
  5
4ED
  8
3
  6
CONTINUOUS
 62
     2
 10
8.101252267992585
 20
1.247285629307047
 30
0.0
 40
0.0677749529193627
 50
82.83877699999881
 51
178.5007729999988
  0
ARC
  5
4EE
  8
3
  6
CONTINUOUS
 62
     2
 10
8.19064404214558
 20
1.958771270898832
 30
0.0
 40
0.6493043814533679
 50
262.8387769999999
 51
10.30609899999984
  0
ARC
  5
4EF
  8
3
  6
CONTINUOUS
 62
     2
 10
8.896155321637522
 20
2.087061349697345
 30
0.0
 40
0.0677749529193621
 50
94.01413199999928
 51
190.3060999999993
  0
ARC
  5
4F0
  8
3
  6
CONTINUOUS
 62
     2
 10
8.85016662733409
 20
2.742403349873279
 30
0.0
 40
0.5891789615535035
 50
274.0141309999997
 51
25.71379599999977
  0
ARC
  5
4F1
  8
3
  6
CONTINUOUS
 62
     2
 10
9.44206336449966
 20
3.027439951036047
 30
0.0
 40
0.0677749529193629
 50
108.3577110000004
 51
205.7137960000004
  0
ARC
  5
4F2
  8
3
  6
CONTINUOUS
 62
     2
 10
9.227090250499831
 20
3.67526909768087
 30
0.0
 40
0.6147911162617308
 50
288.3577109999999
 51
37.9307049999999
  0
ARC
  5
4F3
  8
3
  6
CONTINUOUS
 62
     2
 10
9.765467366510078
 20
4.09484801704896
 30
0.0
 40
0.0677749529193625
 50
121.6795349999997
 51
217.9307049999997
  0
ARC
  5
4F4
  8
3
  6
CONTINUOUS
 62
     2
 10
9.4021495651429
 20
4.683579663913198
 30
0.0
 40
0.6240378790050289
 50
301.6795349999999
 51
51.16757799999996
  0
ARC
  5
4F5
  8
3
  6
CONTINUOUS
 62
     2
 10
9.835947669633477
 20
5.222491072468958
 30
0.0
 40
0.0677749529193645
 50
135.2904330000009
 51
231.1675770000008
  0
ARC
  5
4F6
  8
3
  6
CONTINUOUS
 62
     2
 10
9.341486463949876
 20
5.71196404161769
 30
0.0
 40
0.6279812516823883
 50
315.2904339999999
 51
64.11973499999992
  0
ARC
  5
4F7
  8
3
  6
CONTINUOUS
 62
     2
 10
9.645178120903697
 20
6.337941413858762
 30
0.0
 40
0.0677749529193628
 50
146.6582279999998
 51
244.1197349999999
  0
ARC
  5
4F8
  8
3
  6
CONTINUOUS
 62
     2
 10
9.100265240266927
 20
6.696451711898863
 30
0.0
 40
0.5844968418893244
 50
326.658228
 51
79.3300969999999
  0
ARC
  5
4F9
  8
3
  6
CONTINUOUS
 62
     2
 10
9.221034558456484
 20
7.337445754541768
 30
0.0
 40
0.0677749529193616
 50
161.6772909999998
 51
259.330097
  0
ARC
  5
4FA
  8
3
  6
CONTINUOUS
 62
     2
 10
8.560637676375316
 20
7.556140843039418
 30
0.0
 40
0.6278920146610422
 50
341.67729
 51
91.05294599999988
  0
ARC
  5
4FB
  8
3
  6
CONTINUOUS
 62
     2
 10
8.547853061089628
 20
8.251690334034764
 30
0.0
 40
0.0677749529193624
 50
175.3461790000002
 51
271.0529460000003
  0
ARC
  5
4FC
  8
3
  6
CONTINUOUS
 62
     2
 10
7.848948709924772
 20
8.308584018262923
 30
0.0
 40
0.6334416537225915
 50
355.3461790000001
 51
103.8469690000001
  0
ARC
  5
4FD
  8
3
  6
CONTINUOUS
 62
     2
 10
7.681127760253493
 20
8.989421826144572
 30
0.0
 40
0.0677749529193618
 50
186.6749829999993
 51
283.8469689999993
  0
ARC
  5
4FE
  8
3
  6
CONTINUOUS
 62
     2
 10
7.040627345184351
 20
8.914463857798305
 30
0.0
 40
0.5770969466130794
 50
6.67498300000009
 51
119.1436700000001
  0
ARC
  5
4FF
  8
3
  6
CONTINUOUS
 62
     2
 10
6.726574027511707
 20
9.477695178626632
 30
0.0
 40
0.0677749529193616
 50
202.567221999999
 51
299.1436699999989
  0
ARC
  5
500
  8
3
  6
CONTINUOUS
 62
     2
 10
6.06206546495343
 20
9.201532577966105
 30
0.0
 40
0.6518335167798083
 50
22.56722300000017
 51
129.9525980000002
  0
ARC
  5
501
  8
3
  6
CONTINUOUS
 62
     2
 10
5.599965669706278
 20
9.75316760434993
 30
0.0
 40
0.0677749529193628
 50
215.1842160000003
 51
309.9525980000005
  0
ARC
  5
502
  8
3
  6
CONTINUOUS
 62
     2
 10
5.029506150149103
 20
9.350987644978785
 30
0.0
 40
0.6302031405555941
 50
35.18421700000008
 51
66.41382700000008
  0
ARC
  5
503
  8
3
  6
CONTINUOUS
 62
     2
 10
5.299747479089572
 20
9.969951439175253
 30
0.0
 40
0.0451833019462398
 50
128.9546670000013
 51
246.4138270000012
  0
ARC
  5
563
  8
1
  6
BYBLOCK
 62
     1
 10
5.994361900574282
 20
4.011785283171391
 30
0.0
 40
0.7715234186244806
 50
274.8270309076887
 51
299.3185543019358
  0
ENDSEC
  0
EOF
