  0
SECTION
  2
HEADER
  9
$ACADVER
  1
AC1009
  9
$INSBASE
 10
0.0
 20
0.0
 30
0.0
  9
$EXTMIN
 10
4.4999999999999432
 20
4.6398606691663531
 30
0.0
  9
$EXTMAX
 10
477.72323333333333
 20
395.50000000000023
 30
0.0
  9
$LIMMIN
 10
0.0
 20
0.0
  9
$LIMMAX
 10
12.0
 20
9.0
  9
$ORTHOMODE
 70
     0
  9
$REGENMODE
 70
     1
  9
$FILLMODE
 70
     1
  9
$QTEXTMODE
 70
     0
  9
$MIRRTEXT
 70
     1
  9
$DRAGMODE
 70
     2
  9
$LTSCALE
 40
1.0
  9
$OSMODE
 70
  3071
  9
$ATTMODE
 70
     1
  9
$TEXTSIZE
 40
0.2
  9
$TRACEWID
 40
0.05
  9
$TEXTSTYLE
  7
STANDARD
  9
$CLAYER
  8
0
  9
$CELTYPE
  6
BYLAYER
  9
$CECOLOR
 62
   256
  9
$DIMSCALE
 40
1.0
  9
$DIMASZ
 40
0.18
  9
$DIMEXO
 40
0.0625
  9
$DIMDLI
 40
0.38
  9
$DIMRND
 40
0.0
  9
$DIMDLE
 40
0.0
  9
$DIMEXE
 40
0.18
  9
$DIMTP
 40
0.0
  9
$DIMTM
 40
0.0
  9
$DIMTXT
 40
0.18
  9
$DIMCEN
 40
0.09
  9
$DIMTSZ
 40
0.0
  9
$DIMTOL
 70
     0
  9
$DIMLIM
 70
     0
  9
$DIMTIH
 70
     1
  9
$DIMTOH
 70
     1
  9
$DIMSE1
 70
     0
  9
$DIMSE2
 70
     0
  9
$DIMTAD
 70
     0
  9
$DIMZIN
 70
     0
  9
$DIMBLK
  1

  9
$DIMASO
 70
     1
  9
$DIMSHO
 70
     1
  9
$DIMPOST
  1

  9
$DIMAPOST
  1

  9
$DIMALT
 70
     0
  9
$DIMALTD
 70
     2
  9
$DIMALTF
 40
25.399999999999999
  9
$DIMLFAC
 40
1.0
  9
$DIMTOFL
 70
     0
  9
$DIMTVP
 40
0.0
  9
$DIMTIX
 70
     0
  9
$DIMSOXD
 70
     0
  9
$DIMSAH
 70
     0
  9
$DIMBLK1
  1

  9
$DIMBLK2
  1

  9
$DIMSTYLE
  2
STANDARD
  9
$DIMCLRD
 70
     0
  9
$DIMCLRE
 70
     0
  9
$DIMCLRT
 70
     0
  9
$DIMTFAC
 40
1.0
  9
$DIMGAP
 40
0.09
  9
$LUNITS
 70
     2
  9
$LUPREC
 70
     4
  9
$SKETCHINC
 40
0.1
  9
$FILLETRAD
 40
0.5
  9
$AUNITS
 70
     0
  9
$AUPREC
 70
     0
  9
$MENU
  1
.
  9
$ELEVATION
 40
0.0
  9
$PELEVATION
 40
0.0
  9
$THICKNESS
 40
0.0
  9
$LIMCHECK
 70
     0
  9
$BLIPMODE
 70
     0
  9
$CHAMFERA
 40
0.5
  9
$CHAMFERB
 40
0.5
  9
$SKPOLY
 70
     0
  9
$TDCREATE
 40
2454910.5
  9
$TDUPDATE
 40
2457460.8129409612
  9
$TDINDWG
 40
0.0002731597
  9
$TDUSRTIMER
 40
0.0002730671
  9
$USRTIMER
 70
     1
  9
$ANGBASE
 50
0.0
  9
$ANGDIR
 70
     0
  9
$PDMODE
 70
     0
  9
$PDSIZE
 40
0.0
  9
$PLINEWID
 40
0.0
  9
$COORDS
 70
     1
  9
$SPLFRAME
 70
     0
  9
$SPLINETYPE
 70
     6
  9
$SPLINESEGS
 70
     8
  9
$ATTDIA
 70
     0
  9
$ATTREQ
 70
     1
  9
$HANDLING
 70
     1
  9
$HANDSEED
  5
14BA
  9
$SURFTAB1
 70
     6
  9
$SURFTAB2
 70
     6
  9
$SURFTYPE
 70
     6
  9
$SURFU
 70
     6
  9
$SURFV
 70
     6
  9
$UCSNAME
  2

  9
$UCSORG
 10
0.0
 20
0.0
 30
0.0
  9
$UCSXDIR
 10
1.0
 20
0.0
 30
0.0
  9
$UCSYDIR
 10
0.0
 20
1.0
 30
0.0
  9
$PUCSNAME
  2

  9
$PUCSORG
 10
0.0
 20
0.0
 30
0.0
  9
$PUCSXDIR
 10
1.0
 20
0.0
 30
0.0
  9
$PUCSYDIR
 10
0.0
 20
1.0
 30
0.0
  9
$USERI1
 70
     0
  9
$USERI2
 70
     0
  9
$USERI3
 70
     0
  9
$USERI4
 70
     0
  9
$USERI5
 70
     0
  9
$USERR1
 40
0.0
  9
$USERR2
 40
0.0
  9
$USERR3
 40
0.0
  9
$USERR4
 40
0.0
  9
$USERR5
 40
0.0
  9
$WORLDVIEW
 70
     1
  9
$SHADEDGE
 70
     3
  9
$SHADEDIF
 70
    70
  9
$TILEMODE
 70
     1
  9
$MAXACTVP
 70
    64
  9
$PLIMCHECK
 70
     0
  9
$PEXTMIN
 10
1.0000000000000000E+020
 20
1.0000000000000000E+020
 30
1.0000000000000000E+020
  9
$PEXTMAX
 10
-1.0000000000000000E+020
 20
-1.0000000000000000E+020
 30
-1.0000000000000000E+020
  9
$PLIMMIN
 10
0.0
 20
0.0
  9
$PLIMMAX
 10
12.0
 20
9.0
  9
$UNITMODE
 70
     0
  9
$VISRETAIN
 70
     1
  9
$PLINEGEN
 70
     0
  9
$PSLTSCALE
 70
     1
  0
ENDSEC
  0
SECTION
  2
TABLES
  0
TABLE
  2
VPORT
 70
     1
  0
VPORT
  2
*ACTIVE
 70
     0
 10
0.0
 20
0.0
 11
1.0
 21
1.0
 12
271.82165018499683
 22
137.30801328486569
 13
0.0
 23
0.0
 14
0.5
 24
0.5
 15
0.5
 25
0.5
 16
0.0
 26
0.0
 36
1.0
 17
0.0
 27
0.0
 37
0.0
 40
468.90134209781098
 41
2.3996175908221788
 42
50.0
 43
0.0
 44
0.0
 50
0.0
 51
0.0
 71
     0
 72
   100
 73
     1
 74
     3
 75
     0
 76
     0
 77
     0
 78
     0
  0
ENDTAB
  0
TABLE
  2
LTYPE
 70
     2
  0
LTYPE
  2
CONTINUOUS
 70
     0
  3
Solid line
 72
    65
 73
     0
 40
0.0
  0
LTYPE
  2
CONTINUOUS2
 70
     0
  3
Solid Line
 72
    65
 73
     0
 40
0.0
  0
ENDTAB
  0
TABLE
  2
LAYER
 70
     3
  0
LAYER
  2
0
 70
     0
 62
     7
  6
CONTINUOUS
  0
LAYER
  2
IMPORT_-_CARRO\\U+00C7A_2
 70
     0
 62
    18
  6
CONTINUOUS
  0
LAYER
  2
DEFPOINTS
 70
     0
 62
     7
  6
CONTINUOUS
  0
ENDTAB
  0
TABLE
  2
STYLE
 70
     2
  0
STYLE
  2
STANDARD
 70
     0
 40
0.0
 41
1.0
 50
0.0
 71
     0
 42
0.2
  3
txt
  4

  0
STYLE
  2
ANNOTATIVE
 70
     0
 40
0.0
 41
1.0
 50
0.0
 71
     0
 42
0.2
  3
txt
  4

  0
ENDTAB
  0
TABLE
  2
VIEW
 70
     0
  0
ENDTAB
  0
TABLE
  2
UCS
 70
     0
  0
ENDTAB
  0
TABLE
  2
APPID
 70
     3
  0
APPID
  2
ACAD
 70
     0
  0
APPID
  2
ACADANNOTATIVE
 70
     0
  0
APPID
  2
ACAD_MLEADERVER
 70
     0
  0
ENDTAB
  0
TABLE
  2
DIMSTYLE
 70
     2
  0
DIMSTYLE
  2
STANDARD
 70
     0
  3

  4

  5

  6

  7

 40
1.0
 41
0.18
 42
0.0625
 43
0.38
 44
0.18
 45
0.0
 46
0.0
 47
0.0
 48
0.0
140
0.18
141
0.09
142
0.0
143
25.399999999999999
144
1.0
145
0.0
146
1.0
147
0.09
 71
     0
 72
     0
 73
     1
 74
     1
 75
     0
 76
     0
 77
     0
 78
     0
170
     0
171
     2
172
     0
173
     0
174
     0
175
     0
176
     0
177
     0
178
     0
  0
DIMSTYLE
  2
ANNOTATIVE
 70
     0
  3

  4

  5

  6

  7

 40
1.0
 41
0.18
 42
0.0625
 43
0.38
 44
0.18
 45
0.0
 46
0.0
 47
0.0
 48
0.0
140
0.18
141
0.09
142
0.0
143
25.399999999999999
144
1.0
145
0.0
146
1.0
147
0.09
 71
     0
 72
     0
 73
     1
 74
     1
 75
     0
 76
     0
 77
     0
 78
     0
170
     0
171
     2
172
     0
173
     0
174
     0
175
     0
176
     0
177
     0
178
     0
  0
ENDTAB
  0
ENDSEC
  0
SECTION
  2
BLOCKS
  0
BLOCK
  8
0
  2
$MODEL_SPACE
 70
     0
 10
0.0
 20
0.0
 30
0.0
  3
$MODEL_SPACE
  1

  0
ENDBLK
  5
AA9
  8
0
  0
BLOCK
 67
     1
  8
0
  2
$PAPER_SPACE
 70
     0
 10
0.0
 20
0.0
 30
0.0
  3
$PAPER_SPACE
  1

  0
ENDBLK
  5
AA5
 67
     1
  8
0
  0
BLOCK
  8
0
  2
*D2
 70
     1
 10
0.0
 20
0.0
 30
0.0
  3
*D2
  1

  0
LINE
  5
AB9
  8
0
 62
     0
 10
281.66043055555542
 20
138.21455002151291
 30
0.0
 11
281.66043055555542
 21
139.76144056699829
 31
0.0
  0
LINE
  5
ABA
  8
0
 62
     0
 10
284.66045277777761
 20
138.21455002151291
 30
0.0
 11
284.66045277777761
 21
139.76144056699829
 31
0.0
  0
LINE
  5
ABB
  8
0
 62
     0
 10
281.84043055555537
 20
139.58144056699831
 30
0.0
 11
282.68044166666652
 21
139.58144056699831
 31
0.0
  0
LINE
  5
ABC
  8
0
 62
     0
 10
284.4804527777776
 20
139.58144056699831
 30
0.0
 11
283.6404416666665
 21
139.58144056699831
 31
0.0
  0
SOLID
  5
ABD
  8
0
 62
     0
 10
281.84043055555537
 20
139.61144056699831
 30
0.0
 11
281.84043055555537
 21
139.55144056699831
 31
0.0
 12
281.66043055555542
 22
139.58144056699831
 32
0.0
 13
281.66043055555542
 23
139.58144056699831
 33
0.0
  0
SOLID
  5
ABE
  8
0
 62
     0
 10
284.4804527777776
 20
139.61144056699831
 30
0.0
 11
284.4804527777776
 21
139.55144056699831
 31
0.0
 12
284.66045277777761
 22
139.58144056699831
 32
0.0
 13
284.66045277777761
 23
139.58144056699831
 33
0.0
  0
INSERT
  5
ABF
  8
0
  2
*U3
 10
0.0
 20
0.0
 30
0.0
  0
POINT
  5
AC0
  8
DEFPOINTS
 62
     0
 10
281.66043055555542
 20
138.15205002151291
 30
0.0
  0
POINT
  5
AC1
  8
DEFPOINTS
 62
     0
 10
284.66045277777761
 20
138.15205002151291
 30
0.0
  0
POINT
  5
AC2
  8
DEFPOINTS
 62
     0
 10
284.66045277777761
 20
139.58144056699831
 30
0.0
  0
ENDBLK
  5
AB8
  8
0
  0
BLOCK
  8
0
  2
*U3
 70
     1
 10
0.0
 20
0.0
 30
0.0
  3
*U3
  1

  0
TEXT
  5
14B7
  8
0
 62
     0
 10
282.7704416666665
 20
139.49144056699831
 30
0.0
 40
0.18
  1
3.0000
  0
ENDBLK
  5
14B9
  8
0
  0
ENDSEC
  0
SECTION
  2
ENTITIES
  0
POLYLINE
  5
41
  8
IMPORT_-_CARRO\\U+00C7A_2
 62
     0
 66
     1
 10
0.0
 20
0.0
 30
0.0
 70
     1
  0
VERTEX
  5
AD3
  8
IMPORT_-_CARRO\\U+00C7A_2
 62
     0
 10
42.032236408587153
 20
8.7744362199908892
 30
0.0
  0
VERTEX
  5
AD4
  8
IMPORT_-_CARRO\\U+00C7A_2
 62
     0
 10
39.010341964142711
 20
8.7744362199908892
 30
0.0
  0
VERTEX
  5
AD5
  8
IMPORT_-_CARRO\\U+00C7A_2
 62
     0
 10
39.010341964142711
 20
4.8582501088797567
 30
0.0
  0
VERTEX
  5
AD6
  8
IMPORT_-_CARRO\\U+00C7A_2
 62
     0
 10
11.53142251969825
 20
4.8582501088797567
 30
0.0
  0
VERTEX
  5
AD7
  8
IMPORT_-_CARRO\\U+00C7A_2
 62
     0
 10
11.50919751969826
 20
244.11002233110199
 30
0.0
  0
VERTEX
  5
AD8
  8
IMPORT_-_CARRO\\U+00C7A_2
 62
     0
 10
8.5091752974760198
 20
244.11002233110199
 30
0.0
  0
VERTEX
  5
AD9
  8
IMPORT_-_CARRO\\U+00C7A_2
 62
     0
 10
8.4668419641427022
 20
220.71873899776861
 30
0.0
  0
VERTEX
  5
ADA
  8
IMPORT_-_CARRO\\U+00C7A_2
 62
     0
 10
4.5019725196982554
 20
220.72579455332411
 30
0.0
  0
VERTEX
  5
ADB
  8
IMPORT_-_CARRO\\U+00C7A_2
 62
     0
 10
4.5605336308093456
 20
261.50408344221307
 30
0.0
  0
VERTEX
  5
ADC
  8
IMPORT_-_CARRO\\U+00C7A_2
 62
     0
 10
4.6984697419204613
 20
262.53948621999092
 30
0.0
  0
VERTEX
  5
ADD
  8
IMPORT_-_CARRO\\U+00C7A_2
 62
     0
 10
5.0995780752538158
 20
263.50362788665751
 30
0.0
  0
VERTEX
  5
ADE
  8
IMPORT_-_CARRO\\U+00C7A_2
 62
     0
 10
5.7363419641426958
 20
264.33159733110188
 30
0.0
  0
VERTEX
  5
ADF
  8
IMPORT_-_CARRO\\U+00C7A_2
 62
     0
 10
6.5657225196982267
 20
264.96624455332409
 30
0.0
  0
VERTEX
  5
AE0
  8
IMPORT_-_CARRO\\U+00C7A_2
 62
     0
 10
7.5309225196982643
 20
265.364883442213
 30
0.0
  0
VERTEX
  5
AE1
  8
IMPORT_-_CARRO\\U+00C7A_2
 62
     0
 10
8.5663252974759967
 20
265.49999733110201
 30
0.0
  0
VERTEX
  5
AE2
  8
IMPORT_-_CARRO\\U+00C7A_2
 62
     0
 10
103.03456974192051
 20
265.49717510887967
 30
0.0
  0
VERTEX
  5
AE3
  8
IMPORT_-_CARRO\\U+00C7A_2
 62
     0
 10
104.0696197419205
 20
265.36065010887978
 30
0.0
  0
VERTEX
  5
AE4
  8
IMPORT_-_CARRO\\U+00C7A_2
 62
     0
 10
105.03446696414269
 20
264.96130566443532
 30
0.0
  0
VERTEX
  5
AE5
  8
IMPORT_-_CARRO\\U+00C7A_2
 62
     0
 10
105.86278918636491
 20
264.32560010887971
 30
0.0
  0
VERTEX
  5
AE6
  8
IMPORT_-_CARRO\\U+00C7A_2
 62
     0
 10
106.4984947419205
 20
263.49727788665751
 30
0.0
  0
VERTEX
  5
AE7
  8
IMPORT_-_CARRO\\U+00C7A_2
 62
     0
 10
106.8981919641427
 20
262.53243066443531
 30
0.0
  0
VERTEX
  5
AE8
  8
IMPORT_-_CARRO\\U+00C7A_2
 62
     0
 10
107.0343641863649
 20
261.49702788665752
 30
0.0
  0
VERTEX
  5
AE9
  8
IMPORT_-_CARRO\\U+00C7A_2
 62
     0
 10
107.0343641863649
 20
220.72579455332411
 30
0.0
  0
VERTEX
  5
AEA
  8
IMPORT_-_CARRO\\U+00C7A_2
 62
     0
 10
102.9484919641426
 20
220.72579455332411
 30
0.0
  0
VERTEX
  5
AEB
  8
IMPORT_-_CARRO\\U+00C7A_2
 62
     0
 10
102.9484919641426
 20
244.11002233110199
 30
0.0
  0
VERTEX
  5
AEC
  8
IMPORT_-_CARRO\\U+00C7A_2
 62
     0
 10
99.948822519698254
 20
244.11002233110199
 30
0.0
  0
VERTEX
  5
AED
  8
IMPORT_-_CARRO\\U+00C7A_2
 62
     0
 10
99.948822519698254
 20
4.8582501088797567
 30
0.0
  0
VERTEX
  5
AEE
  8
IMPORT_-_CARRO\\U+00C7A_2
 62
     0
 10
72.53340307525383
 20
4.8582501088797567
 30
0.0
  0
VERTEX
  5
AEF
  8
IMPORT_-_CARRO\\U+00C7A_2
 62
     0
 10
72.53340307525383
 20
8.7744362199908892
 30
0.0
  0
VERTEX
  5
AF0
  8
IMPORT_-_CARRO\\U+00C7A_2
 62
     0
 10
69.511508630809359
 20
8.7744362199908892
 30
0.0
  0
VERTEX
  5
AF1
  8
IMPORT_-_CARRO\\U+00C7A_2
 62
     0
 10
69.511508630809359
 20
4.8582501088797567
 30
0.0
  0
VERTEX
  5
AF2
  8
IMPORT_-_CARRO\\U+00C7A_2
 62
     0
 10
42.032236408587153
 20
4.8582501088797567
 30
0.0
  0
SEQEND
  5
AF3
  8
IMPORT_-_CARRO\\U+00C7A_2
 62
     0
  0
POLYLINE
  5
42
  8
IMPORT_-_CARRO\\U+00C7A_2
 62
     0
 66
     1
 10
0.0
 20
0.0
 30
0.0
 70
     1
  0
VERTEX
  5
AF4
  8
IMPORT_-_CARRO\\U+00C7A_2
 62
     0
 10
273.96930555555559
 20
299.30248611111102
 30
0.0
  0
VERTEX
  5
AF5
  8
IMPORT_-_CARRO\\U+00C7A_2
 62
     0
 10
273.80244166666682
 20
298.53731111111108
 30
0.0
  0
VERTEX
  5
AF6
  8
IMPORT_-_CARRO\\U+00C7A_2
 62
     0
 10
273.44331388888901
 20
297.84128055555561
 30
0.0
  0
VERTEX
  5
AF7
  8
IMPORT_-_CARRO\\U+00C7A_2
 62
     0
 10
272.91626388888898
 20
297.26201944444432
 30
0.0
  0
VERTEX
  5
AF8
  8
IMPORT_-_CARRO\\U+00C7A_2
 62
     0
 10
272.25692222222227
 20
296.83903888888881
 30
0.0
  0
VERTEX
  5
AF9
  8
IMPORT_-_CARRO\\U+00C7A_2
 62
     0
 10
271.5111500000001
 20
296.6009138888889
 30
0.0
  0
VERTEX
  5
AFA
  8
IMPORT_-_CARRO\\U+00C7A_2
 62
     0
 10
270.728688888889
 20
296.56387222222219
 30
0.0
  0
VERTEX
  5
AFB
  8
IMPORT_-_CARRO\\U+00C7A_2
 62
     0
 10
267.50959166666678
 20
296.8344527777777
 30
0.0
  0
VERTEX
  5
AFC
  8
IMPORT_-_CARRO\\U+00C7A_2
 62
     0
 10
267.38506111111121
 20
296.13383611111112
 30
0.0
  0
VERTEX
  5
AFD
  8
IMPORT_-_CARRO\\U+00C7A_2
 62
     0
 10
266.94867500000009
 20
294.13146944444429
 30
0.0
  0
VERTEX
  5
AFE
  8
IMPORT_-_CARRO\\U+00C7A_2
 62
     0
 10
266.43397222222228
 20
292.1477999999999
 30
0.0
  0
VERTEX
  5
AFF
  8
IMPORT_-_CARRO\\U+00C7A_2
 62
     0
 10
265.87905277777787
 20
290.27737222222208
 30
0.0
  0
VERTEX
  5
B00
  8
IMPORT_-_CARRO\\U+00C7A_2
 62
     0
 10
264.61328611111122
 20
287.09002499999991
 30
0.0
  0
VERTEX
  5
B01
  8
IMPORT_-_CARRO\\U+00C7A_2
 62
     0
 10
267.40164166666682
 20
285.98265555555548
 30
0.0
  0
VERTEX
  5
B02
  8
IMPORT_-_CARRO\\U+00C7A_2
 62
     0
 10
268.66740833333341
 20
289.17035555555537
 30
0.0
  0
VERTEX
  5
B03
  8
IMPORT_-_CARRO\\U+00C7A_2
 62
     0
 10
269.0896833333336
 20
288.96292222222229
 30
0.0
  0
VERTEX
  5
B04
  8
IMPORT_-_CARRO\\U+00C7A_2
 62
     0
 10
269.47491666666667
 20
288.69163611111099
 30
0.0
  0
VERTEX
  5
B05
  8
IMPORT_-_CARRO\\U+00C7A_2
 62
     0
 10
269.81252499999999
 20
288.3639055555555
 30
0.0
  0
VERTEX
  5
B06
  8
IMPORT_-_CARRO\\U+00C7A_2
 62
     0
 10
270.09474722222228
 20
287.98713888888892
 30
0.0
  0
VERTEX
  5
B07
  8
IMPORT_-_CARRO\\U+00C7A_2
 62
     0
 10
270.31452777777793
 20
287.57086111111101
 30
0.0
  0
VERTEX
  5
B08
  8
IMPORT_-_CARRO\\U+00C7A_2
 62
     0
 10
270.46657500000009
 20
287.12530277777768
 30
0.0
  0
VERTEX
  5
B09
  8
IMPORT_-_CARRO\\U+00C7A_2
 62
     0
 10
270.54700833333339
 20
286.6613999999999
 30
0.0
  0
VERTEX
  5
B0A
  8
IMPORT_-_CARRO\\U+00C7A_2
 62
     0
 10
270.554063888889
 20
286.19079444444441
 30
0.0
  0
VERTEX
  5
B0B
  8
IMPORT_-_CARRO\\U+00C7A_2
 62
     0
 10
270.48738888888897
 20
285.72477500000002
 30
0.0
  0
VERTEX
  5
B0C
  8
IMPORT_-_CARRO\\U+00C7A_2
 62
     0
 10
270.34839444444458
 20
285.2749833333333
 30
0.0
  0
VERTEX
  5
B0D
  8
IMPORT_-_CARRO\\U+00C7A_2
 62
     0
 10
269.28335833333352
 20
282.59281388888883
 30
0.0
  0
VERTEX
  5
B0E
  8
IMPORT_-_CARRO\\U+00C7A_2
 62
     0
 10
375.0627166666668
 20
282.59281388888883
 30
0.0
  0
VERTEX
  5
B0F
  8
IMPORT_-_CARRO\\U+00C7A_2
 62
     0
 10
375.0627166666668
 20
276.4640055555555
 30
0.0
  0
VERTEX
  5
B10
  8
IMPORT_-_CARRO\\U+00C7A_2
 62
     0
 10
223.0511250000001
 20
271.4520916666666
 30
0.0
  0
VERTEX
  5
B11
  8
IMPORT_-_CARRO\\U+00C7A_2
 62
     0
 10
151.4023111111112
 20
271.4520916666666
 30
0.0
  0
VERTEX
  5
B12
  8
IMPORT_-_CARRO\\U+00C7A_2
 62
     0
 10
151.4023111111112
 20
276.58959444444451
 30
0.0
  0
VERTEX
  5
B13
  8
IMPORT_-_CARRO\\U+00C7A_2
 62
     0
 10
148.40228888888899
 20
276.58959444444451
 30
0.0
  0
VERTEX
  5
B14
  8
IMPORT_-_CARRO\\U+00C7A_2
 62
     0
 10
148.40228888888899
 20
271.4520916666666
 30
0.0
  0
VERTEX
  5
B15
  8
IMPORT_-_CARRO\\U+00C7A_2
 62
     0
 10
53.26835277777792
 20
271.4520916666666
 30
0.0
  0
VERTEX
  5
B16
  8
IMPORT_-_CARRO\\U+00C7A_2
 62
     0
 10
53.26835277777792
 20
276.58959444444451
 30
0.0
  0
VERTEX
  5
B17
  8
IMPORT_-_CARRO\\U+00C7A_2
 62
     0
 10
50.268330555555742
 20
276.58959444444451
 30
0.0
  0
VERTEX
  5
B18
  8
IMPORT_-_CARRO\\U+00C7A_2
 62
     0
 10
50.268330555555742
 20
271.4520916666666
 30
0.0
  0
VERTEX
  5
B19
  8
IMPORT_-_CARRO\\U+00C7A_2
 62
     0
 10
19.49693611111115
 20
271.4520916666666
 30
0.0
  0
VERTEX
  5
B1A
  8
IMPORT_-_CARRO\\U+00C7A_2
 62
     0
 10
17.426483333333412
 20
271.72443611111112
 30
0.0
  0
VERTEX
  5
B1B
  8
IMPORT_-_CARRO\\U+00C7A_2
 62
     0
 10
15.497141666666719
 20
272.52347777777771
 30
0.0
  0
VERTEX
  5
B1C
  8
IMPORT_-_CARRO\\U+00C7A_2
 62
     0
 10
13.840144444444601
 20
273.79488888888892
 30
0.0
  0
VERTEX
  5
B1D
  8
IMPORT_-_CARRO\\U+00C7A_2
 62
     0
 10
12.5687333333334
 20
275.45188611111121
 30
0.0
  0
VERTEX
  5
B1E
  8
IMPORT_-_CARRO\\U+00C7A_2
 62
     0
 10
11.769691666666739
 20
277.38122777777761
 30
0.0
  0
VERTEX
  5
B1F
  8
IMPORT_-_CARRO\\U+00C7A_2
 62
     0
 10
11.496994444444571
 20
279.4520333333333
 30
0.0
  0
VERTEX
  5
B20
  8
IMPORT_-_CARRO\\U+00C7A_2
 62
     0
 10
11.496994444444571
 20
279.58961666666659
 30
0.0
  0
VERTEX
  5
B21
  8
IMPORT_-_CARRO\\U+00C7A_2
 62
     0
 10
26.884102777777908
 20
279.58961666666659
 30
0.0
  0
VERTEX
  5
B22
  8
IMPORT_-_CARRO\\U+00C7A_2
 62
     0
 10
26.884102777777908
 20
282.61151111111099
 30
0.0
  0
VERTEX
  5
B23
  8
IMPORT_-_CARRO\\U+00C7A_2
 62
     0
 10
11.496994444444571
 20
282.61151111111099
 30
0.0
  0
VERTEX
  5
B24
  8
IMPORT_-_CARRO\\U+00C7A_2
 62
     0
 10
11.496994444444571
 20
290.65625555555539
 30
0.0
  0
VERTEX
  5
B25
  8
IMPORT_-_CARRO\\U+00C7A_2
 62
     0
 10
8.4997944444445483
 20
290.65625555555539
 30
0.0
  0
VERTEX
  5
B26
  8
IMPORT_-_CARRO\\U+00C7A_2
 62
     0
 10
8.4997944444445483
 20
282.61151111111099
 30
0.0
  0
VERTEX
  5
B27
  8
IMPORT_-_CARRO\\U+00C7A_2
 62
     0
 10
7.4647444444444773
 20
282.74768333333333
 30
0.0
  0
VERTEX
  5
B28
  8
IMPORT_-_CARRO\\U+00C7A_2
 62
     0
 10
6.4998972222223301
 20
283.14738055555563
 30
0.0
  0
VERTEX
  5
B29
  8
IMPORT_-_CARRO\\U+00C7A_2
 62
     0
 10
5.6715750000001881
 20
283.78308611111112
 30
0.0
  0
VERTEX
  5
B2A
  8
IMPORT_-_CARRO\\U+00C7A_2
 62
     0
 10
5.0358694444445282
 20
284.61176111111098
 30
0.0
  0
VERTEX
  5
B2B
  8
IMPORT_-_CARRO\\U+00C7A_2
 62
     0
 10
4.6361722222222852
 20
285.57625555555541
 30
0.0
  0
VERTEX
  5
B2C
  8
IMPORT_-_CARRO\\U+00C7A_2
 62
     0
 10
4.5000000000001128
 20
286.61165833333331
 30
0.0
  0
VERTEX
  5
B2D
  8
IMPORT_-_CARRO\\U+00C7A_2
 62
     0
 10
4.5000000000001128
 20
295.8893611111111
 30
0.0
  0
VERTEX
  5
B2E
  8
IMPORT_-_CARRO\\U+00C7A_2
 62
     0
 10
4.6023055555556311
 20
296.66582499999998
 30
0.0
  0
VERTEX
  5
B2F
  8
IMPORT_-_CARRO\\U+00C7A_2
 62
     0
 10
4.9018138888890226
 20
297.38937222222211
 30
0.0
  0
VERTEX
  5
B30
  8
IMPORT_-_CARRO\\U+00C7A_2
 62
     0
 10
5.3784166666667934
 20
298.01061388888883
 30
0.0
  0
VERTEX
  5
B31
  8
IMPORT_-_CARRO\\U+00C7A_2
 62
     0
 10
6.0000111111112346
 20
298.48756944444438
 30
0.0
  0
VERTEX
  5
B32
  8
IMPORT_-_CARRO\\U+00C7A_2
 62
     0
 10
6.7235583333334734
 20
298.78707777777782
 30
0.0
  0
VERTEX
  5
B33
  8
IMPORT_-_CARRO\\U+00C7A_2
 62
     0
 10
7.5000222222223556
 20
298.88938333333329
 30
0.0
  0
VERTEX
  5
B34
  8
IMPORT_-_CARRO\\U+00C7A_2
 62
     0
 10
48.268433333333462
 20
298.88938333333329
 30
0.0
  0
VERTEX
  5
B35
  8
IMPORT_-_CARRO\\U+00C7A_2
 62
     0
 10
48.268433333333462
 20
302.8500194444444
 30
0.0
  0
VERTEX
  5
B36
  8
IMPORT_-_CARRO\\U+00C7A_2
 62
     0
 10
8.4997944444445483
 20
302.8500194444444
 30
0.0
  0
VERTEX
  5
B37
  8
IMPORT_-_CARRO\\U+00C7A_2
 62
     0
 10
7.7233305555556608
 20
302.95232499999992
 30
0.0
  0
VERTEX
  5
B38
  8
IMPORT_-_CARRO\\U+00C7A_2
 62
     0
 10
6.9997833333334247
 20
303.25183333333331
 30
0.0
  0
VERTEX
  5
B39
  8
IMPORT_-_CARRO\\U+00C7A_2
 62
     0
 10
6.3785416666668189
 20
303.7287888888888
 30
0.0
  0
VERTEX
  5
B3A
  8
IMPORT_-_CARRO\\U+00C7A_2
 62
     0
 10
5.9019388888889353
 20
304.35003055555552
 30
0.0
  0
VERTEX
  5
B3B
  8
IMPORT_-_CARRO\\U+00C7A_2
 62
     0
 10
5.6020777777778221
 20
305.07357777777759
 30
0.0
  0
VERTEX
  5
B3C
  8
IMPORT_-_CARRO\\U+00C7A_2
 62
     0
 10
5.4997722222223038
 20
305.85004166666653
 30
0.0
  0
VERTEX
  5
B3D
  8
IMPORT_-_CARRO\\U+00C7A_2
 62
     0
 10
5.4997722222223038
 20
315.87880833333332
 30
0.0
  0
VERTEX
  5
B3E
  8
IMPORT_-_CARRO\\U+00C7A_2
 62
     0
 10
5.6020777777778221
 20
316.6552722222221
 30
0.0
  0
VERTEX
  5
B3F
  8
IMPORT_-_CARRO\\U+00C7A_2
 62
     0
 10
5.9019388888889353
 20
317.37881944444439
 30
0.0
  0
VERTEX
  5
B40
  8
IMPORT_-_CARRO\\U+00C7A_2
 62
     0
 10
6.3785416666668189
 20
318.00006111111111
 30
0.0
  0
VERTEX
  5
B41
  8
IMPORT_-_CARRO\\U+00C7A_2
 62
     0
 10
6.9997833333334247
 20
318.47666388888888
 30
0.0
  0
VERTEX
  5
B42
  8
IMPORT_-_CARRO\\U+00C7A_2
 62
     0
 10
7.7233305555556608
 20
318.77652499999999
 30
0.0
  0
VERTEX
  5
B43
  8
IMPORT_-_CARRO\\U+00C7A_2
 62
     0
 10
8.4997944444445483
 20
318.87883055555562
 30
0.0
  0
VERTEX
  5
B44
  8
IMPORT_-_CARRO\\U+00C7A_2
 62
     0
 10
8.4997944444445483
 20
310.86442499999993
 30
0.0
  0
VERTEX
  5
B45
  8
IMPORT_-_CARRO\\U+00C7A_2
 62
     0
 10
11.496994444444571
 20
310.86442499999993
 30
0.0
  0
VERTEX
  5
B46
  8
IMPORT_-_CARRO\\U+00C7A_2
 62
     0
 10
11.496994444444571
 20
318.87883055555562
 30
0.0
  0
VERTEX
  5
B47
  8
IMPORT_-_CARRO\\U+00C7A_2
 62
     0
 10
48.268433333333462
 20
318.87883055555562
 30
0.0
  0
VERTEX
  5
B48
  8
IMPORT_-_CARRO\\U+00C7A_2
 62
     0
 10
48.268433333333462
 20
322.92871944444443
 30
0.0
  0
VERTEX
  5
B49
  8
IMPORT_-_CARRO\\U+00C7A_2
 62
     0
 10
11.496994444444571
 20
322.92871944444443
 30
0.0
  0
VERTEX
  5
B4A
  8
IMPORT_-_CARRO\\U+00C7A_2
 62
     0
 10
11.496994444444571
 20
330.05765277777778
 30
0.0
  0
VERTEX
  5
B4B
  8
IMPORT_-_CARRO\\U+00C7A_2
 62
     0
 10
48.268433333333462
 20
330.05765277777778
 30
0.0
  0
VERTEX
  5
B4C
  8
IMPORT_-_CARRO\\U+00C7A_2
 62
     0
 10
48.268433333333462
 20
334.3576611111111
 30
0.0
  0
VERTEX
  5
B4D
  8
IMPORT_-_CARRO\\U+00C7A_2
 62
     0
 10
11.496994444444571
 20
334.36930277777759
 30
0.0
  0
VERTEX
  5
B4E
  8
IMPORT_-_CARRO\\U+00C7A_2
 62
     0
 10
11.496994444444571
 20
341.50000000000011
 30
0.0
  0
VERTEX
  5
B4F
  8
IMPORT_-_CARRO\\U+00C7A_2
 62
     0
 10
189.210563888889
 20
341.50000000000011
 30
0.0
  0
VERTEX
  5
B50
  8
IMPORT_-_CARRO\\U+00C7A_2
 62
     0
 10
189.98702777777791
 20
341.39804722222209
 30
0.0
  0
VERTEX
  5
B51
  8
IMPORT_-_CARRO\\U+00C7A_2
 62
     0
 10
190.71057500000001
 20
341.09818611111098
 30
0.0
  0
VERTEX
  5
B52
  8
IMPORT_-_CARRO\\U+00C7A_2
 62
     0
 10
191.33181666666661
 20
340.62123055555548
 30
0.0
  0
VERTEX
  5
B53
  8
IMPORT_-_CARRO\\U+00C7A_2
 62
     0
 10
191.8084194444445
 20
339.99998888888888
 30
0.0
  0
VERTEX
  5
B54
  8
IMPORT_-_CARRO\\U+00C7A_2
 62
     0
 10
192.10828055555569
 20
339.2764416666667
 30
0.0
  0
VERTEX
  5
B55
  8
IMPORT_-_CARRO\\U+00C7A_2
 62
     0
 10
192.21058611111121
 20
338.49997777777759
 30
0.0
  0
VERTEX
  5
B56
  8
IMPORT_-_CARRO\\U+00C7A_2
 62
     0
 10
192.21058611111121
 20
337.37073611111123
 30
0.0
  0
VERTEX
  5
B57
  8
IMPORT_-_CARRO\\U+00C7A_2
 62
     0
 10
192.10828055555569
 20
336.59462499999989
 30
0.0
  0
VERTEX
  5
B58
  8
IMPORT_-_CARRO\\U+00C7A_2
 62
     0
 10
191.8084194444445
 20
335.87072499999988
 30
0.0
  0
VERTEX
  5
B59
  8
IMPORT_-_CARRO\\U+00C7A_2
 62
     0
 10
191.33181666666661
 20
335.24948333333322
 30
0.0
  0
VERTEX
  5
B5A
  8
IMPORT_-_CARRO\\U+00C7A_2
 62
     0
 10
190.71057500000001
 20
334.77288055555562
 30
0.0
  0
VERTEX
  5
B5B
  8
IMPORT_-_CARRO\\U+00C7A_2
 62
     0
 10
189.98702777777791
 20
334.47301944444428
 30
0.0
  0
VERTEX
  5
B5C
  8
IMPORT_-_CARRO\\U+00C7A_2
 62
     0
 10
189.210563888889
 20
334.37071388888882
 30
0.0
  0
VERTEX
  5
B5D
  8
IMPORT_-_CARRO\\U+00C7A_2
 62
     0
 10
153.4022083333335
 20
334.37071388888882
 30
0.0
  0
VERTEX
  5
B5E
  8
IMPORT_-_CARRO\\U+00C7A_2
 62
     0
 10
153.4022083333335
 20
330.05765277777778
 30
0.0
  0
VERTEX
  5
B5F
  8
IMPORT_-_CARRO\\U+00C7A_2
 62
     0
 10
189.210563888889
 20
330.05765277777778
 30
0.0
  0
VERTEX
  5
B60
  8
IMPORT_-_CARRO\\U+00C7A_2
 62
     0
 10
189.98702777777791
 20
329.9553472222222
 30
0.0
  0
VERTEX
  5
B61
  8
IMPORT_-_CARRO\\U+00C7A_2
 62
     0
 10
190.71057500000001
 20
329.65583888888892
 30
0.0
  0
VERTEX
  5
B62
  8
IMPORT_-_CARRO\\U+00C7A_2
 62
     0
 10
191.33181666666661
 20
329.17888333333332
 30
0.0
  0
VERTEX
  5
B63
  8
IMPORT_-_CARRO\\U+00C7A_2
 62
     0
 10
191.8084194444445
 20
328.55764166666671
 30
0.0
  0
VERTEX
  5
B64
  8
IMPORT_-_CARRO\\U+00C7A_2
 62
     0
 10
192.10828055555569
 20
327.83409444444442
 30
0.0
  0
VERTEX
  5
B65
  8
IMPORT_-_CARRO\\U+00C7A_2
 62
     0
 10
192.21058611111121
 20
327.05763055555548
 30
0.0
  0
VERTEX
  5
B66
  8
IMPORT_-_CARRO\\U+00C7A_2
 62
     0
 10
192.21058611111121
 20
325.92838888888878
 30
0.0
  0
VERTEX
  5
B67
  8
IMPORT_-_CARRO\\U+00C7A_2
 62
     0
 10
192.10828055555569
 20
325.1522777777779
 30
0.0
  0
VERTEX
  5
B68
  8
IMPORT_-_CARRO\\U+00C7A_2
 62
     0
 10
191.8084194444445
 20
324.42837777777771
 30
0.0
  0
VERTEX
  5
B69
  8
IMPORT_-_CARRO\\U+00C7A_2
 62
     0
 10
191.33181666666661
 20
323.80713611111099
 30
0.0
  0
VERTEX
  5
B6A
  8
IMPORT_-_CARRO\\U+00C7A_2
 62
     0
 10
190.71057500000001
 20
323.33053333333322
 30
0.0
  0
VERTEX
  5
B6B
  8
IMPORT_-_CARRO\\U+00C7A_2
 62
     0
 10
189.98702777777791
 20
323.03067222222222
 30
0.0
  0
VERTEX
  5
B6C
  8
IMPORT_-_CARRO\\U+00C7A_2
 62
     0
 10
189.210563888889
 20
322.92871944444443
 30
0.0
  0
VERTEX
  5
B6D
  8
IMPORT_-_CARRO\\U+00C7A_2
 62
     0
 10
153.4022083333335
 20
322.92871944444443
 30
0.0
  0
VERTEX
  5
B6E
  8
IMPORT_-_CARRO\\U+00C7A_2
 62
     0
 10
153.4022083333335
 20
318.87883055555562
 30
0.0
  0
VERTEX
  5
B6F
  8
IMPORT_-_CARRO\\U+00C7A_2
 62
     0
 10
189.210563888889
 20
318.87883055555562
 30
0.0
  0
VERTEX
  5
B70
  8
IMPORT_-_CARRO\\U+00C7A_2
 62
     0
 10
189.98702777777791
 20
318.77652499999999
 30
0.0
  0
VERTEX
  5
B71
  8
IMPORT_-_CARRO\\U+00C7A_2
 62
     0
 10
190.71057500000001
 20
318.47666388888888
 30
0.0
  0
VERTEX
  5
B72
  8
IMPORT_-_CARRO\\U+00C7A_2
 62
     0
 10
191.33181666666661
 20
318.00006111111111
 30
0.0
  0
VERTEX
  5
B73
  8
IMPORT_-_CARRO\\U+00C7A_2
 62
     0
 10
191.8084194444445
 20
317.37881944444439
 30
0.0
  0
VERTEX
  5
B74
  8
IMPORT_-_CARRO\\U+00C7A_2
 62
     0
 10
192.10828055555569
 20
316.6552722222221
 30
0.0
  0
VERTEX
  5
B75
  8
IMPORT_-_CARRO\\U+00C7A_2
 62
     0
 10
192.21058611111121
 20
315.87880833333332
 30
0.0
  0
VERTEX
  5
B76
  8
IMPORT_-_CARRO\\U+00C7A_2
 62
     0
 10
192.21058611111121
 20
311.74954444444433
 30
0.0
  0
VERTEX
  5
B77
  8
IMPORT_-_CARRO\\U+00C7A_2
 62
     0
 10
175.0571194444446
 20
311.74954444444433
 30
0.0
  0
VERTEX
  5
B78
  8
IMPORT_-_CARRO\\U+00C7A_2
 62
     0
 10
175.0571194444446
 20
308.7495222222222
 30
0.0
  0
VERTEX
  5
B79
  8
IMPORT_-_CARRO\\U+00C7A_2
 62
     0
 10
192.21058611111121
 20
308.7495222222222
 30
0.0
  0
VERTEX
  5
B7A
  8
IMPORT_-_CARRO\\U+00C7A_2
 62
     0
 10
192.21058611111121
 20
305.76466944444451
 30
0.0
  0
VERTEX
  5
B7B
  8
IMPORT_-_CARRO\\U+00C7A_2
 62
     0
 10
192.10828055555569
 20
304.98820555555562
 30
0.0
  0
VERTEX
  5
B7C
  8
IMPORT_-_CARRO\\U+00C7A_2
 62
     0
 10
191.8084194444445
 20
304.26465833333327
 30
0.0
  0
VERTEX
  5
B7D
  8
IMPORT_-_CARRO\\U+00C7A_2
 62
     0
 10
191.33181666666661
 20
303.64341666666661
 30
0.0
  0
VERTEX
  5
B7E
  8
IMPORT_-_CARRO\\U+00C7A_2
 62
     0
 10
190.71057500000001
 20
303.166461111111
 30
0.0
  0
VERTEX
  5
B7F
  8
IMPORT_-_CARRO\\U+00C7A_2
 62
     0
 10
189.98702777777791
 20
302.8669527777779
 30
0.0
  0
VERTEX
  5
B80
  8
IMPORT_-_CARRO\\U+00C7A_2
 62
     0
 10
189.210563888889
 20
302.76464722222221
 30
0.0
  0
VERTEX
  5
B81
  8
IMPORT_-_CARRO\\U+00C7A_2
 62
     0
 10
153.4022083333335
 20
302.76464722222221
 30
0.0
  0
VERTEX
  5
B82
  8
IMPORT_-_CARRO\\U+00C7A_2
 62
     0
 10
153.4022083333335
 20
298.73063333333317
 30
0.0
  0
VERTEX
  5
B83
  8
IMPORT_-_CARRO\\U+00C7A_2
 62
     0
 10
205.08274166666681
 20
298.73063333333317
 30
0.0
  0
VERTEX
  5
B84
  8
IMPORT_-_CARRO\\U+00C7A_2
 62
     0
 10
201.50804444444461
 20
295.41205277777777
 30
0.0
  0
VERTEX
  5
B85
  8
IMPORT_-_CARRO\\U+00C7A_2
 62
     0
 10
203.55803611111119
 20
293.2216555555554
 30
0.0
  0
VERTEX
  5
B86
  8
IMPORT_-_CARRO\\U+00C7A_2
 62
     0
 10
209.41273611111129
 20
298.65690277777759
 30
0.0
  0
VERTEX
  5
B87
  8
IMPORT_-_CARRO\\U+00C7A_2
 62
     0
 10
220.01053333333351
 20
294.53116666666659
 30
0.0
  0
VERTEX
  5
B88
  8
IMPORT_-_CARRO\\U+00C7A_2
 62
     0
 10
220.01053333333351
 20
282.67783333333318
 30
0.0
  0
VERTEX
  5
B89
  8
IMPORT_-_CARRO\\U+00C7A_2
 62
     0
 10
223.04971388888899
 20
282.67783333333318
 30
0.0
  0
VERTEX
  5
B8A
  8
IMPORT_-_CARRO\\U+00C7A_2
 62
     0
 10
223.04971388888899
 20
293.30879166666671
 30
0.0
  0
VERTEX
  5
B8B
  8
IMPORT_-_CARRO\\U+00C7A_2
 62
     0
 10
223.8067750000001
 20
292.90697777777768
 30
0.0
  0
VERTEX
  5
B8C
  8
IMPORT_-_CARRO\\U+00C7A_2
 62
     0
 10
224.77162222222239
 20
292.10264444444442
 30
0.0
  0
VERTEX
  5
B8D
  8
IMPORT_-_CARRO\\U+00C7A_2
 62
     0
 10
225.59994444444459
 20
291.09793333333329
 30
0.0
  0
VERTEX
  5
B8E
  8
IMPORT_-_CARRO\\U+00C7A_2
 62
     0
 10
226.23565000000011
 20
289.96163611111098
 30
0.0
  0
VERTEX
  5
B8F
  8
IMPORT_-_CARRO\\U+00C7A_2
 62
     0
 10
226.63534722222229
 20
288.7706583333333
 30
0.0
  0
VERTEX
  5
B90
  8
IMPORT_-_CARRO\\U+00C7A_2
 62
     0
 10
226.77151944444461
 20
287.60684444444439
 30
0.0
  0
VERTEX
  5
B91
  8
IMPORT_-_CARRO\\U+00C7A_2
 62
     0
 10
226.77151944444461
 20
286.59296111111098
 30
0.0
  0
VERTEX
  5
B92
  8
IMPORT_-_CARRO\\U+00C7A_2
 62
     0
 10
226.90769166666669
 20
285.55755833333319
 30
0.0
  0
VERTEX
  5
B93
  8
IMPORT_-_CARRO\\U+00C7A_2
 62
     0
 10
227.30738888888899
 20
284.59271111111099
 30
0.0
  0
VERTEX
  5
B94
  8
IMPORT_-_CARRO\\U+00C7A_2
 62
     0
 10
227.9430944444446
 20
283.76438888888879
 30
0.0
  0
VERTEX
  5
B95
  8
IMPORT_-_CARRO\\U+00C7A_2
 62
     0
 10
228.77141666666679
 20
283.1286833333333
 30
0.0
  0
VERTEX
  5
B96
  8
IMPORT_-_CARRO\\U+00C7A_2
 62
     0
 10
229.736263888889
 20
282.72898611111111
 30
0.0
  0
VERTEX
  5
B97
  8
IMPORT_-_CARRO\\U+00C7A_2
 62
     0
 10
230.77166666666679
 20
282.59281388888883
 30
0.0
  0
VERTEX
  5
B98
  8
IMPORT_-_CARRO\\U+00C7A_2
 62
     0
 10
257.68155555555558
 20
282.58117222222222
 30
0.0
  0
VERTEX
  5
B99
  8
IMPORT_-_CARRO\\U+00C7A_2
 62
     0
 10
258.57161388888898
 20
284.43008055555549
 30
0.0
  0
VERTEX
  5
B9A
  8
IMPORT_-_CARRO\\U+00C7A_2
 62
     0
 10
259.38900000000012
 20
286.31214999999997
 30
0.0
  0
VERTEX
  5
B9B
  8
IMPORT_-_CARRO\\U+00C7A_2
 62
     0
 10
260.13195000000007
 20
288.22491111111111
 30
0.0
  0
VERTEX
  5
B9C
  8
IMPORT_-_CARRO\\U+00C7A_2
 62
     0
 10
260.80011111111122
 20
290.16518888888879
 30
0.0
  0
VERTEX
  5
B9D
  8
IMPORT_-_CARRO\\U+00C7A_2
 62
     0
 10
261.3917194444445
 20
292.1298083333333
 30
0.0
  0
VERTEX
  5
B9E
  8
IMPORT_-_CARRO\\U+00C7A_2
 62
     0
 10
261.90606944444448
 20
294.11630000000002
 30
0.0
  0
VERTEX
  5
B9F
  8
IMPORT_-_CARRO\\U+00C7A_2
 62
     0
 10
262.34280833333338
 20
296.12113611111113
 30
0.0
  0
VERTEX
  5
BA0
  8
IMPORT_-_CARRO\\U+00C7A_2
 62
     0
 10
262.70087777777792
 20
298.14184722222211
 30
0.0
  0
VERTEX
  5
BA1
  8
IMPORT_-_CARRO\\U+00C7A_2
 62
     0
 10
262.97992500000009
 20
300.17455277777782
 30
0.0
  0
VERTEX
  5
BA2
  8
IMPORT_-_CARRO\\U+00C7A_2
 62
     0
 10
263.17924444444452
 20
302.21678333333318
 30
0.0
  0
VERTEX
  5
BA3
  8
IMPORT_-_CARRO\\U+00C7A_2
 62
     0
 10
263.29848333333342
 20
304.26536388888888
 30
0.0
  0
VERTEX
  5
BA4
  8
IMPORT_-_CARRO\\U+00C7A_2
 62
     0
 10
263.33799444444452
 20
306.31676666666658
 30
0.0
  0
VERTEX
  5
BA5
  8
IMPORT_-_CARRO\\U+00C7A_2
 62
     0
 10
263.29813055555559
 20
308.36605277777772
 30
0.0
  0
VERTEX
  5
BA6
  8
IMPORT_-_CARRO\\U+00C7A_2
 62
     0
 10
263.17818611111119
 20
310.41181111111098
 30
0.0
  0
VERTEX
  5
BA7
  8
IMPORT_-_CARRO\\U+00C7A_2
 62
     0
 10
262.97851388888898
 20
312.45157222222218
 30
0.0
  0
VERTEX
  5
BA8
  8
IMPORT_-_CARRO\\U+00C7A_2
 62
     0
 10
262.69911388888897
 20
314.48180833333328
 30
0.0
  0
VERTEX
  5
BA9
  8
IMPORT_-_CARRO\\U+00C7A_2
 62
     0
 10
262.34104444444449
 20
316.49969722222221
 30
0.0
  0
VERTEX
  5
BAA
  8
IMPORT_-_CARRO\\U+00C7A_2
 62
     0
 10
261.90430555555571
 20
318.50206388888881
 30
0.0
  0
VERTEX
  5
BAB
  8
IMPORT_-_CARRO\\U+00C7A_2
 62
     0
 10
261.38995555555567
 20
320.48608611111109
 30
0.0
  0
VERTEX
  5
BAC
  8
IMPORT_-_CARRO\\U+00C7A_2
 62
     0
 10
260.79834722222228
 20
322.44823611111099
 30
0.0
  0
VERTEX
  5
BAD
  8
IMPORT_-_CARRO\\U+00C7A_2
 62
     0
 10
260.13053888888902
 20
324.38604444444439
 30
0.0
  0
VERTEX
  5
BAE
  8
IMPORT_-_CARRO\\U+00C7A_2
 62
     0
 10
260.04093333333338
 20
324.65838888888891
 30
0.0
  0
VERTEX
  5
BAF
  8
IMPORT_-_CARRO\\U+00C7A_2
 62
     0
 10
259.9689666666668
 20
324.93602499999997
 30
0.0
  0
VERTEX
  5
BB0
  8
IMPORT_-_CARRO\\U+00C7A_2
 62
     0
 10
259.91499166666682
 20
325.21789444444443
 30
0.0
  0
VERTEX
  5
BB1
  8
IMPORT_-_CARRO\\U+00C7A_2
 62
     0
 10
259.88006666666678
 20
325.50293888888888
 30
0.0
  0
VERTEX
  5
BB2
  8
IMPORT_-_CARRO\\U+00C7A_2
 62
     0
 10
259.86348611111117
 20
325.78904166666672
 30
0.0
  0
VERTEX
  5
BB3
  8
IMPORT_-_CARRO\\U+00C7A_2
 62
     0
 10
259.86560277777789
 20
326.07620277777778
 30
0.0
  0
VERTEX
  5
BB4
  8
IMPORT_-_CARRO\\U+00C7A_2
 62
     0
 10
259.88641666666678
 20
326.36230555555551
 30
0.0
  0
VERTEX
  5
BB5
  8
IMPORT_-_CARRO\\U+00C7A_2
 62
     0
 10
259.92592777777787
 20
326.64629166666663
 30
0.0
  0
VERTEX
  5
BB6
  8
IMPORT_-_CARRO\\U+00C7A_2
 62
     0
 10
259.98378333333341
 20
326.92745555555558
 30
0.0
  0
VERTEX
  5
BB7
  8
IMPORT_-_CARRO\\U+00C7A_2
 62
     0
 10
260.05963055555571
 20
327.20403333333331
 30
0.0
  0
VERTEX
  5
BB8
  8
IMPORT_-_CARRO\\U+00C7A_2
 62
     0
 10
260.15382222222229
 20
327.47496666666672
 30
0.0
  0
VERTEX
  5
BB9
  8
IMPORT_-_CARRO\\U+00C7A_2
 62
     0
 10
260.26530000000008
 20
327.73955000000001
 30
0.0
  0
VERTEX
  5
BBA
  8
IMPORT_-_CARRO\\U+00C7A_2
 62
     0
 10
260.3937111111112
 20
327.99601944444453
 30
0.0
  0
VERTEX
  5
BBB
  8
IMPORT_-_CARRO\\U+00C7A_2
 62
     0
 10
260.53835000000021
 20
328.24366944444438
 30
0.0
  0
VERTEX
  5
BBC
  8
IMPORT_-_CARRO\\U+00C7A_2
 62
     0
 10
260.69921666666681
 20
328.48144166666663
 30
0.0
  0
VERTEX
  5
BBD
  8
IMPORT_-_CARRO\\U+00C7A_2
 62
     0
 10
260.87490000000008
 20
328.70827777777771
 30
0.0
  0
VERTEX
  5
BBE
  8
IMPORT_-_CARRO\\U+00C7A_2
 62
     0
 10
261.06540000000012
 20
328.92276666666658
 30
0.0
  0
VERTEX
  5
BBF
  8
IMPORT_-_CARRO\\U+00C7A_2
 62
     0
 10
261.26930555555572
 20
329.12490833333339
 30
0.0
  0
VERTEX
  5
BC0
  8
IMPORT_-_CARRO\\U+00C7A_2
 62
     0
 10
261.48591111111119
 20
329.31293888888882
 30
0.0
  0
VERTEX
  5
BC1
  8
IMPORT_-_CARRO\\U+00C7A_2
 62
     0
 10
261.71415833333339
 20
329.48650555555548
 30
0.0
  0
VERTEX
  5
BC2
  8
IMPORT_-_CARRO\\U+00C7A_2
 62
     0
 10
261.9533416666668
 20
329.64490277777782
 30
0.0
  0
VERTEX
  5
BC3
  8
IMPORT_-_CARRO\\U+00C7A_2
 62
     0
 10
262.20240277777788
 20
329.78742499999998
 30
0.0
  0
VERTEX
  5
BC4
  8
IMPORT_-_CARRO\\U+00C7A_2
 62
     0
 10
262.72592500000007
 20
330.02202222222218
 30
0.0
  0
VERTEX
  5
BC5
  8
IMPORT_-_CARRO\\U+00C7A_2
 62
     0
 10
264.0664805555557
 20
326.86501388888888
 30
0.0
  0
VERTEX
  5
BC6
  8
IMPORT_-_CARRO\\U+00C7A_2
 62
     0
 10
266.82802500000008
 20
328.0372944444444
 30
0.0
  0
VERTEX
  5
BC7
  8
IMPORT_-_CARRO\\U+00C7A_2
 62
     0
 10
265.48711666666679
 20
331.19465555555558
 30
0.0
  0
VERTEX
  5
BC8
  8
IMPORT_-_CARRO\\U+00C7A_2
 62
     0
 10
265.93338055555557
 20
331.34423333333331
 30
0.0
  0
VERTEX
  5
BC9
  8
IMPORT_-_CARRO\\U+00C7A_2
 62
     0
 10
266.39763611111118
 20
331.42184444444439
 30
0.0
  0
VERTEX
  5
BCA
  8
IMPORT_-_CARRO\\U+00C7A_2
 62
     0
 10
266.86859444444462
 20
331.42607777777772
 30
0.0
  0
VERTEX
  5
BCB
  8
IMPORT_-_CARRO\\U+00C7A_2
 62
     0
 10
267.33426111111118
 20
331.35658055555552
 30
0.0
  0
VERTEX
  5
BCC
  8
IMPORT_-_CARRO\\U+00C7A_2
 62
     0
 10
267.78299444444463
 20
331.21511666666669
 30
0.0
  0
VERTEX
  5
BCD
  8
IMPORT_-_CARRO\\U+00C7A_2
 62
     0
 10
268.20456388888903
 20
331.00521388888882
 30
0.0
  0
VERTEX
  5
BCE
  8
IMPORT_-_CARRO\\U+00C7A_2
 62
     0
 10
268.58768055555572
 20
330.73181111111103
 30
0.0
  0
VERTEX
  5
BCF
  8
IMPORT_-_CARRO\\U+00C7A_2
 62
     0
 10
268.92352500000021
 20
330.40196388888882
 30
0.0
  0
VERTEX
  5
BD0
  8
IMPORT_-_CARRO\\U+00C7A_2
 62
     0
 10
269.20363055555572
 20
330.02378611111118
 30
0.0
  0
VERTEX
  5
BD1
  8
IMPORT_-_CARRO\\U+00C7A_2
 62
     0
 10
269.42094166666681
 20
329.60609722222222
 30
0.0
  0
VERTEX
  5
BD2
  8
IMPORT_-_CARRO\\U+00C7A_2
 62
     0
 10
269.75749166666668
 20
328.81411111111112
 30
0.0
  0
VERTEX
  5
BD3
  8
IMPORT_-_CARRO\\U+00C7A_2
 62
     0
 10
269.90671666666668
 20
328.36784722222211
 30
0.0
  0
VERTEX
  5
BD4
  8
IMPORT_-_CARRO\\U+00C7A_2
 62
     0
 10
269.98468055555571
 20
327.90359166666661
 30
0.0
  0
VERTEX
  5
BD5
  8
IMPORT_-_CARRO\\U+00C7A_2
 62
     0
 10
269.98891388888899
 20
327.4326333333334
 30
0.0
  0
VERTEX
  5
BD6
  8
IMPORT_-_CARRO\\U+00C7A_2
 62
     0
 10
269.91941666666668
 20
326.96696666666668
 30
0.0
  0
VERTEX
  5
BD7
  8
IMPORT_-_CARRO\\U+00C7A_2
 62
     0
 10
269.7779527777779
 20
326.5182333333334
 30
0.0
  0
VERTEX
  5
BD8
  8
IMPORT_-_CARRO\\U+00C7A_2
 62
     0
 10
269.56769722222242
 20
326.09666388888888
 30
0.0
  0
VERTEX
  5
BD9
  8
IMPORT_-_CARRO\\U+00C7A_2
 62
     0
 10
269.29464722222241
 20
325.71354722222219
 30
0.0
  0
VERTEX
  5
BDA
  8
IMPORT_-_CARRO\\U+00C7A_2
 62
     0
 10
268.96480000000008
 20
325.37770277777781
 30
0.0
  0
VERTEX
  5
BDB
  8
IMPORT_-_CARRO\\U+00C7A_2
 62
     0
 10
268.58626944444461
 20
325.09759722222208
 30
0.0
  0
VERTEX
  5
BDC
  8
IMPORT_-_CARRO\\U+00C7A_2
 62
     0
 10
268.16858055555559
 20
324.87993333333333
 30
0.0
  0
VERTEX
  5
BDD
  8
IMPORT_-_CARRO\\U+00C7A_2
 62
     0
 10
265.40738888888899
 20
323.70765277777781
 30
0.0
  0
VERTEX
  5
BDE
  8
IMPORT_-_CARRO\\U+00C7A_2
 62
     0
 10
265.842363888889
 20
322.44823611111099
 30
0.0
  0
VERTEX
  5
BDF
  8
IMPORT_-_CARRO\\U+00C7A_2
 62
     0
 10
266.43397222222228
 20
320.48608611111109
 30
0.0
  0
VERTEX
  5
BE0
  8
IMPORT_-_CARRO\\U+00C7A_2
 62
     0
 10
266.94867500000009
 20
318.50206388888881
 30
0.0
  0
VERTEX
  5
BE1
  8
IMPORT_-_CARRO\\U+00C7A_2
 62
     0
 10
267.21819722222227
 20
317.26487222222221
 30
0.0
  0
VERTEX
  5
BE2
  8
IMPORT_-_CARRO\\U+00C7A_2
 62
     0
 10
267.71349722222232
 20
313.87114999999989
 30
0.0
  0
VERTEX
  5
BE3
  8
IMPORT_-_CARRO\\U+00C7A_2
 62
     0
 10
270.68212222222229
 20
314.30436111111112
 30
0.0
  0
VERTEX
  5
BE4
  8
IMPORT_-_CARRO\\U+00C7A_2
 62
     0
 10
270.1868222222223
 20
317.69808333333327
 30
0.0
  0
VERTEX
  5
BE5
  8
IMPORT_-_CARRO\\U+00C7A_2
 62
     0
 10
270.96998888888902
 20
317.70901944444432
 30
0.0
  0
VERTEX
  5
BE6
  8
IMPORT_-_CARRO\\U+00C7A_2
 62
     0
 10
271.7291666666668
 20
317.51675555555562
 30
0.0
  0
VERTEX
  5
BE7
  8
IMPORT_-_CARRO\\U+00C7A_2
 62
     0
 10
272.41284999999999
 20
317.1346972222222
 30
0.0
  0
VERTEX
  5
BE8
  8
IMPORT_-_CARRO\\U+00C7A_2
 62
     0
 10
272.97411944444463
 20
316.58895000000001
 30
0.0
  0
VERTEX
  5
BE9
  8
IMPORT_-_CARRO\\U+00C7A_2
 62
     0
 10
273.37522777777792
 20
315.91620277777781
 30
0.0
  0
VERTEX
  5
BEA
  8
IMPORT_-_CARRO\\U+00C7A_2
 62
     0
 10
273.58865833333351
 20
315.1626694444443
 30
0.0
  0
VERTEX
  5
BEB
  8
IMPORT_-_CARRO\\U+00C7A_2
 62
     0
 10
273.71283611111119
 20
314.31176944444451
 30
0.0
  0
VERTEX
  5
BEC
  8
IMPORT_-_CARRO\\U+00C7A_2
 62
     0
 10
273.72377222222241
 20
313.52860277777768
 30
0.0
  0
VERTEX
  5
BED
  8
IMPORT_-_CARRO\\U+00C7A_2
 62
     0
 10
273.53150833333342
 20
312.76907222222218
 30
0.0
  0
VERTEX
  5
BEE
  8
IMPORT_-_CARRO\\U+00C7A_2
 62
     0
 10
273.14945000000012
 20
312.08574166666659
 30
0.0
  0
VERTEX
  5
BEF
  8
IMPORT_-_CARRO\\U+00C7A_2
 62
     0
 10
272.60335000000009
 20
311.52411944444452
 30
0.0
  0
VERTEX
  5
BF0
  8
IMPORT_-_CARRO\\U+00C7A_2
 62
     0
 10
271.93060277777789
 20
311.12336388888889
 30
0.0
  0
VERTEX
  5
BF1
  8
IMPORT_-_CARRO\\U+00C7A_2
 62
     0
 10
271.1770694444445
 20
310.9099333333333
 30
0.0
  0
VERTEX
  5
BF2
  8
IMPORT_-_CARRO\\U+00C7A_2
 62
     0
 10
268.21585277777791
 20
310.4777805555554
 30
0.0
  0
VERTEX
  5
BF3
  8
IMPORT_-_CARRO\\U+00C7A_2
 62
     0
 10
268.22220277777791
 20
310.41181111111098
 30
0.0
  0
VERTEX
  5
BF4
  8
IMPORT_-_CARRO\\U+00C7A_2
 62
     0
 10
268.34214722222231
 20
308.36605277777772
 30
0.0
  0
VERTEX
  5
BF5
  8
IMPORT_-_CARRO\\U+00C7A_2
 62
     0
 10
268.38236388888902
 20
306.31676666666658
 30
0.0
  0
VERTEX
  5
BF6
  8
IMPORT_-_CARRO\\U+00C7A_2
 62
     0
 10
268.34214722222231
 20
304.26783333333339
 30
0.0
  0
VERTEX
  5
BF7
  8
IMPORT_-_CARRO\\U+00C7A_2
 62
     0
 10
268.31321944444448
 20
303.65082499999988
 30
0.0
  0
VERTEX
  5
BF8
  8
IMPORT_-_CARRO\\U+00C7A_2
 62
     0
 10
268.0264111111112
 20
300.23311388888879
 30
0.0
  0
VERTEX
  5
BF9
  8
IMPORT_-_CARRO\\U+00C7A_2
 62
     0
 10
271.01585000000011
 20
299.98228888888877
 30
0.0
  0
VERTEX
  5
BFA
  8
IMPORT_-_CARRO\\U+00C7A_2
 62
     0
 10
271.30265833333351
 20
303.39999999999998
 30
0.0
  0
VERTEX
  5
BFB
  8
IMPORT_-_CARRO\\U+00C7A_2
 62
     0
 10
272.06783333333351
 20
303.23313611111121
 30
0.0
  0
VERTEX
  5
BFC
  8
IMPORT_-_CARRO\\U+00C7A_2
 62
     0
 10
272.76386388888898
 20
302.87400833333328
 30
0.0
  0
VERTEX
  5
BFD
  8
IMPORT_-_CARRO\\U+00C7A_2
 62
     0
 10
273.34312500000021
 20
302.34695833333319
 30
0.0
  0
VERTEX
  5
BFE
  8
IMPORT_-_CARRO\\U+00C7A_2
 62
     0
 10
273.76610555555561
 20
301.68761666666649
 30
0.0
  0
VERTEX
  5
BFF
  8
IMPORT_-_CARRO\\U+00C7A_2
 62
     0
 10
274.00423055555558
 20
300.94149166666671
 30
0.0
  0
VERTEX
  5
C00
  8
IMPORT_-_CARRO\\U+00C7A_2
 62
     0
 10
274.04127222222229
 20
300.15938333333332
 30
0.0
  0
SEQEND
  5
C01
  8
IMPORT_-_CARRO\\U+00C7A_2
 62
     0
  0
POLYLINE
  5
43
  8
IMPORT_-_CARRO\\U+00C7A_2
 62
     0
 66
     1
 10
0.0
 20
0.0
 30
0.0
 70
     1
  0
VERTEX
  5
C02
  8
IMPORT_-_CARRO\\U+00C7A_2
 62
     0
 10
55.268602777777907
 20
298.88938333333329
 30
0.0
  0
VERTEX
  5
C03
  8
IMPORT_-_CARRO\\U+00C7A_2
 62
     0
 10
146.402038888889
 20
298.88938333333329
 30
0.0
  0
VERTEX
  5
C04
  8
IMPORT_-_CARRO\\U+00C7A_2
 62
     0
 10
146.402038888889
 20
302.8500194444444
 30
0.0
  0
VERTEX
  5
C05
  8
IMPORT_-_CARRO\\U+00C7A_2
 62
     0
 10
55.268602777777907
 20
302.8500194444444
 30
0.0
  0
SEQEND
  5
C06
  8
IMPORT_-_CARRO\\U+00C7A_2
 62
     0
  0
POLYLINE
  5
44
  8
IMPORT_-_CARRO\\U+00C7A_2
 62
     0
 66
     1
 10
0.0
 20
0.0
 30
0.0
 70
     1
  0
VERTEX
  5
C07
  8
IMPORT_-_CARRO\\U+00C7A_2
 62
     0
 10
55.268602777777907
 20
330.05765277777778
 30
0.0
  0
VERTEX
  5
C08
  8
IMPORT_-_CARRO\\U+00C7A_2
 62
     0
 10
146.402038888889
 20
330.05765277777778
 30
0.0
  0
VERTEX
  5
C09
  8
IMPORT_-_CARRO\\U+00C7A_2
 62
     0
 10
146.402038888889
 20
334.37071388888882
 30
0.0
  0
VERTEX
  5
C0A
  8
IMPORT_-_CARRO\\U+00C7A_2
 62
     0
 10
55.268602777777907
 20
334.3576611111111
 30
0.0
  0
SEQEND
  5
C0B
  8
IMPORT_-_CARRO\\U+00C7A_2
 62
     0
  0
POLYLINE
  5
45
  8
IMPORT_-_CARRO\\U+00C7A_2
 62
     0
 66
     1
 10
0.0
 20
0.0
 30
0.0
 70
     1
  0
VERTEX
  5
C0C
  8
IMPORT_-_CARRO\\U+00C7A_2
 62
     0
 10
55.268602777777907
 20
318.87883055555562
 30
0.0
  0
VERTEX
  5
C0D
  8
IMPORT_-_CARRO\\U+00C7A_2
 62
     0
 10
146.402038888889
 20
318.87883055555562
 30
0.0
  0
VERTEX
  5
C0E
  8
IMPORT_-_CARRO\\U+00C7A_2
 62
     0
 10
146.402038888889
 20
322.92871944444443
 30
0.0
  0
VERTEX
  5
C0F
  8
IMPORT_-_CARRO\\U+00C7A_2
 62
     0
 10
55.268602777777907
 20
322.92871944444443
 30
0.0
  0
SEQEND
  5
C10
  8
IMPORT_-_CARRO\\U+00C7A_2
 62
     0
  0
POLYLINE
  5
46
  8
IMPORT_-_CARRO\\U+00C7A_2
 62
     0
 66
     1
 10
0.0
 20
0.0
 30
0.0
 70
     1
  0
VERTEX
  5
C11
  8
IMPORT_-_CARRO\\U+00C7A_2
 62
     0
 10
369.3421472222222
 20
38.086038888888893
 30
0.0
  0
VERTEX
  5
C12
  8
IMPORT_-_CARRO\\U+00C7A_2
 62
     0
 10
369.2222027777778
 20
36.040280555555583
 30
0.0
  0
VERTEX
  5
C13
  8
IMPORT_-_CARRO\\U+00C7A_2
 62
     0
 10
369.21585277777768
 20
35.973958333333371
 30
0.0
  0
VERTEX
  5
C14
  8
IMPORT_-_CARRO\\U+00C7A_2
 62
     0
 10
372.17706944444433
 20
35.542158333333298
 30
0.0
  0
VERTEX
  5
C15
  8
IMPORT_-_CARRO\\U+00C7A_2
 62
     0
 10
372.93060277777778
 20
35.328727777777772
 30
0.0
  0
VERTEX
  5
C16
  8
IMPORT_-_CARRO\\U+00C7A_2
 62
     0
 10
373.60334999999998
 20
34.927972222222252
 30
0.0
  0
VERTEX
  5
C17
  8
IMPORT_-_CARRO\\U+00C7A_2
 62
     0
 10
374.14945
 20
34.366350000000011
 30
0.0
  0
VERTEX
  5
C18
  8
IMPORT_-_CARRO\\U+00C7A_2
 62
     0
 10
374.53150833333331
 20
33.682666666666591
 30
0.0
  0
VERTEX
  5
C19
  8
IMPORT_-_CARRO\\U+00C7A_2
 62
     0
 10
374.72377222222229
 20
32.923488888888869
 30
0.0
  0
VERTEX
  5
C1A
  8
IMPORT_-_CARRO\\U+00C7A_2
 62
     0
 10
374.71283611111107
 20
32.140322222222281
 30
0.0
  0
VERTEX
  5
C1B
  8
IMPORT_-_CARRO\\U+00C7A_2
 62
     0
 10
374.58865833333329
 20
31.289422222222239
 30
0.0
  0
VERTEX
  5
C1C
  8
IMPORT_-_CARRO\\U+00C7A_2
 62
     0
 10
374.37522777777781
 20
30.535888888888849
 30
0.0
  0
VERTEX
  5
C1D
  8
IMPORT_-_CARRO\\U+00C7A_2
 62
     0
 10
373.97411944444451
 20
29.863141666666589
 30
0.0
  0
VERTEX
  5
C1E
  8
IMPORT_-_CARRO\\U+00C7A_2
 62
     0
 10
373.41284999999999
 20
29.317041666666679
 30
0.0
  0
VERTEX
  5
C1F
  8
IMPORT_-_CARRO\\U+00C7A_2
 62
     0
 10
372.72916666666669
 20
28.934983333333321
 30
0.0
  0
VERTEX
  5
C20
  8
IMPORT_-_CARRO\\U+00C7A_2
 62
     0
 10
371.96998888888879
 20
28.743072222222171
 30
0.0
  0
VERTEX
  5
C21
  8
IMPORT_-_CARRO\\U+00C7A_2
 62
     0
 10
371.18682222222219
 20
28.754008333333331
 30
0.0
  0
VERTEX
  5
C22
  8
IMPORT_-_CARRO\\U+00C7A_2
 62
     0
 10
371.68212222222218
 20
32.14773055555554
 30
0.0
  0
VERTEX
  5
C23
  8
IMPORT_-_CARRO\\U+00C7A_2
 62
     0
 10
368.7134972222222
 20
32.580941666666718
 30
0.0
  0
VERTEX
  5
C24
  8
IMPORT_-_CARRO\\U+00C7A_2
 62
     0
 10
368.21819722222222
 20
29.186866666666671
 30
0.0
  0
VERTEX
  5
C25
  8
IMPORT_-_CARRO\\U+00C7A_2
 62
     0
 10
367.94867499999998
 20
27.94967499999996
 30
0.0
  0
VERTEX
  5
C26
  8
IMPORT_-_CARRO\\U+00C7A_2
 62
     0
 10
367.43397222222222
 20
25.966005555555508
 30
0.0
  0
VERTEX
  5
C27
  8
IMPORT_-_CARRO\\U+00C7A_2
 62
     0
 10
366.84236388888888
 20
24.00385555555556
 30
0.0
  0
VERTEX
  5
C28
  8
IMPORT_-_CARRO\\U+00C7A_2
 62
     0
 10
366.40738888888887
 20
22.744438888888912
 30
0.0
  0
VERTEX
  5
C29
  8
IMPORT_-_CARRO\\U+00C7A_2
 62
     0
 10
369.16858055555548
 20
21.57180555555556
 30
0.0
  0
VERTEX
  5
C2A
  8
IMPORT_-_CARRO\\U+00C7A_2
 62
     0
 10
369.58626944444433
 20
21.354494444444409
 30
0.0
  0
VERTEX
  5
C2B
  8
IMPORT_-_CARRO\\U+00C7A_2
 62
     0
 10
369.96480000000003
 20
21.074388888888851
 30
0.0
  0
VERTEX
  5
C2C
  8
IMPORT_-_CARRO\\U+00C7A_2
 62
     0
 10
370.29464722222218
 20
20.738544444444411
 30
0.0
  0
VERTEX
  5
C2D
  8
IMPORT_-_CARRO\\U+00C7A_2
 62
     0
 10
370.56769722222231
 20
20.355427777777781
 30
0.0
  0
VERTEX
  5
C2E
  8
IMPORT_-_CARRO\\U+00C7A_2
 62
     0
 10
370.77795277777778
 20
19.933858333333319
 30
0.0
  0
VERTEX
  5
C2F
  8
IMPORT_-_CARRO\\U+00C7A_2
 62
     0
 10
370.91941666666662
 20
19.485125000000039
 30
0.0
  0
VERTEX
  5
C30
  8
IMPORT_-_CARRO\\U+00C7A_2
 62
     0
 10
370.98891388888887
 20
19.019458333333318
 30
0.0
  0
VERTEX
  5
C31
  8
IMPORT_-_CARRO\\U+00C7A_2
 62
     0
 10
370.98468055555549
 20
18.548499999999979
 30
0.0
  0
VERTEX
  5
C32
  8
IMPORT_-_CARRO\\U+00C7A_2
 62
     0
 10
370.90671666666663
 20
18.08424444444449
 30
0.0
  0
VERTEX
  5
C33
  8
IMPORT_-_CARRO\\U+00C7A_2
 62
     0
 10
370.75749166666662
 20
17.63798055555549
 30
0.0
  0
VERTEX
  5
C34
  8
IMPORT_-_CARRO\\U+00C7A_2
 62
     0
 10
370.42094166666669
 20
16.8459944444445
 30
0.0
  0
VERTEX
  5
C35
  8
IMPORT_-_CARRO\\U+00C7A_2
 62
     0
 10
370.20363055555549
 20
16.428305555555539
 30
0.0
  0
VERTEX
  5
C36
  8
IMPORT_-_CARRO\\U+00C7A_2
 62
     0
 10
369.92352499999998
 20
16.050127777777789
 30
0.0
  0
VERTEX
  5
C37
  8
IMPORT_-_CARRO\\U+00C7A_2
 62
     0
 10
369.58768055555572
 20
15.720280555555521
 30
0.0
  0
VERTEX
  5
C38
  8
IMPORT_-_CARRO\\U+00C7A_2
 62
     0
 10
369.20456388888891
 20
15.446877777777789
 30
0.0
  0
VERTEX
  5
C39
  8
IMPORT_-_CARRO\\U+00C7A_2
 62
     0
 10
368.78299444444451
 20
15.236975000000029
 30
0.0
  0
VERTEX
  5
C3A
  8
IMPORT_-_CARRO\\U+00C7A_2
 62
     0
 10
368.33426111111112
 20
15.09551111111114
 30
0.0
  0
VERTEX
  5
C3B
  8
IMPORT_-_CARRO\\U+00C7A_2
 62
     0
 10
367.86859444444451
 20
15.02601388888888
 30
0.0
  0
VERTEX
  5
C3C
  8
IMPORT_-_CARRO\\U+00C7A_2
 62
     0
 10
367.39763611111113
 20
15.02989444444438
 30
0.0
  0
VERTEX
  5
C3D
  8
IMPORT_-_CARRO\\U+00C7A_2
 62
     0
 10
366.93338055555552
 20
15.107858333333301
 30
0.0
  0
VERTEX
  5
C3E
  8
IMPORT_-_CARRO\\U+00C7A_2
 62
     0
 10
366.48711666666668
 20
15.257436111111129
 30
0.0
  0
VERTEX
  5
C3F
  8
IMPORT_-_CARRO\\U+00C7A_2
 62
     0
 10
367.82802500000003
 20
18.414444444444371
 30
0.0
  0
VERTEX
  5
C40
  8
IMPORT_-_CARRO\\U+00C7A_2
 62
     0
 10
365.06648055555559
 20
19.587077777777719
 30
0.0
  0
VERTEX
  5
C41
  8
IMPORT_-_CARRO\\U+00C7A_2
 62
     0
 10
363.72592500000002
 20
16.430069444444371
 30
0.0
  0
VERTEX
  5
C42
  8
IMPORT_-_CARRO\\U+00C7A_2
 62
     0
 10
363.20240277777782
 20
16.66466666666668
 30
0.0
  0
VERTEX
  5
C43
  8
IMPORT_-_CARRO\\U+00C7A_2
 62
     0
 10
362.9533416666668
 20
16.807188888888849
 30
0.0
  0
VERTEX
  5
C44
  8
IMPORT_-_CARRO\\U+00C7A_2
 62
     0
 10
362.71415833333327
 20
16.965586111111069
 30
0.0
  0
VERTEX
  5
C45
  8
IMPORT_-_CARRO\\U+00C7A_2
 62
     0
 10
362.48591111111108
 20
17.13915277777777
 30
0.0
  0
VERTEX
  5
C46
  8
IMPORT_-_CARRO\\U+00C7A_2
 62
     0
 10
362.26930555555549
 20
17.32718333333332
 30
0.0
  0
VERTEX
  5
C47
  8
IMPORT_-_CARRO\\U+00C7A_2
 62
     0
 10
362.06540000000001
 20
17.529324999999972
 30
0.0
  0
VERTEX
  5
C48
  8
IMPORT_-_CARRO\\U+00C7A_2
 62
     0
 10
361.87490000000003
 20
17.743813888888891
 30
0.0
  0
VERTEX
  5
C49
  8
IMPORT_-_CARRO\\U+00C7A_2
 62
     0
 10
361.69921666666659
 20
17.970649999999981
 30
0.0
  0
VERTEX
  5
C4A
  8
IMPORT_-_CARRO\\U+00C7A_2
 62
     0
 10
361.53834999999998
 20
18.208422222222229
 30
0.0
  0
VERTEX
  5
C4B
  8
IMPORT_-_CARRO\\U+00C7A_2
 62
     0
 10
361.39371111111109
 20
18.455719444444409
 30
0.0
  0
VERTEX
  5
C4C
  8
IMPORT_-_CARRO\\U+00C7A_2
 62
     0
 10
361.26530000000002
 20
18.712541666666649
 30
0.0
  0
VERTEX
  5
C4D
  8
IMPORT_-_CARRO\\U+00C7A_2
 62
     0
 10
361.15382222222217
 20
18.97677222222217
 30
0.0
  0
VERTEX
  5
C4E
  8
IMPORT_-_CARRO\\U+00C7A_2
 62
     0
 10
361.0596305555556
 20
19.248058333333351
 30
0.0
  0
VERTEX
  5
C4F
  8
IMPORT_-_CARRO\\U+00C7A_2
 62
     0
 10
360.98378333333329
 20
19.524636111111139
 30
0.0
  0
VERTEX
  5
C50
  8
IMPORT_-_CARRO\\U+00C7A_2
 62
     0
 10
360.9259277777777
 20
19.80579999999998
 30
0.0
  0
VERTEX
  5
C51
  8
IMPORT_-_CARRO\\U+00C7A_2
 62
     0
 10
360.88641666666672
 20
20.089786111111039
 30
0.0
  0
VERTEX
  5
C52
  8
IMPORT_-_CARRO\\U+00C7A_2
 62
     0
 10
360.86560277777778
 20
20.375888888888881
 30
0.0
  0
VERTEX
  5
C53
  8
IMPORT_-_CARRO\\U+00C7A_2
 62
     0
 10
360.86348611111117
 20
20.663049999999998
 30
0.0
  0
VERTEX
  5
C54
  8
IMPORT_-_CARRO\\U+00C7A_2
 62
     0
 10
360.88006666666672
 20
20.94915277777784
 30
0.0
  0
VERTEX
  5
C55
  8
IMPORT_-_CARRO\\U+00C7A_2
 62
     0
 10
360.91499166666671
 20
21.233844444444461
 30
0.0
  0
VERTEX
  5
C56
  8
IMPORT_-_CARRO\\U+00C7A_2
 62
     0
 10
360.9689666666668
 20
21.515713888888971
 30
0.0
  0
VERTEX
  5
C57
  8
IMPORT_-_CARRO\\U+00C7A_2
 62
     0
 10
361.04093333333333
 20
21.793702777777749
 30
0.0
  0
VERTEX
  5
C58
  8
IMPORT_-_CARRO\\U+00C7A_2
 62
     0
 10
361.13053888888879
 20
22.06604722222221
 30
0.0
  0
VERTEX
  5
C59
  8
IMPORT_-_CARRO\\U+00C7A_2
 62
     0
 10
361.79834722222222
 20
24.00385555555556
 30
0.0
  0
VERTEX
  5
C5A
  8
IMPORT_-_CARRO\\U+00C7A_2
 62
     0
 10
362.38995555555567
 20
25.966005555555508
 30
0.0
  0
VERTEX
  5
C5B
  8
IMPORT_-_CARRO\\U+00C7A_2
 62
     0
 10
362.90430555555548
 20
27.94967499999996
 30
0.0
  0
VERTEX
  5
C5C
  8
IMPORT_-_CARRO\\U+00C7A_2
 62
     0
 10
363.34104444444438
 20
29.952394444444518
 30
0.0
  0
VERTEX
  5
C5D
  8
IMPORT_-_CARRO\\U+00C7A_2
 62
     0
 10
363.6991138888888
 20
31.970283333333331
 30
0.0
  0
VERTEX
  5
C5E
  8
IMPORT_-_CARRO\\U+00C7A_2
 62
     0
 10
363.97851388888893
 20
34.000519444444421
 30
0.0
  0
VERTEX
  5
C5F
  8
IMPORT_-_CARRO\\U+00C7A_2
 62
     0
 10
364.17818611111107
 20
36.040280555555583
 30
0.0
  0
VERTEX
  5
C60
  8
IMPORT_-_CARRO\\U+00C7A_2
 62
     0
 10
364.29813055555547
 20
38.086038888888893
 30
0.0
  0
VERTEX
  5
C61
  8
IMPORT_-_CARRO\\U+00C7A_2
 62
     0
 10
364.33799444444429
 20
40.135324999999959
 30
0.0
  0
VERTEX
  5
C62
  8
IMPORT_-_CARRO\\U+00C7A_2
 62
     0
 10
364.29848333333331
 20
42.186727777777712
 30
0.0
  0
VERTEX
  5
C63
  8
IMPORT_-_CARRO\\U+00C7A_2
 62
     0
 10
364.17924444444441
 20
44.235308333333251
 30
0.0
  0
VERTEX
  5
C64
  8
IMPORT_-_CARRO\\U+00C7A_2
 62
     0
 10
363.97992499999998
 20
46.277538888888898
 30
0.0
  0
VERTEX
  5
C65
  8
IMPORT_-_CARRO\\U+00C7A_2
 62
     0
 10
363.70087777777769
 20
48.310244444444493
 30
0.0
  0
VERTEX
  5
C66
  8
IMPORT_-_CARRO\\U+00C7A_2
 62
     0
 10
363.34280833333332
 20
50.330955555555533
 30
0.0
  0
VERTEX
  5
C67
  8
IMPORT_-_CARRO\\U+00C7A_2
 62
     0
 10
362.90606944444443
 20
52.335791666666744
 30
0.0
  0
VERTEX
  5
C68
  8
IMPORT_-_CARRO\\U+00C7A_2
 62
     0
 10
362.39171944444428
 20
54.322283333333303
 30
0.0
  0
VERTEX
  5
C69
  8
IMPORT_-_CARRO\\U+00C7A_2
 62
     0
 10
361.80011111111122
 20
56.28690277777774
 30
0.0
  0
VERTEX
  5
C6A
  8
IMPORT_-_CARRO\\U+00C7A_2
 62
     0
 10
361.13195000000002
 20
58.227180555555499
 30
0.0
  0
VERTEX
  5
C6B
  8
IMPORT_-_CARRO\\U+00C7A_2
 62
     0
 10
360.38900000000001
 20
60.139941666666687
 30
0.0
  0
VERTEX
  5
C6C
  8
IMPORT_-_CARRO\\U+00C7A_2
 62
     0
 10
359.57161388888892
 20
62.022011111111063
 30
0.0
  0
VERTEX
  5
C6D
  8
IMPORT_-_CARRO\\U+00C7A_2
 62
     0
 10
358.68155555555552
 20
63.870919444444439
 30
0.0
  0
VERTEX
  5
C6E
  8
IMPORT_-_CARRO\\U+00C7A_2
 62
     0
 10
331.7716666666667
 20
63.859277777777827
 30
0.0
  0
VERTEX
  5
C6F
  8
IMPORT_-_CARRO\\U+00C7A_2
 62
     0
 10
330.73626388888891
 20
63.723105555555541
 30
0.0
  0
VERTEX
  5
C70
  8
IMPORT_-_CARRO\\U+00C7A_2
 62
     0
 10
329.77141666666671
 20
63.323408333333433
 30
0.0
  0
VERTEX
  5
C71
  8
IMPORT_-_CARRO\\U+00C7A_2
 62
     0
 10
328.94309444444451
 20
62.687702777777858
 30
0.0
  0
VERTEX
  5
C72
  8
IMPORT_-_CARRO\\U+00C7A_2
 62
     0
 10
328.30738888888891
 20
61.859380555555617
 30
0.0
  0
VERTEX
  5
C73
  8
IMPORT_-_CARRO\\U+00C7A_2
 62
     0
 10
327.90769166666672
 20
60.894533333333349
 30
0.0
  0
VERTEX
  5
C74
  8
IMPORT_-_CARRO\\U+00C7A_2
 62
     0
 10
327.77151944444438
 20
59.859130555555573
 30
0.0
  0
VERTEX
  5
C75
  8
IMPORT_-_CARRO\\U+00C7A_2
 62
     0
 10
327.77151944444438
 20
58.845247222222163
 30
0.0
  0
VERTEX
  5
C76
  8
IMPORT_-_CARRO\\U+00C7A_2
 62
     0
 10
327.63534722222221
 20
57.681433333333302
 30
0.0
  0
VERTEX
  5
C77
  8
IMPORT_-_CARRO\\U+00C7A_2
 62
     0
 10
327.23565000000002
 20
56.490455555555627
 30
0.0
  0
VERTEX
  5
C78
  8
IMPORT_-_CARRO\\U+00C7A_2
 62
     0
 10
326.59994444444459
 20
55.354158333333423
 30
0.0
  0
VERTEX
  5
C79
  8
IMPORT_-_CARRO\\U+00C7A_2
 62
     0
 10
325.77162222222239
 20
54.349447222222238
 30
0.0
  0
VERTEX
  5
C7A
  8
IMPORT_-_CARRO\\U+00C7A_2
 62
     0
 10
324.80677500000002
 20
53.545113888888856
 30
0.0
  0
VERTEX
  5
C7B
  8
IMPORT_-_CARRO\\U+00C7A_2
 62
     0
 10
324.0497138888889
 20
53.143299999999947
 30
0.0
  0
VERTEX
  5
C7C
  8
IMPORT_-_CARRO\\U+00C7A_2
 62
     0
 10
324.0497138888889
 20
63.774258333333357
 30
0.0
  0
VERTEX
  5
C7D
  8
IMPORT_-_CARRO\\U+00C7A_2
 62
     0
 10
321.01053333333329
 20
63.774258333333357
 30
0.0
  0
VERTEX
  5
C7E
  8
IMPORT_-_CARRO\\U+00C7A_2
 62
     0
 10
321.01053333333329
 20
51.920925000000011
 30
0.0
  0
VERTEX
  5
C7F
  8
IMPORT_-_CARRO\\U+00C7A_2
 62
     0
 10
310.41273611111109
 20
47.795188888888887
 30
0.0
  0
VERTEX
  5
C80
  8
IMPORT_-_CARRO\\U+00C7A_2
 62
     0
 10
304.55803611111111
 20
53.23043611111121
 30
0.0
  0
VERTEX
  5
C81
  8
IMPORT_-_CARRO\\U+00C7A_2
 62
     0
 10
302.50804444444452
 20
51.039686111111109
 30
0.0
  0
VERTEX
  5
C82
  8
IMPORT_-_CARRO\\U+00C7A_2
 62
     0
 10
306.08274166666672
 20
47.721458333333317
 30
0.0
  0
VERTEX
  5
C83
  8
IMPORT_-_CARRO\\U+00C7A_2
 62
     0
 10
254.40220833333339
 20
47.721458333333317
 30
0.0
  0
VERTEX
  5
C84
  8
IMPORT_-_CARRO\\U+00C7A_2
 62
     0
 10
254.40220833333339
 20
43.687444444444402
 30
0.0
  0
VERTEX
  5
C85
  8
IMPORT_-_CARRO\\U+00C7A_2
 62
     0
 10
290.21056388888888
 20
43.687444444444402
 30
0.0
  0
VERTEX
  5
C86
  8
IMPORT_-_CARRO\\U+00C7A_2
 62
     0
 10
290.98702777777783
 20
43.585138888888892
 30
0.0
  0
VERTEX
  5
C87
  8
IMPORT_-_CARRO\\U+00C7A_2
 62
     0
 10
291.71057499999989
 20
43.2856305555555
 30
0.0
  0
VERTEX
  5
C88
  8
IMPORT_-_CARRO\\U+00C7A_2
 62
     0
 10
292.33181666666673
 20
42.808674999999987
 30
0.0
  0
VERTEX
  5
C89
  8
IMPORT_-_CARRO\\U+00C7A_2
 62
     0
 10
292.80841944444438
 20
42.187433333333388
 30
0.0
  0
VERTEX
  5
C8A
  8
IMPORT_-_CARRO\\U+00C7A_2
 62
     0
 10
293.10828055555561
 20
41.46388611111103
 30
0.0
  0
VERTEX
  5
C8B
  8
IMPORT_-_CARRO\\U+00C7A_2
 62
     0
 10
293.21058611111113
 20
40.687422222222153
 30
0.0
  0
VERTEX
  5
C8C
  8
IMPORT_-_CARRO\\U+00C7A_2
 62
     0
 10
293.21058611111113
 20
37.702569444444407
 30
0.0
  0
VERTEX
  5
C8D
  8
IMPORT_-_CARRO\\U+00C7A_2
 62
     0
 10
276.05711944444448
 20
37.702569444444407
 30
0.0
  0
VERTEX
  5
C8E
  8
IMPORT_-_CARRO\\U+00C7A_2
 62
     0
 10
276.05711944444448
 20
34.702547222222172
 30
0.0
  0
VERTEX
  5
C8F
  8
IMPORT_-_CARRO\\U+00C7A_2
 62
     0
 10
293.21058611111113
 20
34.702547222222172
 30
0.0
  0
VERTEX
  5
C90
  8
IMPORT_-_CARRO\\U+00C7A_2
 62
     0
 10
293.21058611111113
 20
30.5732833333334
 30
0.0
  0
VERTEX
  5
C91
  8
IMPORT_-_CARRO\\U+00C7A_2
 62
     0
 10
293.10828055555561
 20
29.796819444444399
 30
0.0
  0
VERTEX
  5
C92
  8
IMPORT_-_CARRO\\U+00C7A_2
 62
     0
 10
292.80841944444438
 20
29.073272222222268
 30
0.0
  0
VERTEX
  5
C93
  8
IMPORT_-_CARRO\\U+00C7A_2
 62
     0
 10
292.33181666666673
 20
28.452030555555549
 30
0.0
  0
VERTEX
  5
C94
  8
IMPORT_-_CARRO\\U+00C7A_2
 62
     0
 10
291.71057499999989
 20
27.975427777777782
 30
0.0
  0
VERTEX
  5
C95
  8
IMPORT_-_CARRO\\U+00C7A_2
 62
     0
 10
290.98702777777783
 20
27.675566666666668
 30
0.0
  0
VERTEX
  5
C96
  8
IMPORT_-_CARRO\\U+00C7A_2
 62
     0
 10
290.21056388888888
 20
27.573261111111041
 30
0.0
  0
VERTEX
  5
C97
  8
IMPORT_-_CARRO\\U+00C7A_2
 62
     0
 10
254.40220833333339
 20
27.573261111111041
 30
0.0
  0
VERTEX
  5
C98
  8
IMPORT_-_CARRO\\U+00C7A_2
 62
     0
 10
254.40220833333339
 20
23.523372222222179
 30
0.0
  0
VERTEX
  5
C99
  8
IMPORT_-_CARRO\\U+00C7A_2
 62
     0
 10
290.21056388888888
 20
23.523372222222179
 30
0.0
  0
VERTEX
  5
C9A
  8
IMPORT_-_CARRO\\U+00C7A_2
 62
     0
 10
290.98702777777783
 20
23.421419444444378
 30
0.0
  0
VERTEX
  5
C9B
  8
IMPORT_-_CARRO\\U+00C7A_2
 62
     0
 10
291.71057499999989
 20
23.121558333333379
 30
0.0
  0
VERTEX
  5
C9C
  8
IMPORT_-_CARRO\\U+00C7A_2
 62
     0
 10
292.33181666666673
 20
22.644602777777781
 30
0.0
  0
VERTEX
  5
C9D
  8
IMPORT_-_CARRO\\U+00C7A_2
 62
     0
 10
292.80841944444438
 20
22.023361111111061
 30
0.0
  0
VERTEX
  5
C9E
  8
IMPORT_-_CARRO\\U+00C7A_2
 62
     0
 10
293.10828055555561
 20
21.299813888888931
 30
0.0
  0
VERTEX
  5
C9F
  8
IMPORT_-_CARRO\\U+00C7A_2
 62
     0
 10
293.21058611111113
 20
20.523702777777771
 30
0.0
  0
VERTEX
  5
CA0
  8
IMPORT_-_CARRO\\U+00C7A_2
 62
     0
 10
293.21058611111113
 20
19.394461111111131
 30
0.0
  0
VERTEX
  5
CA1
  8
IMPORT_-_CARRO\\U+00C7A_2
 62
     0
 10
293.10828055555561
 20
18.617997222222229
 30
0.0
  0
VERTEX
  5
CA2
  8
IMPORT_-_CARRO\\U+00C7A_2
 62
     0
 10
292.80841944444438
 20
17.89445000000001
 30
0.0
  0
VERTEX
  5
CA3
  8
IMPORT_-_CARRO\\U+00C7A_2
 62
     0
 10
292.33181666666673
 20
17.272855555555569
 30
0.0
  0
VERTEX
  5
CA4
  8
IMPORT_-_CARRO\\U+00C7A_2
 62
     0
 10
291.71057499999989
 20
16.796252777777799
 30
0.0
  0
VERTEX
  5
CA5
  8
IMPORT_-_CARRO\\U+00C7A_2
 62
     0
 10
290.98702777777783
 20
16.496391666666678
 30
0.0
  0
VERTEX
  5
CA6
  8
IMPORT_-_CARRO\\U+00C7A_2
 62
     0
 10
290.21056388888888
 20
16.394438888888889
 30
0.0
  0
VERTEX
  5
CA7
  8
IMPORT_-_CARRO\\U+00C7A_2
 62
     0
 10
254.40220833333339
 20
16.394438888888889
 30
0.0
  0
VERTEX
  5
CA8
  8
IMPORT_-_CARRO\\U+00C7A_2
 62
     0
 10
254.40220833333339
 20
12.081024999999951
 30
0.0
  0
VERTEX
  5
CA9
  8
IMPORT_-_CARRO\\U+00C7A_2
 62
     0
 10
290.21056388888888
 20
12.081024999999951
 30
0.0
  0
VERTEX
  5
CAA
  8
IMPORT_-_CARRO\\U+00C7A_2
 62
     0
 10
290.98702777777783
 20
11.979072222222159
 30
0.0
  0
VERTEX
  5
CAB
  8
IMPORT_-_CARRO\\U+00C7A_2
 62
     0
 10
291.71057499999989
 20
11.67921111111116
 30
0.0
  0
VERTEX
  5
CAC
  8
IMPORT_-_CARRO\\U+00C7A_2
 62
     0
 10
292.33181666666673
 20
11.20260833333327
 30
0.0
  0
VERTEX
  5
CAD
  8
IMPORT_-_CARRO\\U+00C7A_2
 62
     0
 10
292.80841944444438
 20
10.58101388888883
 30
0.0
  0
VERTEX
  5
CAE
  8
IMPORT_-_CARRO\\U+00C7A_2
 62
     0
 10
293.10828055555561
 20
9.8574666666667081
 30
0.0
  0
VERTEX
  5
CAF
  8
IMPORT_-_CARRO\\U+00C7A_2
 62
     0
 10
293.21058611111113
 20
9.0810027777778242
 30
0.0
  0
VERTEX
  5
CB0
  8
IMPORT_-_CARRO\\U+00C7A_2
 62
     0
 10
293.21058611111113
 20
7.9521138888889018
 30
0.0
  0
VERTEX
  5
CB1
  8
IMPORT_-_CARRO\\U+00C7A_2
 62
     0
 10
293.10828055555561
 20
7.1756500000000178
 30
0.0
  0
VERTEX
  5
CB2
  8
IMPORT_-_CARRO\\U+00C7A_2
 62
     0
 10
292.80841944444438
 20
6.4521027777777817
 30
0.0
  0
VERTEX
  5
CB3
  8
IMPORT_-_CARRO\\U+00C7A_2
 62
     0
 10
292.33181666666673
 20
5.830861111111175
 30
0.0
  0
VERTEX
  5
CB4
  8
IMPORT_-_CARRO\\U+00C7A_2
 62
     0
 10
291.71057499999989
 20
5.3539055555555706
 30
0.0
  0
VERTEX
  5
CB5
  8
IMPORT_-_CARRO\\U+00C7A_2
 62
     0
 10
290.98702777777783
 20
5.0540444444444574
 30
0.0
  0
VERTEX
  5
CB6
  8
IMPORT_-_CARRO\\U+00C7A_2
 62
     0
 10
290.21056388888888
 20
4.9520916666666599
 30
0.0
  0
VERTEX
  5
CB7
  8
IMPORT_-_CARRO\\U+00C7A_2
 62
     0
 10
112.4969944444445
 20
4.9520916666666599
 30
0.0
  0
VERTEX
  5
CB8
  8
IMPORT_-_CARRO\\U+00C7A_2
 62
     0
 10
112.4969944444445
 20
12.082788888888899
 30
0.0
  0
VERTEX
  5
CB9
  8
IMPORT_-_CARRO\\U+00C7A_2
 62
     0
 10
149.26843333333329
 20
12.094430555555499
 30
0.0
  0
VERTEX
  5
CBA
  8
IMPORT_-_CARRO\\U+00C7A_2
 62
     0
 10
149.26843333333329
 20
16.394438888888889
 30
0.0
  0
VERTEX
  5
CBB
  8
IMPORT_-_CARRO\\U+00C7A_2
 62
     0
 10
112.4969944444445
 20
16.394438888888889
 30
0.0
  0
VERTEX
  5
CBC
  8
IMPORT_-_CARRO\\U+00C7A_2
 62
     0
 10
112.4969944444445
 20
23.523372222222179
 30
0.0
  0
VERTEX
  5
CBD
  8
IMPORT_-_CARRO\\U+00C7A_2
 62
     0
 10
149.26843333333329
 20
23.523372222222179
 30
0.0
  0
VERTEX
  5
CBE
  8
IMPORT_-_CARRO\\U+00C7A_2
 62
     0
 10
149.26843333333329
 20
27.573261111111041
 30
0.0
  0
VERTEX
  5
CBF
  8
IMPORT_-_CARRO\\U+00C7A_2
 62
     0
 10
112.4969944444445
 20
27.573261111111041
 30
0.0
  0
VERTEX
  5
CC0
  8
IMPORT_-_CARRO\\U+00C7A_2
 62
     0
 10
112.4969944444445
 20
35.587666666666678
 30
0.0
  0
VERTEX
  5
CC1
  8
IMPORT_-_CARRO\\U+00C7A_2
 62
     0
 10
109.4997944444444
 20
35.587666666666678
 30
0.0
  0
VERTEX
  5
CC2
  8
IMPORT_-_CARRO\\U+00C7A_2
 62
     0
 10
109.4997944444444
 20
27.573261111111041
 30
0.0
  0
VERTEX
  5
CC3
  8
IMPORT_-_CARRO\\U+00C7A_2
 62
     0
 10
108.72333055555551
 20
27.675566666666668
 30
0.0
  0
VERTEX
  5
CC4
  8
IMPORT_-_CARRO\\U+00C7A_2
 62
     0
 10
107.9997833333333
 20
27.975427777777782
 30
0.0
  0
VERTEX
  5
CC5
  8
IMPORT_-_CARRO\\U+00C7A_2
 62
     0
 10
107.37854166666671
 20
28.452030555555549
 30
0.0
  0
VERTEX
  5
CC6
  8
IMPORT_-_CARRO\\U+00C7A_2
 62
     0
 10
106.90193888888879
 20
29.073272222222268
 30
0.0
  0
VERTEX
  5
CC7
  8
IMPORT_-_CARRO\\U+00C7A_2
 62
     0
 10
106.60207777777769
 20
29.796819444444399
 30
0.0
  0
VERTEX
  5
CC8
  8
IMPORT_-_CARRO\\U+00C7A_2
 62
     0
 10
106.49977222222221
 20
30.5732833333334
 30
0.0
  0
VERTEX
  5
CC9
  8
IMPORT_-_CARRO\\U+00C7A_2
 62
     0
 10
106.49977222222221
 20
40.602049999999963
 30
0.0
  0
VERTEX
  5
CCA
  8
IMPORT_-_CARRO\\U+00C7A_2
 62
     0
 10
106.60207777777769
 20
41.378513888888847
 30
0.0
  0
VERTEX
  5
CCB
  8
IMPORT_-_CARRO\\U+00C7A_2
 62
     0
 10
106.90193888888879
 20
42.102061111111077
 30
0.0
  0
VERTEX
  5
CCC
  8
IMPORT_-_CARRO\\U+00C7A_2
 62
     0
 10
107.37854166666671
 20
42.723302777777789
 30
0.0
  0
VERTEX
  5
CCD
  8
IMPORT_-_CARRO\\U+00C7A_2
 62
     0
 10
107.9997833333333
 20
43.200258333333302
 30
0.0
  0
VERTEX
  5
CCE
  8
IMPORT_-_CARRO\\U+00C7A_2
 62
     0
 10
108.72333055555551
 20
43.499766666666687
 30
0.0
  0
VERTEX
  5
CCF
  8
IMPORT_-_CARRO\\U+00C7A_2
 62
     0
 10
109.4997944444444
 20
43.602072222222212
 30
0.0
  0
VERTEX
  5
CD0
  8
IMPORT_-_CARRO\\U+00C7A_2
 62
     0
 10
149.26843333333329
 20
43.602072222222212
 30
0.0
  0
VERTEX
  5
CD1
  8
IMPORT_-_CARRO\\U+00C7A_2
 62
     0
 10
149.26843333333329
 20
47.562708333333248
 30
0.0
  0
VERTEX
  5
CD2
  8
IMPORT_-_CARRO\\U+00C7A_2
 62
     0
 10
108.5000222222222
 20
47.562708333333248
 30
0.0
  0
VERTEX
  5
CD3
  8
IMPORT_-_CARRO\\U+00C7A_2
 62
     0
 10
107.7235583333334
 20
47.665013888888893
 30
0.0
  0
VERTEX
  5
CD4
  8
IMPORT_-_CARRO\\U+00C7A_2
 62
     0
 10
107.00001111111111
 20
47.964522222222293
 30
0.0
  0
VERTEX
  5
CD5
  8
IMPORT_-_CARRO\\U+00C7A_2
 62
     0
 10
106.37841666666669
 20
48.441124999999943
 30
0.0
  0
VERTEX
  5
CD6
  8
IMPORT_-_CARRO\\U+00C7A_2
 62
     0
 10
105.9018138888889
 20
49.062719444444383
 30
0.0
  0
VERTEX
  5
CD7
  8
IMPORT_-_CARRO\\U+00C7A_2
 62
     0
 10
105.6023055555555
 20
49.786266666666613
 30
0.0
  0
VERTEX
  5
CD8
  8
IMPORT_-_CARRO\\U+00C7A_2
 62
     0
 10
105.5
 20
50.562730555555611
 30
0.0
  0
VERTEX
  5
CD9
  8
IMPORT_-_CARRO\\U+00C7A_2
 62
     0
 10
105.5
 20
59.840433333333408
 30
0.0
  0
VERTEX
  5
CDA
  8
IMPORT_-_CARRO\\U+00C7A_2
 62
     0
 10
105.6361722222222
 20
60.875836111111212
 30
0.0
  0
VERTEX
  5
CDB
  8
IMPORT_-_CARRO\\U+00C7A_2
 62
     0
 10
106.0358694444444
 20
61.840330555555617
 30
0.0
  0
VERTEX
  5
CDC
  8
IMPORT_-_CARRO\\U+00C7A_2
 62
     0
 10
106.6715750000001
 20
62.6690055555556
 30
0.0
  0
VERTEX
  5
CDD
  8
IMPORT_-_CARRO\\U+00C7A_2
 62
     0
 10
107.4998972222222
 20
63.304711111111153
 30
0.0
  0
VERTEX
  5
CDE
  8
IMPORT_-_CARRO\\U+00C7A_2
 62
     0
 10
108.46474444444441
 20
63.704055555555563
 30
0.0
  0
VERTEX
  5
CDF
  8
IMPORT_-_CARRO\\U+00C7A_2
 62
     0
 10
109.4997944444444
 20
63.840580555555668
 30
0.0
  0
VERTEX
  5
CE0
  8
IMPORT_-_CARRO\\U+00C7A_2
 62
     0
 10
109.4997944444444
 20
55.79583611111115
 30
0.0
  0
VERTEX
  5
CE1
  8
IMPORT_-_CARRO\\U+00C7A_2
 62
     0
 10
112.4969944444445
 20
55.79583611111115
 30
0.0
  0
VERTEX
  5
CE2
  8
IMPORT_-_CARRO\\U+00C7A_2
 62
     0
 10
112.4969944444445
 20
63.840580555555668
 30
0.0
  0
VERTEX
  5
CE3
  8
IMPORT_-_CARRO\\U+00C7A_2
 62
     0
 10
127.8841027777778
 20
63.840580555555668
 30
0.0
  0
VERTEX
  5
CE4
  8
IMPORT_-_CARRO\\U+00C7A_2
 62
     0
 10
127.8841027777778
 20
66.862475000000018
 30
0.0
  0
VERTEX
  5
CE5
  8
IMPORT_-_CARRO\\U+00C7A_2
 62
     0
 10
112.4969944444445
 20
66.862475000000018
 30
0.0
  0
VERTEX
  5
CE6
  8
IMPORT_-_CARRO\\U+00C7A_2
 62
     0
 10
112.4969944444445
 20
67.0000583333333
 30
0.0
  0
VERTEX
  5
CE7
  8
IMPORT_-_CARRO\\U+00C7A_2
 62
     0
 10
112.7696916666666
 20
69.070863888888994
 30
0.0
  0
VERTEX
  5
CE8
  8
IMPORT_-_CARRO\\U+00C7A_2
 62
     0
 10
113.5687333333333
 20
71.000205555555681
 30
0.0
  0
VERTEX
  5
CE9
  8
IMPORT_-_CARRO\\U+00C7A_2
 62
     0
 10
114.8401444444445
 20
72.657202777777798
 30
0.0
  0
VERTEX
  5
CEA
  8
IMPORT_-_CARRO\\U+00C7A_2
 62
     0
 10
116.49714166666659
 20
73.928261111111055
 30
0.0
  0
VERTEX
  5
CEB
  8
IMPORT_-_CARRO\\U+00C7A_2
 62
     0
 10
118.42648333333329
 20
74.727655555555543
 30
0.0
  0
VERTEX
  5
CEC
  8
IMPORT_-_CARRO\\U+00C7A_2
 62
     0
 10
120.496936111111
 20
75.0
 30
0.0
  0
VERTEX
  5
CED
  8
IMPORT_-_CARRO\\U+00C7A_2
 62
     0
 10
151.26833055555559
 20
75.0
 30
0.0
  0
VERTEX
  5
CEE
  8
IMPORT_-_CARRO\\U+00C7A_2
 62
     0
 10
151.26833055555559
 20
69.862497222222146
 30
0.0
  0
VERTEX
  5
CEF
  8
IMPORT_-_CARRO\\U+00C7A_2
 62
     0
 10
154.26835277777781
 20
69.862497222222146
 30
0.0
  0
VERTEX
  5
CF0
  8
IMPORT_-_CARRO\\U+00C7A_2
 62
     0
 10
154.26835277777781
 20
75.0
 30
0.0
  0
VERTEX
  5
CF1
  8
IMPORT_-_CARRO\\U+00C7A_2
 62
     0
 10
249.4022888888889
 20
75.0
 30
0.0
  0
VERTEX
  5
CF2
  8
IMPORT_-_CARRO\\U+00C7A_2
 62
     0
 10
249.4022888888889
 20
69.862497222222146
 30
0.0
  0
VERTEX
  5
CF3
  8
IMPORT_-_CARRO\\U+00C7A_2
 62
     0
 10
252.40231111111109
 20
69.862497222222146
 30
0.0
  0
VERTEX
  5
CF4
  8
IMPORT_-_CARRO\\U+00C7A_2
 62
     0
 10
252.40231111111109
 20
75.0
 30
0.0
  0
VERTEX
  5
CF5
  8
IMPORT_-_CARRO\\U+00C7A_2
 62
     0
 10
324.05112500000001
 20
75.0
 30
0.0
  0
VERTEX
  5
CF6
  8
IMPORT_-_CARRO\\U+00C7A_2
 62
     0
 10
476.06271666666669
 20
69.988086111111102
 30
0.0
  0
VERTEX
  5
CF7
  8
IMPORT_-_CARRO\\U+00C7A_2
 62
     0
 10
476.06271666666669
 20
63.859277777777827
 30
0.0
  0
VERTEX
  5
CF8
  8
IMPORT_-_CARRO\\U+00C7A_2
 62
     0
 10
370.28335833333341
 20
63.859277777777827
 30
0.0
  0
VERTEX
  5
CF9
  8
IMPORT_-_CARRO\\U+00C7A_2
 62
     0
 10
371.34839444444452
 20
61.177108333333301
 30
0.0
  0
VERTEX
  5
CFA
  8
IMPORT_-_CARRO\\U+00C7A_2
 62
     0
 10
371.48738888888892
 20
60.727316666666638
 30
0.0
  0
VERTEX
  5
CFB
  8
IMPORT_-_CARRO\\U+00C7A_2
 62
     0
 10
371.55406388888878
 20
60.261297222222197
 30
0.0
  0
VERTEX
  5
CFC
  8
IMPORT_-_CARRO\\U+00C7A_2
 62
     0
 10
371.54700833333328
 20
59.790691666666689
 30
0.0
  0
VERTEX
  5
CFD
  8
IMPORT_-_CARRO\\U+00C7A_2
 62
     0
 10
371.46657499999998
 20
59.326788888888942
 30
0.0
  0
VERTEX
  5
CFE
  8
IMPORT_-_CARRO\\U+00C7A_2
 62
     0
 10
371.31452777777781
 20
58.881230555555589
 30
0.0
  0
VERTEX
  5
CFF
  8
IMPORT_-_CARRO\\U+00C7A_2
 62
     0
 10
371.09474722222222
 20
58.464952777777739
 30
0.0
  0
VERTEX
  5
D00
  8
IMPORT_-_CARRO\\U+00C7A_2
 62
     0
 10
370.81252499999999
 20
58.088186111111213
 30
0.0
  0
VERTEX
  5
D01
  8
IMPORT_-_CARRO\\U+00C7A_2
 62
     0
 10
370.47491666666662
 20
57.760102777777767
 30
0.0
  0
VERTEX
  5
D02
  8
IMPORT_-_CARRO\\U+00C7A_2
 62
     0
 10
370.08968333333343
 20
57.489169444444542
 30
0.0
  0
VERTEX
  5
D03
  8
IMPORT_-_CARRO\\U+00C7A_2
 62
     0
 10
369.6674083333333
 20
57.281736111111172
 30
0.0
  0
VERTEX
  5
D04
  8
IMPORT_-_CARRO\\U+00C7A_2
 62
     0
 10
368.40164166666671
 20
60.469436111111108
 30
0.0
  0
VERTEX
  5
D05
  8
IMPORT_-_CARRO\\U+00C7A_2
 62
     0
 10
365.61328611111122
 20
59.362066666666692
 30
0.0
  0
VERTEX
  5
D06
  8
IMPORT_-_CARRO\\U+00C7A_2
 62
     0
 10
366.8790527777777
 20
56.174366666666621
 30
0.0
  0
VERTEX
  5
D07
  8
IMPORT_-_CARRO\\U+00C7A_2
 62
     0
 10
367.43397222222222
 20
54.304291666666693
 30
0.0
  0
VERTEX
  5
D08
  8
IMPORT_-_CARRO\\U+00C7A_2
 62
     0
 10
367.94867499999998
 20
52.320622222222262
 30
0.0
  0
VERTEX
  5
D09
  8
IMPORT_-_CARRO\\U+00C7A_2
 62
     0
 10
368.38506111111121
 20
50.318255555555531
 30
0.0
  0
VERTEX
  5
D0A
  8
IMPORT_-_CARRO\\U+00C7A_2
 62
     0
 10
368.50959166666672
 20
49.617991666666633
 30
0.0
  0
VERTEX
  5
D0B
  8
IMPORT_-_CARRO\\U+00C7A_2
 62
     0
 10
371.72868888888888
 20
49.888219444444417
 30
0.0
  0
VERTEX
  5
D0C
  8
IMPORT_-_CARRO\\U+00C7A_2
 62
     0
 10
372.51114999999999
 20
49.851177777777828
 30
0.0
  0
VERTEX
  5
D0D
  8
IMPORT_-_CARRO\\U+00C7A_2
 62
     0
 10
373.25692222222222
 20
49.613052777777739
 30
0.0
  0
VERTEX
  5
D0E
  8
IMPORT_-_CARRO\\U+00C7A_2
 62
     0
 10
373.91626388888892
 20
49.190072222222177
 30
0.0
  0
VERTEX
  5
D0F
  8
IMPORT_-_CARRO\\U+00C7A_2
 62
     0
 10
374.44331388888878
 20
48.61081111111104
 30
0.0
  0
VERTEX
  5
D10
  8
IMPORT_-_CARRO\\U+00C7A_2
 62
     0
 10
374.80244166666671
 20
47.914780555555581
 30
0.0
  0
VERTEX
  5
D11
  8
IMPORT_-_CARRO\\U+00C7A_2
 62
     0
 10
374.96930555555548
 20
47.149605555555461
 30
0.0
  0
VERTEX
  5
D12
  8
IMPORT_-_CARRO\\U+00C7A_2
 62
     0
 10
375.04127222222218
 20
46.29270833333328
 30
0.0
  0
VERTEX
  5
D13
  8
IMPORT_-_CARRO\\U+00C7A_2
 62
     0
 10
375.00423055555552
 20
45.510599999999947
 30
0.0
  0
VERTEX
  5
D14
  8
IMPORT_-_CARRO\\U+00C7A_2
 62
     0
 10
374.7661055555555
 20
44.764474999999948
 30
0.0
  0
VERTEX
  5
D15
  8
IMPORT_-_CARRO\\U+00C7A_2
 62
     0
 10
374.34312499999999
 20
44.105133333333349
 30
0.0
  0
VERTEX
  5
D16
  8
IMPORT_-_CARRO\\U+00C7A_2
 62
     0
 10
373.76386388888892
 20
43.578083333333311
 30
0.0
  0
VERTEX
  5
D17
  8
IMPORT_-_CARRO\\U+00C7A_2
 62
     0
 10
373.06783333333328
 20
43.218955555555567
 30
0.0
  0
VERTEX
  5
D18
  8
IMPORT_-_CARRO\\U+00C7A_2
 62
     0
 10
372.30265833333328
 20
43.052091666666669
 30
0.0
  0
VERTEX
  5
D19
  8
IMPORT_-_CARRO\\U+00C7A_2
 62
     0
 10
372.01585
 20
46.469802777777772
 30
0.0
  0
VERTEX
  5
D1A
  8
IMPORT_-_CARRO\\U+00C7A_2
 62
     0
 10
369.02641111111109
 20
46.218977777777809
 30
0.0
  0
VERTEX
  5
D1B
  8
IMPORT_-_CARRO\\U+00C7A_2
 62
     0
 10
369.31321944444443
 20
42.80126666666672
 30
0.0
  0
VERTEX
  5
D1C
  8
IMPORT_-_CARRO\\U+00C7A_2
 62
     0
 10
369.3421472222222
 20
42.184258333333332
 30
0.0
  0
VERTEX
  5
D1D
  8
IMPORT_-_CARRO\\U+00C7A_2
 62
     0
 10
369.38236388888879
 20
40.135324999999959
 30
0.0
  0
SEQEND
  5
D1E
  8
IMPORT_-_CARRO\\U+00C7A_2
 62
     0
  0
POLYLINE
  5
47
  8
IMPORT_-_CARRO\\U+00C7A_2
 62
     0
 66
     1
 10
0.0
 20
0.0
 30
0.0
 70
     1
  0
VERTEX
  5
D1F
  8
IMPORT_-_CARRO\\U+00C7A_2
 62
     0
 10
247.40203888888891
 20
47.562708333333248
 30
0.0
  0
VERTEX
  5
D20
  8
IMPORT_-_CARRO\\U+00C7A_2
 62
     0
 10
156.2686027777778
 20
47.562708333333248
 30
0.0
  0
VERTEX
  5
D21
  8
IMPORT_-_CARRO\\U+00C7A_2
 62
     0
 10
156.2686027777778
 20
43.602072222222212
 30
0.0
  0
VERTEX
  5
D22
  8
IMPORT_-_CARRO\\U+00C7A_2
 62
     0
 10
247.40203888888891
 20
43.602072222222212
 30
0.0
  0
SEQEND
  5
D23
  8
IMPORT_-_CARRO\\U+00C7A_2
 62
     0
  0
POLYLINE
  5
48
  8
IMPORT_-_CARRO\\U+00C7A_2
 62
     0
 66
     1
 10
0.0
 20
0.0
 30
0.0
 70
     1
  0
VERTEX
  5
D24
  8
IMPORT_-_CARRO\\U+00C7A_2
 62
     0
 10
156.2686027777778
 20
27.573261111111041
 30
0.0
  0
VERTEX
  5
D25
  8
IMPORT_-_CARRO\\U+00C7A_2
 62
     0
 10
156.2686027777778
 20
23.523372222222179
 30
0.0
  0
VERTEX
  5
D26
  8
IMPORT_-_CARRO\\U+00C7A_2
 62
     0
 10
247.40203888888891
 20
23.523372222222179
 30
0.0
  0
VERTEX
  5
D27
  8
IMPORT_-_CARRO\\U+00C7A_2
 62
     0
 10
247.40203888888891
 20
27.573261111111041
 30
0.0
  0
SEQEND
  5
D28
  8
IMPORT_-_CARRO\\U+00C7A_2
 62
     0
  0
POLYLINE
  5
49
  8
IMPORT_-_CARRO\\U+00C7A_2
 62
     0
 66
     1
 10
0.0
 20
0.0
 30
0.0
 70
     1
  0
VERTEX
  5
D29
  8
IMPORT_-_CARRO\\U+00C7A_2
 62
     0
 10
156.2686027777778
 20
12.094430555555499
 30
0.0
  0
VERTEX
  5
D2A
  8
IMPORT_-_CARRO\\U+00C7A_2
 62
     0
 10
247.40203888888891
 20
12.081024999999951
 30
0.0
  0
VERTEX
  5
D2B
  8
IMPORT_-_CARRO\\U+00C7A_2
 62
     0
 10
247.40203888888891
 20
16.394438888888889
 30
0.0
  0
VERTEX
  5
D2C
  8
IMPORT_-_CARRO\\U+00C7A_2
 62
     0
 10
156.2686027777778
 20
16.394438888888889
 30
0.0
  0
SEQEND
  5
D2D
  8
IMPORT_-_CARRO\\U+00C7A_2
 62
     0
  0
POLYLINE
  5
4A
  8
IMPORT_-_CARRO\\U+00C7A_2
 62
     0
 66
     1
 10
0.0
 20
0.0
 30
0.0
 70
     1
  0
VERTEX
  5
D2E
  8
IMPORT_-_CARRO\\U+00C7A_2
 62
     0
 10
187.44110555555559
 20
162.93850274321011
 30
0.0
  0
VERTEX
  5
D2F
  8
IMPORT_-_CARRO\\U+00C7A_2
 62
     0
 10
191.58095277777781
 20
158.2176305209878
 30
0.0
  0
VERTEX
  5
D30
  8
IMPORT_-_CARRO\\U+00C7A_2
 62
     0
 10
195.06921944444451
 20
152.99722496543231
 30
0.0
  0
VERTEX
  5
D31
  8
IMPORT_-_CARRO\\U+00C7A_2
 62
     0
 10
197.84628611111111
 20
147.36583329876561
 30
0.0
  0
VERTEX
  5
D32
  8
IMPORT_-_CARRO\\U+00C7A_2
 62
     0
 10
199.86452777777779
 20
141.42046940987669
 30
0.0
  0
VERTEX
  5
D33
  8
IMPORT_-_CARRO\\U+00C7A_2
 62
     0
 10
201.08937222222229
 20
135.2623805209879
 30
0.0
  0
VERTEX
  5
D34
  8
IMPORT_-_CARRO\\U+00C7A_2
 62
     0
 10
201.5000055555557
 20
128.99704718765449
 30
0.0
  0
VERTEX
  5
D35
  8
IMPORT_-_CARRO\\U+00C7A_2
 62
     0
 10
201.08937222222229
 20
122.7317138543212
 30
0.0
  0
VERTEX
  5
D36
  8
IMPORT_-_CARRO\\U+00C7A_2
 62
     0
 10
199.86452777777779
 20
116.57397774321009
 30
0.0
  0
VERTEX
  5
D37
  8
IMPORT_-_CARRO\\U+00C7A_2
 62
     0
 10
197.84628611111111
 20
110.6282610765434
 30
0.0
  0
VERTEX
  5
D38
  8
IMPORT_-_CARRO\\U+00C7A_2
 62
     0
 10
195.06921944444451
 20
104.9972221876545
 30
0.0
  0
VERTEX
  5
D39
  8
IMPORT_-_CARRO\\U+00C7A_2
 62
     0
 10
191.58095277777781
 20
99.776463854321165
 30
0.0
  0
VERTEX
  5
D3A
  8
IMPORT_-_CARRO\\U+00C7A_2
 62
     0
 10
187.44110555555559
 20
95.055944409876801
 30
0.0
  0
VERTEX
  5
D3B
  8
IMPORT_-_CARRO\\U+00C7A_2
 62
     0
 10
182.72058611111109
 20
90.916097187654472
 30
0.0
  0
VERTEX
  5
D3C
  8
IMPORT_-_CARRO\\U+00C7A_2
 62
     0
 10
177.5001805555556
 20
87.427830520987854
 30
0.0
  0
VERTEX
  5
D3D
  8
IMPORT_-_CARRO\\U+00C7A_2
 62
     0
 10
171.8687888888889
 20
84.651116632098933
 30
0.0
  0
VERTEX
  5
D3E
  8
IMPORT_-_CARRO\\U+00C7A_2
 62
     0
 10
165.92342500000009
 20
82.632874965432265
 30
0.0
  0
VERTEX
  5
D3F
  8
IMPORT_-_CARRO\\U+00C7A_2
 62
     0
 10
159.76533611111111
 20
81.407677743210115
 30
0.0
  0
VERTEX
  5
D40
  8
IMPORT_-_CARRO\\U+00C7A_2
 62
     0
 10
153.50000277777789
 20
80.997044409876693
 30
0.0
  0
VERTEX
  5
D41
  8
IMPORT_-_CARRO\\U+00C7A_2
 62
     0
 10
147.23466944444451
 20
81.407677743210115
 30
0.0
  0
VERTEX
  5
D42
  8
IMPORT_-_CARRO\\U+00C7A_2
 62
     0
 10
141.07693333333339
 20
82.632874965432265
 30
0.0
  0
VERTEX
  5
D43
  8
IMPORT_-_CARRO\\U+00C7A_2
 62
     0
 10
135.13121666666669
 20
84.651116632098933
 30
0.0
  0
VERTEX
  5
D44
  8
IMPORT_-_CARRO\\U+00C7A_2
 62
     0
 10
129.50017777777791
 20
87.427830520987854
 30
0.0
  0
VERTEX
  5
D45
  8
IMPORT_-_CARRO\\U+00C7A_2
 62
     0
 10
124.2794194444445
 20
90.916097187654472
 30
0.0
  0
VERTEX
  5
D46
  8
IMPORT_-_CARRO\\U+00C7A_2
 62
     0
 10
119.55890000000009
 20
95.055944409876801
 30
0.0
  0
VERTEX
  5
D47
  8
IMPORT_-_CARRO\\U+00C7A_2
 62
     0
 10
115.41905277777779
 20
99.776463854321165
 30
0.0
  0
VERTEX
  5
D48
  8
IMPORT_-_CARRO\\U+00C7A_2
 62
     0
 10
111.9307861111111
 20
104.9972221876545
 30
0.0
  0
VERTEX
  5
D49
  8
IMPORT_-_CARRO\\U+00C7A_2
 62
     0
 10
109.1537194444446
 20
110.6282610765434
 30
0.0
  0
VERTEX
  5
D4A
  8
IMPORT_-_CARRO\\U+00C7A_2
 62
     0
 10
107.13547777777779
 20
116.57397774321009
 30
0.0
  0
VERTEX
  5
D4B
  8
IMPORT_-_CARRO\\U+00C7A_2
 62
     0
 10
105.91063333333349
 20
122.7317138543212
 30
0.0
  0
VERTEX
  5
D4C
  8
IMPORT_-_CARRO\\U+00C7A_2
 62
     0
 10
105.5000000000001
 20
128.99704718765449
 30
0.0
  0
VERTEX
  5
D4D
  8
IMPORT_-_CARRO\\U+00C7A_2
 62
     0
 10
105.91063333333349
 20
135.2623805209879
 30
0.0
  0
VERTEX
  5
D4E
  8
IMPORT_-_CARRO\\U+00C7A_2
 62
     0
 10
107.13547777777779
 20
141.42046940987669
 30
0.0
  0
VERTEX
  5
D4F
  8
IMPORT_-_CARRO\\U+00C7A_2
 62
     0
 10
109.1537194444446
 20
147.36583329876561
 30
0.0
  0
VERTEX
  5
D50
  8
IMPORT_-_CARRO\\U+00C7A_2
 62
     0
 10
111.9307861111111
 20
152.99722496543231
 30
0.0
  0
VERTEX
  5
D51
  8
IMPORT_-_CARRO\\U+00C7A_2
 62
     0
 10
115.41905277777779
 20
158.2176305209878
 30
0.0
  0
VERTEX
  5
D52
  8
IMPORT_-_CARRO\\U+00C7A_2
 62
     0
 10
119.55890000000009
 20
162.93850274321011
 30
0.0
  0
VERTEX
  5
D53
  8
IMPORT_-_CARRO\\U+00C7A_2
 62
     0
 10
124.2794194444445
 20
167.0779971876544
 30
0.0
  0
VERTEX
  5
D54
  8
IMPORT_-_CARRO\\U+00C7A_2
 62
     0
 10
129.50017777777791
 20
170.56626385432131
 30
0.0
  0
VERTEX
  5
D55
  8
IMPORT_-_CARRO\\U+00C7A_2
 62
     0
 10
135.13121666666669
 20
173.34333052098779
 30
0.0
  0
VERTEX
  5
D56
  8
IMPORT_-_CARRO\\U+00C7A_2
 62
     0
 10
141.07693333333339
 20
175.3615721876545
 30
0.0
  0
VERTEX
  5
D57
  8
IMPORT_-_CARRO\\U+00C7A_2
 62
     0
 10
147.23466944444451
 20
176.58641663209889
 30
0.0
  0
VERTEX
  5
D58
  8
IMPORT_-_CARRO\\U+00C7A_2
 62
     0
 10
153.50000277777789
 20
176.9970499654323
 30
0.0
  0
VERTEX
  5
D59
  8
IMPORT_-_CARRO\\U+00C7A_2
 62
     0
 10
159.76533611111111
 20
176.58641663209889
 30
0.0
  0
VERTEX
  5
D5A
  8
IMPORT_-_CARRO\\U+00C7A_2
 62
     0
 10
165.92342500000009
 20
175.3615721876545
 30
0.0
  0
VERTEX
  5
D5B
  8
IMPORT_-_CARRO\\U+00C7A_2
 62
     0
 10
171.8687888888889
 20
173.34333052098779
 30
0.0
  0
VERTEX
  5
D5C
  8
IMPORT_-_CARRO\\U+00C7A_2
 62
     0
 10
177.5001805555556
 20
170.56626385432131
 30
0.0
  0
VERTEX
  5
D5D
  8
IMPORT_-_CARRO\\U+00C7A_2
 62
     0
 10
182.72058611111109
 20
167.0779971876544
 30
0.0
  0
SEQEND
  5
D5E
  8
IMPORT_-_CARRO\\U+00C7A_2
 62
     0
  0
POLYLINE
  5
4B
  8
IMPORT_-_CARRO\\U+00C7A_2
 62
     0
 66
     1
 10
0.0
 20
0.0
 30
0.0
 70
     1
  0
VERTEX
  5
D5F
  8
IMPORT_-_CARRO\\U+00C7A_2
 62
     0
 10
150.54125555555569
 20
117.9540444098767
 30
0.0
  0
VERTEX
  5
D60
  8
IMPORT_-_CARRO\\U+00C7A_2
 62
     0
 10
149.64731666666671
 20
118.32410829876559
 30
0.0
  0
VERTEX
  5
D61
  8
IMPORT_-_CARRO\\U+00C7A_2
 62
     0
 10
135.3061944444444
 20
93.484672187654496
 30
0.0
  0
VERTEX
  5
D62
  8
IMPORT_-_CARRO\\U+00C7A_2
 62
     0
 10
138.19932499999999
 20
92.057686076543277
 30
0.0
  0
VERTEX
  5
D63
  8
IMPORT_-_CARRO\\U+00C7A_2
 62
     0
 10
143.15161944444441
 20
90.376699965432294
 30
0.0
  0
VERTEX
  5
D64
  8
IMPORT_-_CARRO\\U+00C7A_2
 62
     0
 10
148.28136111111121
 20
89.356466632098986
 30
0.0
  0
VERTEX
  5
D65
  8
IMPORT_-_CARRO\\U+00C7A_2
 62
     0
 10
151.50010555555551
 20
89.145505520987967
 30
0.0
  0
VERTEX
  5
D66
  8
IMPORT_-_CARRO\\U+00C7A_2
 62
     0
 10
151.50010555555551
 20
117.8277499654322
 30
0.0
  0
SEQEND
  5
D67
  8
IMPORT_-_CARRO\\U+00C7A_2
 62
     0
  0
POLYLINE
  5
4C
  8
IMPORT_-_CARRO\\U+00C7A_2
 62
     0
 66
     1
 10
0.0
 20
0.0
 30
0.0
 70
     1
  0
VERTEX
  5
D68
  8
IMPORT_-_CARRO\\U+00C7A_2
 62
     0
 10
164.66930000000011
 20
126.9971499654323
 30
0.0
  0
VERTEX
  5
D69
  8
IMPORT_-_CARRO\\U+00C7A_2
 62
     0
 10
164.5430055555556
 20
126.0382999654323
 30
0.0
  0
VERTEX
  5
D6A
  8
IMPORT_-_CARRO\\U+00C7A_2
 62
     0
 10
164.17294166666659
 20
125.1447138543211
 30
0.0
  0
VERTEX
  5
D6B
  8
IMPORT_-_CARRO\\U+00C7A_2
 62
     0
 10
189.01273055555561
 20
110.80323885432119
 30
0.0
  0
VERTEX
  5
D6C
  8
IMPORT_-_CARRO\\U+00C7A_2
 62
     0
 10
190.43936388888901
 20
113.69636940987679
 30
0.0
  0
VERTEX
  5
D6D
  8
IMPORT_-_CARRO\\U+00C7A_2
 62
     0
 10
192.12035
 20
118.64901663209891
 30
0.0
  0
VERTEX
  5
D6E
  8
IMPORT_-_CARRO\\U+00C7A_2
 62
     0
 10
193.1409361111111
 20
123.7784055209878
 30
0.0
  0
VERTEX
  5
D6F
  8
IMPORT_-_CARRO\\U+00C7A_2
 62
     0
 10
193.35189722222211
 20
126.9971499654323
 30
0.0
  0
SEQEND
  5
D70
  8
IMPORT_-_CARRO\\U+00C7A_2
 62
     0
  0
POLYLINE
  5
4D
  8
IMPORT_-_CARRO\\U+00C7A_2
 62
     0
 66
     1
 10
0.0
 20
0.0
 30
0.0
 70
     1
  0
VERTEX
  5
D71
  8
IMPORT_-_CARRO\\U+00C7A_2
 62
     0
 10
150.54125555555569
 20
140.04004996543219
 30
0.0
  0
VERTEX
  5
D72
  8
IMPORT_-_CARRO\\U+00C7A_2
 62
     0
 10
151.50010555555551
 20
140.1663444098767
 30
0.0
  0
VERTEX
  5
D73
  8
IMPORT_-_CARRO\\U+00C7A_2
 62
     0
 10
151.50010555555551
 20
168.8489416320989
 30
0.0
  0
VERTEX
  5
D74
  8
IMPORT_-_CARRO\\U+00C7A_2
 62
     0
 10
148.28136111111121
 20
168.63798052098781
 30
0.0
  0
VERTEX
  5
D75
  8
IMPORT_-_CARRO\\U+00C7A_2
 62
     0
 10
143.15161944444441
 20
167.6173944098766
 30
0.0
  0
VERTEX
  5
D76
  8
IMPORT_-_CARRO\\U+00C7A_2
 62
     0
 10
138.19932499999999
 20
165.9364082987656
 30
0.0
  0
VERTEX
  5
D77
  8
IMPORT_-_CARRO\\U+00C7A_2
 62
     0
 10
135.3061944444444
 20
164.50977496543231
 30
0.0
  0
VERTEX
  5
D78
  8
IMPORT_-_CARRO\\U+00C7A_2
 62
     0
 10
149.64731666666671
 20
139.6699860765433
 30
0.0
  0
SEQEND
  5
D79
  8
IMPORT_-_CARRO\\U+00C7A_2
 62
     0
  0
POLYLINE
  5
4E
  8
IMPORT_-_CARRO\\U+00C7A_2
 62
     0
 66
     1
 10
0.0
 20
0.0
 30
0.0
 70
     1
  0
VERTEX
  5
D7A
  8
IMPORT_-_CARRO\\U+00C7A_2
 62
     0
 10
144.82731388888891
 20
136.31401107654341
 30
0.0
  0
VERTEX
  5
D7B
  8
IMPORT_-_CARRO\\U+00C7A_2
 62
     0
 10
145.41610000000011
 20
137.0813027432101
 30
0.0
  0
VERTEX
  5
D7C
  8
IMPORT_-_CARRO\\U+00C7A_2
 62
     0
 10
146.18339166666681
 20
137.67008885432119
 30
0.0
  0
VERTEX
  5
D7D
  8
IMPORT_-_CARRO\\U+00C7A_2
 62
     0
 10
131.84226944444441
 20
162.50987774321021
 30
0.0
  0
VERTEX
  5
D7E
  8
IMPORT_-_CARRO\\U+00C7A_2
 62
     0
 10
129.16010000000011
 20
160.71776663209889
 30
0.0
  0
VERTEX
  5
D7F
  8
IMPORT_-_CARRO\\U+00C7A_2
 62
     0
 10
125.2280388888889
 20
157.2693638543212
 30
0.0
  0
VERTEX
  5
D80
  8
IMPORT_-_CARRO\\U+00C7A_2
 62
     0
 10
121.7796361111112
 20
153.33730274320999
 30
0.0
  0
VERTEX
  5
D81
  8
IMPORT_-_CARRO\\U+00C7A_2
 62
     0
 10
119.98752499999991
 20
150.65513329876561
 30
0.0
  0
SEQEND
  5
D82
  8
IMPORT_-_CARRO\\U+00C7A_2
 62
     0
  0
POLYLINE
  5
4F
  8
IMPORT_-_CARRO\\U+00C7A_2
 62
     0
 66
     1
 10
0.0
 20
0.0
 30
0.0
 70
     1
  0
VERTEX
  5
D83
  8
IMPORT_-_CARRO\\U+00C7A_2
 62
     0
 10
171.69381111111119
 20
93.484672187654496
 30
0.0
  0
VERTEX
  5
D84
  8
IMPORT_-_CARRO\\U+00C7A_2
 62
     0
 10
157.35268888888899
 20
118.32410829876559
 30
0.0
  0
VERTEX
  5
D85
  8
IMPORT_-_CARRO\\U+00C7A_2
 62
     0
 10
156.45910277777779
 20
117.9540444098767
 30
0.0
  0
VERTEX
  5
D86
  8
IMPORT_-_CARRO\\U+00C7A_2
 62
     0
 10
155.5002527777778
 20
117.8277499654322
 30
0.0
  0
VERTEX
  5
D87
  8
IMPORT_-_CARRO\\U+00C7A_2
 62
     0
 10
155.5002527777778
 20
89.145505520987967
 30
0.0
  0
VERTEX
  5
D88
  8
IMPORT_-_CARRO\\U+00C7A_2
 62
     0
 10
158.7189972222223
 20
89.356466632098986
 30
0.0
  0
VERTEX
  5
D89
  8
IMPORT_-_CARRO\\U+00C7A_2
 62
     0
 10
163.84838611111121
 20
90.376699965432294
 30
0.0
  0
VERTEX
  5
D8A
  8
IMPORT_-_CARRO\\U+00C7A_2
 62
     0
 10
168.80103333333341
 20
92.057686076543277
 30
0.0
  0
SEQEND
  5
D8B
  8
IMPORT_-_CARRO\\U+00C7A_2
 62
     0
  0
POLYLINE
  5
50
  8
IMPORT_-_CARRO\\U+00C7A_2
 62
     0
 66
     1
 10
0.0
 20
0.0
 30
0.0
 70
     1
  0
VERTEX
  5
D8C
  8
IMPORT_-_CARRO\\U+00C7A_2
 62
     0
 10
160.81661388888901
 20
137.67008885432119
 30
0.0
  0
VERTEX
  5
D8D
  8
IMPORT_-_CARRO\\U+00C7A_2
 62
     0
 10
161.5839055555555
 20
137.0813027432101
 30
0.0
  0
VERTEX
  5
D8E
  8
IMPORT_-_CARRO\\U+00C7A_2
 62
     0
 10
162.17304444444451
 20
136.31401107654341
 30
0.0
  0
VERTEX
  5
D8F
  8
IMPORT_-_CARRO\\U+00C7A_2
 62
     0
 10
187.0128333333333
 20
150.65513329876561
 30
0.0
  0
VERTEX
  5
D90
  8
IMPORT_-_CARRO\\U+00C7A_2
 62
     0
 10
185.22072222222229
 20
153.33730274320999
 30
0.0
  0
VERTEX
  5
D91
  8
IMPORT_-_CARRO\\U+00C7A_2
 62
     0
 10
181.77231944444449
 20
157.2693638543212
 30
0.0
  0
VERTEX
  5
D92
  8
IMPORT_-_CARRO\\U+00C7A_2
 62
     0
 10
177.84025833333351
 20
160.71776663209889
 30
0.0
  0
VERTEX
  5
D93
  8
IMPORT_-_CARRO\\U+00C7A_2
 62
     0
 10
175.1580888888889
 20
162.50987774321021
 30
0.0
  0
SEQEND
  5
D94
  8
IMPORT_-_CARRO\\U+00C7A_2
 62
     0
  0
POLYLINE
  5
51
  8
IMPORT_-_CARRO\\U+00C7A_2
 62
     0
 66
     1
 10
0.0
 20
0.0
 30
0.0
 70
     1
  0
VERTEX
  5
D95
  8
IMPORT_-_CARRO\\U+00C7A_2
 62
     0
 10
189.01273055555561
 20
147.1908555209877
 30
0.0
  0
VERTEX
  5
D96
  8
IMPORT_-_CARRO\\U+00C7A_2
 62
     0
 10
164.17294166666659
 20
132.8497332987657
 30
0.0
  0
VERTEX
  5
D97
  8
IMPORT_-_CARRO\\U+00C7A_2
 62
     0
 10
164.5430055555556
 20
131.95614718765441
 30
0.0
  0
VERTEX
  5
D98
  8
IMPORT_-_CARRO\\U+00C7A_2
 62
     0
 10
164.66930000000011
 20
130.99729718765451
 30
0.0
  0
VERTEX
  5
D99
  8
IMPORT_-_CARRO\\U+00C7A_2
 62
     0
 10
193.35189722222211
 20
130.99729718765451
 30
0.0
  0
VERTEX
  5
D9A
  8
IMPORT_-_CARRO\\U+00C7A_2
 62
     0
 10
193.1409361111111
 20
134.21604163209881
 30
0.0
  0
VERTEX
  5
D9B
  8
IMPORT_-_CARRO\\U+00C7A_2
 62
     0
 10
192.12035
 20
139.34543052098789
 30
0.0
  0
VERTEX
  5
D9C
  8
IMPORT_-_CARRO\\U+00C7A_2
 62
     0
 10
190.43936388888901
 20
144.29772496543239
 30
0.0
  0
SEQEND
  5
D9D
  8
IMPORT_-_CARRO\\U+00C7A_2
 62
     0
  0
POLYLINE
  5
52
  8
IMPORT_-_CARRO\\U+00C7A_2
 62
     0
 66
     1
 10
0.0
 20
0.0
 30
0.0
 70
     1
  0
VERTEX
  5
D9E
  8
IMPORT_-_CARRO\\U+00C7A_2
 62
     0
 10
155.5002527777778
 20
168.8489416320989
 30
0.0
  0
VERTEX
  5
D9F
  8
IMPORT_-_CARRO\\U+00C7A_2
 62
     0
 10
155.5002527777778
 20
140.1663444098767
 30
0.0
  0
VERTEX
  5
DA0
  8
IMPORT_-_CARRO\\U+00C7A_2
 62
     0
 10
156.45910277777779
 20
140.04004996543219
 30
0.0
  0
VERTEX
  5
DA1
  8
IMPORT_-_CARRO\\U+00C7A_2
 62
     0
 10
157.35268888888899
 20
139.6699860765433
 30
0.0
  0
VERTEX
  5
DA2
  8
IMPORT_-_CARRO\\U+00C7A_2
 62
     0
 10
171.69381111111119
 20
164.50977496543231
 30
0.0
  0
VERTEX
  5
DA3
  8
IMPORT_-_CARRO\\U+00C7A_2
 62
     0
 10
168.80103333333341
 20
165.9364082987656
 30
0.0
  0
VERTEX
  5
DA4
  8
IMPORT_-_CARRO\\U+00C7A_2
 62
     0
 10
163.84838611111121
 20
167.6173944098766
 30
0.0
  0
VERTEX
  5
DA5
  8
IMPORT_-_CARRO\\U+00C7A_2
 62
     0
 10
158.7189972222223
 20
168.63798052098781
 30
0.0
  0
SEQEND
  5
DA6
  8
IMPORT_-_CARRO\\U+00C7A_2
 62
     0
  0
POLYLINE
  5
53
  8
IMPORT_-_CARRO\\U+00C7A_2
 62
     0
 66
     1
 10
0.0
 20
0.0
 30
0.0
 70
     1
  0
VERTEX
  5
DA7
  8
IMPORT_-_CARRO\\U+00C7A_2
 62
     0
 10
117.987275
 20
110.80323885432119
 30
0.0
  0
VERTEX
  5
DA8
  8
IMPORT_-_CARRO\\U+00C7A_2
 62
     0
 10
142.827063888889
 20
125.1447138543211
 30
0.0
  0
VERTEX
  5
DA9
  8
IMPORT_-_CARRO\\U+00C7A_2
 62
     0
 10
142.45700000000011
 20
126.0382999654323
 30
0.0
  0
VERTEX
  5
DAA
  8
IMPORT_-_CARRO\\U+00C7A_2
 62
     0
 10
142.33070555555551
 20
126.9971499654323
 30
0.0
  0
VERTEX
  5
DAB
  8
IMPORT_-_CARRO\\U+00C7A_2
 62
     0
 10
113.6484611111112
 20
126.9971499654323
 30
0.0
  0
VERTEX
  5
DAC
  8
IMPORT_-_CARRO\\U+00C7A_2
 62
     0
 10
113.85942222222219
 20
123.7784055209878
 30
0.0
  0
VERTEX
  5
DAD
  8
IMPORT_-_CARRO\\U+00C7A_2
 62
     0
 10
114.8796555555556
 20
118.64901663209891
 30
0.0
  0
VERTEX
  5
DAE
  8
IMPORT_-_CARRO\\U+00C7A_2
 62
     0
 10
116.5606416666666
 20
113.69636940987679
 30
0.0
  0
SEQEND
  5
DAF
  8
IMPORT_-_CARRO\\U+00C7A_2
 62
     0
  0
POLYLINE
  5
54
  8
IMPORT_-_CARRO\\U+00C7A_2
 62
     0
 66
     1
 10
0.0
 20
0.0
 30
0.0
 70
     1
  0
VERTEX
  5
DB0
  8
IMPORT_-_CARRO\\U+00C7A_2
 62
     0
 10
131.84226944444441
 20
95.484569409876727
 30
0.0
  0
VERTEX
  5
DB1
  8
IMPORT_-_CARRO\\U+00C7A_2
 62
     0
 10
146.18339166666681
 20
120.3243582987657
 30
0.0
  0
VERTEX
  5
DB2
  8
IMPORT_-_CARRO\\U+00C7A_2
 62
     0
 10
145.41610000000011
 20
120.91314440987669
 30
0.0
  0
VERTEX
  5
DB3
  8
IMPORT_-_CARRO\\U+00C7A_2
 62
     0
 10
144.82731388888891
 20
121.6804360765434
 30
0.0
  0
VERTEX
  5
DB4
  8
IMPORT_-_CARRO\\U+00C7A_2
 62
     0
 10
119.98752499999991
 20
107.3393138543212
 30
0.0
  0
VERTEX
  5
DB5
  8
IMPORT_-_CARRO\\U+00C7A_2
 62
     0
 10
121.7796361111112
 20
104.65714440987681
 30
0.0
  0
VERTEX
  5
DB6
  8
IMPORT_-_CARRO\\U+00C7A_2
 62
     0
 10
125.2280388888889
 20
100.7250832987655
 30
0.0
  0
VERTEX
  5
DB7
  8
IMPORT_-_CARRO\\U+00C7A_2
 62
     0
 10
129.16010000000011
 20
97.276680520987952
 30
0.0
  0
SEQEND
  5
DB8
  8
IMPORT_-_CARRO\\U+00C7A_2
 62
     0
  0
POLYLINE
  5
55
  8
IMPORT_-_CARRO\\U+00C7A_2
 62
     0
 66
     1
 10
0.0
 20
0.0
 30
0.0
 70
     1
  0
VERTEX
  5
DB9
  8
IMPORT_-_CARRO\\U+00C7A_2
 62
     0
 10
142.45700000000011
 20
131.95614718765441
 30
0.0
  0
VERTEX
  5
DBA
  8
IMPORT_-_CARRO\\U+00C7A_2
 62
     0
 10
142.827063888889
 20
132.8497332987657
 30
0.0
  0
VERTEX
  5
DBB
  8
IMPORT_-_CARRO\\U+00C7A_2
 62
     0
 10
117.987275
 20
147.1908555209877
 30
0.0
  0
VERTEX
  5
DBC
  8
IMPORT_-_CARRO\\U+00C7A_2
 62
     0
 10
116.5606416666666
 20
144.29772496543239
 30
0.0
  0
VERTEX
  5
DBD
  8
IMPORT_-_CARRO\\U+00C7A_2
 62
     0
 10
114.8796555555556
 20
139.34543052098789
 30
0.0
  0
VERTEX
  5
DBE
  8
IMPORT_-_CARRO\\U+00C7A_2
 62
     0
 10
113.85942222222219
 20
134.21604163209881
 30
0.0
  0
VERTEX
  5
DBF
  8
IMPORT_-_CARRO\\U+00C7A_2
 62
     0
 10
113.6484611111112
 20
130.99729718765451
 30
0.0
  0
VERTEX
  5
DC0
  8
IMPORT_-_CARRO\\U+00C7A_2
 62
     0
 10
142.33070555555551
 20
130.99729718765451
 30
0.0
  0
SEQEND
  5
DC1
  8
IMPORT_-_CARRO\\U+00C7A_2
 62
     0
  0
POLYLINE
  5
56
  8
IMPORT_-_CARRO\\U+00C7A_2
 62
     0
 66
     1
 10
0.0
 20
0.0
 30
0.0
 70
     1
  0
VERTEX
  5
DC2
  8
IMPORT_-_CARRO\\U+00C7A_2
 62
     0
 10
161.5839055555555
 20
120.91314440987669
 30
0.0
  0
VERTEX
  5
DC3
  8
IMPORT_-_CARRO\\U+00C7A_2
 62
     0
 10
160.81661388888901
 20
120.3243582987657
 30
0.0
  0
VERTEX
  5
DC4
  8
IMPORT_-_CARRO\\U+00C7A_2
 62
     0
 10
175.1580888888889
 20
95.484569409876727
 30
0.0
  0
VERTEX
  5
DC5
  8
IMPORT_-_CARRO\\U+00C7A_2
 62
     0
 10
177.84025833333351
 20
97.276680520987952
 30
0.0
  0
VERTEX
  5
DC6
  8
IMPORT_-_CARRO\\U+00C7A_2
 62
     0
 10
181.77231944444449
 20
100.7250832987655
 30
0.0
  0
VERTEX
  5
DC7
  8
IMPORT_-_CARRO\\U+00C7A_2
 62
     0
 10
185.22072222222229
 20
104.65714440987681
 30
0.0
  0
VERTEX
  5
DC8
  8
IMPORT_-_CARRO\\U+00C7A_2
 62
     0
 10
187.0128333333333
 20
107.3393138543212
 30
0.0
  0
VERTEX
  5
DC9
  8
IMPORT_-_CARRO\\U+00C7A_2
 62
     0
 10
162.17304444444451
 20
121.6804360765434
 30
0.0
  0
SEQEND
  5
DCA
  8
IMPORT_-_CARRO\\U+00C7A_2
 62
     0
  0
POLYLINE
  5
57
  8
IMPORT_-_CARRO\\U+00C7A_2
 62
     0
 66
     1
 10
0.0
 20
0.0
 30
0.0
 70
     1
  0
VERTEX
  5
DCB
  8
IMPORT_-_CARRO\\U+00C7A_2
 62
     0
 10
155.3104583333334
 20
135.75379996543231
 30
0.0
  0
VERTEX
  5
DCC
  8
IMPORT_-_CARRO\\U+00C7A_2
 62
     0
 10
153.50000277777789
 20
135.99227774321
 30
0.0
  0
VERTEX
  5
DCD
  8
IMPORT_-_CARRO\\U+00C7A_2
 62
     0
 10
151.68954722222219
 20
135.75379996543231
 30
0.0
  0
VERTEX
  5
DCE
  8
IMPORT_-_CARRO\\U+00C7A_2
 62
     0
 10
150.00256388888889
 20
135.0552999654324
 30
0.0
  0
VERTEX
  5
DCF
  8
IMPORT_-_CARRO\\U+00C7A_2
 62
     0
 10
148.55370555555561
 20
133.9433444098768
 30
0.0
  0
VERTEX
  5
DD0
  8
IMPORT_-_CARRO\\U+00C7A_2
 62
     0
 10
147.44210277777779
 20
132.4948388543211
 30
0.0
  0
VERTEX
  5
DD1
  8
IMPORT_-_CARRO\\U+00C7A_2
 62
     0
 10
146.74324999999999
 20
130.80750274321011
 30
0.0
  0
VERTEX
  5
DD2
  8
IMPORT_-_CARRO\\U+00C7A_2
 62
     0
 10
146.5047722222221
 20
128.99704718765449
 30
0.0
  0
VERTEX
  5
DD3
  8
IMPORT_-_CARRO\\U+00C7A_2
 62
     0
 10
146.74324999999999
 20
127.1865916320987
 30
0.0
  0
VERTEX
  5
DD4
  8
IMPORT_-_CARRO\\U+00C7A_2
 62
     0
 10
147.44210277777779
 20
125.49960829876569
 30
0.0
  0
VERTEX
  5
DD5
  8
IMPORT_-_CARRO\\U+00C7A_2
 62
     0
 10
148.55370555555561
 20
124.0507499654324
 30
0.0
  0
VERTEX
  5
DD6
  8
IMPORT_-_CARRO\\U+00C7A_2
 62
     0
 10
150.00256388888889
 20
122.9391471876545
 30
0.0
  0
VERTEX
  5
DD7
  8
IMPORT_-_CARRO\\U+00C7A_2
 62
     0
 10
151.68954722222219
 20
122.2402944098768
 30
0.0
  0
VERTEX
  5
DD8
  8
IMPORT_-_CARRO\\U+00C7A_2
 62
     0
 10
153.50000277777789
 20
122.0021694098767
 30
0.0
  0
VERTEX
  5
DD9
  8
IMPORT_-_CARRO\\U+00C7A_2
 62
     0
 10
155.3104583333334
 20
122.2402944098768
 30
0.0
  0
VERTEX
  5
DDA
  8
IMPORT_-_CARRO\\U+00C7A_2
 62
     0
 10
156.99779444444439
 20
122.9391471876545
 30
0.0
  0
VERTEX
  5
DDB
  8
IMPORT_-_CARRO\\U+00C7A_2
 62
     0
 10
158.44630000000001
 20
124.0507499654324
 30
0.0
  0
VERTEX
  5
DDC
  8
IMPORT_-_CARRO\\U+00C7A_2
 62
     0
 10
159.5579027777778
 20
125.49960829876569
 30
0.0
  0
VERTEX
  5
DDD
  8
IMPORT_-_CARRO\\U+00C7A_2
 62
     0
 10
160.2567555555556
 20
127.1865916320987
 30
0.0
  0
VERTEX
  5
DDE
  8
IMPORT_-_CARRO\\U+00C7A_2
 62
     0
 10
160.4952333333334
 20
128.99704718765449
 30
0.0
  0
VERTEX
  5
DDF
  8
IMPORT_-_CARRO\\U+00C7A_2
 62
     0
 10
160.2567555555556
 20
130.80750274321011
 30
0.0
  0
VERTEX
  5
DE0
  8
IMPORT_-_CARRO\\U+00C7A_2
 62
     0
 10
159.5579027777778
 20
132.4948388543211
 30
0.0
  0
VERTEX
  5
DE1
  8
IMPORT_-_CARRO\\U+00C7A_2
 62
     0
 10
158.44630000000001
 20
133.9433444098768
 30
0.0
  0
VERTEX
  5
DE2
  8
IMPORT_-_CARRO\\U+00C7A_2
 62
     0
 10
156.99779444444439
 20
135.0552999654324
 30
0.0
  0
SEQEND
  5
DE3
  8
IMPORT_-_CARRO\\U+00C7A_2
 62
     0
  0
POLYLINE
  5
58
  8
IMPORT_-_CARRO\\U+00C7A_2
 62
     0
 66
     1
 10
0.0
 20
0.0
 30
0.0
 70
     1
  0
VERTEX
  5
DE4
  8
IMPORT_-_CARRO\\U+00C7A_2
 62
     0
 10
253.0000055555557
 20
217.4966944098768
 30
0.0
  0
VERTEX
  5
DE5
  8
IMPORT_-_CARRO\\U+00C7A_2
 62
     0
 10
252.58937222222229
 20
211.23171385432121
 30
0.0
  0
VERTEX
  5
DE6
  8
IMPORT_-_CARRO\\U+00C7A_2
 62
     0
 10
251.36452777777779
 20
205.0736249654324
 30
0.0
  0
VERTEX
  5
DE7
  8
IMPORT_-_CARRO\\U+00C7A_2
 62
     0
 10
249.34628611111111
 20
199.12826107654351
 30
0.0
  0
VERTEX
  5
DE8
  8
IMPORT_-_CARRO\\U+00C7A_2
 62
     0
 10
246.56921944444451
 20
193.49686940987681
 30
0.0
  0
VERTEX
  5
DE9
  8
IMPORT_-_CARRO\\U+00C7A_2
 62
     0
 10
243.08095277777781
 20
188.27646385432129
 30
0.0
  0
VERTEX
  5
DEA
  8
IMPORT_-_CARRO\\U+00C7A_2
 62
     0
 10
238.94110555555559
 20
183.55594440987679
 30
0.0
  0
VERTEX
  5
DEB
  8
IMPORT_-_CARRO\\U+00C7A_2
 62
     0
 10
234.22058611111109
 20
179.4160971876546
 30
0.0
  0
VERTEX
  5
DEC
  8
IMPORT_-_CARRO\\U+00C7A_2
 62
     0
 10
229.0001805555556
 20
175.92783052098801
 30
0.0
  0
VERTEX
  5
DED
  8
IMPORT_-_CARRO\\U+00C7A_2
 62
     0
 10
223.3687888888889
 20
173.1507638543211
 30
0.0
  0
VERTEX
  5
DEE
  8
IMPORT_-_CARRO\\U+00C7A_2
 62
     0
 10
217.42342500000009
 20
171.13252218765459
 30
0.0
  0
VERTEX
  5
DEF
  8
IMPORT_-_CARRO\\U+00C7A_2
 62
     0
 10
211.26533611111111
 20
169.90767774321009
 30
0.0
  0
VERTEX
  5
DF0
  8
IMPORT_-_CARRO\\U+00C7A_2
 62
     0
 10
205.00000277777789
 20
169.49704440987671
 30
0.0
  0
VERTEX
  5
DF1
  8
IMPORT_-_CARRO\\U+00C7A_2
 62
     0
 10
198.73466944444451
 20
169.90767774321009
 30
0.0
  0
VERTEX
  5
DF2
  8
IMPORT_-_CARRO\\U+00C7A_2
 62
     0
 10
192.57693333333339
 20
171.13252218765459
 30
0.0
  0
VERTEX
  5
DF3
  8
IMPORT_-_CARRO\\U+00C7A_2
 62
     0
 10
186.63121666666669
 20
173.1507638543211
 30
0.0
  0
VERTEX
  5
DF4
  8
IMPORT_-_CARRO\\U+00C7A_2
 62
     0
 10
181.00017777777791
 20
175.92783052098801
 30
0.0
  0
VERTEX
  5
DF5
  8
IMPORT_-_CARRO\\U+00C7A_2
 62
     0
 10
175.7794194444445
 20
179.4160971876546
 30
0.0
  0
VERTEX
  5
DF6
  8
IMPORT_-_CARRO\\U+00C7A_2
 62
     0
 10
171.05890000000011
 20
183.55594440987679
 30
0.0
  0
VERTEX
  5
DF7
  8
IMPORT_-_CARRO\\U+00C7A_2
 62
     0
 10
166.91905277777781
 20
188.27646385432129
 30
0.0
  0
VERTEX
  5
DF8
  8
IMPORT_-_CARRO\\U+00C7A_2
 62
     0
 10
163.4307861111111
 20
193.49686940987681
 30
0.0
  0
VERTEX
  5
DF9
  8
IMPORT_-_CARRO\\U+00C7A_2
 62
     0
 10
160.65371944444459
 20
199.12826107654351
 30
0.0
  0
VERTEX
  5
DFA
  8
IMPORT_-_CARRO\\U+00C7A_2
 62
     0
 10
158.63547777777779
 20
205.0736249654324
 30
0.0
  0
VERTEX
  5
DFB
  8
IMPORT_-_CARRO\\U+00C7A_2
 62
     0
 10
157.41063333333349
 20
211.23171385432121
 30
0.0
  0
VERTEX
  5
DFC
  8
IMPORT_-_CARRO\\U+00C7A_2
 62
     0
 10
157.00000000000011
 20
217.4966944098768
 30
0.0
  0
VERTEX
  5
DFD
  8
IMPORT_-_CARRO\\U+00C7A_2
 62
     0
 10
157.41063333333349
 20
223.7623805209879
 30
0.0
  0
VERTEX
  5
DFE
  8
IMPORT_-_CARRO\\U+00C7A_2
 62
     0
 10
158.63547777777779
 20
229.92011663209911
 30
0.0
  0
VERTEX
  5
DFF
  8
IMPORT_-_CARRO\\U+00C7A_2
 62
     0
 10
160.65371944444459
 20
235.86583329876569
 30
0.0
  0
VERTEX
  5
E00
  8
IMPORT_-_CARRO\\U+00C7A_2
 62
     0
 10
163.4307861111111
 20
241.4968721876545
 30
0.0
  0
VERTEX
  5
E01
  8
IMPORT_-_CARRO\\U+00C7A_2
 62
     0
 10
166.91905277777781
 20
246.717630520988
 30
0.0
  0
VERTEX
  5
E02
  8
IMPORT_-_CARRO\\U+00C7A_2
 62
     0
 10
171.05890000000011
 20
251.4381499654323
 30
0.0
  0
VERTEX
  5
E03
  8
IMPORT_-_CARRO\\U+00C7A_2
 62
     0
 10
175.7794194444445
 20
255.57799718765449
 30
0.0
  0
VERTEX
  5
E04
  8
IMPORT_-_CARRO\\U+00C7A_2
 62
     0
 10
181.00017777777791
 20
259.06626385432128
 30
0.0
  0
VERTEX
  5
E05
  8
IMPORT_-_CARRO\\U+00C7A_2
 62
     0
 10
186.63121666666669
 20
261.84297774321021
 30
0.0
  0
VERTEX
  5
E06
  8
IMPORT_-_CARRO\\U+00C7A_2
 62
     0
 10
192.57693333333339
 20
263.86121940987692
 30
0.0
  0
VERTEX
  5
E07
  8
IMPORT_-_CARRO\\U+00C7A_2
 62
     0
 10
198.73466944444451
 20
265.08641663209897
 30
0.0
  0
VERTEX
  5
E08
  8
IMPORT_-_CARRO\\U+00C7A_2
 62
     0
 10
205.00000277777789
 20
265.49704996543232
 30
0.0
  0
VERTEX
  5
E09
  8
IMPORT_-_CARRO\\U+00C7A_2
 62
     0
 10
211.26533611111111
 20
265.08641663209897
 30
0.0
  0
VERTEX
  5
E0A
  8
IMPORT_-_CARRO\\U+00C7A_2
 62
     0
 10
217.42342500000009
 20
263.86121940987692
 30
0.0
  0
VERTEX
  5
E0B
  8
IMPORT_-_CARRO\\U+00C7A_2
 62
     0
 10
223.3687888888889
 20
261.84297774321021
 30
0.0
  0
VERTEX
  5
E0C
  8
IMPORT_-_CARRO\\U+00C7A_2
 62
     0
 10
229.0001805555556
 20
259.06626385432128
 30
0.0
  0
VERTEX
  5
E0D
  8
IMPORT_-_CARRO\\U+00C7A_2
 62
     0
 10
234.22058611111109
 20
255.57799718765449
 30
0.0
  0
VERTEX
  5
E0E
  8
IMPORT_-_CARRO\\U+00C7A_2
 62
     0
 10
238.94110555555559
 20
251.4381499654323
 30
0.0
  0
VERTEX
  5
E0F
  8
IMPORT_-_CARRO\\U+00C7A_2
 62
     0
 10
243.08095277777781
 20
246.717630520988
 30
0.0
  0
VERTEX
  5
E10
  8
IMPORT_-_CARRO\\U+00C7A_2
 62
     0
 10
246.56921944444451
 20
241.4968721876545
 30
0.0
  0
VERTEX
  5
E11
  8
IMPORT_-_CARRO\\U+00C7A_2
 62
     0
 10
249.34628611111111
 20
235.86583329876569
 30
0.0
  0
VERTEX
  5
E12
  8
IMPORT_-_CARRO\\U+00C7A_2
 62
     0
 10
251.36452777777779
 20
229.92011663209911
 30
0.0
  0
VERTEX
  5
E13
  8
IMPORT_-_CARRO\\U+00C7A_2
 62
     0
 10
252.58937222222229
 20
223.7623805209879
 30
0.0
  0
SEQEND
  5
E14
  8
IMPORT_-_CARRO\\U+00C7A_2
 62
     0
  0
POLYLINE
  5
59
  8
IMPORT_-_CARRO\\U+00C7A_2
 62
     0
 66
     1
 10
0.0
 20
0.0
 30
0.0
 70
     1
  0
VERTEX
  5
E15
  8
IMPORT_-_CARRO\\U+00C7A_2
 62
     0
 10
180.6601
 20
185.77632774321009
 30
0.0
  0
VERTEX
  5
E16
  8
IMPORT_-_CARRO\\U+00C7A_2
 62
     0
 10
183.34226944444441
 20
183.98421663209899
 30
0.0
  0
VERTEX
  5
E17
  8
IMPORT_-_CARRO\\U+00C7A_2
 62
     0
 10
197.68339166666681
 20
208.82400552098781
 30
0.0
  0
VERTEX
  5
E18
  8
IMPORT_-_CARRO\\U+00C7A_2
 62
     0
 10
196.91610000000011
 20
209.41279163209899
 30
0.0
  0
VERTEX
  5
E19
  8
IMPORT_-_CARRO\\U+00C7A_2
 62
     0
 10
196.32731388888891
 20
210.1804360765434
 30
0.0
  0
VERTEX
  5
E1A
  8
IMPORT_-_CARRO\\U+00C7A_2
 62
     0
 10
171.48752499999989
 20
195.83896107654351
 30
0.0
  0
VERTEX
  5
E1B
  8
IMPORT_-_CARRO\\U+00C7A_2
 62
     0
 10
173.27963611111119
 20
193.15679163209899
 30
0.0
  0
VERTEX
  5
E1C
  8
IMPORT_-_CARRO\\U+00C7A_2
 62
     0
 10
176.7280388888889
 20
189.22473052098789
 30
0.0
  0
SEQEND
  5
E1D
  8
IMPORT_-_CARRO\\U+00C7A_2
 62
     0
  0
POLYLINE
  5
5A
  8
IMPORT_-_CARRO\\U+00C7A_2
 62
     0
 66
     1
 10
0.0
 20
0.0
 30
0.0
 70
     1
  0
VERTEX
  5
E1E
  8
IMPORT_-_CARRO\\U+00C7A_2
 62
     0
 10
205.00000277777789
 20
210.50181663209901
 30
0.0
  0
VERTEX
  5
E1F
  8
IMPORT_-_CARRO\\U+00C7A_2
 62
     0
 10
206.8104583333334
 20
210.739941632099
 30
0.0
  0
VERTEX
  5
E20
  8
IMPORT_-_CARRO\\U+00C7A_2
 62
     0
 10
208.49779444444439
 20
211.43879440987681
 30
0.0
  0
VERTEX
  5
E21
  8
IMPORT_-_CARRO\\U+00C7A_2
 62
     0
 10
209.94630000000001
 20
212.5507499654324
 30
0.0
  0
VERTEX
  5
E22
  8
IMPORT_-_CARRO\\U+00C7A_2
 62
     0
 10
211.0579027777778
 20
213.99925552098799
 30
0.0
  0
VERTEX
  5
E23
  8
IMPORT_-_CARRO\\U+00C7A_2
 62
     0
 10
211.7567555555556
 20
215.6862388543212
 30
0.0
  0
VERTEX
  5
E24
  8
IMPORT_-_CARRO\\U+00C7A_2
 62
     0
 10
211.9952333333334
 20
217.4966944098768
 30
0.0
  0
VERTEX
  5
E25
  8
IMPORT_-_CARRO\\U+00C7A_2
 62
     0
 10
211.7567555555556
 20
219.30750274321011
 30
0.0
  0
VERTEX
  5
E26
  8
IMPORT_-_CARRO\\U+00C7A_2
 62
     0
 10
211.0579027777778
 20
220.9944860765435
 30
0.0
  0
VERTEX
  5
E27
  8
IMPORT_-_CARRO\\U+00C7A_2
 62
     0
 10
209.94630000000001
 20
222.44299163209891
 30
0.0
  0
VERTEX
  5
E28
  8
IMPORT_-_CARRO\\U+00C7A_2
 62
     0
 10
208.49779444444439
 20
223.55494718765451
 30
0.0
  0
VERTEX
  5
E29
  8
IMPORT_-_CARRO\\U+00C7A_2
 62
     0
 10
206.8104583333334
 20
224.25379996543231
 30
0.0
  0
VERTEX
  5
E2A
  8
IMPORT_-_CARRO\\U+00C7A_2
 62
     0
 10
205.00000277777789
 20
224.4919249654323
 30
0.0
  0
VERTEX
  5
E2B
  8
IMPORT_-_CARRO\\U+00C7A_2
 62
     0
 10
203.18954722222219
 20
224.25379996543231
 30
0.0
  0
VERTEX
  5
E2C
  8
IMPORT_-_CARRO\\U+00C7A_2
 62
     0
 10
201.50256388888889
 20
223.55494718765451
 30
0.0
  0
VERTEX
  5
E2D
  8
IMPORT_-_CARRO\\U+00C7A_2
 62
     0
 10
200.05370555555561
 20
222.44299163209891
 30
0.0
  0
VERTEX
  5
E2E
  8
IMPORT_-_CARRO\\U+00C7A_2
 62
     0
 10
198.94210277777779
 20
220.9944860765435
 30
0.0
  0
VERTEX
  5
E2F
  8
IMPORT_-_CARRO\\U+00C7A_2
 62
     0
 10
198.24324999999999
 20
219.30750274321011
 30
0.0
  0
VERTEX
  5
E30
  8
IMPORT_-_CARRO\\U+00C7A_2
 62
     0
 10
198.00477222222219
 20
217.4966944098768
 30
0.0
  0
VERTEX
  5
E31
  8
IMPORT_-_CARRO\\U+00C7A_2
 62
     0
 10
198.24324999999999
 20
215.6862388543212
 30
0.0
  0
VERTEX
  5
E32
  8
IMPORT_-_CARRO\\U+00C7A_2
 62
     0
 10
198.94210277777779
 20
213.99925552098799
 30
0.0
  0
VERTEX
  5
E33
  8
IMPORT_-_CARRO\\U+00C7A_2
 62
     0
 10
200.05370555555561
 20
212.5507499654324
 30
0.0
  0
VERTEX
  5
E34
  8
IMPORT_-_CARRO\\U+00C7A_2
 62
     0
 10
201.50256388888889
 20
211.43879440987681
 30
0.0
  0
VERTEX
  5
E35
  8
IMPORT_-_CARRO\\U+00C7A_2
 62
     0
 10
203.18954722222219
 20
210.739941632099
 30
0.0
  0
SEQEND
  5
E36
  8
IMPORT_-_CARRO\\U+00C7A_2
 62
     0
  0
POLYLINE
  5
5B
  8
IMPORT_-_CARRO\\U+00C7A_2
 62
     0
 66
     1
 10
0.0
 20
0.0
 30
0.0
 70
     1
  0
VERTEX
  5
E37
  8
IMPORT_-_CARRO\\U+00C7A_2
 62
     0
 10
171.48752499999989
 20
239.15478052098791
 30
0.0
  0
VERTEX
  5
E38
  8
IMPORT_-_CARRO\\U+00C7A_2
 62
     0
 10
196.32731388888891
 20
224.8136582987656
 30
0.0
  0
VERTEX
  5
E39
  8
IMPORT_-_CARRO\\U+00C7A_2
 62
     0
 10
196.91610000000011
 20
225.5809499654323
 30
0.0
  0
VERTEX
  5
E3A
  8
IMPORT_-_CARRO\\U+00C7A_2
 62
     0
 10
197.68339166666681
 20
226.1697360765435
 30
0.0
  0
VERTEX
  5
E3B
  8
IMPORT_-_CARRO\\U+00C7A_2
 62
     0
 10
183.34226944444441
 20
251.00952496543229
 30
0.0
  0
VERTEX
  5
E3C
  8
IMPORT_-_CARRO\\U+00C7A_2
 62
     0
 10
180.6601
 20
249.21741385432131
 30
0.0
  0
VERTEX
  5
E3D
  8
IMPORT_-_CARRO\\U+00C7A_2
 62
     0
 10
176.7280388888889
 20
245.76901107654351
 30
0.0
  0
VERTEX
  5
E3E
  8
IMPORT_-_CARRO\\U+00C7A_2
 62
     0
 10
173.27963611111119
 20
241.83694996543241
 30
0.0
  0
SEQEND
  5
E3F
  8
IMPORT_-_CARRO\\U+00C7A_2
 62
     0
  0
POLYLINE
  5
5C
  8
IMPORT_-_CARRO\\U+00C7A_2
 62
     0
 66
     1
 10
0.0
 20
0.0
 30
0.0
 70
     1
  0
VERTEX
  5
E40
  8
IMPORT_-_CARRO\\U+00C7A_2
 62
     0
 10
203.00010555555551
 20
257.34858885432129
 30
0.0
  0
VERTEX
  5
E41
  8
IMPORT_-_CARRO\\U+00C7A_2
 62
     0
 10
199.7813611111111
 20
257.13762774321009
 30
0.0
  0
VERTEX
  5
E42
  8
IMPORT_-_CARRO\\U+00C7A_2
 62
     0
 10
194.65161944444429
 20
256.11739440987691
 30
0.0
  0
VERTEX
  5
E43
  8
IMPORT_-_CARRO\\U+00C7A_2
 62
     0
 10
189.69932499999999
 20
254.43605552098791
 30
0.0
  0
VERTEX
  5
E44
  8
IMPORT_-_CARRO\\U+00C7A_2
 62
     0
 10
186.8061944444444
 20
253.00942218765451
 30
0.0
  0
VERTEX
  5
E45
  8
IMPORT_-_CARRO\\U+00C7A_2
 62
     0
 10
201.14731666666671
 20
228.16963329876569
 30
0.0
  0
VERTEX
  5
E46
  8
IMPORT_-_CARRO\\U+00C7A_2
 62
     0
 10
202.04125555555569
 20
228.53969718765461
 30
0.0
  0
VERTEX
  5
E47
  8
IMPORT_-_CARRO\\U+00C7A_2
 62
     0
 10
203.00010555555551
 20
228.66599163209901
 30
0.0
  0
SEQEND
  5
E48
  8
IMPORT_-_CARRO\\U+00C7A_2
 62
     0
  0
POLYLINE
  5
5D
  8
IMPORT_-_CARRO\\U+00C7A_2
 62
     0
 66
     1
 10
0.0
 20
0.0
 30
0.0
 70
     1
  0
VERTEX
  5
E49
  8
IMPORT_-_CARRO\\U+00C7A_2
 62
     0
 10
203.00010555555551
 20
177.6451527432101
 30
0.0
  0
VERTEX
  5
E4A
  8
IMPORT_-_CARRO\\U+00C7A_2
 62
     0
 10
203.00010555555551
 20
206.3277499654323
 30
0.0
  0
VERTEX
  5
E4B
  8
IMPORT_-_CARRO\\U+00C7A_2
 62
     0
 10
202.04125555555569
 20
206.45404440987679
 30
0.0
  0
VERTEX
  5
E4C
  8
IMPORT_-_CARRO\\U+00C7A_2
 62
     0
 10
201.14731666666671
 20
206.82410829876571
 30
0.0
  0
VERTEX
  5
E4D
  8
IMPORT_-_CARRO\\U+00C7A_2
 62
     0
 10
186.8061944444444
 20
181.9843194098768
 30
0.0
  0
VERTEX
  5
E4E
  8
IMPORT_-_CARRO\\U+00C7A_2
 62
     0
 10
189.69932499999999
 20
180.5576860765434
 30
0.0
  0
VERTEX
  5
E4F
  8
IMPORT_-_CARRO\\U+00C7A_2
 62
     0
 10
194.65161944444429
 20
178.8763471876546
 30
0.0
  0
VERTEX
  5
E50
  8
IMPORT_-_CARRO\\U+00C7A_2
 62
     0
 10
199.7813611111111
 20
177.85611385432131
 30
0.0
  0
SEQEND
  5
E51
  8
IMPORT_-_CARRO\\U+00C7A_2
 62
     0
  0
POLYLINE
  5
5E
  8
IMPORT_-_CARRO\\U+00C7A_2
 62
     0
 66
     1
 10
0.0
 20
0.0
 30
0.0
 70
     1
  0
VERTEX
  5
E52
  8
IMPORT_-_CARRO\\U+00C7A_2
 62
     0
 10
210.2189972222223
 20
177.85611385432131
 30
0.0
  0
VERTEX
  5
E53
  8
IMPORT_-_CARRO\\U+00C7A_2
 62
     0
 10
215.34838611111121
 20
178.8763471876546
 30
0.0
  0
VERTEX
  5
E54
  8
IMPORT_-_CARRO\\U+00C7A_2
 62
     0
 10
220.30103333333341
 20
180.5576860765434
 30
0.0
  0
VERTEX
  5
E55
  8
IMPORT_-_CARRO\\U+00C7A_2
 62
     0
 10
223.19381111111119
 20
181.9843194098768
 30
0.0
  0
VERTEX
  5
E56
  8
IMPORT_-_CARRO\\U+00C7A_2
 62
     0
 10
208.85268888888899
 20
206.82410829876571
 30
0.0
  0
VERTEX
  5
E57
  8
IMPORT_-_CARRO\\U+00C7A_2
 62
     0
 10
207.95910277777779
 20
206.45404440987679
 30
0.0
  0
VERTEX
  5
E58
  8
IMPORT_-_CARRO\\U+00C7A_2
 62
     0
 10
207.0002527777778
 20
206.3277499654323
 30
0.0
  0
VERTEX
  5
E59
  8
IMPORT_-_CARRO\\U+00C7A_2
 62
     0
 10
207.0002527777778
 20
177.6451527432101
 30
0.0
  0
SEQEND
  5
E5A
  8
IMPORT_-_CARRO\\U+00C7A_2
 62
     0
  0
POLYLINE
  5
5F
  8
IMPORT_-_CARRO\\U+00C7A_2
 62
     0
 66
     1
 10
0.0
 20
0.0
 30
0.0
 70
     1
  0
VERTEX
  5
E5B
  8
IMPORT_-_CARRO\\U+00C7A_2
 62
     0
 10
243.62035
 20
227.84507774321011
 30
0.0
  0
VERTEX
  5
E5C
  8
IMPORT_-_CARRO\\U+00C7A_2
 62
     0
 10
241.93936388888901
 20
232.79772496543239
 30
0.0
  0
VERTEX
  5
E5D
  8
IMPORT_-_CARRO\\U+00C7A_2
 62
     0
 10
240.51273055555561
 20
235.69085552098801
 30
0.0
  0
VERTEX
  5
E5E
  8
IMPORT_-_CARRO\\U+00C7A_2
 62
     0
 10
215.67294166666659
 20
221.34938052098789
 30
0.0
  0
VERTEX
  5
E5F
  8
IMPORT_-_CARRO\\U+00C7A_2
 62
     0
 10
216.04300555555571
 20
220.45579440987669
 30
0.0
  0
VERTEX
  5
E60
  8
IMPORT_-_CARRO\\U+00C7A_2
 62
     0
 10
216.16930000000011
 20
219.49694440987679
 30
0.0
  0
VERTEX
  5
E61
  8
IMPORT_-_CARRO\\U+00C7A_2
 62
     0
 10
244.85189722222219
 20
219.49694440987679
 30
0.0
  0
VERTEX
  5
E62
  8
IMPORT_-_CARRO\\U+00C7A_2
 62
     0
 10
244.6409361111111
 20
222.7156888543212
 30
0.0
  0
SEQEND
  5
E63
  8
IMPORT_-_CARRO\\U+00C7A_2
 62
     0
  0
POLYLINE
  5
60
  8
IMPORT_-_CARRO\\U+00C7A_2
 62
     0
 66
     1
 10
0.0
 20
0.0
 30
0.0
 70
     1
  0
VERTEX
  5
E64
  8
IMPORT_-_CARRO\\U+00C7A_2
 62
     0
 10
165.35942222222221
 20
222.7156888543212
 30
0.0
  0
VERTEX
  5
E65
  8
IMPORT_-_CARRO\\U+00C7A_2
 62
     0
 10
165.1484611111112
 20
219.49694440987679
 30
0.0
  0
VERTEX
  5
E66
  8
IMPORT_-_CARRO\\U+00C7A_2
 62
     0
 10
193.83070555555551
 20
219.49694440987679
 30
0.0
  0
VERTEX
  5
E67
  8
IMPORT_-_CARRO\\U+00C7A_2
 62
     0
 10
193.95700000000011
 20
220.45579440987669
 30
0.0
  0
VERTEX
  5
E68
  8
IMPORT_-_CARRO\\U+00C7A_2
 62
     0
 10
194.327063888889
 20
221.34938052098789
 30
0.0
  0
VERTEX
  5
E69
  8
IMPORT_-_CARRO\\U+00C7A_2
 62
     0
 10
169.48727500000001
 20
235.69085552098801
 30
0.0
  0
VERTEX
  5
E6A
  8
IMPORT_-_CARRO\\U+00C7A_2
 62
     0
 10
168.06064166666661
 20
232.79772496543239
 30
0.0
  0
VERTEX
  5
E6B
  8
IMPORT_-_CARRO\\U+00C7A_2
 62
     0
 10
166.37965555555559
 20
227.84507774321011
 30
0.0
  0
SEQEND
  5
E6C
  8
IMPORT_-_CARRO\\U+00C7A_2
 62
     0
  0
POLYLINE
  5
61
  8
IMPORT_-_CARRO\\U+00C7A_2
 62
     0
 66
     1
 10
0.0
 20
0.0
 30
0.0
 70
     1
  0
VERTEX
  5
E6D
  8
IMPORT_-_CARRO\\U+00C7A_2
 62
     0
 10
165.1484611111112
 20
215.49679718765461
 30
0.0
  0
VERTEX
  5
E6E
  8
IMPORT_-_CARRO\\U+00C7A_2
 62
     0
 10
165.35942222222221
 20
212.2780527432102
 30
0.0
  0
VERTEX
  5
E6F
  8
IMPORT_-_CARRO\\U+00C7A_2
 62
     0
 10
166.37965555555559
 20
207.14866385432131
 30
0.0
  0
VERTEX
  5
E70
  8
IMPORT_-_CARRO\\U+00C7A_2
 62
     0
 10
168.06064166666661
 20
202.196016632099
 30
0.0
  0
VERTEX
  5
E71
  8
IMPORT_-_CARRO\\U+00C7A_2
 62
     0
 10
169.48727500000001
 20
199.30323885432131
 30
0.0
  0
VERTEX
  5
E72
  8
IMPORT_-_CARRO\\U+00C7A_2
 62
     0
 10
194.327063888889
 20
213.64436107654339
 30
0.0
  0
VERTEX
  5
E73
  8
IMPORT_-_CARRO\\U+00C7A_2
 62
     0
 10
193.95700000000011
 20
214.53794718765459
 30
0.0
  0
VERTEX
  5
E74
  8
IMPORT_-_CARRO\\U+00C7A_2
 62
     0
 10
193.83070555555551
 20
215.49679718765461
 30
0.0
  0
SEQEND
  5
E75
  8
IMPORT_-_CARRO\\U+00C7A_2
 62
     0
  0
POLYLINE
  5
62
  8
IMPORT_-_CARRO\\U+00C7A_2
 62
     0
 66
     1
 10
0.0
 20
0.0
 30
0.0
 70
     1
  0
VERTEX
  5
E76
  8
IMPORT_-_CARRO\\U+00C7A_2
 62
     0
 10
215.34838611111121
 20
256.11739440987691
 30
0.0
  0
VERTEX
  5
E77
  8
IMPORT_-_CARRO\\U+00C7A_2
 62
     0
 10
210.2189972222223
 20
257.13762774321009
 30
0.0
  0
VERTEX
  5
E78
  8
IMPORT_-_CARRO\\U+00C7A_2
 62
     0
 10
207.0002527777778
 20
257.34858885432129
 30
0.0
  0
VERTEX
  5
E79
  8
IMPORT_-_CARRO\\U+00C7A_2
 62
     0
 10
207.0002527777778
 20
228.66599163209901
 30
0.0
  0
VERTEX
  5
E7A
  8
IMPORT_-_CARRO\\U+00C7A_2
 62
     0
 10
207.95910277777779
 20
228.53969718765461
 30
0.0
  0
VERTEX
  5
E7B
  8
IMPORT_-_CARRO\\U+00C7A_2
 62
     0
 10
208.85268888888899
 20
228.16963329876569
 30
0.0
  0
VERTEX
  5
E7C
  8
IMPORT_-_CARRO\\U+00C7A_2
 62
     0
 10
223.19381111111119
 20
253.00942218765451
 30
0.0
  0
VERTEX
  5
E7D
  8
IMPORT_-_CARRO\\U+00C7A_2
 62
     0
 10
220.30103333333341
 20
254.43605552098791
 30
0.0
  0
SEQEND
  5
E7E
  8
IMPORT_-_CARRO\\U+00C7A_2
 62
     0
  0
POLYLINE
  5
63
  8
IMPORT_-_CARRO\\U+00C7A_2
 62
     0
 66
     1
 10
0.0
 20
0.0
 30
0.0
 70
     1
  0
VERTEX
  5
E7F
  8
IMPORT_-_CARRO\\U+00C7A_2
 62
     0
 10
240.51273055555561
 20
199.30323885432131
 30
0.0
  0
VERTEX
  5
E80
  8
IMPORT_-_CARRO\\U+00C7A_2
 62
     0
 10
241.93936388888901
 20
202.196016632099
 30
0.0
  0
VERTEX
  5
E81
  8
IMPORT_-_CARRO\\U+00C7A_2
 62
     0
 10
243.62035
 20
207.14866385432131
 30
0.0
  0
VERTEX
  5
E82
  8
IMPORT_-_CARRO\\U+00C7A_2
 62
     0
 10
244.6409361111111
 20
212.2780527432102
 30
0.0
  0
VERTEX
  5
E83
  8
IMPORT_-_CARRO\\U+00C7A_2
 62
     0
 10
244.85189722222219
 20
215.49679718765461
 30
0.0
  0
VERTEX
  5
E84
  8
IMPORT_-_CARRO\\U+00C7A_2
 62
     0
 10
216.16930000000011
 20
215.49679718765461
 30
0.0
  0
VERTEX
  5
E85
  8
IMPORT_-_CARRO\\U+00C7A_2
 62
     0
 10
216.04300555555571
 20
214.53794718765459
 30
0.0
  0
VERTEX
  5
E86
  8
IMPORT_-_CARRO\\U+00C7A_2
 62
     0
 10
215.67294166666659
 20
213.64436107654339
 30
0.0
  0
SEQEND
  5
E87
  8
IMPORT_-_CARRO\\U+00C7A_2
 62
     0
  0
POLYLINE
  5
64
  8
IMPORT_-_CARRO\\U+00C7A_2
 62
     0
 66
     1
 10
0.0
 20
0.0
 30
0.0
 70
     1
  0
VERTEX
  5
E88
  8
IMPORT_-_CARRO\\U+00C7A_2
 62
     0
 10
226.6580888888889
 20
183.98421663209899
 30
0.0
  0
VERTEX
  5
E89
  8
IMPORT_-_CARRO\\U+00C7A_2
 62
     0
 10
229.34025833333351
 20
185.77632774321009
 30
0.0
  0
VERTEX
  5
E8A
  8
IMPORT_-_CARRO\\U+00C7A_2
 62
     0
 10
233.27231944444449
 20
189.22473052098789
 30
0.0
  0
VERTEX
  5
E8B
  8
IMPORT_-_CARRO\\U+00C7A_2
 62
     0
 10
236.72072222222229
 20
193.15679163209899
 30
0.0
  0
VERTEX
  5
E8C
  8
IMPORT_-_CARRO\\U+00C7A_2
 62
     0
 10
238.51283333333339
 20
195.83896107654351
 30
0.0
  0
VERTEX
  5
E8D
  8
IMPORT_-_CARRO\\U+00C7A_2
 62
     0
 10
213.67304444444451
 20
210.1804360765434
 30
0.0
  0
VERTEX
  5
E8E
  8
IMPORT_-_CARRO\\U+00C7A_2
 62
     0
 10
213.0839055555555
 20
209.41279163209899
 30
0.0
  0
VERTEX
  5
E8F
  8
IMPORT_-_CARRO\\U+00C7A_2
 62
     0
 10
212.31661388888901
 20
208.82400552098781
 30
0.0
  0
SEQEND
  5
E90
  8
IMPORT_-_CARRO\\U+00C7A_2
 62
     0
  0
POLYLINE
  5
65
  8
IMPORT_-_CARRO\\U+00C7A_2
 62
     0
 66
     1
 10
0.0
 20
0.0
 30
0.0
 70
     1
  0
VERTEX
  5
E91
  8
IMPORT_-_CARRO\\U+00C7A_2
 62
     0
 10
226.6580888888889
 20
251.00952496543229
 30
0.0
  0
VERTEX
  5
E92
  8
IMPORT_-_CARRO\\U+00C7A_2
 62
     0
 10
212.31661388888901
 20
226.1697360765435
 30
0.0
  0
VERTEX
  5
E93
  8
IMPORT_-_CARRO\\U+00C7A_2
 62
     0
 10
213.0839055555555
 20
225.5809499654323
 30
0.0
  0
VERTEX
  5
E94
  8
IMPORT_-_CARRO\\U+00C7A_2
 62
     0
 10
213.67304444444451
 20
224.8136582987656
 30
0.0
  0
VERTEX
  5
E95
  8
IMPORT_-_CARRO\\U+00C7A_2
 62
     0
 10
238.51283333333339
 20
239.15478052098791
 30
0.0
  0
VERTEX
  5
E96
  8
IMPORT_-_CARRO\\U+00C7A_2
 62
     0
 10
236.72072222222229
 20
241.83694996543241
 30
0.0
  0
VERTEX
  5
E97
  8
IMPORT_-_CARRO\\U+00C7A_2
 62
     0
 10
233.27231944444449
 20
245.76901107654351
 30
0.0
  0
VERTEX
  5
E98
  8
IMPORT_-_CARRO\\U+00C7A_2
 62
     0
 10
229.34025833333351
 20
249.21741385432131
 30
0.0
  0
SEQEND
  5
E99
  8
IMPORT_-_CARRO\\U+00C7A_2
 62
     0
  0
POLYLINE
  5
66
  8
IMPORT_-_CARRO\\U+00C7A_2
 62
     0
 66
     1
 10
0.0
 20
0.0
 30
0.0
 70
     1
  0
VERTEX
  5
E9A
  8
IMPORT_-_CARRO\\U+00C7A_2
 62
     0
 10
460.62530277777762
 20
193.4848916881796
 30
0.0
  0
VERTEX
  5
E9B
  8
IMPORT_-_CARRO\\U+00C7A_2
 62
     0
 10
460.74524722222191
 20
191.43913335484629
 30
0.0
  0
VERTEX
  5
E9C
  8
IMPORT_-_CARRO\\U+00C7A_2
 62
     0
 10
460.78511111111089
 20
189.3898472437352
 30
0.0
  0
VERTEX
  5
E9D
  8
IMPORT_-_CARRO\\U+00C7A_2
 62
     0
 10
460.74524722222191
 20
187.34091391040181
 30
0.0
  0
VERTEX
  5
E9E
  8
IMPORT_-_CARRO\\U+00C7A_2
 62
     0
 10
460.7163194444442
 20
186.72425835484631
 30
0.0
  0
VERTEX
  5
E9F
  8
IMPORT_-_CARRO\\U+00C7A_2
 62
     0
 10
460.42915833333308
 20
183.3061944659573
 30
0.0
  0
VERTEX
  5
EA0
  8
IMPORT_-_CARRO\\U+00C7A_2
 62
     0
 10
463.41859722222188
 20
183.05536946595751
 30
0.0
  0
VERTEX
  5
EA1
  8
IMPORT_-_CARRO\\U+00C7A_2
 62
     0
 10
463.70575833333322
 20
186.47308057706849
 30
0.0
  0
VERTEX
  5
EA2
  8
IMPORT_-_CARRO\\U+00C7A_2
 62
     0
 10
464.47093333333322
 20
186.30621668817949
 30
0.0
  0
VERTEX
  5
EA3
  8
IMPORT_-_CARRO\\U+00C7A_2
 62
     0
 10
465.1666111111108
 20
185.94708891040179
 30
0.0
  0
VERTEX
  5
EA4
  8
IMPORT_-_CARRO\\U+00C7A_2
 62
     0
 10
465.74587222222192
 20
185.4200389104019
 30
0.0
  0
VERTEX
  5
EA5
  8
IMPORT_-_CARRO\\U+00C7A_2
 62
     0
 10
466.16920555555532
 20
184.76069724373519
 30
0.0
  0
VERTEX
  5
EA6
  8
IMPORT_-_CARRO\\U+00C7A_2
 62
     0
 10
466.40733055555529
 20
184.0145722437353
 30
0.0
  0
VERTEX
  5
EA7
  8
IMPORT_-_CARRO\\U+00C7A_2
 62
     0
 10
466.44401944444422
 20
183.23246391040189
 30
0.0
  0
VERTEX
  5
EA8
  8
IMPORT_-_CARRO\\U+00C7A_2
 62
     0
 10
466.37205277777758
 20
182.3755666881797
 30
0.0
  0
VERTEX
  5
EA9
  8
IMPORT_-_CARRO\\U+00C7A_2
 62
     0
 10
466.20518888888859
 20
181.6103916881797
 30
0.0
  0
VERTEX
  5
EAA
  8
IMPORT_-_CARRO\\U+00C7A_2
 62
     0
 10
465.84606111111083
 20
180.91400835484629
 30
0.0
  0
VERTEX
  5
EAB
  8
IMPORT_-_CARRO\\U+00C7A_2
 62
     0
 10
465.3190111111108
 20
180.335100021513
 30
0.0
  0
VERTEX
  5
EAC
  8
IMPORT_-_CARRO\\U+00C7A_2
 62
     0
 10
464.66002222222193
 20
179.9121194659574
 30
0.0
  0
VERTEX
  5
EAD
  8
IMPORT_-_CARRO\\U+00C7A_2
 62
     0
 10
463.91389722222198
 20
179.67399446595741
 30
0.0
  0
VERTEX
  5
EAE
  8
IMPORT_-_CARRO\\U+00C7A_2
 62
     0
 10
463.1314361111107
 20
179.6369527992907
 30
0.0
  0
VERTEX
  5
EAF
  8
IMPORT_-_CARRO\\U+00C7A_2
 62
     0
 10
459.9123388888886
 20
179.90753335484621
 30
0.0
  0
VERTEX
  5
EB0
  8
IMPORT_-_CARRO\\U+00C7A_2
 62
     0
 10
459.78816111111081
 20
179.2069166881796
 30
0.0
  0
VERTEX
  5
EB1
  8
IMPORT_-_CARRO\\U+00C7A_2
 62
     0
 10
459.35142222222203
 20
177.204550021513
 30
0.0
  0
VERTEX
  5
EB2
  8
IMPORT_-_CARRO\\U+00C7A_2
 62
     0
 10
458.83671944444421
 20
175.22088057706861
 30
0.0
  0
VERTEX
  5
EB3
  8
IMPORT_-_CARRO\\U+00C7A_2
 62
     0
 10
458.28215277777758
 20
173.35080557706851
 30
0.0
  0
VERTEX
  5
EB4
  8
IMPORT_-_CARRO\\U+00C7A_2
 62
     0
 10
457.01603333333321
 20
170.16310557706859
 30
0.0
  0
VERTEX
  5
EB5
  8
IMPORT_-_CARRO\\U+00C7A_2
 62
     0
 10
459.8043888888887
 20
169.05608891040191
 30
0.0
  0
VERTEX
  5
EB6
  8
IMPORT_-_CARRO\\U+00C7A_2
 62
     0
 10
461.07015555555529
 20
172.24343613262411
 30
0.0
  0
VERTEX
  5
EB7
  8
IMPORT_-_CARRO\\U+00C7A_2
 62
     0
 10
461.49278333333308
 20
172.03600279929071
 30
0.0
  0
VERTEX
  5
EB8
  8
IMPORT_-_CARRO\\U+00C7A_2
 62
     0
 10
461.87766388888872
 20
171.7650694659574
 30
0.0
  0
VERTEX
  5
EB9
  8
IMPORT_-_CARRO\\U+00C7A_2
 62
     0
 10
462.2152722222221
 20
171.43698613262401
 30
0.0
  0
VERTEX
  5
EBA
  8
IMPORT_-_CARRO\\U+00C7A_2
 62
     0
 10
462.49749444444421
 20
171.06021946595749
 30
0.0
  0
VERTEX
  5
EBB
  8
IMPORT_-_CARRO\\U+00C7A_2
 62
     0
 10
462.71762777777758
 20
170.64394168817961
 30
0.0
  0
VERTEX
  5
EBC
  8
IMPORT_-_CARRO\\U+00C7A_2
 62
     0
 10
462.8696749999998
 20
170.1983833548463
 30
0.0
  0
VERTEX
  5
EBD
  8
IMPORT_-_CARRO\\U+00C7A_2
 62
     0
 10
462.95010833333322
 20
169.73483335484639
 30
0.0
  0
VERTEX
  5
EBE
  8
IMPORT_-_CARRO\\U+00C7A_2
 62
     0
 10
462.95681111111082
 20
169.26387502151289
 30
0.0
  0
VERTEX
  5
EBF
  8
IMPORT_-_CARRO\\U+00C7A_2
 62
     0
 10
462.89013611111079
 20
168.79785557706859
 30
0.0
  0
VERTEX
  5
EC0
  8
IMPORT_-_CARRO\\U+00C7A_2
 62
     0
 10
462.7511416666664
 20
168.34806391040181
 30
0.0
  0
VERTEX
  5
EC1
  8
IMPORT_-_CARRO\\U+00C7A_2
 62
     0
 10
460.01252777777762
 20
161.4509055770686
 30
0.0
  0
VERTEX
  5
EC2
  8
IMPORT_-_CARRO\\U+00C7A_2
 62
     0
 10
459.80227222222209
 20
161.01451946595739
 30
0.0
  0
VERTEX
  5
EC3
  8
IMPORT_-_CARRO\\U+00C7A_2
 62
     0
 10
459.52357777777758
 20
160.5894222437353
 30
0.0
  0
VERTEX
  5
EC4
  8
IMPORT_-_CARRO\\U+00C7A_2
 62
     0
 10
459.1827944444442
 20
160.18513891040189
 30
0.0
  0
VERTEX
  5
EC5
  8
IMPORT_-_CARRO\\U+00C7A_2
 62
     0
 10
458.7887416666664
 20
159.811900021513
 30
0.0
  0
VERTEX
  5
EC6
  8
IMPORT_-_CARRO\\U+00C7A_2
 62
     0
 10
458.35094444444428
 20
159.47923057706839
 30
0.0
  0
VERTEX
  5
EC7
  8
IMPORT_-_CARRO\\U+00C7A_2
 62
     0
 10
457.87998611111101
 20
159.1952444659573
 30
0.0
  0
VERTEX
  5
EC8
  8
IMPORT_-_CARRO\\U+00C7A_2
 62
     0
 10
457.38786111111091
 20
158.9666444659573
 30
0.0
  0
VERTEX
  5
EC9
  8
IMPORT_-_CARRO\\U+00C7A_2
 62
     0
 10
456.8865638888887
 20
158.799075021513
 30
0.0
  0
VERTEX
  5
ECA
  8
IMPORT_-_CARRO\\U+00C7A_2
 62
     0
 10
456.38808888888872
 20
158.69712224373521
 30
0.0
  0
VERTEX
  5
ECB
  8
IMPORT_-_CARRO\\U+00C7A_2
 62
     0
 10
358.80516944444429
 20
147.24877779929071
 30
0.0
  0
VERTEX
  5
ECC
  8
IMPORT_-_CARRO\\U+00C7A_2
 62
     0
 10
302.87013611111092
 20
147.210325021513
 30
0.0
  0
VERTEX
  5
ECD
  8
IMPORT_-_CARRO\\U+00C7A_2
 62
     0
 10
301.18668055555543
 20
146.69350557706841
 30
0.0
  0
VERTEX
  5
ECE
  8
IMPORT_-_CARRO\\U+00C7A_2
 62
     0
 10
299.5169833333332
 20
145.69126391040189
 30
0.0
  0
VERTEX
  5
ECF
  8
IMPORT_-_CARRO\\U+00C7A_2
 62
     0
 10
297.97499166666648
 20
144.27133335484621
 30
0.0
  0
VERTEX
  5
ED0
  8
IMPORT_-_CARRO\\U+00C7A_2
 62
     0
 10
296.66583333333313
 20
142.5307277992907
 30
0.0
  0
VERTEX
  5
ED1
  8
IMPORT_-_CARRO\\U+00C7A_2
 62
     0
 10
295.67840833333321
 20
140.58833335484621
 30
0.0
  0
VERTEX
  5
ED2
  8
IMPORT_-_CARRO\\U+00C7A_2
 62
     0
 10
295.08044999999993
 20
138.57644168817961
 30
0.0
  0
VERTEX
  5
ED3
  8
IMPORT_-_CARRO\\U+00C7A_2
 62
     0
 10
293.10136666666648
 20
128.35364724373531
 30
0.0
  0
VERTEX
  5
ED4
  8
IMPORT_-_CARRO\\U+00C7A_2
 62
     0
 10
292.52422222222202
 20
126.4511166881797
 30
0.0
  0
VERTEX
  5
ED5
  8
IMPORT_-_CARRO\\U+00C7A_2
 62
     0
 10
291.56995833333309
 20
124.6777027992908
 30
0.0
  0
VERTEX
  5
ED6
  8
IMPORT_-_CARRO\\U+00C7A_2
 62
     0
 10
290.30278055555539
 20
123.15511391040179
 30
0.0
  0
VERTEX
  5
ED7
  8
IMPORT_-_CARRO\\U+00C7A_2
 62
     0
 10
288.80947222222198
 20
121.9867139104018
 30
0.0
  0
VERTEX
  5
ED8
  8
IMPORT_-_CARRO\\U+00C7A_2
 62
     0
 10
287.19163333333307
 20
121.2522305770685
 30
0.0
  0
VERTEX
  5
ED9
  8
IMPORT_-_CARRO\\U+00C7A_2
 62
     0
 10
285.56003611111089
 20
121.0017583548463
 30
0.0
  0
VERTEX
  5
EDA
  8
IMPORT_-_CARRO\\U+00C7A_2
 62
     0
 10
284.66045277777761
 20
121.0017583548463
 30
0.0
  0
VERTEX
  5
EDB
  8
IMPORT_-_CARRO\\U+00C7A_2
 62
     0
 10
284.66045277777761
 20
138.15205002151291
 30
0.0
  0
VERTEX
  5
EDC
  8
IMPORT_-_CARRO\\U+00C7A_2
 62
     0
 10
281.66043055555542
 20
138.15205002151291
 30
0.0
  0
VERTEX
  5
EDD
  8
IMPORT_-_CARRO\\U+00C7A_2
 62
     0
 10
281.66043055555542
 20
121.0017583548463
 30
0.0
  0
VERTEX
  5
EDE
  8
IMPORT_-_CARRO\\U+00C7A_2
 62
     0
 10
280.8031805555554
 20
121.0017583548463
 30
0.0
  0
VERTEX
  5
EDF
  8
IMPORT_-_CARRO\\U+00C7A_2
 62
     0
 10
279.24778333333308
 20
121.2487027992908
 30
0.0
  0
VERTEX
  5
EE0
  8
IMPORT_-_CARRO\\U+00C7A_2
 62
     0
 10
277.70579166666653
 20
121.9736611326241
 30
0.0
  0
VERTEX
  5
EE1
  8
IMPORT_-_CARRO\\U+00C7A_2
 62
     0
 10
276.28233333333321
 20
123.12653891040191
 30
0.0
  0
VERTEX
  5
EE2
  8
IMPORT_-_CARRO\\U+00C7A_2
 62
     0
 10
275.07477499999982
 20
124.6290194659575
 30
0.0
  0
VERTEX
  5
EE3
  8
IMPORT_-_CARRO\\U+00C7A_2
 62
     0
 10
274.16496111111098
 20
126.37879724373509
 30
0.0
  0
VERTEX
  5
EE4
  8
IMPORT_-_CARRO\\U+00C7A_2
 62
     0
 10
273.61498055555541
 20
128.2566333548464
 30
0.0
  0
VERTEX
  5
EE5
  8
IMPORT_-_CARRO\\U+00C7A_2
 62
     0
 10
271.82533888888872
 20
137.82573057706861
 30
0.0
  0
VERTEX
  5
EE6
  8
IMPORT_-_CARRO\\U+00C7A_2
 62
     0
 10
271.2224416666665
 20
139.98720002151299
 30
0.0
  0
VERTEX
  5
EE7
  8
IMPORT_-_CARRO\\U+00C7A_2
 62
     0
 10
270.23501666666652
 20
142.1518444659574
 30
0.0
  0
VERTEX
  5
EE8
  8
IMPORT_-_CARRO\\U+00C7A_2
 62
     0
 10
268.93044444444428
 20
144.17220279929069
 30
0.0
  0
VERTEX
  5
EE9
  8
IMPORT_-_CARRO\\U+00C7A_2
 62
     0
 10
267.39762499999989
 20
145.91069168817961
 30
0.0
  0
VERTEX
  5
EEA
  8
IMPORT_-_CARRO\\U+00C7A_2
 62
     0
 10
265.7409805555555
 20
147.24877779929071
 30
0.0
  0
VERTEX
  5
EEB
  8
IMPORT_-_CARRO\\U+00C7A_2
 62
     0
 10
242.67143055555539
 20
147.24877779929071
 30
0.0
  0
VERTEX
  5
EEC
  8
IMPORT_-_CARRO\\U+00C7A_2
 62
     0
 10
200.5000222222221
 20
157.83316946595741
 30
0.0
  0
VERTEX
  5
EED
  8
IMPORT_-_CARRO\\U+00C7A_2
 62
     0
 10
199.7235583333331
 20
158.15384446595749
 30
0.0
  0
VERTEX
  5
EEE
  8
IMPORT_-_CARRO\\U+00C7A_2
 62
     0
 10
199.00001111111101
 20
158.66466668817961
 30
0.0
  0
VERTEX
  5
EEF
  8
IMPORT_-_CARRO\\U+00C7A_2
 62
     0
 10
198.37876944444429
 20
159.33141668817959
 30
0.0
  0
VERTEX
  5
EF0
  8
IMPORT_-_CARRO\\U+00C7A_2
 62
     0
 10
197.90181388888871
 20
160.1078805770685
 30
0.0
  0
VERTEX
  5
EF1
  8
IMPORT_-_CARRO\\U+00C7A_2
 62
     0
 10
197.6023055555554
 20
160.9414944659575
 30
0.0
  0
VERTEX
  5
EF2
  8
IMPORT_-_CARRO\\U+00C7A_2
 62
     0
 10
197.49999999999989
 20
161.77546113262389
 30
0.0
  0
VERTEX
  5
EF3
  8
IMPORT_-_CARRO\\U+00C7A_2
 62
     0
 10
197.49999999999989
 20
162.66269724373521
 30
0.0
  0
VERTEX
  5
EF4
  8
IMPORT_-_CARRO\\U+00C7A_2
 62
     0
 10
242.67143055555539
 20
162.66269724373521
 30
0.0
  0
VERTEX
  5
EF5
  8
IMPORT_-_CARRO\\U+00C7A_2
 62
     0
 10
242.67143055555539
 20
154.9559139104019
 30
0.0
  0
VERTEX
  5
EF6
  8
IMPORT_-_CARRO\\U+00C7A_2
 62
     0
 10
245.6714527777776
 20
154.9559139104019
 30
0.0
  0
VERTEX
  5
EF7
  8
IMPORT_-_CARRO\\U+00C7A_2
 62
     0
 10
245.6714527777776
 20
162.66269724373521
 30
0.0
  0
VERTEX
  5
EF8
  8
IMPORT_-_CARRO\\U+00C7A_2
 62
     0
 10
340.80503611111101
 20
162.66269724373521
 30
0.0
  0
VERTEX
  5
EF9
  8
IMPORT_-_CARRO\\U+00C7A_2
 62
     0
 10
340.80503611111101
 20
154.9559139104019
 30
0.0
  0
VERTEX
  5
EFA
  8
IMPORT_-_CARRO\\U+00C7A_2
 62
     0
 10
343.80505833333308
 20
154.9559139104019
 30
0.0
  0
VERTEX
  5
EFB
  8
IMPORT_-_CARRO\\U+00C7A_2
 62
     0
 10
343.80505833333308
 20
162.66269724373521
 30
0.0
  0
VERTEX
  5
EFC
  8
IMPORT_-_CARRO\\U+00C7A_2
 62
     0
 10
454.6224361111108
 20
162.66269724373521
 30
0.0
  0
VERTEX
  5
EFD
  8
IMPORT_-_CARRO\\U+00C7A_2
 62
     0
 10
454.6224361111108
 20
165.66271946595739
 30
0.0
  0
VERTEX
  5
EFE
  8
IMPORT_-_CARRO\\U+00C7A_2
 62
     0
 10
450.08465555555529
 20
165.65425279929079
 30
0.0
  0
VERTEX
  5
EFF
  8
IMPORT_-_CARRO\\U+00C7A_2
 62
     0
 10
450.97471388888869
 20
167.50316113262409
 30
0.0
  0
VERTEX
  5
F00
  8
IMPORT_-_CARRO\\U+00C7A_2
 62
     0
 10
451.79174722222211
 20
169.3852305770686
 30
0.0
  0
VERTEX
  5
F01
  8
IMPORT_-_CARRO\\U+00C7A_2
 62
     0
 10
452.53504999999979
 20
171.29799168817959
 30
0.0
  0
VERTEX
  5
F02
  8
IMPORT_-_CARRO\\U+00C7A_2
 62
     0
 10
453.20285833333321
 20
173.2382694659575
 30
0.0
  0
VERTEX
  5
F03
  8
IMPORT_-_CARRO\\U+00C7A_2
 62
     0
 10
453.79446666666649
 20
175.20288891040201
 30
0.0
  0
VERTEX
  5
F04
  8
IMPORT_-_CARRO\\U+00C7A_2
 62
     0
 10
454.30916944444419
 20
177.1893805770685
 30
0.0
  0
VERTEX
  5
F05
  8
IMPORT_-_CARRO\\U+00C7A_2
 62
     0
 10
454.74555555555531
 20
179.19421668817961
 30
0.0
  0
VERTEX
  5
F06
  8
IMPORT_-_CARRO\\U+00C7A_2
 62
     0
 10
455.10362499999979
 20
181.21492779929079
 30
0.0
  0
VERTEX
  5
F07
  8
IMPORT_-_CARRO\\U+00C7A_2
 62
     0
 10
455.38267222222191
 20
183.24763335484619
 30
0.0
  0
VERTEX
  5
F08
  8
IMPORT_-_CARRO\\U+00C7A_2
 62
     0
 10
455.5819916666664
 20
185.28986391040189
 30
0.0
  0
VERTEX
  5
F09
  8
IMPORT_-_CARRO\\U+00C7A_2
 62
     0
 10
455.70158333333308
 20
187.33844446595731
 30
0.0
  0
VERTEX
  5
F0A
  8
IMPORT_-_CARRO\\U+00C7A_2
 62
     0
 10
455.74109444444412
 20
189.3898472437352
 30
0.0
  0
VERTEX
  5
F0B
  8
IMPORT_-_CARRO\\U+00C7A_2
 62
     0
 10
455.70087777777758
 20
191.43913335484629
 30
0.0
  0
VERTEX
  5
F0C
  8
IMPORT_-_CARRO\\U+00C7A_2
 62
     0
 10
455.58093333333312
 20
193.4848916881796
 30
0.0
  0
VERTEX
  5
F0D
  8
IMPORT_-_CARRO\\U+00C7A_2
 62
     0
 10
455.38126111111092
 20
195.52465279929081
 30
0.0
  0
VERTEX
  5
F0E
  8
IMPORT_-_CARRO\\U+00C7A_2
 62
     0
 10
455.10221388888863
 20
197.55488891040179
 30
0.0
  0
VERTEX
  5
F0F
  8
IMPORT_-_CARRO\\U+00C7A_2
 62
     0
 10
454.74414444444432
 20
199.57313057706841
 30
0.0
  0
VERTEX
  5
F10
  8
IMPORT_-_CARRO\\U+00C7A_2
 62
     0
 10
454.30740555555531
 20
201.5754972437353
 30
0.0
  0
VERTEX
  5
F11
  8
IMPORT_-_CARRO\\U+00C7A_2
 62
     0
 10
453.79270277777772
 20
203.55916668817949
 30
0.0
  0
VERTEX
  5
F12
  8
IMPORT_-_CARRO\\U+00C7A_2
 62
     0
 10
453.20144722222187
 20
205.5213166881797
 30
0.0
  0
VERTEX
  5
F13
  8
IMPORT_-_CARRO\\U+00C7A_2
 62
     0
 10
452.53363888888862
 20
207.4591250215129
 30
0.0
  0
VERTEX
  5
F14
  8
IMPORT_-_CARRO\\U+00C7A_2
 62
     0
 10
452.44368055555532
 20
207.73146946595739
 30
0.0
  0
VERTEX
  5
F15
  8
IMPORT_-_CARRO\\U+00C7A_2
 62
     0
 10
452.37171388888862
 20
208.00910557706851
 30
0.0
  0
VERTEX
  5
F16
  8
IMPORT_-_CARRO\\U+00C7A_2
 62
     0
 10
452.31809166666648
 20
208.29132779929071
 30
0.0
  0
VERTEX
  5
F17
  8
IMPORT_-_CARRO\\U+00C7A_2
 62
     0
 10
452.28281388888871
 20
208.5760194659573
 30
0.0
  0
VERTEX
  5
F18
  8
IMPORT_-_CARRO\\U+00C7A_2
 62
     0
 10
452.26623333333322
 20
208.86247502151301
 30
0.0
  0
VERTEX
  5
F19
  8
IMPORT_-_CARRO\\U+00C7A_2
 62
     0
 10
452.26834999999983
 20
209.14928335484629
 30
0.0
  0
VERTEX
  5
F1A
  8
IMPORT_-_CARRO\\U+00C7A_2
 62
     0
 10
452.28916388888871
 20
209.4353861326241
 30
0.0
  0
VERTEX
  5
F1B
  8
IMPORT_-_CARRO\\U+00C7A_2
 62
     0
 10
452.32867499999981
 20
209.719725021513
 30
0.0
  0
VERTEX
  5
F1C
  8
IMPORT_-_CARRO\\U+00C7A_2
 62
     0
 10
452.38653055555528
 20
210.00053613262401
 30
0.0
  0
VERTEX
  5
F1D
  8
IMPORT_-_CARRO\\U+00C7A_2
 62
     0
 10
452.46273055555531
 20
210.27711391040179
 30
0.0
  0
VERTEX
  5
F1E
  8
IMPORT_-_CARRO\\U+00C7A_2
 62
     0
 10
452.55656944444422
 20
210.548400021513
 30
0.0
  0
VERTEX
  5
F1F
  8
IMPORT_-_CARRO\\U+00C7A_2
 62
     0
 10
452.66804722222213
 20
210.81263057706849
 30
0.0
  0
VERTEX
  5
F20
  8
IMPORT_-_CARRO\\U+00C7A_2
 62
     0
 10
452.79645833333308
 20
211.0694527992907
 30
0.0
  0
VERTEX
  5
F21
  8
IMPORT_-_CARRO\\U+00C7A_2
 62
     0
 10
452.9414499999998
 20
211.31675002151289
 30
0.0
  0
VERTEX
  5
F22
  8
IMPORT_-_CARRO\\U+00C7A_2
 62
     0
 10
453.10196388888869
 20
211.55452224373519
 30
0.0
  0
VERTEX
  5
F23
  8
IMPORT_-_CARRO\\U+00C7A_2
 62
     0
 10
453.27799999999979
 20
211.78135835484619
 30
0.0
  0
VERTEX
  5
F24
  8
IMPORT_-_CARRO\\U+00C7A_2
 62
     0
 10
453.468147222222
 20
211.99584724373531
 30
0.0
  0
VERTEX
  5
F25
  8
IMPORT_-_CARRO\\U+00C7A_2
 62
     0
 10
453.67205277777759
 20
212.19798891040179
 30
0.0
  0
VERTEX
  5
F26
  8
IMPORT_-_CARRO\\U+00C7A_2
 62
     0
 10
453.88865833333313
 20
212.38601946595739
 30
0.0
  0
VERTEX
  5
F27
  8
IMPORT_-_CARRO\\U+00C7A_2
 62
     0
 10
454.11725833333321
 20
212.5595861326241
 30
0.0
  0
VERTEX
  5
F28
  8
IMPORT_-_CARRO\\U+00C7A_2
 62
     0
 10
454.35644166666651
 20
212.71798335484621
 30
0.0
  0
VERTEX
  5
F29
  8
IMPORT_-_CARRO\\U+00C7A_2
 62
     0
 10
454.60550277777759
 20
212.86050557706849
 30
0.0
  0
VERTEX
  5
F2A
  8
IMPORT_-_CARRO\\U+00C7A_2
 62
     0
 10
455.12867222222189
 20
213.0951027992908
 30
0.0
  0
VERTEX
  5
F2B
  8
IMPORT_-_CARRO\\U+00C7A_2
 62
     0
 10
456.4695805555553
 20
209.93809446595739
 30
0.0
  0
VERTEX
  5
F2C
  8
IMPORT_-_CARRO\\U+00C7A_2
 62
     0
 10
459.23077222222207
 20
211.1107277992908
 30
0.0
  0
VERTEX
  5
F2D
  8
IMPORT_-_CARRO\\U+00C7A_2
 62
     0
 10
457.88986388888873
 20
214.26773613262401
 30
0.0
  0
VERTEX
  5
F2E
  8
IMPORT_-_CARRO\\U+00C7A_2
 62
     0
 10
458.33648055555528
 20
214.4173139104017
 30
0.0
  0
VERTEX
  5
F2F
  8
IMPORT_-_CARRO\\U+00C7A_2
 62
     0
 10
458.80073611111101
 20
214.49527779929059
 30
0.0
  0
VERTEX
  5
F30
  8
IMPORT_-_CARRO\\U+00C7A_2
 62
     0
 10
459.2713416666665
 20
214.4991583548464
 30
0.0
  0
VERTEX
  5
F31
  8
IMPORT_-_CARRO\\U+00C7A_2
 62
     0
 10
459.73700833333311
 20
214.42966113262409
 30
0.0
  0
VERTEX
  5
F32
  8
IMPORT_-_CARRO\\U+00C7A_2
 62
     0
 10
460.18609444444422
 20
214.28855002151289
 30
0.0
  0
VERTEX
  5
F33
  8
IMPORT_-_CARRO\\U+00C7A_2
 62
     0
 10
460.60731111111079
 20
214.07829446595741
 30
0.0
  0
VERTEX
  5
F34
  8
IMPORT_-_CARRO\\U+00C7A_2
 62
     0
 10
460.99042777777771
 20
213.80489168817959
 30
0.0
  0
VERTEX
  5
F35
  8
IMPORT_-_CARRO\\U+00C7A_2
 62
     0
 10
461.32627222222192
 20
213.47504446595741
 30
0.0
  0
VERTEX
  5
F36
  8
IMPORT_-_CARRO\\U+00C7A_2
 62
     0
 10
461.60637777777748
 20
213.0968666881796
 30
0.0
  0
VERTEX
  5
F37
  8
IMPORT_-_CARRO\\U+00C7A_2
 62
     0
 10
461.8240416666664
 20
212.67917779929081
 30
0.0
  0
VERTEX
  5
F38
  8
IMPORT_-_CARRO\\U+00C7A_2
 62
     0
 10
462.16023888888873
 20
211.88719168817951
 30
0.0
  0
VERTEX
  5
F39
  8
IMPORT_-_CARRO\\U+00C7A_2
 62
     0
 10
462.30981666666651
 20
211.44092779929059
 30
0.0
  0
VERTEX
  5
F3A
  8
IMPORT_-_CARRO\\U+00C7A_2
 62
     0
 10
462.38742777777759
 20
210.97667224373529
 30
0.0
  0
VERTEX
  5
F3B
  8
IMPORT_-_CARRO\\U+00C7A_2
 62
     0
 10
462.39166111111081
 20
210.50571391040179
 30
0.0
  0
VERTEX
  5
F3C
  8
IMPORT_-_CARRO\\U+00C7A_2
 62
     0
 10
462.32216388888872
 20
210.0400472437351
 30
0.0
  0
VERTEX
  5
F3D
  8
IMPORT_-_CARRO\\U+00C7A_2
 62
     0
 10
462.18069999999977
 20
209.59131391040179
 30
0.0
  0
VERTEX
  5
F3E
  8
IMPORT_-_CARRO\\U+00C7A_2
 62
     0
 10
461.97079722222202
 20
209.16974446595739
 30
0.0
  0
VERTEX
  5
F3F
  8
IMPORT_-_CARRO\\U+00C7A_2
 62
     0
 10
461.69739444444428
 20
208.7866277992907
 30
0.0
  0
VERTEX
  5
F40
  8
IMPORT_-_CARRO\\U+00C7A_2
 62
     0
 10
461.36754722222207
 20
208.45078335484621
 30
0.0
  0
VERTEX
  5
F41
  8
IMPORT_-_CARRO\\U+00C7A_2
 62
     0
 10
460.98901666666637
 20
208.1706777992907
 30
0.0
  0
VERTEX
  5
F42
  8
IMPORT_-_CARRO\\U+00C7A_2
 62
     0
 10
460.5716805555553
 20
207.95301391040189
 30
0.0
  0
VERTEX
  5
F43
  8
IMPORT_-_CARRO\\U+00C7A_2
 62
     0
 10
457.81013611111081
 20
206.78073335484621
 30
0.0
  0
VERTEX
  5
F44
  8
IMPORT_-_CARRO\\U+00C7A_2
 62
     0
 10
458.24546388888859
 20
205.5213166881797
 30
0.0
  0
VERTEX
  5
F45
  8
IMPORT_-_CARRO\\U+00C7A_2
 62
     0
 10
458.83671944444421
 20
203.55916668817949
 30
0.0
  0
VERTEX
  5
F46
  8
IMPORT_-_CARRO\\U+00C7A_2
 62
     0
 10
459.35142222222203
 20
201.5754972437353
 30
0.0
  0
VERTEX
  5
F47
  8
IMPORT_-_CARRO\\U+00C7A_2
 62
     0
 10
459.62129722222193
 20
200.33830557706861
 30
0.0
  0
VERTEX
  5
F48
  8
IMPORT_-_CARRO\\U+00C7A_2
 62
     0
 10
460.11624444444419
 20
196.94423057706851
 30
0.0
  0
VERTEX
  5
F49
  8
IMPORT_-_CARRO\\U+00C7A_2
 62
     0
 10
463.08486944444422
 20
197.37744168817969
 30
0.0
  0
VERTEX
  5
F4A
  8
IMPORT_-_CARRO\\U+00C7A_2
 62
     0
 10
462.58992222222213
 20
200.77116391040181
 30
0.0
  0
VERTEX
  5
F4B
  8
IMPORT_-_CARRO\\U+00C7A_2
 62
     0
 10
463.37273611111101
 20
200.782100021513
 30
0.0
  0
VERTEX
  5
F4C
  8
IMPORT_-_CARRO\\U+00C7A_2
 62
     0
 10
464.13191388888868
 20
200.59018891040179
 30
0.0
  0
VERTEX
  5
F4D
  8
IMPORT_-_CARRO\\U+00C7A_2
 62
     0
 10
464.8155972222221
 20
200.20813057706849
 30
0.0
  0
VERTEX
  5
F4E
  8
IMPORT_-_CARRO\\U+00C7A_2
 62
     0
 10
465.37721944444422
 20
199.66203057706841
 30
0.0
  0
VERTEX
  5
F4F
  8
IMPORT_-_CARRO\\U+00C7A_2
 62
     0
 10
465.77832777777758
 20
198.98928335484629
 30
0.0
  0
VERTEX
  5
F50
  8
IMPORT_-_CARRO\\U+00C7A_2
 62
     0
 10
465.99140555555527
 20
198.23575002151301
 30
0.0
  0
VERTEX
  5
F51
  8
IMPORT_-_CARRO\\U+00C7A_2
 62
     0
 10
466.11558333333312
 20
197.3848500215129
 30
0.0
  0
VERTEX
  5
F52
  8
IMPORT_-_CARRO\\U+00C7A_2
 62
     0
 10
466.12651944444423
 20
196.6016833548463
 30
0.0
  0
VERTEX
  5
F53
  8
IMPORT_-_CARRO\\U+00C7A_2
 62
     0
 10
465.9342555555553
 20
195.84250557706861
 30
0.0
  0
VERTEX
  5
F54
  8
IMPORT_-_CARRO\\U+00C7A_2
 62
     0
 10
465.55219722222199
 20
195.1588222437351
 30
0.0
  0
VERTEX
  5
F55
  8
IMPORT_-_CARRO\\U+00C7A_2
 62
     0
 10
465.0064499999998
 20
194.59720002151289
 30
0.0
  0
VERTEX
  5
F56
  8
IMPORT_-_CARRO\\U+00C7A_2
 62
     0
 10
464.3337027777776
 20
194.1964444659574
 30
0.0
  0
VERTEX
  5
F57
  8
IMPORT_-_CARRO\\U+00C7A_2
 62
     0
 10
463.58016944444432
 20
193.98301391040181
 30
0.0
  0
VERTEX
  5
F58
  8
IMPORT_-_CARRO\\U+00C7A_2
 62
     0
 10
460.61859999999979
 20
193.55121391040191
 30
0.0
  0
SEQEND
  5
F59
  8
IMPORT_-_CARRO\\U+00C7A_2
 62
     0
  0
POLYLINE
  5
67
  8
IMPORT_-_CARRO\\U+00C7A_2
 62
     0
 66
     1
 10
0.0
 20
0.0
 30
0.0
 70
     1
  0
VERTEX
  5
F5A
  8
IMPORT_-_CARRO\\U+00C7A_2
 62
     0
 10
280.29446666666661
 20
340.79851666666679
 30
0.0
  0
VERTEX
  5
F5B
  8
IMPORT_-_CARRO\\U+00C7A_2
 62
     0
 10
279.70285833333332
 20
342.76348888888901
 30
0.0
  0
VERTEX
  5
F5C
  8
IMPORT_-_CARRO\\U+00C7A_2
 62
     0
 10
279.03469722222218
 20
344.70376666666692
 30
0.0
  0
VERTEX
  5
F5D
  8
IMPORT_-_CARRO\\U+00C7A_2
 62
     0
 10
278.29174722222223
 20
346.61617500000023
 30
0.0
  0
VERTEX
  5
F5E
  8
IMPORT_-_CARRO\\U+00C7A_2
 62
     0
 10
277.47436111111108
 20
348.49859722222237
 30
0.0
  0
VERTEX
  5
F5F
  8
IMPORT_-_CARRO\\U+00C7A_2
 62
     0
 10
276.58430277777768
 20
350.34715277777792
 30
0.0
  0
VERTEX
  5
F60
  8
IMPORT_-_CARRO\\U+00C7A_2
 62
     0
 10
281.12243611111109
 20
350.33903888888892
 30
0.0
  0
VERTEX
  5
F61
  8
IMPORT_-_CARRO\\U+00C7A_2
 62
     0
 10
281.12243611111109
 20
353.33906111111128
 30
0.0
  0
VERTEX
  5
F62
  8
IMPORT_-_CARRO\\U+00C7A_2
 62
     0
 10
170.30505833333331
 20
353.33906111111128
 30
0.0
  0
VERTEX
  5
F63
  8
IMPORT_-_CARRO\\U+00C7A_2
 62
     0
 10
170.30505833333331
 20
361.04584444444458
 30
0.0
  0
VERTEX
  5
F64
  8
IMPORT_-_CARRO\\U+00C7A_2
 62
     0
 10
167.30503611111109
 20
361.04584444444458
 30
0.0
  0
VERTEX
  5
F65
  8
IMPORT_-_CARRO\\U+00C7A_2
 62
     0
 10
167.30503611111109
 20
353.33906111111128
 30
0.0
  0
VERTEX
  5
F66
  8
IMPORT_-_CARRO\\U+00C7A_2
 62
     0
 10
72.171099999999967
 20
353.33906111111128
 30
0.0
  0
VERTEX
  5
F67
  8
IMPORT_-_CARRO\\U+00C7A_2
 62
     0
 10
72.171099999999967
 20
361.04584444444458
 30
0.0
  0
VERTEX
  5
F68
  8
IMPORT_-_CARRO\\U+00C7A_2
 62
     0
 10
69.171077777777725
 20
361.04584444444458
 30
0.0
  0
VERTEX
  5
F69
  8
IMPORT_-_CARRO\\U+00C7A_2
 62
     0
 10
69.171077777777725
 20
353.33906111111128
 30
0.0
  0
VERTEX
  5
F6A
  8
IMPORT_-_CARRO\\U+00C7A_2
 62
     0
 10
24.0
 20
353.33906111111128
 30
0.0
  0
VERTEX
  5
F6B
  8
IMPORT_-_CARRO\\U+00C7A_2
 62
     0
 10
24.0
 20
354.22629722222229
 30
0.0
  0
VERTEX
  5
F6C
  8
IMPORT_-_CARRO\\U+00C7A_2
 62
     0
 10
24.102305555555521
 20
355.06026388888898
 30
0.0
  0
VERTEX
  5
F6D
  8
IMPORT_-_CARRO\\U+00C7A_2
 62
     0
 10
24.401813888888849
 20
355.8938777777779
 30
0.0
  0
VERTEX
  5
F6E
  8
IMPORT_-_CARRO\\U+00C7A_2
 62
     0
 10
24.878416666666681
 20
356.67034166666679
 30
0.0
  0
VERTEX
  5
F6F
  8
IMPORT_-_CARRO\\U+00C7A_2
 62
     0
 10
25.500011111111061
 20
357.33673888888899
 30
0.0
  0
VERTEX
  5
F70
  8
IMPORT_-_CARRO\\U+00C7A_2
 62
     0
 10
26.223558333333301
 20
357.84791388888902
 30
0.0
  0
VERTEX
  5
F71
  8
IMPORT_-_CARRO\\U+00C7A_2
 62
     0
 10
27.000022222222189
 20
358.16858888888919
 30
0.0
  0
VERTEX
  5
F72
  8
IMPORT_-_CARRO\\U+00C7A_2
 62
     0
 10
69.171077777777725
 20
368.75298055555572
 30
0.0
  0
VERTEX
  5
F73
  8
IMPORT_-_CARRO\\U+00C7A_2
 62
     0
 10
92.240980555555566
 20
368.75298055555572
 30
0.0
  0
VERTEX
  5
F74
  8
IMPORT_-_CARRO\\U+00C7A_2
 62
     0
 10
93.897625000000005
 20
370.09106666666679
 30
0.0
  0
VERTEX
  5
F75
  8
IMPORT_-_CARRO\\U+00C7A_2
 62
     0
 10
95.430444444444447
 20
371.82955555555571
 30
0.0
  0
VERTEX
  5
F76
  8
IMPORT_-_CARRO\\U+00C7A_2
 62
     0
 10
96.735016666666596
 20
373.84991388888909
 30
0.0
  0
VERTEX
  5
F77
  8
IMPORT_-_CARRO\\U+00C7A_2
 62
     0
 10
97.722441666666683
 20
376.01455833333353
 30
0.0
  0
VERTEX
  5
F78
  8
IMPORT_-_CARRO\\U+00C7A_2
 62
     0
 10
98.325338888888837
 20
378.17602777777802
 30
0.0
  0
VERTEX
  5
F79
  8
IMPORT_-_CARRO\\U+00C7A_2
 62
     0
 10
100.1149805555555
 20
387.74512499999997
 30
0.0
  0
VERTEX
  5
F7A
  8
IMPORT_-_CARRO\\U+00C7A_2
 62
     0
 10
100.6649611111111
 20
389.62296111111129
 30
0.0
  0
VERTEX
  5
F7B
  8
IMPORT_-_CARRO\\U+00C7A_2
 62
     0
 10
101.5747749999999
 20
391.37273888888922
 30
0.0
  0
VERTEX
  5
F7C
  8
IMPORT_-_CARRO\\U+00C7A_2
 62
     0
 10
102.7823333333333
 20
392.87521944444472
 30
0.0
  0
VERTEX
  5
F7D
  8
IMPORT_-_CARRO\\U+00C7A_2
 62
     0
 10
104.2057916666666
 20
394.02774444444469
 30
0.0
  0
VERTEX
  5
F7E
  8
IMPORT_-_CARRO\\U+00C7A_2
 62
     0
 10
105.7474305555555
 20
394.75270277777781
 30
0.0
  0
VERTEX
  5
F7F
  8
IMPORT_-_CARRO\\U+00C7A_2
 62
     0
 10
107.3031805555555
 20
395.0
 30
0.0
  0
VERTEX
  5
F80
  8
IMPORT_-_CARRO\\U+00C7A_2
 62
     0
 10
108.16043055555549
 20
395.0
 30
0.0
  0
VERTEX
  5
F81
  8
IMPORT_-_CARRO\\U+00C7A_2
 62
     0
 10
108.16043055555549
 20
377.84970833333341
 30
0.0
  0
VERTEX
  5
F82
  8
IMPORT_-_CARRO\\U+00C7A_2
 62
     0
 10
111.16045277777771
 20
377.84970833333341
 30
0.0
  0
VERTEX
  5
F83
  8
IMPORT_-_CARRO\\U+00C7A_2
 62
     0
 10
111.16045277777771
 20
395.0
 30
0.0
  0
VERTEX
  5
F84
  8
IMPORT_-_CARRO\\U+00C7A_2
 62
     0
 10
112.0596833333333
 20
395.0
 30
0.0
  0
VERTEX
  5
F85
  8
IMPORT_-_CARRO\\U+00C7A_2
 62
     0
 10
113.6916333333333
 20
394.74952777777793
 30
0.0
  0
VERTEX
  5
F86
  8
IMPORT_-_CARRO\\U+00C7A_2
 62
     0
 10
115.3094722222222
 20
394.01504444444453
 30
0.0
  0
VERTEX
  5
F87
  8
IMPORT_-_CARRO\\U+00C7A_2
 62
     0
 10
116.8027805555555
 20
392.84664444444468
 30
0.0
  0
VERTEX
  5
F88
  8
IMPORT_-_CARRO\\U+00C7A_2
 62
     0
 10
118.0699583333333
 20
391.32405555555567
 30
0.0
  0
VERTEX
  5
F89
  8
IMPORT_-_CARRO\\U+00C7A_2
 62
     0
 10
119.02422222222221
 20
389.55064166666682
 30
0.0
  0
VERTEX
  5
F8A
  8
IMPORT_-_CARRO\\U+00C7A_2
 62
     0
 10
119.6010138888888
 20
387.6477583333334
 30
0.0
  0
VERTEX
  5
F8B
  8
IMPORT_-_CARRO\\U+00C7A_2
 62
     0
 10
121.58045
 20
377.42531666666679
 30
0.0
  0
VERTEX
  5
F8C
  8
IMPORT_-_CARRO\\U+00C7A_2
 62
     0
 10
122.17840833333329
 20
375.41307222222241
 30
0.0
  0
VERTEX
  5
F8D
  8
IMPORT_-_CARRO\\U+00C7A_2
 62
     0
 10
123.1658333333333
 20
373.47067777777801
 30
0.0
  0
VERTEX
  5
F8E
  8
IMPORT_-_CARRO\\U+00C7A_2
 62
     0
 10
124.4749916666666
 20
371.73042500000008
 30
0.0
  0
VERTEX
  5
F8F
  8
IMPORT_-_CARRO\\U+00C7A_2
 62
     0
 10
126.0169833333333
 20
370.31049444444449
 30
0.0
  0
VERTEX
  5
F90
  8
IMPORT_-_CARRO\\U+00C7A_2
 62
     0
 10
127.6866805555555
 20
369.30825277777802
 30
0.0
  0
VERTEX
  5
F91
  8
IMPORT_-_CARRO\\U+00C7A_2
 62
     0
 10
129.37013611111101
 20
368.79143333333337
 30
0.0
  0
VERTEX
  5
F92
  8
IMPORT_-_CARRO\\U+00C7A_2
 62
     0
 10
185.3048166666666
 20
368.752627777778
 30
0.0
  0
VERTEX
  5
F93
  8
IMPORT_-_CARRO\\U+00C7A_2
 62
     0
 10
282.88808888888889
 20
357.30463611111128
 30
0.0
  0
VERTEX
  5
F94
  8
IMPORT_-_CARRO\\U+00C7A_2
 62
     0
 10
283.38656388888887
 20
357.20268333333343
 30
0.0
  0
VERTEX
  5
F95
  8
IMPORT_-_CARRO\\U+00C7A_2
 62
     0
 10
283.88786111111108
 20
357.03511388888899
 30
0.0
  0
VERTEX
  5
F96
  8
IMPORT_-_CARRO\\U+00C7A_2
 62
     0
 10
284.37998611111112
 20
356.80651388888901
 30
0.0
  0
VERTEX
  5
F97
  8
IMPORT_-_CARRO\\U+00C7A_2
 62
     0
 10
284.85094444444439
 20
356.52217500000017
 30
0.0
  0
VERTEX
  5
F98
  8
IMPORT_-_CARRO\\U+00C7A_2
 62
     0
 10
285.28874166666662
 20
356.18985833333329
 30
0.0
  0
VERTEX
  5
F99
  8
IMPORT_-_CARRO\\U+00C7A_2
 62
     0
 10
285.68279444444431
 20
355.81661944444448
 30
0.0
  0
VERTEX
  5
F9A
  8
IMPORT_-_CARRO\\U+00C7A_2
 62
     0
 10
286.02322499999991
 20
355.4123361111113
 30
0.0
  0
VERTEX
  5
F9B
  8
IMPORT_-_CARRO\\U+00C7A_2
 62
     0
 10
286.3022722222222
 20
354.98688611111129
 30
0.0
  0
VERTEX
  5
F9C
  8
IMPORT_-_CARRO\\U+00C7A_2
 62
     0
 10
286.51217500000001
 20
354.550852777778
 30
0.0
  0
VERTEX
  5
F9D
  8
IMPORT_-_CARRO\\U+00C7A_2
 62
     0
 10
289.25114166666663
 20
347.65334166666679
 30
0.0
  0
VERTEX
  5
F9E
  8
IMPORT_-_CARRO\\U+00C7A_2
 62
     0
 10
289.39013611111108
 20
347.20355000000018
 30
0.0
  0
VERTEX
  5
F9F
  8
IMPORT_-_CARRO\\U+00C7A_2
 62
     0
 10
289.45681111111111
 20
346.73788333333363
 30
0.0
  0
VERTEX
  5
FA0
  8
IMPORT_-_CARRO\\U+00C7A_2
 62
     0
 10
289.4497555555555
 20
346.26692500000013
 30
0.0
  0
VERTEX
  5
FA1
  8
IMPORT_-_CARRO\\U+00C7A_2
 62
     0
 10
289.36932222222219
 20
345.80337500000019
 30
0.0
  0
VERTEX
  5
FA2
  8
IMPORT_-_CARRO\\U+00C7A_2
 62
     0
 10
289.21727499999997
 20
345.35781666666668
 30
0.0
  0
VERTEX
  5
FA3
  8
IMPORT_-_CARRO\\U+00C7A_2
 62
     0
 10
288.99749444444438
 20
344.94153888888923
 30
0.0
  0
VERTEX
  5
FA4
  8
IMPORT_-_CARRO\\U+00C7A_2
 62
     0
 10
288.7152722222221
 20
344.5647722222223
 30
0.0
  0
VERTEX
  5
FA5
  8
IMPORT_-_CARRO\\U+00C7A_2
 62
     0
 10
288.37766388888889
 20
344.23668888888898
 30
0.0
  0
VERTEX
  5
FA6
  8
IMPORT_-_CARRO\\U+00C7A_2
 62
     0
 10
287.99278333333331
 20
343.96575555555569
 30
0.0
  0
VERTEX
  5
FA7
  8
IMPORT_-_CARRO\\U+00C7A_2
 62
     0
 10
287.57015555555552
 20
343.75796944444471
 30
0.0
  0
VERTEX
  5
FA8
  8
IMPORT_-_CARRO\\U+00C7A_2
 62
     0
 10
286.30438888888881
 20
346.9456694444446
 30
0.0
  0
VERTEX
  5
FA9
  8
IMPORT_-_CARRO\\U+00C7A_2
 62
     0
 10
283.51603333333338
 20
345.83865277777801
 30
0.0
  0
VERTEX
  5
FAA
  8
IMPORT_-_CARRO\\U+00C7A_2
 62
     0
 10
284.78179999999998
 20
342.650952777778
 30
0.0
  0
VERTEX
  5
FAB
  8
IMPORT_-_CARRO\\U+00C7A_2
 62
     0
 10
285.33671944444438
 20
340.78087777777802
 30
0.0
  0
VERTEX
  5
FAC
  8
IMPORT_-_CARRO\\U+00C7A_2
 62
     0
 10
285.8514222222222
 20
338.79720833333351
 30
0.0
  0
VERTEX
  5
FAD
  8
IMPORT_-_CARRO\\U+00C7A_2
 62
     0
 10
286.28780833333332
 20
336.79448888888908
 30
0.0
  0
VERTEX
  5
FAE
  8
IMPORT_-_CARRO\\U+00C7A_2
 62
     0
 10
286.41233888888883
 20
336.09422500000011
 30
0.0
  0
VERTEX
  5
FAF
  8
IMPORT_-_CARRO\\U+00C7A_2
 62
     0
 10
289.63143611111099
 20
336.36445277777801
 30
0.0
  0
VERTEX
  5
FB0
  8
IMPORT_-_CARRO\\U+00C7A_2
 62
     0
 10
290.4138972222222
 20
336.32776388888919
 30
0.0
  0
VERTEX
  5
FB1
  8
IMPORT_-_CARRO\\U+00C7A_2
 62
     0
 10
291.1600222222221
 20
336.089638888889
 30
0.0
  0
VERTEX
  5
FB2
  8
IMPORT_-_CARRO\\U+00C7A_2
 62
     0
 10
291.81901111111108
 20
335.66665833333337
 30
0.0
  0
VERTEX
  5
FB3
  8
IMPORT_-_CARRO\\U+00C7A_2
 62
     0
 10
292.34606111111111
 20
335.08739722222242
 30
0.0
  0
VERTEX
  5
FB4
  8
IMPORT_-_CARRO\\U+00C7A_2
 62
     0
 10
292.70518888888893
 20
334.39136666666678
 30
0.0
  0
VERTEX
  5
FB5
  8
IMPORT_-_CARRO\\U+00C7A_2
 62
     0
 10
292.87205277777781
 20
333.62619166666673
 30
0.0
  0
VERTEX
  5
FB6
  8
IMPORT_-_CARRO\\U+00C7A_2
 62
     0
 10
292.94401944444439
 20
332.76929444444471
 30
0.0
  0
VERTEX
  5
FB7
  8
IMPORT_-_CARRO\\U+00C7A_2
 62
     0
 10
292.90697777777768
 20
331.98683333333338
 30
0.0
  0
VERTEX
  5
FB8
  8
IMPORT_-_CARRO\\U+00C7A_2
 62
     0
 10
292.66885277777772
 20
331.24070833333349
 30
0.0
  0
VERTEX
  5
FB9
  8
IMPORT_-_CARRO\\U+00C7A_2
 62
     0
 10
292.24587222222209
 20
330.58171944444462
 30
0.0
  0
VERTEX
  5
FBA
  8
IMPORT_-_CARRO\\U+00C7A_2
 62
     0
 10
291.66661111111108
 20
330.0546694444447
 30
0.0
  0
VERTEX
  5
FBB
  8
IMPORT_-_CARRO\\U+00C7A_2
 62
     0
 10
290.9705805555555
 20
329.69554166666683
 30
0.0
  0
VERTEX
  5
FBC
  8
IMPORT_-_CARRO\\U+00C7A_2
 62
     0
 10
290.2054055555555
 20
329.52867777777789
 30
0.0
  0
VERTEX
  5
FBD
  8
IMPORT_-_CARRO\\U+00C7A_2
 62
     0
 10
289.9185972222221
 20
332.94638888888898
 30
0.0
  0
VERTEX
  5
FBE
  8
IMPORT_-_CARRO\\U+00C7A_2
 62
     0
 10
286.92915833333319
 20
332.69521111111129
 30
0.0
  0
VERTEX
  5
FBF
  8
IMPORT_-_CARRO\\U+00C7A_2
 62
     0
 10
287.2159666666667
 20
329.27750000000009
 30
0.0
  0
VERTEX
  5
FC0
  8
IMPORT_-_CARRO\\U+00C7A_2
 62
     0
 10
287.24489444444441
 20
328.66084444444459
 30
0.0
  0
VERTEX
  5
FC1
  8
IMPORT_-_CARRO\\U+00C7A_2
 62
     0
 10
287.28511111111112
 20
326.61155833333328
 30
0.0
  0
VERTEX
  5
FC2
  8
IMPORT_-_CARRO\\U+00C7A_2
 62
     0
 10
287.24489444444441
 20
324.56262500000003
 30
0.0
  0
VERTEX
  5
FC3
  8
IMPORT_-_CARRO\\U+00C7A_2
 62
     0
 10
287.12495000000001
 20
322.51651388888911
 30
0.0
  0
VERTEX
  5
FC4
  8
IMPORT_-_CARRO\\U+00C7A_2
 62
     0
 10
287.11860000000001
 20
322.45054444444457
 30
0.0
  0
VERTEX
  5
FC5
  8
IMPORT_-_CARRO\\U+00C7A_2
 62
     0
 10
290.07981666666672
 20
322.01839166666667
 30
0.0
  0
VERTEX
  5
FC6
  8
IMPORT_-_CARRO\\U+00C7A_2
 62
     0
 10
290.8337027777776
 20
321.80531388888897
 30
0.0
  0
VERTEX
  5
FC7
  8
IMPORT_-_CARRO\\U+00C7A_2
 62
     0
 10
291.50609722222208
 20
321.40420555555568
 30
0.0
  0
VERTEX
  5
FC8
  8
IMPORT_-_CARRO\\U+00C7A_2
 62
     0
 10
292.05219722222222
 20
320.84293611111133
 30
0.0
  0
VERTEX
  5
FC9
  8
IMPORT_-_CARRO\\U+00C7A_2
 62
     0
 10
292.43425555555552
 20
320.15925277777791
 30
0.0
  0
VERTEX
  5
FCA
  8
IMPORT_-_CARRO\\U+00C7A_2
 62
     0
 10
292.6265194444444
 20
319.40007500000019
 30
0.0
  0
VERTEX
  5
FCB
  8
IMPORT_-_CARRO\\U+00C7A_2
 62
     0
 10
292.6155833333334
 20
318.61690833333353
 30
0.0
  0
VERTEX
  5
FCC
  8
IMPORT_-_CARRO\\U+00C7A_2
 62
     0
 10
292.4914055555555
 20
317.7660083333335
 30
0.0
  0
VERTEX
  5
FCD
  8
IMPORT_-_CARRO\\U+00C7A_2
 62
     0
 10
292.27797500000003
 20
317.01247500000022
 30
0.0
  0
VERTEX
  5
FCE
  8
IMPORT_-_CARRO\\U+00C7A_2
 62
     0
 10
291.87721944444439
 20
316.33972777777802
 30
0.0
  0
VERTEX
  5
FCF
  8
IMPORT_-_CARRO\\U+00C7A_2
 62
     0
 10
291.31559722222221
 20
315.79362777777777
 30
0.0
  0
VERTEX
  5
FD0
  8
IMPORT_-_CARRO\\U+00C7A_2
 62
     0
 10
290.63191388888879
 20
315.41156944444469
 30
0.0
  0
VERTEX
  5
FD1
  8
IMPORT_-_CARRO\\U+00C7A_2
 62
     0
 10
289.87273611111112
 20
315.21965833333343
 30
0.0
  0
VERTEX
  5
FD2
  8
IMPORT_-_CARRO\\U+00C7A_2
 62
     0
 10
289.08956944444441
 20
315.23059444444448
 30
0.0
  0
VERTEX
  5
FD3
  8
IMPORT_-_CARRO\\U+00C7A_2
 62
     0
 10
289.58486944444439
 20
318.62431666666691
 30
0.0
  0
VERTEX
  5
FD4
  8
IMPORT_-_CARRO\\U+00C7A_2
 62
     0
 10
286.61624444444442
 20
319.05717500000009
 30
0.0
  0
VERTEX
  5
FD5
  8
IMPORT_-_CARRO\\U+00C7A_2
 62
     0
 10
286.1212972222221
 20
315.66345277777788
 30
0.0
  0
VERTEX
  5
FD6
  8
IMPORT_-_CARRO\\U+00C7A_2
 62
     0
 10
285.8514222222222
 20
314.42626111111127
 30
0.0
  0
VERTEX
  5
FD7
  8
IMPORT_-_CARRO\\U+00C7A_2
 62
     0
 10
285.33671944444438
 20
312.44259166666677
 30
0.0
  0
VERTEX
  5
FD8
  8
IMPORT_-_CARRO\\U+00C7A_2
 62
     0
 10
284.7451111111111
 20
310.48008888888899
 30
0.0
  0
VERTEX
  5
FD9
  8
IMPORT_-_CARRO\\U+00C7A_2
 62
     0
 10
284.31013611111109
 20
309.22102500000022
 30
0.0
  0
VERTEX
  5
FDA
  8
IMPORT_-_CARRO\\U+00C7A_2
 62
     0
 10
287.07168055555547
 20
308.04839166666682
 30
0.0
  0
VERTEX
  5
FDB
  8
IMPORT_-_CARRO\\U+00C7A_2
 62
     0
 10
287.4890166666666
 20
307.83108055555567
 30
0.0
  0
VERTEX
  5
FDC
  8
IMPORT_-_CARRO\\U+00C7A_2
 62
     0
 10
287.86754722222219
 20
307.55097500000011
 30
0.0
  0
VERTEX
  5
FDD
  8
IMPORT_-_CARRO\\U+00C7A_2
 62
     0
 10
288.1973944444444
 20
307.21513055555567
 30
0.0
  0
VERTEX
  5
FDE
  8
IMPORT_-_CARRO\\U+00C7A_2
 62
     0
 10
288.47079722222207
 20
306.8316611111112
 30
0.0
  0
VERTEX
  5
FDF
  8
IMPORT_-_CARRO\\U+00C7A_2
 62
     0
 10
288.68069999999989
 20
306.41044444444458
 30
0.0
  0
VERTEX
  5
FE0
  8
IMPORT_-_CARRO\\U+00C7A_2
 62
     0
 10
288.82216388888889
 20
305.96135833333358
 30
0.0
  0
VERTEX
  5
FE1
  8
IMPORT_-_CARRO\\U+00C7A_2
 62
     0
 10
288.89166111111109
 20
305.49604444444469
 30
0.0
  0
VERTEX
  5
FE2
  8
IMPORT_-_CARRO\\U+00C7A_2
 62
     0
 10
288.8874277777777
 20
305.02508611111142
 30
0.0
  0
VERTEX
  5
FE3
  8
IMPORT_-_CARRO\\U+00C7A_2
 62
     0
 10
288.80981666666662
 20
304.56083055555558
 30
0.0
  0
VERTEX
  5
FE4
  8
IMPORT_-_CARRO\\U+00C7A_2
 62
     0
 10
288.66023888888878
 20
304.11456666666692
 30
0.0
  0
VERTEX
  5
FE5
  8
IMPORT_-_CARRO\\U+00C7A_2
 62
     0
 10
288.32368888888891
 20
303.32258055555582
 30
0.0
  0
VERTEX
  5
FE6
  8
IMPORT_-_CARRO\\U+00C7A_2
 62
     0
 10
288.10637777777782
 20
302.9048916666668
 30
0.0
  0
VERTEX
  5
FE7
  8
IMPORT_-_CARRO\\U+00C7A_2
 62
     0
 10
287.8262722222222
 20
302.52636111111133
 30
0.0
  0
VERTEX
  5
FE8
  8
IMPORT_-_CARRO\\U+00C7A_2
 62
     0
 10
287.49042777777771
 20
302.19651388888911
 30
0.0
  0
VERTEX
  5
FE9
  8
IMPORT_-_CARRO\\U+00C7A_2
 62
     0
 10
287.10731111111107
 20
301.92346388888888
 30
0.0
  0
VERTEX
  5
FEA
  8
IMPORT_-_CARRO\\U+00C7A_2
 62
     0
 10
286.68574166666662
 20
301.71320833333351
 30
0.0
  0
VERTEX
  5
FEB
  8
IMPORT_-_CARRO\\U+00C7A_2
 62
     0
 10
286.23700833333328
 20
301.57174444444462
 30
0.0
  0
VERTEX
  5
FEC
  8
IMPORT_-_CARRO\\U+00C7A_2
 62
     0
 10
285.77134166666661
 20
301.50224722222231
 30
0.0
  0
VERTEX
  5
FED
  8
IMPORT_-_CARRO\\U+00C7A_2
 62
     0
 10
285.3003833333334
 20
301.50648055555581
 30
0.0
  0
VERTEX
  5
FEE
  8
IMPORT_-_CARRO\\U+00C7A_2
 62
     0
 10
284.83612777777768
 20
301.58444444444461
 30
0.0
  0
VERTEX
  5
FEF
  8
IMPORT_-_CARRO\\U+00C7A_2
 62
     0
 10
284.38986388888878
 20
301.73366944444462
 30
0.0
  0
VERTEX
  5
FF0
  8
IMPORT_-_CARRO\\U+00C7A_2
 62
     0
 10
285.73077222222219
 20
304.89103055555569
 30
0.0
  0
VERTEX
  5
FF1
  8
IMPORT_-_CARRO\\U+00C7A_2
 62
     0
 10
282.96922777777769
 20
306.0636638888891
 30
0.0
  0
VERTEX
  5
FF2
  8
IMPORT_-_CARRO\\U+00C7A_2
 62
     0
 10
281.62867222222218
 20
302.90630277777791
 30
0.0
  0
VERTEX
  5
FF3
  8
IMPORT_-_CARRO\\U+00C7A_2
 62
     0
 10
281.10514999999998
 20
303.14125277777788
 30
0.0
  0
VERTEX
  5
FF4
  8
IMPORT_-_CARRO\\U+00C7A_2
 62
     0
 10
280.85608888888879
 20
303.28377500000011
 30
0.0
  0
VERTEX
  5
FF5
  8
IMPORT_-_CARRO\\U+00C7A_2
 62
     0
 10
280.61690555555549
 20
303.44217222222238
 30
0.0
  0
VERTEX
  5
FF6
  8
IMPORT_-_CARRO\\U+00C7A_2
 62
     0
 10
280.3886583333333
 20
303.61573888888893
 30
0.0
  0
VERTEX
  5
FF7
  8
IMPORT_-_CARRO\\U+00C7A_2
 62
     0
 10
280.17205277777759
 20
303.8037694444447
 30
0.0
  0
VERTEX
  5
FF8
  8
IMPORT_-_CARRO\\U+00C7A_2
 62
     0
 10
279.96814722222223
 20
304.00555833333328
 30
0.0
  0
VERTEX
  5
FF9
  8
IMPORT_-_CARRO\\U+00C7A_2
 62
     0
 10
279.77800000000002
 20
304.22040000000032
 30
0.0
  0
VERTEX
  5
FFA
  8
IMPORT_-_CARRO\\U+00C7A_2
 62
     0
 10
279.6019638888888
 20
304.44723611111118
 30
0.0
  0
VERTEX
  5
FFB
  8
IMPORT_-_CARRO\\U+00C7A_2
 62
     0
 10
279.4410972222222
 20
304.68465555555582
 30
0.0
  0
VERTEX
  5
FFC
  8
IMPORT_-_CARRO\\U+00C7A_2
 62
     0
 10
279.29645833333319
 20
304.93230555555567
 30
0.0
  0
VERTEX
  5
FFD
  8
IMPORT_-_CARRO\\U+00C7A_2
 62
     0
 10
279.16804722222219
 20
305.1891277777778
 30
0.0
  0
VERTEX
  5
FFE
  8
IMPORT_-_CARRO\\U+00C7A_2
 62
     0
 10
279.05656944444439
 20
305.45335833333348
 30
0.0
  0
VERTEX
  5
FFF
  8
IMPORT_-_CARRO\\U+00C7A_2
 62
     0
 10
278.96273055555548
 20
305.72429166666689
 30
0.0
  0
VERTEX
  5
1000
  8
IMPORT_-_CARRO\\U+00C7A_2
 62
     0
 10
278.88653055555551
 20
306.00122222222228
 30
0.0
  0
VERTEX
  5
1001
  8
IMPORT_-_CARRO\\U+00C7A_2
 62
     0
 10
278.82867499999998
 20
306.2820333333334
 30
0.0
  0
VERTEX
  5
1002
  8
IMPORT_-_CARRO\\U+00C7A_2
 62
     0
 10
278.78916388888888
 20
306.56637222222241
 30
0.0
  0
VERTEX
  5
1003
  8
IMPORT_-_CARRO\\U+00C7A_2
 62
     0
 10
278.76834999999988
 20
306.8524750000002
 30
0.0
  0
VERTEX
  5
1004
  8
IMPORT_-_CARRO\\U+00C7A_2
 62
     0
 10
278.76623333333328
 20
307.13928333333359
 30
0.0
  0
VERTEX
  5
1005
  8
IMPORT_-_CARRO\\U+00C7A_2
 62
     0
 10
278.78281388888882
 20
307.42573888888899
 30
0.0
  0
VERTEX
  5
1006
  8
IMPORT_-_CARRO\\U+00C7A_2
 62
     0
 10
278.81809166666659
 20
307.7104305555556
 30
0.0
  0
VERTEX
  5
1007
  8
IMPORT_-_CARRO\\U+00C7A_2
 62
     0
 10
278.87171388888879
 20
307.99230000000011
 30
0.0
  0
VERTEX
  5
1008
  8
IMPORT_-_CARRO\\U+00C7A_2
 62
     0
 10
278.94368055555549
 20
308.27028888888901
 30
0.0
  0
VERTEX
  5
1009
  8
IMPORT_-_CARRO\\U+00C7A_2
 62
     0
 10
279.0336388888889
 20
308.54263333333358
 30
0.0
  0
VERTEX
  5
100A
  8
IMPORT_-_CARRO\\U+00C7A_2
 62
     0
 10
279.70109444444438
 20
310.48008888888899
 30
0.0
  0
VERTEX
  5
100B
  8
IMPORT_-_CARRO\\U+00C7A_2
 62
     0
 10
280.29270277777778
 20
312.44259166666677
 30
0.0
  0
VERTEX
  5
100C
  8
IMPORT_-_CARRO\\U+00C7A_2
 62
     0
 10
280.8070527777777
 20
314.42626111111127
 30
0.0
  0
VERTEX
  5
100D
  8
IMPORT_-_CARRO\\U+00C7A_2
 62
     0
 10
281.2437916666666
 20
316.42862777777788
 30
0.0
  0
VERTEX
  5
100E
  8
IMPORT_-_CARRO\\U+00C7A_2
 62
     0
 10
281.60221388888891
 20
318.44651666666681
 30
0.0
  0
VERTEX
  5
100F
  8
IMPORT_-_CARRO\\U+00C7A_2
 62
     0
 10
281.88126111111092
 20
320.4771055555558
 30
0.0
  0
VERTEX
  5
1010
  8
IMPORT_-_CARRO\\U+00C7A_2
 62
     0
 10
282.08093333333329
 20
322.51651388888911
 30
0.0
  0
VERTEX
  5
1011
  8
IMPORT_-_CARRO\\U+00C7A_2
 62
     0
 10
282.20087777777769
 20
324.56262500000003
 30
0.0
  0
VERTEX
  5
1012
  8
IMPORT_-_CARRO\\U+00C7A_2
 62
     0
 10
282.24074166666662
 20
326.61155833333328
 30
0.0
  0
VERTEX
  5
1013
  8
IMPORT_-_CARRO\\U+00C7A_2
 62
     0
 10
282.20158333333319
 20
328.66331388888921
 30
0.0
  0
VERTEX
  5
1014
  8
IMPORT_-_CARRO\\U+00C7A_2
 62
     0
 10
282.08199166666662
 20
330.71154166666679
 30
0.0
  0
VERTEX
  5
1015
  8
IMPORT_-_CARRO\\U+00C7A_2
 62
     0
 10
281.8826722222222
 20
332.75377222222232
 30
0.0
  0
VERTEX
  5
1016
  8
IMPORT_-_CARRO\\U+00C7A_2
 62
     0
 10
281.60362500000002
 20
334.78683055555581
 30
0.0
  0
VERTEX
  5
1017
  8
IMPORT_-_CARRO\\U+00C7A_2
 62
     0
 10
281.24555555555548
 20
336.80718888888907
 30
0.0
  0
VERTEX
  5
1018
  8
IMPORT_-_CARRO\\U+00C7A_2
 62
     0
 10
280.80916944444442
 20
338.81237777777778
 30
0.0
  0
SEQEND
  5
1019
  8
IMPORT_-_CARRO\\U+00C7A_2
 62
     0
  0
POLYLINE
  5
68
  8
IMPORT_-_CARRO\\U+00C7A_2
 62
     0
 66
     1
 10
0.0
 20
0.0
 30
0.0
 70
     1
  0
VERTEX
  5
101A
  8
IMPORT_-_CARRO\\U+00C7A_2
 62
     0
 10
306.58271388888892
 20
114.1212305555556
 30
0.0
  0
VERTEX
  5
101B
  8
IMPORT_-_CARRO\\U+00C7A_2
 62
     0
 10
306.88857222222231
 20
113.7631611111112
 30
0.0
  0
VERTEX
  5
101C
  8
IMPORT_-_CARRO\\U+00C7A_2
 62
     0
 10
307.13445833333333
 20
113.3620527777779
 30
0.0
  0
VERTEX
  5
101D
  8
IMPORT_-_CARRO\\U+00C7A_2
 62
     0
 10
307.31472777777782
 20
112.9270777777778
 30
0.0
  0
VERTEX
  5
101E
  8
IMPORT_-_CARRO\\U+00C7A_2
 62
     0
 10
307.42444166666672
 20
112.4691722222223
 30
0.0
  0
VERTEX
  5
101F
  8
IMPORT_-_CARRO\\U+00C7A_2
 62
     0
 10
307.46148333333332
 20
111.9999777777778
 30
0.0
  0
VERTEX
  5
1020
  8
IMPORT_-_CARRO\\U+00C7A_2
 62
     0
 10
307.46148333333332
 20
83.693088888888951
 30
0.0
  0
VERTEX
  5
1021
  8
IMPORT_-_CARRO\\U+00C7A_2
 62
     0
 10
307.42444166666672
 20
83.223894444444525
 30
0.0
  0
VERTEX
  5
1022
  8
IMPORT_-_CARRO\\U+00C7A_2
 62
     0
 10
307.31472777777782
 20
82.765988888888955
 30
0.0
  0
VERTEX
  5
1023
  8
IMPORT_-_CARRO\\U+00C7A_2
 62
     0
 10
307.13445833333333
 20
82.331013888889004
 30
0.0
  0
VERTEX
  5
1024
  8
IMPORT_-_CARRO\\U+00C7A_2
 62
     0
 10
306.88857222222231
 20
81.929905555555578
 30
0.0
  0
VERTEX
  5
1025
  8
IMPORT_-_CARRO\\U+00C7A_2
 62
     0
 10
306.58271388888892
 20
81.571836111111168
 30
0.0
  0
VERTEX
  5
1026
  8
IMPORT_-_CARRO\\U+00C7A_2
 62
     0
 10
306.22464444444449
 20
81.265977777777891
 30
0.0
  0
VERTEX
  5
1027
  8
IMPORT_-_CARRO\\U+00C7A_2
 62
     0
 10
305.82353611111108
 20
81.020091666666701
 30
0.0
  0
VERTEX
  5
1028
  8
IMPORT_-_CARRO\\U+00C7A_2
 62
     0
 10
305.38856111111107
 20
80.839822222222267
 30
0.0
  0
VERTEX
  5
1029
  8
IMPORT_-_CARRO\\U+00C7A_2
 62
     0
 10
304.93065555555552
 20
80.730108333333405
 30
0.0
  0
VERTEX
  5
102A
  8
IMPORT_-_CARRO\\U+00C7A_2
 62
     0
 10
304.46146111111108
 20
80.693066666666766
 30
0.0
  0
VERTEX
  5
102B
  8
IMPORT_-_CARRO\\U+00C7A_2
 62
     0
 10
303.46133611111111
 20
80.693066666666766
 30
0.0
  0
VERTEX
  5
102C
  8
IMPORT_-_CARRO\\U+00C7A_2
 62
     0
 10
303.46133611111111
 20
97.846533333333397
 30
0.0
  0
VERTEX
  5
102D
  8
IMPORT_-_CARRO\\U+00C7A_2
 62
     0
 10
300.46484166666681
 20
97.846533333333397
 30
0.0
  0
VERTEX
  5
102E
  8
IMPORT_-_CARRO\\U+00C7A_2
 62
     0
 10
300.46484166666681
 20
80.693066666666766
 30
0.0
  0
VERTEX
  5
102F
  8
IMPORT_-_CARRO\\U+00C7A_2
 62
     0
 10
285.45802777777777
 20
80.693066666666766
 30
0.0
  0
VERTEX
  5
1030
  8
IMPORT_-_CARRO\\U+00C7A_2
 62
     0
 10
285.45802777777777
 20
85.193100000000015
 30
0.0
  0
VERTEX
  5
1031
  8
IMPORT_-_CARRO\\U+00C7A_2
 62
     0
 10
282.45800555555559
 20
85.193100000000015
 30
0.0
  0
VERTEX
  5
1032
  8
IMPORT_-_CARRO\\U+00C7A_2
 62
     0
 10
282.45800555555559
 20
80.693066666666766
 30
0.0
  0
VERTEX
  5
1033
  8
IMPORT_-_CARRO\\U+00C7A_2
 62
     0
 10
233.5002111111111
 20
80.693066666666766
 30
0.0
  0
VERTEX
  5
1034
  8
IMPORT_-_CARRO\\U+00C7A_2
 62
     0
 10
233.5002111111111
 20
85.193100000000015
 30
0.0
  0
VERTEX
  5
1035
  8
IMPORT_-_CARRO\\U+00C7A_2
 62
     0
 10
230.50018888888891
 20
85.193100000000015
 30
0.0
  0
VERTEX
  5
1036
  8
IMPORT_-_CARRO\\U+00C7A_2
 62
     0
 10
230.50018888888891
 20
80.693066666666766
 30
0.0
  0
VERTEX
  5
1037
  8
IMPORT_-_CARRO\\U+00C7A_2
 62
     0
 10
211.9962888888889
 20
80.693066666666766
 30
0.0
  0
VERTEX
  5
1038
  8
IMPORT_-_CARRO\\U+00C7A_2
 62
     0
 10
211.9962888888889
 20
97.846533333333397
 30
0.0
  0
VERTEX
  5
1039
  8
IMPORT_-_CARRO\\U+00C7A_2
 62
     0
 10
208.99979444444449
 20
97.846533333333397
 30
0.0
  0
VERTEX
  5
103A
  8
IMPORT_-_CARRO\\U+00C7A_2
 62
     0
 10
208.99979444444449
 20
80.693066666666766
 30
0.0
  0
VERTEX
  5
103B
  8
IMPORT_-_CARRO\\U+00C7A_2
 62
     0
 10
208.00002222222221
 20
80.693066666666766
 30
0.0
  0
VERTEX
  5
103C
  8
IMPORT_-_CARRO\\U+00C7A_2
 62
     0
 10
207.53082777777789
 20
80.730108333333405
 30
0.0
  0
VERTEX
  5
103D
  8
IMPORT_-_CARRO\\U+00C7A_2
 62
     0
 10
207.07292222222219
 20
80.839822222222267
 30
0.0
  0
VERTEX
  5
103E
  8
IMPORT_-_CARRO\\U+00C7A_2
 62
     0
 10
206.63794722222221
 20
81.020091666666701
 30
0.0
  0
VERTEX
  5
103F
  8
IMPORT_-_CARRO\\U+00C7A_2
 62
     0
 10
206.23648611111119
 20
81.265977777777891
 30
0.0
  0
VERTEX
  5
1040
  8
IMPORT_-_CARRO\\U+00C7A_2
 62
     0
 10
205.87841666666671
 20
81.571836111111168
 30
0.0
  0
VERTEX
  5
1041
  8
IMPORT_-_CARRO\\U+00C7A_2
 62
     0
 10
205.5729111111111
 20
81.929905555555578
 30
0.0
  0
VERTEX
  5
1042
  8
IMPORT_-_CARRO\\U+00C7A_2
 62
     0
 10
205.32702499999999
 20
82.331013888889004
 30
0.0
  0
VERTEX
  5
1043
  8
IMPORT_-_CARRO\\U+00C7A_2
 62
     0
 10
205.14675555555559
 20
82.765988888888955
 30
0.0
  0
VERTEX
  5
1044
  8
IMPORT_-_CARRO\\U+00C7A_2
 62
     0
 10
205.0366888888889
 20
83.223894444444525
 30
0.0
  0
VERTEX
  5
1045
  8
IMPORT_-_CARRO\\U+00C7A_2
 62
     0
 10
205.0
 20
83.693088888888951
 30
0.0
  0
VERTEX
  5
1046
  8
IMPORT_-_CARRO\\U+00C7A_2
 62
     0
 10
205.0
 20
111.9999777777778
 30
0.0
  0
VERTEX
  5
1047
  8
IMPORT_-_CARRO\\U+00C7A_2
 62
     0
 10
205.0366888888889
 20
112.4691722222223
 30
0.0
  0
VERTEX
  5
1048
  8
IMPORT_-_CARRO\\U+00C7A_2
 62
     0
 10
205.14675555555559
 20
112.9270777777778
 30
0.0
  0
VERTEX
  5
1049
  8
IMPORT_-_CARRO\\U+00C7A_2
 62
     0
 10
205.32702499999999
 20
113.3620527777779
 30
0.0
  0
VERTEX
  5
104A
  8
IMPORT_-_CARRO\\U+00C7A_2
 62
     0
 10
205.5729111111111
 20
113.7631611111112
 30
0.0
  0
VERTEX
  5
104B
  8
IMPORT_-_CARRO\\U+00C7A_2
 62
     0
 10
205.87841666666671
 20
114.1212305555556
 30
0.0
  0
VERTEX
  5
104C
  8
IMPORT_-_CARRO\\U+00C7A_2
 62
     0
 10
206.23648611111119
 20
114.427088888889
 30
0.0
  0
VERTEX
  5
104D
  8
IMPORT_-_CARRO\\U+00C7A_2
 62
     0
 10
206.63794722222221
 20
114.67297500000009
 30
0.0
  0
VERTEX
  5
104E
  8
IMPORT_-_CARRO\\U+00C7A_2
 62
     0
 10
207.07292222222219
 20
114.8532444444445
 30
0.0
  0
VERTEX
  5
104F
  8
IMPORT_-_CARRO\\U+00C7A_2
 62
     0
 10
207.53082777777789
 20
114.9629583333334
 30
0.0
  0
VERTEX
  5
1050
  8
IMPORT_-_CARRO\\U+00C7A_2
 62
     0
 10
208.00002222222221
 20
115.0
 30
0.0
  0
VERTEX
  5
1051
  8
IMPORT_-_CARRO\\U+00C7A_2
 62
     0
 10
304.46146111111108
 20
115.0
 30
0.0
  0
VERTEX
  5
1052
  8
IMPORT_-_CARRO\\U+00C7A_2
 62
     0
 10
304.93065555555552
 20
114.9629583333334
 30
0.0
  0
VERTEX
  5
1053
  8
IMPORT_-_CARRO\\U+00C7A_2
 62
     0
 10
305.38856111111107
 20
114.8532444444445
 30
0.0
  0
VERTEX
  5
1054
  8
IMPORT_-_CARRO\\U+00C7A_2
 62
     0
 10
305.82353611111108
 20
114.67297500000009
 30
0.0
  0
VERTEX
  5
1055
  8
IMPORT_-_CARRO\\U+00C7A_2
 62
     0
 10
306.22464444444449
 20
114.427088888889
 30
0.0
  0
SEQEND
  5
1056
  8
IMPORT_-_CARRO\\U+00C7A_2
 62
     0
  0
POLYLINE
  5
69
  8
IMPORT_-_CARRO\\U+00C7A_2
 62
     0
 66
     1
 10
0.0
 20
0.0
 30
0.0
 70
     1
  0
VERTEX
  5
1057
  8
IMPORT_-_CARRO\\U+00C7A_2
 62
     0
 10
264.49981666666667
 20
207.5
 30
0.0
  0
VERTEX
  5
1058
  8
IMPORT_-_CARRO\\U+00C7A_2
 62
     0
 10
352.7962138888887
 20
207.5
 30
0.0
  0
VERTEX
  5
1059
  8
IMPORT_-_CARRO\\U+00C7A_2
 62
     0
 10
352.7962138888887
 20
199.49406111111111
 30
0.0
  0
VERTEX
  5
105A
  8
IMPORT_-_CARRO\\U+00C7A_2
 62
     0
 10
355.79623611111123
 20
199.49406111111111
 30
0.0
  0
VERTEX
  5
105B
  8
IMPORT_-_CARRO\\U+00C7A_2
 62
     0
 10
355.79623611111123
 20
207.5
 30
0.0
  0
VERTEX
  5
105C
  8
IMPORT_-_CARRO\\U+00C7A_2
 62
     0
 10
356.83163888888879
 20
207.36382777777769
 30
0.0
  0
VERTEX
  5
105D
  8
IMPORT_-_CARRO\\U+00C7A_2
 62
     0
 10
357.79648611111122
 20
206.96413055555561
 30
0.0
  0
VERTEX
  5
105E
  8
IMPORT_-_CARRO\\U+00C7A_2
 62
     0
 10
358.62480833333319
 20
206.3284249999999
 30
0.0
  0
VERTEX
  5
105F
  8
IMPORT_-_CARRO\\U+00C7A_2
 62
     0
 10
359.2605138888888
 20
205.5001027777777
 30
0.0
  0
VERTEX
  5
1060
  8
IMPORT_-_CARRO\\U+00C7A_2
 62
     0
 10
359.66021111111098
 20
204.53525555555549
 30
0.0
  0
VERTEX
  5
1061
  8
IMPORT_-_CARRO\\U+00C7A_2
 62
     0
 10
359.79638333333332
 20
203.5002055555556
 30
0.0
  0
VERTEX
  5
1062
  8
IMPORT_-_CARRO\\U+00C7A_2
 62
     0
 10
359.79638333333332
 20
195.48756388888879
 30
0.0
  0
VERTEX
  5
1063
  8
IMPORT_-_CARRO\\U+00C7A_2
 62
     0
 10
359.66021111111098
 20
194.4525138888888
 30
0.0
  0
VERTEX
  5
1064
  8
IMPORT_-_CARRO\\U+00C7A_2
 62
     0
 10
359.2605138888888
 20
193.4876666666666
 30
0.0
  0
VERTEX
  5
1065
  8
IMPORT_-_CARRO\\U+00C7A_2
 62
     0
 10
358.62480833333319
 20
192.6593444444444
 30
0.0
  0
VERTEX
  5
1066
  8
IMPORT_-_CARRO\\U+00C7A_2
 62
     0
 10
357.79648611111122
 20
192.02363888888891
 30
0.0
  0
VERTEX
  5
1067
  8
IMPORT_-_CARRO\\U+00C7A_2
 62
     0
 10
356.83163888888879
 20
191.62394166666661
 30
0.0
  0
VERTEX
  5
1068
  8
IMPORT_-_CARRO\\U+00C7A_2
 62
     0
 10
355.79623611111123
 20
191.4877694444443
 30
0.0
  0
VERTEX
  5
1069
  8
IMPORT_-_CARRO\\U+00C7A_2
 62
     0
 10
326.38127222222221
 20
191.4877694444443
 30
0.0
  0
VERTEX
  5
106A
  8
IMPORT_-_CARRO\\U+00C7A_2
 62
     0
 10
326.38127222222221
 20
187.43011944444439
 30
0.0
  0
VERTEX
  5
106B
  8
IMPORT_-_CARRO\\U+00C7A_2
 62
     0
 10
356.79636111111108
 20
187.43011944444439
 30
0.0
  0
VERTEX
  5
106C
  8
IMPORT_-_CARRO\\U+00C7A_2
 62
     0
 10
357.57282500000002
 20
187.32781388888881
 30
0.0
  0
VERTEX
  5
106D
  8
IMPORT_-_CARRO\\U+00C7A_2
 62
     0
 10
358.2963722222222
 20
187.02830555555559
 30
0.0
  0
VERTEX
  5
106E
  8
IMPORT_-_CARRO\\U+00C7A_2
 62
     0
 10
358.91761388888881
 20
186.55135000000001
 30
0.0
  0
VERTEX
  5
106F
  8
IMPORT_-_CARRO\\U+00C7A_2
 62
     0
 10
359.39421666666658
 20
185.93010833333341
 30
0.0
  0
VERTEX
  5
1070
  8
IMPORT_-_CARRO\\U+00C7A_2
 62
     0
 10
359.69407777777769
 20
185.20656111111111
 30
0.0
  0
VERTEX
  5
1071
  8
IMPORT_-_CARRO\\U+00C7A_2
 62
     0
 10
359.79638333333332
 20
184.43009722222209
 30
0.0
  0
VERTEX
  5
1072
  8
IMPORT_-_CARRO\\U+00C7A_2
 62
     0
 10
359.79638333333332
 20
183.30120833333331
 30
0.0
  0
VERTEX
  5
1073
  8
IMPORT_-_CARRO\\U+00C7A_2
 62
     0
 10
359.69407777777769
 20
182.52474444444439
 30
0.0
  0
VERTEX
  5
1074
  8
IMPORT_-_CARRO\\U+00C7A_2
 62
     0
 10
359.39421666666658
 20
181.80084444444449
 30
0.0
  0
VERTEX
  5
1075
  8
IMPORT_-_CARRO\\U+00C7A_2
 62
     0
 10
358.91761388888881
 20
181.1796027777776
 30
0.0
  0
VERTEX
  5
1076
  8
IMPORT_-_CARRO\\U+00C7A_2
 62
     0
 10
358.2963722222222
 20
180.703
 30
0.0
  0
VERTEX
  5
1077
  8
IMPORT_-_CARRO\\U+00C7A_2
 62
     0
 10
357.57282500000002
 20
180.40313888888889
 30
0.0
  0
VERTEX
  5
1078
  8
IMPORT_-_CARRO\\U+00C7A_2
 62
     0
 10
356.79636111111108
 20
180.30118611111109
 30
0.0
  0
VERTEX
  5
1079
  8
IMPORT_-_CARRO\\U+00C7A_2
 62
     0
 10
326.38127222222221
 20
180.30118611111109
 30
0.0
  0
VERTEX
  5
107A
  8
IMPORT_-_CARRO\\U+00C7A_2
 62
     0
 10
326.38127222222221
 20
176.00082499999999
 30
0.0
  0
VERTEX
  5
107B
  8
IMPORT_-_CARRO\\U+00C7A_2
 62
     0
 10
356.79636111111108
 20
176.00082499999999
 30
0.0
  0
VERTEX
  5
107C
  8
IMPORT_-_CARRO\\U+00C7A_2
 62
     0
 10
357.57282500000002
 20
175.8988722222222
 30
0.0
  0
VERTEX
  5
107D
  8
IMPORT_-_CARRO\\U+00C7A_2
 62
     0
 10
358.2963722222222
 20
175.59901111111111
 30
0.0
  0
VERTEX
  5
107E
  8
IMPORT_-_CARRO\\U+00C7A_2
 62
     0
 10
358.91761388888881
 20
175.12240833333331
 30
0.0
  0
VERTEX
  5
107F
  8
IMPORT_-_CARRO\\U+00C7A_2
 62
     0
 10
359.39421666666658
 20
174.50116666666671
 30
0.0
  0
VERTEX
  5
1080
  8
IMPORT_-_CARRO\\U+00C7A_2
 62
     0
 10
359.69407777777769
 20
173.77726666666661
 30
0.0
  0
VERTEX
  5
1081
  8
IMPORT_-_CARRO\\U+00C7A_2
 62
     0
 10
359.79638333333332
 20
173.00115555555541
 30
0.0
  0
VERTEX
  5
1082
  8
IMPORT_-_CARRO\\U+00C7A_2
 62
     0
 10
359.79638333333332
 20
171.85886111111111
 30
0.0
  0
VERTEX
  5
1083
  8
IMPORT_-_CARRO\\U+00C7A_2
 62
     0
 10
359.69407777777769
 20
171.0823972222222
 30
0.0
  0
VERTEX
  5
1084
  8
IMPORT_-_CARRO\\U+00C7A_2
 62
     0
 10
359.39421666666658
 20
170.35884999999999
 30
0.0
  0
VERTEX
  5
1085
  8
IMPORT_-_CARRO\\U+00C7A_2
 62
     0
 10
358.91761388888881
 20
169.73725555555549
 30
0.0
  0
VERTEX
  5
1086
  8
IMPORT_-_CARRO\\U+00C7A_2
 62
     0
 10
358.2963722222222
 20
169.26065277777781
 30
0.0
  0
VERTEX
  5
1087
  8
IMPORT_-_CARRO\\U+00C7A_2
 62
     0
 10
357.57282500000002
 20
168.96079166666661
 30
0.0
  0
VERTEX
  5
1088
  8
IMPORT_-_CARRO\\U+00C7A_2
 62
     0
 10
356.79636111111108
 20
168.85883888888881
 30
0.0
  0
VERTEX
  5
1089
  8
IMPORT_-_CARRO\\U+00C7A_2
 62
     0
 10
260.50002222222219
 20
168.85848611111101
 30
0.0
  0
VERTEX
  5
108A
  8
IMPORT_-_CARRO\\U+00C7A_2
 62
     0
 10
259.72320555555552
 20
168.96079166666661
 30
0.0
  0
VERTEX
  5
108B
  8
IMPORT_-_CARRO\\U+00C7A_2
 62
     0
 10
259.00001111111112
 20
169.26065277777781
 30
0.0
  0
VERTEX
  5
108C
  8
IMPORT_-_CARRO\\U+00C7A_2
 62
     0
 10
258.37841666666662
 20
169.73725555555549
 30
0.0
  0
VERTEX
  5
108D
  8
IMPORT_-_CARRO\\U+00C7A_2
 62
     0
 10
257.90181388888891
 20
170.3584972222221
 30
0.0
  0
VERTEX
  5
108E
  8
IMPORT_-_CARRO\\U+00C7A_2
 62
     0
 10
257.6019527777778
 20
171.08204444444451
 30
0.0
  0
VERTEX
  5
108F
  8
IMPORT_-_CARRO\\U+00C7A_2
 62
     0
 10
257.5
 20
171.85850833333339
 30
0.0
  0
VERTEX
  5
1090
  8
IMPORT_-_CARRO\\U+00C7A_2
 62
     0
 10
257.5
 20
173.00080277777769
 30
0.0
  0
VERTEX
  5
1091
  8
IMPORT_-_CARRO\\U+00C7A_2
 62
     0
 10
257.6019527777778
 20
173.77726666666661
 30
0.0
  0
VERTEX
  5
1092
  8
IMPORT_-_CARRO\\U+00C7A_2
 62
     0
 10
257.90181388888891
 20
174.50081388888881
 30
0.0
  0
VERTEX
  5
1093
  8
IMPORT_-_CARRO\\U+00C7A_2
 62
     0
 10
258.37841666666662
 20
175.12240833333331
 30
0.0
  0
VERTEX
  5
1094
  8
IMPORT_-_CARRO\\U+00C7A_2
 62
     0
 10
259.00001111111112
 20
175.59901111111111
 30
0.0
  0
VERTEX
  5
1095
  8
IMPORT_-_CARRO\\U+00C7A_2
 62
     0
 10
259.72320555555552
 20
175.8988722222222
 30
0.0
  0
VERTEX
  5
1096
  8
IMPORT_-_CARRO\\U+00C7A_2
 62
     0
 10
260.50002222222219
 20
176.00082499999999
 30
0.0
  0
VERTEX
  5
1097
  8
IMPORT_-_CARRO\\U+00C7A_2
 62
     0
 10
290.88018611111107
 20
176.00082499999999
 30
0.0
  0
VERTEX
  5
1098
  8
IMPORT_-_CARRO\\U+00C7A_2
 62
     0
 10
290.88018611111107
 20
180.3008333333332
 30
0.0
  0
VERTEX
  5
1099
  8
IMPORT_-_CARRO\\U+00C7A_2
 62
     0
 10
260.50002222222219
 20
180.3008333333332
 30
0.0
  0
VERTEX
  5
109A
  8
IMPORT_-_CARRO\\U+00C7A_2
 62
     0
 10
259.72320555555552
 20
180.40313888888889
 30
0.0
  0
VERTEX
  5
109B
  8
IMPORT_-_CARRO\\U+00C7A_2
 62
     0
 10
259.00001111111112
 20
180.703
 30
0.0
  0
VERTEX
  5
109C
  8
IMPORT_-_CARRO\\U+00C7A_2
 62
     0
 10
258.37841666666662
 20
181.1796027777776
 30
0.0
  0
VERTEX
  5
109D
  8
IMPORT_-_CARRO\\U+00C7A_2
 62
     0
 10
257.90181388888891
 20
181.80084444444449
 30
0.0
  0
VERTEX
  5
109E
  8
IMPORT_-_CARRO\\U+00C7A_2
 62
     0
 10
257.6019527777778
 20
182.52439166666659
 30
0.0
  0
VERTEX
  5
109F
  8
IMPORT_-_CARRO\\U+00C7A_2
 62
     0
 10
257.5
 20
183.30085555555559
 30
0.0
  0
VERTEX
  5
10A0
  8
IMPORT_-_CARRO\\U+00C7A_2
 62
     0
 10
257.5
 20
184.43009722222209
 30
0.0
  0
VERTEX
  5
10A1
  8
IMPORT_-_CARRO\\U+00C7A_2
 62
     0
 10
257.6019527777778
 20
185.20656111111111
 30
0.0
  0
VERTEX
  5
10A2
  8
IMPORT_-_CARRO\\U+00C7A_2
 62
     0
 10
257.90181388888891
 20
185.93010833333341
 30
0.0
  0
VERTEX
  5
10A3
  8
IMPORT_-_CARRO\\U+00C7A_2
 62
     0
 10
258.37841666666662
 20
186.55135000000001
 30
0.0
  0
VERTEX
  5
10A4
  8
IMPORT_-_CARRO\\U+00C7A_2
 62
     0
 10
259.00001111111112
 20
187.02830555555559
 30
0.0
  0
VERTEX
  5
10A5
  8
IMPORT_-_CARRO\\U+00C7A_2
 62
     0
 10
259.72320555555552
 20
187.32781388888881
 30
0.0
  0
VERTEX
  5
10A6
  8
IMPORT_-_CARRO\\U+00C7A_2
 62
     0
 10
260.50002222222219
 20
187.43011944444439
 30
0.0
  0
VERTEX
  5
10A7
  8
IMPORT_-_CARRO\\U+00C7A_2
 62
     0
 10
290.88018611111107
 20
187.43011944444439
 30
0.0
  0
VERTEX
  5
10A8
  8
IMPORT_-_CARRO\\U+00C7A_2
 62
     0
 10
290.88018611111107
 20
191.4877694444443
 30
0.0
  0
VERTEX
  5
10A9
  8
IMPORT_-_CARRO\\U+00C7A_2
 62
     0
 10
261.49979444444438
 20
191.4877694444443
 30
0.0
  0
VERTEX
  5
10AA
  8
IMPORT_-_CARRO\\U+00C7A_2
 62
     0
 10
260.46474444444442
 20
191.62394166666661
 30
0.0
  0
VERTEX
  5
10AB
  8
IMPORT_-_CARRO\\U+00C7A_2
 62
     0
 10
259.49989722222222
 20
192.02363888888891
 30
0.0
  0
VERTEX
  5
10AC
  8
IMPORT_-_CARRO\\U+00C7A_2
 62
     0
 10
258.67157500000002
 20
192.6593444444444
 30
0.0
  0
VERTEX
  5
10AD
  8
IMPORT_-_CARRO\\U+00C7A_2
 62
     0
 10
258.03586944444442
 20
193.4876666666666
 30
0.0
  0
VERTEX
  5
10AE
  8
IMPORT_-_CARRO\\U+00C7A_2
 62
     0
 10
257.63617222222223
 20
194.4525138888888
 30
0.0
  0
VERTEX
  5
10AF
  8
IMPORT_-_CARRO\\U+00C7A_2
 62
     0
 10
257.5
 20
195.48756388888879
 30
0.0
  0
VERTEX
  5
10B0
  8
IMPORT_-_CARRO\\U+00C7A_2
 62
     0
 10
257.5
 20
203.5002055555556
 30
0.0
  0
VERTEX
  5
10B1
  8
IMPORT_-_CARRO\\U+00C7A_2
 62
     0
 10
257.63617222222223
 20
204.53525555555549
 30
0.0
  0
VERTEX
  5
10B2
  8
IMPORT_-_CARRO\\U+00C7A_2
 62
     0
 10
258.03586944444442
 20
205.5001027777777
 30
0.0
  0
VERTEX
  5
10B3
  8
IMPORT_-_CARRO\\U+00C7A_2
 62
     0
 10
258.67157500000002
 20
206.3284249999999
 30
0.0
  0
VERTEX
  5
10B4
  8
IMPORT_-_CARRO\\U+00C7A_2
 62
     0
 10
259.49989722222222
 20
206.96413055555561
 30
0.0
  0
VERTEX
  5
10B5
  8
IMPORT_-_CARRO\\U+00C7A_2
 62
     0
 10
260.46474444444442
 20
207.36382777777769
 30
0.0
  0
VERTEX
  5
10B6
  8
IMPORT_-_CARRO\\U+00C7A_2
 62
     0
 10
261.49979444444438
 20
207.5
 30
0.0
  0
VERTEX
  5
10B7
  8
IMPORT_-_CARRO\\U+00C7A_2
 62
     0
 10
261.49979444444438
 20
199.49406111111111
 30
0.0
  0
VERTEX
  5
10B8
  8
IMPORT_-_CARRO\\U+00C7A_2
 62
     0
 10
264.49981666666667
 20
199.49406111111111
 30
0.0
  0
SEQEND
  5
10B9
  8
IMPORT_-_CARRO\\U+00C7A_2
 62
     0
  0
POLYLINE
  5
6A
  8
IMPORT_-_CARRO\\U+00C7A_2
 62
     0
 66
     1
 10
0.0
 20
0.0
 30
0.0
 70
     1
  0
VERTEX
  5
10BA
  8
IMPORT_-_CARRO\\U+00C7A_2
 62
     0
 10
322.381125
 20
191.4877694444443
 30
0.0
  0
VERTEX
  5
10BB
  8
IMPORT_-_CARRO\\U+00C7A_2
 62
     0
 10
294.87998055555562
 20
191.4877694444443
 30
0.0
  0
VERTEX
  5
10BC
  8
IMPORT_-_CARRO\\U+00C7A_2
 62
     0
 10
294.87998055555562
 20
187.43011944444439
 30
0.0
  0
VERTEX
  5
10BD
  8
IMPORT_-_CARRO\\U+00C7A_2
 62
     0
 10
322.381125
 20
187.43011944444439
 30
0.0
  0
SEQEND
  5
10BE
  8
IMPORT_-_CARRO\\U+00C7A_2
 62
     0
  0
POLYLINE
  5
6B
  8
IMPORT_-_CARRO\\U+00C7A_2
 62
     0
 66
     1
 10
0.0
 20
0.0
 30
0.0
 70
     1
  0
VERTEX
  5
10BF
  8
IMPORT_-_CARRO\\U+00C7A_2
 62
     0
 10
322.381125
 20
180.30118611111109
 30
0.0
  0
VERTEX
  5
10C0
  8
IMPORT_-_CARRO\\U+00C7A_2
 62
     0
 10
294.87998055555562
 20
180.3008333333332
 30
0.0
  0
VERTEX
  5
10C1
  8
IMPORT_-_CARRO\\U+00C7A_2
 62
     0
 10
294.87998055555562
 20
176.00082499999999
 30
0.0
  0
VERTEX
  5
10C2
  8
IMPORT_-_CARRO\\U+00C7A_2
 62
     0
 10
322.381125
 20
176.00082499999999
 30
0.0
  0
SEQEND
  5
10C3
  8
IMPORT_-_CARRO\\U+00C7A_2
 62
     0
  0
POLYLINE
  5
6C
  8
IMPORT_-_CARRO\\U+00C7A_2
 62
     0
 66
     1
 10
0.0
 20
0.0
 30
0.0
 70
     1
  0
VERTEX
  5
10C4
  8
IMPORT_-_CARRO\\U+00C7A_2
 62
     0
 10
340.38807222222221
 20
367.61609166666682
 30
0.0
  0
VERTEX
  5
10C5
  8
IMPORT_-_CARRO\\U+00C7A_2
 62
     0
 10
245.8626777777778
 20
367.61609166666682
 30
0.0
  0
VERTEX
  5
10C6
  8
IMPORT_-_CARRO\\U+00C7A_2
 62
     0
 10
245.33668611111111
 20
367.65736666666669
 30
0.0
  0
VERTEX
  5
10C7
  8
IMPORT_-_CARRO\\U+00C7A_2
 62
     0
 10
244.82339444444449
 20
367.78048611111109
 30
0.0
  0
VERTEX
  5
10C8
  8
IMPORT_-_CARRO\\U+00C7A_2
 62
     0
 10
244.33585555555561
 20
367.98262777777779
 30
0.0
  0
VERTEX
  5
10C9
  8
IMPORT_-_CARRO\\U+00C7A_2
 62
     0
 10
243.88606388888891
 20
368.25814722222231
 30
0.0
  0
VERTEX
  5
10CA
  8
IMPORT_-_CARRO\\U+00C7A_2
 62
     0
 10
243.4849555555555
 20
368.60104722222229
 30
0.0
  0
VERTEX
  5
10CB
  8
IMPORT_-_CARRO\\U+00C7A_2
 62
     0
 10
243.14205555555549
 20
369.0021555555557
 30
0.0
  0
VERTEX
  5
10CC
  8
IMPORT_-_CARRO\\U+00C7A_2
 62
     0
 10
242.86653611111109
 20
369.45194722222232
 30
0.0
  0
VERTEX
  5
10CD
  8
IMPORT_-_CARRO\\U+00C7A_2
 62
     0
 10
242.6643944444445
 20
369.93948611111119
 30
0.0
  0
VERTEX
  5
10CE
  8
IMPORT_-_CARRO\\U+00C7A_2
 62
     0
 10
242.54127500000001
 20
370.45277777777778
 30
0.0
  0
VERTEX
  5
10CF
  8
IMPORT_-_CARRO\\U+00C7A_2
 62
     0
 10
242.5
 20
370.97876944444448
 30
0.0
  0
VERTEX
  5
10D0
  8
IMPORT_-_CARRO\\U+00C7A_2
 62
     0
 10
242.5
 20
392.13732222222228
 30
0.0
  0
VERTEX
  5
10D1
  8
IMPORT_-_CARRO\\U+00C7A_2
 62
     0
 10
242.54127500000001
 20
392.66331388888898
 30
0.0
  0
VERTEX
  5
10D2
  8
IMPORT_-_CARRO\\U+00C7A_2
 62
     0
 10
242.6643944444445
 20
393.17660555555562
 30
0.0
  0
VERTEX
  5
10D3
  8
IMPORT_-_CARRO\\U+00C7A_2
 62
     0
 10
242.86653611111109
 20
393.66379166666678
 30
0.0
  0
VERTEX
  5
10D4
  8
IMPORT_-_CARRO\\U+00C7A_2
 62
     0
 10
243.14205555555549
 20
394.11393611111117
 30
0.0
  0
VERTEX
  5
10D5
  8
IMPORT_-_CARRO\\U+00C7A_2
 62
     0
 10
243.4849555555555
 20
394.51504444444453
 30
0.0
  0
VERTEX
  5
10D6
  8
IMPORT_-_CARRO\\U+00C7A_2
 62
     0
 10
243.88606388888891
 20
394.85794444444451
 30
0.0
  0
VERTEX
  5
10D7
  8
IMPORT_-_CARRO\\U+00C7A_2
 62
     0
 10
244.33585555555561
 20
395.13346388888903
 30
0.0
  0
VERTEX
  5
10D8
  8
IMPORT_-_CARRO\\U+00C7A_2
 62
     0
 10
244.82339444444449
 20
395.3352527777779
 30
0.0
  0
VERTEX
  5
10D9
  8
IMPORT_-_CARRO\\U+00C7A_2
 62
     0
 10
245.33668611111111
 20
395.45872500000007
 30
0.0
  0
VERTEX
  5
10DA
  8
IMPORT_-_CARRO\\U+00C7A_2
 62
     0
 10
245.8626777777778
 20
395.50000000000023
 30
0.0
  0
VERTEX
  5
10DB
  8
IMPORT_-_CARRO\\U+00C7A_2
 62
     0
 10
245.8626777777778
 20
387.45313888888899
 30
0.0
  0
VERTEX
  5
10DC
  8
IMPORT_-_CARRO\\U+00C7A_2
 62
     0
 10
248.8845722222222
 20
387.45313888888899
 30
0.0
  0
VERTEX
  5
10DD
  8
IMPORT_-_CARRO\\U+00C7A_2
 62
     0
 10
248.8845722222222
 20
395.50000000000023
 30
0.0
  0
VERTEX
  5
10DE
  8
IMPORT_-_CARRO\\U+00C7A_2
 62
     0
 10
337.36582499999997
 20
395.50000000000023
 30
0.0
  0
VERTEX
  5
10DF
  8
IMPORT_-_CARRO\\U+00C7A_2
 62
     0
 10
337.36582499999997
 20
387.45313888888899
 30
0.0
  0
VERTEX
  5
10E0
  8
IMPORT_-_CARRO\\U+00C7A_2
 62
     0
 10
340.38807222222221
 20
387.45313888888899
 30
0.0
  0
VERTEX
  5
10E1
  8
IMPORT_-_CARRO\\U+00C7A_2
 62
     0
 10
340.38807222222221
 20
395.50000000000023
 30
0.0
  0
VERTEX
  5
10E2
  8
IMPORT_-_CARRO\\U+00C7A_2
 62
     0
 10
340.9140638888889
 20
395.45872500000007
 30
0.0
  0
VERTEX
  5
10E3
  8
IMPORT_-_CARRO\\U+00C7A_2
 62
     0
 10
341.42700277777777
 20
395.3352527777779
 30
0.0
  0
VERTEX
  5
10E4
  8
IMPORT_-_CARRO\\U+00C7A_2
 62
     0
 10
341.91454166666671
 20
395.13346388888903
 30
0.0
  0
VERTEX
  5
10E5
  8
IMPORT_-_CARRO\\U+00C7A_2
 62
     0
 10
342.36433333333332
 20
394.85794444444451
 30
0.0
  0
VERTEX
  5
10E6
  8
IMPORT_-_CARRO\\U+00C7A_2
 62
     0
 10
342.7657944444444
 20
394.51504444444453
 30
0.0
  0
VERTEX
  5
10E7
  8
IMPORT_-_CARRO\\U+00C7A_2
 62
     0
 10
343.10834166666672
 20
394.11393611111117
 30
0.0
  0
VERTEX
  5
10E8
  8
IMPORT_-_CARRO\\U+00C7A_2
 62
     0
 10
343.38421388888889
 20
393.66379166666678
 30
0.0
  0
VERTEX
  5
10E9
  8
IMPORT_-_CARRO\\U+00C7A_2
 62
     0
 10
343.58600277777782
 20
393.17660555555562
 30
0.0
  0
VERTEX
  5
10EA
  8
IMPORT_-_CARRO\\U+00C7A_2
 62
     0
 10
343.70912222222222
 20
392.66331388888898
 30
0.0
  0
VERTEX
  5
10EB
  8
IMPORT_-_CARRO\\U+00C7A_2
 62
     0
 10
343.75074999999998
 20
392.13732222222228
 30
0.0
  0
VERTEX
  5
10EC
  8
IMPORT_-_CARRO\\U+00C7A_2
 62
     0
 10
343.75074999999998
 20
370.97876944444448
 30
0.0
  0
VERTEX
  5
10ED
  8
IMPORT_-_CARRO\\U+00C7A_2
 62
     0
 10
343.70912222222222
 20
370.45277777777778
 30
0.0
  0
VERTEX
  5
10EE
  8
IMPORT_-_CARRO\\U+00C7A_2
 62
     0
 10
343.58600277777782
 20
369.93948611111119
 30
0.0
  0
VERTEX
  5
10EF
  8
IMPORT_-_CARRO\\U+00C7A_2
 62
     0
 10
343.38421388888889
 20
369.45194722222232
 30
0.0
  0
VERTEX
  5
10F0
  8
IMPORT_-_CARRO\\U+00C7A_2
 62
     0
 10
343.10834166666672
 20
369.0021555555557
 30
0.0
  0
VERTEX
  5
10F1
  8
IMPORT_-_CARRO\\U+00C7A_2
 62
     0
 10
342.7657944444444
 20
368.60104722222229
 30
0.0
  0
VERTEX
  5
10F2
  8
IMPORT_-_CARRO\\U+00C7A_2
 62
     0
 10
342.36433333333332
 20
368.25814722222231
 30
0.0
  0
VERTEX
  5
10F3
  8
IMPORT_-_CARRO\\U+00C7A_2
 62
     0
 10
341.91454166666671
 20
367.98262777777779
 30
0.0
  0
VERTEX
  5
10F4
  8
IMPORT_-_CARRO\\U+00C7A_2
 62
     0
 10
341.42700277777777
 20
367.78048611111109
 30
0.0
  0
VERTEX
  5
10F5
  8
IMPORT_-_CARRO\\U+00C7A_2
 62
     0
 10
340.9140638888889
 20
367.65736666666669
 30
0.0
  0
SEQEND
  5
10F6
  8
IMPORT_-_CARRO\\U+00C7A_2
 62
     0
  0
POLYLINE
  5
6D
  8
IMPORT_-_CARRO\\U+00C7A_2
 62
     0
 66
     1
 10
0.0
 20
0.0
 30
0.0
 70
     1
  0
VERTEX
  5
10F7
  8
IMPORT_-_CARRO\\U+00C7A_2
 62
     0
 10
291.50117499999999
 20
244.3497888888889
 30
0.0
  0
VERTEX
  5
10F8
  8
IMPORT_-_CARRO\\U+00C7A_2
 62
     0
 10
288.50115277777769
 20
244.3497888888889
 30
0.0
  0
VERTEX
  5
10F9
  8
IMPORT_-_CARRO\\U+00C7A_2
 62
     0
 10
287.1359027777778
 20
244.81968888888881
 30
0.0
  0
VERTEX
  5
10FA
  8
IMPORT_-_CARRO\\U+00C7A_2
 62
     0
 10
285.7643027777778
 20
245.26983333333331
 30
0.0
  0
VERTEX
  5
10FB
  8
IMPORT_-_CARRO\\U+00C7A_2
 62
     0
 10
284.38600000000002
 20
245.70092777777771
 30
0.0
  0
VERTEX
  5
10FC
  8
IMPORT_-_CARRO\\U+00C7A_2
 62
     0
 10
283.00205277777781
 20
246.11191388888889
 30
0.0
  0
VERTEX
  5
10FD
  8
IMPORT_-_CARRO\\U+00C7A_2
 62
     0
 10
281.61210833333331
 20
246.50314444444439
 30
0.0
  0
VERTEX
  5
10FE
  8
IMPORT_-_CARRO\\U+00C7A_2
 62
     0
 10
280.21687222222232
 20
246.87461944444439
 30
0.0
  0
VERTEX
  5
10FF
  8
IMPORT_-_CARRO\\U+00C7A_2
 62
     0
 10
278.81669722222222
 20
247.2263388888889
 30
0.0
  0
VERTEX
  5
1100
  8
IMPORT_-_CARRO\\U+00C7A_2
 62
     0
 10
277.41123055555562
 20
247.5575972222222
 30
0.0
  0
VERTEX
  5
1101
  8
IMPORT_-_CARRO\\U+00C7A_2
 62
     0
 10
276.00153055555558
 20
247.86909999999989
 30
0.0
  0
VERTEX
  5
1102
  8
IMPORT_-_CARRO\\U+00C7A_2
 62
     0
 10
274.58724444444448
 20
248.1604944444444
 30
0.0
  0
VERTEX
  5
1103
  8
IMPORT_-_CARRO\\U+00C7A_2
 62
     0
 10
273.16907777777777
 20
248.43178055555549
 30
0.0
  0
VERTEX
  5
1104
  8
IMPORT_-_CARRO\\U+00C7A_2
 62
     0
 10
271.74738333333329
 20
248.68260555555551
 30
0.0
  0
VERTEX
  5
1105
  8
IMPORT_-_CARRO\\U+00C7A_2
 62
     0
 10
270.32180833333342
 20
248.9129694444444
 30
0.0
  0
VERTEX
  5
1106
  8
IMPORT_-_CARRO\\U+00C7A_2
 62
     0
 10
268.89341111111122
 20
249.12322499999999
 30
0.0
  0
VERTEX
  5
1107
  8
IMPORT_-_CARRO\\U+00C7A_2
 62
     0
 10
267.46219166666668
 20
249.31301944444439
 30
0.0
  0
VERTEX
  5
1108
  8
IMPORT_-_CARRO\\U+00C7A_2
 62
     0
 10
266.02814999999998
 20
249.48235277777769
 30
0.0
  0
VERTEX
  5
1109
  8
IMPORT_-_CARRO\\U+00C7A_2
 62
     0
 10
264.59199166666667
 20
249.631225
 30
0.0
  0
VERTEX
  5
110A
  8
IMPORT_-_CARRO\\U+00C7A_2
 62
     0
 10
263.15406944444447
 20
249.75963611111109
 30
0.0
  0
VERTEX
  5
110B
  8
IMPORT_-_CARRO\\U+00C7A_2
 62
     0
 10
261.71438333333339
 20
249.86758611111111
 30
0.0
  0
VERTEX
  5
110C
  8
IMPORT_-_CARRO\\U+00C7A_2
 62
     0
 10
260.27293333333341
 20
249.95507499999999
 30
0.0
  0
VERTEX
  5
110D
  8
IMPORT_-_CARRO\\U+00C7A_2
 62
     0
 10
258.83077777777783
 20
250.02175
 30
0.0
  0
VERTEX
  5
110E
  8
IMPORT_-_CARRO\\U+00C7A_2
 62
     0
 10
257.38756388888891
 20
250.06796388888881
 30
0.0
  0
VERTEX
  5
110F
  8
IMPORT_-_CARRO\\U+00C7A_2
 62
     0
 10
255.94399722222221
 20
250.09371666666661
 30
0.0
  0
VERTEX
  5
1110
  8
IMPORT_-_CARRO\\U+00C7A_2
 62
     0
 10
254.50007777777779
 20
250.09865555555561
 30
0.0
  0
VERTEX
  5
1111
  8
IMPORT_-_CARRO\\U+00C7A_2
 62
     0
 10
254.50007777777779
 20
253.09867777777779
 30
0.0
  0
VERTEX
  5
1112
  8
IMPORT_-_CARRO\\U+00C7A_2
 62
     0
 10
251.00016944444451
 20
253.09867777777779
 30
0.0
  0
VERTEX
  5
1113
  8
IMPORT_-_CARRO\\U+00C7A_2
 62
     0
 10
251.00016944444451
 20
259.79581111111099
 30
0.0
  0
VERTEX
  5
1114
  8
IMPORT_-_CARRO\\U+00C7A_2
 62
     0
 10
248.0001472222223
 20
259.79581111111099
 30
0.0
  0
VERTEX
  5
1115
  8
IMPORT_-_CARRO\\U+00C7A_2
 62
     0
 10
248.0001472222223
 20
253.09867777777779
 30
0.0
  0
VERTEX
  5
1116
  8
IMPORT_-_CARRO\\U+00C7A_2
 62
     0
 10
247.37431944444441
 20
253.14806666666669
 30
0.0
  0
VERTEX
  5
1117
  8
IMPORT_-_CARRO\\U+00C7A_2
 62
     0
 10
246.76401388888891
 20
253.29446944444439
 30
0.0
  0
VERTEX
  5
1118
  8
IMPORT_-_CARRO\\U+00C7A_2
 62
     0
 10
246.18404722222229
 20
253.53471111111111
 30
0.0
  0
VERTEX
  5
1119
  8
IMPORT_-_CARRO\\U+00C7A_2
 62
     0
 10
245.64888333333329
 20
253.8627944444444
 30
0.0
  0
VERTEX
  5
111A
  8
IMPORT_-_CARRO\\U+00C7A_2
 62
     0
 10
245.17157499999999
 20
254.2702527777777
 30
0.0
  0
VERTEX
  5
111B
  8
IMPORT_-_CARRO\\U+00C7A_2
 62
     0
 10
244.76411666666669
 20
254.74756111111111
 30
0.0
  0
VERTEX
  5
111C
  8
IMPORT_-_CARRO\\U+00C7A_2
 62
     0
 10
244.43603333333331
 20
255.282725
 30
0.0
  0
VERTEX
  5
111D
  8
IMPORT_-_CARRO\\U+00C7A_2
 62
     0
 10
244.19579166666671
 20
255.86269166666659
 30
0.0
  0
VERTEX
  5
111E
  8
IMPORT_-_CARRO\\U+00C7A_2
 62
     0
 10
244.0493888888889
 20
256.4729972222222
 30
0.0
  0
VERTEX
  5
111F
  8
IMPORT_-_CARRO\\U+00C7A_2
 62
     0
 10
244.0
 20
257.09882499999998
 30
0.0
  0
VERTEX
  5
1120
  8
IMPORT_-_CARRO\\U+00C7A_2
 62
     0
 10
244.0
 20
262.49985277777768
 30
0.0
  0
VERTEX
  5
1121
  8
IMPORT_-_CARRO\\U+00C7A_2
 62
     0
 10
244.0493888888889
 20
263.1256805555555
 30
0.0
  0
VERTEX
  5
1122
  8
IMPORT_-_CARRO\\U+00C7A_2
 62
     0
 10
244.19579166666671
 20
263.73598611111112
 30
0.0
  0
VERTEX
  5
1123
  8
IMPORT_-_CARRO\\U+00C7A_2
 62
     0
 10
244.43603333333331
 20
264.31595277777768
 30
0.0
  0
VERTEX
  5
1124
  8
IMPORT_-_CARRO\\U+00C7A_2
 62
     0
 10
244.76411666666669
 20
264.85111666666671
 30
0.0
  0
VERTEX
  5
1125
  8
IMPORT_-_CARRO\\U+00C7A_2
 62
     0
 10
245.17157499999999
 20
265.32842499999992
 30
0.0
  0
VERTEX
  5
1126
  8
IMPORT_-_CARRO\\U+00C7A_2
 62
     0
 10
245.64888333333329
 20
265.73588333333328
 30
0.0
  0
VERTEX
  5
1127
  8
IMPORT_-_CARRO\\U+00C7A_2
 62
     0
 10
246.18404722222229
 20
266.0639666666666
 30
0.0
  0
VERTEX
  5
1128
  8
IMPORT_-_CARRO\\U+00C7A_2
 62
     0
 10
246.76401388888891
 20
266.30420833333329
 30
0.0
  0
VERTEX
  5
1129
  8
IMPORT_-_CARRO\\U+00C7A_2
 62
     0
 10
247.37431944444441
 20
266.45061111111107
 30
0.0
  0
VERTEX
  5
112A
  8
IMPORT_-_CARRO\\U+00C7A_2
 62
     0
 10
248.0001472222223
 20
266.5
 30
0.0
  0
VERTEX
  5
112B
  8
IMPORT_-_CARRO\\U+00C7A_2
 62
     0
 10
368.50339166666657
 20
266.5
 30
0.0
  0
VERTEX
  5
112C
  8
IMPORT_-_CARRO\\U+00C7A_2
 62
     0
 10
369.12921944444429
 20
266.45061111111107
 30
0.0
  0
VERTEX
  5
112D
  8
IMPORT_-_CARRO\\U+00C7A_2
 62
     0
 10
369.73952500000001
 20
266.30420833333329
 30
0.0
  0
VERTEX
  5
112E
  8
IMPORT_-_CARRO\\U+00C7A_2
 62
     0
 10
370.3191388888888
 20
266.0639666666666
 30
0.0
  0
VERTEX
  5
112F
  8
IMPORT_-_CARRO\\U+00C7A_2
 62
     0
 10
370.85430277777778
 20
265.73588333333328
 30
0.0
  0
VERTEX
  5
1130
  8
IMPORT_-_CARRO\\U+00C7A_2
 62
     0
 10
371.33161111111121
 20
265.32842499999992
 30
0.0
  0
VERTEX
  5
1131
  8
IMPORT_-_CARRO\\U+00C7A_2
 62
     0
 10
371.73942222222217
 20
264.85111666666671
 30
0.0
  0
VERTEX
  5
1132
  8
IMPORT_-_CARRO\\U+00C7A_2
 62
     0
 10
372.06750555555561
 20
264.31595277777768
 30
0.0
  0
VERTEX
  5
1133
  8
IMPORT_-_CARRO\\U+00C7A_2
 62
     0
 10
372.30774722222219
 20
263.73598611111112
 30
0.0
  0
VERTEX
  5
1134
  8
IMPORT_-_CARRO\\U+00C7A_2
 62
     0
 10
372.45415000000003
 20
263.1256805555555
 30
0.0
  0
VERTEX
  5
1135
  8
IMPORT_-_CARRO\\U+00C7A_2
 62
     0
 10
372.50353888888878
 20
262.49985277777768
 30
0.0
  0
VERTEX
  5
1136
  8
IMPORT_-_CARRO\\U+00C7A_2
 62
     0
 10
372.50353888888878
 20
257.09882499999998
 30
0.0
  0
VERTEX
  5
1137
  8
IMPORT_-_CARRO\\U+00C7A_2
 62
     0
 10
372.45415000000003
 20
256.4729972222222
 30
0.0
  0
VERTEX
  5
1138
  8
IMPORT_-_CARRO\\U+00C7A_2
 62
     0
 10
372.30774722222219
 20
255.86269166666659
 30
0.0
  0
VERTEX
  5
1139
  8
IMPORT_-_CARRO\\U+00C7A_2
 62
     0
 10
372.06750555555561
 20
255.282725
 30
0.0
  0
VERTEX
  5
113A
  8
IMPORT_-_CARRO\\U+00C7A_2
 62
     0
 10
371.73942222222217
 20
254.74756111111111
 30
0.0
  0
VERTEX
  5
113B
  8
IMPORT_-_CARRO\\U+00C7A_2
 62
     0
 10
371.33161111111121
 20
254.2702527777777
 30
0.0
  0
VERTEX
  5
113C
  8
IMPORT_-_CARRO\\U+00C7A_2
 62
     0
 10
370.85430277777778
 20
253.8627944444444
 30
0.0
  0
VERTEX
  5
113D
  8
IMPORT_-_CARRO\\U+00C7A_2
 62
     0
 10
370.3191388888888
 20
253.53471111111111
 30
0.0
  0
VERTEX
  5
113E
  8
IMPORT_-_CARRO\\U+00C7A_2
 62
     0
 10
369.73952500000001
 20
253.29446944444439
 30
0.0
  0
VERTEX
  5
113F
  8
IMPORT_-_CARRO\\U+00C7A_2
 62
     0
 10
369.12921944444429
 20
253.14806666666669
 30
0.0
  0
VERTEX
  5
1140
  8
IMPORT_-_CARRO\\U+00C7A_2
 62
     0
 10
368.50339166666657
 20
253.09867777777779
 30
0.0
  0
VERTEX
  5
1141
  8
IMPORT_-_CARRO\\U+00C7A_2
 62
     0
 10
368.50339166666657
 20
259.79581111111099
 30
0.0
  0
VERTEX
  5
1142
  8
IMPORT_-_CARRO\\U+00C7A_2
 62
     0
 10
365.50336944444427
 20
259.79581111111099
 30
0.0
  0
VERTEX
  5
1143
  8
IMPORT_-_CARRO\\U+00C7A_2
 62
     0
 10
365.50336944444427
 20
253.09867777777779
 30
0.0
  0
VERTEX
  5
1144
  8
IMPORT_-_CARRO\\U+00C7A_2
 62
     0
 10
362.00346111111122
 20
253.09867777777779
 30
0.0
  0
VERTEX
  5
1145
  8
IMPORT_-_CARRO\\U+00C7A_2
 62
     0
 10
362.00346111111122
 20
250.09865555555561
 30
0.0
  0
VERTEX
  5
1146
  8
IMPORT_-_CARRO\\U+00C7A_2
 62
     0
 10
360.55954166666669
 20
250.09371666666661
 30
0.0
  0
VERTEX
  5
1147
  8
IMPORT_-_CARRO\\U+00C7A_2
 62
     0
 10
359.11597499999999
 20
250.06796388888881
 30
0.0
  0
VERTEX
  5
1148
  8
IMPORT_-_CARRO\\U+00C7A_2
 62
     0
 10
357.67276111111107
 20
250.02175
 30
0.0
  0
VERTEX
  5
1149
  8
IMPORT_-_CARRO\\U+00C7A_2
 62
     0
 10
356.23060555555548
 20
249.95507499999999
 30
0.0
  0
VERTEX
  5
114A
  8
IMPORT_-_CARRO\\U+00C7A_2
 62
     0
 10
354.78915555555562
 20
249.86758611111111
 30
0.0
  0
VERTEX
  5
114B
  8
IMPORT_-_CARRO\\U+00C7A_2
 62
     0
 10
353.34946944444448
 20
249.75963611111109
 30
0.0
  0
VERTEX
  5
114C
  8
IMPORT_-_CARRO\\U+00C7A_2
 62
     0
 10
351.91119444444428
 20
249.631225
 30
0.0
  0
VERTEX
  5
114D
  8
IMPORT_-_CARRO\\U+00C7A_2
 62
     0
 10
350.47503611111108
 20
249.48235277777769
 30
0.0
  0
VERTEX
  5
114E
  8
IMPORT_-_CARRO\\U+00C7A_2
 62
     0
 10
349.04134722222221
 20
249.31301944444439
 30
0.0
  0
VERTEX
  5
114F
  8
IMPORT_-_CARRO\\U+00C7A_2
 62
     0
 10
347.61012777777779
 20
249.12322499999999
 30
0.0
  0
VERTEX
  5
1150
  8
IMPORT_-_CARRO\\U+00C7A_2
 62
     0
 10
346.18137777777781
 20
248.9129694444444
 30
0.0
  0
VERTEX
  5
1151
  8
IMPORT_-_CARRO\\U+00C7A_2
 62
     0
 10
344.75615555555549
 20
248.68260555555551
 30
0.0
  0
VERTEX
  5
1152
  8
IMPORT_-_CARRO\\U+00C7A_2
 62
     0
 10
343.33446111111112
 20
248.43178055555549
 30
0.0
  0
VERTEX
  5
1153
  8
IMPORT_-_CARRO\\U+00C7A_2
 62
     0
 10
341.91629444444442
 20
248.1604944444444
 30
0.0
  0
VERTEX
  5
1154
  8
IMPORT_-_CARRO\\U+00C7A_2
 62
     0
 10
340.50200833333332
 20
247.86909999999989
 30
0.0
  0
VERTEX
  5
1155
  8
IMPORT_-_CARRO\\U+00C7A_2
 62
     0
 10
339.09230833333328
 20
247.5575972222222
 30
0.0
  0
VERTEX
  5
1156
  8
IMPORT_-_CARRO\\U+00C7A_2
 62
     0
 10
337.68684166666662
 20
247.2263388888889
 30
0.0
  0
VERTEX
  5
1157
  8
IMPORT_-_CARRO\\U+00C7A_2
 62
     0
 10
336.28666666666658
 20
246.87461944444439
 30
0.0
  0
VERTEX
  5
1158
  8
IMPORT_-_CARRO\\U+00C7A_2
 62
     0
 10
334.89143055555547
 20
246.50314444444439
 30
0.0
  0
VERTEX
  5
1159
  8
IMPORT_-_CARRO\\U+00C7A_2
 62
     0
 10
333.50148611111109
 20
246.11191388888889
 30
0.0
  0
VERTEX
  5
115A
  8
IMPORT_-_CARRO\\U+00C7A_2
 62
     0
 10
332.11753888888887
 20
245.70092777777771
 30
0.0
  0
VERTEX
  5
115B
  8
IMPORT_-_CARRO\\U+00C7A_2
 62
     0
 10
330.7392361111111
 20
245.26983333333331
 30
0.0
  0
VERTEX
  5
115C
  8
IMPORT_-_CARRO\\U+00C7A_2
 62
     0
 10
329.36763611111121
 20
244.81968888888881
 30
0.0
  0
VERTEX
  5
115D
  8
IMPORT_-_CARRO\\U+00C7A_2
 62
     0
 10
328.00238611111109
 20
244.3497888888889
 30
0.0
  0
VERTEX
  5
115E
  8
IMPORT_-_CARRO\\U+00C7A_2
 62
     0
 10
325.00236388888891
 20
244.3497888888889
 30
0.0
  0
VERTEX
  5
115F
  8
IMPORT_-_CARRO\\U+00C7A_2
 62
     0
 10
325.00236388888891
 20
249.3497083333333
 30
0.0
  0
VERTEX
  5
1160
  8
IMPORT_-_CARRO\\U+00C7A_2
 62
     0
 10
322.00234166666672
 20
249.3497083333333
 30
0.0
  0
VERTEX
  5
1161
  8
IMPORT_-_CARRO\\U+00C7A_2
 62
     0
 10
322.00234166666672
 20
244.3497888888889
 30
0.0
  0
VERTEX
  5
1162
  8
IMPORT_-_CARRO\\U+00C7A_2
 62
     0
 10
294.50119722222217
 20
244.3497888888889
 30
0.0
  0
VERTEX
  5
1163
  8
IMPORT_-_CARRO\\U+00C7A_2
 62
     0
 10
294.50119722222217
 20
249.3497083333333
 30
0.0
  0
VERTEX
  5
1164
  8
IMPORT_-_CARRO\\U+00C7A_2
 62
     0
 10
291.50117499999999
 20
249.3497083333333
 30
0.0
  0
SEQEND
  5
1165
  8
IMPORT_-_CARRO\\U+00C7A_2
 62
     0
  0
POLYLINE
  5
6E
  8
IMPORT_-_CARRO\\U+00C7A_2
 62
     0
 66
     1
 10
0.0
 20
0.0
 30
0.0
 70
     1
  0
VERTEX
  5
1166
  8
IMPORT_-_CARRO\\U+00C7A_2
 62
     0
 10
319.19320477031482
 20
221.48582777777801
 30
0.0
  0
VERTEX
  5
1167
  8
IMPORT_-_CARRO\\U+00C7A_2
 62
     0
 10
381.12546032587022
 20
221.48582777777801
 30
0.0
  0
VERTEX
  5
1168
  8
IMPORT_-_CARRO\\U+00C7A_2
 62
     0
 10
384.12548254809252
 20
221.48582777777801
 30
0.0
  0
VERTEX
  5
1169
  8
IMPORT_-_CARRO\\U+00C7A_2
 62
     0
 10
384.12548254809252
 20
224.4858500000002
 30
0.0
  0
VERTEX
  5
116A
  8
IMPORT_-_CARRO\\U+00C7A_2
 62
     0
 10
381.12546032587022
 20
224.4858500000002
 30
0.0
  0
VERTEX
  5
116B
  8
IMPORT_-_CARRO\\U+00C7A_2
 62
     0
 10
381.12546032587022
 20
312.99991111111132
 30
0.0
  0
VERTEX
  5
116C
  8
IMPORT_-_CARRO\\U+00C7A_2
 62
     0
 10
384.12548254809252
 20
312.99991111111132
 30
0.0
  0
VERTEX
  5
116D
  8
IMPORT_-_CARRO\\U+00C7A_2
 62
     0
 10
384.12548254809252
 20
315.99993333333327
 30
0.0
  0
VERTEX
  5
116E
  8
IMPORT_-_CARRO\\U+00C7A_2
 62
     0
 10
381.12546032587022
 20
315.99993333333327
 30
0.0
  0
VERTEX
  5
116F
  8
IMPORT_-_CARRO\\U+00C7A_2
 62
     0
 10
379.41766310364801
 20
315.99993333333327
 30
0.0
  0
VERTEX
  5
1170
  8
IMPORT_-_CARRO\\U+00C7A_2
 62
     0
 10
319.19320477031482
 20
315.99993333333327
 30
0.0
  0
VERTEX
  5
1171
  8
IMPORT_-_CARRO\\U+00C7A_2
 62
     0
 10
319.32972977031471
 20
317.03533611111118
 30
0.0
  0
VERTEX
  5
1172
  8
IMPORT_-_CARRO\\U+00C7A_2
 62
     0
 10
319.7294269925369
 20
317.99983055555572
 30
0.0
  0
VERTEX
  5
1173
  8
IMPORT_-_CARRO\\U+00C7A_2
 62
     0
 10
320.36513254809239
 20
318.82815277777792
 30
0.0
  0
VERTEX
  5
1174
  8
IMPORT_-_CARRO\\U+00C7A_2
 62
     0
 10
321.19345477031482
 20
319.46385833333329
 30
0.0
  0
VERTEX
  5
1175
  8
IMPORT_-_CARRO\\U+00C7A_2
 62
     0
 10
322.15830199253702
 20
319.86355555555559
 30
0.0
  0
VERTEX
  5
1176
  8
IMPORT_-_CARRO\\U+00C7A_2
 62
     0
 10
323.19335199253692
 20
320.00008055555571
 30
0.0
  0
VERTEX
  5
1177
  8
IMPORT_-_CARRO\\U+00C7A_2
 62
     0
 10
359.04686310364798
 20
320.00008055555571
 30
0.0
  0
VERTEX
  5
1178
  8
IMPORT_-_CARRO\\U+00C7A_2
 62
     0
 10
359.04686310364798
 20
321.99997777777787
 30
0.0
  0
VERTEX
  5
1179
  8
IMPORT_-_CARRO\\U+00C7A_2
 62
     0
 10
359.14916865920361
 20
322.77644166666681
 30
0.0
  0
VERTEX
  5
117A
  8
IMPORT_-_CARRO\\U+00C7A_2
 62
     0
 10
359.44867699253678
 20
323.49998888888899
 30
0.0
  0
VERTEX
  5
117B
  8
IMPORT_-_CARRO\\U+00C7A_2
 62
     0
 10
359.92527977031472
 20
324.12123055555571
 30
0.0
  0
VERTEX
  5
117C
  8
IMPORT_-_CARRO\\U+00C7A_2
 62
     0
 10
360.5468742147591
 20
324.59783333333348
 30
0.0
  0
VERTEX
  5
117D
  8
IMPORT_-_CARRO\\U+00C7A_2
 62
     0
 10
361.27042143698128
 20
324.8976944444446
 30
0.0
  0
VERTEX
  5
117E
  8
IMPORT_-_CARRO\\U+00C7A_2
 62
     0
 10
362.04688532587022
 20
325.00000000000011
 30
0.0
  0
VERTEX
  5
117F
  8
IMPORT_-_CARRO\\U+00C7A_2
 62
     0
 10
362.04688532587022
 20
320.00008055555571
 30
0.0
  0
VERTEX
  5
1180
  8
IMPORT_-_CARRO\\U+00C7A_2
 62
     0
 10
365.04690754809252
 20
320.00008055555571
 30
0.0
  0
VERTEX
  5
1181
  8
IMPORT_-_CARRO\\U+00C7A_2
 62
     0
 10
365.04690754809252
 20
325.00000000000011
 30
0.0
  0
VERTEX
  5
1182
  8
IMPORT_-_CARRO\\U+00C7A_2
 62
     0
 10
365.82337143698129
 20
324.8976944444446
 30
0.0
  0
VERTEX
  5
1183
  8
IMPORT_-_CARRO\\U+00C7A_2
 62
     0
 10
366.54656588142592
 20
324.59783333333348
 30
0.0
  0
VERTEX
  5
1184
  8
IMPORT_-_CARRO\\U+00C7A_2
 62
     0
 10
367.16816032587019
 20
324.12123055555571
 30
0.0
  0
VERTEX
  5
1185
  8
IMPORT_-_CARRO\\U+00C7A_2
 62
     0
 10
367.64476310364802
 20
323.49998888888899
 30
0.0
  0
VERTEX
  5
1186
  8
IMPORT_-_CARRO\\U+00C7A_2
 62
     0
 10
367.9446242147593
 20
322.77644166666681
 30
0.0
  0
VERTEX
  5
1187
  8
IMPORT_-_CARRO\\U+00C7A_2
 62
     0
 10
368.0469297703147
 20
321.99997777777787
 30
0.0
  0
VERTEX
  5
1188
  8
IMPORT_-_CARRO\\U+00C7A_2
 62
     0
 10
368.0469297703147
 20
320.00008055555571
 30
0.0
  0
VERTEX
  5
1189
  8
IMPORT_-_CARRO\\U+00C7A_2
 62
     0
 10
385.24414088142578
 20
320.00008055555571
 30
0.0
  0
VERTEX
  5
118A
  8
IMPORT_-_CARRO\\U+00C7A_2
 62
     0
 10
386.27919088142579
 20
319.86355555555559
 30
0.0
  0
VERTEX
  5
118B
  8
IMPORT_-_CARRO\\U+00C7A_2
 62
     0
 10
387.24403810364799
 20
319.46385833333329
 30
0.0
  0
VERTEX
  5
118C
  8
IMPORT_-_CARRO\\U+00C7A_2
 62
     0
 10
388.07236032587019
 20
318.82815277777792
 30
0.0
  0
VERTEX
  5
118D
  8
IMPORT_-_CARRO\\U+00C7A_2
 62
     0
 10
388.7080658814258
 20
317.99983055555572
 30
0.0
  0
VERTEX
  5
118E
  8
IMPORT_-_CARRO\\U+00C7A_2
 62
     0
 10
389.10776310364798
 20
317.03533611111118
 30
0.0
  0
VERTEX
  5
118F
  8
IMPORT_-_CARRO\\U+00C7A_2
 62
     0
 10
389.24393532587021
 20
315.99993333333327
 30
0.0
  0
VERTEX
  5
1190
  8
IMPORT_-_CARRO\\U+00C7A_2
 62
     0
 10
396.53937977031472
 20
285.49876666666682
 30
0.0
  0
VERTEX
  5
1191
  8
IMPORT_-_CARRO\\U+00C7A_2
 62
     0
 10
388.83224365920358
 20
285.49876666666682
 30
0.0
  0
VERTEX
  5
1192
  8
IMPORT_-_CARRO\\U+00C7A_2
 62
     0
 10
388.83224365920358
 20
282.49874444444458
 30
0.0
  0
VERTEX
  5
1193
  8
IMPORT_-_CARRO\\U+00C7A_2
 62
     0
 10
396.53937977031472
 20
282.49874444444458
 30
0.0
  0
VERTEX
  5
1194
  8
IMPORT_-_CARRO\\U+00C7A_2
 62
     0
 10
396.53937977031472
 20
254.98666388888901
 30
0.0
  0
VERTEX
  5
1195
  8
IMPORT_-_CARRO\\U+00C7A_2
 62
     0
 10
388.83224365920358
 20
254.98666388888901
 30
0.0
  0
VERTEX
  5
1196
  8
IMPORT_-_CARRO\\U+00C7A_2
 62
     0
 10
388.83224365920358
 20
251.9866416666668
 30
0.0
  0
VERTEX
  5
1197
  8
IMPORT_-_CARRO\\U+00C7A_2
 62
     0
 10
396.53937977031472
 20
251.9866416666668
 30
0.0
  0
VERTEX
  5
1198
  8
IMPORT_-_CARRO\\U+00C7A_2
 62
     0
 10
389.24393532587021
 20
221.48582777777801
 30
0.0
  0
VERTEX
  5
1199
  8
IMPORT_-_CARRO\\U+00C7A_2
 62
     0
 10
389.10776310364798
 20
220.45042500000019
 30
0.0
  0
VERTEX
  5
119A
  8
IMPORT_-_CARRO\\U+00C7A_2
 62
     0
 10
388.7080658814258
 20
219.48557777777799
 30
0.0
  0
VERTEX
  5
119B
  8
IMPORT_-_CARRO\\U+00C7A_2
 62
     0
 10
388.07236032587019
 20
218.65725555555571
 30
0.0
  0
VERTEX
  5
119C
  8
IMPORT_-_CARRO\\U+00C7A_2
 62
     0
 10
387.24403810364799
 20
218.02155000000019
 30
0.0
  0
VERTEX
  5
119D
  8
IMPORT_-_CARRO\\U+00C7A_2
 62
     0
 10
386.27919088142579
 20
217.62185277777789
 30
0.0
  0
VERTEX
  5
119E
  8
IMPORT_-_CARRO\\U+00C7A_2
 62
     0
 10
385.24414088142578
 20
217.48568055555569
 30
0.0
  0
VERTEX
  5
119F
  8
IMPORT_-_CARRO\\U+00C7A_2
 62
     0
 10
368.0469297703147
 20
217.48568055555569
 30
0.0
  0
VERTEX
  5
11A0
  8
IMPORT_-_CARRO\\U+00C7A_2
 62
     0
 10
368.0469297703147
 20
215.4857833333335
 30
0.0
  0
VERTEX
  5
11A1
  8
IMPORT_-_CARRO\\U+00C7A_2
 62
     0
 10
367.9446242147593
 20
214.70931944444459
 30
0.0
  0
VERTEX
  5
11A2
  8
IMPORT_-_CARRO\\U+00C7A_2
 62
     0
 10
367.64476310364802
 20
213.98577222222241
 30
0.0
  0
VERTEX
  5
11A3
  8
IMPORT_-_CARRO\\U+00C7A_2
 62
     0
 10
367.16816032587019
 20
213.36417777777791
 30
0.0
  0
VERTEX
  5
11A4
  8
IMPORT_-_CARRO\\U+00C7A_2
 62
     0
 10
366.54656588142592
 20
212.8875750000002
 30
0.0
  0
VERTEX
  5
11A5
  8
IMPORT_-_CARRO\\U+00C7A_2
 62
     0
 10
365.82337143698129
 20
212.587713888889
 30
0.0
  0
VERTEX
  5
11A6
  8
IMPORT_-_CARRO\\U+00C7A_2
 62
     0
 10
365.04690754809252
 20
212.4857611111112
 30
0.0
  0
VERTEX
  5
11A7
  8
IMPORT_-_CARRO\\U+00C7A_2
 62
     0
 10
365.04690754809252
 20
217.48568055555569
 30
0.0
  0
VERTEX
  5
11A8
  8
IMPORT_-_CARRO\\U+00C7A_2
 62
     0
 10
362.04688532587022
 20
217.48568055555569
 30
0.0
  0
VERTEX
  5
11A9
  8
IMPORT_-_CARRO\\U+00C7A_2
 62
     0
 10
362.04688532587022
 20
212.4857611111112
 30
0.0
  0
VERTEX
  5
11AA
  8
IMPORT_-_CARRO\\U+00C7A_2
 62
     0
 10
361.27042143698128
 20
212.587713888889
 30
0.0
  0
VERTEX
  5
11AB
  8
IMPORT_-_CARRO\\U+00C7A_2
 62
     0
 10
360.5468742147591
 20
212.8875750000002
 30
0.0
  0
VERTEX
  5
11AC
  8
IMPORT_-_CARRO\\U+00C7A_2
 62
     0
 10
359.92527977031472
 20
213.36417777777791
 30
0.0
  0
VERTEX
  5
11AD
  8
IMPORT_-_CARRO\\U+00C7A_2
 62
     0
 10
359.44867699253678
 20
213.98577222222241
 30
0.0
  0
VERTEX
  5
11AE
  8
IMPORT_-_CARRO\\U+00C7A_2
 62
     0
 10
359.14916865920361
 20
214.70931944444459
 30
0.0
  0
VERTEX
  5
11AF
  8
IMPORT_-_CARRO\\U+00C7A_2
 62
     0
 10
359.04686310364798
 20
215.4857833333335
 30
0.0
  0
VERTEX
  5
11B0
  8
IMPORT_-_CARRO\\U+00C7A_2
 62
     0
 10
359.04686310364798
 20
217.48568055555569
 30
0.0
  0
VERTEX
  5
11B1
  8
IMPORT_-_CARRO\\U+00C7A_2
 62
     0
 10
323.19335199253692
 20
217.48568055555569
 30
0.0
  0
VERTEX
  5
11B2
  8
IMPORT_-_CARRO\\U+00C7A_2
 62
     0
 10
322.15830199253702
 20
217.62185277777789
 30
0.0
  0
VERTEX
  5
11B3
  8
IMPORT_-_CARRO\\U+00C7A_2
 62
     0
 10
321.19345477031482
 20
218.02155000000019
 30
0.0
  0
VERTEX
  5
11B4
  8
IMPORT_-_CARRO\\U+00C7A_2
 62
     0
 10
320.36513254809239
 20
218.65725555555571
 30
0.0
  0
VERTEX
  5
11B5
  8
IMPORT_-_CARRO\\U+00C7A_2
 62
     0
 10
319.7294269925369
 20
219.48557777777799
 30
0.0
  0
VERTEX
  5
11B6
  8
IMPORT_-_CARRO\\U+00C7A_2
 62
     0
 10
319.32972977031471
 20
220.45042500000019
 30
0.0
  0
SEQEND
  5
11B7
  8
IMPORT_-_CARRO\\U+00C7A_2
 62
     0
  0
POLYLINE
  5
6F
  8
IMPORT_-_CARRO\\U+00C7A_2
 62
     0
 66
     1
 10
0.0
 20
0.0
 30
0.0
 70
     1
  0
VERTEX
  5
11B8
  8
IMPORT_-_CARRO\\U+00C7A_2
 62
     0
 10
471.84617500000002
 20
385.49993333333327
 30
0.0
  0
VERTEX
  5
11B9
  8
IMPORT_-_CARRO\\U+00C7A_2
 62
     0
 10
409.91391944444428
 20
385.49993333333327
 30
0.0
  0
VERTEX
  5
11BA
  8
IMPORT_-_CARRO\\U+00C7A_2
 62
     0
 10
406.9138972222222
 20
385.49993333333327
 30
0.0
  0
VERTEX
  5
11BB
  8
IMPORT_-_CARRO\\U+00C7A_2
 62
     0
 10
406.9138972222222
 20
382.49991111111109
 30
0.0
  0
VERTEX
  5
11BC
  8
IMPORT_-_CARRO\\U+00C7A_2
 62
     0
 10
409.91391944444428
 20
382.49991111111109
 30
0.0
  0
VERTEX
  5
11BD
  8
IMPORT_-_CARRO\\U+00C7A_2
 62
     0
 10
409.91391944444428
 20
293.98585000000003
 30
0.0
  0
VERTEX
  5
11BE
  8
IMPORT_-_CARRO\\U+00C7A_2
 62
     0
 10
406.9138972222222
 20
293.98585000000003
 30
0.0
  0
VERTEX
  5
11BF
  8
IMPORT_-_CARRO\\U+00C7A_2
 62
     0
 10
406.9138972222222
 20
290.98582777777779
 30
0.0
  0
VERTEX
  5
11C0
  8
IMPORT_-_CARRO\\U+00C7A_2
 62
     0
 10
409.91391944444428
 20
290.98582777777779
 30
0.0
  0
VERTEX
  5
11C1
  8
IMPORT_-_CARRO\\U+00C7A_2
 62
     0
 10
411.6217166666666
 20
290.98582777777779
 30
0.0
  0
VERTEX
  5
11C2
  8
IMPORT_-_CARRO\\U+00C7A_2
 62
     0
 10
471.84617500000002
 20
290.98582777777779
 30
0.0
  0
VERTEX
  5
11C3
  8
IMPORT_-_CARRO\\U+00C7A_2
 62
     0
 10
471.70965000000001
 20
289.95042500000011
 30
0.0
  0
VERTEX
  5
11C4
  8
IMPORT_-_CARRO\\U+00C7A_2
 62
     0
 10
471.30995277777771
 20
288.98593055555563
 30
0.0
  0
VERTEX
  5
11C5
  8
IMPORT_-_CARRO\\U+00C7A_2
 62
     0
 10
470.67424722222222
 20
288.15760833333343
 30
0.0
  0
VERTEX
  5
11C6
  8
IMPORT_-_CARRO\\U+00C7A_2
 62
     0
 10
469.8462777777778
 20
287.52190277777788
 30
0.0
  0
VERTEX
  5
11C7
  8
IMPORT_-_CARRO\\U+00C7A_2
 62
     0
 10
468.8810777777777
 20
287.12220555555558
 30
0.0
  0
VERTEX
  5
11C8
  8
IMPORT_-_CARRO\\U+00C7A_2
 62
     0
 10
467.84602777777769
 20
286.98568055555558
 30
0.0
  0
VERTEX
  5
11C9
  8
IMPORT_-_CARRO\\U+00C7A_2
 62
     0
 10
431.99251666666657
 20
286.98568055555558
 30
0.0
  0
VERTEX
  5
11CA
  8
IMPORT_-_CARRO\\U+00C7A_2
 62
     0
 10
431.99251666666657
 20
284.9857833333333
 30
0.0
  0
VERTEX
  5
11CB
  8
IMPORT_-_CARRO\\U+00C7A_2
 62
     0
 10
431.89021111111111
 20
284.20931944444447
 30
0.0
  0
VERTEX
  5
11CC
  8
IMPORT_-_CARRO\\U+00C7A_2
 62
     0
 10
431.59070277777772
 20
283.48577222222241
 30
0.0
  0
VERTEX
  5
11CD
  8
IMPORT_-_CARRO\\U+00C7A_2
 62
     0
 10
431.11410000000001
 20
282.86453055555558
 30
0.0
  0
VERTEX
  5
11CE
  8
IMPORT_-_CARRO\\U+00C7A_2
 62
     0
 10
430.49250555555562
 20
282.3879277777778
 30
0.0
  0
VERTEX
  5
11CF
  8
IMPORT_-_CARRO\\U+00C7A_2
 62
     0
 10
429.76895833333322
 20
282.08806666666669
 30
0.0
  0
VERTEX
  5
11D0
  8
IMPORT_-_CARRO\\U+00C7A_2
 62
     0
 10
428.99249444444428
 20
281.98576111111117
 30
0.0
  0
VERTEX
  5
11D1
  8
IMPORT_-_CARRO\\U+00C7A_2
 62
     0
 10
428.99249444444428
 20
286.98568055555558
 30
0.0
  0
VERTEX
  5
11D2
  8
IMPORT_-_CARRO\\U+00C7A_2
 62
     0
 10
425.9924722222222
 20
286.98568055555558
 30
0.0
  0
VERTEX
  5
11D3
  8
IMPORT_-_CARRO\\U+00C7A_2
 62
     0
 10
425.9924722222222
 20
281.98576111111117
 30
0.0
  0
VERTEX
  5
11D4
  8
IMPORT_-_CARRO\\U+00C7A_2
 62
     0
 10
425.21600833333332
 20
282.08806666666669
 30
0.0
  0
VERTEX
  5
11D5
  8
IMPORT_-_CARRO\\U+00C7A_2
 62
     0
 10
424.4928138888888
 20
282.3879277777778
 30
0.0
  0
VERTEX
  5
11D6
  8
IMPORT_-_CARRO\\U+00C7A_2
 62
     0
 10
423.87121944444442
 20
282.86453055555558
 30
0.0
  0
VERTEX
  5
11D7
  8
IMPORT_-_CARRO\\U+00C7A_2
 62
     0
 10
423.39461666666659
 20
283.48577222222241
 30
0.0
  0
VERTEX
  5
11D8
  8
IMPORT_-_CARRO\\U+00C7A_2
 62
     0
 10
423.0951083333332
 20
284.20931944444447
 30
0.0
  0
VERTEX
  5
11D9
  8
IMPORT_-_CARRO\\U+00C7A_2
 62
     0
 10
422.99245000000002
 20
284.9857833333333
 30
0.0
  0
VERTEX
  5
11DA
  8
IMPORT_-_CARRO\\U+00C7A_2
 62
     0
 10
422.99245000000002
 20
286.98568055555558
 30
0.0
  0
VERTEX
  5
11DB
  8
IMPORT_-_CARRO\\U+00C7A_2
 62
     0
 10
405.79523888888878
 20
286.98568055555558
 30
0.0
  0
VERTEX
  5
11DC
  8
IMPORT_-_CARRO\\U+00C7A_2
 62
     0
 10
404.76018888888882
 20
287.12220555555558
 30
0.0
  0
VERTEX
  5
11DD
  8
IMPORT_-_CARRO\\U+00C7A_2
 62
     0
 10
403.79534166666667
 20
287.52190277777788
 30
0.0
  0
VERTEX
  5
11DE
  8
IMPORT_-_CARRO\\U+00C7A_2
 62
     0
 10
402.9670194444443
 20
288.15760833333343
 30
0.0
  0
VERTEX
  5
11DF
  8
IMPORT_-_CARRO\\U+00C7A_2
 62
     0
 10
402.33131388888881
 20
288.98593055555563
 30
0.0
  0
VERTEX
  5
11E0
  8
IMPORT_-_CARRO\\U+00C7A_2
 62
     0
 10
401.93161666666663
 20
289.95042500000011
 30
0.0
  0
VERTEX
  5
11E1
  8
IMPORT_-_CARRO\\U+00C7A_2
 62
     0
 10
401.79544444444451
 20
290.98582777777779
 30
0.0
  0
VERTEX
  5
11E2
  8
IMPORT_-_CARRO\\U+00C7A_2
 62
     0
 10
394.5
 20
321.48699444444452
 30
0.0
  0
VERTEX
  5
11E3
  8
IMPORT_-_CARRO\\U+00C7A_2
 62
     0
 10
402.2074888888888
 20
321.48699444444452
 30
0.0
  0
VERTEX
  5
11E4
  8
IMPORT_-_CARRO\\U+00C7A_2
 62
     0
 10
402.2074888888888
 20
324.4870166666667
 30
0.0
  0
VERTEX
  5
11E5
  8
IMPORT_-_CARRO\\U+00C7A_2
 62
     0
 10
394.5
 20
324.4870166666667
 30
0.0
  0
VERTEX
  5
11E6
  8
IMPORT_-_CARRO\\U+00C7A_2
 62
     0
 10
394.5
 20
351.9990972222223
 30
0.0
  0
VERTEX
  5
11E7
  8
IMPORT_-_CARRO\\U+00C7A_2
 62
     0
 10
402.2074888888888
 20
351.9990972222223
 30
0.0
  0
VERTEX
  5
11E8
  8
IMPORT_-_CARRO\\U+00C7A_2
 62
     0
 10
402.2074888888888
 20
354.99911944444449
 30
0.0
  0
VERTEX
  5
11E9
  8
IMPORT_-_CARRO\\U+00C7A_2
 62
     0
 10
394.5
 20
354.99911944444449
 30
0.0
  0
VERTEX
  5
11EA
  8
IMPORT_-_CARRO\\U+00C7A_2
 62
     0
 10
401.79544444444451
 20
385.49993333333327
 30
0.0
  0
VERTEX
  5
11EB
  8
IMPORT_-_CARRO\\U+00C7A_2
 62
     0
 10
401.93161666666663
 20
386.53533611111112
 30
0.0
  0
VERTEX
  5
11EC
  8
IMPORT_-_CARRO\\U+00C7A_2
 62
     0
 10
402.33131388888881
 20
387.50018333333333
 30
0.0
  0
VERTEX
  5
11ED
  8
IMPORT_-_CARRO\\U+00C7A_2
 62
     0
 10
402.9670194444443
 20
388.32850555555569
 30
0.0
  0
VERTEX
  5
11EE
  8
IMPORT_-_CARRO\\U+00C7A_2
 62
     0
 10
403.79534166666667
 20
388.96421111111113
 30
0.0
  0
VERTEX
  5
11EF
  8
IMPORT_-_CARRO\\U+00C7A_2
 62
     0
 10
404.76018888888882
 20
389.36390833333343
 30
0.0
  0
VERTEX
  5
11F0
  8
IMPORT_-_CARRO\\U+00C7A_2
 62
     0
 10
405.79523888888878
 20
389.5000805555556
 30
0.0
  0
VERTEX
  5
11F1
  8
IMPORT_-_CARRO\\U+00C7A_2
 62
     0
 10
422.99245000000002
 20
389.5000805555556
 30
0.0
  0
VERTEX
  5
11F2
  8
IMPORT_-_CARRO\\U+00C7A_2
 62
     0
 10
422.99245000000002
 20
391.49997777777781
 30
0.0
  0
VERTEX
  5
11F3
  8
IMPORT_-_CARRO\\U+00C7A_2
 62
     0
 10
423.0951083333332
 20
392.27644166666659
 30
0.0
  0
VERTEX
  5
11F4
  8
IMPORT_-_CARRO\\U+00C7A_2
 62
     0
 10
423.39461666666659
 20
392.99998888888888
 30
0.0
  0
VERTEX
  5
11F5
  8
IMPORT_-_CARRO\\U+00C7A_2
 62
     0
 10
423.87121944444442
 20
393.62158333333338
 30
0.0
  0
VERTEX
  5
11F6
  8
IMPORT_-_CARRO\\U+00C7A_2
 62
     0
 10
424.4928138888888
 20
394.0981861111112
 30
0.0
  0
VERTEX
  5
11F7
  8
IMPORT_-_CARRO\\U+00C7A_2
 62
     0
 10
425.21600833333332
 20
394.39804722222232
 30
0.0
  0
VERTEX
  5
11F8
  8
IMPORT_-_CARRO\\U+00C7A_2
 62
     0
 10
425.9924722222222
 20
394.50000000000023
 30
0.0
  0
VERTEX
  5
11F9
  8
IMPORT_-_CARRO\\U+00C7A_2
 62
     0
 10
425.9924722222222
 20
389.5000805555556
 30
0.0
  0
VERTEX
  5
11FA
  8
IMPORT_-_CARRO\\U+00C7A_2
 62
     0
 10
428.99249444444428
 20
389.5000805555556
 30
0.0
  0
VERTEX
  5
11FB
  8
IMPORT_-_CARRO\\U+00C7A_2
 62
     0
 10
428.99249444444428
 20
394.50000000000023
 30
0.0
  0
VERTEX
  5
11FC
  8
IMPORT_-_CARRO\\U+00C7A_2
 62
     0
 10
429.76895833333322
 20
394.39804722222232
 30
0.0
  0
VERTEX
  5
11FD
  8
IMPORT_-_CARRO\\U+00C7A_2
 62
     0
 10
430.49250555555562
 20
394.0981861111112
 30
0.0
  0
VERTEX
  5
11FE
  8
IMPORT_-_CARRO\\U+00C7A_2
 62
     0
 10
431.11410000000001
 20
393.62158333333338
 30
0.0
  0
VERTEX
  5
11FF
  8
IMPORT_-_CARRO\\U+00C7A_2
 62
     0
 10
431.59070277777772
 20
392.99998888888888
 30
0.0
  0
VERTEX
  5
1200
  8
IMPORT_-_CARRO\\U+00C7A_2
 62
     0
 10
431.89021111111111
 20
392.27644166666659
 30
0.0
  0
VERTEX
  5
1201
  8
IMPORT_-_CARRO\\U+00C7A_2
 62
     0
 10
431.99251666666657
 20
391.49997777777781
 30
0.0
  0
VERTEX
  5
1202
  8
IMPORT_-_CARRO\\U+00C7A_2
 62
     0
 10
431.99251666666657
 20
389.5000805555556
 30
0.0
  0
VERTEX
  5
1203
  8
IMPORT_-_CARRO\\U+00C7A_2
 62
     0
 10
467.84602777777769
 20
389.5000805555556
 30
0.0
  0
VERTEX
  5
1204
  8
IMPORT_-_CARRO\\U+00C7A_2
 62
     0
 10
468.8810777777777
 20
389.36390833333343
 30
0.0
  0
VERTEX
  5
1205
  8
IMPORT_-_CARRO\\U+00C7A_2
 62
     0
 10
469.8462777777778
 20
388.96421111111113
 30
0.0
  0
VERTEX
  5
1206
  8
IMPORT_-_CARRO\\U+00C7A_2
 62
     0
 10
470.67424722222222
 20
388.32850555555569
 30
0.0
  0
VERTEX
  5
1207
  8
IMPORT_-_CARRO\\U+00C7A_2
 62
     0
 10
471.30995277777771
 20
387.50018333333333
 30
0.0
  0
VERTEX
  5
1208
  8
IMPORT_-_CARRO\\U+00C7A_2
 62
     0
 10
471.70965000000001
 20
386.53533611111112
 30
0.0
  0
SEQEND
  5
1209
  8
IMPORT_-_CARRO\\U+00C7A_2
 62
     0
  0
POLYLINE
  5
70
  8
IMPORT_-_CARRO\\U+00C7A_2
 62
     0
 66
     1
 10
0.0
 20
0.0
 30
0.0
 70
     1
  0
VERTEX
  5
120A
  8
IMPORT_-_CARRO\\U+00C7A_2
 62
     0
 10
222.2962138888889
 20
378.72212777777781
 30
0.0
  0
VERTEX
  5
120B
  8
IMPORT_-_CARRO\\U+00C7A_2
 62
     0
 10
195.88127222222209
 20
378.72212777777781
 30
0.0
  0
VERTEX
  5
120C
  8
IMPORT_-_CARRO\\U+00C7A_2
 62
     0
 10
195.88127222222209
 20
374.75267222222232
 30
0.0
  0
VERTEX
  5
120D
  8
IMPORT_-_CARRO\\U+00C7A_2
 62
     0
 10
191.881125
 20
374.75267222222232
 30
0.0
  0
VERTEX
  5
120E
  8
IMPORT_-_CARRO\\U+00C7A_2
 62
     0
 10
191.881125
 20
378.72212777777781
 30
0.0
  0
VERTEX
  5
120F
  8
IMPORT_-_CARRO\\U+00C7A_2
 62
     0
 10
164.37998055555559
 20
378.72212777777781
 30
0.0
  0
VERTEX
  5
1210
  8
IMPORT_-_CARRO\\U+00C7A_2
 62
     0
 10
164.37998055555559
 20
374.75267222222232
 30
0.0
  0
VERTEX
  5
1211
  8
IMPORT_-_CARRO\\U+00C7A_2
 62
     0
 10
160.3801861111111
 20
374.75267222222232
 30
0.0
  0
VERTEX
  5
1212
  8
IMPORT_-_CARRO\\U+00C7A_2
 62
     0
 10
160.3801861111111
 20
378.72212777777781
 30
0.0
  0
VERTEX
  5
1213
  8
IMPORT_-_CARRO\\U+00C7A_2
 62
     0
 10
133.9998166666667
 20
378.72212777777781
 30
0.0
  0
VERTEX
  5
1214
  8
IMPORT_-_CARRO\\U+00C7A_2
 62
     0
 10
133.9998166666667
 20
386.95525555555571
 30
0.0
  0
VERTEX
  5
1215
  8
IMPORT_-_CARRO\\U+00C7A_2
 62
     0
 10
130.9997944444444
 20
386.95525555555571
 30
0.0
  0
VERTEX
  5
1216
  8
IMPORT_-_CARRO\\U+00C7A_2
 62
     0
 10
130.9997944444444
 20
378.72212777777781
 30
0.0
  0
VERTEX
  5
1217
  8
IMPORT_-_CARRO\\U+00C7A_2
 62
     0
 10
129.96474444444439
 20
378.85829999999999
 30
0.0
  0
VERTEX
  5
1218
  8
IMPORT_-_CARRO\\U+00C7A_2
 62
     0
 10
128.99989722222219
 20
379.25799722222217
 30
0.0
  0
VERTEX
  5
1219
  8
IMPORT_-_CARRO\\U+00C7A_2
 62
     0
 10
128.17157499999999
 20
379.89370277777778
 30
0.0
  0
VERTEX
  5
121A
  8
IMPORT_-_CARRO\\U+00C7A_2
 62
     0
 10
127.5358694444444
 20
380.72202499999997
 30
0.0
  0
VERTEX
  5
121B
  8
IMPORT_-_CARRO\\U+00C7A_2
 62
     0
 10
127.1361722222222
 20
381.68687222222229
 30
0.0
  0
VERTEX
  5
121C
  8
IMPORT_-_CARRO\\U+00C7A_2
 62
     0
 10
127.0
 20
382.72192222222219
 30
0.0
  0
VERTEX
  5
121D
  8
IMPORT_-_CARRO\\U+00C7A_2
 62
     0
 10
127.0
 20
390.99985277777768
 30
0.0
  0
VERTEX
  5
121E
  8
IMPORT_-_CARRO\\U+00C7A_2
 62
     0
 10
127.1361722222222
 20
392.03525555555558
 30
0.0
  0
VERTEX
  5
121F
  8
IMPORT_-_CARRO\\U+00C7A_2
 62
     0
 10
127.5358694444444
 20
392.99975000000018
 30
0.0
  0
VERTEX
  5
1220
  8
IMPORT_-_CARRO\\U+00C7A_2
 62
     0
 10
128.17157499999999
 20
393.82842499999998
 30
0.0
  0
VERTEX
  5
1221
  8
IMPORT_-_CARRO\\U+00C7A_2
 62
     0
 10
128.99989722222219
 20
394.4641305555557
 30
0.0
  0
VERTEX
  5
1222
  8
IMPORT_-_CARRO\\U+00C7A_2
 62
     0
 10
129.96474444444439
 20
394.86347499999999
 30
0.0
  0
VERTEX
  5
1223
  8
IMPORT_-_CARRO\\U+00C7A_2
 62
     0
 10
130.9997944444444
 20
395.0
 30
0.0
  0
VERTEX
  5
1224
  8
IMPORT_-_CARRO\\U+00C7A_2
 62
     0
 10
225.29623611111111
 20
395.0
 30
0.0
  0
VERTEX
  5
1225
  8
IMPORT_-_CARRO\\U+00C7A_2
 62
     0
 10
226.33163888888879
 20
394.86347499999999
 30
0.0
  0
VERTEX
  5
1226
  8
IMPORT_-_CARRO\\U+00C7A_2
 62
     0
 10
227.29648611111111
 20
394.4641305555557
 30
0.0
  0
VERTEX
  5
1227
  8
IMPORT_-_CARRO\\U+00C7A_2
 62
     0
 10
228.12480833333331
 20
393.82842499999998
 30
0.0
  0
VERTEX
  5
1228
  8
IMPORT_-_CARRO\\U+00C7A_2
 62
     0
 10
228.76051388888891
 20
392.99975000000018
 30
0.0
  0
VERTEX
  5
1229
  8
IMPORT_-_CARRO\\U+00C7A_2
 62
     0
 10
229.1602111111111
 20
392.03525555555558
 30
0.0
  0
VERTEX
  5
122A
  8
IMPORT_-_CARRO\\U+00C7A_2
 62
     0
 10
229.2963833333333
 20
390.99985277777768
 30
0.0
  0
VERTEX
  5
122B
  8
IMPORT_-_CARRO\\U+00C7A_2
 62
     0
 10
229.2963833333333
 20
382.72192222222219
 30
0.0
  0
VERTEX
  5
122C
  8
IMPORT_-_CARRO\\U+00C7A_2
 62
     0
 10
229.1602111111111
 20
381.68687222222229
 30
0.0
  0
VERTEX
  5
122D
  8
IMPORT_-_CARRO\\U+00C7A_2
 62
     0
 10
228.76051388888891
 20
380.72202499999997
 30
0.0
  0
VERTEX
  5
122E
  8
IMPORT_-_CARRO\\U+00C7A_2
 62
     0
 10
228.12480833333331
 20
379.89370277777778
 30
0.0
  0
VERTEX
  5
122F
  8
IMPORT_-_CARRO\\U+00C7A_2
 62
     0
 10
227.29648611111111
 20
379.25799722222217
 30
0.0
  0
VERTEX
  5
1230
  8
IMPORT_-_CARRO\\U+00C7A_2
 62
     0
 10
226.33163888888879
 20
378.85829999999999
 30
0.0
  0
VERTEX
  5
1231
  8
IMPORT_-_CARRO\\U+00C7A_2
 62
     0
 10
225.29623611111111
 20
378.72212777777781
 30
0.0
  0
VERTEX
  5
1232
  8
IMPORT_-_CARRO\\U+00C7A_2
 62
     0
 10
225.29623611111111
 20
386.95525555555571
 30
0.0
  0
VERTEX
  5
1233
  8
IMPORT_-_CARRO\\U+00C7A_2
 62
     0
 10
222.2962138888889
 20
386.95525555555571
 30
0.0
  0
SEQEND
  5
1234
  8
IMPORT_-_CARRO\\U+00C7A_2
 62
     0
  0
POLYLINE
  5
71
  8
IMPORT_-_CARRO\\U+00C7A_2
 62
     0
 66
     1
 10
0.0
 20
0.0
 30
0.0
 70
     1
  0
VERTEX
  5
1235
  8
IMPORT_-_CARRO\\U+00C7A_2
 62
     0
 10
299.00000000000011
 20
120.500013888889
 30
0.0
  0
VERTEX
  5
1236
  8
IMPORT_-_CARRO\\U+00C7A_2
 62
     0
 10
299.00000000000011
 20
126.5000583333335
 30
0.0
  0
VERTEX
  5
1237
  8
IMPORT_-_CARRO\\U+00C7A_2
 62
     0
 10
299.27269722222229
 20
128.57051111111119
 30
0.0
  0
VERTEX
  5
1238
  8
IMPORT_-_CARRO\\U+00C7A_2
 62
     0
 10
300.07209166666672
 20
130.4998527777779
 30
0.0
  0
VERTEX
  5
1239
  8
IMPORT_-_CARRO\\U+00C7A_2
 62
     0
 10
301.34314999999998
 20
132.15685000000019
 30
0.0
  0
VERTEX
  5
123A
  8
IMPORT_-_CARRO\\U+00C7A_2
 62
     0
 10
303.00014722222232
 20
133.42826111111131
 30
0.0
  0
VERTEX
  5
123B
  8
IMPORT_-_CARRO\\U+00C7A_2
 62
     0
 10
304.92948888888901
 20
134.22730277777791
 30
0.0
  0
VERTEX
  5
123C
  8
IMPORT_-_CARRO\\U+00C7A_2
 62
     0
 10
307.00029444444442
 20
134.5000000000002
 30
0.0
  0
VERTEX
  5
123D
  8
IMPORT_-_CARRO\\U+00C7A_2
 62
     0
 10
407.06253611111123
 20
134.5000000000002
 30
0.0
  0
VERTEX
  5
123E
  8
IMPORT_-_CARRO\\U+00C7A_2
 62
     0
 10
409.1329888888888
 20
134.22730277777791
 30
0.0
  0
VERTEX
  5
123F
  8
IMPORT_-_CARRO\\U+00C7A_2
 62
     0
 10
411.06268333333321
 20
133.42826111111131
 30
0.0
  0
VERTEX
  5
1240
  8
IMPORT_-_CARRO\\U+00C7A_2
 62
     0
 10
412.71932777777761
 20
132.15685000000019
 30
0.0
  0
VERTEX
  5
1241
  8
IMPORT_-_CARRO\\U+00C7A_2
 62
     0
 10
413.99073888888893
 20
130.4998527777779
 30
0.0
  0
VERTEX
  5
1242
  8
IMPORT_-_CARRO\\U+00C7A_2
 62
     0
 10
414.7901333333333
 20
128.57051111111119
 30
0.0
  0
VERTEX
  5
1243
  8
IMPORT_-_CARRO\\U+00C7A_2
 62
     0
 10
415.0624777777777
 20
126.5000583333335
 30
0.0
  0
VERTEX
  5
1244
  8
IMPORT_-_CARRO\\U+00C7A_2
 62
     0
 10
415.0624777777777
 20
120.500013888889
 30
0.0
  0
VERTEX
  5
1245
  8
IMPORT_-_CARRO\\U+00C7A_2
 62
     0
 10
405.13389999999993
 20
120.500013888889
 30
0.0
  0
VERTEX
  5
1246
  8
IMPORT_-_CARRO\\U+00C7A_2
 62
     0
 10
405.13389999999993
 20
124.4998083333335
 30
0.0
  0
VERTEX
  5
1247
  8
IMPORT_-_CARRO\\U+00C7A_2
 62
     0
 10
402.1338777777778
 20
124.4998083333335
 30
0.0
  0
VERTEX
  5
1248
  8
IMPORT_-_CARRO\\U+00C7A_2
 62
     0
 10
402.1338777777778
 20
120.500013888889
 30
0.0
  0
VERTEX
  5
1249
  8
IMPORT_-_CARRO\\U+00C7A_2
 62
     0
 10
307.00029444444442
 20
120.500013888889
 30
0.0
  0
VERTEX
  5
124A
  8
IMPORT_-_CARRO\\U+00C7A_2
 62
     0
 10
307.00029444444442
 20
124.4998083333335
 30
0.0
  0
VERTEX
  5
124B
  8
IMPORT_-_CARRO\\U+00C7A_2
 62
     0
 10
304.00027222222241
 20
124.4998083333335
 30
0.0
  0
VERTEX
  5
124C
  8
IMPORT_-_CARRO\\U+00C7A_2
 62
     0
 10
304.00027222222241
 20
120.500013888889
 30
0.0
  0
SEQEND
  5
124D
  8
IMPORT_-_CARRO\\U+00C7A_2
 62
     0
  0
POLYLINE
  5
72
  8
IMPORT_-_CARRO\\U+00C7A_2
 62
     0
 66
     1
 10
0.0
 20
0.0
 30
0.0
 70
     1
  0
VERTEX
  5
124E
  8
IMPORT_-_CARRO\\U+00C7A_2
 62
     0
 10
429.06247777777759
 20
86.500058333333286
 30
0.0
  0
VERTEX
  5
124F
  8
IMPORT_-_CARRO\\U+00C7A_2
 62
     0
 10
429.06247777777759
 20
80.500013888888944
 30
0.0
  0
VERTEX
  5
1250
  8
IMPORT_-_CARRO\\U+00C7A_2
 62
     0
 10
424.06220555555541
 20
80.500013888888944
 30
0.0
  0
VERTEX
  5
1251
  8
IMPORT_-_CARRO\\U+00C7A_2
 62
     0
 10
424.06220555555541
 20
84.500161111111083
 30
0.0
  0
VERTEX
  5
1252
  8
IMPORT_-_CARRO\\U+00C7A_2
 62
     0
 10
421.06218333333322
 20
84.500161111111083
 30
0.0
  0
VERTEX
  5
1253
  8
IMPORT_-_CARRO\\U+00C7A_2
 62
     0
 10
421.06218333333322
 20
80.500013888888944
 30
0.0
  0
VERTEX
  5
1254
  8
IMPORT_-_CARRO\\U+00C7A_2
 62
     0
 10
325.92860000000002
 20
80.500013888888944
 30
0.0
  0
VERTEX
  5
1255
  8
IMPORT_-_CARRO\\U+00C7A_2
 62
     0
 10
325.92860000000002
 20
84.500161111111083
 30
0.0
  0
VERTEX
  5
1256
  8
IMPORT_-_CARRO\\U+00C7A_2
 62
     0
 10
322.92857777777772
 20
84.500161111111083
 30
0.0
  0
VERTEX
  5
1257
  8
IMPORT_-_CARRO\\U+00C7A_2
 62
     0
 10
322.92857777777772
 20
80.500013888888944
 30
0.0
  0
VERTEX
  5
1258
  8
IMPORT_-_CARRO\\U+00C7A_2
 62
     0
 10
313.0
 20
80.500013888888944
 30
0.0
  0
VERTEX
  5
1259
  8
IMPORT_-_CARRO\\U+00C7A_2
 62
     0
 10
313.0
 20
86.500058333333286
 30
0.0
  0
VERTEX
  5
125A
  8
IMPORT_-_CARRO\\U+00C7A_2
 62
     0
 10
313.27234444444451
 20
88.570511111111045
 30
0.0
  0
VERTEX
  5
125B
  8
IMPORT_-_CARRO\\U+00C7A_2
 62
     0
 10
314.07173888888877
 20
90.499852777777704
 30
0.0
  0
VERTEX
  5
125C
  8
IMPORT_-_CARRO\\U+00C7A_2
 62
     0
 10
315.34314999999998
 20
92.156849999999963
 30
0.0
  0
VERTEX
  5
125D
  8
IMPORT_-_CARRO\\U+00C7A_2
 62
     0
 10
316.99979444444438
 20
93.428261111111055
 30
0.0
  0
VERTEX
  5
125E
  8
IMPORT_-_CARRO\\U+00C7A_2
 62
     0
 10
318.9294888888889
 20
94.227302777777794
 30
0.0
  0
VERTEX
  5
125F
  8
IMPORT_-_CARRO\\U+00C7A_2
 62
     0
 10
320.99994166666659
 20
94.500000000000014
 30
0.0
  0
VERTEX
  5
1260
  8
IMPORT_-_CARRO\\U+00C7A_2
 62
     0
 10
421.06218333333322
 20
94.500000000000014
 30
0.0
  0
VERTEX
  5
1261
  8
IMPORT_-_CARRO\\U+00C7A_2
 62
     0
 10
423.1329888888888
 20
94.227302777777794
 30
0.0
  0
VERTEX
  5
1262
  8
IMPORT_-_CARRO\\U+00C7A_2
 62
     0
 10
425.06233055555549
 20
93.428261111111055
 30
0.0
  0
VERTEX
  5
1263
  8
IMPORT_-_CARRO\\U+00C7A_2
 62
     0
 10
426.71932777777772
 20
92.156849999999963
 30
0.0
  0
VERTEX
  5
1264
  8
IMPORT_-_CARRO\\U+00C7A_2
 62
     0
 10
427.99038611111109
 20
90.499852777777704
 30
0.0
  0
VERTEX
  5
1265
  8
IMPORT_-_CARRO\\U+00C7A_2
 62
     0
 10
428.78978055555552
 20
88.570511111111045
 30
0.0
  0
SEQEND
  5
1266
  8
IMPORT_-_CARRO\\U+00C7A_2
 62
     0
  0
POLYLINE
  5
73
  8
IMPORT_-_CARRO\\U+00C7A_2
 62
     0
 66
     1
 10
0.0
 20
0.0
 30
0.0
 70
     1
  0
VERTEX
  5
1267
  8
IMPORT_-_CARRO\\U+00C7A_2
 62
     0
 10
414.38578888888878
 20
266.68177222222238
 30
0.0
  0
VERTEX
  5
1268
  8
IMPORT_-_CARRO\\U+00C7A_2
 62
     0
 10
414.38578888888878
 20
172.14438333333351
 30
0.0
  0
VERTEX
  5
1269
  8
IMPORT_-_CARRO\\U+00C7A_2
 62
     0
 10
424.91373611111101
 20
172.14438333333351
 30
0.0
  0
VERTEX
  5
126A
  8
IMPORT_-_CARRO\\U+00C7A_2
 62
     0
 10
424.91373611111101
 20
171.74927222222229
 30
0.0
  0
VERTEX
  5
126B
  8
IMPORT_-_CARRO\\U+00C7A_2
 62
     0
 10
424.81178333333321
 20
170.9728083333334
 30
0.0
  0
VERTEX
  5
126C
  8
IMPORT_-_CARRO\\U+00C7A_2
 62
     0
 10
424.5119222222221
 20
170.2492611111112
 30
0.0
  0
VERTEX
  5
126D
  8
IMPORT_-_CARRO\\U+00C7A_2
 62
     0
 10
424.03531944444433
 20
169.6280194444445
 30
0.0
  0
VERTEX
  5
126E
  8
IMPORT_-_CARRO\\U+00C7A_2
 62
     0
 10
423.41372499999989
 20
169.15141666666679
 30
0.0
  0
VERTEX
  5
126F
  8
IMPORT_-_CARRO\\U+00C7A_2
 62
     0
 10
422.69017777777771
 20
168.85155555555559
 30
0.0
  0
VERTEX
  5
1270
  8
IMPORT_-_CARRO\\U+00C7A_2
 62
     0
 10
421.91371388888882
 20
168.7492500000001
 30
0.0
  0
VERTEX
  5
1271
  8
IMPORT_-_CARRO\\U+00C7A_2
 62
     0
 10
405.49966944444452
 20
168.7492500000001
 30
0.0
  0
VERTEX
  5
1272
  8
IMPORT_-_CARRO\\U+00C7A_2
 62
     0
 10
404.72320555555541
 20
168.85155555555559
 30
0.0
  0
VERTEX
  5
1273
  8
IMPORT_-_CARRO\\U+00C7A_2
 62
     0
 10
403.99965833333329
 20
169.15141666666679
 30
0.0
  0
VERTEX
  5
1274
  8
IMPORT_-_CARRO\\U+00C7A_2
 62
     0
 10
403.37841666666668
 20
169.6280194444445
 30
0.0
  0
VERTEX
  5
1275
  8
IMPORT_-_CARRO\\U+00C7A_2
 62
     0
 10
402.9018138888888
 20
170.2492611111112
 30
0.0
  0
VERTEX
  5
1276
  8
IMPORT_-_CARRO\\U+00C7A_2
 62
     0
 10
402.60195277777768
 20
170.9728083333334
 30
0.0
  0
VERTEX
  5
1277
  8
IMPORT_-_CARRO\\U+00C7A_2
 62
     0
 10
402.5
 20
171.74927222222229
 30
0.0
  0
VERTEX
  5
1278
  8
IMPORT_-_CARRO\\U+00C7A_2
 62
     0
 10
402.5
 20
266.99997777777787
 30
0.0
  0
VERTEX
  5
1279
  8
IMPORT_-_CARRO\\U+00C7A_2
 62
     0
 10
402.60195277777768
 20
267.77644166666681
 30
0.0
  0
VERTEX
  5
127A
  8
IMPORT_-_CARRO\\U+00C7A_2
 62
     0
 10
402.9018138888888
 20
268.49998888888899
 30
0.0
  0
VERTEX
  5
127B
  8
IMPORT_-_CARRO\\U+00C7A_2
 62
     0
 10
403.37841666666668
 20
269.12158333333338
 30
0.0
  0
VERTEX
  5
127C
  8
IMPORT_-_CARRO\\U+00C7A_2
 62
     0
 10
403.99965833333329
 20
269.5981861111112
 30
0.0
  0
VERTEX
  5
127D
  8
IMPORT_-_CARRO\\U+00C7A_2
 62
     0
 10
404.72320555555541
 20
269.89804722222232
 30
0.0
  0
VERTEX
  5
127E
  8
IMPORT_-_CARRO\\U+00C7A_2
 62
     0
 10
405.49966944444452
 20
270.00000000000011
 30
0.0
  0
VERTEX
  5
127F
  8
IMPORT_-_CARRO\\U+00C7A_2
 62
     0
 10
421.91371388888882
 20
270.00000000000011
 30
0.0
  0
VERTEX
  5
1280
  8
IMPORT_-_CARRO\\U+00C7A_2
 62
     0
 10
422.69017777777771
 20
269.89804722222232
 30
0.0
  0
VERTEX
  5
1281
  8
IMPORT_-_CARRO\\U+00C7A_2
 62
     0
 10
423.41372499999989
 20
269.5981861111112
 30
0.0
  0
VERTEX
  5
1282
  8
IMPORT_-_CARRO\\U+00C7A_2
 62
     0
 10
424.03531944444433
 20
269.12158333333338
 30
0.0
  0
VERTEX
  5
1283
  8
IMPORT_-_CARRO\\U+00C7A_2
 62
     0
 10
424.5119222222221
 20
268.49998888888899
 30
0.0
  0
VERTEX
  5
1284
  8
IMPORT_-_CARRO\\U+00C7A_2
 62
     0
 10
424.81178333333321
 20
267.77644166666681
 30
0.0
  0
VERTEX
  5
1285
  8
IMPORT_-_CARRO\\U+00C7A_2
 62
     0
 10
424.91373611111101
 20
266.99997777777787
 30
0.0
  0
VERTEX
  5
1286
  8
IMPORT_-_CARRO\\U+00C7A_2
 62
     0
 10
424.91373611111101
 20
266.68177222222238
 30
0.0
  0
SEQEND
  5
1287
  8
IMPORT_-_CARRO\\U+00C7A_2
 62
     0
  0
POLYLINE
  5
74
  8
IMPORT_-_CARRO\\U+00C7A_2
 62
     0
 66
     1
 10
0.0
 20
0.0
 30
0.0
 70
     1
  0
VERTEX
  5
1288
  8
IMPORT_-_CARRO\\U+00C7A_2
 62
     0
 10
89.319419444444364
 20
382.28110833333329
 30
0.0
  0
VERTEX
  5
1289
  8
IMPORT_-_CARRO\\U+00C7A_2
 62
     0
 10
89.319419444444364
 20
381.92021666666659
 30
0.0
  0
VERTEX
  5
128A
  8
IMPORT_-_CARRO\\U+00C7A_2
 62
     0
 10
89.230519444444354
 20
380.79097499999978
 30
0.0
  0
VERTEX
  5
128B
  8
IMPORT_-_CARRO\\U+00C7A_2
 62
     0
 10
88.965936111111048
 20
379.68960277777768
 30
0.0
  0
VERTEX
  5
128C
  8
IMPORT_-_CARRO\\U+00C7A_2
 62
     0
 10
88.5327249999999
 20
378.64326388888878
 30
0.0
  0
VERTEX
  5
128D
  8
IMPORT_-_CARRO\\U+00C7A_2
 62
     0
 10
87.940763888888796
 20
377.6773583333333
 30
0.0
  0
VERTEX
  5
128E
  8
IMPORT_-_CARRO\\U+00C7A_2
 62
     0
 10
87.205222222222119
 20
376.81587499999978
 30
0.0
  0
VERTEX
  5
128F
  8
IMPORT_-_CARRO\\U+00C7A_2
 62
     0
 10
86.343738888888822
 20
376.08033333333327
 30
0.0
  0
VERTEX
  5
1290
  8
IMPORT_-_CARRO\\U+00C7A_2
 62
     0
 10
85.377833333333257
 20
375.48837222222221
 30
0.0
  0
VERTEX
  5
1291
  8
IMPORT_-_CARRO\\U+00C7A_2
 62
     0
 10
84.331494444444374
 20
375.0548083333332
 30
0.0
  0
VERTEX
  5
1292
  8
IMPORT_-_CARRO\\U+00C7A_2
 62
     0
 10
83.230122222222164
 20
374.79057777777768
 30
0.0
  0
VERTEX
  5
1293
  8
IMPORT_-_CARRO\\U+00C7A_2
 62
     0
 10
82.100527777777728
 20
374.70167777777777
 30
0.0
  0
VERTEX
  5
1294
  8
IMPORT_-_CARRO\\U+00C7A_2
 62
     0
 10
76.136819444444342
 20
374.70167777777777
 30
0.0
  0
VERTEX
  5
1295
  8
IMPORT_-_CARRO\\U+00C7A_2
 62
     0
 10
76.136819444444342
 20
382.10083888888892
 30
0.0
  0
VERTEX
  5
1296
  8
IMPORT_-_CARRO\\U+00C7A_2
 62
     0
 10
73.136797222222157
 20
382.10083888888892
 30
0.0
  0
VERTEX
  5
1297
  8
IMPORT_-_CARRO\\U+00C7A_2
 62
     0
 10
73.136797222222157
 20
374.70167777777777
 30
0.0
  0
VERTEX
  5
1298
  8
IMPORT_-_CARRO\\U+00C7A_2
 62
     0
 10
24.1793555555555
 20
374.70167777777777
 30
0.0
  0
VERTEX
  5
1299
  8
IMPORT_-_CARRO\\U+00C7A_2
 62
     0
 10
24.1793555555555
 20
382.10083888888892
 30
0.0
  0
VERTEX
  5
129A
  8
IMPORT_-_CARRO\\U+00C7A_2
 62
     0
 10
21.179333333333261
 20
382.10083888888892
 30
0.0
  0
VERTEX
  5
129B
  8
IMPORT_-_CARRO\\U+00C7A_2
 62
     0
 10
21.179333333333261
 20
374.70167777777777
 30
0.0
  0
VERTEX
  5
129C
  8
IMPORT_-_CARRO\\U+00C7A_2
 62
     0
 10
11.718538888888819
 20
374.70167777777777
 30
0.0
  0
VERTEX
  5
129D
  8
IMPORT_-_CARRO\\U+00C7A_2
 62
     0
 10
10.58929722222217
 20
374.7905777777778
 30
0.0
  0
VERTEX
  5
129E
  8
IMPORT_-_CARRO\\U+00C7A_2
 62
     0
 10
9.4879249999999633
 20
375.05480833333343
 30
0.0
  0
VERTEX
  5
129F
  8
IMPORT_-_CARRO\\U+00C7A_2
 62
     0
 10
8.4412333333332867
 20
375.48837222222232
 30
0.0
  0
VERTEX
  5
12A0
  8
IMPORT_-_CARRO\\U+00C7A_2
 62
     0
 10
7.4753277777776921
 20
376.08033333333327
 30
0.0
  0
VERTEX
  5
12A1
  8
IMPORT_-_CARRO\\U+00C7A_2
 62
     0
 10
6.614197222222117
 20
376.81587500000001
 30
0.0
  0
VERTEX
  5
12A2
  8
IMPORT_-_CARRO\\U+00C7A_2
 62
     0
 10
5.8783027777776624
 20
377.67735833333342
 30
0.0
  0
VERTEX
  5
12A3
  8
IMPORT_-_CARRO\\U+00C7A_2
 62
     0
 10
5.286694444444378
 20
378.64326388888901
 30
0.0
  0
VERTEX
  5
12A4
  8
IMPORT_-_CARRO\\U+00C7A_2
 62
     0
 10
4.85313055555548
 20
379.68960277777779
 30
0.0
  0
VERTEX
  5
12A5
  8
IMPORT_-_CARRO\\U+00C7A_2
 62
     0
 10
4.5888999999999101
 20
380.790975
 30
0.0
  0
VERTEX
  5
12A6
  8
IMPORT_-_CARRO\\U+00C7A_2
 62
     0
 10
4.4999999999999432
 20
381.9202166666667
 30
0.0
  0
VERTEX
  5
12A7
  8
IMPORT_-_CARRO\\U+00C7A_2
 62
     0
 10
4.4999999999999432
 20
382.28110833333329
 30
0.0
  0
VERTEX
  5
12A8
  8
IMPORT_-_CARRO\\U+00C7A_2
 62
     0
 10
4.5888999999999101
 20
383.41034999999999
 30
0.0
  0
VERTEX
  5
12A9
  8
IMPORT_-_CARRO\\U+00C7A_2
 62
     0
 10
4.85313055555548
 20
384.51207499999998
 30
0.0
  0
VERTEX
  5
12AA
  8
IMPORT_-_CARRO\\U+00C7A_2
 62
     0
 10
5.286694444444378
 20
385.55841388888888
 30
0.0
  0
VERTEX
  5
12AB
  8
IMPORT_-_CARRO\\U+00C7A_2
 62
     0
 10
5.8783027777776624
 20
386.52431944444447
 30
0.0
  0
VERTEX
  5
12AC
  8
IMPORT_-_CARRO\\U+00C7A_2
 62
     0
 10
6.614197222222117
 20
387.38580277777783
 30
0.0
  0
VERTEX
  5
12AD
  8
IMPORT_-_CARRO\\U+00C7A_2
 62
     0
 10
7.4753277777776921
 20
388.12134444444428
 30
0.0
  0
VERTEX
  5
12AE
  8
IMPORT_-_CARRO\\U+00C7A_2
 62
     0
 10
8.4412333333332867
 20
388.71295277777779
 30
0.0
  0
VERTEX
  5
12AF
  8
IMPORT_-_CARRO\\U+00C7A_2
 62
     0
 10
9.4879249999999633
 20
389.14651666666668
 30
0.0
  0
VERTEX
  5
12B0
  8
IMPORT_-_CARRO\\U+00C7A_2
 62
     0
 10
10.58929722222217
 20
389.41109999999998
 30
0.0
  0
VERTEX
  5
12B1
  8
IMPORT_-_CARRO\\U+00C7A_2
 62
     0
 10
11.718538888888819
 20
389.5
 30
0.0
  0
VERTEX
  5
12B2
  8
IMPORT_-_CARRO\\U+00C7A_2
 62
     0
 10
82.100527777777728
 20
389.49999999999977
 30
0.0
  0
VERTEX
  5
12B3
  8
IMPORT_-_CARRO\\U+00C7A_2
 62
     0
 10
83.230122222222164
 20
389.41109999999998
 30
0.0
  0
VERTEX
  5
12B4
  8
IMPORT_-_CARRO\\U+00C7A_2
 62
     0
 10
84.331494444444374
 20
389.14651666666663
 30
0.0
  0
VERTEX
  5
12B5
  8
IMPORT_-_CARRO\\U+00C7A_2
 62
     0
 10
85.377833333333257
 20
388.71295277777767
 30
0.0
  0
VERTEX
  5
12B6
  8
IMPORT_-_CARRO\\U+00C7A_2
 62
     0
 10
86.343738888888822
 20
388.12134444444428
 30
0.0
  0
VERTEX
  5
12B7
  8
IMPORT_-_CARRO\\U+00C7A_2
 62
     0
 10
87.205222222222119
 20
387.38580277777771
 30
0.0
  0
VERTEX
  5
12B8
  8
IMPORT_-_CARRO\\U+00C7A_2
 62
     0
 10
87.940763888888796
 20
386.52431944444442
 30
0.0
  0
VERTEX
  5
12B9
  8
IMPORT_-_CARRO\\U+00C7A_2
 62
     0
 10
88.5327249999999
 20
385.55841388888882
 30
0.0
  0
VERTEX
  5
12BA
  8
IMPORT_-_CARRO\\U+00C7A_2
 62
     0
 10
88.965936111111048
 20
384.51207499999998
 30
0.0
  0
VERTEX
  5
12BB
  8
IMPORT_-_CARRO\\U+00C7A_2
 62
     0
 10
89.230519444444354
 20
383.41034999999982
 30
0.0
  0
SEQEND
  5
12BC
  8
IMPORT_-_CARRO\\U+00C7A_2
 62
     0
  0
POLYLINE
  5
75
  8
IMPORT_-_CARRO\\U+00C7A_2
 62
     0
 66
     1
 10
0.0
 20
0.0
 30
0.0
 70
     1
  0
VERTEX
  5
12BD
  8
IMPORT_-_CARRO\\U+00C7A_2
 62
     0
 10
354.36619999999982
 20
238.49997733583299
 30
0.0
  0
VERTEX
  5
12BE
  8
IMPORT_-_CARRO\\U+00C7A_2
 62
     0
 10
355.2015777777778
 20
238.49997733583299
 30
0.0
  0
VERTEX
  5
12BF
  8
IMPORT_-_CARRO\\U+00C7A_2
 62
     0
 10
355.59598333333338
 20
238.4689328913885
 30
0.0
  0
VERTEX
  5
12C0
  8
IMPORT_-_CARRO\\U+00C7A_2
 62
     0
 10
355.98086388888879
 20
238.37650511361079
 30
0.0
  0
VERTEX
  5
12C1
  8
IMPORT_-_CARRO\\U+00C7A_2
 62
     0
 10
356.34634166666672
 20
238.22516344694409
 30
0.0
  0
VERTEX
  5
12C2
  8
IMPORT_-_CARRO\\U+00C7A_2
 62
     0
 10
356.68395000000021
 20
238.01843566916631
 30
0.0
  0
VERTEX
  5
12C3
  8
IMPORT_-_CARRO\\U+00C7A_2
 62
     0
 10
356.98486944444448
 20
237.76126066916629
 30
0.0
  0
VERTEX
  5
12C4
  8
IMPORT_-_CARRO\\U+00C7A_2
 62
     0
 10
357.24169166666672
 20
237.4603412247219
 30
0.0
  0
VERTEX
  5
12C5
  8
IMPORT_-_CARRO\\U+00C7A_2
 62
     0
 10
357.44841944444443
 20
237.12273289138849
 30
0.0
  0
VERTEX
  5
12C6
  8
IMPORT_-_CARRO\\U+00C7A_2
 62
     0
 10
357.60011388888893
 20
236.7572551136108
 30
0.0
  0
VERTEX
  5
12C7
  8
IMPORT_-_CARRO\\U+00C7A_2
 62
     0
 10
357.69254166666673
 20
236.37237455805521
 30
0.0
  0
VERTEX
  5
12C8
  8
IMPORT_-_CARRO\\U+00C7A_2
 62
     0
 10
357.72323333333338
 20
235.97796900249969
 30
0.0
  0
VERTEX
  5
12C9
  8
IMPORT_-_CARRO\\U+00C7A_2
 62
     0
 10
357.72323333333338
 20
234.16151622472191
 30
0.0
  0
VERTEX
  5
12CA
  8
IMPORT_-_CARRO\\U+00C7A_2
 62
     0
 10
357.69254166666673
 20
233.7671106691663
 30
0.0
  0
VERTEX
  5
12CB
  8
IMPORT_-_CARRO\\U+00C7A_2
 62
     0
 10
357.60011388888893
 20
233.3822301136108
 30
0.0
  0
VERTEX
  5
12CC
  8
IMPORT_-_CARRO\\U+00C7A_2
 62
     0
 10
357.44841944444443
 20
233.01675233583299
 30
0.0
  0
VERTEX
  5
12CD
  8
IMPORT_-_CARRO\\U+00C7A_2
 62
     0
 10
357.24169166666672
 20
232.67914400249961
 30
0.0
  0
VERTEX
  5
12CE
  8
IMPORT_-_CARRO\\U+00C7A_2
 62
     0
 10
356.98486944444448
 20
232.37822455805531
 30
0.0
  0
VERTEX
  5
12CF
  8
IMPORT_-_CARRO\\U+00C7A_2
 62
     0
 10
356.68395000000021
 20
232.1210495580552
 30
0.0
  0
VERTEX
  5
12D0
  8
IMPORT_-_CARRO\\U+00C7A_2
 62
     0
 10
356.34634166666672
 20
231.9143217802775
 30
0.0
  0
VERTEX
  5
12D1
  8
IMPORT_-_CARRO\\U+00C7A_2
 62
     0
 10
355.98086388888879
 20
231.76298011361081
 30
0.0
  0
VERTEX
  5
12D2
  8
IMPORT_-_CARRO\\U+00C7A_2
 62
     0
 10
355.59598333333338
 20
231.67055233583301
 30
0.0
  0
VERTEX
  5
12D3
  8
IMPORT_-_CARRO\\U+00C7A_2
 62
     0
 10
355.2015777777778
 20
231.6395078913886
 30
0.0
  0
VERTEX
  5
12D4
  8
IMPORT_-_CARRO\\U+00C7A_2
 62
     0
 10
259.02200833333342
 20
231.6395078913886
 30
0.0
  0
VERTEX
  5
12D5
  8
IMPORT_-_CARRO\\U+00C7A_2
 62
     0
 10
258.62760277777772
 20
231.67055233583301
 30
0.0
  0
VERTEX
  5
12D6
  8
IMPORT_-_CARRO\\U+00C7A_2
 62
     0
 10
258.24272222222231
 20
231.76298011361081
 30
0.0
  0
VERTEX
  5
12D7
  8
IMPORT_-_CARRO\\U+00C7A_2
 62
     0
 10
257.8772444444445
 20
231.9143217802775
 30
0.0
  0
VERTEX
  5
12D8
  8
IMPORT_-_CARRO\\U+00C7A_2
 62
     0
 10
257.53963611111112
 20
232.1210495580552
 30
0.0
  0
VERTEX
  5
12D9
  8
IMPORT_-_CARRO\\U+00C7A_2
 62
     0
 10
257.23871666666668
 20
232.37822455805531
 30
0.0
  0
VERTEX
  5
12DA
  8
IMPORT_-_CARRO\\U+00C7A_2
 62
     0
 10
256.98189444444449
 20
232.67914400249961
 30
0.0
  0
VERTEX
  5
12DB
  8
IMPORT_-_CARRO\\U+00C7A_2
 62
     0
 10
256.77481388888901
 20
233.01675233583299
 30
0.0
  0
VERTEX
  5
12DC
  8
IMPORT_-_CARRO\\U+00C7A_2
 62
     0
 10
256.62347222222229
 20
233.3822301136108
 30
0.0
  0
VERTEX
  5
12DD
  8
IMPORT_-_CARRO\\U+00C7A_2
 62
     0
 10
256.53104444444438
 20
233.7671106691663
 30
0.0
  0
VERTEX
  5
12DE
  8
IMPORT_-_CARRO\\U+00C7A_2
 62
     0
 10
256.5
 20
234.16151622472191
 30
0.0
  0
VERTEX
  5
12DF
  8
IMPORT_-_CARRO\\U+00C7A_2
 62
     0
 10
256.5
 20
235.97796900249969
 30
0.0
  0
VERTEX
  5
12E0
  8
IMPORT_-_CARRO\\U+00C7A_2
 62
     0
 10
256.53104444444438
 20
236.37237455805521
 30
0.0
  0
VERTEX
  5
12E1
  8
IMPORT_-_CARRO\\U+00C7A_2
 62
     0
 10
256.62347222222229
 20
236.7572551136108
 30
0.0
  0
VERTEX
  5
12E2
  8
IMPORT_-_CARRO\\U+00C7A_2
 62
     0
 10
256.77481388888901
 20
237.12273289138849
 30
0.0
  0
VERTEX
  5
12E3
  8
IMPORT_-_CARRO\\U+00C7A_2
 62
     0
 10
256.98189444444449
 20
237.4603412247219
 30
0.0
  0
VERTEX
  5
12E4
  8
IMPORT_-_CARRO\\U+00C7A_2
 62
     0
 10
257.23871666666668
 20
237.76126066916629
 30
0.0
  0
VERTEX
  5
12E5
  8
IMPORT_-_CARRO\\U+00C7A_2
 62
     0
 10
257.53963611111112
 20
238.01843566916631
 30
0.0
  0
VERTEX
  5
12E6
  8
IMPORT_-_CARRO\\U+00C7A_2
 62
     0
 10
257.8772444444445
 20
238.22516344694409
 30
0.0
  0
VERTEX
  5
12E7
  8
IMPORT_-_CARRO\\U+00C7A_2
 62
     0
 10
258.24272222222231
 20
238.37650511361079
 30
0.0
  0
VERTEX
  5
12E8
  8
IMPORT_-_CARRO\\U+00C7A_2
 62
     0
 10
258.62760277777772
 20
238.4689328913885
 30
0.0
  0
VERTEX
  5
12E9
  8
IMPORT_-_CARRO\\U+00C7A_2
 62
     0
 10
259.02200833333342
 20
238.49997733583299
 30
0.0
  0
VERTEX
  5
12EA
  8
IMPORT_-_CARRO\\U+00C7A_2
 62
     0
 10
259.86303055555561
 20
238.49962455805519
 30
0.0
  0
VERTEX
  5
12EB
  8
IMPORT_-_CARRO\\U+00C7A_2
 62
     0
 10
259.86303055555561
 20
235.0692134469441
 30
0.0
  0
VERTEX
  5
12EC
  8
IMPORT_-_CARRO\\U+00C7A_2
 62
     0
 10
262.86270000000002
 20
235.0692134469441
 30
0.0
  0
VERTEX
  5
12ED
  8
IMPORT_-_CARRO\\U+00C7A_2
 62
     0
 10
262.86270000000002
 20
238.49962455805519
 30
0.0
  0
VERTEX
  5
12EE
  8
IMPORT_-_CARRO\\U+00C7A_2
 62
     0
 10
290.36384444444451
 20
238.49962455805519
 30
0.0
  0
VERTEX
  5
12EF
  8
IMPORT_-_CARRO\\U+00C7A_2
 62
     0
 10
290.36384444444451
 20
235.0692134469441
 30
0.0
  0
VERTEX
  5
12F0
  8
IMPORT_-_CARRO\\U+00C7A_2
 62
     0
 10
293.36386666666669
 20
235.0692134469441
 30
0.0
  0
VERTEX
  5
12F1
  8
IMPORT_-_CARRO\\U+00C7A_2
 62
     0
 10
293.36386666666669
 20
238.49962455805519
 30
0.0
  0
VERTEX
  5
12F2
  8
IMPORT_-_CARRO\\U+00C7A_2
 62
     0
 10
320.86501111111107
 20
238.49962455805519
 30
0.0
  0
VERTEX
  5
12F3
  8
IMPORT_-_CARRO\\U+00C7A_2
 62
     0
 10
320.86501111111107
 20
235.0692134469441
 30
0.0
  0
VERTEX
  5
12F4
  8
IMPORT_-_CARRO\\U+00C7A_2
 62
     0
 10
323.86503333333337
 20
235.0692134469441
 30
0.0
  0
VERTEX
  5
12F5
  8
IMPORT_-_CARRO\\U+00C7A_2
 62
     0
 10
323.86503333333337
 20
238.49962455805519
 30
0.0
  0
VERTEX
  5
12F6
  8
IMPORT_-_CARRO\\U+00C7A_2
 62
     0
 10
351.36617777777781
 20
238.49962455805519
 30
0.0
  0
VERTEX
  5
12F7
  8
IMPORT_-_CARRO\\U+00C7A_2
 62
     0
 10
351.36617777777781
 20
235.0692134469441
 30
0.0
  0
VERTEX
  5
12F8
  8
IMPORT_-_CARRO\\U+00C7A_2
 62
     0
 10
354.36619999999982
 20
235.0692134469441
 30
0.0
  0
SEQEND
  5
12F9
  8
IMPORT_-_CARRO\\U+00C7A_2
 62
     0
  0
POLYLINE
  5
76
  8
IMPORT_-_CARRO\\U+00C7A_2
 62
     0
 66
     1
 10
0.0
 20
0.0
 30
0.0
 70
     1
  0
VERTEX
  5
12FA
  8
IMPORT_-_CARRO\\U+00C7A_2
 62
     0
 10
349.86386666666669
 20
106.9992491157429
 30
0.0
  0
VERTEX
  5
12FB
  8
IMPORT_-_CARRO\\U+00C7A_2
 62
     0
 10
377.36501111111107
 20
106.9992491157429
 30
0.0
  0
VERTEX
  5
12FC
  8
IMPORT_-_CARRO\\U+00C7A_2
 62
     0
 10
377.36501111111107
 20
103.56919078240961
 30
0.0
  0
VERTEX
  5
12FD
  8
IMPORT_-_CARRO\\U+00C7A_2
 62
     0
 10
380.36503333333332
 20
103.56919078240961
 30
0.0
  0
VERTEX
  5
12FE
  8
IMPORT_-_CARRO\\U+00C7A_2
 62
     0
 10
380.36503333333332
 20
106.9992491157429
 30
0.0
  0
VERTEX
  5
12FF
  8
IMPORT_-_CARRO\\U+00C7A_2
 62
     0
 10
407.86617777777781
 20
106.9992491157429
 30
0.0
  0
VERTEX
  5
1300
  8
IMPORT_-_CARRO\\U+00C7A_2
 62
     0
 10
407.86617777777781
 20
103.56919078240961
 30
0.0
  0
VERTEX
  5
1301
  8
IMPORT_-_CARRO\\U+00C7A_2
 62
     0
 10
410.86619999999982
 20
103.56919078240961
 30
0.0
  0
VERTEX
  5
1302
  8
IMPORT_-_CARRO\\U+00C7A_2
 62
     0
 10
410.86619999999982
 20
106.9996018935207
 30
0.0
  0
VERTEX
  5
1303
  8
IMPORT_-_CARRO\\U+00C7A_2
 62
     0
 10
411.7015777777778
 20
106.9999546712984
 30
0.0
  0
VERTEX
  5
1304
  8
IMPORT_-_CARRO\\U+00C7A_2
 62
     0
 10
412.09598333333332
 20
106.96891022685401
 30
0.0
  0
VERTEX
  5
1305
  8
IMPORT_-_CARRO\\U+00C7A_2
 62
     0
 10
412.48086388888879
 20
106.87648244907621
 30
0.0
  0
VERTEX
  5
1306
  8
IMPORT_-_CARRO\\U+00C7A_2
 62
     0
 10
412.84634166666672
 20
106.7247880046318
 30
0.0
  0
VERTEX
  5
1307
  8
IMPORT_-_CARRO\\U+00C7A_2
 62
     0
 10
413.1839500000001
 20
106.518060226854
 30
0.0
  0
VERTEX
  5
1308
  8
IMPORT_-_CARRO\\U+00C7A_2
 62
     0
 10
413.48486944444443
 20
106.26123800463181
 30
0.0
  0
VERTEX
  5
1309
  8
IMPORT_-_CARRO\\U+00C7A_2
 62
     0
 10
413.74169166666661
 20
105.9603185601873
 30
0.0
  0
VERTEX
  5
130A
  8
IMPORT_-_CARRO\\U+00C7A_2
 62
     0
 10
413.94841944444443
 20
105.622710226854
 30
0.0
  0
VERTEX
  5
130B
  8
IMPORT_-_CARRO\\U+00C7A_2
 62
     0
 10
414.10011388888881
 20
105.2572324490762
 30
0.0
  0
VERTEX
  5
130C
  8
IMPORT_-_CARRO\\U+00C7A_2
 62
     0
 10
414.19254166666673
 20
104.8723518935207
 30
0.0
  0
VERTEX
  5
130D
  8
IMPORT_-_CARRO\\U+00C7A_2
 62
     0
 10
414.22323333333338
 20
104.4775935601873
 30
0.0
  0
VERTEX
  5
130E
  8
IMPORT_-_CARRO\\U+00C7A_2
 62
     0
 10
414.22323333333338
 20
102.6614935601874
 30
0.0
  0
VERTEX
  5
130F
  8
IMPORT_-_CARRO\\U+00C7A_2
 62
     0
 10
414.19254166666673
 20
102.2670880046318
 30
0.0
  0
VERTEX
  5
1310
  8
IMPORT_-_CARRO\\U+00C7A_2
 62
     0
 10
414.10011388888881
 20
101.8822074490762
 30
0.0
  0
VERTEX
  5
1311
  8
IMPORT_-_CARRO\\U+00C7A_2
 62
     0
 10
413.94841944444443
 20
101.5163768935207
 30
0.0
  0
VERTEX
  5
1312
  8
IMPORT_-_CARRO\\U+00C7A_2
 62
     0
 10
413.74169166666661
 20
101.1791213379651
 30
0.0
  0
VERTEX
  5
1313
  8
IMPORT_-_CARRO\\U+00C7A_2
 62
     0
 10
413.48486944444443
 20
100.8782018935207
 30
0.0
  0
VERTEX
  5
1314
  8
IMPORT_-_CARRO\\U+00C7A_2
 62
     0
 10
413.1839500000001
 20
100.62102689352059
 30
0.0
  0
VERTEX
  5
1315
  8
IMPORT_-_CARRO\\U+00C7A_2
 62
     0
 10
412.84634166666672
 20
100.41429911574291
 30
0.0
  0
VERTEX
  5
1316
  8
IMPORT_-_CARRO\\U+00C7A_2
 62
     0
 10
412.48086388888879
 20
100.2629574490762
 30
0.0
  0
VERTEX
  5
1317
  8
IMPORT_-_CARRO\\U+00C7A_2
 62
     0
 10
412.09598333333332
 20
100.1705296712984
 30
0.0
  0
VERTEX
  5
1318
  8
IMPORT_-_CARRO\\U+00C7A_2
 62
     0
 10
411.7015777777778
 20
100.13948522685401
 30
0.0
  0
VERTEX
  5
1319
  8
IMPORT_-_CARRO\\U+00C7A_2
 62
     0
 10
315.5220083333333
 20
100.13948522685401
 30
0.0
  0
VERTEX
  5
131A
  8
IMPORT_-_CARRO\\U+00C7A_2
 62
     0
 10
315.12760277777772
 20
100.1705296712984
 30
0.0
  0
VERTEX
  5
131B
  8
IMPORT_-_CARRO\\U+00C7A_2
 62
     0
 10
314.74272222222231
 20
100.2629574490762
 30
0.0
  0
VERTEX
  5
131C
  8
IMPORT_-_CARRO\\U+00C7A_2
 62
     0
 10
314.3772444444445
 20
100.41429911574291
 30
0.0
  0
VERTEX
  5
131D
  8
IMPORT_-_CARRO\\U+00C7A_2
 62
     0
 10
314.03963611111112
 20
100.62102689352059
 30
0.0
  0
VERTEX
  5
131E
  8
IMPORT_-_CARRO\\U+00C7A_2
 62
     0
 10
313.73871666666668
 20
100.8782018935207
 30
0.0
  0
VERTEX
  5
131F
  8
IMPORT_-_CARRO\\U+00C7A_2
 62
     0
 10
313.48189444444449
 20
101.1791213379651
 30
0.0
  0
VERTEX
  5
1320
  8
IMPORT_-_CARRO\\U+00C7A_2
 62
     0
 10
313.27481388888901
 20
101.5163768935207
 30
0.0
  0
VERTEX
  5
1321
  8
IMPORT_-_CARRO\\U+00C7A_2
 62
     0
 10
313.12347222222229
 20
101.8822074490762
 30
0.0
  0
VERTEX
  5
1322
  8
IMPORT_-_CARRO\\U+00C7A_2
 62
     0
 10
313.03104444444438
 20
102.2670880046318
 30
0.0
  0
VERTEX
  5
1323
  8
IMPORT_-_CARRO\\U+00C7A_2
 62
     0
 10
313.0
 20
102.6614935601874
 30
0.0
  0
VERTEX
  5
1324
  8
IMPORT_-_CARRO\\U+00C7A_2
 62
     0
 10
313.0
 20
104.4775935601873
 30
0.0
  0
VERTEX
  5
1325
  8
IMPORT_-_CARRO\\U+00C7A_2
 62
     0
 10
313.03104444444438
 20
104.8723518935207
 30
0.0
  0
VERTEX
  5
1326
  8
IMPORT_-_CARRO\\U+00C7A_2
 62
     0
 10
313.12347222222229
 20
105.2572324490762
 30
0.0
  0
VERTEX
  5
1327
  8
IMPORT_-_CARRO\\U+00C7A_2
 62
     0
 10
313.27481388888901
 20
105.622710226854
 30
0.0
  0
VERTEX
  5
1328
  8
IMPORT_-_CARRO\\U+00C7A_2
 62
     0
 10
313.48189444444449
 20
105.9603185601873
 30
0.0
  0
VERTEX
  5
1329
  8
IMPORT_-_CARRO\\U+00C7A_2
 62
     0
 10
313.73871666666668
 20
106.26123800463181
 30
0.0
  0
VERTEX
  5
132A
  8
IMPORT_-_CARRO\\U+00C7A_2
 62
     0
 10
314.03963611111112
 20
106.518060226854
 30
0.0
  0
VERTEX
  5
132B
  8
IMPORT_-_CARRO\\U+00C7A_2
 62
     0
 10
314.3772444444445
 20
106.7247880046318
 30
0.0
  0
VERTEX
  5
132C
  8
IMPORT_-_CARRO\\U+00C7A_2
 62
     0
 10
314.74272222222231
 20
106.87648244907621
 30
0.0
  0
VERTEX
  5
132D
  8
IMPORT_-_CARRO\\U+00C7A_2
 62
     0
 10
315.12760277777772
 20
106.96891022685401
 30
0.0
  0
VERTEX
  5
132E
  8
IMPORT_-_CARRO\\U+00C7A_2
 62
     0
 10
315.5220083333333
 20
106.9999546712984
 30
0.0
  0
VERTEX
  5
132F
  8
IMPORT_-_CARRO\\U+00C7A_2
 62
     0
 10
316.36303055555561
 20
106.9992491157429
 30
0.0
  0
VERTEX
  5
1330
  8
IMPORT_-_CARRO\\U+00C7A_2
 62
     0
 10
316.36303055555561
 20
103.56919078240961
 30
0.0
  0
VERTEX
  5
1331
  8
IMPORT_-_CARRO\\U+00C7A_2
 62
     0
 10
319.36270000000002
 20
103.56919078240961
 30
0.0
  0
VERTEX
  5
1332
  8
IMPORT_-_CARRO\\U+00C7A_2
 62
     0
 10
319.36270000000002
 20
106.9992491157429
 30
0.0
  0
VERTEX
  5
1333
  8
IMPORT_-_CARRO\\U+00C7A_2
 62
     0
 10
346.86384444444451
 20
106.9992491157429
 30
0.0
  0
VERTEX
  5
1334
  8
IMPORT_-_CARRO\\U+00C7A_2
 62
     0
 10
346.86384444444451
 20
103.56919078240961
 30
0.0
  0
VERTEX
  5
1335
  8
IMPORT_-_CARRO\\U+00C7A_2
 62
     0
 10
349.86386666666669
 20
103.56919078240961
 30
0.0
  0
SEQEND
  5
1336
  8
IMPORT_-_CARRO\\U+00C7A_2
 62
     0
  0
POLYLINE
  5
77
  8
IMPORT_-_CARRO\\U+00C7A_2
 62
     0
 66
     1
 10
0.0
 20
0.0
 30
0.0
 70
     1
  0
VERTEX
  5
1337
  8
IMPORT_-_CARRO\\U+00C7A_2
 62
     0
 10
470.36619999999982
 20
11.49997733583302
 30
0.0
  0
VERTEX
  5
1338
  8
IMPORT_-_CARRO\\U+00C7A_2
 62
     0
 10
471.2015777777778
 20
11.49997733583302
 30
0.0
  0
VERTEX
  5
1339
  8
IMPORT_-_CARRO\\U+00C7A_2
 62
     0
 10
471.59598333333332
 20
11.46893289138859
 30
0.0
  0
VERTEX
  5
133A
  8
IMPORT_-_CARRO\\U+00C7A_2
 62
     0
 10
471.98086388888879
 20
11.37650511361079
 30
0.0
  0
VERTEX
  5
133B
  8
IMPORT_-_CARRO\\U+00C7A_2
 62
     0
 10
472.34634166666672
 20
11.225163446944119
 30
0.0
  0
VERTEX
  5
133C
  8
IMPORT_-_CARRO\\U+00C7A_2
 62
     0
 10
472.6839500000001
 20
11.01843566916631
 30
0.0
  0
VERTEX
  5
133D
  8
IMPORT_-_CARRO\\U+00C7A_2
 62
     0
 10
472.98486944444443
 20
10.761260669166401
 30
0.0
  0
VERTEX
  5
133E
  8
IMPORT_-_CARRO\\U+00C7A_2
 62
     0
 10
473.24169166666672
 20
10.46034122472196
 30
0.0
  0
VERTEX
  5
133F
  8
IMPORT_-_CARRO\\U+00C7A_2
 62
     0
 10
473.44841944444431
 20
10.123085669166411
 30
0.0
  0
VERTEX
  5
1340
  8
IMPORT_-_CARRO\\U+00C7A_2
 62
     0
 10
473.60011388888881
 20
9.7572551136108245
 30
0.0
  0
VERTEX
  5
1341
  8
IMPORT_-_CARRO\\U+00C7A_2
 62
     0
 10
473.69254166666673
 20
9.3727273358330194
 30
0.0
  0
VERTEX
  5
1342
  8
IMPORT_-_CARRO\\U+00C7A_2
 62
     0
 10
473.72323333333333
 20
8.9779690024997212
 30
0.0
  0
VERTEX
  5
1343
  8
IMPORT_-_CARRO\\U+00C7A_2
 62
     0
 10
473.72323333333333
 20
7.1618690024997687
 30
0.0
  0
VERTEX
  5
1344
  8
IMPORT_-_CARRO\\U+00C7A_2
 62
     0
 10
473.69254166666673
 20
6.7671106691663567
 30
0.0
  0
VERTEX
  5
1345
  8
IMPORT_-_CARRO\\U+00C7A_2
 62
     0
 10
473.60011388888881
 20
6.3822301136108308
 30
0.0
  0
VERTEX
  5
1346
  8
IMPORT_-_CARRO\\U+00C7A_2
 62
     0
 10
473.44841944444431
 20
6.0167523358330177
 30
0.0
  0
VERTEX
  5
1347
  8
IMPORT_-_CARRO\\U+00C7A_2
 62
     0
 10
473.24169166666672
 20
5.6791440024996973
 30
0.0
  0
VERTEX
  5
1348
  8
IMPORT_-_CARRO\\U+00C7A_2
 62
     0
 10
472.98486944444443
 20
5.3782245580553081
 30
0.0
  0
VERTEX
  5
1349
  8
IMPORT_-_CARRO\\U+00C7A_2
 62
     0
 10
472.6839500000001
 20
5.121402335833011
 30
0.0
  0
VERTEX
  5
134A
  8
IMPORT_-_CARRO\\U+00C7A_2
 62
     0
 10
472.34634166666672
 20
4.9146745580552533
 30
0.0
  0
VERTEX
  5
134B
  8
IMPORT_-_CARRO\\U+00C7A_2
 62
     0
 10
471.98086388888879
 20
4.7629801136108076
 30
0.0
  0
VERTEX
  5
134C
  8
IMPORT_-_CARRO\\U+00C7A_2
 62
     0
 10
471.59598333333332
 20
4.6709051136107851
 30
0.0
  0
VERTEX
  5
134D
  8
IMPORT_-_CARRO\\U+00C7A_2
 62
     0
 10
471.2015777777778
 20
4.6398606691663531
 30
0.0
  0
VERTEX
  5
134E
  8
IMPORT_-_CARRO\\U+00C7A_2
 62
     0
 10
375.02200833333342
 20
4.6398606691663531
 30
0.0
  0
VERTEX
  5
134F
  8
IMPORT_-_CARRO\\U+00C7A_2
 62
     0
 10
374.62760277777772
 20
4.6709051136107851
 30
0.0
  0
VERTEX
  5
1350
  8
IMPORT_-_CARRO\\U+00C7A_2
 62
     0
 10
374.24272222222231
 20
4.7629801136108076
 30
0.0
  0
VERTEX
  5
1351
  8
IMPORT_-_CARRO\\U+00C7A_2
 62
     0
 10
373.8772444444445
 20
4.9146745580552533
 30
0.0
  0
VERTEX
  5
1352
  8
IMPORT_-_CARRO\\U+00C7A_2
 62
     0
 10
373.53963611111112
 20
5.121402335833011
 30
0.0
  0
VERTEX
  5
1353
  8
IMPORT_-_CARRO\\U+00C7A_2
 62
     0
 10
373.23871666666668
 20
5.3782245580553081
 30
0.0
  0
VERTEX
  5
1354
  8
IMPORT_-_CARRO\\U+00C7A_2
 62
     0
 10
372.98189444444449
 20
5.6791440024996973
 30
0.0
  0
VERTEX
  5
1355
  8
IMPORT_-_CARRO\\U+00C7A_2
 62
     0
 10
372.77481388888901
 20
6.0167523358330177
 30
0.0
  0
VERTEX
  5
1356
  8
IMPORT_-_CARRO\\U+00C7A_2
 62
     0
 10
372.62347222222229
 20
6.3822301136108308
 30
0.0
  0
VERTEX
  5
1357
  8
IMPORT_-_CARRO\\U+00C7A_2
 62
     0
 10
372.53104444444438
 20
6.7671106691663567
 30
0.0
  0
VERTEX
  5
1358
  8
IMPORT_-_CARRO\\U+00C7A_2
 62
     0
 10
372.5
 20
7.1618690024997687
 30
0.0
  0
VERTEX
  5
1359
  8
IMPORT_-_CARRO\\U+00C7A_2
 62
     0
 10
372.5
 20
8.9779690024997212
 30
0.0
  0
VERTEX
  5
135A
  8
IMPORT_-_CARRO\\U+00C7A_2
 62
     0
 10
372.53104444444438
 20
9.3727273358330194
 30
0.0
  0
VERTEX
  5
135B
  8
IMPORT_-_CARRO\\U+00C7A_2
 62
     0
 10
372.62347222222229
 20
9.7572551136108245
 30
0.0
  0
VERTEX
  5
135C
  8
IMPORT_-_CARRO\\U+00C7A_2
 62
     0
 10
372.77481388888901
 20
10.123085669166411
 30
0.0
  0
VERTEX
  5
135D
  8
IMPORT_-_CARRO\\U+00C7A_2
 62
     0
 10
372.98189444444449
 20
10.46034122472196
 30
0.0
  0
VERTEX
  5
135E
  8
IMPORT_-_CARRO\\U+00C7A_2
 62
     0
 10
373.23871666666668
 20
10.761260669166401
 30
0.0
  0
VERTEX
  5
135F
  8
IMPORT_-_CARRO\\U+00C7A_2
 62
     0
 10
373.53963611111112
 20
11.01843566916631
 30
0.0
  0
VERTEX
  5
1360
  8
IMPORT_-_CARRO\\U+00C7A_2
 62
     0
 10
373.8772444444445
 20
11.225163446944119
 30
0.0
  0
VERTEX
  5
1361
  8
IMPORT_-_CARRO\\U+00C7A_2
 62
     0
 10
374.24272222222231
 20
11.37650511361079
 30
0.0
  0
VERTEX
  5
1362
  8
IMPORT_-_CARRO\\U+00C7A_2
 62
     0
 10
374.62760277777772
 20
11.46893289138859
 30
0.0
  0
VERTEX
  5
1363
  8
IMPORT_-_CARRO\\U+00C7A_2
 62
     0
 10
375.02200833333342
 20
11.49997733583302
 30
0.0
  0
VERTEX
  5
1364
  8
IMPORT_-_CARRO\\U+00C7A_2
 62
     0
 10
375.86303055555561
 20
11.499624558055251
 30
0.0
  0
VERTEX
  5
1365
  8
IMPORT_-_CARRO\\U+00C7A_2
 62
     0
 10
375.86303055555561
 20
8.0695662247219389
 30
0.0
  0
VERTEX
  5
1366
  8
IMPORT_-_CARRO\\U+00C7A_2
 62
     0
 10
378.86270000000002
 20
8.0695662247219389
 30
0.0
  0
VERTEX
  5
1367
  8
IMPORT_-_CARRO\\U+00C7A_2
 62
     0
 10
378.86270000000002
 20
11.499624558055251
 30
0.0
  0
VERTEX
  5
1368
  8
IMPORT_-_CARRO\\U+00C7A_2
 62
     0
 10
406.3638444444444
 20
11.499624558055251
 30
0.0
  0
VERTEX
  5
1369
  8
IMPORT_-_CARRO\\U+00C7A_2
 62
     0
 10
406.3638444444444
 20
8.0695662247219389
 30
0.0
  0
VERTEX
  5
136A
  8
IMPORT_-_CARRO\\U+00C7A_2
 62
     0
 10
409.36386666666669
 20
8.0695662247219389
 30
0.0
  0
VERTEX
  5
136B
  8
IMPORT_-_CARRO\\U+00C7A_2
 62
     0
 10
409.36386666666669
 20
11.499624558055251
 30
0.0
  0
VERTEX
  5
136C
  8
IMPORT_-_CARRO\\U+00C7A_2
 62
     0
 10
436.86501111111107
 20
11.499624558055251
 30
0.0
  0
VERTEX
  5
136D
  8
IMPORT_-_CARRO\\U+00C7A_2
 62
     0
 10
436.86501111111107
 20
8.0695662247219389
 30
0.0
  0
VERTEX
  5
136E
  8
IMPORT_-_CARRO\\U+00C7A_2
 62
     0
 10
439.86503333333337
 20
8.0695662247219389
 30
0.0
  0
VERTEX
  5
136F
  8
IMPORT_-_CARRO\\U+00C7A_2
 62
     0
 10
439.86503333333337
 20
11.499624558055251
 30
0.0
  0
VERTEX
  5
1370
  8
IMPORT_-_CARRO\\U+00C7A_2
 62
     0
 10
467.36617777777781
 20
11.499624558055251
 30
0.0
  0
VERTEX
  5
1371
  8
IMPORT_-_CARRO\\U+00C7A_2
 62
     0
 10
467.36617777777781
 20
8.0695662247219389
 30
0.0
  0
VERTEX
  5
1372
  8
IMPORT_-_CARRO\\U+00C7A_2
 62
     0
 10
470.36619999999982
 20
8.0695662247219389
 30
0.0
  0
SEQEND
  5
1373
  8
IMPORT_-_CARRO\\U+00C7A_2
 62
     0
  0
POLYLINE
  5
78
  8
IMPORT_-_CARRO\\U+00C7A_2
 62
     0
 66
     1
 10
0.0
 20
0.0
 30
0.0
 70
     1
  0
VERTEX
  5
1374
  8
IMPORT_-_CARRO\\U+00C7A_2
 62
     0
 10
474.36619999999982
 20
23.99997733583302
 30
0.0
  0
VERTEX
  5
1375
  8
IMPORT_-_CARRO\\U+00C7A_2
 62
     0
 10
475.2015777777778
 20
23.99997733583302
 30
0.0
  0
VERTEX
  5
1376
  8
IMPORT_-_CARRO\\U+00C7A_2
 62
     0
 10
475.59598333333332
 20
23.96893289138859
 30
0.0
  0
VERTEX
  5
1377
  8
IMPORT_-_CARRO\\U+00C7A_2
 62
     0
 10
475.98086388888879
 20
23.87650511361079
 30
0.0
  0
VERTEX
  5
1378
  8
IMPORT_-_CARRO\\U+00C7A_2
 62
     0
 10
476.34634166666672
 20
23.725163446944119
 30
0.0
  0
VERTEX
  5
1379
  8
IMPORT_-_CARRO\\U+00C7A_2
 62
     0
 10
476.6839500000001
 20
23.518435669166308
 30
0.0
  0
VERTEX
  5
137A
  8
IMPORT_-_CARRO\\U+00C7A_2
 62
     0
 10
476.98486944444443
 20
23.26126066916629
 30
0.0
  0
VERTEX
  5
137B
  8
IMPORT_-_CARRO\\U+00C7A_2
 62
     0
 10
477.24169166666672
 20
22.960341224721841
 30
0.0
  0
VERTEX
  5
137C
  8
IMPORT_-_CARRO\\U+00C7A_2
 62
     0
 10
477.44841944444431
 20
22.623085669166301
 30
0.0
  0
VERTEX
  5
137D
  8
IMPORT_-_CARRO\\U+00C7A_2
 62
     0
 10
477.60011388888881
 20
22.257607891388549
 30
0.0
  0
VERTEX
  5
137E
  8
IMPORT_-_CARRO\\U+00C7A_2
 62
     0
 10
477.69254166666673
 20
21.872727335833019
 30
0.0
  0
VERTEX
  5
137F
  8
IMPORT_-_CARRO\\U+00C7A_2
 62
     0
 10
477.72323333333333
 20
21.477969002499609
 30
0.0
  0
VERTEX
  5
1380
  8
IMPORT_-_CARRO\\U+00C7A_2
 62
     0
 10
477.72323333333333
 20
19.66186900249966
 30
0.0
  0
VERTEX
  5
1381
  8
IMPORT_-_CARRO\\U+00C7A_2
 62
     0
 10
477.69254166666673
 20
19.2671106691663
 30
0.0
  0
VERTEX
  5
1382
  8
IMPORT_-_CARRO\\U+00C7A_2
 62
     0
 10
477.60011388888881
 20
18.882582891388552
 30
0.0
  0
VERTEX
  5
1383
  8
IMPORT_-_CARRO\\U+00C7A_2
 62
     0
 10
477.44841944444431
 20
18.516752335832962
 30
0.0
  0
VERTEX
  5
1384
  8
IMPORT_-_CARRO\\U+00C7A_2
 62
     0
 10
477.24169166666672
 20
18.179496780277422
 30
0.0
  0
VERTEX
  5
1385
  8
IMPORT_-_CARRO\\U+00C7A_2
 62
     0
 10
476.98486944444443
 20
17.878577335832968
 30
0.0
  0
VERTEX
  5
1386
  8
IMPORT_-_CARRO\\U+00C7A_2
 62
     0
 10
476.6839500000001
 20
17.62140233583294
 30
0.0
  0
VERTEX
  5
1387
  8
IMPORT_-_CARRO\\U+00C7A_2
 62
     0
 10
476.34634166666672
 20
17.414674558055189
 30
0.0
  0
VERTEX
  5
1388
  8
IMPORT_-_CARRO\\U+00C7A_2
 62
     0
 10
475.98086388888879
 20
17.262980113610809
 30
0.0
  0
VERTEX
  5
1389
  8
IMPORT_-_CARRO\\U+00C7A_2
 62
     0
 10
475.59598333333332
 20
17.17090511361079
 30
0.0
  0
VERTEX
  5
138A
  8
IMPORT_-_CARRO\\U+00C7A_2
 62
     0
 10
475.2015777777778
 20
17.13986066916635
 30
0.0
  0
VERTEX
  5
138B
  8
IMPORT_-_CARRO\\U+00C7A_2
 62
     0
 10
379.02200833333342
 20
17.13986066916635
 30
0.0
  0
VERTEX
  5
138C
  8
IMPORT_-_CARRO\\U+00C7A_2
 62
     0
 10
378.62760277777772
 20
17.17090511361079
 30
0.0
  0
VERTEX
  5
138D
  8
IMPORT_-_CARRO\\U+00C7A_2
 62
     0
 10
378.24272222222231
 20
17.262980113610809
 30
0.0
  0
VERTEX
  5
138E
  8
IMPORT_-_CARRO\\U+00C7A_2
 62
     0
 10
377.8772444444445
 20
17.414674558055189
 30
0.0
  0
VERTEX
  5
138F
  8
IMPORT_-_CARRO\\U+00C7A_2
 62
     0
 10
377.53963611111112
 20
17.62140233583294
 30
0.0
  0
VERTEX
  5
1390
  8
IMPORT_-_CARRO\\U+00C7A_2
 62
     0
 10
377.23871666666668
 20
17.878577335832968
 30
0.0
  0
VERTEX
  5
1391
  8
IMPORT_-_CARRO\\U+00C7A_2
 62
     0
 10
376.98189444444449
 20
18.179496780277422
 30
0.0
  0
VERTEX
  5
1392
  8
IMPORT_-_CARRO\\U+00C7A_2
 62
     0
 10
376.77481388888901
 20
18.516752335832962
 30
0.0
  0
VERTEX
  5
1393
  8
IMPORT_-_CARRO\\U+00C7A_2
 62
     0
 10
376.62347222222229
 20
18.882582891388552
 30
0.0
  0
VERTEX
  5
1394
  8
IMPORT_-_CARRO\\U+00C7A_2
 62
     0
 10
376.53104444444438
 20
19.2671106691663
 30
0.0
  0
VERTEX
  5
1395
  8
IMPORT_-_CARRO\\U+00C7A_2
 62
     0
 10
376.5
 20
19.66186900249966
 30
0.0
  0
VERTEX
  5
1396
  8
IMPORT_-_CARRO\\U+00C7A_2
 62
     0
 10
376.5
 20
21.477969002499609
 30
0.0
  0
VERTEX
  5
1397
  8
IMPORT_-_CARRO\\U+00C7A_2
 62
     0
 10
376.53104444444438
 20
21.872727335833019
 30
0.0
  0
VERTEX
  5
1398
  8
IMPORT_-_CARRO\\U+00C7A_2
 62
     0
 10
376.62347222222229
 20
22.257607891388549
 30
0.0
  0
VERTEX
  5
1399
  8
IMPORT_-_CARRO\\U+00C7A_2
 62
     0
 10
376.77481388888901
 20
22.623085669166301
 30
0.0
  0
VERTEX
  5
139A
  8
IMPORT_-_CARRO\\U+00C7A_2
 62
     0
 10
376.98189444444449
 20
22.960341224721841
 30
0.0
  0
VERTEX
  5
139B
  8
IMPORT_-_CARRO\\U+00C7A_2
 62
     0
 10
377.23871666666668
 20
23.26126066916629
 30
0.0
  0
VERTEX
  5
139C
  8
IMPORT_-_CARRO\\U+00C7A_2
 62
     0
 10
377.53963611111112
 20
23.518435669166308
 30
0.0
  0
VERTEX
  5
139D
  8
IMPORT_-_CARRO\\U+00C7A_2
 62
     0
 10
377.8772444444445
 20
23.725163446944119
 30
0.0
  0
VERTEX
  5
139E
  8
IMPORT_-_CARRO\\U+00C7A_2
 62
     0
 10
378.24272222222231
 20
23.87650511361079
 30
0.0
  0
VERTEX
  5
139F
  8
IMPORT_-_CARRO\\U+00C7A_2
 62
     0
 10
378.62760277777772
 20
23.96893289138859
 30
0.0
  0
VERTEX
  5
13A0
  8
IMPORT_-_CARRO\\U+00C7A_2
 62
     0
 10
379.02200833333342
 20
23.99997733583302
 30
0.0
  0
VERTEX
  5
13A1
  8
IMPORT_-_CARRO\\U+00C7A_2
 62
     0
 10
379.86303055555572
 20
23.999624558055249
 30
0.0
  0
VERTEX
  5
13A2
  8
IMPORT_-_CARRO\\U+00C7A_2
 62
     0
 10
379.86303055555572
 20
20.569566224721878
 30
0.0
  0
VERTEX
  5
13A3
  8
IMPORT_-_CARRO\\U+00C7A_2
 62
     0
 10
382.86270000000002
 20
20.569566224721878
 30
0.0
  0
VERTEX
  5
13A4
  8
IMPORT_-_CARRO\\U+00C7A_2
 62
     0
 10
382.86270000000002
 20
23.999624558055249
 30
0.0
  0
VERTEX
  5
13A5
  8
IMPORT_-_CARRO\\U+00C7A_2
 62
     0
 10
410.3638444444444
 20
23.999624558055249
 30
0.0
  0
VERTEX
  5
13A6
  8
IMPORT_-_CARRO\\U+00C7A_2
 62
     0
 10
410.3638444444444
 20
20.569566224721878
 30
0.0
  0
VERTEX
  5
13A7
  8
IMPORT_-_CARRO\\U+00C7A_2
 62
     0
 10
413.36386666666669
 20
20.569566224721878
 30
0.0
  0
VERTEX
  5
13A8
  8
IMPORT_-_CARRO\\U+00C7A_2
 62
     0
 10
413.36386666666669
 20
23.999624558055249
 30
0.0
  0
VERTEX
  5
13A9
  8
IMPORT_-_CARRO\\U+00C7A_2
 62
     0
 10
440.86501111111107
 20
23.999624558055249
 30
0.0
  0
VERTEX
  5
13AA
  8
IMPORT_-_CARRO\\U+00C7A_2
 62
     0
 10
440.86501111111107
 20
20.569566224721878
 30
0.0
  0
VERTEX
  5
13AB
  8
IMPORT_-_CARRO\\U+00C7A_2
 62
     0
 10
443.86503333333337
 20
20.569566224721878
 30
0.0
  0
VERTEX
  5
13AC
  8
IMPORT_-_CARRO\\U+00C7A_2
 62
     0
 10
443.86503333333337
 20
23.999624558055249
 30
0.0
  0
VERTEX
  5
13AD
  8
IMPORT_-_CARRO\\U+00C7A_2
 62
     0
 10
471.36617777777781
 20
23.999624558055249
 30
0.0
  0
VERTEX
  5
13AE
  8
IMPORT_-_CARRO\\U+00C7A_2
 62
     0
 10
471.36617777777781
 20
20.569566224721878
 30
0.0
  0
VERTEX
  5
13AF
  8
IMPORT_-_CARRO\\U+00C7A_2
 62
     0
 10
474.36619999999982
 20
20.569566224721878
 30
0.0
  0
SEQEND
  5
13B0
  8
IMPORT_-_CARRO\\U+00C7A_2
 62
     0
  0
POLYLINE
  5
79
  8
IMPORT_-_CARRO\\U+00C7A_2
 62
     0
 66
     1
 10
0.0
 20
0.0
 30
0.0
 70
     1
  0
VERTEX
  5
13B1
  8
IMPORT_-_CARRO\\U+00C7A_2
 62
     0
 10
120.36070833333341
 20
203.54349722222219
 30
0.0
  0
VERTEX
  5
13B2
  8
IMPORT_-_CARRO\\U+00C7A_2
 62
     0
 10
120.0456777777778
 20
202.82735833333339
 30
0.0
  0
VERTEX
  5
13B3
  8
IMPORT_-_CARRO\\U+00C7A_2
 62
     0
 10
119.7708638888889
 20
202.09499166666669
 30
0.0
  0
VERTEX
  5
13B4
  8
IMPORT_-_CARRO\\U+00C7A_2
 62
     0
 10
119.5369722222222
 20
201.3485138888889
 30
0.0
  0
VERTEX
  5
13B5
  8
IMPORT_-_CARRO\\U+00C7A_2
 62
     0
 10
119.34435555555559
 20
200.59039444444451
 30
0.0
  0
VERTEX
  5
13B6
  8
IMPORT_-_CARRO\\U+00C7A_2
 62
     0
 10
119.1940722222222
 20
199.82275000000001
 30
0.0
  0
VERTEX
  5
13B7
  8
IMPORT_-_CARRO\\U+00C7A_2
 62
     0
 10
119.08647499999999
 20
199.04804999999999
 30
0.0
  0
VERTEX
  5
13B8
  8
IMPORT_-_CARRO\\U+00C7A_2
 62
     0
 10
119.02156388888891
 20
198.26841111111111
 30
0.0
  0
VERTEX
  5
13B9
  8
IMPORT_-_CARRO\\U+00C7A_2
 62
     0
 10
119.0000444444444
 20
197.48630277777781
 30
0.0
  0
VERTEX
  5
13BA
  8
IMPORT_-_CARRO\\U+00C7A_2
 62
     0
 10
119.02156388888891
 20
196.70454722222229
 30
0.0
  0
VERTEX
  5
13BB
  8
IMPORT_-_CARRO\\U+00C7A_2
 62
     0
 10
119.08647499999999
 20
195.92490833333329
 30
0.0
  0
VERTEX
  5
13BC
  8
IMPORT_-_CARRO\\U+00C7A_2
 62
     0
 10
119.1940722222222
 20
195.15020833333341
 30
0.0
  0
VERTEX
  5
13BD
  8
IMPORT_-_CARRO\\U+00C7A_2
 62
     0
 10
119.34435555555559
 20
194.3825638888888
 30
0.0
  0
VERTEX
  5
13BE
  8
IMPORT_-_CARRO\\U+00C7A_2
 62
     0
 10
119.5369722222222
 20
193.62409166666669
 30
0.0
  0
VERTEX
  5
13BF
  8
IMPORT_-_CARRO\\U+00C7A_2
 62
     0
 10
119.7708638888889
 20
192.87796666666671
 30
0.0
  0
VERTEX
  5
13C0
  8
IMPORT_-_CARRO\\U+00C7A_2
 62
     0
 10
120.0456777777778
 20
192.1456
 30
0.0
  0
VERTEX
  5
13C1
  8
IMPORT_-_CARRO\\U+00C7A_2
 62
     0
 10
120.36070833333341
 20
191.42946111111121
 30
0.0
  0
VERTEX
  5
13C2
  8
IMPORT_-_CARRO\\U+00C7A_2
 62
     0
 10
120.71489722222221
 20
190.73201944444449
 30
0.0
  0
VERTEX
  5
13C3
  8
IMPORT_-_CARRO\\U+00C7A_2
 62
     0
 10
121.1068333333333
 20
190.05503888888899
 30
0.0
  0
VERTEX
  5
13C4
  8
IMPORT_-_CARRO\\U+00C7A_2
 62
     0
 10
121.5354583333333
 20
189.4006361111112
 30
0.0
  0
VERTEX
  5
13C5
  8
IMPORT_-_CARRO\\U+00C7A_2
 62
     0
 10
122.0000666666666
 20
188.77128055555559
 30
0.0
  0
VERTEX
  5
13C6
  8
IMPORT_-_CARRO\\U+00C7A_2
 62
     0
 10
122.46926111111109
 20
188.73423888888891
 30
0.0
  0
VERTEX
  5
13C7
  8
IMPORT_-_CARRO\\U+00C7A_2
 62
     0
 10
122.9268138888889
 20
188.62417222222231
 30
0.0
  0
VERTEX
  5
13C8
  8
IMPORT_-_CARRO\\U+00C7A_2
 62
     0
 10
123.3617888888889
 20
188.4442555555556
 30
0.0
  0
VERTEX
  5
13C9
  8
IMPORT_-_CARRO\\U+00C7A_2
 62
     0
 10
123.76325
 20
188.19801666666669
 30
0.0
  0
VERTEX
  5
13CA
  8
IMPORT_-_CARRO\\U+00C7A_2
 62
     0
 10
124.1213194444445
 20
187.89251111111111
 30
0.0
  0
VERTEX
  5
13CB
  8
IMPORT_-_CARRO\\U+00C7A_2
 62
     0
 10
124.42682499999999
 20
187.53444166666671
 30
0.0
  0
VERTEX
  5
13CC
  8
IMPORT_-_CARRO\\U+00C7A_2
 62
     0
 10
124.6730638888889
 20
187.13298055555549
 30
0.0
  0
VERTEX
  5
13CD
  8
IMPORT_-_CARRO\\U+00C7A_2
 62
     0
 10
124.8529805555555
 20
186.6983583333334
 30
0.0
  0
VERTEX
  5
13CE
  8
IMPORT_-_CARRO\\U+00C7A_2
 62
     0
 10
124.9630472222221
 20
186.24045277777779
 30
0.0
  0
VERTEX
  5
13CF
  8
IMPORT_-_CARRO\\U+00C7A_2
 62
     0
 10
125.0000888888889
 20
185.77125833333341
 30
0.0
  0
VERTEX
  5
13D0
  8
IMPORT_-_CARRO\\U+00C7A_2
 62
     0
 10
120.5000555555556
 20
185.77125833333341
 30
0.0
  0
VERTEX
  5
13D1
  8
IMPORT_-_CARRO\\U+00C7A_2
 62
     0
 10
120.5000555555556
 20
182.77123611111111
 30
0.0
  0
VERTEX
  5
13D2
  8
IMPORT_-_CARRO\\U+00C7A_2
 62
     0
 10
133.12456111111109
 20
182.77123611111111
 30
0.0
  0
VERTEX
  5
13D3
  8
IMPORT_-_CARRO\\U+00C7A_2
 62
     0
 10
133.12456111111109
 20
181.7711111111112
 30
0.0
  0
VERTEX
  5
13D4
  8
IMPORT_-_CARRO\\U+00C7A_2
 62
     0
 10
132.98838888888881
 20
180.73606111111121
 30
0.0
  0
VERTEX
  5
13D5
  8
IMPORT_-_CARRO\\U+00C7A_2
 62
     0
 10
132.58869166666659
 20
179.77121388888889
 30
0.0
  0
VERTEX
  5
13D6
  8
IMPORT_-_CARRO\\U+00C7A_2
 62
     0
 10
131.95298611111099
 20
178.94289166666681
 30
0.0
  0
VERTEX
  5
13D7
  8
IMPORT_-_CARRO\\U+00C7A_2
 62
     0
 10
131.1246638888889
 20
178.30718611111109
 30
0.0
  0
VERTEX
  5
13D8
  8
IMPORT_-_CARRO\\U+00C7A_2
 62
     0
 10
130.16016944444439
 20
177.90748888888899
 30
0.0
  0
VERTEX
  5
13D9
  8
IMPORT_-_CARRO\\U+00C7A_2
 62
     0
 10
129.12476666666669
 20
177.77096388888879
 30
0.0
  0
VERTEX
  5
13DA
  8
IMPORT_-_CARRO\\U+00C7A_2
 62
     0
 10
116.9997944444444
 20
177.77096388888879
 30
0.0
  0
VERTEX
  5
13DB
  8
IMPORT_-_CARRO\\U+00C7A_2
 62
     0
 10
115.96474444444451
 20
177.90748888888899
 30
0.0
  0
VERTEX
  5
13DC
  8
IMPORT_-_CARRO\\U+00C7A_2
 62
     0
 10
114.9998972222222
 20
178.30718611111109
 30
0.0
  0
VERTEX
  5
13DD
  8
IMPORT_-_CARRO\\U+00C7A_2
 62
     0
 10
114.171575
 20
178.94289166666681
 30
0.0
  0
VERTEX
  5
13DE
  8
IMPORT_-_CARRO\\U+00C7A_2
 62
     0
 10
113.5358694444444
 20
179.77121388888889
 30
0.0
  0
VERTEX
  5
13DF
  8
IMPORT_-_CARRO\\U+00C7A_2
 62
     0
 10
113.1361722222222
 20
180.73606111111121
 30
0.0
  0
VERTEX
  5
13E0
  8
IMPORT_-_CARRO\\U+00C7A_2
 62
     0
 10
113.0
 20
181.7711111111112
 30
0.0
  0
VERTEX
  5
13E1
  8
IMPORT_-_CARRO\\U+00C7A_2
 62
     0
 10
113.0
 20
217.99997777777779
 30
0.0
  0
VERTEX
  5
13E2
  8
IMPORT_-_CARRO\\U+00C7A_2
 62
     0
 10
113.0366888888889
 20
218.4691722222222
 30
0.0
  0
VERTEX
  5
13E3
  8
IMPORT_-_CARRO\\U+00C7A_2
 62
     0
 10
113.1467555555555
 20
218.92707777777781
 30
0.0
  0
VERTEX
  5
13E4
  8
IMPORT_-_CARRO\\U+00C7A_2
 62
     0
 10
113.32702499999991
 20
219.36205277777779
 30
0.0
  0
VERTEX
  5
13E5
  8
IMPORT_-_CARRO\\U+00C7A_2
 62
     0
 10
113.572911111111
 20
219.7631611111112
 30
0.0
  0
VERTEX
  5
13E6
  8
IMPORT_-_CARRO\\U+00C7A_2
 62
     0
 10
113.8787694444444
 20
220.12123055555551
 30
0.0
  0
VERTEX
  5
13E7
  8
IMPORT_-_CARRO\\U+00C7A_2
 62
     0
 10
114.23648611111101
 20
220.4270888888889
 30
0.0
  0
VERTEX
  5
13E8
  8
IMPORT_-_CARRO\\U+00C7A_2
 62
     0
 10
114.6379472222221
 20
220.67297500000001
 30
0.0
  0
VERTEX
  5
13E9
  8
IMPORT_-_CARRO\\U+00C7A_2
 62
     0
 10
115.0729222222222
 20
220.85324444444441
 30
0.0
  0
VERTEX
  5
13EA
  8
IMPORT_-_CARRO\\U+00C7A_2
 62
     0
 10
115.530475
 20
220.96295833333329
 30
0.0
  0
VERTEX
  5
13EB
  8
IMPORT_-_CARRO\\U+00C7A_2
 62
     0
 10
116.0000222222222
 20
221.00000000000011
 30
0.0
  0
VERTEX
  5
13EC
  8
IMPORT_-_CARRO\\U+00C7A_2
 62
     0
 10
116.0000222222222
 20
213.60083888888889
 30
0.0
  0
VERTEX
  5
13ED
  8
IMPORT_-_CARRO\\U+00C7A_2
 62
     0
 10
119.0000444444444
 20
213.60083888888889
 30
0.0
  0
VERTEX
  5
13EE
  8
IMPORT_-_CARRO\\U+00C7A_2
 62
     0
 10
119.0000444444444
 20
221.00000000000011
 30
0.0
  0
VERTEX
  5
13EF
  8
IMPORT_-_CARRO\\U+00C7A_2
 62
     0
 10
119.4692388888889
 20
220.96295833333329
 30
0.0
  0
VERTEX
  5
13F0
  8
IMPORT_-_CARRO\\U+00C7A_2
 62
     0
 10
119.92714444444449
 20
220.85324444444441
 30
0.0
  0
VERTEX
  5
13F1
  8
IMPORT_-_CARRO\\U+00C7A_2
 62
     0
 10
120.3617666666667
 20
220.67297500000001
 30
0.0
  0
VERTEX
  5
13F2
  8
IMPORT_-_CARRO\\U+00C7A_2
 62
     0
 10
120.7632277777777
 20
220.4270888888889
 30
0.0
  0
VERTEX
  5
13F3
  8
IMPORT_-_CARRO\\U+00C7A_2
 62
     0
 10
121.1212972222222
 20
220.12123055555551
 30
0.0
  0
VERTEX
  5
13F4
  8
IMPORT_-_CARRO\\U+00C7A_2
 62
     0
 10
121.42680277777779
 20
219.7631611111112
 30
0.0
  0
VERTEX
  5
13F5
  8
IMPORT_-_CARRO\\U+00C7A_2
 62
     0
 10
121.67304166666661
 20
219.36205277777779
 30
0.0
  0
VERTEX
  5
13F6
  8
IMPORT_-_CARRO\\U+00C7A_2
 62
     0
 10
121.85295833333331
 20
218.92707777777781
 30
0.0
  0
VERTEX
  5
13F7
  8
IMPORT_-_CARRO\\U+00C7A_2
 62
     0
 10
121.963025
 20
218.4691722222222
 30
0.0
  0
VERTEX
  5
13F8
  8
IMPORT_-_CARRO\\U+00C7A_2
 62
     0
 10
122.0000666666666
 20
217.99997777777779
 30
0.0
  0
VERTEX
  5
13F9
  8
IMPORT_-_CARRO\\U+00C7A_2
 62
     0
 10
122.0000666666666
 20
206.2016777777778
 30
0.0
  0
VERTEX
  5
13FA
  8
IMPORT_-_CARRO\\U+00C7A_2
 62
     0
 10
121.5354583333333
 20
205.57196944444451
 30
0.0
  0
VERTEX
  5
13FB
  8
IMPORT_-_CARRO\\U+00C7A_2
 62
     0
 10
121.1068333333333
 20
204.91791944444441
 30
0.0
  0
VERTEX
  5
13FC
  8
IMPORT_-_CARRO\\U+00C7A_2
 62
     0
 10
120.71489722222221
 20
204.24093888888891
 30
0.0
  0
SEQEND
  5
13FD
  8
IMPORT_-_CARRO\\U+00C7A_2
 62
     0
  0
POLYLINE
  5
7A
  8
IMPORT_-_CARRO\\U+00C7A_2
 62
     0
 66
     1
 10
0.0
 20
0.0
 30
0.0
 70
     1
  0
VERTEX
  5
13FE
  8
IMPORT_-_CARRO\\U+00C7A_2
 62
     0
 10
125.9607027777778
 20
246.08998333333341
 30
0.0
  0
VERTEX
  5
13FF
  8
IMPORT_-_CARRO\\U+00C7A_2
 62
     0
 10
126.65849722222229
 20
245.73614722222229
 30
0.0
  0
VERTEX
  5
1400
  8
IMPORT_-_CARRO\\U+00C7A_2
 62
     0
 10
127.3746361111112
 20
245.42111666666679
 30
0.0
  0
VERTEX
  5
1401
  8
IMPORT_-_CARRO\\U+00C7A_2
 62
     0
 10
128.10664999999989
 20
245.14595
 30
0.0
  0
VERTEX
  5
1402
  8
IMPORT_-_CARRO\\U+00C7A_2
 62
     0
 10
128.85312777777779
 20
244.91205833333339
 30
0.0
  0
VERTEX
  5
1403
  8
IMPORT_-_CARRO\\U+00C7A_2
 62
     0
 10
129.6116000000001
 20
244.71944166666671
 30
0.0
  0
VERTEX
  5
1404
  8
IMPORT_-_CARRO\\U+00C7A_2
 62
     0
 10
130.37924444444451
 20
244.56915833333329
 30
0.0
  0
VERTEX
  5
1405
  8
IMPORT_-_CARRO\\U+00C7A_2
 62
     0
 10
131.15394444444451
 20
244.46156111111119
 30
0.0
  0
VERTEX
  5
1406
  8
IMPORT_-_CARRO\\U+00C7A_2
 62
     0
 10
131.9335833333333
 20
244.39665000000011
 30
0.0
  0
VERTEX
  5
1407
  8
IMPORT_-_CARRO\\U+00C7A_2
 62
     0
 10
132.71533888888891
 20
244.37513055555559
 30
0.0
  0
VERTEX
  5
1408
  8
IMPORT_-_CARRO\\U+00C7A_2
 62
     0
 10
133.49744722222229
 20
244.39665000000011
 30
0.0
  0
VERTEX
  5
1409
  8
IMPORT_-_CARRO\\U+00C7A_2
 62
     0
 10
134.2770861111112
 20
244.46156111111119
 30
0.0
  0
VERTEX
  5
140A
  8
IMPORT_-_CARRO\\U+00C7A_2
 62
     0
 10
135.05178611111111
 20
244.56915833333329
 30
0.0
  0
VERTEX
  5
140B
  8
IMPORT_-_CARRO\\U+00C7A_2
 62
     0
 10
135.8194305555555
 20
244.71944166666671
 30
0.0
  0
VERTEX
  5
140C
  8
IMPORT_-_CARRO\\U+00C7A_2
 62
     0
 10
136.57755
 20
244.91205833333339
 30
0.0
  0
VERTEX
  5
140D
  8
IMPORT_-_CARRO\\U+00C7A_2
 62
     0
 10
137.32402777777779
 20
245.14595
 30
0.0
  0
VERTEX
  5
140E
  8
IMPORT_-_CARRO\\U+00C7A_2
 62
     0
 10
138.05639444444441
 20
245.42111666666679
 30
0.0
  0
VERTEX
  5
140F
  8
IMPORT_-_CARRO\\U+00C7A_2
 62
     0
 10
138.7725333333334
 20
245.73614722222229
 30
0.0
  0
VERTEX
  5
1410
  8
IMPORT_-_CARRO\\U+00C7A_2
 62
     0
 10
139.46997500000001
 20
246.08998333333341
 30
0.0
  0
VERTEX
  5
1411
  8
IMPORT_-_CARRO\\U+00C7A_2
 62
     0
 10
140.14695555555559
 20
246.4819194444444
 30
0.0
  0
VERTEX
  5
1412
  8
IMPORT_-_CARRO\\U+00C7A_2
 62
     0
 10
140.80100555555549
 20
246.9108972222223
 30
0.0
  0
VERTEX
  5
1413
  8
IMPORT_-_CARRO\\U+00C7A_2
 62
     0
 10
141.4307138888889
 20
247.37515277777791
 30
0.0
  0
VERTEX
  5
1414
  8
IMPORT_-_CARRO\\U+00C7A_2
 62
     0
 10
153.22901388888889
 20
247.37515277777791
 30
0.0
  0
VERTEX
  5
1415
  8
IMPORT_-_CARRO\\U+00C7A_2
 62
     0
 10
153.69820833333341
 20
247.3381111111112
 30
0.0
  0
VERTEX
  5
1416
  8
IMPORT_-_CARRO\\U+00C7A_2
 62
     0
 10
154.156113888889
 20
247.2283972222223
 30
0.0
  0
VERTEX
  5
1417
  8
IMPORT_-_CARRO\\U+00C7A_2
 62
     0
 10
154.59108888888889
 20
247.04812777777781
 30
0.0
  0
VERTEX
  5
1418
  8
IMPORT_-_CARRO\\U+00C7A_2
 62
     0
 10
154.99219722222219
 20
246.80224166666679
 30
0.0
  0
VERTEX
  5
1419
  8
IMPORT_-_CARRO\\U+00C7A_2
 62
     0
 10
155.35026666666661
 20
246.4963833333334
 30
0.0
  0
VERTEX
  5
141A
  8
IMPORT_-_CARRO\\U+00C7A_2
 62
     0
 10
155.656125
 20
246.13831388888889
 30
0.0
  0
VERTEX
  5
141B
  8
IMPORT_-_CARRO\\U+00C7A_2
 62
     0
 10
155.90201111111111
 20
245.73720555555559
 30
0.0
  0
VERTEX
  5
141C
  8
IMPORT_-_CARRO\\U+00C7A_2
 62
     0
 10
156.0822805555556
 20
245.30223055555561
 30
0.0
  0
VERTEX
  5
141D
  8
IMPORT_-_CARRO\\U+00C7A_2
 62
     0
 10
156.1919944444445
 20
244.84432500000011
 30
0.0
  0
VERTEX
  5
141E
  8
IMPORT_-_CARRO\\U+00C7A_2
 62
     0
 10
156.2290361111111
 20
244.37513055555559
 30
0.0
  0
VERTEX
  5
141F
  8
IMPORT_-_CARRO\\U+00C7A_2
 62
     0
 10
148.82987499999999
 20
244.37513055555559
 30
0.0
  0
VERTEX
  5
1420
  8
IMPORT_-_CARRO\\U+00C7A_2
 62
     0
 10
148.82987499999999
 20
241.3751083333334
 30
0.0
  0
VERTEX
  5
1421
  8
IMPORT_-_CARRO\\U+00C7A_2
 62
     0
 10
156.2290361111111
 20
241.3751083333334
 30
0.0
  0
VERTEX
  5
1422
  8
IMPORT_-_CARRO\\U+00C7A_2
 62
     0
 10
156.1919944444445
 20
240.9059138888889
 30
0.0
  0
VERTEX
  5
1423
  8
IMPORT_-_CARRO\\U+00C7A_2
 62
     0
 10
156.0822805555556
 20
240.44800833333341
 30
0.0
  0
VERTEX
  5
1424
  8
IMPORT_-_CARRO\\U+00C7A_2
 62
     0
 10
155.90201111111111
 20
240.0130333333334
 30
0.0
  0
VERTEX
  5
1425
  8
IMPORT_-_CARRO\\U+00C7A_2
 62
     0
 10
155.656125
 20
239.61157222222229
 30
0.0
  0
VERTEX
  5
1426
  8
IMPORT_-_CARRO\\U+00C7A_2
 62
     0
 10
155.35026666666661
 20
239.25385555555559
 30
0.0
  0
VERTEX
  5
1427
  8
IMPORT_-_CARRO\\U+00C7A_2
 62
     0
 10
154.99219722222219
 20
238.94799722222231
 30
0.0
  0
VERTEX
  5
1428
  8
IMPORT_-_CARRO\\U+00C7A_2
 62
     0
 10
154.59108888888889
 20
238.70211111111121
 30
0.0
  0
VERTEX
  5
1429
  8
IMPORT_-_CARRO\\U+00C7A_2
 62
     0
 10
154.156113888889
 20
238.5218416666668
 30
0.0
  0
VERTEX
  5
142A
  8
IMPORT_-_CARRO\\U+00C7A_2
 62
     0
 10
153.69820833333341
 20
238.41212777777781
 30
0.0
  0
VERTEX
  5
142B
  8
IMPORT_-_CARRO\\U+00C7A_2
 62
     0
 10
153.22901388888889
 20
238.37508611111119
 30
0.0
  0
VERTEX
  5
142C
  8
IMPORT_-_CARRO\\U+00C7A_2
 62
     0
 10
117.0001472222223
 20
238.37508611111119
 30
0.0
  0
VERTEX
  5
142D
  8
IMPORT_-_CARRO\\U+00C7A_2
 62
     0
 10
115.96474444444451
 20
238.51125833333339
 30
0.0
  0
VERTEX
  5
142E
  8
IMPORT_-_CARRO\\U+00C7A_2
 62
     0
 10
115.00025000000009
 20
238.9109555555556
 30
0.0
  0
VERTEX
  5
142F
  8
IMPORT_-_CARRO\\U+00C7A_2
 62
     0
 10
114.171575
 20
239.54666111111121
 30
0.0
  0
VERTEX
  5
1430
  8
IMPORT_-_CARRO\\U+00C7A_2
 62
     0
 10
113.5358694444445
 20
240.3749833333334
 30
0.0
  0
VERTEX
  5
1431
  8
IMPORT_-_CARRO\\U+00C7A_2
 62
     0
 10
113.13652500000001
 20
241.33983055555549
 30
0.0
  0
VERTEX
  5
1432
  8
IMPORT_-_CARRO\\U+00C7A_2
 62
     0
 10
113.0
 20
242.3752333333334
 30
0.0
  0
VERTEX
  5
1433
  8
IMPORT_-_CARRO\\U+00C7A_2
 62
     0
 10
113.0
 20
254.49985277777779
 30
0.0
  0
VERTEX
  5
1434
  8
IMPORT_-_CARRO\\U+00C7A_2
 62
     0
 10
113.13652500000001
 20
255.53525555555561
 30
0.0
  0
VERTEX
  5
1435
  8
IMPORT_-_CARRO\\U+00C7A_2
 62
     0
 10
113.5358694444445
 20
256.49975000000001
 30
0.0
  0
VERTEX
  5
1436
  8
IMPORT_-_CARRO\\U+00C7A_2
 62
     0
 10
114.171575
 20
257.32842499999998
 30
0.0
  0
VERTEX
  5
1437
  8
IMPORT_-_CARRO\\U+00C7A_2
 62
     0
 10
115.00025000000009
 20
257.96413055555558
 30
0.0
  0
VERTEX
  5
1438
  8
IMPORT_-_CARRO\\U+00C7A_2
 62
     0
 10
115.96474444444451
 20
258.36347500000011
 30
0.0
  0
VERTEX
  5
1439
  8
IMPORT_-_CARRO\\U+00C7A_2
 62
     0
 10
117.0001472222223
 20
258.5
 30
0.0
  0
VERTEX
  5
143A
  8
IMPORT_-_CARRO\\U+00C7A_2
 62
     0
 10
117.9999194444445
 20
258.5
 30
0.0
  0
VERTEX
  5
143B
  8
IMPORT_-_CARRO\\U+00C7A_2
 62
     0
 10
117.9999194444445
 20
245.87514166666671
 30
0.0
  0
VERTEX
  5
143C
  8
IMPORT_-_CARRO\\U+00C7A_2
 62
     0
 10
121.00029444444441
 20
245.87514166666671
 30
0.0
  0
VERTEX
  5
143D
  8
IMPORT_-_CARRO\\U+00C7A_2
 62
     0
 10
121.00029444444441
 20
250.37517500000001
 30
0.0
  0
VERTEX
  5
143E
  8
IMPORT_-_CARRO\\U+00C7A_2
 62
     0
 10
121.4694888888889
 20
250.33813333333339
 30
0.0
  0
VERTEX
  5
143F
  8
IMPORT_-_CARRO\\U+00C7A_2
 62
     0
 10
121.9270416666667
 20
250.22841944444451
 30
0.0
  0
VERTEX
  5
1440
  8
IMPORT_-_CARRO\\U+00C7A_2
 62
     0
 10
122.3620166666667
 20
250.04815000000011
 30
0.0
  0
VERTEX
  5
1441
  8
IMPORT_-_CARRO\\U+00C7A_2
 62
     0
 10
122.76347777777779
 20
249.80226388888889
 30
0.0
  0
VERTEX
  5
1442
  8
IMPORT_-_CARRO\\U+00C7A_2
 62
     0
 10
123.1215472222223
 20
249.49640555555561
 30
0.0
  0
VERTEX
  5
1443
  8
IMPORT_-_CARRO\\U+00C7A_2
 62
     0
 10
123.4270527777778
 20
249.1383361111111
 30
0.0
  0
VERTEX
  5
1444
  8
IMPORT_-_CARRO\\U+00C7A_2
 62
     0
 10
123.6732916666667
 20
248.7372277777778
 30
0.0
  0
VERTEX
  5
1445
  8
IMPORT_-_CARRO\\U+00C7A_2
 62
     0
 10
123.8532083333334
 20
248.30225277777791
 30
0.0
  0
VERTEX
  5
1446
  8
IMPORT_-_CARRO\\U+00C7A_2
 62
     0
 10
123.9632750000001
 20
247.8443472222223
 30
0.0
  0
VERTEX
  5
1447
  8
IMPORT_-_CARRO\\U+00C7A_2
 62
     0
 10
124.00031666666671
 20
247.37515277777791
 30
0.0
  0
VERTEX
  5
1448
  8
IMPORT_-_CARRO\\U+00C7A_2
 62
     0
 10
124.6296722222222
 20
246.9108972222223
 30
0.0
  0
VERTEX
  5
1449
  8
IMPORT_-_CARRO\\U+00C7A_2
 62
     0
 10
125.284075
 20
246.4819194444444
 30
0.0
  0
SEQEND
  5
144A
  8
IMPORT_-_CARRO\\U+00C7A_2
 62
     0
  0
POLYLINE
  5
7B
  8
IMPORT_-_CARRO\\U+00C7A_2
 62
     0
 66
     1
 10
0.0
 20
0.0
 30
0.0
 70
     1
  0
VERTEX
  5
144B
  8
IMPORT_-_CARRO\\U+00C7A_2
 62
     0
 10
126.29832134317969
 20
200.26923888888899
 30
0.0
  0
VERTEX
  5
144C
  8
IMPORT_-_CARRO\\U+00C7A_2
 62
     0
 10
127.137932454291
 20
202.29665277777781
 30
0.0
  0
VERTEX
  5
144D
  8
IMPORT_-_CARRO\\U+00C7A_2
 62
     0
 10
128.47390189873531
 20
204.0379638888891
 30
0.0
  0
VERTEX
  5
144E
  8
IMPORT_-_CARRO\\U+00C7A_2
 62
     0
 10
130.21521300984651
 20
205.3739333333335
 30
0.0
  0
VERTEX
  5
144F
  8
IMPORT_-_CARRO\\U+00C7A_2
 62
     0
 10
132.24262689873541
 20
206.21354444444461
 30
0.0
  0
VERTEX
  5
1450
  8
IMPORT_-_CARRO\\U+00C7A_2
 62
     0
 10
134.4185602320687
 20
206.50000000000011
 30
0.0
  0
VERTEX
  5
1451
  8
IMPORT_-_CARRO\\U+00C7A_2
 62
     0
 10
136.5941407876243
 20
206.21354444444461
 30
0.0
  0
VERTEX
  5
1452
  8
IMPORT_-_CARRO\\U+00C7A_2
 62
     0
 10
138.62190745429089
 20
205.3739333333335
 30
0.0
  0
VERTEX
  5
1453
  8
IMPORT_-_CARRO\\U+00C7A_2
 62
     0
 10
140.3628657876242
 20
204.0379638888891
 30
0.0
  0
VERTEX
  5
1454
  8
IMPORT_-_CARRO\\U+00C7A_2
 62
     0
 10
141.6988352320686
 20
202.29665277777781
 30
0.0
  0
VERTEX
  5
1455
  8
IMPORT_-_CARRO\\U+00C7A_2
 62
     0
 10
142.53879912095749
 20
200.26923888888899
 30
0.0
  0
VERTEX
  5
1456
  8
IMPORT_-_CARRO\\U+00C7A_2
 62
     0
 10
142.6276991209576
 20
199.59331666666671
 30
0.0
  0
VERTEX
  5
1457
  8
IMPORT_-_CARRO\\U+00C7A_2
 62
     0
 10
134.4185602320687
 20
199.59331666666671
 30
0.0
  0
VERTEX
  5
1458
  8
IMPORT_-_CARRO\\U+00C7A_2
 62
     0
 10
134.4185602320687
 20
196.5932944444445
 30
0.0
  0
VERTEX
  5
1459
  8
IMPORT_-_CARRO\\U+00C7A_2
 62
     0
 10
142.6276991209576
 20
196.5932944444445
 30
0.0
  0
VERTEX
  5
145A
  8
IMPORT_-_CARRO\\U+00C7A_2
 62
     0
 10
142.53879912095749
 20
195.9177250000001
 30
0.0
  0
VERTEX
  5
145B
  8
IMPORT_-_CARRO\\U+00C7A_2
 62
     0
 10
141.6988352320686
 20
193.89031111111109
 30
0.0
  0
VERTEX
  5
145C
  8
IMPORT_-_CARRO\\U+00C7A_2
 62
     0
 10
140.3628657876242
 20
192.14900000000009
 30
0.0
  0
VERTEX
  5
145D
  8
IMPORT_-_CARRO\\U+00C7A_2
 62
     0
 10
138.62190745429089
 20
190.81303055555571
 30
0.0
  0
VERTEX
  5
145E
  8
IMPORT_-_CARRO\\U+00C7A_2
 62
     0
 10
136.5941407876243
 20
189.9730666666668
 30
0.0
  0
VERTEX
  5
145F
  8
IMPORT_-_CARRO\\U+00C7A_2
 62
     0
 10
134.4185602320687
 20
189.6866111111112
 30
0.0
  0
VERTEX
  5
1460
  8
IMPORT_-_CARRO\\U+00C7A_2
 62
     0
 10
132.24262689873541
 20
189.9730666666668
 30
0.0
  0
VERTEX
  5
1461
  8
IMPORT_-_CARRO\\U+00C7A_2
 62
     0
 10
130.21521300984651
 20
190.81303055555571
 30
0.0
  0
VERTEX
  5
1462
  8
IMPORT_-_CARRO\\U+00C7A_2
 62
     0
 10
128.47390189873531
 20
192.14900000000009
 30
0.0
  0
VERTEX
  5
1463
  8
IMPORT_-_CARRO\\U+00C7A_2
 62
     0
 10
127.137932454291
 20
193.89031111111109
 30
0.0
  0
VERTEX
  5
1464
  8
IMPORT_-_CARRO\\U+00C7A_2
 62
     0
 10
126.29832134317969
 20
195.9177250000001
 30
0.0
  0
VERTEX
  5
1465
  8
IMPORT_-_CARRO\\U+00C7A_2
 62
     0
 10
126.0118657876243
 20
198.09330555555559
 30
0.0
  0
SEQEND
  5
1466
  8
IMPORT_-_CARRO\\U+00C7A_2
 62
     0
  0
POLYLINE
  5
7C
  8
IMPORT_-_CARRO\\U+00C7A_2
 62
     0
 66
     1
 10
0.0
 20
0.0
 30
0.0
 70
     1
  0
VERTEX
  5
1467
  8
IMPORT_-_CARRO\\U+00C7A_2
 62
     0
 10
135.4185602320687
 20
225.58145087904231
 30
0.0
  0
VERTEX
  5
1468
  8
IMPORT_-_CARRO\\U+00C7A_2
 62
     0
 10
135.4185602320687
 20
222.58142865682001
 30
0.0
  0
VERTEX
  5
1469
  8
IMPORT_-_CARRO\\U+00C7A_2
 62
     0
 10
143.6276991209576
 20
222.58142865682001
 30
0.0
  0
VERTEX
  5
146A
  8
IMPORT_-_CARRO\\U+00C7A_2
 62
     0
 10
143.53879912095749
 20
221.9055064345977
 30
0.0
  0
VERTEX
  5
146B
  8
IMPORT_-_CARRO\\U+00C7A_2
 62
     0
 10
142.6988352320686
 20
219.87809254570899
 30
0.0
  0
VERTEX
  5
146C
  8
IMPORT_-_CARRO\\U+00C7A_2
 62
     0
 10
141.3628657876242
 20
218.13678143459771
 30
0.0
  0
VERTEX
  5
146D
  8
IMPORT_-_CARRO\\U+00C7A_2
 62
     0
 10
139.62190745429089
 20
216.80081199015319
 30
0.0
  0
VERTEX
  5
146E
  8
IMPORT_-_CARRO\\U+00C7A_2
 62
     0
 10
137.5944935654019
 20
215.9612008790422
 30
0.0
  0
VERTEX
  5
146F
  8
IMPORT_-_CARRO\\U+00C7A_2
 62
     0
 10
135.4185602320687
 20
215.67474532348669
 30
0.0
  0
VERTEX
  5
1470
  8
IMPORT_-_CARRO\\U+00C7A_2
 62
     0
 10
133.24297967651319
 20
215.9612008790422
 30
0.0
  0
VERTEX
  5
1471
  8
IMPORT_-_CARRO\\U+00C7A_2
 62
     0
 10
131.21521300984651
 20
216.80081199015319
 30
0.0
  0
VERTEX
  5
1472
  8
IMPORT_-_CARRO\\U+00C7A_2
 62
     0
 10
129.4742546765132
 20
218.13678143459771
 30
0.0
  0
VERTEX
  5
1473
  8
IMPORT_-_CARRO\\U+00C7A_2
 62
     0
 10
128.1382852320686
 20
219.87809254570899
 30
0.0
  0
VERTEX
  5
1474
  8
IMPORT_-_CARRO\\U+00C7A_2
 62
     0
 10
127.29832134317969
 20
221.9055064345977
 30
0.0
  0
VERTEX
  5
1475
  8
IMPORT_-_CARRO\\U+00C7A_2
 62
     0
 10
127.0118657876243
 20
224.08143976793119
 30
0.0
  0
VERTEX
  5
1476
  8
IMPORT_-_CARRO\\U+00C7A_2
 62
     0
 10
127.29832134317969
 20
226.25702032348661
 30
0.0
  0
VERTEX
  5
1477
  8
IMPORT_-_CARRO\\U+00C7A_2
 62
     0
 10
128.1382852320686
 20
228.2844342123756
 30
0.0
  0
VERTEX
  5
1478
  8
IMPORT_-_CARRO\\U+00C7A_2
 62
     0
 10
129.4742546765132
 20
230.02574532348669
 30
0.0
  0
VERTEX
  5
1479
  8
IMPORT_-_CARRO\\U+00C7A_2
 62
     0
 10
131.21521300984651
 20
231.36171476793109
 30
0.0
  0
VERTEX
  5
147A
  8
IMPORT_-_CARRO\\U+00C7A_2
 62
     0
 10
133.24297967651319
 20
232.20167865682001
 30
0.0
  0
VERTEX
  5
147B
  8
IMPORT_-_CARRO\\U+00C7A_2
 62
     0
 10
135.4185602320687
 20
232.48813421237551
 30
0.0
  0
VERTEX
  5
147C
  8
IMPORT_-_CARRO\\U+00C7A_2
 62
     0
 10
137.5944935654019
 20
232.20167865682001
 30
0.0
  0
VERTEX
  5
147D
  8
IMPORT_-_CARRO\\U+00C7A_2
 62
     0
 10
139.62190745429089
 20
231.36171476793109
 30
0.0
  0
VERTEX
  5
147E
  8
IMPORT_-_CARRO\\U+00C7A_2
 62
     0
 10
141.3628657876242
 20
230.02574532348669
 30
0.0
  0
VERTEX
  5
147F
  8
IMPORT_-_CARRO\\U+00C7A_2
 62
     0
 10
142.6988352320686
 20
228.2844342123756
 30
0.0
  0
VERTEX
  5
1480
  8
IMPORT_-_CARRO\\U+00C7A_2
 62
     0
 10
143.53879912095749
 20
226.25702032348661
 30
0.0
  0
VERTEX
  5
1481
  8
IMPORT_-_CARRO\\U+00C7A_2
 62
     0
 10
143.6276991209576
 20
225.58145087904231
 30
0.0
  0
SEQEND
  5
1482
  8
IMPORT_-_CARRO\\U+00C7A_2
 62
     0
  0
ENDSEC
  0
EOF
